  0
SECTION
  2
HEADER
  9
$ACADVER
  1
AC1014
  9
$ACADMAINTVER
 70
     9
  9
$DWGCODEPAGE
  3
ANSI_932
  9
$INSBASE
 10
0.0
 20
0.0
 30
0.0
  9
$EXTMIN
 10
47.30046278926147
 20
57.44019796454717
 30
0.0
  9
$EXTMAX
 10
726.970733390754
 20
347.5176682526058
 30
0.0
  9
$LIMMIN
 10
0.0
 20
0.0
  9
$LIMMAX
 10
297.0
 20
210.0
  9
$ORTHOMODE
 70
     1
  9
$REGENMODE
 70
     1
  9
$FILLMODE
 70
     1
  9
$QTEXTMODE
 70
     0
  9
$MIRRTEXT
 70
     0
  9
$DRAGMODE
 70
     2
  9
$LTSCALE
 40
2.0
  9
$OSMODE
 70
    37
  9
$ATTMODE
 70
     1
  9
$TEXTSIZE
 40
2.0
  9
$TRACEWID
 40
1.0
  9
$TEXTSTYLE
  7
STANDARD
  9
$CLAYER
  8
0
  9
$CELTYPE
  6
BYLAYER
  9
$CECOLOR
 62
   256
  9
$CELTSCALE
 40
1.0
  9
$DELOBJ
 70
     1
  9
$DISPSILH
 70
     0
  9
$DIMSCALE
 40
2.0
  9
$DIMASZ
 40
1.8
  9
$DIMEXO
 40
0.625
  9
$DIMDLI
 40
3.75
  9
$DIMRND
 40
0.0
  9
$DIMDLE
 40
0.0
  9
$DIMEXE
 40
0.8
  9
$DIMTP
 40
0.0
  9
$DIMTM
 40
0.0
  9
$DIMTXT
 40
1.8
  9
$DIMCEN
 40
2.5
  9
$DIMTSZ
 40
0.0
  9
$DIMTOL
 70
     0
  9
$DIMLIM
 70
     0
  9
$DIMTIH
 70
     0
  9
$DIMTOH
 70
     0
  9
$DIMSE1
 70
     0
  9
$DIMSE2
 70
     0
  9
$DIMTAD
 70
     1
  9
$DIMZIN
 70
     8
  9
$DIMBLK
  1

  9
$DIMASO
 70
     1
  9
$DIMSHO
 70
     1
  9
$DIMPOST
  1

  9
$DIMAPOST
  1

  9
$DIMALT
 70
     0
  9
$DIMALTD
 70
     4
  9
$DIMALTF
 40
0.0394
  9
$DIMLFAC
 40
1.0
  9
$DIMTOFL
 70
     1
  9
$DIMTVP
 40
0.0
  9
$DIMTIX
 70
     0
  9
$DIMSOXD
 70
     0
  9
$DIMSAH
 70
     0
  9
$DIMBLK1
  1

  9
$DIMBLK2
  1

  9
$DIMSTYLE
  2
STANDARD
  9
$DIMCLRD
 70
     0
  9
$DIMCLRE
 70
     0
  9
$DIMCLRT
 70
     0
  9
$DIMTFAC
 40
1.0
  9
$DIMGAP
 40
0.75
  9
$DIMJUST
 70
     0
  9
$DIMSD1
 70
     0
  9
$DIMSD2
 70
     0
  9
$DIMTOLJ
 70
     1
  9
$DIMTZIN
 70
     0
  9
$DIMALTZ
 70
     0
  9
$DIMALTTZ
 70
     0
  9
$DIMFIT
 70
     3
  9
$DIMUPT
 70
     0
  9
$DIMUNIT
 70
     8
  9
$DIMDEC
 70
     2
  9
$DIMTDEC
 70
     2
  9
$DIMALTU
 70
     8
  9
$DIMALTTD
 70
     4
  9
$DIMTXSTY
  7
STANDARD
  9
$DIMAUNIT
 70
     0
  9
$LUNITS
 70
     2
  9
$LUPREC
 70
     3
  9
$SKETCHINC
 40
1.0
  9
$FILLETRAD
 40
10.0
  9
$AUNITS
 70
     0
  9
$AUPREC
 70
     2
  9
$MENU
  1
.
  9
$ELEVATION
 40
0.0
  9
$PELEVATION
 40
0.0
  9
$THICKNESS
 40
0.0
  9
$LIMCHECK
 70
     0
  9
$BLIPMODE
 70
     0
  9
$CHAMFERA
 40
0.0
  9
$CHAMFERB
 40
0.0
  9
$CHAMFERC
 40
20.0
  9
$CHAMFERD
 40
0.0
  9
$SKPOLY
 70
     0
  9
$TDCREATE
 40
2454407.733270752
  9
$TDUPDATE
 40
2454425.731279838
  9
$TDINDWG
 40
0.0412879745
  9
$TDUSRTIMER
 40
0.0412879745
  9
$USRTIMER
 70
     1
  9
$ANGBASE
 50
0.0
  9
$ANGDIR
 70
     0
  9
$PDMODE
 70
     0
  9
$PDSIZE
 40
-10.0
  9
$PLINEWID
 40
0.0
  9
$COORDS
 70
     0
  9
$SPLFRAME
 70
     0
  9
$SPLINETYPE
 70
     6
  9
$SPLINESEGS
 70
     8
  9
$ATTDIA
 70
     0
  9
$ATTREQ
 70
     1
  9
$HANDLING
 70
-16383
  9
$HANDSEED
  5
36EA
  9
$SURFTAB1
 70
     6
  9
$SURFTAB2
 70
     6
  9
$SURFTYPE
 70
     6
  9
$SURFU
 70
     6
  9
$SURFV
 70
     6
  9
$UCSNAME
  2

  9
$UCSORG
 10
0.0
 20
0.0
 30
0.0
  9
$UCSXDIR
 10
1.0
 20
0.0
 30
0.0
  9
$UCSYDIR
 10
0.0
 20
1.0
 30
0.0
  9
$PUCSNAME
  2

  9
$PUCSORG
 10
0.0
 20
0.0
 30
0.0
  9
$PUCSXDIR
 10
1.0
 20
0.0
 30
0.0
  9
$PUCSYDIR
 10
0.0
 20
1.0
 30
0.0
  9
$USERI1
 70
     0
  9
$USERI2
 70
     0
  9
$USERI3
 70
     0
  9
$USERI4
 70
     0
  9
$USERI5
 70
     0
  9
$USERR1
 40
0.0
  9
$USERR2
 40
0.0
  9
$USERR3
 40
0.0
  9
$USERR4
 40
0.0
  9
$USERR5
 40
0.0
  9
$WORLDVIEW
 70
     1
  9
$SHADEDGE
 70
     3
  9
$SHADEDIF
 70
    70
  9
$TILEMODE
 70
     1
  9
$MAXACTVP
 70
    48
  9
$PINSBASE
 10
0.0
 20
0.0
 30
0.0
  9
$PLIMCHECK
 70
     0
  9
$PEXTMIN
 10
0.0
 20
0.0
 30
0.0
  9
$PEXTMAX
 10
0.0
 20
0.0
 30
0.0
  9
$PLIMMIN
 10
0.0
 20
0.0
  9
$PLIMMAX
 10
12.0
 20
9.0
  9
$UNITMODE
 70
     0
  9
$VISRETAIN
 70
     1
  9
$PLINEGEN
 70
     0
  9
$PSLTSCALE
 70
     1
  9
$TREEDEPTH
 70
  3020
  9
$PICKSTYLE
 70
     1
  9
$CMLSTYLE
  2
STANDARD
  9
$CMLJUST
 70
     0
  9
$CMLSCALE
 40
1.0
  9
$PROXYGRAPHICS
 70
     1
  9
$MEASUREMENT
 70
     0
  0
ENDSEC
  0
SECTION
  2
CLASSES
  0
CLASS
  1
DICTIONARYVAR
  2
AcDbDictionaryVar
  3
AutoCAD 2000
 90
        0
280
     0
281
     0
  0
CLASS
  1
ACDBDICTIONARYWDFLT
  2
AcDbDictionaryWithDefault
  3
AutoCAD 2000
 90
        0
280
     0
281
     0
  0
CLASS
  1
ACDBPLACEHOLDER
  2
AcDbPlaceHolder
  3
AutoCAD 2000
 90
        0
280
     0
281
     0
  0
CLASS
  1
LAYOUT
  2
AcDbLayout
  3
AutoCAD 2000
 90
        0
280
     0
281
     0
  0
CLASS
  1
MATERIAL
  2
AcDbMaterial
  3
ObjectDBX Classes
 90
     1153
280
     0
281
     0
  0
CLASS
  1
VISUALSTYLE
  2
AcDbVisualStyle
  3
ObjectDBX Classes
 90
     4095
280
     0
281
     0
  0
CLASS
  1
TABLESTYLE
  2
AcDbTableStyle
  3
ObjectDBX Classes
 90
     4095
280
     0
281
     0
  0
CLASS
  1
SCALE
  2
AcDbScale
  3
ObjectDBX Classes
 90
     1153
280
     0
281
     0
  0
CLASS
  1
MLEADERSTYLE
  2
AcDbMLeaderStyle
  3
ACDB_MLEADERSTYLE_CLASS
 90
     4095
280
     0
281
     0
  0
CLASS
  1
CELLSTYLEMAP
  2
AcDbCellStyleMap
  3
ObjectDBX Classes
 90
     1152
280
     0
281
     0
  0
CLASS
  1
ACAD_PROXY_OBJECT_WRAPPER
  2
AcDbProxyObjectWrapper
  3
AutoCAD 2000
 90
        0
280
     0
281
     0
  0
CLASS
  1
LONG_TRANSACTION
  2
AcDbLongTransaction
  3
AutoCAD 2000
 90
        0
280
     0
281
     0
  0
CLASS
  1
LWPOLYLINE
  2
AcDbPolyline
  3
AutoCAD 2000
 90
        0
280
     0
281
     1
  0
CLASS
  1
HATCH
  2
AcDbHatch
  3
AutoCAD 2000
 90
        0
280
     0
281
     1
  0
CLASS
  1
XRECORD
  2
AcDbXrecord
  3
AutoCAD 2000
 90
        0
280
     0
281
     0
  0
ENDSEC
  0
SECTION
  2
TABLES
  0
TABLE
  2
VPORT
  5
6E
102
{ACAD_XDICTIONARY
360
1F12
102
}
330
0
100
AcDbSymbolTable
 70
     2
  0
VPORT
  5
36C4
330
6E
100
AcDbSymbolTableRecord
100
AcDbViewportTableRecord
  2
*ACTIVE
 70
     0
 10
0.0
 20
0.0
 11
1.0
 21
1.0
 12
399.304113414937
 22
195.3540758046675
 13
0.0
 23
0.0
 14
10.0
 24
10.0
 15
10.0
 25
10.0
 16
0.0
 26
0.0
 36
1.0
 17
0.0
 27
0.0
 37
0.0
 40
403.0789115287708
 41
1.753504672897196
 42
50.0
 43
0.0
 44
0.0
 50
0.0
 51
0.0
 71
     0
 72
   100
 73
     1
 74
     3
 75
     0
 76
     0
 77
     0
 78
     0
  0
ENDTAB
  0
TABLE
  2
LTYPE
  5
69
330
0
100
AcDbSymbolTable
 70
     5
  0
LTYPE
  5
6A
330
69
100
AcDbSymbolTableRecord
100
AcDbLinetypeTableRecord
  2
BYBLOCK
 70
     0
  3

 72
    65
 73
     0
 40
0.0
  0
LTYPE
  5
6B
330
69
100
AcDbSymbolTableRecord
100
AcDbLinetypeTableRecord
  2
BYLAYER
 70
     0
  3

 72
    65
 73
     0
 40
0.0
  0
LTYPE
  5
8
330
69
100
AcDbSymbolTableRecord
100
AcDbLinetypeTableRecord
  2
CONTINUOUS
 70
     0
  3
Solid line
 72
    65
 73
     0
 40
0.0
  0
LTYPE
  5
27C
330
69
100
AcDbSymbolTableRecord
100
AcDbLinetypeTableRecord
  2
SEKKEI_A2_
 70
     0
  3
center(A2)  ____ _ ____ _ ____ _ ____ _ ____ _ 
 72
    65
 73
     4
 40
14.28749999999999
 49
9.525
 74
     0
 49
-1.587499999999999
 74
     0
 49
1.587499999999999
 74
     0
 49
-1.587499999999999
 74
     0
  0
LTYPE
  5
7F0
330
69
100
AcDbSymbolTableRecord
100
AcDbLinetypeTableRecord
  2
HIDDEN3
 70
     0
  3
Hidden (.3x) _ _ _ _ _ _ _ _ _ _ _ _ _ _ _ _ _
 72
    65
 73
     2
 40
2.857499999999999
 49
1.905
 74
     0
 49
-0.9525
 74
     0
  0
LTYPE
  5
AFF
330
69
100
AcDbSymbolTableRecord
100
AcDbLinetypeTableRecord
  2
CENS
 70
     0
  3
(一点鎖線１)---- - ---- - ---- - ---- - ---- - 
 72
    65
 73
     4
 40
7.0
 49
4.0
 74
     0
 49
-1.0
 74
     0
 49
1.0
 74
     0
 49
-1.0
 74
     0
  0
ENDTAB
  0
TABLE
  2
LAYER
  5
66
102
{ACAD_XDICTIONARY
360
B00
102
}
330
0
100
AcDbSymbolTable
 70
     9
  0
LAYER
  5
5E
102
{ACAD_XDICTIONARY
360
1EF5
102
}
330
66
100
AcDbSymbolTableRecord
100
AcDbLayerTableRecord
  2
0
 70
     0
 62
     7
  6
CONTINUOUS
  0
LAYER
  5
3E
102
{ACAD_XDICTIONARY
360
1EF7
102
}
330
66
100
AcDbSymbolTableRecord
100
AcDbLayerTableRecord
  2
CENTER
 70
     0
 62
     3
  6
SEKKEI_A2_
  0
LAYER
  5
2B5
102
{ACAD_XDICTIONARY
360
1EFD
102
}
330
66
100
AcDbSymbolTableRecord
100
AcDbLayerTableRecord
  2
HIDS
 70
     0
 62
     1
  6
HIDDEN3
  0
LAYER
  5
2BA
102
{ACAD_XDICTIONARY
360
1EFF
102
}
330
66
100
AcDbSymbolTableRecord
100
AcDbLayerTableRecord
  2
HOJO
 70
     0
 62
     4
  6
CONTINUOUS
  0
LAYER
  5
3FA
102
{ACAD_XDICTIONARY
360
1F03
102
}
330
66
100
AcDbSymbolTableRecord
100
AcDbLayerTableRecord
  2
TITLE
 70
     0
 62
     4
  6
CONTINUOUS
  0
ENDTAB
  0
TABLE
  2
STYLE
  5
67
330
0
100
AcDbSymbolTable
 70
     1
  0
STYLE
  5
16
330
67
100
AcDbSymbolTableRecord
100
AcDbTextStyleTableRecord
  2
STANDARD
 70
     0
 40
0.0
 41
1.0
 50
0.0
 71
     0
 42
2.0
  3
simplex.shx
  4
extfont.shx
  0
ENDTAB
  0
TABLE
  2
VIEW
  5
6C
330
0
100
AcDbSymbolTable
 70
     0
  0
ENDTAB
  0
TABLE
  2
UCS
  5
6D
330
0
100
AcDbSymbolTable
 70
     0
  0
ENDTAB
  0
TABLE
  2
APPID
  5
70
330
0
100
AcDbSymbolTable
 70
     3
  0
APPID
  5
71
330
70
100
AcDbSymbolTableRecord
100
AcDbRegAppTableRecord
  2
ACAD
 70
     0
  0
APPID
  5
192B
330
70
100
AcDbSymbolTableRecord
100
AcDbRegAppTableRecord
  2
ACAD_MLEADERVER
 70
     0
  0
APPID
  5
1EF3
330
70
100
AcDbSymbolTableRecord
100
AcDbRegAppTableRecord
  2
ACAD_DSTYLE_DIMRADIAL_EXTENSION
 70
     0
  0
ENDTAB
  0
TABLE
  2
DIMSTYLE
  5
72
330
0
100
AcDbSymbolTable
 70
     1
  0
DIMSTYLE
105
73
330
72
100
AcDbSymbolTableRecord
100
AcDbDimStyleTableRecord
  2
STANDARD
 70
     0
  3

  4

  5

  6

  7

 40
2.0
 41
1.8
 42
0.625
 43
3.75
 44
0.8
 45
0.0
 46
0.0
 47
0.0
 48
0.0
140
1.8
141
2.5
142
0.0
143
0.0394
144
1.0
145
0.0
146
1.0
147
0.75
 71
     0
 72
     0
 73
     0
 74
     0
 75
     0
 76
     0
 77
     1
 78
     8
170
     0
171
     4
172
     1
173
     0
174
     0
175
     0
176
     0
177
     0
178
     0
270
     8
271
     2
272
     2
273
     8
274
     4
340
16
275
     0
280
     0
281
     0
282
     0
283
     1
284
     0
285
     0
286
     0
287
     3
288
     0
  0
ENDTAB
  0
TABLE
  2
BLOCK_RECORD
  5
1
330
0
100
AcDbSymbolTable
 70
    43
  0
BLOCK_RECORD
  5
2
102
{ACAD_XDICTIONARY
360
36E6
102
}
330
1
100
AcDbSymbolTableRecord
100
AcDbBlockTableRecord
  2
*MODEL_SPACE
  0
BLOCK_RECORD
  5
36BF
102
{ACAD_XDICTIONARY
360
36E8
102
}
330
1
100
AcDbSymbolTableRecord
100
AcDbBlockTableRecord
  2
*PAPER_SPACE
  0
ENDTAB
  0
ENDSEC
  0
SECTION
  2
BLOCKS
  0
BLOCK
  5
5D
330
2
100
AcDbEntity
  8
0
100
AcDbBlockBegin
  2
*MODEL_SPACE
 70
     0
 10
0.0
 20
0.0
 30
0.0
  3
*MODEL_SPACE
  1

  0
ENDBLK
  5
5F
330
2
100
AcDbEntity
  8
0
100
AcDbBlockEnd
  0
BLOCK
  5
36C1
330
36BF
100
AcDbEntity
 67
     1
  8
0
100
AcDbBlockBegin
  2
*PAPER_SPACE
 70
     0
 10
0.0
 20
0.0
 30
0.0
  3
*PAPER_SPACE
  1

  0
ENDBLK
  5
36C2
330
36BF
100
AcDbEntity
 67
     1
  8
0
100
AcDbBlockEnd
  0
ENDSEC
  0
SECTION
  2
ENTITIES
  0
LINE
  5
F5A
330
2
100
AcDbEntity
  8
CENTER
100
AcDbLine
 10
408.0337840950119
 20
102.4401979645465
 30
0.0
 11
563.0337840950151
 21
102.4401979645458
 31
0.0
  0
LINE
  5
F5C
330
2
100
AcDbEntity
  8
CENTER
100
AcDbLine
 10
726.970733390754
 20
102.4401979645363
 30
0.0
 11
609.9707333907505
 21
102.4401979645363
 31
0.0
  0
LINE
  5
F5D
330
2
100
AcDbEntity
  8
CENTER
100
AcDbLine
 10
681.9707333907504
 20
140.9401979645365
 30
0.0
 11
681.9707333907506
 21
63.94019796453585
 31
0.0
  0
LINE
  5
F5E
330
2
100
AcDbEntity
  8
CENTER
100
AcDbLine
 10
415.199594581501
 20
304.5176682526043
 30
0.0
 11
563.0337840950144
 21
304.5176682526041
 31
0.0
  0
LINE
  5
F6D
330
2
100
AcDbEntity
  8
0
100
AcDbLine
 10
518.0337840950128
 20
335.5176682548308
 30
0.0
 11
518.0337840950165
 21
273.5176682548317
 31
0.0
  0
LINE
  5
F8B
330
2
100
AcDbEntity
  8
0
100
AcDbLine
 10
645.9707333907476
 20
77.44019796454267
 30
0.0
 11
645.9707333907476
 21
127.4401979645426
 31
0.0
  0
LINE
  5
F8C
330
2
100
AcDbEntity
  8
0
100
AcDbLine
 10
648.9707333907476
 20
127.4401979645426
 30
0.0
 11
645.9707333907476
 21
127.4401979645426
 31
0.0
  0
LINE
  5
F8D
330
2
100
AcDbEntity
  8
0
100
AcDbLine
 10
648.9707333907476
 20
77.44019796454267
 30
0.0
 11
645.9707333907476
 21
77.44019796454267
 31
0.0
  0
LINE
  5
F8E
330
2
100
AcDbEntity
  8
0
100
AcDbLine
 10
712.9707333907512
 20
130.4881948681541
 30
0.0
 11
712.9707333907504
 21
74.39220106091807
 31
0.0
  0
LINE
  5
F8F
330
2
100
AcDbEntity
  8
0
100
AcDbLine
 10
650.9707333907504
 20
130.4881948681543
 30
0.0
 11
650.9707333907504
 21
74.39220106091807
 31
0.0
  0
LINE
  5
F90
330
2
100
AcDbEntity
  8
0
100
AcDbLine
 10
648.9707333907504
 20
132.9820374055166
 30
0.0
 11
648.9707333907504
 21
71.89835852354486
 31
0.0
  0
LINE
  5
FB1
330
2
100
AcDbEntity
  8
0
100
AcDbLine
 10
518.0337840950146
 20
133.9401979645463
 30
0.0
 11
518.0337840950146
 21
70.94019796454722
 31
0.0
  0
LINE
  5
FCC
330
2
100
AcDbEntity
  8
0
100
AcDbLine
 10
710.0191141949067
 20
71.39259120332145
 30
0.0
 11
681.9707333907504
 21
70.94019796453586
 31
0.0
  0
ARC
  5
FCD
330
2
100
AcDbEntity
  8
0
100
AcDbCircle
 10
709.9707333907503
 20
74.39220106091807
 30
0.0
 40
3.0
100
AcDbArc
 50
270.9240453527669
 51
0.0
  0
LINE
  5
FCE
330
2
100
AcDbEntity
  8
0
100
AcDbLine
 10
653.922352586595
 20
71.39259120332145
 30
0.0
 11
681.9707333907504
 21
70.94019796453586
 31
0.0
  0
ARC
  5
FCF
330
2
100
AcDbEntity
  8
0
100
AcDbCircle
 10
653.9707333907504
 20
74.39220106091807
 30
0.0
 40
3.0
100
AcDbArc
 50
180.0
 51
269.0759546471809
  0
LINE
  5
FD0
330
2
100
AcDbEntity
  8
0
100
AcDbLine
 10
710.0191141949067
 20
133.4878047257507
 30
0.0
 11
681.9707333907504
 21
133.9401979645363
 31
0.0
  0
LINE
  5
FD1
330
2
100
AcDbEntity
  8
0
100
AcDbLine
 10
653.922352586595
 20
133.4878047257507
 30
0.0
 11
681.9707333907504
 21
133.9401979645363
 31
0.0
  0
ARC
  5
FD2
330
2
100
AcDbEntity
  8
0
100
AcDbCircle
 10
709.9707333907513
 20
130.4881948681541
 30
0.0
 40
3.0
100
AcDbArc
 50
0.0
 51
89.07595464718097
  0
ARC
  5
FD3
330
2
100
AcDbEntity
  8
0
100
AcDbCircle
 10
653.9707333907504
 20
130.4881948681543
 30
0.0
 40
3.0
100
AcDbArc
 50
90.9240453527669
 51
180.0
  0
LINE
  5
FDC
330
2
100
AcDbEntity
  8
0
100
AcDbLine
 10
638.9707333907486
 20
122.5088204149249
 30
0.0
 11
638.9707333907486
 21
82.37157551414453
 31
0.0
  0
LINE
  5
FDD
330
2
100
AcDbEntity
  8
0
100
AcDbLine
 10
644.0405323841537
 20
80.26315668251276
 30
0.0
 11
640.9009343973434
 21
80.37279386010665
 31
0.0
  0
ARC
  5
FDE
330
2
100
AcDbEntity
  8
0
100
AcDbCircle
 10
643.9707333907485
 20
78.26437502847489
 30
0.0
 40
2.0
100
AcDbArc
 50
0.0
 51
87.99999999999636
  0
ARC
  5
FDF
330
2
100
AcDbEntity
  8
0
100
AcDbCircle
 10
640.9707333907485
 20
82.37157551414453
 30
0.0
 40
2.0
100
AcDbArc
 50
180.0
 51
267.9999999999963
  0
LINE
  5
FE0
330
2
100
AcDbEntity
  8
0
100
AcDbLine
 10
644.0405323841773
 20
124.617239246553
 30
0.0
 11
640.9009343973671
 21
124.5076020689618
 31
0.0
  0
ARC
  5
FE1
330
2
100
AcDbEntity
  8
0
100
AcDbCircle
 10
643.970733390774
 20
126.6160209005909
 30
0.0
 40
2.0
100
AcDbArc
 50
271.9999999999515
 51
359.9999999999478
  0
ARC
  5
FE2
330
2
100
AcDbEntity
  8
0
100
AcDbCircle
 10
640.9707333907695
 20
122.5088204149249
 30
0.0
 40
2.0
100
AcDbArc
 50
91.99999999995149
 51
179.9999999999479
  0
LINE
  5
FEA
330
2
100
AcDbEntity
  8
0
100
AcDbLine
 10
652.34812018616
 20
133.0115114135585
 30
0.0
 11
648.9707333907504
 21
132.9820374055166
 31
0.0
  0
LINE
  5
FEB
330
2
100
AcDbEntity
  8
0
100
AcDbLine
 10
652.3481201861609
 20
71.8688845155018
 30
0.0
 11
648.9707333907504
 21
71.89835852354486
 31
0.0
  0
LINE
  5
100D
330
2
100
AcDbEntity
  8
CENTER
100
AcDbLine
 10
195.3004627892619
 20
102.4401979645467
 30
0.0
 11
47.30046278926147
 21
102.4401979645467
 31
0.0
  0
LINE
  5
100F
330
2
100
AcDbEntity
  8
0
100
AcDbLine
 10
92.30046278926193
 20
70.94019796454677
 30
0.0
 11
92.30046278926193
 21
133.9401979645458
 31
0.0
  0
LINE
  5
10E2
330
2
100
AcDbEntity
  8
0
100
AcDbLine
 10
717.970733390755
 20
124.8628476953472
 30
0.0
 11
717.970733390755
 21
80.01754823372493
 31
0.0
  0
LINE
  5
10E3
330
2
100
AcDbEntity
  8
0
100
AcDbLine
 10
713.2707333907542
 20
125.4401979645363
 30
0.0
 11
712.9707333907512
 21
125.4401979645363
 31
0.0
  0
LINE
  5
10E4
330
2
100
AcDbEntity
  8
0
100
AcDbLine
 10
716.970733390754
 20
125.4401979645367
 30
0.0
 11
717.970733390755
 21
124.8628476953472
 31
0.0
  0
LINE
  5
10E5
330
2
100
AcDbEntity
  8
0
100
AcDbLine
 10
713.4707333907549
 20
125.240197964536
 30
0.0
 11
713.2707333907542
 21
125.4401979645363
 31
0.0
  0
LINE
  5
10E6
330
2
100
AcDbEntity
  8
0
100
AcDbLine
 10
716.9707333907549
 20
125.4401979645367
 30
0.0
 11
715.6707333907538
 21
125.4401979645363
 31
0.0
  0
LINE
  5
10E7
330
2
100
AcDbEntity
  8
0
100
AcDbLine
 10
715.4707333907549
 20
125.2401979645364
 30
0.0
 11
715.4707333907549
 21
79.64019796453545
 31
0.0
  0
LINE
  5
10E8
330
2
100
AcDbEntity
  8
0
100
AcDbLine
 10
715.2707333907542
 20
124.7401979645365
 30
0.0
 11
713.6707333907538
 21
124.7401979645362
 31
0.0
  0
LINE
  5
10E9
330
2
100
AcDbEntity
  8
0
100
AcDbLine
 10
713.4707333907549
 20
125.240197964536
 30
0.0
 11
713.4707333907549
 21
79.64019796453567
 31
0.0
  0
LINE
  5
10EA
330
2
100
AcDbEntity
  8
0
100
AcDbLine
 10
713.2707333907542
 20
79.44019796453585
 30
0.0
 11
712.9707333907504
 21
79.44019796453585
 31
0.0
  0
LINE
  5
10EB
330
2
100
AcDbEntity
  8
0
100
AcDbLine
 10
715.2707333907542
 20
80.14019796453544
 30
0.0
 11
713.6707333907538
 21
80.14019796453567
 31
0.0
  0
LINE
  5
10EC
330
2
100
AcDbEntity
  8
0
100
AcDbLine
 10
713.4707333907549
 20
79.64019796453567
 30
0.0
 11
713.2707333907542
 21
79.44019796453585
 31
0.0
  0
LINE
  5
10ED
330
2
100
AcDbEntity
  8
0
100
AcDbLine
 10
716.970733390754
 20
79.4401979645354
 30
0.0
 11
717.970733390755
 21
80.01754823372493
 31
0.0
  0
LINE
  5
10EE
330
2
100
AcDbEntity
  8
0
100
AcDbLine
 10
716.9707333907549
 20
79.4401979645354
 30
0.0
 11
715.6707333907538
 21
79.4401979645354
 31
0.0
  0
ARC
  5
10EF
330
2
100
AcDbEntity
  8
0
100
AcDbCircle
 10
715.6707333907538
 20
79.64019796453545
 30
0.0
 40
0.2
100
AcDbArc
 50
180.0
 51
270.0
  0
ARC
  5
10F0
330
2
100
AcDbEntity
  8
0
100
AcDbCircle
 10
715.2707333907542
 20
79.9401979645354
 30
0.0
 40
0.2
100
AcDbArc
 50
0.0
 51
90.0
  0
ARC
  5
10F1
330
2
100
AcDbEntity
  8
0
100
AcDbCircle
 10
713.6707333907538
 20
79.94019796453585
 30
0.0
 40
0.2
100
AcDbArc
 50
90.0
 51
180.0
  0
ARC
  5
10F2
330
2
100
AcDbEntity
  8
0
100
AcDbCircle
 10
715.6707333907538
 20
125.2401979645364
 30
0.0
 40
0.2
100
AcDbArc
 50
90.0
 51
180.0
  0
ARC
  5
10F3
330
2
100
AcDbEntity
  8
0
100
AcDbCircle
 10
715.2707333907542
 20
124.9401979645365
 30
0.0
 40
0.2
100
AcDbArc
 50
270.0
 51
0.0
  0
ARC
  5
10F4
330
2
100
AcDbEntity
  8
0
100
AcDbCircle
 10
713.6707333907538
 20
124.9401979645363
 30
0.0
 40
0.2
100
AcDbArc
 50
180.0
 51
270.0
  0
LINE
  5
10F5
330
2
100
AcDbEntity
  8
0
100
AcDbLine
 10
716.970733390754
 20
125.4401979645367
 30
0.0
 11
716.970733390754
 21
79.4401979645354
 31
0.0
  0
LINE
  5
10F6
330
2
100
AcDbEntity
  8
0
100
AcDbLine
 10
713.2707333907542
 20
79.44019796453585
 30
0.0
 11
713.2707333907542
 21
125.4401979645363
 31
0.0
  0
LINE
  5
1168
330
2
100
AcDbEntity
  8
0
100
AcDbLine
 10
713.4707333907567
 20
72.19019796453244
 30
0.0
 11
712.0081784485396
 21
72.19019796453221
 31
0.0
  0
LINE
  5
1169
330
2
100
AcDbEntity
  8
0
100
AcDbLine
 10
713.4707333907567
 20
80.69019796453245
 30
0.0
 11
713.4707333907567
 21
72.19019796453244
 31
0.0
  0
LINE
  5
116A
330
2
100
AcDbEntity
  8
0
100
AcDbLine
 10
713.4707333907567
 20
72.19019796453244
 30
0.0
 11
713.7707333907578
 21
72.70981320680334
 31
0.0
  0
LINE
  5
116B
330
2
100
AcDbEntity
  8
0
100
AcDbLine
 10
713.7707333907578
 20
80.14019796453567
 30
0.0
 11
713.7707333907578
 21
72.70981320680334
 31
0.0
  0
LINE
  5
116C
330
2
100
AcDbEntity
  8
0
100
AcDbLine
 10
713.4707333907567
 20
132.6901979645397
 30
0.0
 11
712.0081784485396
 21
132.6901979645394
 31
0.0
  0
LINE
  5
116D
330
2
100
AcDbEntity
  8
0
100
AcDbLine
 10
713.4707333907567
 20
124.1901979645397
 30
0.0
 11
713.4707333907567
 21
132.6901979645397
 31
0.0
  0
LINE
  5
116E
330
2
100
AcDbEntity
  8
0
100
AcDbLine
 10
713.4707333907567
 20
132.6901979645397
 30
0.0
 11
713.7707333907578
 21
132.1705827222688
 31
0.0
  0
LINE
  5
116F
330
2
100
AcDbEntity
  8
0
100
AcDbLine
 10
713.7707333907569
 20
124.7401979645365
 30
0.0
 11
713.7707333907578
 21
132.1705827222688
 31
0.0
  0
ARC
  5
1251
330
2
100
AcDbEntity
  8
0
100
AcDbCircle
 10
681.97073339075
 20
102.4401979645351
 30
0.0
 40
27.00000000000004
100
AcDbArc
 50
133.6028189727171
 51
260.4059317731351
  0
LINE
  5
1252
330
2
100
AcDbEntity
  8
0
100
AcDbLine
 10
699.9707333907499
 20
77.44019796453518
 30
0.0
 11
699.9707333907499
 21
81.44019796453518
 31
0.0
  0
LINE
  5
1253
330
2
100
AcDbEntity
  8
0
100
AcDbLine
 10
709.9707333907503
 20
71.44019796453517
 30
0.0
 11
653.9707333907499
 21
71.44019796453517
 31
0.0
  0
LINE
  5
1254
330
2
100
AcDbEntity
  8
0
100
AcDbLine
 10
679.1750809005379
 20
75.44019796453517
 30
0.0
 11
697.9707333907499
 21
75.44019796453517
 31
0.0
  0
ARC
  5
1255
330
2
100
AcDbEntity
  8
0
100
AcDbCircle
 10
653.9707333907499
 20
74.44019796453517
 30
0.0
 40
3.0
100
AcDbArc
 50
180.0
 51
270.0
  0
ARC
  5
1256
330
2
100
AcDbEntity
  8
0
100
AcDbCircle
 10
697.9707333907499
 20
77.44019796453518
 30
0.0
 40
2.0
100
AcDbArc
 50
270.0
 51
0.0
  0
ARC
  5
1257
330
2
100
AcDbEntity
  8
0
100
AcDbCircle
 10
709.9707333907503
 20
74.44019796453517
 30
0.0
 40
3.0
100
AcDbArc
 50
270.0
 51
0.0
  0
LINE
  5
1258
330
2
100
AcDbEntity
  8
0
100
AcDbLine
 10
653.9227365022362
 20
133.4401979645351
 30
0.0
 11
667.7845927291182
 21
133.4401979645372
 31
0.0
  0
LINE
  5
1259
330
2
100
AcDbEntity
  8
0
100
AcDbLine
 10
680.1568740523762
 20
133.440197964539
 30
0.0
 11
709.9707333907499
 21
133.4401979645433
 31
0.0
  0
CIRCLE
  5
125A
330
2
100
AcDbEntity
  8
0
100
AcDbCircle
 10
681.97073339075
 20
102.4401979645351
 30
0.0
 40
14.99999999999994
  0
LINE
  5
125B
330
2
100
AcDbEntity
  8
0
100
AcDbLine
 10
665.9707333907499
 20
122.4401979645351
 30
0.0
 11
697.970733390749
 21
122.4401979645351
 31
0.0
  0
LINE
  5
125C
330
2
100
AcDbEntity
  8
0
100
AcDbLine
 10
697.970733390749
 20
82.44019796453518
 30
0.0
 11
665.9707333907499
 21
82.44019796453518
 31
0.0
  0
ARC
  5
125D
330
2
100
AcDbEntity
  8
0
100
AcDbCircle
 10
681.97073339075
 20
102.4401979645351
 30
0.0
 40
27.00000000000004
100
AcDbArc
 50
313.602818972717
 51
80.40593177313521
  0
LINE
  5
125E
330
2
100
AcDbEntity
  8
0
100
AcDbLine
 10
661.9707333907499
 20
86.44019796453518
 30
0.0
 11
661.9707333907499
 21
118.4401979645351
 31
0.0
  0
ARC
  5
125F
330
2
100
AcDbEntity
  8
0
100
AcDbCircle
 10
665.9707333907499
 20
86.44019796453518
 30
0.0
 40
4.0
100
AcDbArc
 50
180.0
 51
270.0
  0
LINE
  5
1260
330
2
100
AcDbEntity
  8
0
100
AcDbLine
 10
684.7663858809619
 20
129.4401979645351
 30
0.0
 11
665.9707333907499
 21
129.4401979645351
 31
0.0
  0
LINE
  5
1261
330
2
100
AcDbEntity
  8
0
100
AcDbLine
 10
663.9707333907499
 20
127.4401979645351
 30
0.0
 11
663.9707333907499
 21
123.4401979645351
 31
0.0
  0
ARC
  5
1262
330
2
100
AcDbEntity
  8
0
100
AcDbCircle
 10
661.9707333907499
 20
123.4401979645351
 30
0.0
 40
2.0
100
AcDbArc
 50
313.602818972717
 51
0.0
  0
ARC
  5
1263
330
2
100
AcDbEntity
  8
0
100
AcDbCircle
 10
665.9707333907499
 20
118.4401979645351
 30
0.0
 40
4.0
100
AcDbArc
 50
90.0
 51
180.0
  0
ARC
  5
1264
330
2
100
AcDbEntity
  8
0
100
AcDbCircle
 10
653.9707333907499
 20
130.4401979645351
 30
0.0
 40
3.0
100
AcDbArc
 50
90.0
 51
180.0
  0
ARC
  5
1265
330
2
100
AcDbEntity
  8
0
100
AcDbCircle
 10
665.9707333907499
 20
127.4401979645351
 30
0.0
 40
2.0
100
AcDbArc
 50
90.0
 51
180.0
  0
LINE
  5
1266
330
2
100
AcDbEntity
  8
0
100
AcDbLine
 10
701.970733390749
 20
118.4401979645351
 30
0.0
 11
701.970733390749
 21
86.44019796453518
 31
0.0
  0
ARC
  5
1267
330
2
100
AcDbEntity
  8
0
100
AcDbCircle
 10
701.9707333907499
 20
81.44019796453518
 30
0.0
 40
2.0
100
AcDbArc
 50
133.6028189727171
 51
180.0
  0
ARC
  5
1268
330
2
100
AcDbEntity
  8
0
100
AcDbCircle
 10
697.970733390749
 20
86.44019796453518
 30
0.0
 40
4.0
100
AcDbArc
 50
270.0
 51
0.0
  0
ARC
  5
1269
330
2
100
AcDbEntity
  8
0
100
AcDbCircle
 10
697.970733390749
 20
118.4401979645351
 30
0.0
 40
4.0
100
AcDbArc
 50
0.0
 51
90.0
  0
ARC
  5
126A
330
2
100
AcDbEntity
  8
0
100
AcDbCircle
 10
709.9707333907503
 20
130.4401979645351
 30
0.0
 40
3.0
100
AcDbArc
 50
0.0
 51
90.00000000001303
  0
ARC
  5
126B
330
2
100
AcDbEntity
  8
0
100
AcDbCircle
 10
679.1750809005379
 20
78.44019796453517
 30
0.0
 40
3.0
100
AcDbArc
 50
248.4451812910238
 51
270.0
  0
ARC
  5
126C
330
2
100
AcDbEntity
  8
0
100
AcDbCircle
 10
676.9707333907499
 20
72.85979904903729
 30
0.0
 40
3.0
100
AcDbArc
 50
68.44518129102394
 51
80.40593177313521
  0
ARC
  5
126D
330
2
100
AcDbEntity
  8
0
100
AcDbCircle
 10
684.7663858809619
 20
126.4401979645356
 30
0.0
 40
3.0
100
AcDbArc
 50
68.44518129102394
 51
90.0
  0
ARC
  5
126E
330
2
100
AcDbEntity
  8
0
100
AcDbCircle
 10
686.9707333907499
 20
132.0205968800335
 30
0.0
 40
3.0
100
AcDbArc
 50
248.4451812910238
 51
260.4059317731351
  0
LINE
  5
126F
330
2
100
AcDbEntity
  8
HIDS
100
AcDbLine
 10
679.72073339075
 20
129.4401979645351
 30
0.0
 11
679.72073339075
 21
119.7949523563431
 31
0.0
  0
LINE
  5
1270
330
2
100
AcDbEntity
  8
HIDS
100
AcDbLine
 10
668.2207333907499
 20
129.4401979645351
 30
0.0
 11
668.2207333907499
 21
113.2655155118397
 31
0.0
  0
CIRCLE
  5
1271
330
2
100
AcDbEntity
  8
HIDS
100
AcDbCircle
 10
681.97073339075
 20
102.4401979645351
 30
0.0
 40
17.4999999999992
  0
CIRCLE
  5
1272
330
2
100
AcDbEntity
  8
0
100
AcDbCircle
 10
655.1006757056612
 20
129.3102556496239
 30
0.0
 40
1.732050807568871
  0
LWPOLYLINE
  5
1273
330
2
100
AcDbEntity
  8
0
100
AcDbPolyline
 90
        6
 70
     1
 43
0.0
 10
656.6006757056611
 20
130.1762810534085
 10
655.1006757056612
 20
131.042306457193
 10
653.6006757056611
 20
130.1762810534085
 10
653.6006757056611
 20
128.4442302458398
 10
655.1006757056612
 20
127.5782048420553
 10
656.6006757056611
 20
128.4442302458398
  0
CIRCLE
  5
1274
330
2
100
AcDbEntity
  8
0
100
AcDbCircle
 10
655.1006757056612
 20
129.3102556496239
 30
0.0
 40
3.499999999999717
  0
CIRCLE
  5
1275
330
2
100
AcDbEntity
  8
0
100
AcDbCircle
 10
655.1006757056612
 20
129.3102556496239
 30
0.0
 40
2.980384757729353
  0
CIRCLE
  5
1276
330
2
100
AcDbEntity
  8
0
100
AcDbCircle
 10
708.8407910758387
 20
129.3102556496239
 30
0.0
 40
1.732050807568871
  0
LWPOLYLINE
  5
1277
330
2
100
AcDbEntity
  8
0
100
AcDbPolyline
 90
        6
 70
     1
 43
0.0
 10
710.3407910758387
 20
130.1762810534085
 10
708.8407910758387
 20
131.042306457193
 10
707.3407910758387
 20
130.1762810534085
 10
707.3407910758387
 20
128.4442302458398
 10
708.8407910758387
 20
127.5782048420553
 10
710.3407910758387
 20
128.4442302458398
  0
CIRCLE
  5
1278
330
2
100
AcDbEntity
  8
0
100
AcDbCircle
 10
708.8407910758387
 20
129.3102556496239
 30
0.0
 40
3.499999999999717
  0
CIRCLE
  5
1279
330
2
100
AcDbEntity
  8
0
100
AcDbCircle
 10
708.8407910758387
 20
129.3102556496239
 30
0.0
 40
2.980384757729353
  0
CIRCLE
  5
127A
330
2
100
AcDbEntity
  8
0
100
AcDbCircle
 10
708.8407910758387
 20
75.57014027944638
 30
0.0
 40
1.732050807568871
  0
LWPOLYLINE
  5
127B
330
2
100
AcDbEntity
  8
0
100
AcDbPolyline
 90
        6
 70
     1
 43
0.0
 10
710.3407910758387
 20
76.43616568323091
 10
708.8407910758387
 20
77.30219108701544
 10
707.3407910758387
 20
76.43616568323091
 10
707.3407910758387
 20
74.7041148756623
 10
708.8407910758387
 20
73.83808947187777
 10
710.3407910758387
 20
74.7041148756623
  0
CIRCLE
  5
127C
330
2
100
AcDbEntity
  8
0
100
AcDbCircle
 10
708.8407910758387
 20
75.57014027944638
 30
0.0
 40
3.499999999999717
  0
CIRCLE
  5
127D
330
2
100
AcDbEntity
  8
0
100
AcDbCircle
 10
708.8407910758387
 20
75.57014027944638
 30
0.0
 40
2.980384757729353
  0
CIRCLE
  5
127E
330
2
100
AcDbEntity
  8
0
100
AcDbCircle
 10
655.1006757056612
 20
75.57014027944638
 30
0.0
 40
1.732050807568871
  0
LWPOLYLINE
  5
127F
330
2
100
AcDbEntity
  8
0
100
AcDbPolyline
 90
        6
 70
     1
 43
0.0
 10
656.6006757056611
 20
76.43616568323091
 10
655.1006757056612
 20
77.30219108701544
 10
653.6006757056611
 20
76.43616568323091
 10
653.6006757056611
 20
74.7041148756623
 10
655.1006757056612
 20
73.83808947187777
 10
656.6006757056611
 20
74.7041148756623
  0
CIRCLE
  5
1280
330
2
100
AcDbEntity
  8
0
100
AcDbCircle
 10
655.1006757056612
 20
75.57014027944638
 30
0.0
 40
3.499999999999717
  0
CIRCLE
  5
1281
330
2
100
AcDbEntity
  8
0
100
AcDbCircle
 10
655.1006757056612
 20
75.57014027944638
 30
0.0
 40
2.980384757729353
  0
LINE
  5
1282
330
2
100
AcDbEntity
  8
CENTER
100
AcDbLine
 10
655.1006757056612
 20
135.1429447322209
 30
0.0
 11
655.1006757056612
 21
123.4775665670269
 31
0.0
  0
LINE
  5
1283
330
2
100
AcDbEntity
  8
CENTER
100
AcDbLine
 10
649.2679866230641
 20
129.3102556496239
 30
0.0
 11
660.9333647882581
 21
129.3102556496239
 31
0.0
  0
LINE
  5
1284
330
2
100
AcDbEntity
  8
CENTER
100
AcDbLine
 10
708.8407910758387
 20
135.1429447322213
 30
0.0
 11
708.8407910758387
 21
123.4775665670274
 31
0.0
  0
LINE
  5
1285
330
2
100
AcDbEntity
  8
CENTER
100
AcDbLine
 10
703.0081019932417
 20
129.3102556496239
 30
0.0
 11
714.6734801584357
 21
129.3102556496239
 31
0.0
  0
LINE
  5
1286
330
2
100
AcDbEntity
  8
CENTER
100
AcDbLine
 10
708.8407910758387
 20
81.4028293620438
 30
0.0
 11
708.8407910758387
 21
69.73745119684986
 31
0.0
  0
LINE
  5
1287
330
2
100
AcDbEntity
  8
CENTER
100
AcDbLine
 10
703.0081019932417
 20
75.57014027944638
 30
0.0
 11
714.6734801584357
 21
75.57014027944638
 31
0.0
  0
LINE
  5
1288
330
2
100
AcDbEntity
  8
CENTER
100
AcDbLine
 10
655.1006757056612
 20
81.4028293620438
 30
0.0
 11
655.1006757056612
 21
69.73745119684986
 31
0.0
  0
LINE
  5
1289
330
2
100
AcDbEntity
  8
CENTER
100
AcDbLine
 10
649.2679866230641
 20
75.57014027944638
 30
0.0
 11
660.9333647882581
 21
75.57014027944638
 31
0.0
  0
LINE
  5
128B
330
2
100
AcDbEntity
  8
0
100
AcDbLine
 10
669.7437141301129
 20
103.190197964536
 30
0.0
 11
678.0416749793748
 21
103.190197964536
 31
0.0
  0
LINE
  5
128C
330
2
100
AcDbEntity
  8
0
100
AcDbLine
 10
669.7437141301129
 20
101.690197964536
 30
0.0
 11
678.0416749793748
 21
101.690197964536
 31
0.0
  0
LINE
  5
128D
330
2
100
AcDbEntity
  8
0
100
AcDbLine
 10
694.1977526513879
 20
101.690197964536
 30
0.0
 11
685.8997918021259
 21
101.690197964536
 31
0.0
  0
LINE
  5
128E
330
2
100
AcDbEntity
  8
0
100
AcDbLine
 10
685.8997918021259
 20
103.190197964536
 30
0.0
 11
694.1977526513879
 21
103.190197964536
 31
0.0
  0
CIRCLE
  5
128F
330
2
100
AcDbEntity
  8
0
100
AcDbCircle
 10
681.9707333907504
 20
102.440197964536
 30
0.0
 40
3.999999999998976
  0
ARC
  5
1290
330
2
100
AcDbEntity
  8
0
100
AcDbCircle
 10
681.9707333907504
 20
102.440197964536
 30
0.0
 40
4.577350269188627
100
AcDbArc
 50
189.4304498503441
 51
350.5695501496558
  0
ARC
  5
1291
330
2
100
AcDbEntity
  8
0
100
AcDbCircle
 10
681.9707333907504
 20
102.440197964536
 30
0.0
 40
4.577350269188627
100
AcDbArc
 50
9.430449850344171
 51
170.5695501496425
  0
LINE
  5
1292
330
2
100
AcDbEntity
  8
HIDS
100
AcDbLine
 10
670.7875987675779
 20
107.440197964536
 30
0.0
 11
677.4707333907509
 21
107.440197964536
 31
0.0
  0
LINE
  5
1293
330
2
100
AcDbEntity
  8
0
100
AcDbLine
 10
670.4707333907508
 20
111.1401979645363
 30
0.0
 11
673.3467841793972
 21
111.1401979645363
 31
0.0
  0
LINE
  5
1294
330
2
100
AcDbEntity
  8
0
100
AcDbLine
 10
670.4707333907508
 20
111.1401979645363
 30
0.0
 11
670.9903486330213
 21
111.440197964536
 31
0.0
  0
LINE
  5
1295
330
2
100
AcDbEntity
  8
HIDS
100
AcDbLine
 10
670.7875987675779
 20
107.440197964536
 30
0.0
 11
677.9707333907508
 21
107.440197964536
 31
0.0
  0
LINE
  5
1296
330
2
100
AcDbEntity
  8
0
100
AcDbLine
 10
670.4707333907508
 20
111.1401979645363
 30
0.0
 11
670.4707333907508
 21
107.440197964536
 31
0.0
  0
LINE
  5
1297
330
2
100
AcDbEntity
  8
HIDS
100
AcDbLine
 10
671.9707333907508
 20
107.440197964536
 30
0.0
 11
672.3040667240844
 21
105.7735312978695
 31
0.0
  0
LINE
  5
1298
330
2
100
AcDbEntity
  8
HIDS
100
AcDbLine
 10
675.9707333907508
 20
107.440197964536
 30
0.0
 11
675.6374000574173
 21
105.7735312978695
 31
0.0
  0
LINE
  5
1299
330
2
100
AcDbEntity
  8
HIDS
100
AcDbLine
 10
675.9707333907508
 20
107.440197964536
 30
0.0
 11
675.9707333907508
 21
103.190197964536
 31
0.0
  0
LINE
  5
129A
330
2
100
AcDbEntity
  8
HIDS
100
AcDbLine
 10
671.9707333907508
 20
107.440197964536
 30
0.0
 11
671.9707333907508
 21
103.190197964536
 31
0.0
  0
LINE
  5
129B
330
2
100
AcDbEntity
  8
HIDS
100
AcDbLine
 10
671.4707333907508
 20
107.440197964536
 30
0.0
 11
671.4707333907508
 21
103.190197964536
 31
0.0
  0
LINE
  5
129C
330
2
100
AcDbEntity
  8
HIDS
100
AcDbLine
 10
676.4707333907509
 20
107.440197964536
 30
0.0
 11
676.4707333907509
 21
103.190197964536
 31
0.0
  0
LINE
  5
129D
330
2
100
AcDbEntity
  8
CENTER
  6
CENS
100
AcDbLine
 10
673.9707333907508
 20
136.127196355126
 30
0.0
 11
673.9707333907508
 21
89.08102328698602
 31
0.0
  0
LINE
  5
129E
330
2
100
AcDbEntity
  8
HIDS
100
AcDbLine
 10
675.9707333907508
 20
101.690197964536
 30
0.0
 11
675.9707333907508
 21
93.24019796453626
 31
0.0
  0
LINE
  5
129F
330
2
100
AcDbEntity
  8
HIDS
100
AcDbLine
 10
675.6374000574173
 20
101.690197964536
 30
0.0
 11
675.6374000574173
 21
92.90686463120279
 31
0.0
  0
LINE
  5
12A0
330
2
100
AcDbEntity
  8
HIDS
100
AcDbLine
 10
672.3040667240844
 20
101.690197964536
 30
0.0
 11
672.3040667240844
 21
94.91570093446421
 31
0.0
  0
LINE
  5
12A1
330
2
100
AcDbEntity
  8
0
100
AcDbLine
 10
671.9707333907508
 20
95.36471211549338
 30
0.0
 11
671.9707333907508
 21
93.24019796453626
 31
0.0
  0
LINE
  5
12A2
330
2
100
AcDbEntity
  8
HIDS
100
AcDbLine
 10
675.9707333907508
 20
101.690197964536
 30
0.0
 11
675.9707333907508
 21
91.76019328288907
 31
0.0
  0
LINE
  5
12A3
330
2
100
AcDbEntity
  8
HIDS
100
AcDbLine
 10
675.9707333907508
 20
93.24019796453626
 30
0.0
 11
673.9707333907508
 21
93.24019796453626
 31
0.0
  0
LINE
  5
12A4
330
2
100
AcDbEntity
  8
0
100
AcDbLine
 10
675.1707333907506
 20
92.44019796453608
 30
0.0
 11
674.8952475417081
 21
92.44019796453608
 31
0.0
  0
LINE
  5
12A5
330
2
100
AcDbEntity
  8
HOJO
100
AcDbLine
 10
672.3040667240844
 20
94.91570093446421
 30
0.0
 11
672.3040667240844
 21
92.90686463120279
 31
0.0
  0
LINE
  5
12A6
330
2
100
AcDbEntity
  8
0
100
AcDbLine
 10
672.770733390751
 20
92.44019796453608
 30
0.0
 11
674.8952475417081
 21
92.44019796453608
 31
0.0
  0
LINE
  5
12A7
330
2
100
AcDbEntity
  8
0
100
AcDbLine
 10
671.9707333907508
 20
93.24019796453626
 30
0.0
 11
673.8823157457472
 21
93.24019796453626
 31
0.0
  0
LINE
  5
12A8
330
2
100
AcDbEntity
  8
0
100
AcDbLine
 10
673.8823157457472
 20
93.24019796453626
 30
0.0
 11
673.9707333907508
 21
93.24019796453626
 31
0.0
  0
LINE
  5
12A9
330
2
100
AcDbEntity
  8
0
100
AcDbLine
 10
671.9707333907508
 20
93.24019796453626
 30
0.0
 11
672.770733390751
 21
92.44019796453608
 31
0.0
  0
LINE
  5
12AA
330
2
100
AcDbEntity
  8
HIDS
100
AcDbLine
 10
675.9707333907508
 20
93.24019796453626
 30
0.0
 11
675.1707333907506
 21
92.44019796453608
 31
0.0
  0
LINE
  5
12AB
330
2
100
AcDbEntity
  8
HIDS
100
AcDbLine
 10
671.9707333907508
 20
101.690197964536
 30
0.0
 11
671.9707333907508
 21
95.36471211549338
 31
0.0
  0
LINE
  5
12AC
330
2
100
AcDbEntity
  8
HIDS
100
AcDbLine
 10
671.9707333907508
 20
101.690197964536
 30
0.0
 11
671.9707333907508
 21
95.36471211549338
 31
0.0
  0
LINE
  5
12AD
330
2
100
AcDbEntity
  8
HIDS
100
AcDbLine
 10
675.9707333907508
 20
105.7735312978695
 30
0.0
 11
671.9707333907508
 21
105.7735312978695
 31
0.0
  0
LINE
  5
12AE
330
2
100
AcDbEntity
  8
HOJO
100
AcDbLine
 10
672.3040667240844
 20
103.190197964536
 30
0.0
 11
672.3040667240844
 21
101.690197964536
 31
0.0
  0
LINE
  5
12AF
330
2
100
AcDbEntity
  8
0
100
AcDbLine
 10
671.9707333907508
 20
103.190197964536
 30
0.0
 11
671.9707333907508
 21
101.690197964536
 31
0.0
  0
LINE
  5
12B0
330
2
100
AcDbEntity
  8
HIDS
100
AcDbLine
 10
672.3040667240844
 20
105.7735312978695
 30
0.0
 11
672.3040667240844
 21
103.190197964536
 31
0.0
  0
LINE
  5
12B1
330
2
100
AcDbEntity
  8
HOJO
100
AcDbLine
 10
675.6374000574173
 20
103.190197964536
 30
0.0
 11
675.6374000574173
 21
101.690197964536
 31
0.0
  0
LINE
  5
12B2
330
2
100
AcDbEntity
  8
0
100
AcDbLine
 10
675.9707333907508
 20
103.190197964536
 30
0.0
 11
675.9707333907508
 21
101.690197964536
 31
0.0
  0
LINE
  5
12B3
330
2
100
AcDbEntity
  8
HIDS
100
AcDbLine
 10
675.6374000574173
 20
105.7735312978695
 30
0.0
 11
675.6374000574173
 21
103.190197964536
 31
0.0
  0
LINE
  5
12B4
330
2
100
AcDbEntity
  8
HIDS
100
AcDbLine
 10
677.9707333907508
 20
114.0187341414455
 30
0.0
 11
677.9707333907508
 21
107.440197964536
 31
0.0
  0
LINE
  5
12B5
330
2
100
AcDbEntity
  8
HIDS
100
AcDbLine
 10
673.3467841793972
 20
111.1401979645363
 30
0.0
 11
677.4707333907509
 21
111.1401979645363
 31
0.0
  0
LINE
  5
12B6
330
2
100
AcDbEntity
  8
HIDS
100
AcDbLine
 10
676.95111814848
 20
111.440197964536
 30
0.0
 11
673.6603483214535
 21
111.440197964536
 31
0.0
  0
LINE
  5
12B7
330
2
100
AcDbEntity
  8
0
100
AcDbLine
 10
673.660348321453
 20
111.440197964536
 30
0.0
 11
670.9903486330213
 21
111.440197964536
 31
0.0
  0
LINE
  5
12B8
330
2
100
AcDbEntity
  8
HIDS
100
AcDbLine
 10
677.4707333907509
 20
107.440197964536
 30
0.0
 11
677.4707333907509
 21
111.1401979645363
 31
0.0
  0
LINE
  5
12B9
330
2
100
AcDbEntity
  8
HIDS
100
AcDbLine
 10
676.95111814848
 20
111.440197964536
 30
0.0
 11
677.4707333907509
 21
111.1401979645363
 31
0.0
  0
LINE
  5
12BA
330
2
100
AcDbEntity
  8
0
100
AcDbLine
 10
670.4707333907508
 20
107.440197964536
 30
0.0
 11
670.7875987675779
 21
107.440197964536
 31
0.0
  0
LINE
  5
12BB
330
2
100
AcDbEntity
  8
0
100
AcDbLine
 10
682.9707333907499
 20
129.440197964536
 30
0.0
 11
664.97073339075
 21
129.440197964536
 31
0.0
  0
CIRCLE
  5
12BD
330
2
100
AcDbEntity
  8
0
100
AcDbCircle
 10
698.234189358041
 20
118.7036539318266
 30
0.0
 40
1.5
  0
CIRCLE
  5
12BE
330
2
100
AcDbEntity
  8
HOJO
100
AcDbCircle
 10
698.234189358041
 20
118.7036539318266
 30
0.0
 40
2.0
  0
LINE
  5
12BF
330
2
100
AcDbEntity
  8
CENTER
100
AcDbLine
 10
698.234189358041
 20
121.7036539318266
 30
0.0
 11
698.234189358041
 21
115.7036539318266
 31
0.0
  0
LINE
  5
12C0
330
2
100
AcDbEntity
  8
CENTER
100
AcDbLine
 10
695.234189358041
 20
118.7036539318266
 30
0.0
 11
701.234189358041
 21
118.7036539318266
 31
0.0
  0
CIRCLE
  5
12C1
330
2
100
AcDbEntity
  8
HOJO
100
AcDbCircle
 10
665.7072774234598
 20
118.7036539318266
 30
0.0
 40
2.0
  0
CIRCLE
  5
12C2
330
2
100
AcDbEntity
  8
0
100
AcDbCircle
 10
665.7072774234598
 20
118.7036539318266
 30
0.0
 40
1.5
  0
LINE
  5
12C3
330
2
100
AcDbEntity
  8
CENTER
100
AcDbLine
 10
662.7072774234598
 20
118.7036539318266
 30
0.0
 11
668.7072774234597
 21
118.7036539318266
 31
0.0
  0
LINE
  5
12C4
330
2
100
AcDbEntity
  8
CENTER
100
AcDbLine
 10
665.7072774234598
 20
115.7036539318266
 30
0.0
 11
665.7072774234598
 21
121.7036539318266
 31
0.0
  0
CIRCLE
  5
12C5
330
2
100
AcDbEntity
  8
0
100
AcDbCircle
 10
665.7072774234598
 20
86.17674199724547
 30
0.0
 40
1.5
  0
CIRCLE
  5
12C6
330
2
100
AcDbEntity
  8
HOJO
100
AcDbCircle
 10
665.7072774234598
 20
86.17674199724547
 30
0.0
 40
2.0
  0
LINE
  5
12C7
330
2
100
AcDbEntity
  8
CENTER
100
AcDbLine
 10
665.7072774234598
 20
83.17674199724548
 30
0.0
 11
665.7072774234598
 21
89.17674199724547
 31
0.0
  0
LINE
  5
12C8
330
2
100
AcDbEntity
  8
CENTER
100
AcDbLine
 10
668.7072774234597
 20
86.17674199724547
 30
0.0
 11
662.7072774234598
 21
86.17674199724547
 31
0.0
  0
LINE
  5
12C9
330
2
100
AcDbEntity
  8
CENTER
100
AcDbLine
 10
701.234189358041
 20
86.17674199724547
 30
0.0
 11
695.234189358041
 21
86.17674199724547
 31
0.0
  0
CIRCLE
  5
12CA
330
2
100
AcDbEntity
  8
0
100
AcDbCircle
 10
698.234189358041
 20
86.17674199724547
 30
0.0
 40
1.5
  0
CIRCLE
  5
12CB
330
2
100
AcDbEntity
  8
HOJO
100
AcDbCircle
 10
698.234189358041
 20
86.17674199724547
 30
0.0
 40
2.0
  0
LINE
  5
12CC
330
2
100
AcDbEntity
  8
CENTER
100
AcDbLine
 10
698.234189358041
 20
89.17674199724547
 30
0.0
 11
698.234189358041
 21
83.17674199724548
 31
0.0
  0
CIRCLE
  5
12CD
330
2
100
AcDbEntity
  8
CENTER
100
AcDbCircle
 10
681.9707333907504
 20
102.440197964536
 30
0.0
 40
23.00000000000006
  0
LINE
  5
12CE
330
2
100
AcDbEntity
  8
0
100
AcDbLine
 10
669.2207333907499
 20
133.690197964536
 30
0.0
 11
678.7207333907499
 21
133.690197964536
 31
0.0
  0
ARC
  5
12CF
330
2
100
AcDbEntity
  8
0
100
AcDbCircle
 10
669.2207333907499
 20
129.440197964536
 30
0.0
 40
4.25
100
AcDbArc
 50
90.0
 51
180.0
  0
ARC
  5
12D0
330
2
100
AcDbEntity
  8
0
100
AcDbCircle
 10
678.7207333907499
 20
129.440197964536
 30
0.0
 40
4.25
100
AcDbArc
 50
0.0
 51
90.0
  0
LINE
  5
12D1
330
2
100
AcDbEntity
  8
0
100
AcDbLine
 10
551.0686889078892
 20
129.4744988286277
 30
0.0
 11
531.033784095015
 21
129.8242093929673
 31
0.0
  0
LINE
  5
12D2
330
2
100
AcDbEntity
  8
0
100
AcDbLine
 10
553.0337840950141
 20
119.6053979804012
 30
0.0
 11
553.0337840950151
 21
127.4748034383148
 31
0.0
  0
LINE
  5
12D3
330
2
100
AcDbEntity
  8
0
100
AcDbLine
 10
554.9814301983988
 20
122.4677548211459
 30
0.0
 11
556.033784095015
 21
122.440197964546
 31
0.0
  0
ARC
  5
12D4
330
2
100
AcDbEntity
  8
0
100
AcDbCircle
 10
551.0337840950151
 20
127.4748034383148
 30
0.0
 40
2.0
100
AcDbArc
 50
0.0
 51
88.99999999999822
  0
LINE
  5
12D5
330
2
100
AcDbEntity
  8
0
100
AcDbLine
 10
518.0337840950146
 20
133.440197964546
 30
0.0
 11
525.0425106305133
 21
133.3790337346893
 31
0.0
  0
ARC
  5
12D6
330
2
100
AcDbEntity
  8
0
100
AcDbCircle
 10
525.0337840950151
 20
132.3790718116254
 30
0.0
 40
1.0
100
AcDbArc
 50
0.0
 51
89.49999999999542
  0
LINE
  5
12D7
330
2
100
AcDbEntity
  8
0
100
AcDbLine
 10
526.0337840950151
 20
132.3790718116254
 30
0.0
 11
526.0337840950146
 21
109.7640839830385
 31
0.0
  0
ARC
  5
12D8
330
2
100
AcDbEntity
  8
0
100
AcDbCircle
 10
529.0047572844692
 20
132.8600831718178
 30
0.0
 40
3.0
100
AcDbArc
 50
186.9066949159437
 51
187.9767771032989
  0
LINE
  5
12D9
330
2
100
AcDbEntity
  8
0
100
AcDbLine
 10
556.033784095015
 20
122.440197964546
 30
0.0
 11
556.033784095015
 21
82.44019796454608
 31
0.0
  0
ARC
  5
12DA
330
2
100
AcDbEntity
  8
0
100
AcDbCircle
 10
555.0337840950146
 20
124.4670694710973
 30
0.0
 40
2.0
100
AcDbArc
 50
180.0
 51
268.4999999999972
  0
LINE
  5
12DB
330
2
100
AcDbEntity
  8
CENTER
  6
CENS
100
AcDbLine
 10
544.0337840936713
 20
136.127196355126
 30
0.0
 11
544.0337840936713
 21
117.0354688981231
 31
0.0
  0
LINE
  5
12DC
330
2
100
AcDbEntity
  8
0
100
AcDbLine
 10
551.0686889078892
 20
75.40589710046493
 30
0.0
 11
531.033784095015
 21
75.05618653612533
 31
0.0
  0
LINE
  5
12DD
330
2
100
AcDbEntity
  8
0
100
AcDbLine
 10
554.9814301983988
 20
82.41264110794622
 30
0.0
 11
556.033784095015
 21
82.44019796454608
 31
0.0
  0
ARC
  5
12DE
330
2
100
AcDbEntity
  8
0
100
AcDbCircle
 10
551.0337840950151
 20
77.40559249077773
 30
0.0
 40
2.0
100
AcDbArc
 50
271.0000000000017
 51
0.0
  0
LINE
  5
12DF
330
2
100
AcDbEntity
  8
0
100
AcDbLine
 10
518.0337840950146
 20
71.44019796454609
 30
0.0
 11
525.0425106305129
 21
71.50136219440287
 31
0.0
  0
ARC
  5
12E0
330
2
100
AcDbEntity
  8
0
100
AcDbCircle
 10
525.0337840950146
 20
72.50132411746722
 30
0.0
 40
1.0
100
AcDbArc
 50
270.5000000000045
 51
0.0
  0
ARC
  5
12E1
330
2
100
AcDbEntity
  8
0
100
AcDbCircle
 10
529.0047572844692
 20
72.02031275727427
 30
0.0
 40
3.0
100
AcDbArc
 50
172.0232228967141
 51
173.0933050840432
  0
ARC
  5
12E2
330
2
100
AcDbEntity
  8
0
100
AcDbCircle
 10
555.0337840950146
 20
80.41332645799526
 30
0.0
 40
2.0
100
AcDbArc
 50
91.50000000000272
 51
180.0
  0
LINE
  5
12E3
330
2
100
AcDbEntity
  8
0
100
AcDbLine
 10
552.0337840950114
 20
122.0038213413402
 30
0.0
 11
527.0337840950146
 21
122.4401979645456
 31
0.0
  0
SPLINE
  5
12E4
330
2
100
AcDbEntity
  8
HOJO
100
AcDbSpline
210
0.0
220
0.0
230
1.0
 70
     8
 71
     3
 72
    15
 73
    11
 74
     0
 42
0.0000000001
 43
0.0000000001
 40
1.229586671925319
 40
1.229586671925319
 40
1.229586671925319
 40
1.229586671925319
 40
9.059721493801909
 40
14.01454332224558
 40
17.68854249089321
 40
25.49282471102274
 40
30.81266567978604
 40
35.19147887412627
 40
39.07871238777226
 40
41.18872123517163
 40
41.18872123517163
 40
41.18872123517163
 40
41.18872123517163
 10
556.0337840950228
 20
120.0123606414474
 30
0.0
 10
553.2236446840361
 20
119.7451703531021
 30
0.0
 10
548.8150269026887
 20
119.0460464602081
 30
0.0
 10
545.9233801200512
 20
114.0749243456832
 30
0.0
 10
540.2292269221943
 20
110.3901515032346
 30
0.0
 10
535.550384384936
 20
111.1549875056337
 30
0.0
 10
529.878402899877
 20
110.3765320334571
 30
0.0
 10
525.3968511491384
 20
109.6995842836843
 30
0.0
 10
520.908657359093
 20
108.7331730149428
 30
0.0
 10
519.0452527626521
 20
103.0529599412523
 30
0.0
 10
518.8276097464808
 20
102.440197964546
 30
0.0
  0
LINE
  5
12E5
330
2
100
AcDbEntity
  8
0
100
AcDbLine
 10
553.0337840950151
 20
77.40559249077773
 30
0.0
 11
553.0337840950151
 21
102.440197964546
 31
0.0
  0
LINE
  5
12E6
330
2
100
AcDbEntity
  8
0
100
AcDbLine
 10
526.0337840950146
 20
102.440197964546
 30
0.0
 11
526.0337840950151
 21
72.50132411746722
 31
0.0
  0
LINE
  5
12E7
330
2
100
AcDbEntity
  8
0
100
AcDbLine
 10
527.033784095015
 20
132.8102556496348
 30
0.0
 11
526.0337840950151
 21
132.8102556496348
 31
0.0
  0
LINE
  5
12E8
330
2
100
AcDbEntity
  8
0
100
AcDbLine
 10
526.0337840950151
 20
132.8102556496348
 30
0.0
 11
526.0337840950151
 21
125.8102556496348
 31
0.0
  0
LINE
  5
12E9
330
2
100
AcDbEntity
  8
0
100
AcDbLine
 10
526.0337840950151
 20
125.8102556496348
 30
0.0
 11
527.033784095015
 21
125.8102556496348
 31
0.0
  0
LINE
  5
12EA
330
2
100
AcDbEntity
  8
0
100
AcDbLine
 10
527.033784095015
 20
125.8102556496348
 30
0.0
 11
527.033784095015
 21
132.8102556496348
 31
0.0
  0
LINE
  5
12EB
330
2
100
AcDbEntity
  8
0
100
AcDbLine
 10
531.033784095015
 20
132.2906404073644
 30
0.0
 11
531.033784095015
 21
126.3298708919057
 31
0.0
  0
LINE
  5
12EC
330
2
100
AcDbEntity
  8
0
100
AcDbLine
 10
530.7337840950149
 20
125.8102556496348
 30
0.0
 11
530.7337840950149
 21
132.8102556496348
 31
0.0
  0
LINE
  5
12ED
330
2
100
AcDbEntity
  8
0
100
AcDbLine
 10
530.7337840950149
 20
125.8102556496348
 30
0.0
 11
527.033784095015
 21
125.8102556496348
 31
0.0
  0
LINE
  5
12EE
330
2
100
AcDbEntity
  8
0
100
AcDbLine
 10
530.7337840950149
 20
125.8102556496348
 30
0.0
 11
531.033784095015
 21
126.3298708919057
 31
0.0
  0
LINE
  5
12EF
330
2
100
AcDbEntity
  8
0
100
AcDbLine
 10
531.033784095015
 20
132.2906404073644
 30
0.0
 11
530.7337840950149
 21
132.8102556496348
 31
0.0
  0
LINE
  5
12F0
330
2
100
AcDbEntity
  8
0
100
AcDbLine
 10
527.033784095015
 20
132.8102556496348
 30
0.0
 11
530.7337840950149
 21
132.8102556496348
 31
0.0
  0
LINE
  5
12F1
330
2
100
AcDbEntity
  8
0
100
AcDbLine
 10
527.033784095015
 20
79.07014027945729
 30
0.0
 11
526.0337840950151
 21
79.07014027945729
 31
0.0
  0
LINE
  5
12F2
330
2
100
AcDbEntity
  8
0
100
AcDbLine
 10
526.0337840950151
 20
79.07014027945729
 30
0.0
 11
526.0337840950151
 21
72.07014027945729
 31
0.0
  0
LINE
  5
12F3
330
2
100
AcDbEntity
  8
0
100
AcDbLine
 10
526.0337840950151
 20
72.07014027945729
 30
0.0
 11
527.033784095015
 21
72.07014027945729
 31
0.0
  0
LINE
  5
12F4
330
2
100
AcDbEntity
  8
0
100
AcDbLine
 10
527.033784095015
 20
72.07014027945729
 30
0.0
 11
527.033784095015
 21
79.07014027945729
 31
0.0
  0
LINE
  5
12F5
330
2
100
AcDbEntity
  8
0
100
AcDbLine
 10
531.033784095015
 20
78.55052503718685
 30
0.0
 11
531.033784095015
 21
72.58975552172819
 31
0.0
  0
LINE
  5
12F6
330
2
100
AcDbEntity
  8
0
100
AcDbLine
 10
530.7337840950149
 20
72.07014027945729
 30
0.0
 11
530.7337840950149
 21
79.07014027945729
 31
0.0
  0
LINE
  5
12F7
330
2
100
AcDbEntity
  8
0
100
AcDbLine
 10
530.7337840950149
 20
72.07014027945729
 30
0.0
 11
527.033784095015
 21
72.07014027945729
 31
0.0
  0
LINE
  5
12F8
330
2
100
AcDbEntity
  8
0
100
AcDbLine
 10
530.7337840950149
 20
72.07014027945729
 30
0.0
 11
531.033784095015
 21
72.58975552172819
 31
0.0
  0
LINE
  5
12F9
330
2
100
AcDbEntity
  8
0
100
AcDbLine
 10
531.033784095015
 20
78.55052503718685
 30
0.0
 11
530.7337840950149
 21
79.07014027945729
 31
0.0
  0
LINE
  5
12FA
330
2
100
AcDbEntity
  8
0
100
AcDbLine
 10
527.033784095015
 20
79.07014027945729
 30
0.0
 11
530.7337840950149
 21
79.07014027945729
 31
0.0
  0
LINE
  5
12FB
330
2
100
AcDbEntity
  8
CENTER
  6
CENS
100
AcDbLine
 10
536.0337840950146
 20
129.3102556496353
 30
0.0
 11
513.0338270053921
 21
129.3102556496353
 31
0.0
  0
LINE
  5
12FC
330
2
100
AcDbEntity
  8
CENTER
  6
CENS
100
AcDbLine
 10
536.0337840950146
 20
75.57014027945775
 30
0.0
 11
513.0338270053921
 21
75.57014027945775
 31
0.0
  0
LINE
  5
12FD
330
2
100
AcDbEntity
  8
0
100
AcDbLine
 10
552.0337840950146
 20
117.4401979645461
 30
0.0
 11
556.033784095015
 21
117.4401979645461
 31
0.0
  0
ARC
  5
12FE
330
2
100
AcDbEntity
  8
0
100
AcDbCircle
 10
550.0337840950146
 20
117.5598165168105
 30
0.0
 40
2.0
100
AcDbArc
 50
0.0
 51
52.22196899340479
  0
LINE
  5
12FF
330
2
100
AcDbEntity
  8
0
100
AcDbLine
 10
552.0337840950146
 20
117.5598165168105
 30
0.0
 11
552.0337840950146
 21
102.440197964546
 31
0.0
  0
LINE
  5
1300
330
2
100
AcDbEntity
  8
0
100
AcDbLine
 10
539.533784095015
 20
106.440197964546
 30
0.0
 11
550.5337840950151
 21
106.440197964546
 31
0.0
  0
LINE
  5
1301
330
2
100
AcDbEntity
  8
0
100
AcDbLine
 10
539.533784095015
 20
102.440197964546
 30
0.0
 11
539.533784095015
 21
111.0003863935805
 31
0.0
  0
LINE
  5
1302
330
2
100
AcDbEntity
  8
0
100
AcDbLine
 10
545.9696635249356
 20
114.690197964546
 30
0.0
 11
551.5337840950151
 21
114.690197964546
 31
0.0
  0
LINE
  5
1303
330
2
100
AcDbEntity
  8
0
100
AcDbLine
 10
551.5337840950151
 20
114.690197964546
 30
0.0
 11
551.5337840950151
 21
102.440197964546
 31
0.0
  0
LINE
  5
1304
330
2
100
AcDbEntity
  8
0
100
AcDbLine
 10
550.5337840950151
 20
106.440197964546
 30
0.0
 11
550.5337840950151
 21
102.440197964546
 31
0.0
  0
LINE
  5
1305
330
2
100
AcDbEntity
  8
0
100
AcDbLine
 10
550.5337840950151
 20
106.440197964546
 30
0.0
 11
551.5337840950151
 21
107.0175482337356
 31
0.0
  0
LINE
  5
1306
330
2
100
AcDbEntity
  8
0
100
AcDbLine
 10
537.5337840950151
 20
110.8441862490319
 30
0.0
 11
537.5337840950151
 21
102.440197964546
 31
0.0
  0
LINE
  5
1307
330
2
100
AcDbEntity
  8
0
100
AcDbLine
 10
531.033784095015
 20
106.440197964546
 30
0.0
 11
537.5337840950151
 21
106.440197964546
 31
0.0
  0
LINE
  5
1308
330
2
100
AcDbEntity
  8
0
100
AcDbLine
 10
533.0337840950151
 20
106.440197964546
 30
0.0
 11
537.5337840950151
 21
106.440197964546
 31
0.0
  0
LINE
  5
1309
330
2
100
AcDbEntity
  8
0
100
AcDbLine
 10
527.533784095015
 20
106.690197964546
 30
0.0
 11
527.533784095015
 21
102.440197964546
 31
0.0
  0
LINE
  5
130A
330
2
100
AcDbEntity
  8
0
100
AcDbLine
 10
531.033784095015
 20
106.440197964546
 30
0.0
 11
531.033784095015
 21
102.440197964546
 31
0.0
  0
LINE
  5
130B
330
2
100
AcDbEntity
  8
0
100
AcDbLine
 10
531.033784095015
 20
106.690197964546
 30
0.0
 11
527.533784095015
 21
106.690197964546
 31
0.0
  0
LINE
  5
130C
330
2
100
AcDbEntity
  8
0
100
AcDbLine
 10
531.033784095015
 20
106.440197964546
 30
0.0
 11
531.033784095015
 21
106.690197964546
 31
0.0
  0
LINE
  5
130D
330
2
100
AcDbEntity
  8
0
100
AcDbLine
 10
527.533784095015
 20
105.940197964546
 30
0.0
 11
525.5130581528515
 21
102.440197964546
 31
0.0
  0
LINE
  5
130E
330
2
100
AcDbEntity
  8
0
100
AcDbLine
 10
548.9631703929886
 20
133.5118601031883
 30
0.0
 11
538.9646934414245
 21
133.686384167561
 31
0.0
  0
ARC
  5
130F
330
2
100
AcDbEntity
  8
0
100
AcDbCircle
 10
538.8948838156757
 20
129.6869933869354
 30
0.0
 40
3.99999999999998
100
AcDbArc
 50
89.00000000001126
 51
178.9999999999982
  0
LINE
  5
1310
330
2
100
AcDbEntity
  8
0
100
AcDbLine
 10
534.89549303505
 20
129.7568030126847
 30
0.0
 11
552.8927515478649
 21
129.4426596968135
 31
0.0
  0
ARC
  5
1311
330
2
100
AcDbEntity
  8
0
100
AcDbCircle
 10
548.8933607672392
 20
129.5124693225627
 30
0.0
 40
4.000000000000023
100
AcDbArc
 50
358.9999999999982
 51
89.00000000001126
  0
LINE
  5
1312
330
2
100
AcDbEntity
  8
0
100
AcDbLine
 10
551.0686889078888
 20
286.4833673885229
 30
0.0
 11
528.981426877046
 21
286.0978327956879
 31
0.0
  0
LINE
  5
1313
330
2
100
AcDbEntity
  8
0
100
AcDbLine
 10
531.0337840950146
 20
331.9016796810249
 30
0.0
 11
551.0686889078888
 21
331.5519691166857
 31
0.0
  0
LINE
  5
1314
330
2
100
AcDbEntity
  8
0
100
AcDbLine
 10
531.033784095015
 20
277.1336568241833
 30
0.0
 11
551.0686889078888
 21
277.4833673885225
 31
0.0
  0
LINE
  5
1315
330
2
100
AcDbEntity
  8
0
100
AcDbLine
 10
553.0337840950141
 20
279.4830627788353
 30
0.0
 11
553.0337840950141
 21
329.5522737263729
 31
0.0
  0
ARC
  5
1316
330
2
100
AcDbEntity
  8
0
100
AcDbCircle
 10
551.0337840950142
 20
288.4830627788358
 30
0.0
 40
2.0
100
AcDbArc
 50
270.9999999999887
 51
0.0
  0
ARC
  5
1317
330
2
100
AcDbEntity
  8
0
100
AcDbCircle
 10
551.0337840950142
 20
329.5522737263729
 30
0.0
 40
2.0
100
AcDbArc
 50
0.0
 51
88.99999999999822
  0
LINE
  5
1318
330
2
100
AcDbEntity
  8
0
100
AcDbLine
 10
554.9814301983988
 20
284.4901113960042
 30
0.0
 11
556.0337840950146
 21
284.5176682526041
 31
0.0
  0
ARC
  5
1319
330
2
100
AcDbEntity
  8
0
100
AcDbCircle
 10
551.0337840950142
 20
279.4830627788353
 30
0.0
 40
2.0
100
AcDbArc
 50
271.0000000000017
 51
0.0
  0
LINE
  5
131A
330
2
100
AcDbEntity
  8
0
100
AcDbLine
 10
526.0337840963579
 20
334.4565420996711
 30
0.0
 11
526.0337840963579
 21
274.5787944055371
 31
0.0
  0
LINE
  5
131B
330
2
100
AcDbEntity
  8
0
100
AcDbLine
 10
518.0337840950146
 20
273.5176682526041
 30
0.0
 11
525.0425106318566
 21
273.5788324824732
 31
0.0
  0
ARC
  5
131C
330
2
100
AcDbEntity
  8
0
100
AcDbCircle
 10
529.0337840963579
 20
283.0982897102187
 30
0.0
 40
3.0
100
AcDbArc
 50
91.00000000000177
 51
180.0
  0
ARC
  5
131D
330
2
100
AcDbEntity
  8
0
100
AcDbCircle
 10
525.0337840963579
 20
274.5787944055371
 30
0.0
 40
1.0
100
AcDbArc
 50
270.5000000000045
 51
0.0
  0
LINE
  5
131E
330
2
100
AcDbEntity
  8
0
100
AcDbLine
 10
556.0337840950146
 20
324.5176682526041
 30
0.0
 11
556.0337840950146
 21
284.5176682526041
 31
0.0
  0
ARC
  5
131F
330
2
100
AcDbEntity
  8
0
100
AcDbCircle
 10
555.0337840950142
 20
282.4907967460532
 30
0.0
 40
2.0
100
AcDbArc
 50
91.50000000000272
 51
180.0
  0
LINE
  5
1320
330
2
100
AcDbEntity
  8
0
100
AcDbLine
 10
554.9814301983988
 20
324.545225109204
 30
0.0
 11
556.033784095015
 21
324.5176682526041
 31
0.0
  0
ARC
  5
1321
330
2
100
AcDbEntity
  8
0
100
AcDbCircle
 10
555.0337840950146
 20
326.544539759155
 30
0.0
 40
2.0
100
AcDbArc
 50
180.0
 51
268.4999999999972
  0
LINE
  5
1322
330
2
100
AcDbEntity
  8
0
100
AcDbLine
 10
518.0337840950146
 20
335.5176682526041
 30
0.0
 11
525.0425106318566
 21
335.456504022735
 31
0.0
  0
ARC
  5
1323
330
2
100
AcDbEntity
  8
0
100
AcDbCircle
 10
525.0337840963579
 20
334.4565420996711
 30
0.0
 40
1.0
100
AcDbArc
 50
0.0
 51
89.49999999999542
  0
ARC
  5
1324
330
2
100
AcDbEntity
  8
0
100
AcDbCircle
 10
530.5085116396457
 20
336.9116099860582
 30
0.0
 40
5.0
100
AcDbArc
 50
204.1532073122253
 51
206.4985685482824
  0
LINE
  5
1325
330
2
100
AcDbEntity
  8
0
100
AcDbLine
 10
551.0337840950146
 20
306.5525783824607
 30
0.0
 11
529.0337840963575
 21
306.9365898108578
 31
0.0
  0
ARC
  5
1326
330
2
100
AcDbEntity
  8
0
100
AcDbCircle
 10
529.0047572844692
 20
274.0977830453323
 30
0.0
 40
3.0
100
AcDbArc
 50
172.0232228966877
 51
173.0933050840563
  0
ARC
  5
1327
330
2
100
AcDbEntity
  8
0
100
AcDbCircle
 10
529.0047572844692
 20
334.9375534598759
 30
0.0
 40
3.0
100
AcDbArc
 50
186.9066949159437
 51
187.9767771033122
  0
LINE
  5
1328
330
2
100
AcDbEntity
  8
0
100
AcDbLine
 10
527.033784095015
 20
274.1476105675153
 30
0.0
 11
526.0337840950151
 21
274.1476105675153
 31
0.0
  0
LINE
  5
1329
330
2
100
AcDbEntity
  8
0
100
AcDbLine
 10
526.0337840950151
 20
274.1476105675153
 30
0.0
 11
526.0337840950151
 21
281.1476105675153
 31
0.0
  0
LINE
  5
132A
330
2
100
AcDbEntity
  8
0
100
AcDbLine
 10
526.0337840950151
 20
281.1476105675153
 30
0.0
 11
527.033784095015
 21
281.1476105675153
 31
0.0
  0
LINE
  5
132B
330
2
100
AcDbEntity
  8
0
100
AcDbLine
 10
527.033784095015
 20
281.1476105675153
 30
0.0
 11
527.033784095015
 21
274.1476105675153
 31
0.0
  0
LINE
  5
132C
330
2
100
AcDbEntity
  8
0
100
AcDbLine
 10
531.033784095015
 20
274.6672258097857
 30
0.0
 11
531.033784095015
 21
280.6279953252444
 31
0.0
  0
LINE
  5
132D
330
2
100
AcDbEntity
  8
0
100
AcDbLine
 10
530.7337840950149
 20
281.1476105675153
 30
0.0
 11
530.7337840950149
 21
274.1476105675153
 31
0.0
  0
LINE
  5
132E
330
2
100
AcDbEntity
  8
0
100
AcDbLine
 10
530.7337840950149
 20
281.1476105675153
 30
0.0
 11
527.033784095015
 21
281.1476105675153
 31
0.0
  0
LINE
  5
132F
330
2
100
AcDbEntity
  8
0
100
AcDbLine
 10
530.7337840950149
 20
281.1476105675153
 30
0.0
 11
531.033784095015
 21
280.6279953252444
 31
0.0
  0
LINE
  5
1330
330
2
100
AcDbEntity
  8
0
100
AcDbLine
 10
531.033784095015
 20
274.6672258097857
 30
0.0
 11
530.7337840950149
 21
274.1476105675153
 31
0.0
  0
LINE
  5
1331
330
2
100
AcDbEntity
  8
0
100
AcDbLine
 10
527.033784095015
 20
274.1476105675153
 30
0.0
 11
530.7337840950149
 21
274.1476105675153
 31
0.0
  0
LINE
  5
1332
330
2
100
AcDbEntity
  8
0
100
AcDbLine
 10
527.033784095015
 20
327.8877259376929
 30
0.0
 11
526.0337840950151
 21
327.8877259376929
 31
0.0
  0
LINE
  5
1333
330
2
100
AcDbEntity
  8
0
100
AcDbLine
 10
526.0337840950151
 20
327.8877259376929
 30
0.0
 11
526.0337840950151
 21
334.8877259376929
 31
0.0
  0
LINE
  5
1334
330
2
100
AcDbEntity
  8
0
100
AcDbLine
 10
526.0337840950151
 20
334.8877259376929
 30
0.0
 11
527.033784095015
 21
334.8877259376929
 31
0.0
  0
LINE
  5
1335
330
2
100
AcDbEntity
  8
0
100
AcDbLine
 10
527.033784095015
 20
334.8877259376929
 30
0.0
 11
527.033784095015
 21
327.8877259376929
 31
0.0
  0
LINE
  5
1336
330
2
100
AcDbEntity
  8
0
100
AcDbLine
 10
531.033784095015
 20
328.4073411799634
 30
0.0
 11
531.033784095015
 21
334.368110695422
 31
0.0
  0
LINE
  5
1337
330
2
100
AcDbEntity
  8
0
100
AcDbLine
 10
530.7337840950149
 20
334.8877259376929
 30
0.0
 11
530.7337840950149
 21
327.8877259376929
 31
0.0
  0
LINE
  5
1338
330
2
100
AcDbEntity
  8
0
100
AcDbLine
 10
530.7337840950149
 20
334.8877259376929
 30
0.0
 11
527.033784095015
 21
334.8877259376929
 31
0.0
  0
LINE
  5
1339
330
2
100
AcDbEntity
  8
0
100
AcDbLine
 10
530.7337840950149
 20
334.8877259376929
 30
0.0
 11
531.033784095015
 21
334.368110695422
 31
0.0
  0
LINE
  5
133A
330
2
100
AcDbEntity
  8
0
100
AcDbLine
 10
531.033784095015
 20
328.4073411799634
 30
0.0
 11
530.7337840950149
 21
327.8877259376929
 31
0.0
  0
LINE
  5
133B
330
2
100
AcDbEntity
  8
0
100
AcDbLine
 10
527.033784095015
 20
327.8877259376929
 30
0.0
 11
530.7337840950149
 21
327.8877259376929
 31
0.0
  0
LINE
  5
133C
330
2
100
AcDbEntity
  8
CENTER
  6
CENS
100
AcDbLine
 10
536.0337840950146
 20
277.6476105675149
 30
0.0
 11
513.0338270053921
 21
277.6476105675149
 31
0.0
  0
LINE
  5
133D
330
2
100
AcDbEntity
  8
CENTER
  6
CENS
100
AcDbLine
 10
536.0337840950146
 20
331.3877259376925
 30
0.0
 11
513.0338270053921
 21
331.3877259376925
 31
0.0
  0
CIRCLE
  5
133E
330
2
100
AcDbEntity
  8
0
100
AcDbCircle
 10
544.0337840950146
 20
296.5176682526041
 30
0.0
 40
8.858967454193532
  0
LINE
  5
133F
330
2
100
AcDbEntity
  8
CENTER
  6
CENS
100
AcDbLine
 10
544.033784095015
 20
285.3985648140221
 30
0.0
 11
544.033784095015
 21
307.636771691187
 31
0.0
  0
LINE
  5
1340
330
2
100
AcDbEntity
  8
CENTER
  6
CENS
100
AcDbLine
 10
555.1528875335975
 20
296.5176682526045
 30
0.0
 11
532.9146806564327
 21
296.5176682526045
 31
0.0
  0
LINE
  5
1341
330
2
100
AcDbEntity
  8
0
100
AcDbLine
 10
59.2655579763873
 20
129.4744988286283
 30
0.0
 11
79.30046278926193
 21
129.8242093929679
 31
0.0
  0
LINE
  5
1342
330
2
100
AcDbEntity
  8
0
100
AcDbLine
 10
55.35281668587777
 20
122.4677548211466
 30
0.0
 11
54.30046278926193
 21
122.4401979645467
 31
0.0
  0
ARC
  5
1343
330
2
100
AcDbEntity
  8
0
100
AcDbCircle
 10
59.30046278926193
 20
127.4748034383155
 30
0.0
 40
2.0
100
AcDbArc
 50
91.00000000000177
 51
180.0
  0
LINE
  5
1344
330
2
100
AcDbEntity
  8
0
100
AcDbLine
 10
92.30046278926193
 20
133.4401979645467
 30
0.0
 11
85.29173625376325
 21
133.3790337346899
 31
0.0
  0
ARC
  5
1345
330
2
100
AcDbEntity
  8
0
100
AcDbCircle
 10
85.30046278926192
 20
132.379071811626
 30
0.0
 40
1.0
100
AcDbArc
 50
90.50000000000457
 51
180.0
  0
ARC
  5
1346
330
2
100
AcDbEntity
  8
0
100
AcDbCircle
 10
81.3294895998074
 20
132.8600831718185
 30
0.0
 40
3.0
100
AcDbArc
 50
352.0232228967009
 51
353.0933050840563
  0
LINE
  5
1347
330
2
100
AcDbEntity
  8
0
100
AcDbLine
 10
54.30046278926193
 20
122.4401979645467
 30
0.0
 11
54.30046278926147
 21
82.44019796454677
 31
0.0
  0
ARC
  5
1348
330
2
100
AcDbEntity
  8
0
100
AcDbCircle
 10
55.30046278926192
 20
124.467069471098
 30
0.0
 40
2.0
100
AcDbArc
 50
271.5000000000027
 51
0.0
  0
LINE
  5
1349
330
2
100
AcDbEntity
  8
CENTER
  6
CENS
100
AcDbLine
 10
66.30046279060525
 20
136.1271963551266
 30
0.0
 11
66.30046279060525
 21
117.0354688981237
 31
0.0
  0
LINE
  5
134A
330
2
100
AcDbEntity
  8
0
100
AcDbLine
 10
59.2655579763873
 20
75.4058971004656
 30
0.0
 11
79.30046278926193
 21
75.056186536126
 31
0.0
  0
LINE
  5
134B
330
2
100
AcDbEntity
  8
0
100
AcDbLine
 10
55.35281668587777
 20
82.41264110794691
 30
0.0
 11
54.30046278926147
 21
82.44019796454677
 31
0.0
  0
ARC
  5
134C
330
2
100
AcDbEntity
  8
0
100
AcDbCircle
 10
59.30046278926193
 20
77.40559249077842
 30
0.0
 40
2.0
100
AcDbArc
 50
180.0
 51
268.9999999999982
  0
LINE
  5
134D
330
2
100
AcDbEntity
  8
0
100
AcDbLine
 10
92.30046278926193
 20
71.44019796454677
 30
0.0
 11
85.29173625376371
 21
71.50136219440355
 31
0.0
  0
ARC
  5
134E
330
2
100
AcDbEntity
  8
0
100
AcDbCircle
 10
85.30046278926239
 20
72.5013241174679
 30
0.0
 40
1.0
100
AcDbArc
 50
180.0
 51
269.4999999999954
  0
ARC
  5
134F
330
2
100
AcDbEntity
  8
0
100
AcDbCircle
 10
81.3294895998074
 20
72.02031275727495
 30
0.0
 40
3.0
100
AcDbArc
 50
6.906694915956789
 51
7.976777103285854
  0
ARC
  5
1350
330
2
100
AcDbEntity
  8
0
100
AcDbCircle
 10
55.30046278926192
 20
80.41332645799593
 30
0.0
 40
2.0
100
AcDbArc
 50
0.0
 51
88.49999999999729
  0
LINE
  5
1351
330
2
100
AcDbEntity
  8
0
100
AcDbLine
 10
58.30046278926511
 20
82.87657458775266
 30
0.0
 11
83.30046278926237
 21
82.44019796454722
 31
0.0
  0
LINE
  5
1352
330
2
100
AcDbEntity
  8
0
100
AcDbLine
 10
57.30046278926193
 20
77.40559249077842
 30
0.0
 11
57.30046278926193
 21
127.4748034383155
 31
0.0
  0
LINE
  5
1353
330
2
100
AcDbEntity
  8
0
100
AcDbLine
 10
84.30046278926193
 20
132.379071811626
 30
0.0
 11
84.30046278926193
 21
72.5013241174679
 31
0.0
  0
LINE
  5
1354
330
2
100
AcDbEntity
  8
0
100
AcDbLine
 10
83.30046278926193
 20
132.8102556496355
 30
0.0
 11
84.30046278926193
 21
132.8102556496355
 31
0.0
  0
LINE
  5
1355
330
2
100
AcDbEntity
  8
0
100
AcDbLine
 10
84.30046278926193
 20
132.8102556496355
 30
0.0
 11
84.30046278926193
 21
125.8102556496355
 31
0.0
  0
LINE
  5
1356
330
2
100
AcDbEntity
  8
0
100
AcDbLine
 10
84.30046278926193
 20
125.8102556496355
 30
0.0
 11
83.30046278926193
 21
125.8102556496355
 31
0.0
  0
LINE
  5
1357
330
2
100
AcDbEntity
  8
0
100
AcDbLine
 10
83.30046278926193
 20
125.8102556496355
 30
0.0
 11
83.30046278926193
 21
132.8102556496355
 31
0.0
  0
LINE
  5
1358
330
2
100
AcDbEntity
  8
0
100
AcDbLine
 10
79.30046278926193
 20
132.2906404073651
 30
0.0
 11
79.30046278926193
 21
126.3298708919064
 31
0.0
  0
LINE
  5
1359
330
2
100
AcDbEntity
  8
0
100
AcDbLine
 10
79.60046278926165
 20
125.8102556496355
 30
0.0
 11
79.60046278926165
 21
132.8102556496355
 31
0.0
  0
LINE
  5
135A
330
2
100
AcDbEntity
  8
0
100
AcDbLine
 10
79.60046278926165
 20
125.8102556496355
 30
0.0
 11
83.30046278926193
 21
125.8102556496355
 31
0.0
  0
LINE
  5
135B
330
2
100
AcDbEntity
  8
0
100
AcDbLine
 10
79.60046278926165
 20
125.8102556496355
 30
0.0
 11
79.30046278926193
 21
126.3298708919064
 31
0.0
  0
LINE
  5
135C
330
2
100
AcDbEntity
  8
0
100
AcDbLine
 10
79.30046278926193
 20
132.2906404073651
 30
0.0
 11
79.60046278926165
 21
132.8102556496355
 31
0.0
  0
LINE
  5
135D
330
2
100
AcDbEntity
  8
0
100
AcDbLine
 10
83.30046278926193
 20
132.8102556496355
 30
0.0
 11
79.60046278926165
 21
132.8102556496355
 31
0.0
  0
LINE
  5
135E
330
2
100
AcDbEntity
  8
0
100
AcDbLine
 10
83.30046278926193
 20
79.07014027945797
 30
0.0
 11
84.30046278926193
 21
79.07014027945797
 31
0.0
  0
LINE
  5
135F
330
2
100
AcDbEntity
  8
0
100
AcDbLine
 10
84.30046278926193
 20
79.07014027945797
 30
0.0
 11
84.30046278926193
 21
72.07014027945797
 31
0.0
  0
LINE
  5
1360
330
2
100
AcDbEntity
  8
0
100
AcDbLine
 10
84.30046278926193
 20
72.07014027945797
 30
0.0
 11
83.30046278926193
 21
72.07014027945797
 31
0.0
  0
LINE
  5
1361
330
2
100
AcDbEntity
  8
0
100
AcDbLine
 10
83.30046278926193
 20
72.07014027945797
 30
0.0
 11
83.30046278926193
 21
79.07014027945797
 31
0.0
  0
LINE
  5
1362
330
2
100
AcDbEntity
  8
0
100
AcDbLine
 10
79.30046278926193
 20
78.55052503718752
 30
0.0
 11
79.30046278926193
 21
72.58975552172888
 31
0.0
  0
LINE
  5
1363
330
2
100
AcDbEntity
  8
0
100
AcDbLine
 10
79.60046278926165
 20
72.07014027945797
 30
0.0
 11
79.60046278926165
 21
79.07014027945797
 31
0.0
  0
LINE
  5
1364
330
2
100
AcDbEntity
  8
0
100
AcDbLine
 10
79.60046278926165
 20
72.07014027945797
 30
0.0
 11
83.30046278926193
 21
72.07014027945797
 31
0.0
  0
LINE
  5
1365
330
2
100
AcDbEntity
  8
0
100
AcDbLine
 10
79.60046278926165
 20
72.07014027945797
 30
0.0
 11
79.30046278926193
 21
72.58975552172888
 31
0.0
  0
LINE
  5
1366
330
2
100
AcDbEntity
  8
0
100
AcDbLine
 10
79.30046278926193
 20
78.55052503718752
 30
0.0
 11
79.60046278926165
 21
79.07014027945797
 31
0.0
  0
LINE
  5
1367
330
2
100
AcDbEntity
  8
0
100
AcDbLine
 10
83.30046278926193
 20
79.07014027945797
 30
0.0
 11
79.60046278926165
 21
79.07014027945797
 31
0.0
  0
LINE
  5
1368
330
2
100
AcDbEntity
  8
CENTER
  6
CENS
100
AcDbLine
 10
74.30046278926193
 20
129.310255649636
 30
0.0
 11
97.30041987888444
 21
129.310255649636
 31
0.0
  0
LINE
  5
1369
330
2
100
AcDbEntity
  8
CENTER
  6
CENS
100
AcDbLine
 10
74.30046278926238
 20
75.57014027945843
 30
0.0
 11
97.3004198788849
 21
75.57014027945843
 31
0.0
  0
LINE
  5
136A
330
2
100
AcDbEntity
  8
0
100
AcDbLine
 10
61.37107649128802
 20
133.511860103189
 30
0.0
 11
71.36955344285206
 21
133.6863841675617
 31
0.0
  0
ARC
  5
136B
330
2
100
AcDbEntity
  8
0
100
AcDbCircle
 10
71.43936306860132
 20
129.6869933869361
 30
0.0
 40
3.99999999999998
100
AcDbArc
 50
1.000000000001775
 51
90.99999999998875
  0
LINE
  5
136C
330
2
100
AcDbEntity
  8
0
100
AcDbLine
 10
75.43875384922694
 20
129.7568030126853
 30
0.0
 11
57.44149533641166
 21
129.4426596968141
 31
0.0
  0
ARC
  5
136D
330
2
100
AcDbEntity
  8
0
100
AcDbCircle
 10
61.44088611703728
 20
129.5124693225634
 30
0.0
 40
4.000000000000023
100
AcDbArc
 50
90.99999999998875
 51
181.0000000000017
  0
TEXT
  5
13AB
330
2
100
AcDbEntity
  8
TITLE
100
AcDbText
 10
255.1490104309441
 20
295.4825607233341
 30
0.0
 40
5.0
  1
AFCZ12H-7~10M100S1
100
AcDbText
  0
TEXT
  5
13AD
330
2
100
AcDbEntity
  8
TITLE
100
AcDbText
 10
255.1490104309441
 20
285.1526698443539
 30
0.0
 40
5.0
  1
AFCZ12H-7~10L100S1
100
AcDbText
  0
CIRCLE
  5
1EF4
330
2
100
AcDbEntity
  8
0
100
AcDbCircle
 10
681.9707333907505
 20
102.4401979645339
 30
0.0
 40
12.25
  0
LINE
  5
227D
330
2
100
AcDbEntity
  8
CENTER
100
AcDbLine
 10
273.7557396484439
 20
63.94019796454244
 30
0.0
 11
273.7557396484439
 21
140.9401979645429
 31
0.0
  0
LINE
  5
227E
330
2
100
AcDbEntity
  8
CENTER
100
AcDbLine
 10
123.643608539767
 20
136.0970522140416
 30
0.0
 11
190.9573170387541
 21
68.7833437150544
 31
0.0
  0
LINE
  5
227F
330
2
100
AcDbEntity
  8
CENTER
100
AcDbLine
 10
190.9573170387541
 20
136.0970522140391
 30
0.0
 11
123.6436085397697
 21
68.78334371505428
 31
0.0
  0
LINE
  5
2280
330
2
100
AcDbEntity
  8
CENTER
100
AcDbLine
 10
157.3004627892619
 20
64.44019796454677
 30
0.0
 11
157.3004627892619
 21
140.4401979645467
 31
0.0
  0
LINE
  5
2283
330
2
100
AcDbEntity
  8
CENTER
100
AcDbLine
 10
479.9038417801007
 20
122.8102556496361
 30
0.0
 11
479.9038417801007
 21
135.8102556496357
 31
0.0
  0
LINE
  5
2284
330
2
100
AcDbEntity
  8
CENTER
100
AcDbLine
 10
426.1637264099231
 20
135.8102556496362
 30
0.0
 11
426.1637264099231
 21
122.8102556496361
 31
0.0
  0
LINE
  5
2285
330
2
100
AcDbEntity
  8
CENTER
100
AcDbLine
 10
419.3769298455195
 20
136.0970522140396
 30
0.0
 11
486.6906383445039
 21
68.78334371505451
 31
0.0
  0
LINE
  5
2286
330
2
100
AcDbEntity
  8
CENTER
100
AcDbLine
 10
486.6906383445043
 20
136.0970522140395
 30
0.0
 11
419.376929845519
 21
68.7833437150548
 31
0.0
  0
CIRCLE
  5
2287
330
2
100
AcDbEntity
  8
CENTER
100
AcDbCircle
 10
453.0337840950119
 20
102.4401979645471
 30
0.0
 40
38.0
  0
LINE
  5
2289
330
2
100
AcDbEntity
  8
CENTER
100
AcDbLine
 10
453.0337840950119
 20
147.4401979645471
 30
0.0
 11
453.0337840950119
 21
57.44019796454717
 31
0.0
  0
LINE
  5
228C
330
2
100
AcDbEntity
  8
0
100
AcDbLine
 10
92.30046278925829
 20
133.9401979645458
 30
0.0
 11
98.30046278926012
 21
133.9401979645463
 31
0.0
  0
LINE
  5
228D
330
2
100
AcDbEntity
  8
0
100
AcDbLine
 10
92.30046278926193
 20
70.94019796454677
 30
0.0
 11
98.30046278926012
 21
70.94019796454677
 31
0.0
  0
LINE
  5
228E
330
2
100
AcDbEntity
  8
0
100
AcDbLine
 10
92.30046278926193
 20
71.44019796454677
 30
0.0
 11
98.30046278926012
 21
71.44019796454677
 31
0.0
  0
LINE
  5
228F
330
2
100
AcDbEntity
  8
0
100
AcDbLine
 10
92.30046278925829
 20
133.4401979645458
 30
0.0
 11
98.30046278926012
 21
133.4401979645463
 31
0.0
  0
CIRCLE
  5
2292
330
2
100
AcDbEntity
  8
0
100
AcDbCircle
 10
157.3004627892619
 20
102.4401979645467
 30
0.0
 40
25.5
  0
CIRCLE
  5
2293
330
2
100
AcDbEntity
  8
0
100
AcDbCircle
 10
157.3004627892619
 20
102.4401979645467
 30
0.0
 40
22.42259999999999
  0
CIRCLE
  5
2294
330
2
100
AcDbEntity
  8
0
100
AcDbCircle
 10
157.3004627892619
 20
102.4401979645467
 30
0.0
 40
23.0
  0
CIRCLE
  5
2295
330
2
100
AcDbEntity
  8
0
100
AcDbCircle
 10
157.3004627892619
 20
102.4401979645467
 30
0.0
 40
25.0
  0
CIRCLE
  5
2296
330
2
100
AcDbEntity
  8
0
100
AcDbCircle
 10
157.3004627892619
 20
102.4401979645467
 30
0.0
 40
18.0774
  0
CIRCLE
  5
2297
330
2
100
AcDbEntity
  8
0
100
AcDbCircle
 10
157.3004627892619
 20
102.4401979645467
 30
0.0
 40
17.5
  0
LINE
  5
2298
330
2
100
AcDbEntity
  8
0
100
AcDbLine
 10
169.3273747238431
 20
127.9401979645467
 30
0.0
 11
145.2735508546806
 21
127.9401979645465
 31
0.0
  0
LINE
  5
2299
330
2
100
AcDbEntity
  8
0
100
AcDbLine
 10
169.3273747238431
 20
129.9401979645467
 30
0.0
 11
145.2735508546806
 21
129.9401979645467
 31
0.0
  0
LINE
  5
229A
330
2
100
AcDbEntity
  8
0
100
AcDbLine
 10
169.3273747238431
 20
74.94019796454677
 30
0.0
 11
145.2735508546806
 21
74.94019796454677
 31
0.0
  0
LINE
  5
229B
330
2
100
AcDbEntity
  8
0
100
AcDbLine
 10
169.3273747238431
 20
76.94019796454677
 30
0.0
 11
145.2735508546806
 21
76.94019796454677
 31
0.0
  0
ARC
  5
229C
330
2
100
AcDbEntity
  8
0
100
AcDbCircle
 10
157.3004627892601
 20
-16.55980203545323
 30
0.0
 40
150.0
100
AcDbArc
 50
83.88401001893187
 51
96.11598998101571
  0
ARC
  5
229D
330
2
100
AcDbEntity
  8
0
100
AcDbCircle
 10
157.3004627892601
 20
221.4401979645467
 30
0.0
 40
150.0
100
AcDbArc
 50
263.8840100189318
 51
276.1159899810156
  0
LINE
  5
229E
330
2
100
AcDbEntity
  8
0
100
AcDbLine
 10
131.8004627892619
 20
90.413286029966
 30
0.0
 11
131.8004627892619
 21
114.4671098991275
 31
0.0
  0
LINE
  5
229F
330
2
100
AcDbEntity
  8
0
100
AcDbLine
 10
129.8004627892619
 20
90.41328602996555
 30
0.0
 11
129.8004627892619
 21
114.4671098991279
 31
0.0
  0
LINE
  5
22A0
330
2
100
AcDbEntity
  8
0
100
AcDbLine
 10
126.640462789262
 20
74.44019796454677
 30
0.0
 11
126.640462789262
 21
130.4401979645467
 31
0.0
  0
LINE
  5
22A1
330
2
100
AcDbEntity
  8
0
100
AcDbLine
 10
111.8004627892619
 20
79.44019796526731
 30
0.0
 11
111.8004627892619
 21
125.4401979638332
 31
0.0
  0
LINE
  5
22A2
330
2
100
AcDbEntity
  8
0
100
AcDbLine
 10
126.3004627892601
 20
130.4401979645499
 30
0.0
 11
126.3004627892601
 21
74.44019796454859
 31
0.0
  0
LINE
  5
22A3
330
2
100
AcDbEntity
  8
0
100
AcDbLine
 10
100.3004627892601
 20
72.94019796454676
 30
0.0
 11
100.3004627892601
 21
131.9401979645463
 31
0.0
  0
CIRCLE
  5
22A4
330
2
100
AcDbEntity
  8
0
100
AcDbCircle
 10
131.3004627892628
 20
76.44019796454722
 30
0.0
 40
3.730384757729268
  0
CIRCLE
  5
22A5
330
2
100
AcDbEntity
  8
0
100
AcDbCircle
 10
131.3004627892628
 20
76.44019796454722
 30
0.0
 40
4.250000000000085
  0
ARC
  5
22A6
330
2
100
AcDbEntity
  8
0
100
AcDbCircle
 10
129.640462789262
 20
74.44019796454677
 30
0.0
 40
3.0
100
AcDbArc
 50
180.0
 51
270.0
  0
LINE
  5
22A7
330
2
100
AcDbEntity
  8
CENTER
100
AcDbLine
 10
125.5504627892619
 20
76.44019796454677
 30
0.0
 11
137.0504627892619
 21
76.44019796454677
 31
0.0
  0
ARC
  5
22A8
330
2
100
AcDbEntity
  8
0
100
AcDbCircle
 10
129.3004627892601
 20
74.44019796454859
 30
0.0
 40
3.0
100
AcDbArc
 50
180.0
 51
270.0
  0
ARC
  5
22A9
330
2
100
AcDbEntity
  8
0
100
AcDbCircle
 10
98.30046278926012
 20
72.94019796454676
 30
0.0
 40
2.0
100
AcDbArc
 50
270.0
 51
0.0
  0
ARC
  5
22AA
330
2
100
AcDbEntity
  8
0
100
AcDbCircle
 10
112.8004627892519
 20
75.44019796526004
 30
0.0
 40
3.0
100
AcDbArc
 50
90.0
 51
126.8698976456909
  0
ARC
  5
22AB
330
2
100
AcDbEntity
  8
0
100
AcDbCircle
 10
123.3004627892601
 20
75.44019796526026
 30
0.0
 40
3.0
100
AcDbArc
 50
0.0
 51
90.0
  0
ARC
  5
22AC
330
2
100
AcDbEntity
  8
0
100
AcDbCircle
 10
103.3004627892601
 20
74.44019796526754
 30
0.0
 40
3.0
100
AcDbArc
 50
90.0
 51
180.0
  0
LINE
  5
22AD
330
2
100
AcDbEntity
  8
0
100
AcDbLine
 10
109.8004627892619
 20
77.44019796526732
 30
0.0
 11
103.3004627892601
 21
77.44019796526754
 31
0.0
  0
LINE
  5
22AE
330
2
100
AcDbEntity
  8
0
100
AcDbLine
 10
123.3004627892601
 20
78.44019796526026
 30
0.0
 11
112.8004627892519
 21
78.44019796526026
 31
0.0
  0
ARC
  5
22AF
330
2
100
AcDbEntity
  8
0
100
AcDbCircle
 10
109.8004627892619
 20
79.44019796526731
 30
0.0
 40
2.0
100
AcDbArc
 50
270.0
 51
359.9999999917405
  0
ARC
  5
22B0
330
2
100
AcDbEntity
  8
0
100
AcDbCircle
 10
114.800462789261
 20
79.44019796454677
 30
0.0
 40
3.0
100
AcDbArc
 50
90.0
 51
180.0
  0
ARC
  5
22B1
330
2
100
AcDbEntity
  8
0
100
AcDbCircle
 10
123.3004627892637
 20
79.44019796454654
 30
0.0
 40
3.0
100
AcDbArc
 50
0.0
 51
90.0
  0
LINE
  5
22B2
330
2
100
AcDbEntity
  8
0
100
AcDbLine
 10
123.3004627892637
 20
82.44019796454654
 30
0.0
 11
114.800462789261
 21
82.44019796454677
 31
0.0
  0
ARC
  5
22B3
330
2
100
AcDbEntity
  8
0
100
AcDbCircle
 10
98.30046278926012
 20
73.44019796454677
 30
0.0
 40
2.0
100
AcDbArc
 50
270.0
 51
0.0
  0
LINE
  5
22B4
330
2
100
AcDbEntity
  8
0
100
AcDbLine
 10
133.3004627892628
 20
75.28549742616769
 30
0.0
 11
133.3004627892628
 21
77.5948985029263
 31
0.0
  0
LINE
  5
22B5
330
2
100
AcDbEntity
  8
0
100
AcDbLine
 10
131.3004627892619
 20
74.13079688778862
 30
0.0
 11
129.3004627892628
 21
75.28549742616769
 31
0.0
  0
LINE
  5
22B6
330
2
100
AcDbEntity
  8
0
100
AcDbLine
 10
129.3004627892628
 20
77.5948985029263
 30
0.0
 11
131.3004627892619
 21
78.74959904130538
 31
0.0
  0
LINE
  5
22B7
330
2
100
AcDbEntity
  8
0
100
AcDbLine
 10
129.3004627892628
 20
75.28549742616769
 30
0.0
 11
129.3004627892628
 21
77.5948985029263
 31
0.0
  0
LINE
  5
22B8
330
2
100
AcDbEntity
  8
0
100
AcDbLine
 10
131.3004627892619
 20
74.13079688778862
 30
0.0
 11
133.3004627892628
 21
75.28549742616769
 31
0.0
  0
LINE
  5
22B9
330
2
100
AcDbEntity
  8
0
100
AcDbLine
 10
133.3004627892628
 20
77.5948985029263
 30
0.0
 11
131.3004627892628
 21
78.74959904130538
 31
0.0
  0
LINE
  5
22BA
330
2
100
AcDbEntity
  8
CENTER
100
AcDbLine
 10
131.3004627892619
 20
70.69019796454677
 30
0.0
 11
131.3004627892619
 21
82.19019796454677
 31
0.0
  0
LINE
  5
22BB
330
2
100
AcDbEntity
  8
0
100
AcDbLine
 10
132.3004627892619
 20
71.44019796454699
 30
0.0
 11
129.640462789262
 21
71.44019796454699
 31
0.0
  0
LINE
  5
22BC
330
2
100
AcDbEntity
  8
0
100
AcDbLine
 10
132.1810651267055
 20
88.49986886813985
 30
0.0
 11
130.3333060616837
 21
87.73450200340993
 31
0.0
  0
ARC
  5
22BD
330
2
100
AcDbEntity
  8
0
100
AcDbCircle
 10
136.8004627892619
 20
90.41328602996577
 30
0.0
 40
5.0
100
AcDbArc
 50
180.0
 51
225.0000000000078
  0
ARC
  5
22BE
330
2
100
AcDbEntity
  8
0
100
AcDbCircle
 10
136.8004627892619
 20
90.41328602996555
 30
0.0
 40
7.0
100
AcDbArc
 50
180.0
 51
225.0000000000078
  0
ARC
  5
22BF
330
2
100
AcDbEntity
  8
0
100
AcDbCircle
 10
145.2735508546806
 20
81.94019796454677
 30
0.0
 40
5.0
100
AcDbArc
 50
225.0000000000078
 51
270.0
  0
ARC
  5
22C0
330
2
100
AcDbEntity
  8
0
100
AcDbCircle
 10
145.2735508546806
 20
81.94019796454677
 30
0.0
 40
7.0
100
AcDbArc
 50
225.0000000000078
 51
270.0
  0
LINE
  5
22C1
330
2
100
AcDbEntity
  8
0
100
AcDbLine
 10
143.3601336928554
 20
77.3208003019904
 30
0.0
 11
142.5947668281255
 21
75.4730412369679
 31
0.0
  0
LINE
  5
22C2
330
2
100
AcDbEntity
  8
0
100
AcDbLine
 10
140.3238033863749
 20
76.99045049624101
 30
0.0
 11
131.8507153209561
 21
85.46353856165978
 31
0.0
  0
LINE
  5
22C3
330
2
100
AcDbEntity
  8
0
100
AcDbLine
 10
141.7380169487482
 20
78.40466405861412
 30
0.0
 11
133.2649288833295
 21
86.87775212403312
 31
0.0
  0
ARC
  5
22C4
330
2
100
AcDbEntity
  8
0
100
AcDbCircle
 10
132.3004627892619
 20
76.44019796454836
 30
0.0
 40
5.0
100
AcDbArc
 50
270.0
 51
285.992847743996
  0
LINE
  5
22C5
330
2
100
AcDbEntity
  8
0
100
AcDbLine
 10
132.3004627892619
 20
71.44019796454813
 30
0.0
 11
129.3004627892601
 21
71.44019796454859
 31
0.0
  0
LINE
  5
22C6
330
2
100
AcDbEntity
  8
0
100
AcDbLine
 10
132.3004627892637
 20
71.44019796454677
 30
0.0
 11
129.3004627892637
 21
71.44019796454677
 31
0.0
  0
LINE
  5
22C7
330
2
100
AcDbEntity
  8
0
100
AcDbLine
 10
132.3004627892601
 20
71.44019796454995
 30
0.0
 11
129.3004627892601
 21
71.44019796454995
 31
0.0
  0
LINE
  5
22C8
330
2
100
AcDbEntity
  8
0
100
AcDbLine
 10
132.3004627892619
 20
71.44019796454836
 30
0.0
 11
129.3004627892619
 21
71.44019796454836
 31
0.0
  0
ARC
  5
22C9
330
2
100
AcDbEntity
  8
0
100
AcDbCircle
 10
139.1883967635699
 20
52.40779555518475
 30
0.0
 40
20.0
100
AcDbArc
 50
83.88401001893187
 51
105.992847743996
  0
CIRCLE
  5
22CA
330
2
100
AcDbEntity
  8
0
100
AcDbCircle
 10
131.3004627892628
 20
128.4401979645463
 30
0.0
 40
3.730384757729268
  0
CIRCLE
  5
22CB
330
2
100
AcDbEntity
  8
0
100
AcDbCircle
 10
131.3004627892628
 20
128.4401979645463
 30
0.0
 40
4.250000000000085
  0
LINE
  5
22CC
330
2
100
AcDbEntity
  8
CENTER
100
AcDbLine
 10
125.6272577085051
 20
121.9401979645467
 30
0.0
 11
135.9736678700187
 21
121.9401979645467
 31
0.0
  0
ARC
  5
22CD
330
2
100
AcDbEntity
  8
0
100
AcDbCircle
 10
129.640462789262
 20
130.4401979645467
 30
0.0
 40
3.0
100
AcDbArc
 50
90.0
 51
180.0
  0
LINE
  5
22CE
330
2
100
AcDbEntity
  8
CENTER
100
AcDbLine
 10
125.550462789261
 20
128.440197964546
 30
0.0
 11
137.050462789261
 21
128.4401979645467
 31
0.0
  0
ARC
  5
22CF
330
2
100
AcDbEntity
  8
0
100
AcDbCircle
 10
129.3004627892601
 20
130.4401979645499
 30
0.0
 40
3.0
100
AcDbArc
 50
90.0
 51
180.0
  0
ARC
  5
22D0
330
2
100
AcDbEntity
  8
0
100
AcDbCircle
 10
98.30046278926012
 20
131.9401979645463
 30
0.0
 40
2.0
100
AcDbArc
 50
0.0
 51
90.0
  0
ARC
  5
22D1
330
2
100
AcDbEntity
  8
0
100
AcDbCircle
 10
112.8004627892519
 20
129.4401979638335
 30
0.0
 40
3.0
100
AcDbArc
 50
233.1301023542601
 51
270.0
  0
ARC
  5
22D2
330
2
100
AcDbEntity
  8
0
100
AcDbCircle
 10
123.3004627892601
 20
129.4401979638332
 30
0.0
 40
3.0
100
AcDbArc
 50
270.0
 51
0.0
  0
LINE
  5
22D3
330
2
100
AcDbEntity
  8
0
100
AcDbLine
 10
123.3004627892601
 20
126.4401979638332
 30
0.0
 11
112.8004627892519
 21
126.4401979638335
 31
0.0
  0
LINE
  5
22D4
330
2
100
AcDbEntity
  8
0
100
AcDbLine
 10
109.8004627892619
 20
127.4401979638332
 30
0.0
 11
103.3004627892601
 21
127.4401979638335
 31
0.0
  0
ARC
  5
22D5
330
2
100
AcDbEntity
  8
0
100
AcDbCircle
 10
103.3004627892601
 20
130.4401979638335
 30
0.0
 40
3.0
100
AcDbArc
 50
180.0
 51
270.0
  0
LINE
  5
22D6
330
2
100
AcDbEntity
  8
0
100
AcDbLine
 10
111.8004627892619
 20
125.4401979645467
 30
0.0
 11
111.8004627892619
 21
125.4401979638332
 31
0.0
  0
ARC
  5
22D7
330
2
100
AcDbEntity
  8
0
100
AcDbCircle
 10
109.8004627892619
 20
125.4401979638332
 30
0.0
 40
2.0
100
AcDbArc
 50
0.0
 51
90.0
  0
ARC
  5
22D8
330
2
100
AcDbEntity
  8
0
100
AcDbCircle
 10
123.3004627892646
 20
125.4401979645467
 30
0.0
 40
3.0
100
AcDbArc
 50
270.0
 51
0.0
  0
ARC
  5
22D9
330
2
100
AcDbEntity
  8
0
100
AcDbCircle
 10
114.8004627892619
 20
125.4401979645467
 30
0.0
 40
3.0
100
AcDbArc
 50
180.0
 51
270.0
  0
LINE
  5
22DA
330
2
100
AcDbEntity
  8
0
100
AcDbLine
 10
123.3004627892646
 20
122.4401979645467
 30
0.0
 11
114.8004627892619
 21
122.4401979645467
 31
0.0
  0
LINE
  5
22DB
330
2
100
AcDbEntity
  8
0
100
AcDbLine
 10
125.8004627892619
 20
110.0395400413322
 30
0.0
 11
125.800462789261
 21
94.84085588776133
 31
0.0
  0
LINE
  5
22DC
330
2
100
AcDbEntity
  8
0
100
AcDbLine
 10
111.8004627892619
 20
110.0395400413322
 30
0.0
 11
126.300462789261
 21
110.0395400413322
 31
0.0
  0
LINE
  5
22DD
330
2
100
AcDbEntity
  8
0
100
AcDbLine
 10
111.8004627892619
 20
94.84085588776133
 30
0.0
 11
126.300462789261
 21
94.84085588776133
 31
0.0
  0
ARC
  5
22DE
330
2
100
AcDbEntity
  8
0
100
AcDbCircle
 10
98.30046278926012
 20
131.4401979645463
 30
0.0
 40
2.0
100
AcDbArc
 50
0.0
 51
90.0
  0
LINE
  5
22DF
330
2
100
AcDbEntity
  8
0
100
AcDbLine
 10
133.3004627892628
 20
129.5948985029258
 30
0.0
 11
133.3004627892628
 21
127.2854974261672
 31
0.0
  0
LINE
  5
22E0
330
2
100
AcDbEntity
  8
0
100
AcDbLine
 10
131.3004627892619
 20
130.7495990413049
 30
0.0
 11
129.3004627892628
 21
129.5948985029258
 31
0.0
  0
LINE
  5
22E1
330
2
100
AcDbEntity
  8
0
100
AcDbLine
 10
129.3004627892628
 20
127.2854974261672
 30
0.0
 11
131.3004627892619
 21
126.1307968877881
 31
0.0
  0
LINE
  5
22E2
330
2
100
AcDbEntity
  8
0
100
AcDbLine
 10
129.3004627892628
 20
129.5948985029258
 30
0.0
 11
129.3004627892628
 21
127.2854974261672
 31
0.0
  0
LINE
  5
22E3
330
2
100
AcDbEntity
  8
0
100
AcDbLine
 10
131.3004627892619
 20
130.7495990413049
 30
0.0
 11
133.3004627892628
 21
129.5948985029258
 31
0.0
  0
LINE
  5
22E4
330
2
100
AcDbEntity
  8
0
100
AcDbLine
 10
133.3004627892628
 20
127.2854974261672
 30
0.0
 11
131.3004627892628
 21
126.1307968877881
 31
0.0
  0
LINE
  5
22E5
330
2
100
AcDbEntity
  8
CENTER
100
AcDbLine
 10
131.3004627892601
 20
134.1901979645465
 30
0.0
 11
131.300462789261
 21
122.6901979645465
 31
0.0
  0
LINE
  5
22E6
330
2
100
AcDbEntity
  8
0
100
AcDbLine
 10
132.1810651267055
 20
116.3805270609534
 30
0.0
 11
130.3333060616837
 21
117.1458939256835
 31
0.0
  0
ARC
  5
22E7
330
2
100
AcDbEntity
  8
0
100
AcDbCircle
 10
136.8004627892619
 20
114.4671098991275
 30
0.0
 40
5.0
100
AcDbArc
 50
134.9999999999921
 51
180.0
  0
CIRCLE
  5
22E8
330
2
100
AcDbEntity
  8
HOJO
100
AcDbCircle
 10
130.8004627892619
 20
121.9401979645467
 30
0.0
 40
2.0
  0
CIRCLE
  5
22E9
330
2
100
AcDbEntity
  8
0
100
AcDbCircle
 10
130.8004627892619
 20
121.9401979645465
 30
0.0
 40
1.6
  0
ARC
  5
22EA
330
2
100
AcDbEntity
  8
0
100
AcDbCircle
 10
136.8004627892619
 20
114.4671098991279
 30
0.0
 40
7.0
100
AcDbArc
 50
134.9999999999921
 51
180.0
  0
LINE
  5
22EB
330
2
100
AcDbEntity
  8
0
100
AcDbLine
 10
132.3004627892619
 20
133.4401979645467
 30
0.0
 11
129.640462789262
 21
133.4401979645467
 31
0.0
  0
LINE
  5
22EC
330
2
100
AcDbEntity
  8
CENTER
100
AcDbLine
 10
130.8004627892619
 20
127.1134030453035
 30
0.0
 11
130.8004627892619
 21
116.7669928837895
 31
0.0
  0
ARC
  5
22ED
330
2
100
AcDbEntity
  8
0
100
AcDbCircle
 10
145.2735508546806
 20
122.9401979645465
 30
0.0
 40
7.0
100
AcDbArc
 50
90.0
 51
134.9999999999921
  0
ARC
  5
22EE
330
2
100
AcDbEntity
  8
0
100
AcDbCircle
 10
145.2735508546806
 20
122.9401979645467
 30
0.0
 40
5.0
100
AcDbArc
 50
90.0
 51
134.9999999999921
  0
LINE
  5
22EF
330
2
100
AcDbEntity
  8
0
100
AcDbLine
 10
143.3601336928554
 20
127.5595956271031
 30
0.0
 11
142.5947668281255
 21
129.4073546921256
 31
0.0
  0
LINE
  5
22F0
330
2
100
AcDbEntity
  8
0
100
AcDbLine
 10
141.7380169487482
 20
126.4757318704792
 30
0.0
 11
133.2649288833295
 21
118.0026438050604
 31
0.0
  0
LINE
  5
22F1
330
2
100
AcDbEntity
  8
0
100
AcDbLine
 10
140.3238033863749
 20
127.8899454328525
 30
0.0
 11
131.8507153209561
 21
119.4168573674337
 31
0.0
  0
ARC
  5
22F2
330
2
100
AcDbEntity
  8
0
100
AcDbCircle
 10
132.3004627892619
 20
128.4401979645483
 30
0.0
 40
5.0
100
AcDbArc
 50
74.00715225600397
 51
90.0
  0
LINE
  5
22F3
330
2
100
AcDbEntity
  8
0
100
AcDbLine
 10
132.3004627892637
 20
133.4401979645499
 30
0.0
 11
129.3004627892601
 21
133.4401979645499
 31
0.0
  0
ARC
  5
22F4
330
2
100
AcDbEntity
  8
0
100
AcDbCircle
 10
139.1883967635699
 20
152.4726003739117
 30
0.0
 40
20.0
100
AcDbArc
 50
254.0071522560038
 51
276.1159899810156
  0
LINE
  5
22F5
330
2
100
AcDbEntity
  8
0
100
AcDbLine
 10
184.8004627892619
 20
90.41328602996555
 30
0.0
 11
184.8004627892619
 21
114.4671098991279
 31
0.0
  0
LINE
  5
22F6
330
2
100
AcDbEntity
  8
0
100
AcDbLine
 10
182.8004627892619
 20
90.41328602996577
 30
0.0
 11
182.8004627892619
 21
114.4671098991277
 31
0.0
  0
ARC
  5
22F7
330
2
100
AcDbEntity
  8
0
100
AcDbCircle
 10
38.30046278926193
 20
102.4401979645485
 30
0.0
 40
150.0
100
AcDbArc
 50
353.8840100189312
 51
6.115989981068741
  0
LINE
  5
22F8
330
2
100
AcDbEntity
  8
0
100
AcDbLine
 10
185.3004627892619
 20
75.28549742616769
 30
0.0
 11
185.3004627892619
 21
77.5948985029263
 31
0.0
  0
LINE
  5
22F9
330
2
100
AcDbEntity
  8
0
100
AcDbLine
 10
183.3004627892619
 20
74.13079688778862
 30
0.0
 11
181.3004627892619
 21
75.28549742616769
 31
0.0
  0
LINE
  5
22FA
330
2
100
AcDbEntity
  8
0
100
AcDbLine
 10
181.3004627892619
 20
77.5948985029263
 30
0.0
 11
183.3004627892619
 21
78.74959904130538
 31
0.0
  0
LINE
  5
22FB
330
2
100
AcDbEntity
  8
0
100
AcDbLine
 10
181.3004627892619
 20
75.28549742616769
 30
0.0
 11
181.3004627892619
 21
77.5948985029263
 31
0.0
  0
LINE
  5
22FC
330
2
100
AcDbEntity
  8
0
100
AcDbLine
 10
183.3004627892619
 20
74.13079688778862
 30
0.0
 11
185.3004627892619
 21
75.28549742616769
 31
0.0
  0
CIRCLE
  5
22FD
330
2
100
AcDbEntity
  8
0
100
AcDbCircle
 10
183.3004627892619
 20
76.44019796454722
 30
0.0
 40
3.730384757729268
  0
CIRCLE
  5
22FE
330
2
100
AcDbEntity
  8
0
100
AcDbCircle
 10
183.3004627892619
 20
76.44019796454722
 30
0.0
 40
4.250000000000085
  0
LINE
  5
22FF
330
2
100
AcDbEntity
  8
0
100
AcDbLine
 10
185.3004627892619
 20
77.5948985029263
 30
0.0
 11
183.3004627892619
 21
78.74959904130538
 31
0.0
  0
LINE
  5
2300
330
2
100
AcDbEntity
  8
0
100
AcDbLine
 10
171.2407918856692
 20
77.3208003019904
 30
0.0
 11
172.0061587503992
 21
75.4730412369679
 31
0.0
  0
ARC
  5
2301
330
2
100
AcDbEntity
  8
0
100
AcDbCircle
 10
169.3273747238431
 20
81.94019796454677
 30
0.0
 40
7.0
100
AcDbArc
 50
270.0
 51
314.9999999999921
  0
ARC
  5
2302
330
2
100
AcDbEntity
  8
0
100
AcDbCircle
 10
169.3273747238431
 20
81.94019796454677
 30
0.0
 40
5.0
100
AcDbArc
 50
270.0
 51
314.9999999999921
  0
CIRCLE
  5
2303
330
2
100
AcDbEntity
  8
HOJO
100
AcDbCircle
 10
183.8004627892619
 20
82.94019796454699
 30
0.0
 40
2.0
  0
ARC
  5
2304
330
2
100
AcDbEntity
  8
0
100
AcDbCircle
 10
177.8004627892619
 20
90.41328602996555
 30
0.0
 40
7.0
100
AcDbArc
 50
314.9999999999921
 51
0.0
  0
CIRCLE
  5
2305
330
2
100
AcDbEntity
  8
0
100
AcDbCircle
 10
183.8004627892619
 20
82.94019796454699
 30
0.0
 40
1.6
  0
LINE
  5
2306
330
2
100
AcDbEntity
  8
0
100
AcDbLine
 10
182.4198604518183
 20
88.49986886813985
 30
0.0
 11
184.267619516841
 21
87.73450200340993
 31
0.0
  0
ARC
  5
2307
330
2
100
AcDbEntity
  8
0
100
AcDbCircle
 10
177.8004627892619
 20
90.41328602996577
 30
0.0
 40
5.0
100
AcDbArc
 50
314.9999999999921
 51
0.0
  0
LINE
  5
2308
330
2
100
AcDbEntity
  8
CENTER
100
AcDbLine
 10
183.3004627892619
 20
70.69019796454677
 30
0.0
 11
183.3004627892619
 21
82.19019796454677
 31
0.0
  0
LINE
  5
2309
330
2
100
AcDbEntity
  8
CENTER
100
AcDbLine
 10
183.8004627892619
 20
79.82562169680409
 30
0.0
 11
183.8004627892619
 21
88.11340304530403
 31
0.0
  0
LINE
  5
230A
330
2
100
AcDbEntity
  8
0
100
AcDbLine
 10
172.8629086297764
 20
78.40466405861389
 30
0.0
 11
181.3359966951952
 21
86.87775212403312
 31
0.0
  0
LINE
  5
230B
330
2
100
AcDbEntity
  8
0
100
AcDbLine
 10
174.2771221921489
 20
76.99045049624101
 30
0.0
 11
182.7502102575676
 21
85.46353856165955
 31
0.0
  0
LINE
  5
230C
330
2
100
AcDbEntity
  8
CENTER
100
AcDbLine
 10
188.9736678700187
 20
82.94019796454699
 30
0.0
 11
178.6272577085051
 21
82.94019796454699
 31
0.0
  0
LINE
  5
230D
330
2
100
AcDbEntity
  8
CENTER
100
AcDbLine
 10
189.0504627892619
 20
76.44019796454677
 30
0.0
 11
177.5504627892619
 21
76.44019796454677
 31
0.0
  0
ARC
  5
230E
330
2
100
AcDbEntity
  8
0
100
AcDbCircle
 10
182.3004627892619
 20
76.44019796454813
 30
0.0
 40
5.0
100
AcDbArc
 50
254.0071522560038
 51
270.0
  0
ARC
  5
230F
330
2
100
AcDbEntity
  8
0
100
AcDbCircle
 10
175.4125288149548
 20
52.40779555518475
 30
0.0
 40
20.0
100
AcDbArc
 50
74.00715225600397
 51
96.11598998101571
  0
LINE
  5
2310
330
2
100
AcDbEntity
  8
0
100
AcDbLine
 10
182.3004627892619
 20
71.44019796454813
 30
0.0
 11
185.3004627892619
 21
71.44019796454836
 31
0.0
  0
LINE
  5
2311
330
2
100
AcDbEntity
  8
0
100
AcDbLine
 10
182.300462789261
 20
71.44019796454677
 30
0.0
 11
185.300462789261
 21
71.44019796454677
 31
0.0
  0
LINE
  5
2312
330
2
100
AcDbEntity
  8
0
100
AcDbLine
 10
188.3004627892619
 20
77.44019796454813
 30
0.0
 11
188.3004627892619
 21
74.44019796454814
 31
0.0
  0
LINE
  5
2313
330
2
100
AcDbEntity
  8
0
100
AcDbLine
 10
188.3004627892601
 20
77.44019796454677
 30
0.0
 11
188.3004627892601
 21
74.44019796454677
 31
0.0
  0
LINE
  5
2314
330
2
100
AcDbEntity
  8
0
100
AcDbLine
 10
188.3004627892637
 20
77.44019796454949
 30
0.0
 11
188.3004627892637
 21
74.44019796454973
 31
0.0
  0
LINE
  5
2315
330
2
100
AcDbEntity
  8
0
100
AcDbLine
 10
188.3004627892619
 20
77.44019796454813
 30
0.0
 11
188.3004627892619
 21
74.44019796454836
 31
0.0
  0
ARC
  5
2316
330
2
100
AcDbEntity
  8
0
100
AcDbCircle
 10
183.3004627892619
 20
77.44019796454836
 30
0.0
 40
5.0
100
AcDbArc
 50
0.0
 51
15.99284774399706
  0
ARC
  5
2317
330
2
100
AcDbEntity
  8
0
100
AcDbCircle
 10
207.3328651986253
 20
84.32813193885612
 30
0.0
 40
20.0
100
AcDbArc
 50
173.8840100189312
 51
195.992847743997
  0
ARC
  5
2318
330
2
100
AcDbEntity
  8
0
100
AcDbCircle
 10
185.3004627892619
 20
74.44019796454677
 30
0.0
 40
3.0
100
AcDbArc
 50
270.0
 51
0.0
  0
LINE
  5
2319
330
2
100
AcDbEntity
  8
0
100
AcDbLine
 10
185.3004627892619
 20
129.5948985029258
 30
0.0
 11
185.3004627892619
 21
127.2854974261672
 31
0.0
  0
LINE
  5
231A
330
2
100
AcDbEntity
  8
0
100
AcDbLine
 10
183.3004627892619
 20
130.7495990413049
 30
0.0
 11
181.3004627892619
 21
129.5948985029258
 31
0.0
  0
LINE
  5
231B
330
2
100
AcDbEntity
  8
0
100
AcDbLine
 10
181.3004627892619
 20
127.2854974261672
 30
0.0
 11
183.3004627892619
 21
126.1307968877881
 31
0.0
  0
LINE
  5
231C
330
2
100
AcDbEntity
  8
0
100
AcDbLine
 10
181.3004627892619
 20
129.5948985029258
 30
0.0
 11
181.3004627892619
 21
127.2854974261672
 31
0.0
  0
LINE
  5
231D
330
2
100
AcDbEntity
  8
0
100
AcDbLine
 10
183.3004627892619
 20
130.7495990413049
 30
0.0
 11
185.3004627892619
 21
129.5948985029258
 31
0.0
  0
CIRCLE
  5
231E
330
2
100
AcDbEntity
  8
0
100
AcDbCircle
 10
183.3004627892619
 20
128.4401979645463
 30
0.0
 40
3.730384757729268
  0
CIRCLE
  5
231F
330
2
100
AcDbEntity
  8
0
100
AcDbCircle
 10
183.3004627892619
 20
128.4401979645463
 30
0.0
 40
4.250000000000085
  0
LINE
  5
2320
330
2
100
AcDbEntity
  8
0
100
AcDbLine
 10
185.3004627892619
 20
127.2854974261672
 30
0.0
 11
183.3004627892619
 21
126.1307968877881
 31
0.0
  0
LINE
  5
2321
330
2
100
AcDbEntity
  8
0
100
AcDbLine
 10
171.2407918856692
 20
127.5595956271031
 30
0.0
 11
172.0061587503992
 21
129.4073546921256
 31
0.0
  0
ARC
  5
2322
330
2
100
AcDbEntity
  8
0
100
AcDbCircle
 10
169.3273747238431
 20
122.9401979645467
 30
0.0
 40
5.0
100
AcDbArc
 50
45.00000000000784
 51
90.0
  0
ARC
  5
2323
330
2
100
AcDbEntity
  8
0
100
AcDbCircle
 10
169.3273747238431
 20
122.9401979645467
 30
0.0
 40
7.0
100
AcDbArc
 50
45.00000000000784
 51
90.0
  0
ARC
  5
2324
330
2
100
AcDbEntity
  8
0
100
AcDbCircle
 10
177.8004627892619
 20
114.4671098991279
 30
0.0
 40
7.0
100
AcDbArc
 50
0.0
 51
45.00000000000784
  0
LINE
  5
2325
330
2
100
AcDbEntity
  8
0
100
AcDbLine
 10
182.4198604518183
 20
116.3805270609534
 30
0.0
 11
184.267619516841
 21
117.1458939256835
 31
0.0
  0
ARC
  5
2326
330
2
100
AcDbEntity
  8
0
100
AcDbCircle
 10
177.8004627892619
 20
114.4671098991277
 30
0.0
 40
5.0
100
AcDbArc
 50
0.0
 51
45.00000000000784
  0
LINE
  5
2327
330
2
100
AcDbEntity
  8
CENTER
100
AcDbLine
 10
183.3004627892637
 20
134.1901979645465
 30
0.0
 11
183.3004627892637
 21
122.6901979645465
 31
0.0
  0
LINE
  5
2328
330
2
100
AcDbEntity
  8
0
100
AcDbLine
 10
172.8629086297764
 20
126.4757318704794
 30
0.0
 11
181.3359966951952
 21
118.0026438050604
 31
0.0
  0
LINE
  5
2329
330
2
100
AcDbEntity
  8
0
100
AcDbLine
 10
174.2771221921489
 20
127.8899454328525
 30
0.0
 11
182.7502102575676
 21
119.4168573674337
 31
0.0
  0
LINE
  5
232A
330
2
100
AcDbEntity
  8
CENTER
100
AcDbLine
 10
189.0504627892637
 20
128.4401979645463
 30
0.0
 11
177.5504627892637
 21
128.4401979645467
 31
0.0
  0
ARC
  5
232B
330
2
100
AcDbEntity
  8
0
100
AcDbCircle
 10
182.3004627892619
 20
128.4401979645481
 30
0.0
 40
5.0
100
AcDbArc
 50
90.0
 51
105.992847743996
  0
ARC
  5
232C
330
2
100
AcDbEntity
  8
0
100
AcDbCircle
 10
175.4125288149548
 20
152.4726003739117
 30
0.0
 40
20.0
100
AcDbArc
 50
263.8840100189318
 51
285.992847743996
  0
LINE
  5
232D
330
2
100
AcDbEntity
  8
0
100
AcDbLine
 10
182.3004627892637
 20
133.4401979645467
 30
0.0
 11
185.3004627892637
 21
133.4401979645467
 31
0.0
  0
LINE
  5
232E
330
2
100
AcDbEntity
  8
0
100
AcDbLine
 10
182.3004627892619
 20
133.4401979645481
 30
0.0
 11
185.3004627892619
 21
133.4401979645481
 31
0.0
  0
LINE
  5
232F
330
2
100
AcDbEntity
  8
0
100
AcDbLine
 10
182.300462789261
 20
133.4401979645499
 30
0.0
 11
185.300462789261
 21
133.4401979645497
 31
0.0
  0
LINE
  5
2330
330
2
100
AcDbEntity
  8
0
100
AcDbLine
 10
182.3004627892619
 20
133.4401979645483
 30
0.0
 11
185.3004627892619
 21
133.4401979645481
 31
0.0
  0
ARC
  5
2331
330
2
100
AcDbEntity
  8
0
100
AcDbCircle
 10
183.3004627892619
 20
127.4401979645481
 30
0.0
 40
5.0
100
AcDbArc
 50
344.0071522560029
 51
0.0
  0
LINE
  5
2332
330
2
100
AcDbEntity
  8
0
100
AcDbLine
 10
188.3004627892637
 20
127.4401979645469
 30
0.0
 11
188.3004627892637
 21
130.4401979645467
 31
0.0
  0
ARC
  5
2333
330
2
100
AcDbEntity
  8
0
100
AcDbCircle
 10
207.3328651986253
 20
120.5522639902403
 30
0.0
 40
20.0
100
AcDbArc
 50
164.0071522560029
 51
186.1159899810687
  0
ARC
  5
2334
330
2
100
AcDbEntity
  8
0
100
AcDbCircle
 10
185.3004627892619
 20
130.4401979645467
 30
0.0
 40
3.0
100
AcDbArc
 50
0.0
 51
90.0
  0
LINE
  5
2337
330
2
100
AcDbEntity
  8
0
100
AcDbLine
 10
305.755739648444
 20
86.45896323598663
 30
0.0
 11
254.7557396484403
 21
86.45896323598663
 31
0.0
  0
LINE
  5
2338
330
2
100
AcDbEntity
  8
0
100
AcDbLine
 10
305.755739648444
 20
77.44019796454131
 30
0.0
 11
254.7557396484403
 21
77.44019796454131
 31
0.0
  0
LINE
  5
2339
330
2
100
AcDbEntity
  8
0
100
AcDbLine
 10
305.755739648444
 20
74.44019796453858
 30
0.0
 11
254.7557396484403
 21
74.44019796453858
 31
0.0
  0
LINE
  5
233A
330
2
100
AcDbEntity
  8
0
100
AcDbLine
 10
305.755739648444
 20
118.4214326930987
 30
0.0
 11
254.7557396484403
 21
118.4214326930987
 31
0.0
  0
LINE
  5
233B
330
2
100
AcDbEntity
  8
0
100
AcDbLine
 10
305.755739648444
 20
127.440197964544
 30
0.0
 11
254.7557396484403
 21
127.440197964544
 31
0.0
  0
LINE
  5
233C
330
2
100
AcDbEntity
  8
0
100
AcDbLine
 10
305.755739648444
 20
130.4401979645467
 30
0.0
 11
254.7557396484403
 21
130.4401979645467
 31
0.0
  0
LINE
  5
233D
330
2
100
AcDbEntity
  8
0
100
AcDbLine
 10
254.7557015707802
 20
133.4401977983966
 30
0.0
 11
306.7557396484439
 21
132.9864003409593
 31
0.0
  0
LINE
  5
233E
330
2
100
AcDbEntity
  8
0
100
AcDbLine
 10
254.7557396484403
 20
71.44019796454222
 30
0.0
 11
306.7557396484439
 21
71.8939950896638
 31
0.0
  0
LINE
  5
233F
330
2
100
AcDbEntity
  8
0
100
AcDbLine
 10
301.8041204525993
 20
71.39259120332804
 30
0.0
 11
273.7557396484439
 21
70.94019796454245
 31
0.0
  0
LINE
  5
2340
330
2
100
AcDbEntity
  8
0
100
AcDbLine
 10
301.8041204525993
 20
133.4878047257573
 30
0.0
 11
273.7557396484439
 21
133.9401979645429
 31
0.0
  0
LINE
  5
2341
330
2
100
AcDbEntity
  8
CENTER
100
AcDbLine
 10
230.7557396484403
 20
102.4401979645426
 30
0.0
 11
345.7557396484439
 21
102.4401979645426
 31
0.0
  0
LINE
  5
2342
330
2
100
AcDbEntity
  8
0
100
AcDbLine
 10
238.7557396484403
 20
79.44019796454222
 30
0.0
 11
238.7557396484403
 21
125.4401979645435
 31
0.0
  0
LINE
  5
2343
330
2
100
AcDbEntity
  8
0
100
AcDbLine
 10
242.4557396484401
 20
124.1901979645463
 30
0.0
 11
242.4557396484401
 21
80.69019796453904
 31
0.0
  0
LINE
  5
2344
330
2
100
AcDbEntity
  8
0
100
AcDbLine
 10
248.2557396484021
 20
72.19019796453904
 30
0.0
 11
248.2557396484348
 21
132.6901979645463
 31
0.0
  0
LINE
  5
2345
330
2
100
AcDbEntity
  8
0
100
AcDbLine
 10
242.2557396484376
 20
80.69019796453904
 30
0.0
 11
242.2557396484376
 21
124.1901979645463
 31
0.0
  0
LINE
  5
2346
330
2
100
AcDbEntity
  8
0
100
AcDbLine
 10
240.2557396484403
 20
79.64019796454249
 30
0.0
 11
240.2557396484403
 21
125.2401979645433
 31
0.0
  0
LINE
  5
2347
330
2
100
AcDbEntity
  8
0
100
AcDbLine
 10
245.7557396484357
 20
124.1901979645463
 30
0.0
 11
245.7557396484403
 21
80.69019796453904
 31
0.0
  0
LINE
  5
2348
330
2
100
AcDbEntity
  8
0
100
AcDbLine
 10
237.7557396484403
 20
80.01754823373152
 30
0.0
 11
237.7557396484403
 21
124.8628476953538
 31
0.0
  0
LINE
  5
2349
330
2
100
AcDbEntity
  8
0
100
AcDbLine
 10
254.7557396484403
 20
71.44456139844078
 30
0.0
 11
254.7557396484403
 21
133.4358345306727
 31
0.0
  0
LINE
  5
234A
330
2
100
AcDbEntity
  8
0
100
AcDbLine
 10
245.7073588442885
 20
71.39259120332804
 30
0.0
 11
273.7557396484439
 21
70.94019796454245
 31
0.0
  0
LINE
  5
234B
330
2
100
AcDbEntity
  8
HIDS
100
AcDbLine
 10
241.9557396484374
 20
80.14019796454249
 30
0.0
 11
242.0557396484405
 21
80.14019796454249
 31
0.0
  0
LINE
  5
234C
330
2
100
AcDbEntity
  8
HIDS
100
AcDbLine
 10
245.7557396484403
 20
80.69019796453904
 30
0.0
 11
245.7557396484403
 21
77.44019796454313
 31
0.0
  0
LINE
  5
234D
330
2
100
AcDbEntity
  8
0
100
AcDbLine
 10
241.9557396484374
 20
80.1705827222686
 30
0.0
 11
241.9557396484374
 21
72.70981320680994
 31
0.0
  0
LINE
  5
234E
330
2
100
AcDbEntity
  8
0
100
AcDbLine
 10
242.2557396484376
 20
72.19019796453904
 30
0.0
 11
241.9557396484374
 21
72.70981320680994
 31
0.0
  0
LINE
  5
234F
330
2
100
AcDbEntity
  8
0
100
AcDbLine
 10
242.2557396484376
 20
80.69019796453904
 30
0.0
 11
241.9557396484374
 21
80.1705827222686
 31
0.0
  0
LINE
  5
2350
330
2
100
AcDbEntity
  8
0
100
AcDbLine
 10
242.2557396484376
 20
80.69019796453904
 30
0.0
 11
242.2557396484376
 21
72.19019796453904
 31
0.0
  0
LINE
  5
2351
330
2
100
AcDbEntity
  8
0
100
AcDbLine
 10
246.9557396484374
 20
80.69019796453904
 30
0.0
 11
246.9557396484374
 21
72.19019796453904
 31
0.0
  0
LINE
  5
2352
330
2
100
AcDbEntity
  8
0
100
AcDbLine
 10
242.2557396484376
 20
80.69019796453904
 30
0.0
 11
248.2557396484376
 21
80.69019796453904
 31
0.0
  0
LINE
  5
2353
330
2
100
AcDbEntity
  8
0
100
AcDbLine
 10
242.2557396484376
 20
72.19019796453904
 30
0.0
 11
248.2557396484021
 21
72.19019796453904
 31
0.0
  0
LINE
  5
2354
330
2
100
AcDbEntity
  8
CENTER
  6
CENS
100
AcDbLine
 10
259.9536941251249
 20
76.44019796453903
 30
0.0
 11
238.9557396484374
 21
76.44019796453903
 31
0.0
  0
LINE
  5
2355
330
2
100
AcDbEntity
  8
0
100
AcDbLine
 10
254.7557396484403
 20
86.45896323598663
 30
0.0
 11
249.2557396484376
 21
86.45896323598663
 31
0.0
  0
LINE
  5
2356
330
2
100
AcDbEntity
  8
0
100
AcDbLine
 10
254.7557396484403
 20
77.44019796454131
 30
0.0
 11
249.2557396484376
 21
77.44019796454131
 31
0.0
  0
LINE
  5
2357
330
2
100
AcDbEntity
  8
0
100
AcDbLine
 10
254.7557396484403
 20
74.44019796453858
 30
0.0
 11
249.2557396484376
 21
74.44019796453858
 31
0.0
  0
ARC
  5
2358
330
2
100
AcDbEntity
  8
HIDS
100
AcDbCircle
 10
246.2557396484348
 20
74.11177083980374
 30
0.0
 40
2.0
100
AcDbArc
 50
0.0000000000521102
 51
45.00000000000784
  0
LINE
  5
2359
330
2
100
AcDbEntity
  8
HIDS
100
AcDbLine
 10
247.6699532108073
 20
75.52598440217707
 30
0.0
 11
245.7557396484403
 21
77.44019796454267
 31
0.0
  0
ARC
  5
235A
330
2
100
AcDbEntity
  8
0
100
AcDbCircle
 10
249.2557396484021
 20
72.48823381577768
 30
0.0
 40
1.0
100
AcDbArc
 50
179.9999999999739
 51
269.4999999999824
  0
LINE
  5
235B
330
2
100
AcDbEntity
  8
0
100
AcDbLine
 10
254.7557396484403
 20
71.44019796454222
 30
0.0
 11
249.2470131129043
 21
71.48827189271333
 31
0.0
  0
ARC
  5
235C
330
2
100
AcDbEntity
  8
HIDS
100
AcDbCircle
 10
242.0557396484405
 20
79.94019796454245
 30
0.0
 40
0.2
100
AcDbArc
 50
0.0
 51
90.0
  0
ARC
  5
235D
330
2
100
AcDbEntity
  8
0
100
AcDbCircle
 10
240.4557396484401
 20
79.94019796454222
 30
0.0
 40
0.2
100
AcDbArc
 50
90.0
 51
180.0
  0
ARC
  5
235E
330
2
100
AcDbEntity
  8
0
100
AcDbCircle
 10
240.0557396484405
 20
79.64019796454249
 30
0.0
 40
0.2
100
AcDbArc
 50
270.0
 51
0.0
  0
LINE
  5
235F
330
2
100
AcDbEntity
  8
0
100
AcDbLine
 10
240.4557396484401
 20
80.14019796454226
 30
0.0
 11
241.9557396484374
 21
80.14019796454249
 31
0.0
  0
LINE
  5
2360
330
2
100
AcDbEntity
  8
0
100
AcDbLine
 10
238.7557396484403
 20
79.44019796454222
 30
0.0
 11
240.0557396484405
 21
79.44019796454222
 31
0.0
  0
LINE
  5
2361
330
2
100
AcDbEntity
  8
HIDS
100
AcDbLine
 10
242.2557396484403
 20
79.64019796454249
 30
0.0
 11
242.4557396484401
 21
79.44019796454267
 31
0.0
  0
LINE
  5
2362
330
2
100
AcDbEntity
  8
0
100
AcDbLine
 10
238.7557396484403
 20
79.44019796454222
 30
0.0
 11
237.7557396484403
 21
80.01754823373175
 31
0.0
  0
LINE
  5
2363
330
2
100
AcDbEntity
  8
HIDS
100
AcDbLine
 10
242.4557396484401
 20
79.44019796454267
 30
0.0
 11
245.7557396484403
 21
79.44019796454313
 31
0.0
  0
LINE
  5
2364
330
2
100
AcDbEntity
  8
HIDS
100
AcDbLine
 10
246.2557396484403
 20
76.94019796454313
 30
0.0
 11
245.7557396484403
 21
77.44019796454313
 31
0.0
  0
ARC
  5
2365
330
2
100
AcDbEntity
  8
0
100
AcDbCircle
 10
245.7557396484439
 20
74.39220106092466
 30
0.0
 40
3.0
100
AcDbArc
 50
227.2228718954006
 51
269.0759546471809
  0
ARC
  5
2366
330
2
100
AcDbEntity
  8
HIDS
100
AcDbCircle
 10
245.7557396484439
 20
74.39220106092466
 30
0.0
 40
3.0
100
AcDbArc
 50
180.0
 51
227.2228718954006
  0
LINE
  5
2367
330
2
100
AcDbEntity
  8
HIDS
100
AcDbLine
 10
242.7557396484439
 20
74.39220106092466
 30
0.0
 11
242.7557396484439
 21
79.44019796454267
 31
0.0
  0
LINE
  5
2368
330
2
100
AcDbEntity
  8
0
100
AcDbLine
 10
245.7073588442885
 20
133.4878047257573
 30
0.0
 11
273.7557396484439
 21
133.9401979645429
 31
0.0
  0
POINT
  5
2369
330
2
100
AcDbEntity
  8
0
100
AcDbPoint
 10
245.2557396484394
 20
102.4401979645426
 30
0.0
  0
LINE
  5
236A
330
2
100
AcDbEntity
  8
HIDS
100
AcDbLine
 10
241.9557396484374
 20
124.740197964543
 30
0.0
 11
242.0557396484405
 21
124.7401979645428
 31
0.0
  0
LINE
  5
236B
330
2
100
AcDbEntity
  8
HIDS
100
AcDbLine
 10
242.4557396484401
 20
125.4401979645431
 30
0.0
 11
242.4557396484401
 21
124.1901979645463
 31
0.0
  0
LINE
  5
236C
330
2
100
AcDbEntity
  8
HIDS
100
AcDbLine
 10
245.7557396484348
 20
127.4401979645367
 30
0.0
 11
245.7557396484357
 21
124.1901979645463
 31
0.0
  0
LINE
  5
236D
330
2
100
AcDbEntity
  8
0
100
AcDbLine
 10
241.9557396484374
 20
124.7098132068167
 30
0.0
 11
241.9557396484374
 21
132.1705827222754
 31
0.0
  0
LINE
  5
236E
330
2
100
AcDbEntity
  8
0
100
AcDbLine
 10
242.2557396484376
 20
132.6901979645463
 30
0.0
 11
241.9557396484374
 21
132.1705827222754
 31
0.0
  0
LINE
  5
236F
330
2
100
AcDbEntity
  8
0
100
AcDbLine
 10
242.2557396484376
 20
124.1901979645463
 30
0.0
 11
241.9557396484374
 21
124.7098132068167
 31
0.0
  0
LINE
  5
2370
330
2
100
AcDbEntity
  8
0
100
AcDbLine
 10
242.2557396484376
 20
124.1901979645463
 30
0.0
 11
242.2557396484376
 21
132.6901979645463
 31
0.0
  0
LINE
  5
2371
330
2
100
AcDbEntity
  8
0
100
AcDbLine
 10
246.9557396484374
 20
124.1901979645463
 30
0.0
 11
246.9557396484374
 21
132.6901979645463
 31
0.0
  0
LINE
  5
2372
330
2
100
AcDbEntity
  8
0
100
AcDbLine
 10
242.2557396484376
 20
124.1901979645463
 30
0.0
 11
248.2557396484376
 21
124.1901979645463
 31
0.0
  0
LINE
  5
2373
330
2
100
AcDbEntity
  8
0
100
AcDbLine
 10
242.2557396484376
 20
132.6901979645463
 30
0.0
 11
248.2557396484348
 21
132.6901979645463
 31
0.0
  0
LINE
  5
2374
330
2
100
AcDbEntity
  8
CENTER
  6
CENS
100
AcDbLine
 10
259.9536941251249
 20
128.4401979645463
 30
0.0
 11
238.9557396484374
 21
128.4401979645463
 31
0.0
  0
LINE
  5
2375
330
2
100
AcDbEntity
  8
0
100
AcDbLine
 10
254.7557396484403
 20
118.4214326930987
 30
0.0
 11
249.2557396484376
 21
118.4214326930987
 31
0.0
  0
LINE
  5
2376
330
2
100
AcDbEntity
  8
0
100
AcDbLine
 10
254.7557396484403
 20
127.440197964544
 30
0.0
 11
249.2557396484376
 21
127.440197964544
 31
0.0
  0
LINE
  5
2377
330
2
100
AcDbEntity
  8
0
100
AcDbLine
 10
254.7557396484403
 20
130.4401979645467
 30
0.0
 11
249.2557396484376
 21
130.4401979645467
 31
0.0
  0
ARC
  5
2378
330
2
100
AcDbEntity
  8
HIDS
100
AcDbCircle
 10
242.0557396484405
 20
124.9401979645431
 30
0.0
 40
0.2
100
AcDbArc
 50
270.0
 51
0.0
  0
ARC
  5
2379
330
2
100
AcDbEntity
  8
0
100
AcDbCircle
 10
240.4557396484401
 20
124.9401979645433
 30
0.0
 40
0.2
100
AcDbArc
 50
180.0
 51
270.0
  0
ARC
  5
237A
330
2
100
AcDbEntity
  8
0
100
AcDbCircle
 10
240.0557396484405
 20
125.2401979645433
 30
0.0
 40
0.2
100
AcDbArc
 50
0.0
 51
90.0
  0
ARC
  5
237B
330
2
100
AcDbEntity
  8
HIDS
100
AcDbCircle
 10
246.2557396484348
 20
130.7686250892816
 30
0.0
 40
2.0
100
AcDbArc
 50
314.9999999999921
 51
359.9999999999739
  0
ARC
  5
237C
330
2
100
AcDbEntity
  8
0
100
AcDbCircle
 10
249.2557396484357
 20
132.3921622794605
 30
0.0
 40
1.0
100
AcDbArc
 50
90.50000000001761
 51
179.9999999999739
  0
LINE
  5
237D
330
2
100
AcDbEntity
  8
HIDS
100
AcDbLine
 10
247.6699532108073
 20
129.3544115269082
 30
0.0
 11
245.7557396484348
 21
127.4401979645367
 31
0.0
  0
LINE
  5
237E
330
2
100
AcDbEntity
  8
0
100
AcDbLine
 10
238.7557396484403
 20
125.4401979645435
 30
0.0
 11
240.0557396484405
 21
125.4401979645431
 31
0.0
  0
LINE
  5
237F
330
2
100
AcDbEntity
  8
0
100
AcDbLine
 10
238.7557396484403
 20
125.4401979645435
 30
0.0
 11
237.7557396484403
 21
124.862847695354
 31
0.0
  0
LINE
  5
2380
330
2
100
AcDbEntity
  8
HIDS
100
AcDbLine
 10
242.2557396484403
 20
125.2401979645428
 30
0.0
 11
242.4557396484401
 21
125.4401979645431
 31
0.0
  0
LINE
  5
2381
330
2
100
AcDbEntity
  8
0
100
AcDbLine
 10
240.4557396484401
 20
124.7401979645433
 30
0.0
 11
241.9557396484374
 21
124.740197964543
 31
0.0
  0
LINE
  5
2382
330
2
100
AcDbEntity
  8
HIDS
100
AcDbLine
 10
242.4557396484401
 20
125.4401979645431
 30
0.0
 11
245.7557396484403
 21
125.4401979645426
 31
0.0
  0
LINE
  5
2383
330
2
100
AcDbEntity
  8
0
100
AcDbLine
 10
254.7557015707802
 20
133.4401977983966
 30
0.0
 11
249.2559109939243
 21
133.3922018531557
 31
0.0
  0
ARC
  5
2384
330
2
100
AcDbEntity
  8
HIDS
100
AcDbCircle
 10
245.7557396484439
 20
130.4881948681607
 30
0.0
 40
3.0
100
AcDbArc
 50
132.7771281045281
 51
180.0
  0
ARC
  5
2385
330
2
100
AcDbEntity
  8
0
100
AcDbCircle
 10
245.7557396484439
 20
130.4881948681607
 30
0.0
 40
3.0
100
AcDbArc
 50
90.92404535281902
 51
132.7771281045281
  0
LINE
  5
2386
330
2
100
AcDbEntity
  8
HIDS
100
AcDbLine
 10
242.7557396484439
 20
125.4401979645431
 30
0.0
 11
242.7557396484439
 21
130.4881948681607
 31
0.0
  0
LINE
  5
2387
330
2
100
AcDbEntity
  8
0
100
AcDbLine
 10
316.7557396484458
 20
82.37157551415384
 30
0.0
 11
316.7557396484458
 21
122.5088204149342
 31
0.0
  0
LINE
  5
2388
330
2
100
AcDbEntity
  8
0
100
AcDbLine
 10
306.7557396484439
 20
71.8939950896638
 30
0.0
 11
306.7557396484439
 21
132.9864003409593
 31
0.0
  0
LINE
  5
2389
330
2
100
AcDbEntity
  8
0
100
AcDbLine
 10
309.7557396484476
 20
127.440197964536
 30
0.0
 11
309.7557396484476
 21
77.44019796453608
 31
0.0
  0
ARC
  5
238A
330
2
100
AcDbEntity
  8
0
100
AcDbCircle
 10
314.7557396484248
 20
82.37157551415384
 30
0.0
 40
2.0
100
AcDbArc
 50
271.9999999999515
 51
359.9999999999478
  0
ARC
  5
238B
330
2
100
AcDbEntity
  8
0
100
AcDbCircle
 10
311.7557396484203
 20
78.26437502848785
 30
0.0
 40
2.0
100
AcDbArc
 50
91.99999999995149
 51
179.9999999999479
  0
LINE
  5
238C
330
2
100
AcDbEntity
  8
0
100
AcDbLine
 10
311.685940655017
 20
80.26315668252573
 30
0.0
 11
314.8255386418272
 21
80.37279386011688
 31
0.0
  0
ARC
  5
238D
330
2
100
AcDbEntity
  8
0
100
AcDbCircle
 10
301.7557396484439
 20
74.39220106092443
 30
0.0
 40
3.0
100
AcDbArc
 50
270.9240453527669
 51
302.7429559374902
  0
LINE
  5
238E
330
2
100
AcDbEntity
  8
0
100
AcDbLine
 10
306.7557396484476
 20
77.44019796453608
 30
0.0
 11
309.7557396484476
 21
77.44019796453608
 31
0.0
  0
LINE
  5
238F
330
2
100
AcDbEntity
  8
0
100
AcDbLine
 10
318.7557396484439
 20
96.44015967206678
 30
0.0
 11
338.2557396484439
 21
96.44015967206678
 31
0.0
  0
LINE
  5
2390
330
2
100
AcDbEntity
  8
0
100
AcDbLine
 10
318.7557396484439
 20
108.4401596720667
 30
0.0
 11
338.2557396484439
 21
108.4401596720667
 31
0.0
  0
LINE
  5
2391
330
2
100
AcDbEntity
  8
0
100
AcDbLine
 10
317.5057396484439
 20
93.29581457567462
 30
0.0
 11
317.3538353183726
 21
93.20811256981675
 31
0.0
  0
ARC
  5
2392
330
2
100
AcDbEntity
  8
0
100
AcDbCircle
 10
317.2557396484439
 20
93.72882727756678
 30
0.0
 40
0.5
100
AcDbArc
 50
300.0000000000001
 51
0.0
  0
ARC
  5
2393
330
2
100
AcDbEntity
  8
0
100
AcDbCircle
 10
316.3538353183726
 20
94.9401633773856
 30
0.0
 40
2.0
100
AcDbArc
 50
281.5926445677326
 51
300.0000000000001
  0
LINE
  5
2394
330
2
100
AcDbEntity
  8
0
100
AcDbLine
 10
317.5057396484439
 20
111.5845084737777
 30
0.0
 11
317.3538353183726
 21
111.6722104796356
 31
0.0
  0
LINE
  5
2395
330
2
100
AcDbEntity
  8
0
100
AcDbLine
 10
318.7557343306998
 20
95.44018138121577
 30
0.0
 11
317.7557338920992
 21
94.86283187170533
 31
0.0
  0
LINE
  5
2396
330
2
100
AcDbEntity
  8
0
100
AcDbLine
 10
318.7557396484439
 20
109.4401596720666
 30
0.0
 11
317.7557396484439
 21
110.0175099412563
 31
0.0
  0
LINE
  5
2397
330
2
100
AcDbEntity
  8
0
100
AcDbLine
 10
318.7557396484439
 20
109.4401596720666
 30
0.0
 11
318.7557396484439
 21
95.44015967206679
 31
0.0
  0
ARC
  5
2398
330
2
100
AcDbEntity
  8
0
100
AcDbCircle
 10
317.2557396484439
 20
111.1514957718855
 30
0.0
 40
0.5
100
AcDbArc
 50
0.0
 51
59.99999999999986
  0
LINE
  5
2399
330
2
100
AcDbEntity
  8
0
100
AcDbLine
 10
317.7557396484439
 20
93.72882727756678
 30
0.0
 11
317.7557396484439
 21
111.1514957718855
 31
0.0
  0
ARC
  5
239A
330
2
100
AcDbEntity
  8
0
100
AcDbCircle
 10
316.3538353183726
 20
109.9401596720667
 30
0.0
 40
2.0
100
AcDbArc
 50
59.99999999999986
 51
78.40735543226728
  0
ARC
  5
239B
330
2
100
AcDbEntity
  8
0
100
AcDbCircle
 10
314.7557396484458
 20
122.5088204149342
 30
0.0
 40
2.0
100
AcDbArc
 50
0.0
 51
87.99999999999634
  0
ARC
  5
239C
330
2
100
AcDbEntity
  8
0
100
AcDbCircle
 10
311.7557396484457
 20
126.6160209006038
 30
0.0
 40
2.0
100
AcDbArc
 50
180.0
 51
267.9999999999963
  0
LINE
  5
239D
330
2
100
AcDbEntity
  8
0
100
AcDbLine
 10
311.6859406550406
 20
124.6172392465659
 30
0.0
 11
314.8255386418509
 21
124.5076020689721
 31
0.0
  0
ARC
  5
239E
330
2
100
AcDbEntity
  8
0
100
AcDbCircle
 10
301.7557396484439
 20
130.4881948681607
 30
0.0
 40
3.0
100
AcDbArc
 50
57.25704406251026
 51
89.07595464718097
  0
LINE
  5
239F
330
2
100
AcDbEntity
  8
0
100
AcDbLine
 10
306.7557396484476
 20
127.440197964536
 30
0.0
 11
309.7557396484476
 21
127.440197964536
 31
0.0
  0
LINE
  5
23A0
330
2
100
AcDbEntity
  8
0
100
AcDbLine
 10
338.2557396484439
 20
108.4401596720667
 30
0.0
 11
338.2557396484439
 21
96.44015967206678
 31
0.0
  0
LINE
  5
23A1
330
2
100
AcDbEntity
  8
0
100
AcDbLine
 10
338.2557396484439
 20
108.4401596720667
 30
0.0
 11
338.7557396484439
 21
107.9401596720667
 31
0.0
  0
LINE
  5
23A2
330
2
100
AcDbEntity
  8
0
100
AcDbLine
 10
338.2557396484439
 20
96.44015967206678
 30
0.0
 11
338.7557396484439
 21
96.94015967206679
 31
0.0
  0
LINE
  5
23A3
330
2
100
AcDbEntity
  8
0
100
AcDbLine
 10
338.7557396484439
 20
107.9401596720667
 30
0.0
 11
338.7557396484439
 21
96.94015967206679
 31
0.0
  0
CIRCLE
  5
23A5
330
2
100
AcDbEntity
  8
0
100
AcDbCircle
 10
453.0337840950119
 20
102.4401979645473
 30
0.0
 40
9.499961707520014
  0
CIRCLE
  5
23A6
330
2
100
AcDbEntity
  8
0
100
AcDbCircle
 10
453.0337840950119
 20
102.4401979645473
 30
0.0
 40
7.577311976709552
  0
CIRCLE
  5
23A7
330
2
100
AcDbEntity
  8
0
100
AcDbCircle
 10
453.0337840950119
 20
102.4401979645473
 30
0.0
 40
6.999961707519901
  0
CIRCLE
  5
23A8
330
2
100
AcDbEntity
  8
0
100
AcDbCircle
 10
453.0337840950119
 20
102.4401979645469
 30
0.0
 40
5.999961707520469
  0
CIRCLE
  5
23A9
330
2
100
AcDbEntity
  8
0
100
AcDbCircle
 10
453.0337840950109
 20
102.4401979645471
 30
0.0
 40
22.0
  0
CIRCLE
  5
23AA
330
2
100
AcDbEntity
  8
0
100
AcDbCircle
 10
453.0337840950109
 20
102.4401979645471
 30
0.0
 40
18.0774
  0
ARC
  5
23AB
330
2
100
AcDbEntity
  8
0
100
AcDbCircle
 10
453.0337840950128
 20
221.4401979645474
 30
0.0
 40
150.0
100
AcDbArc
 50
263.8840100189318
 51
276.1159899810681
  0
ARC
  5
23AC
330
2
100
AcDbEntity
  8
0
100
AcDbCircle
 10
453.0337840950128
 20
-16.5598020354526
 30
0.0
 40
150.0
100
AcDbArc
 50
83.88401001893187
 51
96.11598998106813
  0
CIRCLE
  5
23AD
330
2
100
AcDbEntity
  8
0
100
AcDbCircle
 10
453.0337840950119
 20
102.4401979645471
 30
0.0
 40
25.0
  0
CIRCLE
  5
23AE
330
2
100
AcDbEntity
  8
0
100
AcDbCircle
 10
453.0337840950119
 20
102.4401979645471
 30
0.0
 40
17.5
  0
ARC
  5
23AF
330
2
100
AcDbEntity
  8
0
100
AcDbCircle
 10
572.033784095011
 20
102.4401979645455
 30
0.0
 40
150.0
100
AcDbArc
 50
173.8840100189312
 51
186.1159899810687
  0
ARC
  5
23B0
330
2
100
AcDbEntity
  8
0
100
AcDbCircle
 10
428.0337840950109
 20
76.44019796454603
 30
0.0
 40
5.0
100
AcDbArc
 50
270.0
 51
285.992847743996
  0
ARC
  5
23B1
330
2
100
AcDbEntity
  8
0
100
AcDbCircle
 10
434.9217180693199
 20
52.40779555518265
 30
0.0
 40
20.0
100
AcDbArc
 50
83.88401001893187
 51
105.992847743996
  0
LINE
  5
23B2
330
2
100
AcDbEntity
  8
0
100
AcDbLine
 10
428.03378409501
 20
71.44019796454739
 30
0.0
 11
425.03378409501
 21
71.44019796454739
 31
0.0
  0
LINE
  5
23B3
330
2
100
AcDbEntity
  8
0
100
AcDbLine
 10
428.0337840950109
 20
71.44019796454603
 30
0.0
 11
425.033784095011
 21
71.44019796454603
 31
0.0
  0
LINE
  5
23B4
330
2
100
AcDbEntity
  8
0
100
AcDbLine
 10
428.0337840950128
 20
71.44019796454421
 30
0.0
 11
425.0337840950128
 21
71.44019796454443
 31
0.0
  0
LINE
  5
23B5
330
2
100
AcDbEntity
  8
0
100
AcDbLine
 10
428.0337840950109
 20
71.44019796454603
 30
0.0
 11
425.033784095011
 21
71.44019796454603
 31
0.0
  0
ARC
  5
23B6
330
2
100
AcDbEntity
  8
0
100
AcDbCircle
 10
427.033784095011
 20
77.44019796454603
 30
0.0
 40
5.0
100
AcDbArc
 50
164.007152255978
 51
180.0
  0
LINE
  5
23B7
330
2
100
AcDbEntity
  8
0
100
AcDbLine
 10
422.0337840950101
 20
77.4401979645474
 30
0.0
 11
422.0337840950101
 21
74.44019796454739
 31
0.0
  0
ARC
  5
23B8
330
2
100
AcDbEntity
  8
0
100
AcDbCircle
 10
403.0013816856485
 20
84.3281319388538
 30
0.0
 40
20.0
100
AcDbArc
 50
344.007152255978
 51
6.115989981068741
  0
LINE
  5
23B9
330
2
100
AcDbEntity
  8
CENTER
100
AcDbLine
 10
426.1637264099221
 20
82.07014027945859
 30
0.0
 11
426.1637264099221
 21
69.0701402794586
 31
0.0
  0
ARC
  5
23BA
330
2
100
AcDbEntity
  8
0
100
AcDbCircle
 10
425.0337840950119
 20
74.44019796454694
 30
0.0
 40
3.0
100
AcDbArc
 50
180.0
 51
270.0
  0
CIRCLE
  5
23BB
330
2
100
AcDbEntity
  8
HOJO
100
AcDbCircle
 10
426.1637264099231
 20
75.57014027945815
 30
0.0
 40
2.5
  0
CIRCLE
  5
23BC
330
2
100
AcDbEntity
  8
0
100
AcDbCircle
 10
426.1637264099231
 20
75.57014027945815
 30
0.0
 40
2.1
  0
LINE
  5
23BD
330
2
100
AcDbEntity
  8
CENTER
100
AcDbLine
 10
419.6637264099222
 20
75.5701402794586
 30
0.0
 11
432.6637264099222
 21
75.5701402794586
 31
0.0
  0
ARC
  5
23BE
330
2
100
AcDbEntity
  8
0
100
AcDbCircle
 10
428.0337840950109
 20
128.440197964546
 30
0.0
 40
5.0
100
AcDbArc
 50
74.00715225600397
 51
90.0
  0
ARC
  5
23BF
330
2
100
AcDbEntity
  8
0
100
AcDbCircle
 10
434.9217180693199
 20
152.4726003739094
 30
0.0
 40
20.0
100
AcDbArc
 50
254.0071522560038
 51
276.1159899810681
  0
LINE
  5
23C0
330
2
100
AcDbEntity
  8
0
100
AcDbLine
 10
428.0337840950109
 20
133.440197964546
 30
0.0
 11
425.033784095011
 21
133.440197964546
 31
0.0
  0
LINE
  5
23C1
330
2
100
AcDbEntity
  8
0
100
AcDbLine
 10
428.0337840950128
 20
133.4401979645474
 30
0.0
 11
425.0337840950128
 21
133.4401979645474
 31
0.0
  0
LINE
  5
23C2
330
2
100
AcDbEntity
  8
0
100
AcDbLine
 10
422.033784095011
 20
127.440197964546
 30
0.0
 11
422.033784095011
 21
130.440197964546
 31
0.0
  0
LINE
  5
23C3
330
2
100
AcDbEntity
  8
0
100
AcDbLine
 10
422.0337840950127
 20
127.4401979645473
 30
0.0
 11
422.0337840950127
 21
130.4401979645473
 31
0.0
  0
LINE
  5
23C4
330
2
100
AcDbEntity
  8
0
100
AcDbLine
 10
422.0337840950101
 20
127.4401979645446
 30
0.0
 11
422.0337840950101
 21
130.4401979645446
 31
0.0
  0
LINE
  5
23C5
330
2
100
AcDbEntity
  8
0
100
AcDbLine
 10
422.033784095011
 20
127.440197964546
 30
0.0
 11
422.033784095011
 21
130.440197964546
 31
0.0
  0
ARC
  5
23C6
330
2
100
AcDbEntity
  8
0
100
AcDbCircle
 10
427.033784095011
 20
127.4401979645457
 30
0.0
 40
5.0
100
AcDbArc
 50
180.0
 51
195.992847744022
  0
ARC
  5
23C7
330
2
100
AcDbEntity
  8
0
100
AcDbCircle
 10
403.0013816856485
 20
120.552263990238
 30
0.0
 40
20.0
100
AcDbArc
 50
353.8840100189312
 51
15.99284774402199
  0
ARC
  5
23C8
330
2
100
AcDbEntity
  8
0
100
AcDbCircle
 10
425.0337840950119
 20
130.4401979645471
 30
0.0
 40
3.0
100
AcDbArc
 50
90.0
 51
180.0
  0
CIRCLE
  5
23C9
330
2
100
AcDbEntity
  8
HOJO
100
AcDbCircle
 10
426.1637264099231
 20
129.3102556496357
 30
0.0
 40
2.5
  0
CIRCLE
  5
23CA
330
2
100
AcDbEntity
  8
0
100
AcDbCircle
 10
426.1637264099231
 20
129.3102556496357
 30
0.0
 40
2.1
  0
LINE
  5
23CB
330
2
100
AcDbEntity
  8
CENTER
100
AcDbLine
 10
432.6637264099231
 20
129.3102556496361
 30
0.0
 11
419.6637264099231
 21
129.3102556496361
 31
0.0
  0
LINE
  5
23CC
330
2
100
AcDbEntity
  8
0
100
AcDbLine
 10
498.5337840950146
 20
125.4401979638261
 30
0.0
 11
498.5337840950146
 21
79.44019796526021
 31
0.0
  0
LINE
  5
23CD
330
2
100
AcDbEntity
  8
0
100
AcDbLine
 10
510.0337840950165
 20
131.9401979645469
 30
0.0
 11
510.0337840950165
 21
72.94019796454739
 31
0.0
  0
LINE
  5
23CF
330
2
100
AcDbEntity
  8
0
100
AcDbLine
 10
484.033784095011
 20
74.44019796454694
 30
0.0
 11
484.0337840950155
 21
130.4401979645469
 31
0.0
  0
ARC
  5
23D0
330
2
100
AcDbEntity
  8
0
100
AcDbCircle
 10
487.0337840950128
 20
75.44019796526043
 30
0.0
 40
3.0
100
AcDbArc
 50
90.0
 51
180.0
  0
ARC
  5
23D1
330
2
100
AcDbEntity
  8
0
100
AcDbCircle
 10
487.0337840950119
 20
79.44019796454694
 30
0.0
 40
3.0
100
AcDbArc
 50
90.0
 51
180.0
  0
LINE
  5
23D2
330
2
100
AcDbEntity
  8
CENTER
100
AcDbLine
 10
473.4038417801007
 20
75.57014027945815
 30
0.0
 11
486.4038417801006
 21
75.57014027945815
 31
0.0
  0
ARC
  5
23D3
330
2
100
AcDbEntity
  8
0
100
AcDbCircle
 10
478.0337840950109
 20
76.44019796454603
 30
0.0
 40
5.0
100
AcDbArc
 50
254.0071522560038
 51
270.0
  0
LINE
  5
23D4
330
2
100
AcDbEntity
  8
0
100
AcDbLine
 10
478.03378409501
 20
71.44019796454443
 30
0.0
 11
481.0337840950101
 21
71.44019796454443
 31
0.0
  0
ARC
  5
23D5
330
2
100
AcDbEntity
  8
0
100
AcDbCircle
 10
471.1458501207039
 20
52.40779555518265
 30
0.0
 40
20.0
100
AcDbArc
 50
74.00715225600397
 51
96.11598998106813
  0
CIRCLE
  5
23D6
330
2
100
AcDbEntity
  8
HOJO
100
AcDbCircle
 10
479.9038417801007
 20
75.57014027945837
 30
0.0
 40
2.5
  0
CIRCLE
  5
23D7
330
2
100
AcDbEntity
  8
0
100
AcDbCircle
 10
479.9038417801007
 20
75.57014027945837
 30
0.0
 40
2.1
  0
ARC
  5
23D8
330
2
100
AcDbEntity
  8
0
100
AcDbCircle
 10
481.0337840950118
 20
74.44019796454739
 30
0.0
 40
3.0
100
AcDbArc
 50
270.0
 51
0.0000000068264372
  0
LINE
  5
23D9
330
2
100
AcDbEntity
  8
CENTER
100
AcDbLine
 10
479.9038417801007
 20
69.07014027945814
 30
0.0
 11
479.9038417801007
 21
82.07014027945815
 31
0.0
  0
ARC
  5
23DA
330
2
100
AcDbEntity
  8
0
100
AcDbCircle
 10
512.0337840950164
 20
72.94019796454739
 30
0.0
 40
2.0
100
AcDbArc
 50
180.0
 51
270.0
  0
LINE
  5
23DB
330
2
100
AcDbEntity
  8
0
100
AcDbLine
 10
518.0337840950183
 20
70.94019796454785
 30
0.0
 11
512.0337840950164
 21
70.94019796454739
 31
0.0
  0
ARC
  5
23DC
330
2
100
AcDbEntity
  8
0
100
AcDbCircle
 10
497.5337840950219
 20
75.44019796526043
 30
0.0
 40
3.0
100
AcDbArc
 50
53.1301023542602
 51
90.0
  0
LINE
  5
23DD
330
2
100
AcDbEntity
  8
0
100
AcDbLine
 10
487.0337840950128
 20
78.44019796526044
 30
0.0
 11
497.5337840950219
 21
78.44019796526044
 31
0.0
  0
LINE
  5
23DE
330
2
100
AcDbEntity
  8
0
100
AcDbLine
 10
500.5337840950146
 20
77.44019796526021
 30
0.0
 11
507.0337840950164
 21
77.44019796525998
 31
0.0
  0
ARC
  5
23DF
330
2
100
AcDbEntity
  8
0
100
AcDbCircle
 10
507.0337840950164
 20
74.44019796525998
 30
0.0
 40
3.0
100
AcDbArc
 50
0.0
 51
90.0
  0
LINE
  5
23E0
330
2
100
AcDbEntity
  8
0
100
AcDbLine
 10
498.5337840950146
 20
79.44019796454694
 30
0.0
 11
498.5337840950146
 21
79.44019796526021
 31
0.0
  0
ARC
  5
23E1
330
2
100
AcDbEntity
  8
0
100
AcDbCircle
 10
500.5337840950146
 20
79.44019796526021
 30
0.0
 40
2.0
100
AcDbArc
 50
180.0
 51
270.0
  0
ARC
  5
23E2
330
2
100
AcDbEntity
  8
0
100
AcDbCircle
 10
495.5337840950146
 20
79.44019796454694
 30
0.0
 40
3.0
100
AcDbArc
 50
0.0
 51
90.0
  0
LINE
  5
23E3
330
2
100
AcDbEntity
  8
0
100
AcDbLine
 10
487.0337840950119
 20
82.44019796454693
 30
0.0
 11
495.5337840950146
 21
82.44019796454693
 31
0.0
  0
ARC
  5
23E4
330
2
100
AcDbEntity
  8
0
100
AcDbCircle
 10
512.0337840950164
 20
73.44019796454739
 30
0.0
 40
2.0
100
AcDbArc
 50
180.0
 51
270.0
  0
LINE
  5
23E5
330
2
100
AcDbEntity
  8
0
100
AcDbLine
 10
518.0337840950183
 20
71.44019796454784
 30
0.0
 11
512.0337840950164
 21
71.44019796454739
 31
0.0
  0
ARC
  5
23E6
330
2
100
AcDbEntity
  8
0
100
AcDbCircle
 10
487.0337840950128
 20
129.4401979638339
 30
0.0
 40
3.0
100
AcDbArc
 50
180.0
 51
270.0
  0
ARC
  5
23E7
330
2
100
AcDbEntity
  8
0
100
AcDbCircle
 10
487.0337840950137
 20
97.44019796454693
 30
0.0
 40
3.0
100
AcDbArc
 50
90.0
 51
180.0
  0
ARC
  5
23E8
330
2
100
AcDbEntity
  8
0
100
AcDbCircle
 10
487.0337840950137
 20
107.4401979645469
 30
0.0
 40
3.0
100
AcDbArc
 50
180.0
 51
270.0
  0
ARC
  5
23E9
330
2
100
AcDbEntity
  8
0
100
AcDbCircle
 10
487.0337840950119
 20
125.4401979645469
 30
0.0
 40
3.0
100
AcDbArc
 50
180.0
 51
270.0
  0
LINE
  5
23EA
330
2
100
AcDbEntity
  8
CENTER
100
AcDbLine
 10
486.4038417801006
 20
129.3102556496357
 30
0.0
 11
473.4038417801007
 21
129.3102556496357
 31
0.0
  0
ARC
  5
23EB
330
2
100
AcDbEntity
  8
0
100
AcDbCircle
 10
478.0337840950109
 20
128.440197964546
 30
0.0
 40
5.0
100
AcDbArc
 50
90.0
 51
105.992847743996
  0
LINE
  5
23EC
330
2
100
AcDbEntity
  8
0
100
AcDbLine
 10
478.0337840950109
 20
133.440197964546
 30
0.0
 11
481.033784095011
 21
133.440197964546
 31
0.0
  0
LINE
  5
23ED
330
2
100
AcDbEntity
  8
0
100
AcDbLine
 10
478.03378409501
 20
133.4401979645474
 30
0.0
 11
481.0337840950101
 21
133.4401979645474
 31
0.0
  0
LINE
  5
23EE
330
2
100
AcDbEntity
  8
0
100
AcDbLine
 10
478.0337840950128
 20
133.4401979645444
 30
0.0
 11
481.0337840950128
 21
133.4401979645442
 31
0.0
  0
LINE
  5
23EF
330
2
100
AcDbEntity
  8
0
100
AcDbLine
 10
478.0337840950119
 20
133.440197964546
 30
0.0
 11
481.033784095011
 21
133.4401979645458
 31
0.0
  0
ARC
  5
23F0
330
2
100
AcDbEntity
  8
0
100
AcDbCircle
 10
471.1458501207039
 20
152.4726003739094
 30
0.0
 40
20.0
100
AcDbArc
 50
263.8840100189318
 51
285.992847743996
  0
CIRCLE
  5
23F1
330
2
100
AcDbEntity
  8
0
100
AcDbCircle
 10
479.9038417801007
 20
129.3102556496359
 30
0.0
 40
2.1
  0
CIRCLE
  5
23F2
330
2
100
AcDbEntity
  8
HOJO
100
AcDbCircle
 10
479.9038417801007
 20
129.3102556496359
 30
0.0
 40
2.5
  0
ARC
  5
23F3
330
2
100
AcDbEntity
  8
0
100
AcDbCircle
 10
481.0337840950118
 20
130.4401979645469
 30
0.0
 40
3.0
100
AcDbArc
 50
359.9999999931214
 51
90.0
  0
LINE
  5
23F4
330
2
100
AcDbEntity
  8
0
100
AcDbLine
 10
518.0337840950146
 20
133.9401979645469
 30
0.0
 11
512.0337840950164
 21
133.9401979645469
 31
0.0
  0
ARC
  5
23F5
330
2
100
AcDbEntity
  8
0
100
AcDbCircle
 10
512.0337840950164
 20
131.9401979645469
 30
0.0
 40
2.0
100
AcDbArc
 50
90.0
 51
180.0
  0
ARC
  5
23F6
330
2
100
AcDbEntity
  8
0
100
AcDbCircle
 10
497.5337840950219
 20
129.4401979638339
 30
0.0
 40
3.0
100
AcDbArc
 50
270.0
 51
306.8698976456909
  0
LINE
  5
23F7
330
2
100
AcDbEntity
  8
0
100
AcDbLine
 10
487.0337840950128
 20
126.4401979638339
 30
0.0
 11
497.5337840950219
 21
126.4401979638339
 31
0.0
  0
ARC
  5
23F8
330
2
100
AcDbEntity
  8
0
100
AcDbCircle
 10
495.5337840950146
 20
97.44019796454693
 30
0.0
 40
3.0
100
AcDbArc
 50
0.0
 51
90.0
  0
LINE
  5
23F9
330
2
100
AcDbEntity
  8
0
100
AcDbLine
 10
487.0337840950137
 20
100.4401979645469
 30
0.0
 11
495.5337840950146
 21
100.4401979645469
 31
0.0
  0
ARC
  5
23FA
330
2
100
AcDbEntity
  8
0
100
AcDbCircle
 10
495.5337840950146
 20
107.4401979645469
 30
0.0
 40
3.0
100
AcDbArc
 50
270.0
 51
0.0
  0
ARC
  5
23FB
330
2
100
AcDbEntity
  8
0
100
AcDbCircle
 10
507.0337840950164
 20
130.4401979638261
 30
0.0
 40
3.0
100
AcDbArc
 50
270.0
 51
0.0
  0
LINE
  5
23FC
330
2
100
AcDbEntity
  8
0
100
AcDbLine
 10
500.5337840950146
 20
127.4401979638261
 30
0.0
 11
507.0337840950164
 21
127.4401979638261
 31
0.0
  0
ARC
  5
23FD
330
2
100
AcDbEntity
  8
0
100
AcDbCircle
 10
500.5337840950146
 20
125.4401979638261
 30
0.0
 40
2.0
100
AcDbArc
 50
90.0
 51
180.0
  0
ARC
  5
23FE
330
2
100
AcDbEntity
  8
0
100
AcDbCircle
 10
495.5337840950146
 20
125.4401979645469
 30
0.0
 40
3.0
100
AcDbArc
 50
270.0
 51
0.0
  0
LINE
  5
23FF
330
2
100
AcDbEntity
  8
0
100
AcDbLine
 10
487.0337840950119
 20
122.4401979645469
 30
0.0
 11
495.5337840950146
 21
122.4401979645469
 31
0.0
  0
LINE
  5
2400
330
2
100
AcDbEntity
  8
0
100
AcDbLine
 10
487.0337840950137
 20
104.4401979645469
 30
0.0
 11
495.5337840950146
 21
104.4401979645469
 31
0.0
  0
LINE
  5
2401
330
2
100
AcDbEntity
  8
0
100
AcDbLine
 10
518.0337840950146
 20
133.4401979645469
 30
0.0
 11
512.0337840950164
 21
133.4401979645469
 31
0.0
  0
ARC
  5
2402
330
2
100
AcDbEntity
  8
0
100
AcDbCircle
 10
512.0337840950164
 20
131.4401979645469
 30
0.0
 40
2.0
100
AcDbArc
 50
90.0
 51
180.0
  0
LINE
  5
2413
330
2
100
AcDbEntity
  8
0
100
AcDbLine
 10
636.9707333907505
 20
108.4402362570099
 30
0.0
 11
617.4707333907505
 21
108.4402362570099
 31
0.0
  0
LINE
  5
2414
330
2
100
AcDbEntity
  8
0
100
AcDbLine
 10
636.9707333907505
 20
96.44023625700999
 30
0.0
 11
617.4707333907505
 21
96.44023625700999
 31
0.0
  0
LINE
  5
2415
330
2
100
AcDbEntity
  8
0
100
AcDbLine
 10
617.4707333907505
 20
96.44023625700999
 30
0.0
 11
617.4707333907505
 21
108.4402362570099
 31
0.0
  0
LINE
  5
2416
330
2
100
AcDbEntity
  8
0
100
AcDbLine
 10
617.4707333907505
 20
96.44023625700999
 30
0.0
 11
616.9707333907505
 21
96.94023625700999
 31
0.0
  0
LINE
  5
2417
330
2
100
AcDbEntity
  8
0
100
AcDbLine
 10
617.4707333907505
 20
108.4402362570099
 30
0.0
 11
616.9707333907505
 21
107.9402362570099
 31
0.0
  0
LINE
  5
2418
330
2
100
AcDbEntity
  8
0
100
AcDbLine
 10
616.9707333907505
 20
96.94023625700999
 30
0.0
 11
616.9707333907505
 21
107.9402362570099
 31
0.0
  0
LINE
  5
2419
330
2
100
AcDbEntity
  8
0
100
AcDbLine
 10
638.2207333907505
 20
111.584581353402
 30
0.0
 11
638.3726377208224
 21
111.6722833592598
 31
0.0
  0
ARC
  5
241A
330
2
100
AcDbEntity
  8
0
100
AcDbCircle
 10
638.4707333907505
 20
111.1515686515099
 30
0.0
 40
0.5
100
AcDbArc
 50
119.9999999999997
 51
180.0
  0
ARC
  5
241B
330
2
100
AcDbEntity
  8
0
100
AcDbCircle
 10
639.3726377208223
 20
109.940232551691
 30
0.0
 40
2.0
100
AcDbArc
 50
101.5926445677327
 51
119.9999999999997
  0
LINE
  5
241C
330
2
100
AcDbEntity
  8
0
100
AcDbLine
 10
638.2207333907505
 20
93.29588745529878
 30
0.0
 11
638.3726377208224
 21
93.20818544944092
 31
0.0
  0
LINE
  5
241D
330
2
100
AcDbEntity
  8
0
100
AcDbLine
 10
636.9707387084946
 20
109.4402145478607
 30
0.0
 11
637.9707391470953
 21
110.0175640573711
 31
0.0
  0
LINE
  5
241E
330
2
100
AcDbEntity
  8
0
100
AcDbLine
 10
636.9707333907505
 20
95.44023625700999
 30
0.0
 11
637.9707333907504
 21
94.86288598782044
 31
0.0
  0
LINE
  5
241F
330
2
100
AcDbEntity
  8
0
100
AcDbLine
 10
636.9707333907505
 20
95.44023625700999
 30
0.0
 11
636.9707333907505
 21
109.4402362570099
 31
0.0
  0
ARC
  5
2420
330
2
100
AcDbEntity
  8
0
100
AcDbCircle
 10
638.4707333907505
 20
93.72890015719127
 30
0.0
 40
0.5
100
AcDbArc
 50
180.0
 51
240.0000000000002
  0
LINE
  5
2421
330
2
100
AcDbEntity
  8
0
100
AcDbLine
 10
637.9707333907504
 20
111.1515686515099
 30
0.0
 11
637.9707333907504
 21
93.72890015719127
 31
0.0
  0
ARC
  5
2422
330
2
100
AcDbEntity
  8
0
100
AcDbCircle
 10
639.3726377208223
 20
94.94023625700998
 30
0.0
 40
2.0
100
AcDbArc
 50
240.0000000000002
 51
258.4073554322673
  0
LINE
  5
2456
330
2
100
AcDbEntity
  8
0
100
AcDbLine
 10
447.0337458025356
 20
259.5176682526044
 30
0.0
 11
447.0337458025356
 21
240.0176682526043
 31
0.0
  0
LINE
  5
2457
330
2
100
AcDbEntity
  8
0
100
AcDbLine
 10
459.0337458025356
 20
259.5176682526044
 30
0.0
 11
459.0337458025356
 21
240.0176682526043
 31
0.0
  0
LINE
  5
2458
330
2
100
AcDbEntity
  8
0
100
AcDbLine
 10
459.0337458025356
 20
240.0176682526043
 30
0.0
 11
447.0337458025356
 21
240.0176682526043
 31
0.0
  0
LINE
  5
2459
330
2
100
AcDbEntity
  8
0
100
AcDbLine
 10
458.5337458025356
 20
239.5176682526043
 30
0.0
 11
447.5337458025355
 21
239.5176682526043
 31
0.0
  0
LINE
  5
245A
330
2
100
AcDbEntity
  8
0
100
AcDbLine
 10
447.0337458025356
 20
240.0176682526043
 30
0.0
 11
447.5337458025355
 21
239.5176682526043
 31
0.0
  0
LINE
  5
245B
330
2
100
AcDbEntity
  8
0
100
AcDbLine
 10
459.0337458025356
 20
240.0176682526043
 30
0.0
 11
458.5337458025356
 21
239.5176682526043
 31
0.0
  0
LINE
  5
245C
330
2
100
AcDbEntity
  8
0
100
AcDbLine
 10
460.0337458025355
 20
259.5176682526044
 30
0.0
 11
446.0337458025356
 21
259.5176682526044
 31
0.0
  0
LINE
  5
245D
330
2
100
AcDbEntity
  8
0
100
AcDbLine
 10
444.3224134080355
 20
260.5176682526043
 30
0.0
 11
461.7450819023543
 21
260.5176682526043
 31
0.0
  0
LINE
  5
245E
330
2
100
AcDbEntity
  8
0
100
AcDbLine
 10
432.9651616446176
 20
261.5176682526042
 30
0.0
 11
473.1024065453971
 21
261.517668252604
 31
0.0
  0
LINE
  5
245F
330
2
100
AcDbEntity
  8
0
100
AcDbLine
 10
478.0337840934767
 20
268.5176682548309
 30
0.0
 11
428.0337840934767
 21
268.5176682548309
 31
0.0
  0
LINE
  5
2460
330
2
100
AcDbEntity
  8
0
100
AcDbLine
 10
422.4875812185769
 20
271.5176682548311
 30
0.0
 11
483.5757974581647
 21
271.5176682548309
 31
0.0
  0
LINE
  5
2461
330
2
100
AcDbEntity
  8
0
100
AcDbLine
 10
443.8894007061435
 20
260.7676682526043
 30
0.0
 11
443.8016987002856
 21
260.9195725826759
 31
0.0
  0
ARC
  5
2462
330
2
100
AcDbEntity
  8
0
100
AcDbCircle
 10
444.3224134080355
 20
261.0176682526043
 30
0.0
 40
0.5
100
AcDbArc
 50
209.9999999999931
 51
270.0
  0
ARC
  5
2463
330
2
100
AcDbEntity
  8
0
100
AcDbCircle
 10
445.5337495078542
 20
261.9195725826759
 30
0.0
 40
2.0
100
AcDbArc
 50
191.5926445677321
 51
209.9999999999931
  0
LINE
  5
2464
330
2
100
AcDbEntity
  8
0
100
AcDbLine
 10
446.0337675116847
 20
259.5176735703485
 30
0.0
 11
445.4564180021743
 21
260.5176740089489
 31
0.0
  0
ARC
  5
2465
330
2
100
AcDbEntity
  8
0
100
AcDbCircle
 10
432.9651616446176
 20
263.5176682526258
 30
0.0
 40
2.0
100
AcDbArc
 50
181.9999999999513
 51
269.9999999999478
  0
ARC
  5
2466
330
2
100
AcDbEntity
  8
0
100
AcDbCircle
 10
428.8579611589507
 20
266.5176682526299
 30
0.0
 40
2.0
100
AcDbArc
 50
1.999999999951318
 51
89.99999999994789
  0
LINE
  5
2467
330
2
100
AcDbEntity
  8
0
100
AcDbLine
 10
430.8567428129886
 20
266.5874672460328
 30
0.0
 11
430.9663799905798
 21
263.447869259223
 31
0.0
  0
LINE
  5
2468
330
2
100
AcDbEntity
  8
0
100
AcDbLine
 10
428.0337840934767
 20
271.5176682548309
 30
0.0
 11
428.0337840934767
 21
268.5176682548309
 31
0.0
  0
ARC
  5
2469
330
2
100
AcDbEntity
  8
0
100
AcDbCircle
 10
486.6282729000281
 20
277.5176682552056
 30
0.0
 40
3.0
100
AcDbArc
 50
90.0
 51
179.5000000003992
  0
ARC
  5
246A
330
2
100
AcDbEntity
  8
0
100
AcDbCircle
 10
486.6631803711402
 20
281.5176682526039
 30
0.0
 40
3.0
100
AcDbArc
 50
90.0
 51
179.5000000003992
  0
LINE
  5
246B
330
2
100
AcDbEntity
  8
0
100
AcDbLine
 10
462.1780946042467
 20
260.7676682526043
 30
0.0
 11
462.2657966101046
 21
260.9195725826759
 31
0.0
  0
LINE
  5
246C
330
2
100
AcDbEntity
  8
0
100
AcDbLine
 10
460.0337458025355
 20
259.5176682526044
 30
0.0
 11
460.6110960717251
 21
260.5176682526043
 31
0.0
  0
ARC
  5
246D
330
2
100
AcDbEntity
  8
0
100
AcDbCircle
 10
461.7450819023543
 20
261.0176682526043
 30
0.0
 40
0.5
100
AcDbArc
 50
270.0
 51
330.0000000000068
  0
ARC
  5
246E
330
2
100
AcDbEntity
  8
0
100
AcDbCircle
 10
460.5337458025355
 20
261.9195725826759
 30
0.0
 40
2.0
100
AcDbArc
 50
330.0000000000068
 51
348.4073554322678
  0
ARC
  5
246F
330
2
100
AcDbEntity
  8
0
100
AcDbCircle
 10
473.1024065453971
 20
263.5176682526042
 30
0.0
 40
2.0
100
AcDbArc
 50
270.0
 51
357.9999999999964
  0
ARC
  5
2470
330
2
100
AcDbEntity
  8
0
100
AcDbCircle
 10
477.2096070310676
 20
266.5176682526042
 30
0.0
 40
2.0
100
AcDbArc
 50
90.0
 51
177.9999999999964
  0
LINE
  5
2471
330
2
100
AcDbEntity
  8
0
100
AcDbLine
 10
475.2108253770297
 20
266.5874672460091
 30
0.0
 11
475.101188199435
 21
263.4478692591993
 31
0.0
  0
LINE
  5
2472
330
2
100
AcDbEntity
  8
0
100
AcDbLine
 10
478.0337840934767
 20
271.5176682548311
 30
0.0
 11
478.0337840934767
 21
268.5176682548309
 31
0.0
  0
ARC
  5
2473
330
2
100
AcDbEntity
  8
0
100
AcDbCircle
 10
506.9541979528334
 20
276.5176682526042
 30
0.0
 40
3.0
100
AcDbArc
 50
1.499999999989731
 51
90.0
  0
LINE
  5
2474
330
2
100
AcDbEntity
  8
0
100
AcDbLine
 10
500.4820978368575
 20
279.5176682526042
 30
0.0
 11
506.9541979528334
 21
279.5176682526042
 31
0.0
  0
ARC
  5
2475
330
2
100
AcDbEntity
  8
0
100
AcDbCircle
 10
511.9820978368557
 20
275.5176682526042
 30
0.0
 40
2.0
100
AcDbArc
 50
181.4999999999897
 51
270.0
  0
LINE
  5
2476
330
2
100
AcDbEntity
  8
0
100
AcDbLine
 10
511.9820978368557
 20
273.5176682526042
 30
0.0
 11
518.0337840950165
 21
273.5176682548318
 31
0.0
  0
ARC
  5
2477
330
2
100
AcDbEntity
  8
0
100
AcDbCircle
 10
497.4820978309185
 20
277.5176682552056
 30
0.0
 40
3.0
100
AcDbArc
 50
53.13010226910886
 51
90.0
  0
LINE
  5
2478
330
2
100
AcDbEntity
  8
0
100
AcDbLine
 10
486.6282729000281
 20
280.5176682552056
 30
0.0
 11
497.4820978309185
 21
280.5176682552056
 31
0.0
  0
ARC
  5
2479
330
2
100
AcDbEntity
  8
0
100
AcDbCircle
 10
495.4803838743532
 20
281.5176682526042
 30
0.0
 40
3.0
100
AcDbArc
 50
1.500000000015777
 51
90.0
  0
LINE
  5
247A
330
2
100
AcDbEntity
  8
0
100
AcDbLine
 10
486.6631803711402
 20
284.5176682526039
 30
0.0
 11
495.4803838743532
 21
284.5176682526042
 31
0.0
  0
ARC
  5
247B
330
2
100
AcDbEntity
  8
0
100
AcDbCircle
 10
500.4820978368557
 20
281.5176682507524
 30
0.0
 40
2.0
100
AcDbArc
 50
181.4999999999897
 51
270.0
  0
LINE
  5
247D
330
2
100
AcDbEntity
  8
CENTER
100
AcDbLine
 10
453.0337840950119
 20
347.5176682526058
 30
0.0
 11
453.0337840950115
 21
232.5176682526044
 31
0.0
  0
LINE
  5
247E
330
2
100
AcDbEntity
  8
0
100
AcDbLine
 10
430.033784095011
 20
339.5176682526054
 30
0.0
 11
476.0337840950128
 21
339.5176682526054
 31
0.0
  0
LINE
  5
247F
330
2
100
AcDbEntity
  8
0
100
AcDbLine
 10
474.7837840950146
 20
335.8176682526055
 30
0.0
 11
431.2837840950074
 21
335.8176682526055
 31
0.0
  0
LINE
  5
2480
330
2
100
AcDbEntity
  8
0
100
AcDbLine
 10
422.7837840950074
 20
330.0176682526436
 30
0.0
 11
483.2837840950146
 21
330.0176682526104
 31
0.0
  0
LINE
  5
2481
330
2
100
AcDbEntity
  8
0
100
AcDbLine
 10
431.2837840950074
 20
336.0176682526083
 30
0.0
 11
474.7837840950146
 21
336.0176682526083
 31
0.0
  0
LINE
  5
2482
330
2
100
AcDbEntity
  8
0
100
AcDbLine
 10
430.2337840950117
 20
338.0176682526056
 30
0.0
 11
475.8337840950121
 21
338.0176682526056
 31
0.0
  0
LINE
  5
2483
330
2
100
AcDbEntity
  8
0
100
AcDbLine
 10
474.7837840950146
 20
332.5176682526103
 30
0.0
 11
431.2837840950074
 21
332.5176682526056
 31
0.0
  0
LINE
  5
2484
330
2
100
AcDbEntity
  8
0
100
AcDbLine
 10
430.6111343642
 20
340.5176682526058
 30
0.0
 11
475.4564338258228
 21
340.5176682526058
 31
0.0
  0
LINE
  5
2485
330
2
100
AcDbEntity
  8
0
100
AcDbLine
 10
422.0381475289091
 20
323.5176682526051
 30
0.0
 11
483.6979736069874
 21
323.5176682526051
 31
0.0
  0
LINE
  5
2486
330
2
100
AcDbEntity
  8
0
100
AcDbLine
 10
425.033784095011
 20
323.5176682526053
 30
0.0
 11
425.033784095011
 21
273.0176492141364
 31
0.0
  0
LINE
  5
2487
330
2
100
AcDbEntity
  8
0
100
AcDbLine
 10
428.0337840950109
 20
323.5176682526053
 30
0.0
 11
428.0337840950109
 21
273.0176492141364
 31
0.0
  0
LINE
  5
2488
330
2
100
AcDbEntity
  8
0
100
AcDbLine
 10
437.052549366465
 20
323.5176682526053
 30
0.0
 11
437.052549366465
 21
273.0176492141364
 31
0.0
  0
LINE
  5
2489
330
2
100
AcDbEntity
  8
0
100
AcDbLine
 10
422.0337840934766
 20
323.5176682526053
 30
0.0
 11
422.4875812185769
 21
271.5176682548311
 31
0.0
  0
LINE
  5
248A
330
2
100
AcDbEntity
  8
CENTER
  6
CENS
100
AcDbLine
 10
427.0337840950073
 20
318.319713775923
 30
0.0
 11
427.0337840950073
 21
339.317668252611
 31
0.0
  0
LINE
  5
248B
330
2
100
AcDbEntity
  8
HIDS
100
AcDbLine
 10
430.7337840950117
 20
336.3176682526085
 30
0.0
 11
430.7337840950117
 21
336.2176682526056
 31
0.0
  0
LINE
  5
248C
330
2
100
AcDbEntity
  8
HIDS
100
AcDbLine
 10
431.2837840950074
 20
332.5176682526056
 30
0.0
 11
428.0337840950119
 21
332.5176682526052
 31
0.0
  0
LINE
  5
248D
330
2
100
AcDbEntity
  8
0
100
AcDbLine
 10
430.7641688527369
 20
336.3176682526085
 30
0.0
 11
423.3033993372787
 21
336.3176682526085
 31
0.0
  0
LINE
  5
248E
330
2
100
AcDbEntity
  8
0
100
AcDbLine
 10
422.7837840950074
 20
336.0176682526083
 30
0.0
 11
423.3033993372787
 21
336.3176682526085
 31
0.0
  0
LINE
  5
248F
330
2
100
AcDbEntity
  8
0
100
AcDbLine
 10
431.2837840950074
 20
336.0176682526083
 30
0.0
 11
430.7641688527369
 21
336.3176682526085
 31
0.0
  0
LINE
  5
2490
330
2
100
AcDbEntity
  8
0
100
AcDbLine
 10
431.2837840950074
 20
336.0176682526083
 30
0.0
 11
422.7837840950074
 21
336.0176682526083
 31
0.0
  0
LINE
  5
2491
330
2
100
AcDbEntity
  8
0
100
AcDbLine
 10
431.2837840950074
 20
331.3176682526085
 30
0.0
 11
422.7837840950074
 21
331.3176682526085
 31
0.0
  0
LINE
  5
2492
330
2
100
AcDbEntity
  8
0
100
AcDbLine
 10
431.2837840950074
 20
336.0176682526083
 30
0.0
 11
431.2837840950074
 21
330.0176682526085
 31
0.0
  0
LINE
  5
2493
330
2
100
AcDbEntity
  8
0
100
AcDbLine
 10
422.7837840950074
 20
336.0176682526083
 30
0.0
 11
422.7837840950074
 21
330.0176682526436
 31
0.0
  0
LINE
  5
2494
330
2
100
AcDbEntity
  8
0
100
AcDbLine
 10
437.0525493664558
 20
323.5176682526051
 30
0.0
 11
437.0525493664558
 21
329.0176682526086
 31
0.0
  0
LINE
  5
2495
330
2
100
AcDbEntity
  8
0
100
AcDbLine
 10
428.03378409501
 20
323.5176682526051
 30
0.0
 11
428.03378409501
 21
329.0176682526086
 31
0.0
  0
LINE
  5
2496
330
2
100
AcDbEntity
  8
0
100
AcDbLine
 10
425.0337840950074
 20
323.5176682526051
 30
0.0
 11
425.0337840950074
 21
329.0176682526086
 31
0.0
  0
ARC
  5
2497
330
2
100
AcDbEntity
  8
HIDS
100
AcDbCircle
 10
424.7053569702725
 20
332.0176682526115
 30
0.0
 40
2.0
100
AcDbArc
 50
270.0000000000521
 51
315.0000000000267
  0
LINE
  5
2498
330
2
100
AcDbEntity
  8
HIDS
100
AcDbLine
 10
426.1195705326458
 20
330.6034546902386
 30
0.0
 11
428.0337840950109
 21
332.5176682526052
 31
0.0
  0
LINE
  5
2499
330
2
100
AcDbEntity
  8
0
100
AcDbLine
 10
422.0337840965453
 20
323.5176682525986
 30
0.0
 11
422.0817800417867
 21
329.0174588294545
 31
0.0
  0
ARC
  5
249A
330
2
100
AcDbEntity
  8
HIDS
100
AcDbCircle
 10
430.533784095011
 20
336.2176682526056
 30
0.0
 40
0.2
100
AcDbArc
 50
270.0
 51
0.0
  0
ARC
  5
249B
330
2
100
AcDbEntity
  8
0
100
AcDbCircle
 10
430.533784095011
 20
337.8176682526055
 30
0.0
 40
0.2
100
AcDbArc
 50
0.0
 51
90.0
  0
ARC
  5
249C
330
2
100
AcDbEntity
  8
0
100
AcDbCircle
 10
430.2337840950117
 20
338.2176682526056
 30
0.0
 40
0.2
100
AcDbArc
 50
180.0
 51
270.0
  0
ARC
  5
249D
330
2
100
AcDbEntity
  8
0
100
AcDbCircle
 10
423.0818199477803
 20
329.0176682526431
 30
0.0
 40
1.0
100
AcDbArc
 50
89.99999999994789
 51
179.5000000000083
  0
LINE
  5
249E
330
2
100
AcDbEntity
  8
0
100
AcDbLine
 10
430.7337840950108
 20
337.8176682526058
 30
0.0
 11
430.7337840950117
 21
336.3176682526085
 31
0.0
  0
LINE
  5
249F
330
2
100
AcDbEntity
  8
0
100
AcDbLine
 10
430.033784095011
 20
339.5176682526058
 30
0.0
 11
430.033784095011
 21
338.2176682526054
 31
0.0
  0
LINE
  5
24A0
330
2
100
AcDbEntity
  8
HIDS
100
AcDbLine
 10
430.2337840950117
 20
336.0176682526056
 30
0.0
 11
430.033784095011
 21
335.8176682526055
 31
0.0
  0
LINE
  5
24A1
330
2
100
AcDbEntity
  8
0
100
AcDbLine
 10
430.033784095011
 20
339.5176682526054
 30
0.0
 11
430.611134364201
 21
340.5176682526058
 31
0.0
  0
LINE
  5
24A2
330
2
100
AcDbEntity
  8
HIDS
100
AcDbLine
 10
430.033784095011
 20
335.8176682526055
 30
0.0
 11
430.0337840950119
 21
332.5176682526054
 31
0.0
  0
LINE
  5
24A3
330
2
100
AcDbEntity
  8
HIDS
100
AcDbLine
 10
427.5337840950119
 20
332.0176682526051
 30
0.0
 11
428.0337840950119
 21
332.5176682526052
 31
0.0
  0
ARC
  5
24A4
330
2
100
AcDbEntity
  8
0
100
AcDbCircle
 10
495.0090372861136
 20
299.5176682526042
 30
0.0
 40
3.0
100
AcDbArc
 50
1.499999999989731
 51
90.0
  0
LINE
  5
24A5
330
2
100
AcDbEntity
  8
0
100
AcDbLine
 10
469.0150188235406
 20
323.5176682526051
 30
0.0
 11
469.0150188235406
 21
273.0176492141364
 31
0.0
  0
LINE
  5
24A6
330
2
100
AcDbEntity
  8
0
100
AcDbLine
 10
480.8636101730922
 20
304.5176682526042
 30
0.0
 11
480.8636101730922
 21
273.0176492141364
 31
0.0
  0
LINE
  5
24A7
330
2
100
AcDbEntity
  8
0
100
AcDbLine
 10
478.0337840950182
 20
304.5176682526042
 30
0.0
 11
478.0337840950182
 21
273.0176492141364
 31
0.0
  0
LINE
  5
24A8
330
2
100
AcDbEntity
  8
0
100
AcDbLine
 10
509.9827831869047
 20
275.4653143559888
 30
0.0
 11
509.2220205263934
 21
304.5176682526042
 31
0.0
  0
LINE
  5
24A9
330
2
100
AcDbEntity
  8
0
100
AcDbLine
 10
498.4827831869047
 20
281.4653143541368
 30
0.0
 11
497.879136055742
 21
304.5176682526042
 31
0.0
  0
ARC
  5
24AA
330
2
100
AcDbEntity
  8
0
100
AcDbCircle
 10
486.8202639912492
 20
299.5176682526039
 30
0.0
 40
3.0
100
AcDbArc
 50
90.0
 51
179.5000000003992
  0
LINE
  5
24AB
330
2
100
AcDbEntity
  8
0
100
AcDbLine
 10
483.5757974581647
 20
271.5176682548309
 30
0.0
 11
483.8637840950114
 21
304.5176682526042
 31
0.0
  0
LINE
  5
24AD
330
2
100
AcDbEntity
  8
0
100
AcDbLine
 10
495.4411049919895
 20
323.0176682522375
 30
0.0
 11
484.1981475273483
 21
323.0176682522375
 31
0.0
  0
ARC
  5
24AE
330
2
100
AcDbEntity
  8
0
100
AcDbCircle
 10
486.8202639912156
 20
309.5176682526042
 30
0.0
 40
3.0
100
AcDbArc
 50
180.4999999999915
 51
270.0
  0
LINE
  5
24AF
330
2
100
AcDbEntity
  8
0
100
AcDbLine
 10
483.6457101668401
 20
329.0263947881088
 30
0.0
 11
483.6937840950108
 21
323.5176682526049
 31
0.0
  0
LINE
  5
24B0
330
2
100
AcDbEntity
  8
CENTER
  6
CENS
100
AcDbLine
 10
479.0337840950146
 20
318.319713775923
 30
0.0
 11
479.0337840950146
 21
339.317668252611
 31
0.0
  0
LINE
  5
24B1
330
2
100
AcDbEntity
  8
HIDS
100
AcDbLine
 10
475.3337840950121
 20
336.3176682526085
 30
0.0
 11
475.3337840950121
 21
336.2176682526056
 31
0.0
  0
LINE
  5
24B2
330
2
100
AcDbEntity
  8
HIDS
100
AcDbLine
 10
476.0337840950119
 20
335.8176682526055
 30
0.0
 11
474.7837840950146
 21
335.8176682526055
 31
0.0
  0
LINE
  5
24B3
330
2
100
AcDbEntity
  8
HIDS
100
AcDbLine
 10
478.0337840950055
 20
332.5176682526108
 30
0.0
 11
474.7837840950146
 21
332.5176682526103
 31
0.0
  0
LINE
  5
24B4
330
2
100
AcDbEntity
  8
0
100
AcDbLine
 10
475.303399337285
 20
336.3176682526085
 30
0.0
 11
482.7641688527442
 21
336.3176682526085
 31
0.0
  0
LINE
  5
24B5
330
2
100
AcDbEntity
  8
0
100
AcDbLine
 10
483.2837840950146
 20
336.0176682526083
 30
0.0
 11
482.7641688527442
 21
336.3176682526085
 31
0.0
  0
LINE
  5
24B6
330
2
100
AcDbEntity
  8
0
100
AcDbLine
 10
474.7837840950146
 20
336.0176682526083
 30
0.0
 11
475.303399337285
 21
336.3176682526085
 31
0.0
  0
LINE
  5
24B7
330
2
100
AcDbEntity
  8
0
100
AcDbLine
 10
474.7837840950146
 20
336.0176682526083
 30
0.0
 11
483.2837840950146
 21
336.0176682526083
 31
0.0
  0
LINE
  5
24B8
330
2
100
AcDbEntity
  8
0
100
AcDbLine
 10
474.7837840950146
 20
331.3176682526085
 30
0.0
 11
483.2837840950146
 21
331.3176682526085
 31
0.0
  0
LINE
  5
24B9
330
2
100
AcDbEntity
  8
0
100
AcDbLine
 10
474.7837840950146
 20
336.0176682526083
 30
0.0
 11
474.7837840950146
 21
330.0176682526085
 31
0.0
  0
LINE
  5
24BA
330
2
100
AcDbEntity
  8
0
100
AcDbLine
 10
483.2837840950146
 20
336.0176682526083
 30
0.0
 11
483.2837840950146
 21
330.0176682526104
 31
0.0
  0
LINE
  5
24BB
330
2
100
AcDbEntity
  8
0
100
AcDbLine
 10
469.0150188235679
 20
323.5176682526051
 30
0.0
 11
469.0150188235679
 21
329.0176682526086
 31
0.0
  0
LINE
  5
24BC
330
2
100
AcDbEntity
  8
0
100
AcDbLine
 10
478.0337840950128
 20
323.5176682526051
 30
0.0
 11
478.0337840950128
 21
329.0176682526086
 31
0.0
  0
LINE
  5
24BD
330
2
100
AcDbEntity
  8
0
100
AcDbLine
 10
481.0337840950155
 20
323.5176682526051
 30
0.0
 11
481.0337840950155
 21
329.0176682526086
 31
0.0
  0
ARC
  5
24BE
330
2
100
AcDbEntity
  8
HIDS
100
AcDbCircle
 10
475.5337840950119
 20
336.2176682526056
 30
0.0
 40
0.2
100
AcDbArc
 50
179.9999999999739
 51
270.0
  0
ARC
  5
24BF
330
2
100
AcDbEntity
  8
0
100
AcDbCircle
 10
475.5337840950119
 20
337.8176682526055
 30
0.0
 40
0.2
100
AcDbArc
 50
90.0
 51
179.9999999999739
  0
ARC
  5
24C0
330
2
100
AcDbEntity
  8
0
100
AcDbCircle
 10
475.8337840950121
 20
338.2176682526056
 30
0.0
 40
0.2
100
AcDbArc
 50
270.0
 51
359.9999999999739
  0
ARC
  5
24C1
330
2
100
AcDbEntity
  8
HIDS
100
AcDbCircle
 10
481.3622112197504
 20
332.0176682526115
 30
0.0
 40
2.0
100
AcDbArc
 50
224.9999999999732
 51
269.9999999999478
  0
ARC
  5
24C2
330
2
100
AcDbEntity
  8
0
100
AcDbCircle
 10
482.6457482437758
 20
329.0176682526106
 30
0.0
 40
1.0
100
AcDbArc
 50
0.4999999999916259
 51
89.99999999994789
  0
LINE
  5
24C3
330
2
100
AcDbEntity
  8
HIDS
100
AcDbLine
 10
479.9479976573771
 20
330.6034546902386
 30
0.0
 11
478.0337840950055
 21
332.5176682526108
 31
0.0
  0
LINE
  5
24C4
330
2
100
AcDbEntity
  8
0
100
AcDbLine
 10
476.0337840950128
 20
339.5176682526058
 30
0.0
 11
476.0337840950119
 21
338.2176682526054
 31
0.0
  0
LINE
  5
24C5
330
2
100
AcDbEntity
  8
0
100
AcDbLine
 10
476.0337840950128
 20
339.5176682526054
 30
0.0
 11
475.4564338258228
 21
340.5176682526058
 31
0.0
  0
LINE
  5
24C6
330
2
100
AcDbEntity
  8
HIDS
100
AcDbLine
 10
475.8337840950121
 20
336.0176682526056
 30
0.0
 11
476.0337840950119
 21
335.8176682526055
 31
0.0
  0
LINE
  5
24C7
330
2
100
AcDbEntity
  8
0
100
AcDbLine
 10
475.3337840950121
 20
337.8176682526055
 30
0.0
 11
475.3337840950121
 21
336.3176682526085
 31
0.0
  0
LINE
  5
24C8
330
2
100
AcDbEntity
  8
HIDS
100
AcDbLine
 10
476.0337840950119
 20
335.8176682526055
 30
0.0
 11
476.033784095011
 21
332.5176682526054
 31
0.0
  0
LINE
  5
24C9
330
2
100
AcDbEntity
  8
0
100
AcDbLine
 10
479.518566436533
 20
304.5176682526042
 30
0.0
 11
483.8637840950114
 21
304.5176682526042
 31
0.0
  0
ARC
  5
24CA
330
2
100
AcDbEntity
  8
0
100
AcDbCircle
 10
479.518566436533
 20
305.5176682526042
 30
0.0
 40
1.0
100
AcDbArc
 50
181.5000000000157
 51
270.0
  0
LINE
  5
24CB
330
2
100
AcDbEntity
  8
0
100
AcDbLine
 10
478.0468770557958
 20
323.5176682526049
 30
0.0
 11
478.5189091115576
 21
305.4914913042963
 31
0.0
  0
LINE
  5
24CC
330
2
100
AcDbEntity
  8
0
100
AcDbLine
 10
483.6979736069874
 20
323.5176682526053
 30
0.0
 11
484.1979736069865
 21
323.0176682526063
 31
0.0
  0
LINE
  5
24CD
330
2
100
AcDbEntity
  8
0
100
AcDbLine
 10
483.6979736069874
 20
323.5176682526053
 30
0.0
 11
483.8637840950118
 21
304.517668252613
 31
0.0
  0
ARC
  5
24CE
330
2
100
AcDbEntity
  8
0
100
AcDbCircle
 10
495.0090372861073
 20
309.5176682526042
 30
0.0
 40
3.0
100
AcDbArc
 50
270.0
 51
358.4999999999841
  0
LINE
  5
24CF
330
2
100
AcDbEntity
  8
0
100
AcDbLine
 10
509.2220205263916
 20
304.517668252639
 30
0.0
 11
518.0337840950146
 21
304.5176682526042
 31
0.0
  0
LINE
  5
24D0
330
2
100
AcDbEntity
  8
0
100
AcDbLine
 10
509.9827831869047
 20
333.5700221492185
 30
0.0
 11
509.2220205263916
 21
304.5176682526042
 31
0.0
  0
ARC
  5
24D1
330
2
100
AcDbEntity
  8
0
100
AcDbCircle
 10
506.9541979528334
 20
332.5176682526042
 30
0.0
 40
3.0
100
AcDbArc
 50
270.0
 51
358.5000000000102
  0
LINE
  5
24D2
330
2
100
AcDbEntity
  8
0
100
AcDbLine
 10
500.4820978368575
 20
329.5176682526042
 30
0.0
 11
506.9541979528334
 21
329.5176682526042
 31
0.0
  0
ARC
  5
24D3
330
2
100
AcDbEntity
  8
0
100
AcDbCircle
 10
511.9820978368557
 20
333.5176682526042
 30
0.0
 40
2.0
100
AcDbArc
 50
90.0
 51
178.5000000000102
  0
LINE
  5
24D4
330
2
100
AcDbEntity
  8
0
100
AcDbLine
 10
511.9820978368557
 20
335.5176682526042
 30
0.0
 11
518.0337840950128
 21
335.5176682526042
 31
0.0
  0
LINE
  5
24D5
330
2
100
AcDbEntity
  8
0
100
AcDbLine
 10
486.8202639912492
 20
302.5176682526041
 30
0.0
 11
495.0090372861136
 21
302.5176682526041
 31
0.0
  0
ARC
  5
24D6
330
2
100
AcDbEntity
  8
0
100
AcDbCircle
 10
495.4411049919895
 20
326.0176682522375
 30
0.0
 40
3.0
100
AcDbArc
 50
270.0
 51
358.4999999999841
  0
LINE
  5
24D7
330
2
100
AcDbEntity
  8
0
100
AcDbLine
 10
486.8202639912156
 20
306.5176682526042
 30
0.0
 11
495.0090372861073
 21
306.5176682526042
 31
0.0
  0
ARC
  5
24D8
330
2
100
AcDbEntity
  8
0
100
AcDbCircle
 10
500.4820978368557
 20
327.517668254456
 30
0.0
 40
2.0
100
AcDbArc
 50
90.0
 51
178.5000000000102
  0
LINE
  5
24D9
330
2
100
AcDbEntity
  8
0
100
AcDbLine
 10
498.4827831869047
 20
327.5700221510716
 30
0.0
 11
497.8791360557338
 21
304.5176682526042
 31
0.0
  0
ENDSEC
  0
SECTION
  2
OBJECTS
  0
DICTIONARY
  5
7
330
0
100
AcDbDictionary
  3
ACAD_COLOR
350
1ECA
  3
ACAD_GROUP
350
75
  3
ACAD_LAYOUT
350
61
  3
ACAD_MATERIAL
350
1EA0
  3
ACAD_MLEADERSTYLE
350
1EEF
  3
ACAD_MLINESTYLE
350
76
  3
ACAD_PLOTSETTINGS
350
77
  3
ACAD_PLOTSTYLENAME
350
6
  3
ACAD_SCALELIST
350
1ECD
  3
ACAD_TABLESTYLE
350
1ECB
  3
ACAD_VISUALSTYLE
350
1EB9
  3
ACADDIM
350
480
  3
ACDB_RECOMPOSE_DATA
350
1F09
  3
ACDBHEADERROUNDTRIPXREC
350
36C5
  3
ACDBVARIABLEDICTIONARY
350
102
  3
DWGPROPS
350
3690
  0
DICTIONARY
  5
1F12
330
6E
100
AcDbDictionary
280
     1
  3
ACAD_XREC_ROUNDTRIP
360
3697
  0
DICTIONARY
  5
B00
330
66
100
AcDbDictionary
280
     1
  3
ACAD_LAYERFILTERS
360
260D
  3
ACAD_LAYERSTATES
360
B01
  0
DICTIONARY
  5
1EF5
330
5E
100
AcDbDictionary
280
     1
  3
ACAD_XREC_ROUNDTRIP
360
3693
  3
ADSK_XREC_LAYER_RECONCILED
360
1EF6
  0
DICTIONARY
  5
1EF7
330
3E
100
AcDbDictionary
280
     1
  3
ACAD_XREC_ROUNDTRIP
360
3692
  3
ADSK_XREC_LAYER_RECONCILED
360
1EF8
  0
DICTIONARY
  5
1EFD
330
2B5
100
AcDbDictionary
280
     1
  3
ACAD_XREC_ROUNDTRIP
360
369D
  3
ADSK_XREC_LAYER_RECONCILED
360
1EFE
  0
DICTIONARY
  5
1EFF
330
2BA
100
AcDbDictionary
280
     1
  3
ACAD_XREC_ROUNDTRIP
360
369E
  3
ADSK_XREC_LAYER_RECONCILED
360
1F00
  0
DICTIONARY
  5
1F03
330
3FA
100
AcDbDictionary
280
     1
  3
ACAD_XREC_ROUNDTRIP
360
36A0
  3
ADSK_XREC_LAYER_RECONCILED
360
1F04
  0
DICTIONARY
  5
36E6
330
2
100
AcDbDictionary
280
     1
  3
ACAD_LAYOUTSELFREF
360
36E7
  0
DICTIONARY
  5
36E8
330
36BF
100
AcDbDictionary
280
     1
  3
ACAD_LAYOUTSELFREF
360
36E9
  0
DICTIONARY
  5
1ECA
102
{ACAD_REACTORS
330
7
102
}
330
7
100
AcDbDictionary
  0
DICTIONARY
  5
75
102
{ACAD_REACTORS
330
7
102
}
330
7
100
AcDbDictionary
  0
DICTIONARY
  5
61
102
{ACAD_REACTORS
330
7
102
}
330
7
100
AcDbDictionary
  0
DICTIONARY
  5
1EA0
102
{ACAD_REACTORS
330
7
102
}
330
7
100
AcDbDictionary
  3
BYBLOCK
350
1EA9
  3
BYLAYER
350
1EA1
  3
GLOBAL
350
1EB1
  0
DICTIONARY
  5
1EEF
102
{ACAD_REACTORS
330
7
102
}
330
7
100
AcDbDictionary
  3
STANDARD
350
1EF0
  0
DICTIONARY
  5
76
102
{ACAD_REACTORS
330
7
102
}
330
7
100
AcDbDictionary
  3
STANDARD
350
78
  0
DICTIONARY
  5
77
102
{ACAD_REACTORS
330
7
102
}
330
7
100
AcDbDictionary
  0
ACDBDICTIONARYWDFLT
  5
6
102
{ACAD_REACTORS
330
7
102
}
330
7
100
AcDbDictionary
281
     1
  3
Normal
350
5
100
AcDbDictionaryWithDefault
340
5
  0
DICTIONARY
  5
1ECD
102
{ACAD_REACTORS
330
7
102
}
330
7
100
AcDbDictionary
  3
A0
350
1ECE
  3
A1
350
1ECF
  3
A2
350
1ED0
  3
A3
350
1ED1
  3
A4
350
1ED2
  3
A5
350
1ED3
  3
A6
350
1ED4
  3
A7
350
1ED5
  3
A8
350
1ED6
  3
A9
350
1ED7
  3
B0
350
1ED8
  3
B1
350
1ED9
  3
B2
350
1EDA
  3
B3
350
1EDB
  3
B4
350
1EDC
  3
B5
350
1EDD
  3
B6
350
1EDE
  3
B7
350
1EDF
  3
B8
350
1EE0
  3
B9
350
1EE1
  3
C0
350
1EE2
  3
C1
350
1EE3
  3
C2
350
1EE4
  3
C3
350
1EE5
  3
C4
350
1EE6
  3
C5
350
1EE7
  3
C6
350
1EE8
  3
C7
350
1EE9
  3
C8
350
1EEA
  3
C9
350
1EEB
  3
D0
350
1EEC
  3
D1
350
1EED
  3
D2
350
1EEE
  0
DICTIONARY
  5
1ECB
102
{ACAD_REACTORS
330
7
102
}
330
7
100
AcDbDictionary
  3
STANDARD
350
1ECC
  0
DICTIONARY
  5
1EB9
102
{ACAD_REACTORS
330
7
102
}
330
7
100
AcDbDictionary
  3
2DWIREFRAME
350
1EBF
  3
3D_HIDDEN
350
1EC1
  3
3DWIREFRAME
350
1EC0
  3
BASIC
350
1EBE
  3
BRIGHTEN
350
1EC5
  3
COLORCHANGE
350
1EC9
  3
CONCEPTUAL
350
1EC2
  3
DIM
350
1EC4
  3
FACEPATTERN
350
1EC8
  3
FLAT
350
1EBA
  3
FLATWITHEDGES
350
1EBB
  3
GOURAUD
350
1EBC
  3
GOURAUDWITHEDGES
350
1EBD
  3
LINEPATTERN
350
1EC7
  3
REALISTIC
350
1EC3
  3
THICKEN
350
1EC6
  0
XRECORD
  5
480
102
{ACAD_REACTORS
330
7
102
}
330
7
100
AcDbXrecord
 90
   990106
  3

 60
     0
 61
     0
 62
     1
 63
     3
 64
     1
 65
     0
 66
     0
 67
     3
 68
     1
 69
     0
 70
     0
 71
     0
 72
     0
 40
0.0
170
     2
340
0
  0
XRECORD
  5
1F09
102
{ACAD_REACTORS
330
7
102
}
330
7
100
AcDbXrecord
 90
        1
330
1ECC
  0
DICTIONARY
  5
36C5
102
{ACAD_REACTORS
330
7
102
}
330
7
100
AcDbDictionary
  3
CEPSNTYPE
350
36CF
  3
DIMSTYLEDATA
350
36D3
  3
FINGERPRINTGUID
350
36D0
  3
HYPERLINKBASE
350
36C8
  3
INSUNITS
350
36CE
  3
LAYOUTDICT
350
36CA
  3
LWETCUNION
350
36CD
  3
PLOTSETDICT
350
36CB
  3
PLOTSTYLNAMDICT
350
36CC
  3
PSVPSCALE
350
36D2
  3
PUCSBASE
350
36D6
  3
PUCSORGBACK
350
36DC
  3
PUCSORGBOTTOM
350
36D8
  3
PUCSORGFRONT
350
36DB
  3
PUCSORGLEFT
350
36D9
  3
PUCSORGRIGHT
350
36DA
  3
PUCSORGTOP
350
36D7
  3
PUCSORTHOREF
350
36D4
  3
PUCSORTHOVIEW
350
36D5
  3
STYLESHEET
350
36C9
  3
TSTACKALIGN
350
36C6
  3
TSTACKSIZE
350
36C7
  3
UCSBASE
350
36DF
  3
UCSORGBACK
350
36E5
  3
UCSORGBOTTOM
350
36E1
  3
UCSORGFRONT
350
36E4
  3
UCSORGLEFT
350
36E2
  3
UCSORGRIGHT
350
36E3
  3
UCSORGTOP
350
36E0
  3
UCSORTHOREF
350
36DD
  3
UCSORTHOVIEW
350
36DE
  3
VERSIONGUID
350
36D1
  0
DICTIONARY
  5
102
102
{ACAD_REACTORS
330
7
102
}
330
7
100
AcDbDictionary
  3
CANNOSCALE
350
1F2C
  3
CMLEADERSTYLE
350
1F2B
  3
CTABLESTYLE
350
1F2A
  3
DIMASSOC
350
103
  3
INDEXCTL
350
1F2D
  3
SORTENTS
350
549
  0
XRECORD
  5
3690
102
{ACAD_REACTORS
330
7
102
}
330
7
100
AcDbXrecord
  1
DWGPROPS COOKIE
  2

  3

  4

  6

  7

  8
ymorima
  9

300
=
301
=
302
=
303
=
304
=
305
=
306
=
307
=
308
=
309
=
 40
0.0411038773148148
 41
2454407.733270752
 42
2454425.698353947
  1

 90
        0
  0
XRECORD
  5
3697
102
{ACAD_REACTORS
330
1F12
102
}
330
1F12
100
AcDbXrecord
102
VTR_0.000_0.000_1.000_1.000_VISUALSTYLE
340
1EBF
102
VTR_0.000_0.000_1.000_1.000_GRIDDISPLAY
 70
     3
102
VTR_0.000_0.000_1.000_1.000_GRIDMAJOR
 70
     5
102
VTR_0.000_0.000_1.000_1.000_DEFAULTLIGHTING
280
     1
102
VTR_0.000_0.000_1.000_1.000_DEFAULTLIGHTINGTYPE
 70
     1
102
VTR_0.000_0.000_1.000_1.000_BRIGHTNESS
141
0.0
102
VTR_0.000_0.000_1.000_1.000_CONTRAST
142
0.0
  0
DICTIONARY
  5
260D
102
{ACAD_REACTORS
330
B00
102
}
330
B00
100
AcDbDictionary
280
     1
  0
DICTIONARY
  5
B01
102
{ACAD_REACTORS
330
B00
102
}
330
B00
100
AcDbDictionary
  0
XRECORD
  5
3693
102
{ACAD_REACTORS
330
1EF5
102
}
330
1EF5
100
AcDbXrecord
102
MATERIAL
340
1EB1
  0
XRECORD
  5
1EF6
102
{ACAD_REACTORS
330
1EF5
102
}
330
1EF5
100
AcDbXrecord
290
     1
  0
XRECORD
  5
3692
102
{ACAD_REACTORS
330
1EF7
102
}
330
1EF7
100
AcDbXrecord
102
MATERIAL
340
1EB1
  0
XRECORD
  5
1EF8
102
{ACAD_REACTORS
330
1EF7
102
}
330
1EF7
100
AcDbXrecord
290
     1
  0
XRECORD
  5
369D
102
{ACAD_REACTORS
330
1EFD
102
}
330
1EFD
100
AcDbXrecord
102
MATERIAL
340
1EB1
  0
XRECORD
  5
1EFE
102
{ACAD_REACTORS
330
1EFD
102
}
330
1EFD
100
AcDbXrecord
290
     1
  0
XRECORD
  5
369E
102
{ACAD_REACTORS
330
1EFF
102
}
330
1EFF
100
AcDbXrecord
102
MATERIAL
340
1EB1
  0
XRECORD
  5
1F00
102
{ACAD_REACTORS
330
1EFF
102
}
330
1EFF
100
AcDbXrecord
290
     1
  0
XRECORD
  5
36A0
102
{ACAD_REACTORS
330
1F03
102
}
330
1F03
100
AcDbXrecord
102
MATERIAL
340
1EB1
  0
XRECORD
  5
1F04
102
{ACAD_REACTORS
330
1F03
102
}
330
1F03
100
AcDbXrecord
290
     1
  0
XRECORD
  5
36E7
102
{ACAD_REACTORS
330
36E6
102
}
330
36E6
100
AcDbXrecord
340
2
  0
XRECORD
  5
36E9
102
{ACAD_REACTORS
330
36E8
102
}
330
36E8
100
AcDbXrecord
340
36BF
  0
ACAD_PROXY_OBJECT
  5
1EA9
102
{ACAD_XDICTIONARY
360
1EAA
102
}
102
{ACAD_REACTORS
330
1EA0
102
}
330
1EA0
100
AcDbProxyObject
 90
      499
 91
      510
 93
     1340
310
42109E509B1BD8DAC02004014080404555555555555953FAA155555555555654FEA9AA400014080404555555555555953FAA155555555555654FEA9AA400000000000000E03F4080404555555555555953FAA155555555555654FEA9AA4014080404555555555555953FAA155555555555654FEA9AA4010201011555555555
310
55654FEA8555555555555953FAA6A9005020101155555555555654FEA8555555555555953FAA6A9000
 94
        0
1001
ACAD
1000
AcadProxyRoundTripData
1071
      504
1071
   655383
1070
     0
  0
ACAD_PROXY_OBJECT
  5
1EA1
102
{ACAD_XDICTIONARY
360
1EA2
102
}
102
{ACAD_REACTORS
330
1EA0
102
}
330
1EA0
100
AcDbProxyObject
 90
      499
 91
      510
 93
     1340
310
42109E53185E595C802004014080404555555555555953FAA155555555555654FEA9AA400014080404555555555555953FAA155555555555654FEA9AA400000000000000E03F4080404555555555555953FAA155555555555654FEA9AA4014080404555555555555953FAA155555555555654FEA9AA4010201011555555555
310
55654FEA8555555555555953FAA6A9005020101155555555555654FEA8555555555555953FAA6A9000
 94
        0
1001
ACAD
1000
AcadProxyRoundTripData
1071
      504
1071
   655383
1070
     0
  0
ACAD_PROXY_OBJECT
  5
1EB1
102
{ACAD_XDICTIONARY
360
1EB2
102
}
102
{ACAD_REACTORS
330
1EA0
102
}
330
1EA0
100
AcDbProxyObject
 90
      499
 91
      510
 93
     1332
310
41D1DB1BD8985B002004014080404555555555555953FAA155555555555654FEA9AA400014080404555555555555953FAA155555555555654FEA9AA400000000000000E03F4080404555555555555953FAA155555555555654FEA9AA4014080404555555555555953FAA155555555555654FEA9AA401020101155555555555
310
654FEA8555555555555953FAA6A9005020101155555555555654FEA8555555555555953FAA6A9000
 94
        0
1001
ACAD
1000
AcadProxyRoundTripData
1071
      504
1071
   655383
1070
     0
  0
ACAD_PROXY_OBJECT
  5
1EF0
102
{ACAD_REACTORS
330
1EEF
102
}
330
1EEF
100
AcDbProxyObject
 90
      499
 91
      510
 93
      618
310
40901902A4063FBFFFFFE056BD1B81E855B9FC0AD7A3703D0AD73F4254DD185B99185C990000AD7A3703D0AC73F90141901A02B5E8DC0F42B1CFC02B5E8DC0F42B1CFE5764000000000000300FC6
340
6A
340
0
340
16
340
0
 94
        0
1001
ACAD_MLEADERVER
1070
     2
1001
ACAD
1000
AcadProxyRoundTripData
1071
      508
1071
   655383
1070
     0
  0
MLINESTYLE
  5
78
102
{ACAD_REACTORS
330
76
102
}
330
76
100
AcDbMlineStyle
  2
STANDARD
 70
     0
  3

 62
     0
 51
90.0
 52
90.0
 71
     2
 49
0.5
 62
   256
  6
BYLAYER
 49
-0.5
 62
   256
  6
BYLAYER
  0
ACDBPLACEHOLDER
  5
5
102
{ACAD_REACTORS
330
6
102
}
330
6
100
AcDbPlaceHolder
280
     0
  0
ACAD_PROXY_OBJECT
  5
1ECE
102
{ACAD_REACTORS
330
1ECD
102
}
330
1ECD
100
AcDbProxyObject
 90
      499
 91
      510
 93
       49
310
904313A3100598
 94
        0
1001
ACAD
1000
AcadProxyRoundTripData
1071
      507
1071
   655383
1070
     0
  0
ACAD_PROXY_OBJECT
  5
1ECF
102
{ACAD_REACTORS
330
1ECD
102
}
330
1ECD
100
AcDbProxyObject
 90
      499
 91
      510
 93
      113
310
904313A3200400000000000000406B
 94
        0
1001
ACAD
1000
AcadProxyRoundTripData
1071
      507
1071
   655383
1070
     0
  0
ACAD_PROXY_OBJECT
  5
1ED0
102
{ACAD_REACTORS
330
1ECD
102
}
330
1ECD
100
AcDbProxyObject
 90
      499
 91
      510
 93
      113
310
904313A3400400000000000010406B
 94
        0
1001
ACAD
1000
AcadProxyRoundTripData
1071
      507
1071
   655383
1070
     0
  0
ACAD_PROXY_OBJECT
  5
1ED1
102
{ACAD_REACTORS
330
1ECD
102
}
330
1ECD
100
AcDbProxyObject
 90
      499
 91
      510
 93
      113
310
904313A3500400000000000014406B
 94
        0
1001
ACAD
1000
AcadProxyRoundTripData
1071
      507
1071
   655383
1070
     0
  0
ACAD_PROXY_OBJECT
  5
1ED2
102
{ACAD_REACTORS
330
1ECD
102
}
330
1ECD
100
AcDbProxyObject
 90
      499
 91
      510
 93
      113
310
904313A3800400000000000020406B
 94
        0
1001
ACAD
1000
AcadProxyRoundTripData
1071
      507
1071
   655383
1070
     0
  0
ACAD_PROXY_OBJECT
  5
1ED3
102
{ACAD_REACTORS
330
1ECD
102
}
330
1ECD
100
AcDbProxyObject
 90
      499
 91
      510
 93
      121
310
905313A3130004000000000000244051
 94
        0
1001
ACAD
1000
AcadProxyRoundTripData
1071
      507
1071
   655383
1070
     0
  0
ACAD_PROXY_OBJECT
  5
1ED4
102
{ACAD_REACTORS
330
1ECD
102
}
330
1ECD
100
AcDbProxyObject
 90
      499
 91
      510
 93
      121
310
905313A3136004000000000000304051
 94
        0
1001
ACAD
1000
AcadProxyRoundTripData
1071
      507
1071
   655383
1070
     0
  0
ACAD_PROXY_OBJECT
  5
1ED5
102
{ACAD_REACTORS
330
1ECD
102
}
330
1ECD
100
AcDbProxyObject
 90
      499
 91
      510
 93
      121
310
905313A3230004000000000000344051
 94
        0
1001
ACAD
1000
AcadProxyRoundTripData
1071
      507
1071
   655383
1070
     0
  0
ACAD_PROXY_OBJECT
  5
1ED6
102
{ACAD_REACTORS
330
1ECD
102
}
330
1ECD
100
AcDbProxyObject
 90
      499
 91
      510
 93
      121
310
905313A33300040000000000003E4051
 94
        0
1001
ACAD
1000
AcadProxyRoundTripData
1071
      507
1071
   655383
1070
     0
  0
ACAD_PROXY_OBJECT
  5
1ED7
102
{ACAD_REACTORS
330
1ECD
102
}
330
1ECD
100
AcDbProxyObject
 90
      499
 91
      510
 93
      121
310
905313A3430004000000000000444051
 94
        0
1001
ACAD
1000
AcadProxyRoundTripData
1071
      507
1071
   655383
1070
     0
  0
ACAD_PROXY_OBJECT
  5
1ED8
102
{ACAD_REACTORS
330
1ECD
102
}
330
1ECD
100
AcDbProxyObject
 90
      499
 91
      510
 93
      121
310
905313A3530004000000000000494051
 94
        0
1001
ACAD
1000
AcadProxyRoundTripData
1071
      507
1071
   655383
1070
     0
  0
ACAD_PROXY_OBJECT
  5
1ED9
102
{ACAD_REACTORS
330
1ECD
102
}
330
1ECD
100
AcDbProxyObject
 90
      499
 91
      510
 93
      129
310
906313A313030004000000000000594038
 94
        0
1001
ACAD
1000
AcadProxyRoundTripData
1071
      507
1071
   655383
1070
     0
  0
ACAD_PROXY_OBJECT
  5
1EDA
102
{ACAD_REACTORS
330
1ECD
102
}
330
1ECD
100
AcDbProxyObject
 90
      499
 91
      510
 93
      113
310
904323A31000000000000000010159
 94
        0
1001
ACAD
1000
AcadProxyRoundTripData
1071
      507
1071
   655383
1070
     0
  0
ACAD_PROXY_OBJECT
  5
1EDB
102
{ACAD_REACTORS
330
1ECD
102
}
330
1ECD
100
AcDbProxyObject
 90
      499
 91
      510
 93
      113
310
904343A31000000000000000410159
 94
        0
1001
ACAD
1000
AcadProxyRoundTripData
1071
      507
1071
   655383
1070
     0
  0
ACAD_PROXY_OBJECT
  5
1EDC
102
{ACAD_REACTORS
330
1ECD
102
}
330
1ECD
100
AcDbProxyObject
 90
      499
 91
      510
 93
      113
310
904383A31000000000000000810159
 94
        0
1001
ACAD
1000
AcadProxyRoundTripData
1071
      507
1071
   655383
1070
     0
  0
ACAD_PROXY_OBJECT
  5
1EDD
102
{ACAD_REACTORS
330
1ECD
102
}
330
1ECD
100
AcDbProxyObject
 90
      499
 91
      510
 93
      121
310
90531303A31000000000000000910140
 94
        0
1001
ACAD
1000
AcadProxyRoundTripData
1071
      507
1071
   655383
1070
     0
  0
ACAD_PROXY_OBJECT
  5
1EDE
102
{ACAD_REACTORS
330
1ECD
102
}
330
1ECD
100
AcDbProxyObject
 90
      499
 91
      510
 93
      129
310
9063130303A31000000000000001650138
 94
        0
1001
ACAD
1000
AcadProxyRoundTripData
1071
      507
1071
   655383
1070
     0
  0
ACAD_PROXY_OBJECT
  5
1EDF
102
{ACAD_REACTORS
330
1ECD
102
}
330
1ECD
100
AcDbProxyObject
 90
      499
 91
      510
 93
      265
310
90F312F31323822203D2031272D302200000000000000200FC00000000000028402B
 94
        0
1001
ACAD
1000
AcadProxyRoundTripData
1071
      507
1071
   655383
1070
     0
  0
ACAD_PROXY_OBJECT
  5
1EE0
102
{ACAD_REACTORS
330
1ECD
102
}
330
1ECD
100
AcDbProxyObject
 90
      499
 91
      510
 93
      257
310
90E312F363422203D2031272D302200000000000000240FC000000000000284040
 94
        0
1001
ACAD
1000
AcadProxyRoundTripData
1071
      507
1071
   655383
1070
     0
  0
ACAD_PROXY_OBJECT
  5
1EE1
102
{ACAD_REACTORS
330
1ECD
102
}
330
1ECD
100
AcDbProxyObject
 90
      499
 91
      510
 93
      257
310
90E312F333222203D2031272D302200000000000000280FC000000000000284040
 94
        0
1001
ACAD
1000
AcadProxyRoundTripData
1071
      507
1071
   655383
1070
     0
  0
ACAD_PROXY_OBJECT
  5
1EE2
102
{ACAD_REACTORS
330
1ECD
102
}
330
1ECD
100
AcDbProxyObject
 90
      499
 91
      510
 93
      257
310
90E312F313622203D2031272D3022000000000000002C0FC000000000000284040
 94
        0
1001
ACAD
1000
AcadProxyRoundTripData
1071
      507
1071
   655383
1070
     0
  0
ACAD_PROXY_OBJECT
  5
1EE3
102
{ACAD_REACTORS
330
1ECD
102
}
330
1ECD
100
AcDbProxyObject
 90
      499
 91
      510
 93
      257
310
90E332F333222203D2031272D3022000000000000002E0FC000000000000284040
 94
        0
1001
ACAD
1000
AcadProxyRoundTripData
1071
      507
1071
   655383
1070
     0
  0
ACAD_PROXY_OBJECT
  5
1EE4
102
{ACAD_REACTORS
330
1ECD
102
}
330
1ECD
100
AcDbProxyObject
 90
      499
 91
      510
 93
      249
310
90D312F3822203D2031272D302200000000000000300FC000000000000284040
 94
        0
1001
ACAD
1000
AcadProxyRoundTripData
1071
      507
1071
   655383
1070
     0
  0
ACAD_PROXY_OBJECT
  5
1EE5
102
{ACAD_REACTORS
330
1ECD
102
}
330
1ECD
100
AcDbProxyObject
 90
      499
 91
      510
 93
      257
310
90E332F313622203D2031272D302200000000000000320FC000000000000284040
 94
        0
1001
ACAD
1000
AcadProxyRoundTripData
1071
      507
1071
   655383
1070
     0
  0
ACAD_PROXY_OBJECT
  5
1EE6
102
{ACAD_REACTORS
330
1ECD
102
}
330
1ECD
100
AcDbProxyObject
 90
      499
 91
      510
 93
      249
310
90D312F3422203D2031272D302200000000000000340FC000000000000284040
 94
        0
1001
ACAD
1000
AcadProxyRoundTripData
1071
      507
1071
   655383
1070
     0
  0
ACAD_PROXY_OBJECT
  5
1EE7
102
{ACAD_REACTORS
330
1ECD
102
}
330
1ECD
100
AcDbProxyObject
 90
      499
 91
      510
 93
      249
310
90D332F3822203D2031272D302200000000000000360FC000000000000284040
 94
        0
1001
ACAD
1000
AcadProxyRoundTripData
1071
      507
1071
   655383
1070
     0
  0
ACAD_PROXY_OBJECT
  5
1EE8
102
{ACAD_REACTORS
330
1ECD
102
}
330
1ECD
100
AcDbProxyObject
 90
      499
 91
      510
 93
      249
310
90D312F3222203D2031272D302200000000000000380FC000000000000284040
 94
        0
1001
ACAD
1000
AcadProxyRoundTripData
1071
      507
1071
   655383
1070
     0
  0
ACAD_PROXY_OBJECT
  5
1EE9
102
{ACAD_REACTORS
330
1ECD
102
}
330
1ECD
100
AcDbProxyObject
 90
      499
 91
      510
 93
      249
310
90D332F3422203D2031272D3022000000000000003A0FC000000000000284040
 94
        0
1001
ACAD
1000
AcadProxyRoundTripData
1071
      507
1071
   655383
1070
     0
  0
ACAD_PROXY_OBJECT
  5
1EEA
102
{ACAD_REACTORS
330
1ECD
102
}
330
1ECD
100
AcDbProxyObject
 90
      499
 91
      510
 93
      169
310
90B3122203D2031272D3022004000000000000284020
 94
        0
1001
ACAD
1000
AcadProxyRoundTripData
1071
      507
1071
   655383
1070
     0
  0
ACAD_PROXY_OBJECT
  5
1EEB
102
{ACAD_REACTORS
330
1ECD
102
}
330
1ECD
100
AcDbProxyObject
 90
      499
 91
      510
 93
      265
310
90F312D312F3222203D2031272D3022000000000000003E0FC00000000000028402B
 94
        0
1001
ACAD
1000
AcadProxyRoundTripData
1071
      507
1071
   655383
1070
     0
  0
ACAD_PROXY_OBJECT
  5
1EEC
102
{ACAD_REACTORS
330
1ECD
102
}
330
1ECD
100
AcDbProxyObject
 90
      499
 91
      510
 93
      233
310
90B3322203D2031272D30220000000000000002100000000000000284000
 94
        0
1001
ACAD
1000
AcadProxyRoundTripData
1071
      507
1071
   655383
1070
     0
  0
ACAD_PROXY_OBJECT
  5
1EED
102
{ACAD_REACTORS
330
1ECD
102
}
330
1ECD
100
AcDbProxyObject
 90
      499
 91
      510
 93
      233
310
90B3622203D2031272D30220000000000000006100000000000000284000
 94
        0
1001
ACAD
1000
AcadProxyRoundTripData
1071
      507
1071
   655383
1070
     0
  0
ACAD_PROXY_OBJECT
  5
1EEE
102
{ACAD_REACTORS
330
1ECD
102
}
330
1ECD
100
AcDbProxyObject
 90
      499
 91
      510
 93
      257
310
90E31272D3022203D2031272D3022000000000000000A100000000000000284040
 94
        0
1001
ACAD
1000
AcadProxyRoundTripData
1071
      507
1071
   655383
1070
     0
  0
ACAD_PROXY_OBJECT
  5
1ECC
102
{ACAD_XDICTIONARY
360
1F07
102
}
102
{ACAD_REACTORS
330
1ECB
102
}
330
1ECB
100
AcDbProxyObject
 90
      499
 91
      510
 93
     1849
310
4254DD185B99185C990028B81E85EB51B8AE3F2E07A17AD46E2B8FC02B5E8DC0F42B1CFD028000000C1008070000C3001FDFF8000000C1003FBFF000000182007F7FE00000030400FEFFC00000060801FDFF8000000C1003FBFF00000018200000000000000681FA0B0000001820100E000186003FBFF000000182007F7FE0
310
0000030400FEFFC00000060801FDFF8000000C1003FBFF000000182007F7FE000000304000AD7A3703D0AC73F4160000003040201C00030C007F7FE00000030400FEFFC00000060801FDFF8000000C1003FBFF000000182007F7FE00000030400FEFFC000000608000
340
16
340
16
340
16
 94
        0
1001
ACAD
1000
AcadProxyRoundTripData
1071
      506
1071
   655383
1070
     0
  0
ACAD_PROXY_OBJECT
  5
1EBF
102
{ACAD_REACTORS
330
1EB9
102
}
330
1EB9
100
AcDbProxyObject
 90
      499
 91
      510
 93
      444
310
430C9915DA5C99599C985B59401049028333333333333E3BF0000000000000FB0107901411070040501600405405064090741402480A0340
 94
        0
1001
ACAD
1000
AcDbSavedByObjectVersion
1070
     0
1000
AcadProxyRoundTripData
1071
      505
1071
   655383
1070
     0
  0
ACAD_PROXY_OBJECT
  5
1EC1
102
{ACAD_REACTORS
330
1EB9
102
}
330
1EB9
100
AcDbProxyObject
 90
      499
 91
      510
 93
      508
310
428CD108121A5919195B8010640502408333333333333E3BF0000000000000FB01079024090700405020000000000001110200405405064090740C02480A0340
 94
        0
1001
ACAD
1000
AcDbSavedByObjectVersion
1070
     0
1000
AcadProxyRoundTripData
1071
      505
1071
   655383
1070
     0
  0
ACAD_PROXY_OBJECT
  5
1EC0
102
{ACAD_REACTORS
330
1EB9
102
}
330
1EB9
100
AcDbProxyObject
 90
      499
 91
      510
 93
      444
310
430CD915DA5C99599C985B59401059028333333333333E3BF0000000000000FB0107901411070040501600405405064090741402480A0340
 94
        0
1001
ACAD
1000
AcDbSavedByObjectVersion
1070
     0
1000
AcadProxyRoundTripData
1071
      505
1071
   655383
1070
     0
  0
ACAD_PROXY_OBJECT
  5
1EBE
102
{ACAD_REACTORS
330
1EB9
102
}
330
1EB9
100
AcDbProxyObject
 90
      499
 91
      510
 93
      396
310
4190985CDA58C0107406404333333333333E3BF0000000000000FB0107A41107004050150841D405064090741402480A0356
 94
        0
1001
ACAD
1000
AcDbSavedByObjectVersion
1070
     0
1000
AcadProxyRoundTripData
1071
      505
1071
   655383
1070
     0
  0
ACAD_PROXY_OBJECT
  5
1EC5
102
{ACAD_REACTORS
330
1EB9
102
}
330
1EB9
100
AcDbProxyObject
 90
      499
 91
      510
 93
      436
310
42509C9A59DA1D195B8010C409028333333333333E3BF0000000000000FB010790141107004050150841D405064090741402480A029956
 94
        0
1001
ACAD
1000
AcDbSavedByObjectVersion
1070
     0
1000
AcadProxyRoundTripData
1071
      505
1071
   655383
1070
     0
  0
ACAD_PROXY_OBJECT
  5
1EC9
102
{ACAD_REACTORS
330
1EB9
102
}
330
1EB9
100
AcDbProxyObject
 90
      499
 91
      510
 93
      460
310
4310DBDB1BDC90DA185B99D9401104090240C333333333333E3BF0000000000000FB0108901411070040501508421405064090741402480A0354
 94
        0
1001
ACAD
1000
AcDbSavedByObjectVersion
1070
     0
1000
AcadProxyRoundTripData
1071
      505
1071
   655383
1070
     0
  0
ACAD_PROXY_OBJECT
  5
1EC2
102
{ACAD_REACTORS
330
1EB9
102
}
330
1EB9
100
AcDbProxyObject
 90
      499
 91
      510
 93
      508
310
42D0DBDB98D95C1D1D585B0010940D028333333333333E3BF0000000000000FB0107902409070040501000000000000111010841D405064090740C02480A0340
 94
        0
1001
ACAD
1000
AcDbSavedByObjectVersion
1070
     0
1000
AcadProxyRoundTripData
1071
      505
1071
   655383
1070
     0
  0
ACAD_PROXY_OBJECT
  5
1EC4
102
{ACAD_REACTORS
330
1EB9
102
}
330
1EB9
100
AcDbProxyObject
 90
      499
 91
      510
 93
      420
310
41111A5B4010B409028333333333333E3BF0000000000000FB010790141107004050150841D405064090741402480A02677FFFFFDB
 94
        0
1001
ACAD
1000
AcDbSavedByObjectVersion
1070
     0
1000
AcadProxyRoundTripData
1071
      505
1071
   655383
1070
     0
  0
ACAD_PROXY_OBJECT
  5
1EC8
102
{ACAD_REACTORS
330
1EB9
102
}
330
1EB9
100
AcDbProxyObject
 90
      499
 91
      510
 93
      452
310
43119858D95C185D1D195C9B8010F409028333333333333E3BF0000000000000FB010790141107004050150841D405064090741402480A0350
 94
        0
1001
ACAD
1000
AcDbSavedByObjectVersion
1070
     0
1000
AcadProxyRoundTripData
1071
      505
1071
   655383
1070
     0
  0
ACAD_PROXY_OBJECT
  5
1EBA
102
{ACAD_REACTORS
330
1EB9
102
}
330
1EB9
100
AcDbProxyObject
 90
      499
 91
      510
 93
      396
310
41519B185D00240901404333333333333E3BF0000000000000F9010740A41107004050150841D405064090741402480A1B55
 94
        0
1001
ACAD
1000
AcDbSavedByObjectVersion
1070
     0
1000
AcadProxyRoundTripData
1071
      505
1071
   655383
1070
     0
  0
ACAD_PROXY_OBJECT
  5
1EBB
102
{ACAD_REACTORS
330
1EB9
102
}
330
1EB9
100
AcDbProxyObject
 90
      499
 91
      510
 93
      484
310
43919B185D15DA5D1A115919D95CC010140901404333333333333E3BF0000000000000F9010740901411070040501600405405064090741402480A1B50
 94
        0
1001
ACAD
1000
AcDbSavedByObjectVersion
1070
     0
1000
AcadProxyRoundTripData
1071
      505
1071
   655383
1070
     0
  0
ACAD_PROXY_OBJECT
  5
1EBC
102
{ACAD_REACTORS
330
1EB9
102
}
330
1EB9
100
AcDbProxyObject
 90
      499
 91
      510
 93
      420
310
4211DBDD5C985D590010240902404333333333333E3BF0000000000000F9010740A411070040501641D405064090741402480A1B50
 94
        0
1001
ACAD
1000
AcDbSavedByObjectVersion
1070
     0
1000
AcadProxyRoundTripData
1071
      505
1071
   655383
1070
     0
  0
ACAD_PROXY_OBJECT
  5
1EBD
102
{ACAD_REACTORS
330
1EB9
102
}
330
1EB9
100
AcDbProxyObject
 90
      499
 91
      510
 93
      508
310
4451DBDD5C985D5915DA5D1A115919D95CC010340902404333333333333E3BF0000000000000F9010740901411070040501600405405064090741402480A1B50
 94
        0
1001
ACAD
1000
AcDbSavedByObjectVersion
1070
     0
1000
AcadProxyRoundTripData
1071
      505
1071
   655383
1070
     0
  0
ACAD_PROXY_OBJECT
  5
1EC7
102
{ACAD_REACTORS
330
1EB9
102
}
330
1EB9
100
AcDbProxyObject
 90
      499
 91
      510
 93
      452
310
43131A5B995C185D1D195C9B8010E409028333333333333E3BF0000000000000FB010790141107004050750841D405064090741402483A0350
 94
        0
1001
ACAD
1000
AcDbSavedByObjectVersion
1070
     0
1000
AcadProxyRoundTripData
1071
      505
1071
   655383
1070
     0
  0
ACAD_PROXY_OBJECT
  5
1EC3
102
{ACAD_REACTORS
330
1EB9
102
}
330
1EB9
100
AcDbProxyObject
 90
      499
 91
      510
 93
      428
310
429499585B1A5CDD1A58C0108409028333333333333E3BF0000000000000FB01079019070040501508421405064090741402480A1B45
 94
        0
1001
ACAD
1000
AcDbSavedByObjectVersion
1070
     0
1000
AcadProxyRoundTripData
1071
      505
1071
   655383
1070
     0
  0
ACAD_PROXY_OBJECT
  5
1EC6
102
{ACAD_REACTORS
330
1EB9
102
}
330
1EB9
100
AcDbProxyObject
 90
      499
 91
      510
 93
      420
310
42151A1A58DAD95B8010D409028333333333333E3BF0000000000000FB010790141107004050150C41D405064090741402480A0352
 94
        0
1001
ACAD
1000
AcDbSavedByObjectVersion
1070
     0
1000
AcadProxyRoundTripData
1071
      505
1071
   655383
1070
     0
  0
XRECORD
  5
36CF
102
{ACAD_REACTORS
330
36C5
102
}
330
36C5
100
AcDbXrecord
 90
        0
  0
XRECORD
  5
36D3
102
{ACAD_REACTORS
330
36C5
102
}
330
36C5
100
AcDbXrecord
1000
DSTYLE
1002
{
1070
   179
 70
     2
1070
   277
 70
     6
1002
}
  0
XRECORD
  5
36D0
102
{ACAD_REACTORS
330
36C5
102
}
330
36C5
100
AcDbXrecord
  1
{6385560B-F4B1-4644-A7C2-A3E32AC3D232}
  0
XRECORD
  5
36C8
102
{ACAD_REACTORS
330
36C5
102
}
330
36C5
100
AcDbXrecord
  1

  0
XRECORD
  5
36CE
102
{ACAD_REACTORS
330
36C5
102
}
330
36C5
100
AcDbXrecord
 90
        0
  0
XRECORD
  5
36CA
102
{ACAD_REACTORS
330
36C5
102
}
330
36C5
100
AcDbXrecord
340
61
  0
XRECORD
  5
36CD
102
{ACAD_REACTORS
330
36C5
102
}
330
36C5
100
AcDbXrecord
 90
    10781
  0
XRECORD
  5
36CB
102
{ACAD_REACTORS
330
36C5
102
}
330
36C5
100
AcDbXrecord
340
77
  0
XRECORD
  5
36CC
102
{ACAD_REACTORS
330
36C5
102
}
330
36C5
100
AcDbXrecord
340
6
  0
XRECORD
  5
36D2
102
{ACAD_REACTORS
330
36C5
102
}
330
36C5
100
AcDbXrecord
 40
0.0
  0
XRECORD
  5
36D6
102
{ACAD_REACTORS
330
36C5
102
}
330
36C5
100
AcDbXrecord
340
0
  0
XRECORD
  5
36DC
102
{ACAD_REACTORS
330
36C5
102
}
330
36C5
100
AcDbXrecord
 10
0.0
 20
0.0
 30
0.0
  0
XRECORD
  5
36D8
102
{ACAD_REACTORS
330
36C5
102
}
330
36C5
100
AcDbXrecord
 10
0.0
 20
0.0
 30
0.0
  0
XRECORD
  5
36DB
102
{ACAD_REACTORS
330
36C5
102
}
330
36C5
100
AcDbXrecord
 10
0.0
 20
0.0
 30
0.0
  0
XRECORD
  5
36D9
102
{ACAD_REACTORS
330
36C5
102
}
330
36C5
100
AcDbXrecord
 10
0.0
 20
0.0
 30
0.0
  0
XRECORD
  5
36DA
102
{ACAD_REACTORS
330
36C5
102
}
330
36C5
100
AcDbXrecord
 10
0.0
 20
0.0
 30
0.0
  0
XRECORD
  5
36D7
102
{ACAD_REACTORS
330
36C5
102
}
330
36C5
100
AcDbXrecord
 10
0.0
 20
0.0
 30
0.0
  0
XRECORD
  5
36D4
102
{ACAD_REACTORS
330
36C5
102
}
330
36C5
100
AcDbXrecord
340
0
  0
XRECORD
  5
36D5
102
{ACAD_REACTORS
330
36C5
102
}
330
36C5
100
AcDbXrecord
 70
     0
  0
XRECORD
  5
36C9
102
{ACAD_REACTORS
330
36C5
102
}
330
36C5
100
AcDbXrecord
  1
Sekkei.ctb
  0
XRECORD
  5
36C6
102
{ACAD_REACTORS
330
36C5
102
}
330
36C5
100
AcDbXrecord
 90
        1
  0
XRECORD
  5
36C7
102
{ACAD_REACTORS
330
36C5
102
}
330
36C5
100
AcDbXrecord
 90
       70
  0
XRECORD
  5
36DF
102
{ACAD_REACTORS
330
36C5
102
}
330
36C5
100
AcDbXrecord
340
0
  0
XRECORD
  5
36E5
102
{ACAD_REACTORS
330
36C5
102
}
330
36C5
100
AcDbXrecord
 10
0.0
 20
0.0
 30
0.0
  0
XRECORD
  5
36E1
102
{ACAD_REACTORS
330
36C5
102
}
330
36C5
100
AcDbXrecord
 10
0.0
 20
0.0
 30
0.0
  0
XRECORD
  5
36E4
102
{ACAD_REACTORS
330
36C5
102
}
330
36C5
100
AcDbXrecord
 10
0.0
 20
0.0
 30
0.0
  0
XRECORD
  5
36E2
102
{ACAD_REACTORS
330
36C5
102
}
330
36C5
100
AcDbXrecord
 10
0.0
 20
0.0
 30
0.0
  0
XRECORD
  5
36E3
102
{ACAD_REACTORS
330
36C5
102
}
330
36C5
100
AcDbXrecord
 10
0.0
 20
0.0
 30
0.0
  0
XRECORD
  5
36E0
102
{ACAD_REACTORS
330
36C5
102
}
330
36C5
100
AcDbXrecord
 10
0.0
 20
0.0
 30
0.0
  0
XRECORD
  5
36DD
102
{ACAD_REACTORS
330
36C5
102
}
330
36C5
100
AcDbXrecord
340
0
  0
XRECORD
  5
36DE
102
{ACAD_REACTORS
330
36C5
102
}
330
36C5
100
AcDbXrecord
 70
     0
  0
XRECORD
  5
36D1
102
{ACAD_REACTORS
330
36C5
102
}
330
36C5
100
AcDbXrecord
  1
{E5C6CE7F-4AF6-427B-8C70-9502D1341894}
  0
DICTIONARYVAR
  5
1F2C
102
{ACAD_REACTORS
330
102
102
}
330
102
100
DictionaryVariables
280
     0
  1
1:1
  0
DICTIONARYVAR
  5
1F2B
102
{ACAD_REACTORS
330
102
102
}
330
102
100
DictionaryVariables
280
     0
  1
STANDARD
  0
DICTIONARYVAR
  5
1F2A
102
{ACAD_REACTORS
330
102
102
}
330
102
100
DictionaryVariables
280
     0
  1
STANDARD
  0
DICTIONARYVAR
  5
103
102
{ACAD_REACTORS
330
102
102
}
330
102
100
DictionaryVariables
280
     0
  1
1
  0
DICTIONARYVAR
  5
1F2D
102
{ACAD_REACTORS
330
102
102
}
330
102
100
DictionaryVariables
280
     0
  1
0
  0
DICTIONARYVAR
  5
549
102
{ACAD_REACTORS
330
102
102
}
330
102
100
DictionaryVariables
280
     0
  1
96
  0
DICTIONARY
  5
1EAA
330
1EA9
100
AcDbDictionary
280
     1
  3
ACAD_XREC_ROUNDTRIP
360
36A4
  3
BUMPTILE
360
1EAC
  3
DIFFUSETILE
360
1EAB
  3
OPACITYTILE
360
1EAF
  3
REFLECTIONTILE
360
1EAE
  3
REFRACTIONTILE
360
1EB0
  3
SPECULARTILE
360
1EAD
  0
DICTIONARY
  5
1EA2
330
1EA1
100
AcDbDictionary
280
     1
  3
ACAD_XREC_ROUNDTRIP
360
36A3
  3
BUMPTILE
360
1EA4
  3
DIFFUSETILE
360
1EA3
  3
OPACITYTILE
360
1EA7
  3
REFLECTIONTILE
360
1EA6
  3
REFRACTIONTILE
360
1EA8
  3
SPECULARTILE
360
1EA5
  0
DICTIONARY
  5
1EB2
330
1EB1
100
AcDbDictionary
280
     1
  3
ACAD_XREC_ROUNDTRIP
360
36A5
  3
BUMPTILE
360
1EB4
  3
DIFFUSETILE
360
1EB3
  3
OPACITYTILE
360
1EB7
  3
REFLECTIONTILE
360
1EB6
  3
REFRACTIONTILE
360
1EB8
  3
SPECULARTILE
360
1EB5
  0
DICTIONARY
  5
1F07
330
1ECC
100
AcDbDictionary
280
     1
  3
ACAD_ROUNDTRIP_2008_TABLES
360
368F
  3
ACAD_XREC_ROUNDTRIP
360
36A6
  0
XRECORD
  5
36A4
102
{ACAD_REACTORS
330
1EAA
102
}
330
1EAA
100
AcDbXrecord
102
MATERIAL
148
0.0
149
0.0
149
0.0
 93
        0
 94
      127
282
     0
 72
     0
 77
     0
171
     0
175
     0
179
     0
273
     0
  0
XRECORD
  5
1EAC
102
{ACAD_REACTORS
330
1EAA
102
}
330
1EAA
100
AcDbXrecord
270
     1
271
     1
  0
XRECORD
  5
1EAB
102
{ACAD_REACTORS
330
1EAA
102
}
330
1EAA
100
AcDbXrecord
270
     1
271
     1
  0
XRECORD
  5
1EAF
102
{ACAD_REACTORS
330
1EAA
102
}
330
1EAA
100
AcDbXrecord
270
     1
271
     1
  0
XRECORD
  5
1EAE
102
{ACAD_REACTORS
330
1EAA
102
}
330
1EAA
100
AcDbXrecord
270
     1
271
     1
  0
XRECORD
  5
1EB0
102
{ACAD_REACTORS
330
1EAA
102
}
330
1EAA
100
AcDbXrecord
270
     1
271
     1
  0
XRECORD
  5
1EAD
102
{ACAD_REACTORS
330
1EAA
102
}
330
1EAA
100
AcDbXrecord
270
     1
271
     1
  0
XRECORD
  5
36A3
102
{ACAD_REACTORS
330
1EA2
102
}
330
1EA2
100
AcDbXrecord
102
MATERIAL
148
0.0
149
0.0
149
0.0
 93
        0
 94
      127
282
     0
 72
     0
 77
     0
171
     0
175
     0
179
     0
273
     0
  0
XRECORD
  5
1EA4
102
{ACAD_REACTORS
330
1EA2
102
}
330
1EA2
100
AcDbXrecord
270
     1
271
     1
  0
XRECORD
  5
1EA3
102
{ACAD_REACTORS
330
1EA2
102
}
330
1EA2
100
AcDbXrecord
270
     1
271
     1
  0
XRECORD
  5
1EA7
102
{ACAD_REACTORS
330
1EA2
102
}
330
1EA2
100
AcDbXrecord
270
     1
271
     1
  0
XRECORD
  5
1EA6
102
{ACAD_REACTORS
330
1EA2
102
}
330
1EA2
100
AcDbXrecord
270
     1
271
     1
  0
XRECORD
  5
1EA8
102
{ACAD_REACTORS
330
1EA2
102
}
330
1EA2
100
AcDbXrecord
270
     1
271
     1
  0
XRECORD
  5
1EA5
102
{ACAD_REACTORS
330
1EA2
102
}
330
1EA2
100
AcDbXrecord
270
     1
271
     1
  0
XRECORD
  5
36A5
102
{ACAD_REACTORS
330
1EB2
102
}
330
1EB2
100
AcDbXrecord
102
MATERIAL
148
0.0
149
0.0
149
0.0
 93
        0
 94
      127
282
     0
 72
     0
 77
     0
171
     0
175
     0
179
     0
273
     0
  0
XRECORD
  5
1EB4
102
{ACAD_REACTORS
330
1EB2
102
}
330
1EB2
100
AcDbXrecord
270
     1
271
     1
  0
XRECORD
  5
1EB3
102
{ACAD_REACTORS
330
1EB2
102
}
330
1EB2
100
AcDbXrecord
270
     1
271
     1
  0
XRECORD
  5
1EB7
102
{ACAD_REACTORS
330
1EB2
102
}
330
1EB2
100
AcDbXrecord
270
     1
271
     1
  0
XRECORD
  5
1EB6
102
{ACAD_REACTORS
330
1EB2
102
}
330
1EB2
100
AcDbXrecord
270
     1
271
     1
  0
XRECORD
  5
1EB8
102
{ACAD_REACTORS
330
1EB2
102
}
330
1EB2
100
AcDbXrecord
270
     1
271
     1
  0
XRECORD
  5
1EB5
102
{ACAD_REACTORS
330
1EB2
102
}
330
1EB2
100
AcDbXrecord
270
     1
271
     1
  0
ACAD_PROXY_OBJECT
  5
368F
102
{ACAD_REACTORS
330
1F07
102
}
330
1F07
100
AcDbProxyObject
 90
      499
 91
      510
 93
     5304
310
40D054060020000020000003200101A000080002A5058000000C100000000000000340FD012E07A17AD46E2B8FCB81E85EB51B8AE3F2E07A17AD46E2B8FCB81E85EB51B8AE3F02B5E8DC0F42B1CFC0AD7A3703D0AC73F419019018000000C1003FBFFFFFE02B5E8DC0F42A9CFD029018000000C1003FBFFFFFE02B5E8DC0F4
310
2A9CFD049018000000C1003FBFFFFFE02B5E8DC0F42A9CFD089018000000C1003FBFFFFFE02B5E8DC0F42A9CFD109018000000C1003FBFFFFFE02B5E8DC0F42A9CFD209018000000C1003FBFFFFFE02B5E8DC0F42A9CFD01405075F5449544C450041501A8000000C800406800020000A9416000000304000AD7A3703D0AC7
310
3F404B81E85EB51B8AE3F2E07A17AD46E2B8FCB81E85EB51B8AE3F2E07A17AD46E2B8FC0AD7A3703D0AC73F02B5E8DC0F42B1CFD0640640600000030400FEFFFFFF80AD7A3703D0AA73F40A40600000030400FEFFFFFF80AD7A3703D0AA73F41240600000030400FEFFFFFF80AD7A3703D0AA73F42240600000030400FEFFF
310
FFF80AD7A3703D0AA73F44240600000030400FEFFFFFF80AD7A3703D0AA73F48240600000030400FEFFFFFF80AD7A3703D0AA73F409014217D2115051115480105406A0000003200101A000080002A5028000000C10002B5E8DC0F42B1CFD012E07A17AD46E2B8FCB81E85EB51B8AE3F2E07A17AD46E2B8FCB81E85EB51B8A
310
E3F02B5E8DC0F42B1CFC0AD7A3703D0AC73F419019018000000C1003FBFFFFFE02B5E8DC0F42A9CFD029018000000C1003FBFFFFFE02B5E8DC0F42A9CFD049018000000C1003FBFFFFFE02B5E8DC0F42A9CFD089018000000C1003FBFFFFFE02B5E8DC0F42A9CFD109018000000C1003FBFFFFFE02B5E8DC0F42A9CFD20901
310
8000000C1003FBFFFFFE02B5E8DC0F42A9CFD03409065F444154410000
340
16
340
0
340
0
340
0
340
0
340
0
340
0
340
16
340
0
340
0
340
0
340
0
340
0
340
0
340
16
340
0
340
0
340
0
340
0
340
0
340
0
 94
        0
1001
ACAD
1000
AcadProxyRoundTripData
1071
      509
1071
   655383
1070
     0
  0
XRECORD
  5
36A6
102
{ACAD_REACTORS
330
1F07
102
}
330
1F07
100
AcDbXrecord
102
ACAD_ROUNDTRIP_PRE2007_TABLESTYLE
 90
      512
 91
        0
  1

 92
      512
 93
        0
  2

 94
      512
 95
        0
  3

  0
ENDSEC
  0
EOF
