  0
SECTION
  2
HEADER
  9
$ACADVER
  1
AC1014
  9
$ACADMAINTVER
 70
     9
  9
$DWGCODEPAGE
  3
ANSI_932
  9
$INSBASE
 10
0.0
 20
0.0
 30
0.0
  9
$EXTMIN
 10
47.30046278925619
 20
57.44019796454833
 30
0.0
  9
$EXTMAX
 10
727.9707333907484
 20
347.5176682526024
 30
0.0
  9
$LIMMIN
 10
0.0
 20
0.0
  9
$LIMMAX
 10
297.0
 20
210.0
  9
$ORTHOMODE
 70
     1
  9
$REGENMODE
 70
     1
  9
$FILLMODE
 70
     1
  9
$QTEXTMODE
 70
     0
  9
$MIRRTEXT
 70
     0
  9
$DRAGMODE
 70
     2
  9
$LTSCALE
 40
2.0
  9
$OSMODE
 70
    37
  9
$ATTMODE
 70
     1
  9
$TEXTSIZE
 40
2.0
  9
$TRACEWID
 40
1.0
  9
$TEXTSTYLE
  7
STANDARD
  9
$CLAYER
  8
0
  9
$CELTYPE
  6
BYLAYER
  9
$CECOLOR
 62
   256
  9
$CELTSCALE
 40
1.0
  9
$DELOBJ
 70
     1
  9
$DISPSILH
 70
     0
  9
$DIMSCALE
 40
2.0
  9
$DIMASZ
 40
1.8
  9
$DIMEXO
 40
0.625
  9
$DIMDLI
 40
3.75
  9
$DIMRND
 40
0.0
  9
$DIMDLE
 40
0.0
  9
$DIMEXE
 40
0.8
  9
$DIMTP
 40
0.0
  9
$DIMTM
 40
0.0
  9
$DIMTXT
 40
1.8
  9
$DIMCEN
 40
2.5
  9
$DIMTSZ
 40
0.0
  9
$DIMTOL
 70
     0
  9
$DIMLIM
 70
     0
  9
$DIMTIH
 70
     0
  9
$DIMTOH
 70
     0
  9
$DIMSE1
 70
     0
  9
$DIMSE2
 70
     0
  9
$DIMTAD
 70
     1
  9
$DIMZIN
 70
     8
  9
$DIMBLK
  1

  9
$DIMASO
 70
     1
  9
$DIMSHO
 70
     1
  9
$DIMPOST
  1

  9
$DIMAPOST
  1

  9
$DIMALT
 70
     0
  9
$DIMALTD
 70
     4
  9
$DIMALTF
 40
0.0394
  9
$DIMLFAC
 40
1.0
  9
$DIMTOFL
 70
     1
  9
$DIMTVP
 40
0.0
  9
$DIMTIX
 70
     0
  9
$DIMSOXD
 70
     0
  9
$DIMSAH
 70
     0
  9
$DIMBLK1
  1

  9
$DIMBLK2
  1

  9
$DIMSTYLE
  2
STANDARD
  9
$DIMCLRD
 70
     0
  9
$DIMCLRE
 70
     0
  9
$DIMCLRT
 70
     0
  9
$DIMTFAC
 40
1.0
  9
$DIMGAP
 40
0.75
  9
$DIMJUST
 70
     0
  9
$DIMSD1
 70
     0
  9
$DIMSD2
 70
     0
  9
$DIMTOLJ
 70
     1
  9
$DIMTZIN
 70
     0
  9
$DIMALTZ
 70
     0
  9
$DIMALTTZ
 70
     0
  9
$DIMFIT
 70
     3
  9
$DIMUPT
 70
     0
  9
$DIMUNIT
 70
     8
  9
$DIMDEC
 70
     2
  9
$DIMTDEC
 70
     2
  9
$DIMALTU
 70
     8
  9
$DIMALTTD
 70
     4
  9
$DIMTXSTY
  7
STANDARD
  9
$DIMAUNIT
 70
     0
  9
$LUNITS
 70
     2
  9
$LUPREC
 70
     3
  9
$SKETCHINC
 40
1.0
  9
$FILLETRAD
 40
10.0
  9
$AUNITS
 70
     0
  9
$AUPREC
 70
     2
  9
$MENU
  1
.
  9
$ELEVATION
 40
0.0
  9
$PELEVATION
 40
0.0
  9
$THICKNESS
 40
0.0
  9
$LIMCHECK
 70
     0
  9
$BLIPMODE
 70
     0
  9
$CHAMFERA
 40
0.0
  9
$CHAMFERB
 40
0.0
  9
$CHAMFERC
 40
20.0
  9
$CHAMFERD
 40
0.0
  9
$SKPOLY
 70
     0
  9
$TDCREATE
 40
2454410.371352349
  9
$TDUPDATE
 40
2454425.763182141
  9
$TDINDWG
 40
0.0416605556
  9
$TDUSRTIMER
 40
0.0416605556
  9
$USRTIMER
 70
     1
  9
$ANGBASE
 50
0.0
  9
$ANGDIR
 70
     0
  9
$PDMODE
 70
     0
  9
$PDSIZE
 40
-10.0
  9
$PLINEWID
 40
0.0
  9
$COORDS
 70
     0
  9
$SPLFRAME
 70
     0
  9
$SPLINETYPE
 70
     6
  9
$SPLINESEGS
 70
     8
  9
$ATTDIA
 70
     0
  9
$ATTREQ
 70
     1
  9
$HANDLING
 70
-16383
  9
$HANDSEED
  5
29B5
  9
$SURFTAB1
 70
     6
  9
$SURFTAB2
 70
     6
  9
$SURFTYPE
 70
     6
  9
$SURFU
 70
     6
  9
$SURFV
 70
     6
  9
$UCSNAME
  2

  9
$UCSORG
 10
0.0
 20
0.0
 30
0.0
  9
$UCSXDIR
 10
1.0
 20
0.0
 30
0.0
  9
$UCSYDIR
 10
0.0
 20
1.0
 30
0.0
  9
$PUCSNAME
  2

  9
$PUCSORG
 10
0.0
 20
0.0
 30
0.0
  9
$PUCSXDIR
 10
1.0
 20
0.0
 30
0.0
  9
$PUCSYDIR
 10
0.0
 20
1.0
 30
0.0
  9
$USERI1
 70
     0
  9
$USERI2
 70
     0
  9
$USERI3
 70
     0
  9
$USERI4
 70
     0
  9
$USERI5
 70
     0
  9
$USERR1
 40
0.0
  9
$USERR2
 40
0.0
  9
$USERR3
 40
0.0
  9
$USERR4
 40
0.0
  9
$USERR5
 40
0.0
  9
$WORLDVIEW
 70
     1
  9
$SHADEDGE
 70
     3
  9
$SHADEDIF
 70
    70
  9
$TILEMODE
 70
     1
  9
$MAXACTVP
 70
    48
  9
$PINSBASE
 10
0.0
 20
0.0
 30
0.0
  9
$PLIMCHECK
 70
     0
  9
$PEXTMIN
 10
0.0
 20
0.0
 30
0.0
  9
$PEXTMAX
 10
0.0
 20
0.0
 30
0.0
  9
$PLIMMIN
 10
0.0
 20
0.0
  9
$PLIMMAX
 10
12.0
 20
9.0
  9
$UNITMODE
 70
     0
  9
$VISRETAIN
 70
     1
  9
$PLINEGEN
 70
     0
  9
$PSLTSCALE
 70
     1
  9
$TREEDEPTH
 70
  3020
  9
$PICKSTYLE
 70
     1
  9
$CMLSTYLE
  2
STANDARD
  9
$CMLJUST
 70
     0
  9
$CMLSCALE
 40
1.0
  9
$PROXYGRAPHICS
 70
     1
  9
$MEASUREMENT
 70
     0
  0
ENDSEC
  0
SECTION
  2
CLASSES
  0
CLASS
  1
DICTIONARYVAR
  2
AcDbDictionaryVar
  3
AutoCAD 2000
 90
        0
280
     0
281
     0
  0
CLASS
  1
ACDBDICTIONARYWDFLT
  2
AcDbDictionaryWithDefault
  3
AutoCAD 2000
 90
        0
280
     0
281
     0
  0
CLASS
  1
ACDBPLACEHOLDER
  2
AcDbPlaceHolder
  3
AutoCAD 2000
 90
        0
280
     0
281
     0
  0
CLASS
  1
LAYOUT
  2
AcDbLayout
  3
AutoCAD 2000
 90
        0
280
     0
281
     0
  0
CLASS
  1
MATERIAL
  2
AcDbMaterial
  3
ObjectDBX Classes
 90
     1153
280
     0
281
     0
  0
CLASS
  1
VISUALSTYLE
  2
AcDbVisualStyle
  3
ObjectDBX Classes
 90
     4095
280
     0
281
     0
  0
CLASS
  1
TABLESTYLE
  2
AcDbTableStyle
  3
ObjectDBX Classes
 90
     4095
280
     0
281
     0
  0
CLASS
  1
SCALE
  2
AcDbScale
  3
ObjectDBX Classes
 90
     1153
280
     0
281
     0
  0
CLASS
  1
MLEADERSTYLE
  2
AcDbMLeaderStyle
  3
ACDB_MLEADERSTYLE_CLASS
 90
     4095
280
     0
281
     0
  0
CLASS
  1
CELLSTYLEMAP
  2
AcDbCellStyleMap
  3
ObjectDBX Classes
 90
     1152
280
     0
281
     0
  0
CLASS
  1
ACAD_PROXY_OBJECT_WRAPPER
  2
AcDbProxyObjectWrapper
  3
AutoCAD 2000
 90
        0
280
     0
281
     0
  0
CLASS
  1
LONG_TRANSACTION
  2
AcDbLongTransaction
  3
AutoCAD 2000
 90
        0
280
     0
281
     0
  0
CLASS
  1
LWPOLYLINE
  2
AcDbPolyline
  3
AutoCAD 2000
 90
        0
280
     0
281
     1
  0
CLASS
  1
HATCH
  2
AcDbHatch
  3
AutoCAD 2000
 90
        0
280
     0
281
     1
  0
CLASS
  1
XRECORD
  2
AcDbXrecord
  3
AutoCAD 2000
 90
        0
280
     0
281
     0
  0
ENDSEC
  0
SECTION
  2
TABLES
  0
TABLE
  2
VPORT
  5
6E
102
{ACAD_XDICTIONARY
360
1DFE
102
}
330
0
100
AcDbSymbolTable
 70
     2
  0
VPORT
  5
298F
330
6E
100
AcDbSymbolTableRecord
100
AcDbViewportTableRecord
  2
*ACTIVE
 70
     0
 10
0.0
 20
0.0
 11
1.0
 21
1.0
 12
436.41214331725
 22
195.3540758046658
 13
0.0
 23
0.0
 14
10.0
 24
10.0
 15
10.0
 25
10.0
 16
0.0
 26
0.0
 36
1.0
 17
0.0
 27
0.0
 37
0.0
 40
445.8739694426194
 41
1.753504672897196
 42
50.0
 43
0.0
 44
0.0
 50
0.0
 51
0.0
 71
     0
 72
   100
 73
     1
 74
     3
 75
     0
 76
     0
 77
     0
 78
     0
  0
ENDTAB
  0
TABLE
  2
LTYPE
  5
69
330
0
100
AcDbSymbolTable
 70
     5
  0
LTYPE
  5
6A
330
69
100
AcDbSymbolTableRecord
100
AcDbLinetypeTableRecord
  2
BYBLOCK
 70
     0
  3

 72
    65
 73
     0
 40
0.0
  0
LTYPE
  5
6B
330
69
100
AcDbSymbolTableRecord
100
AcDbLinetypeTableRecord
  2
BYLAYER
 70
     0
  3

 72
    65
 73
     0
 40
0.0
  0
LTYPE
  5
8
330
69
100
AcDbSymbolTableRecord
100
AcDbLinetypeTableRecord
  2
CONTINUOUS
 70
     0
  3
Solid line
 72
    65
 73
     0
 40
0.0
  0
LTYPE
  5
27C
330
69
100
AcDbSymbolTableRecord
100
AcDbLinetypeTableRecord
  2
SEKKEI_A2_
 70
     0
  3
center(A2)  ____ _ ____ _ ____ _ ____ _ ____ _ 
 72
    65
 73
     4
 40
14.28749999999999
 49
9.525
 74
     0
 49
-1.587499999999999
 74
     0
 49
1.587499999999999
 74
     0
 49
-1.587499999999999
 74
     0
  0
LTYPE
  5
7F0
330
69
100
AcDbSymbolTableRecord
100
AcDbLinetypeTableRecord
  2
HIDDEN3
 70
     0
  3
Hidden (.3x) _ _ _ _ _ _ _ _ _ _ _ _ _ _ _ _ _
 72
    65
 73
     2
 40
2.857499999999999
 49
1.905
 74
     0
 49
-0.9525
 74
     0
  0
LTYPE
  5
AFF
330
69
100
AcDbSymbolTableRecord
100
AcDbLinetypeTableRecord
  2
CENS
 70
     0
  3
(一点鎖線１)---- - ---- - ---- - ---- - ---- - 
 72
    65
 73
     4
 40
7.0
 49
4.0
 74
     0
 49
-1.0
 74
     0
 49
1.0
 74
     0
 49
-1.0
 74
     0
  0
ENDTAB
  0
TABLE
  2
LAYER
  5
66
102
{ACAD_XDICTIONARY
360
B00
102
}
330
0
100
AcDbSymbolTable
 70
     9
  0
LAYER
  5
5E
102
{ACAD_XDICTIONARY
360
1DE1
102
}
330
66
100
AcDbSymbolTableRecord
100
AcDbLayerTableRecord
  2
0
 70
     0
 62
     7
  6
CONTINUOUS
  0
LAYER
  5
3E
102
{ACAD_XDICTIONARY
360
1DE3
102
}
330
66
100
AcDbSymbolTableRecord
100
AcDbLayerTableRecord
  2
CENTER
 70
     0
 62
     3
  6
SEKKEI_A2_
  0
LAYER
  5
2B5
102
{ACAD_XDICTIONARY
360
1DE9
102
}
330
66
100
AcDbSymbolTableRecord
100
AcDbLayerTableRecord
  2
HIDS
 70
     0
 62
     1
  6
HIDDEN3
  0
LAYER
  5
2BA
102
{ACAD_XDICTIONARY
360
1DEB
102
}
330
66
100
AcDbSymbolTableRecord
100
AcDbLayerTableRecord
  2
HOJO
 70
     0
 62
     4
  6
CONTINUOUS
  0
LAYER
  5
3FA
102
{ACAD_XDICTIONARY
360
1DEF
102
}
330
66
100
AcDbSymbolTableRecord
100
AcDbLayerTableRecord
  2
TITLE
 70
     0
 62
     4
  6
CONTINUOUS
  0
ENDTAB
  0
TABLE
  2
STYLE
  5
67
330
0
100
AcDbSymbolTable
 70
     1
  0
STYLE
  5
16
330
67
100
AcDbSymbolTableRecord
100
AcDbTextStyleTableRecord
  2
STANDARD
 70
     0
 40
0.0
 41
1.0
 50
0.0
 71
     0
 42
2.0
  3
simplex.shx
  4
extfont.shx
  0
ENDTAB
  0
TABLE
  2
VIEW
  5
6C
330
0
100
AcDbSymbolTable
 70
     0
  0
ENDTAB
  0
TABLE
  2
UCS
  5
6D
330
0
100
AcDbSymbolTable
 70
     0
  0
ENDTAB
  0
TABLE
  2
APPID
  5
70
330
0
100
AcDbSymbolTable
 70
     2
  0
APPID
  5
71
330
70
100
AcDbSymbolTableRecord
100
AcDbRegAppTableRecord
  2
ACAD
 70
     0
  0
APPID
  5
1936
330
70
100
AcDbSymbolTableRecord
100
AcDbRegAppTableRecord
  2
ACAD_MLEADERVER
 70
     0
  0
ENDTAB
  0
TABLE
  2
DIMSTYLE
  5
72
330
0
100
AcDbSymbolTable
 70
     1
  0
DIMSTYLE
105
73
330
72
100
AcDbSymbolTableRecord
100
AcDbDimStyleTableRecord
  2
STANDARD
 70
     0
  3

  4

  5

  6

  7

 40
2.0
 41
1.8
 42
0.625
 43
3.75
 44
0.8
 45
0.0
 46
0.0
 47
0.0
 48
0.0
140
1.8
141
2.5
142
0.0
143
0.0394
144
1.0
145
0.0
146
1.0
147
0.75
 71
     0
 72
     0
 73
     0
 74
     0
 75
     0
 76
     0
 77
     1
 78
     8
170
     0
171
     4
172
     1
173
     0
174
     0
175
     0
176
     0
177
     0
178
     0
270
     8
271
     2
272
     2
273
     8
274
     4
340
16
275
     0
280
     0
281
     0
282
     0
283
     1
284
     0
285
     0
286
     0
287
     3
288
     0
  0
ENDTAB
  0
TABLE
  2
BLOCK_RECORD
  5
1
330
0
100
AcDbSymbolTable
 70
    47
  0
BLOCK_RECORD
  5
2
102
{ACAD_XDICTIONARY
360
29B1
102
}
330
1
100
AcDbSymbolTableRecord
100
AcDbBlockTableRecord
  2
*MODEL_SPACE
  0
BLOCK_RECORD
  5
298A
102
{ACAD_XDICTIONARY
360
29B3
102
}
330
1
100
AcDbSymbolTableRecord
100
AcDbBlockTableRecord
  2
*PAPER_SPACE
  0
ENDTAB
  0
ENDSEC
  0
SECTION
  2
BLOCKS
  0
BLOCK
  5
5D
330
2
100
AcDbEntity
  8
0
100
AcDbBlockBegin
  2
*MODEL_SPACE
 70
     0
 10
0.0
 20
0.0
 30
0.0
  3
*MODEL_SPACE
  1

  0
ENDBLK
  5
5F
330
2
100
AcDbEntity
  8
0
100
AcDbBlockEnd
  0
BLOCK
  5
298C
330
298A
100
AcDbEntity
 67
     1
  8
0
100
AcDbBlockBegin
  2
*PAPER_SPACE
 70
     0
 10
0.0
 20
0.0
 30
0.0
  3
*PAPER_SPACE
  1

  0
ENDBLK
  5
298D
330
298A
100
AcDbEntity
 67
     1
  8
0
100
AcDbBlockEnd
  0
ENDSEC
  0
SECTION
  2
ENTITIES
  0
LINE
  5
F59
330
2
100
AcDbEntity
  8
CENTER
100
AcDbLine
 10
411.0337840950131
 20
102.4401979645477
 30
0.0
 11
566.0337840950162
 21
102.440197964547
 31
0.0
  0
LINE
  5
F5B
330
2
100
AcDbEntity
  8
CENTER
100
AcDbLine
 10
421.1995945814956
 20
304.5176682526009
 30
0.0
 11
569.0337840950088
 21
304.5176682526006
 31
0.0
  0
LINE
  5
F6A
330
2
100
AcDbEntity
  8
0
100
AcDbLine
 10
524.0337840950075
 20
335.5176682548274
 30
0.0
 11
524.0337840950111
 21
273.5176682548282
 31
0.0
  0
LINE
  5
FA8
330
2
100
AcDbEntity
  8
0
100
AcDbLine
 10
521.0337840950158
 20
133.9401979645474
 30
0.0
 11
521.0337840950158
 21
70.94019796454839
 31
0.0
  0
LINE
  5
FF3
330
2
100
AcDbEntity
  8
CENTER
100
AcDbLine
 10
195.3004627892566
 20
102.4401979645434
 30
0.0
 11
47.30046278925619
 21
102.4401979645434
 31
0.0
  0
LINE
  5
FF5
330
2
100
AcDbEntity
  8
0
100
AcDbLine
 10
92.30046278925664
 20
70.94019796454341
 30
0.0
 11
92.30046278925664
 21
133.9401979645425
 31
0.0
  0
LINE
  5
124A
330
2
100
AcDbEntity
  8
CENTER
100
AcDbLine
 10
727.9707333907484
 20
102.4401979645389
 30
0.0
 11
610.9707333907451
 21
102.4401979645391
 31
0.0
  0
LINE
  5
124B
330
2
100
AcDbEntity
  8
CENTER
100
AcDbLine
 10
682.9707333907448
 20
140.9401979645393
 30
0.0
 11
682.9707333907452
 21
63.94019796453893
 31
0.0
  0
LINE
  5
124C
330
2
100
AcDbEntity
  8
0
100
AcDbLine
 10
646.9707333907425
 20
77.44019796454574
 30
0.0
 11
646.9707333907425
 21
127.4401979645457
 31
0.0
  0
LINE
  5
124D
330
2
100
AcDbEntity
  8
0
100
AcDbLine
 10
649.9707333907426
 20
127.4401979645457
 30
0.0
 11
646.9707333907425
 21
127.4401979645457
 31
0.0
  0
LINE
  5
124E
330
2
100
AcDbEntity
  8
0
100
AcDbLine
 10
649.9707333907426
 20
77.44019796454574
 30
0.0
 11
646.9707333907425
 21
77.44019796454574
 31
0.0
  0
LINE
  5
124F
330
2
100
AcDbEntity
  8
0
100
AcDbLine
 10
713.9707333907462
 20
130.4881948681571
 30
0.0
 11
713.9707333907453
 21
74.39220106092114
 31
0.0
  0
LINE
  5
1250
330
2
100
AcDbEntity
  8
0
100
AcDbLine
 10
651.9707333907453
 20
130.4881948681571
 30
0.0
 11
651.9707333907453
 21
74.39220106092114
 31
0.0
  0
LINE
  5
1251
330
2
100
AcDbEntity
  8
0
100
AcDbLine
 10
649.9707333907452
 20
132.9820374055197
 30
0.0
 11
649.9707333907452
 21
71.8983585235477
 31
0.0
  0
LINE
  5
1252
330
2
100
AcDbEntity
  8
0
100
AcDbLine
 10
711.0191141949016
 20
71.39259120332451
 30
0.0
 11
682.9707333907452
 21
70.94019796453892
 31
0.0
  0
ARC
  5
1253
330
2
100
AcDbEntity
  8
0
100
AcDbCircle
 10
710.9707333907453
 20
74.39220106092114
 30
0.0
 40
3.0
100
AcDbArc
 50
270.9240453527669
 51
0.0
  0
LINE
  5
1254
330
2
100
AcDbEntity
  8
0
100
AcDbLine
 10
654.9223525865898
 20
71.39259120332451
 30
0.0
 11
682.9707333907452
 21
70.94019796453892
 31
0.0
  0
ARC
  5
1255
330
2
100
AcDbEntity
  8
0
100
AcDbCircle
 10
654.9707333907453
 20
74.39220106092114
 30
0.0
 40
3.0
100
AcDbArc
 50
180.0
 51
269.0759546471809
  0
LINE
  5
1256
330
2
100
AcDbEntity
  8
0
100
AcDbLine
 10
711.0191141949016
 20
133.4878047257537
 30
0.0
 11
682.9707333907452
 21
133.9401979645393
 31
0.0
  0
LINE
  5
1257
330
2
100
AcDbEntity
  8
0
100
AcDbLine
 10
654.9223525865898
 20
133.4878047257537
 30
0.0
 11
682.9707333907452
 21
133.9401979645393
 31
0.0
  0
ARC
  5
1258
330
2
100
AcDbEntity
  8
0
100
AcDbCircle
 10
710.9707333907461
 20
130.4881948681571
 30
0.0
 40
3.0
100
AcDbArc
 50
0.0
 51
89.07595464718097
  0
ARC
  5
1259
330
2
100
AcDbEntity
  8
0
100
AcDbCircle
 10
654.9707333907453
 20
130.4881948681571
 30
0.0
 40
3.0
100
AcDbArc
 50
90.9240453527669
 51
180.0
  0
LINE
  5
125A
330
2
100
AcDbEntity
  8
0
100
AcDbLine
 10
639.9707333907435
 20
122.5088204149277
 30
0.0
 11
639.9707333907435
 21
82.37157551414737
 31
0.0
  0
LINE
  5
125B
330
2
100
AcDbEntity
  8
0
100
AcDbLine
 10
645.0405323841486
 20
80.26315668251561
 30
0.0
 11
641.9009343973383
 21
80.37279386010949
 31
0.0
  0
ARC
  5
125C
330
2
100
AcDbEntity
  8
0
100
AcDbCircle
 10
644.9707333907435
 20
78.26437502847773
 30
0.0
 40
2.0
100
AcDbArc
 50
0.0
 51
87.99999999999636
  0
ARC
  5
125D
330
2
100
AcDbEntity
  8
0
100
AcDbCircle
 10
641.9707333907434
 20
82.37157551414737
 30
0.0
 40
2.0
100
AcDbArc
 50
180.0
 51
267.9999999999963
  0
LINE
  5
125E
330
2
100
AcDbEntity
  8
0
100
AcDbLine
 10
645.0405323841722
 20
124.6172392465558
 30
0.0
 11
641.900934397362
 21
124.5076020689647
 31
0.0
  0
ARC
  5
125F
330
2
100
AcDbEntity
  8
0
100
AcDbCircle
 10
644.9707333907689
 20
126.6160209005937
 30
0.0
 40
2.0
100
AcDbArc
 50
271.9999999999515
 51
359.9999999999478
  0
ARC
  5
1260
330
2
100
AcDbEntity
  8
0
100
AcDbCircle
 10
641.9707333907644
 20
122.5088204149277
 30
0.0
 40
2.0
100
AcDbArc
 50
91.99999999995149
 51
179.9999999999479
  0
LINE
  5
1261
330
2
100
AcDbEntity
  8
0
100
AcDbLine
 10
653.3481201861548
 20
133.0115114135613
 30
0.0
 11
649.9707333907452
 21
132.9820374055197
 31
0.0
  0
LINE
  5
1262
330
2
100
AcDbEntity
  8
0
100
AcDbLine
 10
653.3481201861558
 20
71.86888451550465
 30
0.0
 11
649.9707333907452
 21
71.8983585235477
 31
0.0
  0
LINE
  5
1263
330
2
100
AcDbEntity
  8
0
100
AcDbLine
 10
718.9707333907498
 20
124.8628476953502
 30
0.0
 11
718.9707333907498
 21
80.01754823372801
 31
0.0
  0
LINE
  5
1264
330
2
100
AcDbEntity
  8
0
100
AcDbLine
 10
714.2707333907491
 20
125.4401979645393
 30
0.0
 11
713.9707333907462
 21
125.4401979645393
 31
0.0
  0
LINE
  5
1265
330
2
100
AcDbEntity
  8
0
100
AcDbLine
 10
717.9707333907489
 20
125.4401979645398
 30
0.0
 11
718.9707333907498
 21
124.8628476953502
 31
0.0
  0
LINE
  5
1266
330
2
100
AcDbEntity
  8
0
100
AcDbLine
 10
714.4707333907498
 20
125.2401979645391
 30
0.0
 11
714.2707333907491
 21
125.4401979645393
 31
0.0
  0
LINE
  5
1267
330
2
100
AcDbEntity
  8
0
100
AcDbLine
 10
717.9707333907498
 20
125.4401979645398
 30
0.0
 11
716.6707333907488
 21
125.4401979645393
 31
0.0
  0
LINE
  5
1268
330
2
100
AcDbEntity
  8
0
100
AcDbLine
 10
716.4707333907498
 20
125.2401979645395
 30
0.0
 11
716.4707333907498
 21
79.64019796453829
 31
0.0
  0
LINE
  5
1269
330
2
100
AcDbEntity
  8
0
100
AcDbLine
 10
716.2707333907491
 20
124.7401979645395
 30
0.0
 11
714.6707333907487
 21
124.7401979645391
 31
0.0
  0
LINE
  5
126A
330
2
100
AcDbEntity
  8
0
100
AcDbLine
 10
714.4707333907498
 20
125.2401979645391
 30
0.0
 11
714.4707333907498
 21
79.64019796453874
 31
0.0
  0
LINE
  5
126B
330
2
100
AcDbEntity
  8
0
100
AcDbLine
 10
714.2707333907491
 20
79.44019796453893
 30
0.0
 11
713.9707333907453
 21
79.44019796453893
 31
0.0
  0
LINE
  5
126C
330
2
100
AcDbEntity
  8
0
100
AcDbLine
 10
716.2707333907491
 20
80.14019796453828
 30
0.0
 11
714.6707333907487
 21
80.14019796453874
 31
0.0
  0
LINE
  5
126D
330
2
100
AcDbEntity
  8
0
100
AcDbLine
 10
714.4707333907498
 20
79.64019796453874
 30
0.0
 11
714.2707333907491
 21
79.44019796453893
 31
0.0
  0
LINE
  5
126E
330
2
100
AcDbEntity
  8
0
100
AcDbLine
 10
717.9707333907489
 20
79.44019796453847
 30
0.0
 11
718.9707333907498
 21
80.01754823372801
 31
0.0
  0
LINE
  5
126F
330
2
100
AcDbEntity
  8
0
100
AcDbLine
 10
717.9707333907498
 20
79.44019796453847
 30
0.0
 11
716.6707333907488
 21
79.44019796453847
 31
0.0
  0
ARC
  5
1270
330
2
100
AcDbEntity
  8
0
100
AcDbCircle
 10
716.6707333907488
 20
79.64019796453829
 30
0.0
 40
0.2
100
AcDbArc
 50
180.0
 51
270.0
  0
ARC
  5
1271
330
2
100
AcDbEntity
  8
0
100
AcDbCircle
 10
716.2707333907491
 20
79.94019796453847
 30
0.0
 40
0.2
100
AcDbArc
 50
0.0
 51
90.0
  0
ARC
  5
1272
330
2
100
AcDbEntity
  8
0
100
AcDbCircle
 10
714.6707333907487
 20
79.94019796453892
 30
0.0
 40
0.2
100
AcDbArc
 50
90.0
 51
180.0
  0
ARC
  5
1273
330
2
100
AcDbEntity
  8
0
100
AcDbCircle
 10
716.6707333907488
 20
125.2401979645395
 30
0.0
 40
0.2
100
AcDbArc
 50
90.0
 51
180.0
  0
ARC
  5
1274
330
2
100
AcDbEntity
  8
0
100
AcDbCircle
 10
716.2707333907491
 20
124.9401979645393
 30
0.0
 40
0.2
100
AcDbArc
 50
270.0
 51
0.0
  0
ARC
  5
1275
330
2
100
AcDbEntity
  8
0
100
AcDbCircle
 10
714.6707333907487
 20
124.9401979645393
 30
0.0
 40
0.2
100
AcDbArc
 50
180.0
 51
270.0
  0
LINE
  5
1276
330
2
100
AcDbEntity
  8
0
100
AcDbLine
 10
717.9707333907489
 20
125.4401979645398
 30
0.0
 11
717.9707333907489
 21
79.44019796453847
 31
0.0
  0
LINE
  5
1277
330
2
100
AcDbEntity
  8
0
100
AcDbLine
 10
714.2707333907491
 20
79.44019796453893
 30
0.0
 11
714.2707333907491
 21
125.4401979645393
 31
0.0
  0
LINE
  5
1278
330
2
100
AcDbEntity
  8
0
100
AcDbLine
 10
714.4707333907517
 20
72.19019796453529
 30
0.0
 11
713.0081784485345
 21
72.19019796453529
 31
0.0
  0
LINE
  5
1279
330
2
100
AcDbEntity
  8
0
100
AcDbLine
 10
714.4707333907517
 20
80.69019796453529
 30
0.0
 11
714.4707333907517
 21
72.19019796453529
 31
0.0
  0
LINE
  5
127A
330
2
100
AcDbEntity
  8
0
100
AcDbLine
 10
714.4707333907517
 20
72.19019796453529
 30
0.0
 11
714.7707333907527
 21
72.70981320680618
 31
0.0
  0
LINE
  5
127B
330
2
100
AcDbEntity
  8
0
100
AcDbLine
 10
714.7707333907527
 20
80.14019796453874
 30
0.0
 11
714.7707333907527
 21
72.70981320680618
 31
0.0
  0
LINE
  5
127C
330
2
100
AcDbEntity
  8
0
100
AcDbLine
 10
714.4707333907517
 20
132.6901979645425
 30
0.0
 11
713.0081784485345
 21
132.6901979645425
 31
0.0
  0
LINE
  5
127D
330
2
100
AcDbEntity
  8
0
100
AcDbLine
 10
714.4707333907517
 20
124.1901979645425
 30
0.0
 11
714.4707333907517
 21
132.6901979645425
 31
0.0
  0
LINE
  5
127E
330
2
100
AcDbEntity
  8
0
100
AcDbLine
 10
714.4707333907517
 20
132.6901979645425
 30
0.0
 11
714.7707333907527
 21
132.1705827222716
 31
0.0
  0
LINE
  5
127F
330
2
100
AcDbEntity
  8
0
100
AcDbLine
 10
714.7707333907519
 20
124.7401979645395
 30
0.0
 11
714.7707333907527
 21
132.1705827222716
 31
0.0
  0
ARC
  5
1287
330
2
100
AcDbEntity
  8
0
100
AcDbCircle
 10
682.9707333907448
 20
102.4401979645382
 30
0.0
 40
27.00000000000004
100
AcDbArc
 50
133.6028189727171
 51
260.4059317731483
  0
LINE
  5
1288
330
2
100
AcDbEntity
  8
0
100
AcDbLine
 10
700.9707333907448
 20
77.44019796453824
 30
0.0
 11
700.9707333907448
 21
81.44019796453823
 31
0.0
  0
LINE
  5
1289
330
2
100
AcDbEntity
  8
0
100
AcDbLine
 10
710.9707333907453
 20
71.44019796453824
 30
0.0
 11
654.9707333907448
 21
71.44019796453824
 31
0.0
  0
LINE
  5
128A
330
2
100
AcDbEntity
  8
0
100
AcDbLine
 10
680.1750809005328
 20
75.44019796453824
 30
0.0
 11
698.9707333907448
 21
75.44019796453824
 31
0.0
  0
ARC
  5
128B
330
2
100
AcDbEntity
  8
0
100
AcDbCircle
 10
654.9707333907448
 20
74.44019796453824
 30
0.0
 40
3.0
100
AcDbArc
 50
180.0
 51
270.0
  0
ARC
  5
128C
330
2
100
AcDbEntity
  8
0
100
AcDbCircle
 10
698.9707333907448
 20
77.44019796453824
 30
0.0
 40
2.0
100
AcDbArc
 50
270.0
 51
0.0
  0
ARC
  5
128D
330
2
100
AcDbEntity
  8
0
100
AcDbCircle
 10
710.9707333907453
 20
74.44019796453824
 30
0.0
 40
3.0
100
AcDbArc
 50
270.0
 51
0.0
  0
LINE
  5
128E
330
2
100
AcDbEntity
  8
0
100
AcDbLine
 10
654.922736502231
 20
133.4401979645382
 30
0.0
 11
668.7845927291144
 21
133.4401979645405
 31
0.0
  0
LINE
  5
128F
330
2
100
AcDbEntity
  8
0
100
AcDbLine
 10
681.1568740523711
 20
133.4401979645418
 30
0.0
 11
710.9707333907448
 21
133.4401979645464
 31
0.0
  0
CIRCLE
  5
1290
330
2
100
AcDbEntity
  8
0
100
AcDbCircle
 10
682.9707333907448
 20
102.4401979645382
 30
0.0
 40
14.99999999999994
  0
LINE
  5
1291
330
2
100
AcDbEntity
  8
0
100
AcDbLine
 10
666.9707333907448
 20
122.4401979645382
 30
0.0
 11
698.9707333907439
 21
122.4401979645382
 31
0.0
  0
LINE
  5
1292
330
2
100
AcDbEntity
  8
0
100
AcDbLine
 10
698.9707333907439
 20
82.44019796453825
 30
0.0
 11
666.9707333907448
 21
82.44019796453825
 31
0.0
  0
ARC
  5
1293
330
2
100
AcDbEntity
  8
0
100
AcDbCircle
 10
682.9707333907448
 20
102.4401979645382
 30
0.0
 40
27.00000000000004
100
AcDbArc
 50
313.602818972717
 51
80.40593177314832
  0
LINE
  5
1294
330
2
100
AcDbEntity
  8
0
100
AcDbLine
 10
662.9707333907448
 20
86.44019796453823
 30
0.0
 11
662.9707333907448
 21
118.4401979645382
 31
0.0
  0
ARC
  5
1295
330
2
100
AcDbEntity
  8
0
100
AcDbCircle
 10
666.9707333907448
 20
86.44019796453823
 30
0.0
 40
4.0
100
AcDbArc
 50
180.0
 51
270.0
  0
LINE
  5
1296
330
2
100
AcDbEntity
  8
0
100
AcDbLine
 10
685.7663858809567
 20
129.4401979645382
 30
0.0
 11
666.9707333907448
 21
129.4401979645382
 31
0.0
  0
LINE
  5
1297
330
2
100
AcDbEntity
  8
0
100
AcDbLine
 10
664.9707333907448
 20
127.4401979645382
 30
0.0
 11
664.9707333907448
 21
123.4401979645382
 31
0.0
  0
ARC
  5
1298
330
2
100
AcDbEntity
  8
0
100
AcDbCircle
 10
662.9707333907448
 20
123.4401979645382
 30
0.0
 40
2.0
100
AcDbArc
 50
313.602818972717
 51
0.0
  0
ARC
  5
1299
330
2
100
AcDbEntity
  8
0
100
AcDbCircle
 10
666.9707333907448
 20
118.4401979645382
 30
0.0
 40
4.0
100
AcDbArc
 50
90.0
 51
180.0
  0
ARC
  5
129A
330
2
100
AcDbEntity
  8
0
100
AcDbCircle
 10
654.9707333907448
 20
130.4401979645382
 30
0.0
 40
3.0
100
AcDbArc
 50
90.0
 51
180.0
  0
ARC
  5
129B
330
2
100
AcDbEntity
  8
0
100
AcDbCircle
 10
666.9707333907448
 20
127.4401979645382
 30
0.0
 40
2.0
100
AcDbArc
 50
90.0
 51
180.0
  0
LINE
  5
129C
330
2
100
AcDbEntity
  8
0
100
AcDbLine
 10
702.9707333907439
 20
118.4401979645382
 30
0.0
 11
702.9707333907439
 21
86.44019796453823
 31
0.0
  0
ARC
  5
129D
330
2
100
AcDbEntity
  8
0
100
AcDbCircle
 10
702.9707333907448
 20
81.44019796453823
 30
0.0
 40
2.0
100
AcDbArc
 50
133.6028189727171
 51
180.0
  0
ARC
  5
129E
330
2
100
AcDbEntity
  8
0
100
AcDbCircle
 10
698.9707333907439
 20
86.44019796453823
 30
0.0
 40
4.0
100
AcDbArc
 50
270.0
 51
0.0
  0
ARC
  5
129F
330
2
100
AcDbEntity
  8
0
100
AcDbCircle
 10
698.9707333907439
 20
118.4401979645382
 30
0.0
 40
4.0
100
AcDbArc
 50
0.0
 51
90.0
  0
ARC
  5
12A0
330
2
100
AcDbEntity
  8
0
100
AcDbCircle
 10
710.9707333907453
 20
130.4401979645382
 30
0.0
 40
3.0
100
AcDbArc
 50
0.0
 51
90.0
  0
ARC
  5
12A1
330
2
100
AcDbEntity
  8
0
100
AcDbCircle
 10
680.1750809005328
 20
78.44019796453824
 30
0.0
 40
3.0
100
AcDbArc
 50
248.4451812910239
 51
270.0
  0
ARC
  5
12A2
330
2
100
AcDbEntity
  8
0
100
AcDbCircle
 10
677.9707333907448
 20
72.85979904904036
 30
0.0
 40
3.0
100
AcDbArc
 50
68.44518129102394
 51
80.40593177314832
  0
ARC
  5
12A3
330
2
100
AcDbEntity
  8
0
100
AcDbCircle
 10
685.7663858809567
 20
126.4401979645386
 30
0.0
 40
3.0
100
AcDbArc
 50
68.44518129102394
 51
90.0
  0
ARC
  5
12A4
330
2
100
AcDbEntity
  8
0
100
AcDbCircle
 10
687.9707333907448
 20
132.0205968800365
 30
0.0
 40
3.0
100
AcDbArc
 50
248.4451812910239
 51
260.4059317731483
  0
LINE
  5
12A5
330
2
100
AcDbEntity
  8
HIDS
100
AcDbLine
 10
680.7207333907448
 20
129.4401979645382
 30
0.0
 11
680.7207333907448
 21
119.7949523563462
 31
0.0
  0
LINE
  5
12A6
330
2
100
AcDbEntity
  8
HIDS
100
AcDbLine
 10
669.2207333907448
 20
129.4401979645382
 30
0.0
 11
669.2207333907448
 21
113.2655155118428
 31
0.0
  0
CIRCLE
  5
12A7
330
2
100
AcDbEntity
  8
HIDS
100
AcDbCircle
 10
682.9707333907448
 20
102.4401979645382
 30
0.0
 40
17.4999999999992
  0
CIRCLE
  5
12A8
330
2
100
AcDbEntity
  8
0
100
AcDbCircle
 10
656.100675705656
 20
129.310255649627
 30
0.0
 40
1.732050807568871
  0
LWPOLYLINE
  5
12A9
330
2
100
AcDbEntity
  8
0
100
AcDbPolyline
 90
        6
 70
     1
 43
0.0
 10
657.6006757056561
 20
130.1762810534115
 10
656.100675705656
 20
131.0423064571961
 10
654.600675705656
 20
130.1762810534115
 10
654.600675705656
 20
128.4442302458429
 10
656.100675705656
 20
127.5782048420584
 10
657.6006757056561
 20
128.4442302458429
  0
CIRCLE
  5
12AA
330
2
100
AcDbEntity
  8
0
100
AcDbCircle
 10
656.100675705656
 20
129.310255649627
 30
0.0
 40
3.499999999999717
  0
CIRCLE
  5
12AB
330
2
100
AcDbEntity
  8
0
100
AcDbCircle
 10
656.100675705656
 20
129.310255649627
 30
0.0
 40
2.980384757729353
  0
CIRCLE
  5
12AC
330
2
100
AcDbEntity
  8
0
100
AcDbCircle
 10
709.8407910758336
 20
129.310255649627
 30
0.0
 40
1.732050807568871
  0
LWPOLYLINE
  5
12AD
330
2
100
AcDbEntity
  8
0
100
AcDbPolyline
 90
        6
 70
     1
 43
0.0
 10
711.3407910758336
 20
130.1762810534115
 10
709.8407910758336
 20
131.0423064571961
 10
708.3407910758336
 20
130.1762810534115
 10
708.3407910758336
 20
128.4442302458429
 10
709.8407910758336
 20
127.5782048420584
 10
711.3407910758336
 20
128.4442302458429
  0
CIRCLE
  5
12AE
330
2
100
AcDbEntity
  8
0
100
AcDbCircle
 10
709.8407910758336
 20
129.310255649627
 30
0.0
 40
3.499999999999717
  0
CIRCLE
  5
12AF
330
2
100
AcDbEntity
  8
0
100
AcDbCircle
 10
709.8407910758336
 20
129.310255649627
 30
0.0
 40
2.980384757729353
  0
CIRCLE
  5
12B0
330
2
100
AcDbEntity
  8
0
100
AcDbCircle
 10
709.8407910758336
 20
75.57014027944944
 30
0.0
 40
1.732050807568871
  0
LWPOLYLINE
  5
12B1
330
2
100
AcDbEntity
  8
0
100
AcDbPolyline
 90
        6
 70
     1
 43
0.0
 10
711.3407910758336
 20
76.43616568323398
 10
709.8407910758336
 20
77.30219108701851
 10
708.3407910758336
 20
76.43616568323398
 10
708.3407910758336
 20
74.70411487566536
 10
709.8407910758336
 20
73.83808947188083
 10
711.3407910758336
 20
74.70411487566536
  0
CIRCLE
  5
12B2
330
2
100
AcDbEntity
  8
0
100
AcDbCircle
 10
709.8407910758336
 20
75.57014027944944
 30
0.0
 40
3.499999999999717
  0
CIRCLE
  5
12B3
330
2
100
AcDbEntity
  8
0
100
AcDbCircle
 10
709.8407910758336
 20
75.57014027944944
 30
0.0
 40
2.980384757729353
  0
CIRCLE
  5
12B4
330
2
100
AcDbEntity
  8
0
100
AcDbCircle
 10
656.100675705656
 20
75.57014027944944
 30
0.0
 40
1.732050807568871
  0
LWPOLYLINE
  5
12B5
330
2
100
AcDbEntity
  8
0
100
AcDbPolyline
 90
        6
 70
     1
 43
0.0
 10
657.6006757056561
 20
76.43616568323398
 10
656.100675705656
 20
77.30219108701851
 10
654.600675705656
 20
76.43616568323398
 10
654.600675705656
 20
74.70411487566536
 10
656.100675705656
 20
73.83808947188083
 10
657.6006757056561
 20
74.70411487566536
  0
CIRCLE
  5
12B6
330
2
100
AcDbEntity
  8
0
100
AcDbCircle
 10
656.100675705656
 20
75.57014027944944
 30
0.0
 40
3.499999999999717
  0
CIRCLE
  5
12B7
330
2
100
AcDbEntity
  8
0
100
AcDbCircle
 10
656.100675705656
 20
75.57014027944944
 30
0.0
 40
2.980384757729353
  0
LINE
  5
12B8
330
2
100
AcDbEntity
  8
CENTER
100
AcDbLine
 10
656.100675705656
 20
135.142944732224
 30
0.0
 11
656.100675705656
 21
123.47756656703
 31
0.0
  0
LINE
  5
12B9
330
2
100
AcDbEntity
  8
CENTER
100
AcDbLine
 10
650.267986623059
 20
129.310255649627
 30
0.0
 11
661.9333647882529
 21
129.310255649627
 31
0.0
  0
LINE
  5
12BA
330
2
100
AcDbEntity
  8
CENTER
100
AcDbLine
 10
709.8407910758336
 20
135.1429447322244
 30
0.0
 11
709.8407910758336
 21
123.4775665670305
 31
0.0
  0
LINE
  5
12BB
330
2
100
AcDbEntity
  8
CENTER
100
AcDbLine
 10
704.0081019932366
 20
129.310255649627
 30
0.0
 11
715.6734801584306
 21
129.310255649627
 31
0.0
  0
LINE
  5
12BC
330
2
100
AcDbEntity
  8
CENTER
100
AcDbLine
 10
709.8407910758336
 20
81.40282936204688
 30
0.0
 11
709.8407910758336
 21
69.73745119685293
 31
0.0
  0
LINE
  5
12BD
330
2
100
AcDbEntity
  8
CENTER
100
AcDbLine
 10
704.0081019932366
 20
75.57014027944944
 30
0.0
 11
715.6734801584306
 21
75.57014027944944
 31
0.0
  0
LINE
  5
12BE
330
2
100
AcDbEntity
  8
CENTER
100
AcDbLine
 10
656.100675705656
 20
81.40282936204688
 30
0.0
 11
656.100675705656
 21
69.73745119685293
 31
0.0
  0
LINE
  5
12BF
330
2
100
AcDbEntity
  8
CENTER
100
AcDbLine
 10
650.267986623059
 20
75.57014027944944
 30
0.0
 11
661.9333647882529
 21
75.57014027944944
 31
0.0
  0
LINE
  5
12C1
330
2
100
AcDbEntity
  8
0
100
AcDbLine
 10
670.7437141301078
 20
103.1901979645391
 30
0.0
 11
679.0416749793697
 21
103.1901979645391
 31
0.0
  0
LINE
  5
12C2
330
2
100
AcDbEntity
  8
0
100
AcDbLine
 10
670.7437141301078
 20
101.6901979645391
 30
0.0
 11
679.0416749793697
 21
101.6901979645391
 31
0.0
  0
LINE
  5
12C3
330
2
100
AcDbEntity
  8
0
100
AcDbLine
 10
695.1977526513827
 20
101.6901979645391
 30
0.0
 11
686.8997918021208
 21
101.6901979645391
 31
0.0
  0
LINE
  5
12C4
330
2
100
AcDbEntity
  8
0
100
AcDbLine
 10
686.8997918021208
 20
103.1901979645391
 30
0.0
 11
695.1977526513827
 21
103.1901979645391
 31
0.0
  0
CIRCLE
  5
12C5
330
2
100
AcDbEntity
  8
0
100
AcDbCircle
 10
682.9707333907452
 20
102.4401979645391
 30
0.0
 40
3.999999999998976
  0
ARC
  5
12C6
330
2
100
AcDbEntity
  8
0
100
AcDbCircle
 10
682.9707333907452
 20
102.4401979645391
 30
0.0
 40
4.577350269188627
100
AcDbArc
 50
189.4304498503417
 51
350.5695501496582
  0
ARC
  5
12C7
330
2
100
AcDbEntity
  8
0
100
AcDbCircle
 10
682.9707333907452
 20
102.4401979645391
 30
0.0
 40
4.577350269188627
100
AcDbArc
 50
9.430449850341762
 51
170.5695501496451
  0
LINE
  5
12C8
330
2
100
AcDbEntity
  8
HIDS
100
AcDbLine
 10
671.7875987675728
 20
107.4401979645391
 30
0.0
 11
678.4707333907457
 21
107.4401979645391
 31
0.0
  0
LINE
  5
12C9
330
2
100
AcDbEntity
  8
0
100
AcDbLine
 10
671.4707333907457
 20
111.1401979645394
 30
0.0
 11
674.3467841793921
 21
111.1401979645394
 31
0.0
  0
LINE
  5
12CA
330
2
100
AcDbEntity
  8
0
100
AcDbLine
 10
671.4707333907457
 20
111.1401979645394
 30
0.0
 11
671.9903486330162
 21
111.4401979645391
 31
0.0
  0
LINE
  5
12CB
330
2
100
AcDbEntity
  8
HIDS
100
AcDbLine
 10
671.7875987675728
 20
107.4401979645391
 30
0.0
 11
678.9707333907458
 21
107.4401979645391
 31
0.0
  0
LINE
  5
12CC
330
2
100
AcDbEntity
  8
0
100
AcDbLine
 10
671.4707333907457
 20
111.1401979645394
 30
0.0
 11
671.4707333907457
 21
107.4401979645391
 31
0.0
  0
LINE
  5
12CD
330
2
100
AcDbEntity
  8
HIDS
100
AcDbLine
 10
672.9707333907457
 20
107.4401979645391
 30
0.0
 11
673.3040667240792
 21
105.7735312978726
 31
0.0
  0
LINE
  5
12CE
330
2
100
AcDbEntity
  8
HIDS
100
AcDbLine
 10
676.9707333907457
 20
107.4401979645391
 30
0.0
 11
676.6374000574122
 21
105.7735312978726
 31
0.0
  0
LINE
  5
12CF
330
2
100
AcDbEntity
  8
HIDS
100
AcDbLine
 10
676.9707333907457
 20
107.4401979645391
 30
0.0
 11
676.9707333907457
 21
103.1901979645391
 31
0.0
  0
LINE
  5
12D0
330
2
100
AcDbEntity
  8
HIDS
100
AcDbLine
 10
672.9707333907457
 20
107.4401979645391
 30
0.0
 11
672.9707333907457
 21
103.1901979645391
 31
0.0
  0
LINE
  5
12D1
330
2
100
AcDbEntity
  8
HIDS
100
AcDbLine
 10
672.4707333907457
 20
107.4401979645391
 30
0.0
 11
672.4707333907457
 21
103.1901979645391
 31
0.0
  0
LINE
  5
12D2
330
2
100
AcDbEntity
  8
HIDS
100
AcDbLine
 10
677.4707333907457
 20
107.4401979645391
 30
0.0
 11
677.4707333907457
 21
103.1901979645391
 31
0.0
  0
LINE
  5
12D3
330
2
100
AcDbEntity
  8
CENTER
  6
CENS
100
AcDbLine
 10
674.9707333907458
 20
136.1271963551181
 30
0.0
 11
674.9707333907458
 21
89.08102328698907
 31
0.0
  0
LINE
  5
12D4
330
2
100
AcDbEntity
  8
HIDS
100
AcDbLine
 10
676.9707333907457
 20
101.6901979645391
 30
0.0
 11
676.9707333907457
 21
93.24019796453933
 31
0.0
  0
LINE
  5
12D5
330
2
100
AcDbEntity
  8
HIDS
100
AcDbLine
 10
676.6374000574122
 20
101.6901979645391
 30
0.0
 11
676.6374000574122
 21
92.90686463120584
 31
0.0
  0
LINE
  5
12D6
330
2
100
AcDbEntity
  8
HIDS
100
AcDbLine
 10
673.3040667240792
 20
101.6901979645391
 30
0.0
 11
673.3040667240792
 21
94.91570093446728
 31
0.0
  0
LINE
  5
12D7
330
2
100
AcDbEntity
  8
0
100
AcDbLine
 10
672.9707333907457
 20
95.36471211549644
 30
0.0
 11
672.9707333907457
 21
93.24019796453933
 31
0.0
  0
LINE
  5
12D8
330
2
100
AcDbEntity
  8
HIDS
100
AcDbLine
 10
676.9707333907457
 20
101.6901979645391
 30
0.0
 11
676.9707333907457
 21
91.76019328289214
 31
0.0
  0
LINE
  5
12D9
330
2
100
AcDbEntity
  8
HIDS
100
AcDbLine
 10
676.9707333907457
 20
93.24019796453933
 30
0.0
 11
674.9707333907458
 21
93.24019796453933
 31
0.0
  0
LINE
  5
12DA
330
2
100
AcDbEntity
  8
0
100
AcDbLine
 10
676.1707333907455
 20
92.44019796453915
 30
0.0
 11
675.895247541703
 21
92.44019796453915
 31
0.0
  0
LINE
  5
12DB
330
2
100
AcDbEntity
  8
HOJO
100
AcDbLine
 10
673.3040667240792
 20
94.91570093446728
 30
0.0
 11
673.3040667240792
 21
92.90686463120584
 31
0.0
  0
LINE
  5
12DC
330
2
100
AcDbEntity
  8
0
100
AcDbLine
 10
673.7707333907459
 20
92.44019796453915
 30
0.0
 11
675.895247541703
 21
92.44019796453915
 31
0.0
  0
LINE
  5
12DD
330
2
100
AcDbEntity
  8
0
100
AcDbLine
 10
672.9707333907457
 20
93.24019796453933
 30
0.0
 11
674.8823157457422
 21
93.24019796453933
 31
0.0
  0
LINE
  5
12DE
330
2
100
AcDbEntity
  8
0
100
AcDbLine
 10
674.8823157457422
 20
93.24019796453933
 30
0.0
 11
674.9707333907458
 21
93.24019796453933
 31
0.0
  0
LINE
  5
12DF
330
2
100
AcDbEntity
  8
0
100
AcDbLine
 10
672.9707333907457
 20
93.24019796453933
 30
0.0
 11
673.7707333907459
 21
92.44019796453915
 31
0.0
  0
LINE
  5
12E0
330
2
100
AcDbEntity
  8
HIDS
100
AcDbLine
 10
676.9707333907457
 20
93.24019796453933
 30
0.0
 11
676.1707333907455
 21
92.44019796453915
 31
0.0
  0
LINE
  5
12E1
330
2
100
AcDbEntity
  8
HIDS
100
AcDbLine
 10
672.9707333907457
 20
101.6901979645391
 30
0.0
 11
672.9707333907457
 21
95.36471211549644
 31
0.0
  0
LINE
  5
12E2
330
2
100
AcDbEntity
  8
HIDS
100
AcDbLine
 10
672.9707333907457
 20
101.6901979645391
 30
0.0
 11
672.9707333907457
 21
95.36471211549644
 31
0.0
  0
LINE
  5
12E3
330
2
100
AcDbEntity
  8
HIDS
100
AcDbLine
 10
676.9707333907457
 20
105.7735312978726
 30
0.0
 11
672.9707333907457
 21
105.7735312978726
 31
0.0
  0
LINE
  5
12E4
330
2
100
AcDbEntity
  8
HOJO
100
AcDbLine
 10
673.3040667240792
 20
103.1901979645391
 30
0.0
 11
673.3040667240792
 21
101.6901979645391
 31
0.0
  0
LINE
  5
12E5
330
2
100
AcDbEntity
  8
0
100
AcDbLine
 10
672.9707333907457
 20
103.1901979645391
 30
0.0
 11
672.9707333907457
 21
101.6901979645391
 31
0.0
  0
LINE
  5
12E6
330
2
100
AcDbEntity
  8
HIDS
100
AcDbLine
 10
673.3040667240792
 20
105.7735312978726
 30
0.0
 11
673.3040667240792
 21
103.1901979645391
 31
0.0
  0
LINE
  5
12E7
330
2
100
AcDbEntity
  8
HOJO
100
AcDbLine
 10
676.6374000574122
 20
103.1901979645391
 30
0.0
 11
676.6374000574122
 21
101.6901979645391
 31
0.0
  0
LINE
  5
12E8
330
2
100
AcDbEntity
  8
0
100
AcDbLine
 10
676.9707333907457
 20
103.1901979645391
 30
0.0
 11
676.9707333907457
 21
101.6901979645391
 31
0.0
  0
LINE
  5
12E9
330
2
100
AcDbEntity
  8
HIDS
100
AcDbLine
 10
676.6374000574122
 20
105.7735312978726
 30
0.0
 11
676.6374000574122
 21
103.1901979645391
 31
0.0
  0
LINE
  5
12EA
330
2
100
AcDbEntity
  8
HIDS
100
AcDbLine
 10
678.9707333907458
 20
114.0187341414485
 30
0.0
 11
678.9707333907458
 21
107.4401979645391
 31
0.0
  0
LINE
  5
12EB
330
2
100
AcDbEntity
  8
HIDS
100
AcDbLine
 10
674.3467841793921
 20
111.1401979645394
 30
0.0
 11
678.4707333907457
 21
111.1401979645394
 31
0.0
  0
LINE
  5
12EC
330
2
100
AcDbEntity
  8
HIDS
100
AcDbLine
 10
677.9511181484748
 20
111.4401979645391
 30
0.0
 11
674.6603483214483
 21
111.4401979645391
 31
0.0
  0
LINE
  5
12ED
330
2
100
AcDbEntity
  8
0
100
AcDbLine
 10
674.6603483214479
 20
111.4401979645391
 30
0.0
 11
671.9903486330162
 21
111.4401979645391
 31
0.0
  0
LINE
  5
12EE
330
2
100
AcDbEntity
  8
HIDS
100
AcDbLine
 10
678.4707333907457
 20
107.4401979645391
 30
0.0
 11
678.4707333907457
 21
111.1401979645394
 31
0.0
  0
LINE
  5
12EF
330
2
100
AcDbEntity
  8
HIDS
100
AcDbLine
 10
677.9511181484748
 20
111.4401979645391
 30
0.0
 11
678.4707333907457
 21
111.1401979645394
 31
0.0
  0
LINE
  5
12F0
330
2
100
AcDbEntity
  8
0
100
AcDbLine
 10
671.4707333907457
 20
107.4401979645391
 30
0.0
 11
671.7875987675728
 21
107.4401979645391
 31
0.0
  0
LINE
  5
12F1
330
2
100
AcDbEntity
  8
0
100
AcDbLine
 10
670.0957333907448
 20
133.6901979645391
 30
0.0
 11
679.5957333907448
 21
133.6901979645391
 31
0.0
  0
ARC
  5
12F2
330
2
100
AcDbEntity
  8
0
100
AcDbCircle
 10
670.0957333907448
 20
129.4401979645391
 30
0.0
 40
4.25
100
AcDbArc
 50
90.0
 51
180.0
  0
LINE
  5
12F3
330
2
100
AcDbEntity
  8
0
100
AcDbLine
 10
683.9707333907448
 20
129.4401979645391
 30
0.0
 11
665.8457333907448
 21
129.4401979645391
 31
0.0
  0
LINE
  5
12F5
330
2
100
AcDbEntity
  8
CENTER
100
AcDbLine
 10
698.8806858152228
 20
121.3501005412364
 30
0.0
 11
698.8806858152228
 21
115.3501005412364
 31
0.0
  0
CIRCLE
  5
12F6
330
2
100
AcDbEntity
  8
HOJO
100
AcDbCircle
 10
698.8806858152228
 20
118.3501040734396
 30
0.0
 40
1.5
  0
CIRCLE
  5
12F7
330
2
100
AcDbEntity
  8
0
100
AcDbCircle
 10
698.8806858152228
 20
118.3501040734396
 30
0.0
 40
1.25
  0
CIRCLE
  5
12F8
330
2
100
AcDbEntity
  8
CENTER
100
AcDbCircle
 10
682.9707333907452
 20
102.4401979645391
 30
0.0
 40
22.50003524773091
  0
LINE
  5
12F9
330
2
100
AcDbEntity
  8
CENTER
100
AcDbLine
 10
695.8806858152228
 20
118.3501005412364
 30
0.0
 11
701.8806858152228
 21
118.3501005412364
 31
0.0
  0
LINE
  5
12FA
330
2
100
AcDbEntity
  8
CENTER
100
AcDbLine
 10
667.0608308140479
 20
115.3501539212517
 30
0.0
 11
667.0608308140479
 21
121.3501539212517
 31
0.0
  0
CIRCLE
  5
12FB
330
2
100
AcDbEntity
  8
HOJO
100
AcDbCircle
 10
667.0608308140479
 20
118.3502782997276
 30
0.0
 40
1.5
  0
CIRCLE
  5
12FC
330
2
100
AcDbEntity
  8
0
100
AcDbCircle
 10
667.0608308140479
 20
118.3502782997276
 30
0.0
 40
1.25
  0
LINE
  5
12FD
330
2
100
AcDbEntity
  8
CENTER
100
AcDbLine
 10
664.060830814048
 20
118.3501539212517
 30
0.0
 11
670.060830814048
 21
118.3501539212517
 31
0.0
  0
LINE
  5
12FE
330
2
100
AcDbEntity
  8
CENTER
100
AcDbLine
 10
670.060830814048
 20
86.53041623404726
 30
0.0
 11
664.060830814048
 21
86.53041623404726
 31
0.0
  0
CIRCLE
  5
12FF
330
2
100
AcDbEntity
  8
HOJO
100
AcDbCircle
 10
667.0608308140479
 20
86.53029538784187
 30
0.0
 40
1.5
  0
CIRCLE
  5
1300
330
2
100
AcDbEntity
  8
0
100
AcDbCircle
 10
667.0608308140479
 20
86.53029538784187
 30
0.0
 40
1.25
  0
LINE
  5
1301
330
2
100
AcDbEntity
  8
CENTER
100
AcDbLine
 10
667.0608308140479
 20
83.53041623404726
 30
0.0
 11
667.0608308140479
 21
89.53041623404727
 31
0.0
  0
LINE
  5
1302
330
2
100
AcDbEntity
  8
CENTER
100
AcDbLine
 10
698.8806359674425
 20
89.53029538784187
 30
0.0
 11
698.8806359674425
 21
83.53029538784188
 31
0.0
  0
CIRCLE
  5
1303
330
2
100
AcDbEntity
  8
0
100
AcDbCircle
 10
698.8806359674425
 20
86.53029538784187
 30
0.0
 40
1.25
  0
CIRCLE
  5
1304
330
2
100
AcDbEntity
  8
HOJO
100
AcDbCircle
 10
698.8806359674425
 20
86.53029538784187
 30
0.0
 40
1.5
  0
LINE
  5
1305
330
2
100
AcDbEntity
  8
CENTER
100
AcDbLine
 10
701.8806359674425
 20
86.53029538784187
 30
0.0
 11
695.8806359674426
 21
86.53029538784187
 31
0.0
  0
LINE
  5
1306
330
2
100
AcDbEntity
  8
0
100
AcDbLine
 10
59.26555797638201
 20
129.474498828625
 30
0.0
 11
79.30046278925664
 21
129.8242093929646
 31
0.0
  0
LINE
  5
1307
330
2
100
AcDbEntity
  8
0
100
AcDbLine
 10
55.35281668587249
 20
122.4677548211432
 30
0.0
 11
54.30046278925664
 21
122.4401979645434
 31
0.0
  0
ARC
  5
1308
330
2
100
AcDbEntity
  8
0
100
AcDbCircle
 10
59.30046278925664
 20
127.4748034383122
 30
0.0
 40
2.0
100
AcDbArc
 50
91.00000000000177
 51
180.0
  0
LINE
  5
1309
330
2
100
AcDbEntity
  8
0
100
AcDbLine
 10
92.30046278925664
 20
133.4401979645434
 30
0.0
 11
85.29173625375795
 21
133.3790337346866
 31
0.0
  0
ARC
  5
130A
330
2
100
AcDbEntity
  8
0
100
AcDbCircle
 10
85.30046278925665
 20
132.3790718116227
 30
0.0
 40
1.0
100
AcDbArc
 50
90.49999999999155
 51
180.0
  0
ARC
  5
130B
330
2
100
AcDbEntity
  8
0
100
AcDbCircle
 10
81.32948959980211
 20
132.8600831718152
 30
0.0
 40
3.0
100
AcDbArc
 50
352.0232228966992
 51
353.0933050840563
  0
LINE
  5
130C
330
2
100
AcDbEntity
  8
0
100
AcDbLine
 10
54.30046278925664
 20
122.4401979645434
 30
0.0
 11
54.30046278925619
 21
82.44019796454342
 31
0.0
  0
ARC
  5
130D
330
2
100
AcDbEntity
  8
0
100
AcDbCircle
 10
55.30046278925664
 20
124.4670694710947
 30
0.0
 40
2.0
100
AcDbArc
 50
271.4999999999896
 51
0.0
  0
LINE
  5
130E
330
2
100
AcDbEntity
  8
CENTER
  6
CENS
100
AcDbLine
 10
66.30046279059996
 20
136.1271963551233
 30
0.0
 11
66.30046279059996
 21
117.0354688981204
 31
0.0
  0
LINE
  5
130F
330
2
100
AcDbEntity
  8
0
100
AcDbLine
 10
59.26555797638201
 20
75.40589710046226
 30
0.0
 11
79.30046278925664
 21
75.05618653612265
 31
0.0
  0
LINE
  5
1310
330
2
100
AcDbEntity
  8
0
100
AcDbLine
 10
55.35281668587249
 20
82.41264110794356
 30
0.0
 11
54.30046278925619
 21
82.44019796454342
 31
0.0
  0
ARC
  5
1311
330
2
100
AcDbEntity
  8
0
100
AcDbCircle
 10
59.30046278925664
 20
77.40559249077506
 30
0.0
 40
2.0
100
AcDbArc
 50
180.0
 51
268.9999999999982
  0
LINE
  5
1312
330
2
100
AcDbEntity
  8
0
100
AcDbLine
 10
92.30046278925664
 20
71.44019796454341
 30
0.0
 11
85.29173625375841
 21
71.5013621944002
 31
0.0
  0
ARC
  5
1313
330
2
100
AcDbEntity
  8
0
100
AcDbCircle
 10
85.30046278925709
 20
72.50132411746455
 30
0.0
 40
1.0
100
AcDbArc
 50
180.0
 51
269.5000000000084
  0
ARC
  5
1314
330
2
100
AcDbEntity
  8
0
100
AcDbCircle
 10
81.32948959980211
 20
72.0203127572716
 30
0.0
 40
3.0
100
AcDbArc
 50
6.906694915956789
 51
7.976777103284242
  0
ARC
  5
1315
330
2
100
AcDbEntity
  8
0
100
AcDbCircle
 10
55.30046278925664
 20
80.41332645799258
 30
0.0
 40
2.0
100
AcDbArc
 50
0.0
 51
88.49999999998424
  0
LINE
  5
1316
330
2
100
AcDbEntity
  8
0
100
AcDbLine
 10
58.30046278925983
 20
82.8765745877493
 30
0.0
 11
83.3004627892571
 21
82.44019796454386
 31
0.0
  0
LINE
  5
1317
330
2
100
AcDbEntity
  8
0
100
AcDbLine
 10
57.30046278925664
 20
77.40559249077506
 30
0.0
 11
57.30046278925664
 21
127.4748034383122
 31
0.0
  0
LINE
  5
1318
330
2
100
AcDbEntity
  8
0
100
AcDbLine
 10
84.3004627892571
 20
132.3790718116227
 30
0.0
 11
84.30046278925663
 21
72.50132411746455
 31
0.0
  0
LINE
  5
1319
330
2
100
AcDbEntity
  8
0
100
AcDbLine
 10
83.30046278925664
 20
132.8102556496322
 30
0.0
 11
84.30046278925663
 21
132.8102556496322
 31
0.0
  0
LINE
  5
131A
330
2
100
AcDbEntity
  8
0
100
AcDbLine
 10
84.30046278925663
 20
132.8102556496322
 30
0.0
 11
84.30046278925663
 21
125.8102556496322
 31
0.0
  0
LINE
  5
131B
330
2
100
AcDbEntity
  8
0
100
AcDbLine
 10
84.30046278925663
 20
125.8102556496322
 30
0.0
 11
83.30046278925664
 21
125.8102556496322
 31
0.0
  0
LINE
  5
131C
330
2
100
AcDbEntity
  8
0
100
AcDbLine
 10
83.30046278925664
 20
125.8102556496322
 30
0.0
 11
83.30046278925664
 21
132.8102556496322
 31
0.0
  0
LINE
  5
131D
330
2
100
AcDbEntity
  8
0
100
AcDbLine
 10
79.30046278925664
 20
132.2906404073617
 30
0.0
 11
79.30046278925664
 21
126.3298708919031
 31
0.0
  0
LINE
  5
131E
330
2
100
AcDbEntity
  8
0
100
AcDbLine
 10
79.60046278925637
 20
125.8102556496322
 30
0.0
 11
79.60046278925637
 21
132.8102556496322
 31
0.0
  0
LINE
  5
131F
330
2
100
AcDbEntity
  8
0
100
AcDbLine
 10
79.60046278925637
 20
125.8102556496322
 30
0.0
 11
83.30046278925664
 21
125.8102556496322
 31
0.0
  0
LINE
  5
1320
330
2
100
AcDbEntity
  8
0
100
AcDbLine
 10
79.60046278925637
 20
125.8102556496322
 30
0.0
 11
79.30046278925664
 21
126.3298708919031
 31
0.0
  0
LINE
  5
1321
330
2
100
AcDbEntity
  8
0
100
AcDbLine
 10
79.30046278925664
 20
132.2906404073617
 30
0.0
 11
79.60046278925637
 21
132.8102556496322
 31
0.0
  0
LINE
  5
1322
330
2
100
AcDbEntity
  8
0
100
AcDbLine
 10
83.30046278925664
 20
132.8102556496322
 30
0.0
 11
79.60046278925637
 21
132.8102556496322
 31
0.0
  0
LINE
  5
1323
330
2
100
AcDbEntity
  8
0
100
AcDbLine
 10
83.30046278925664
 20
79.07014027945462
 30
0.0
 11
84.30046278925663
 21
79.07014027945462
 31
0.0
  0
LINE
  5
1324
330
2
100
AcDbEntity
  8
0
100
AcDbLine
 10
84.30046278925663
 20
79.07014027945462
 30
0.0
 11
84.30046278925663
 21
72.07014027945461
 31
0.0
  0
LINE
  5
1325
330
2
100
AcDbEntity
  8
0
100
AcDbLine
 10
84.30046278925663
 20
72.07014027945461
 30
0.0
 11
83.30046278925664
 21
72.07014027945461
 31
0.0
  0
LINE
  5
1326
330
2
100
AcDbEntity
  8
0
100
AcDbLine
 10
83.30046278925664
 20
72.07014027945461
 30
0.0
 11
83.30046278925664
 21
79.07014027945462
 31
0.0
  0
LINE
  5
1327
330
2
100
AcDbEntity
  8
0
100
AcDbLine
 10
79.30046278925664
 20
78.55052503718417
 30
0.0
 11
79.30046278925664
 21
72.58975552172552
 31
0.0
  0
LINE
  5
1328
330
2
100
AcDbEntity
  8
0
100
AcDbLine
 10
79.60046278925682
 20
72.07014027945461
 30
0.0
 11
79.60046278925682
 21
79.07014027945462
 31
0.0
  0
LINE
  5
1329
330
2
100
AcDbEntity
  8
0
100
AcDbLine
 10
79.60046278925682
 20
72.07014027945461
 30
0.0
 11
83.30046278925664
 21
72.07014027945461
 31
0.0
  0
LINE
  5
132A
330
2
100
AcDbEntity
  8
0
100
AcDbLine
 10
79.60046278925682
 20
72.07014027945461
 30
0.0
 11
79.30046278925664
 21
72.58975552172552
 31
0.0
  0
LINE
  5
132B
330
2
100
AcDbEntity
  8
0
100
AcDbLine
 10
79.30046278925664
 20
78.55052503718417
 30
0.0
 11
79.60046278925682
 21
79.07014027945462
 31
0.0
  0
LINE
  5
132C
330
2
100
AcDbEntity
  8
0
100
AcDbLine
 10
83.30046278925664
 20
79.07014027945462
 30
0.0
 11
79.60046278925682
 21
79.07014027945462
 31
0.0
  0
LINE
  5
132D
330
2
100
AcDbEntity
  8
CENTER
  6
CENS
100
AcDbLine
 10
74.3004627892571
 20
129.3102556496326
 30
0.0
 11
97.30041987887915
 21
129.3102556496326
 31
0.0
  0
LINE
  5
132E
330
2
100
AcDbEntity
  8
CENTER
  6
CENS
100
AcDbLine
 10
74.3004627892571
 20
75.57014027945507
 30
0.0
 11
97.30041987887961
 21
75.57014027945507
 31
0.0
  0
LINE
  5
132F
330
2
100
AcDbEntity
  8
0
100
AcDbLine
 10
61.37107649128319
 20
133.5118601031857
 30
0.0
 11
71.36955344284678
 21
133.6863841675584
 31
0.0
  0
ARC
  5
1330
330
2
100
AcDbEntity
  8
0
100
AcDbCircle
 10
71.43936306859604
 20
129.6869933869327
 30
0.0
 40
3.99999999999998
100
AcDbArc
 50
1.000000000001775
 51
90.99999999997569
  0
LINE
  5
1331
330
2
100
AcDbEntity
  8
0
100
AcDbLine
 10
75.43875384922166
 20
129.756803012682
 30
0.0
 11
57.44149533640637
 21
129.4426596968108
 31
0.0
  0
ARC
  5
1332
330
2
100
AcDbEntity
  8
0
100
AcDbCircle
 10
61.440886117032
 20
129.51246932256
 30
0.0
 40
4.000000000000023
100
AcDbArc
 50
90.99999999997569
 51
181.0000000000017
  0
LINE
  5
1333
330
2
100
AcDbEntity
  8
0
100
AcDbLine
 10
665.9707333907448
 20
129.4401979645391
 30
0.0
 11
665.9707333907448
 21
129.4401979645391
 31
0.0
  0
ARC
  5
1334
330
2
100
AcDbEntity
  8
0
100
AcDbCircle
 10
679.5957333907448
 20
129.4401979645391
 30
0.0
 40
4.25
100
AcDbArc
 50
0.0
 51
90.0
  0
LINE
  5
1335
330
2
100
AcDbEntity
  8
0
100
AcDbLine
 10
554.0686889078904
 20
129.4744988286288
 30
0.0
 11
534.0337840950162
 21
129.8242093929684
 31
0.0
  0
LINE
  5
1336
330
2
100
AcDbEntity
  8
0
100
AcDbLine
 10
556.0337840950153
 20
119.6053979804023
 30
0.0
 11
556.0337840950162
 21
127.474803438316
 31
0.0
  0
LINE
  5
1337
330
2
100
AcDbEntity
  8
0
100
AcDbLine
 10
557.9814301983999
 20
122.4677548211471
 30
0.0
 11
559.0337840950162
 21
122.4401979645472
 31
0.0
  0
ARC
  5
1338
330
2
100
AcDbEntity
  8
0
100
AcDbCircle
 10
554.0337840950162
 20
127.474803438316
 30
0.0
 40
2.0
100
AcDbArc
 50
0.0
 51
88.99999999999822
  0
LINE
  5
1339
330
2
100
AcDbEntity
  8
0
100
AcDbLine
 10
521.0337840950158
 20
133.4401979645472
 30
0.0
 11
528.0425106305144
 21
133.3790337346904
 31
0.0
  0
ARC
  5
133A
330
2
100
AcDbEntity
  8
0
100
AcDbCircle
 10
528.0337840950162
 20
132.3790718116265
 30
0.0
 40
1.0
100
AcDbArc
 50
0.0
 51
89.49999999998238
  0
LINE
  5
133B
330
2
100
AcDbEntity
  8
0
100
AcDbLine
 10
529.0337840950162
 20
132.3790718116265
 30
0.0
 11
529.0337840950157
 21
109.7640839830396
 31
0.0
  0
ARC
  5
133C
330
2
100
AcDbEntity
  8
0
100
AcDbCircle
 10
532.0047572844702
 20
132.860083171819
 30
0.0
 40
3.0
100
AcDbArc
 50
186.9066949159437
 51
187.9767771033007
  0
LINE
  5
133D
330
2
100
AcDbEntity
  8
0
100
AcDbLine
 10
559.0337840950162
 20
122.4401979645472
 30
0.0
 11
559.0337840950162
 21
82.44019796454725
 31
0.0
  0
ARC
  5
133E
330
2
100
AcDbEntity
  8
0
100
AcDbCircle
 10
558.0337840950157
 20
124.4670694710985
 30
0.0
 40
2.0
100
AcDbArc
 50
180.0
 51
268.5000000000103
  0
LINE
  5
133F
330
2
100
AcDbEntity
  8
CENTER
  6
CENS
100
AcDbLine
 10
547.0337840936724
 20
136.1271963551271
 30
0.0
 11
547.0337840936724
 21
117.0354688981242
 31
0.0
  0
LINE
  5
1340
330
2
100
AcDbEntity
  8
0
100
AcDbLine
 10
554.0686889078904
 20
75.40589710046609
 30
0.0
 11
534.0337840950162
 21
75.05618653612649
 31
0.0
  0
LINE
  5
1341
330
2
100
AcDbEntity
  8
0
100
AcDbLine
 10
557.9814301983999
 20
82.41264110794739
 30
0.0
 11
559.0337840950162
 21
82.44019796454725
 31
0.0
  0
ARC
  5
1342
330
2
100
AcDbEntity
  8
0
100
AcDbCircle
 10
554.0337840950162
 20
77.4055924907789
 30
0.0
 40
2.0
100
AcDbArc
 50
271.0000000000017
 51
0.0
  0
LINE
  5
1343
330
2
100
AcDbEntity
  8
0
100
AcDbLine
 10
521.0337840950158
 20
71.44019796454725
 30
0.0
 11
528.0425106305139
 21
71.50136219440404
 31
0.0
  0
ARC
  5
1344
330
2
100
AcDbEntity
  8
0
100
AcDbCircle
 10
528.0337840950157
 20
72.50132411746839
 30
0.0
 40
1.0
100
AcDbArc
 50
270.4999999999915
 51
0.0
  0
ARC
  5
1345
330
2
100
AcDbEntity
  8
0
100
AcDbCircle
 10
532.0047572844702
 20
72.02031275727543
 30
0.0
 40
3.0
100
AcDbArc
 50
172.0232228967157
 51
173.0933050840432
  0
ARC
  5
1346
330
2
100
AcDbEntity
  8
0
100
AcDbCircle
 10
558.0337840950157
 20
80.41332645799641
 30
0.0
 40
2.0
100
AcDbArc
 50
91.49999999998968
 51
180.0
  0
LINE
  5
1347
330
2
100
AcDbEntity
  8
0
100
AcDbLine
 10
555.0337840950126
 20
122.0038213413413
 30
0.0
 11
530.0337840950158
 21
122.4401979645467
 31
0.0
  0
SPLINE
  5
1348
330
2
100
AcDbEntity
  8
HOJO
100
AcDbSpline
210
0.0
220
0.0
230
1.0
 70
     8
 71
     3
 72
    15
 73
    11
 74
     0
 42
0.0000000001
 43
0.0000000001
 40
1.229586671925319
 40
1.229586671925319
 40
1.229586671925319
 40
1.229586671925319
 40
9.059721493801909
 40
14.01454332224558
 40
17.68854249089321
 40
25.49282471102274
 40
30.81266567978604
 40
35.19147887412627
 40
39.07871238777226
 40
41.18872123517163
 40
41.18872123517163
 40
41.18872123517163
 40
41.18872123517163
 10
559.033784095024
 20
120.0123606414486
 30
0.0
 10
556.2236446840372
 20
119.7451703531033
 30
0.0
 10
551.8150269026898
 20
119.0460464602092
 30
0.0
 10
548.9233801200523
 20
114.0749243456844
 30
0.0
 10
543.2292269221955
 20
110.3901515032357
 30
0.0
 10
538.5503843849371
 20
111.1549875056348
 30
0.0
 10
532.8784028998781
 20
110.3765320334582
 30
0.0
 10
528.3968511491395
 20
109.6995842836854
 30
0.0
 10
523.9086573590941
 20
108.733173014944
 30
0.0
 10
522.0452527626532
 20
103.0529599412534
 30
0.0
 10
521.827609746482
 20
102.4401979645472
 30
0.0
  0
LINE
  5
1349
330
2
100
AcDbEntity
  8
0
100
AcDbLine
 10
556.0337840950162
 20
77.4055924907789
 30
0.0
 11
556.0337840950162
 21
102.4401979645472
 31
0.0
  0
LINE
  5
134A
330
2
100
AcDbEntity
  8
0
100
AcDbLine
 10
529.0337840950157
 20
102.4401979645472
 30
0.0
 11
529.0337840950162
 21
72.50132411746839
 31
0.0
  0
LINE
  5
134B
330
2
100
AcDbEntity
  8
0
100
AcDbLine
 10
530.0337840950162
 20
132.810255649636
 30
0.0
 11
529.0337840950162
 21
132.810255649636
 31
0.0
  0
LINE
  5
134C
330
2
100
AcDbEntity
  8
0
100
AcDbLine
 10
529.0337840950162
 20
132.810255649636
 30
0.0
 11
529.0337840950162
 21
125.810255649636
 31
0.0
  0
LINE
  5
134D
330
2
100
AcDbEntity
  8
0
100
AcDbLine
 10
529.0337840950162
 20
125.810255649636
 30
0.0
 11
530.0337840950162
 21
125.810255649636
 31
0.0
  0
LINE
  5
134E
330
2
100
AcDbEntity
  8
0
100
AcDbLine
 10
530.0337840950162
 20
125.810255649636
 30
0.0
 11
530.0337840950162
 21
132.810255649636
 31
0.0
  0
LINE
  5
134F
330
2
100
AcDbEntity
  8
0
100
AcDbLine
 10
534.0337840950162
 20
132.2906404073656
 30
0.0
 11
534.0337840950162
 21
126.3298708919069
 31
0.0
  0
LINE
  5
1350
330
2
100
AcDbEntity
  8
0
100
AcDbLine
 10
533.733784095016
 20
125.810255649636
 30
0.0
 11
533.733784095016
 21
132.810255649636
 31
0.0
  0
LINE
  5
1351
330
2
100
AcDbEntity
  8
0
100
AcDbLine
 10
533.733784095016
 20
125.810255649636
 30
0.0
 11
530.0337840950162
 21
125.810255649636
 31
0.0
  0
LINE
  5
1352
330
2
100
AcDbEntity
  8
0
100
AcDbLine
 10
533.733784095016
 20
125.810255649636
 30
0.0
 11
534.0337840950162
 21
126.3298708919069
 31
0.0
  0
LINE
  5
1353
330
2
100
AcDbEntity
  8
0
100
AcDbLine
 10
534.0337840950162
 20
132.2906404073656
 30
0.0
 11
533.733784095016
 21
132.810255649636
 31
0.0
  0
LINE
  5
1354
330
2
100
AcDbEntity
  8
0
100
AcDbLine
 10
530.0337840950162
 20
132.810255649636
 30
0.0
 11
533.733784095016
 21
132.810255649636
 31
0.0
  0
LINE
  5
1355
330
2
100
AcDbEntity
  8
0
100
AcDbLine
 10
530.0337840950162
 20
79.07014027945845
 30
0.0
 11
529.0337840950162
 21
79.07014027945845
 31
0.0
  0
LINE
  5
1356
330
2
100
AcDbEntity
  8
0
100
AcDbLine
 10
529.0337840950162
 20
79.07014027945845
 30
0.0
 11
529.0337840950162
 21
72.07014027945845
 31
0.0
  0
LINE
  5
1357
330
2
100
AcDbEntity
  8
0
100
AcDbLine
 10
529.0337840950162
 20
72.07014027945845
 30
0.0
 11
530.0337840950162
 21
72.07014027945845
 31
0.0
  0
LINE
  5
1358
330
2
100
AcDbEntity
  8
0
100
AcDbLine
 10
530.0337840950162
 20
72.07014027945845
 30
0.0
 11
530.0337840950162
 21
79.07014027945845
 31
0.0
  0
LINE
  5
1359
330
2
100
AcDbEntity
  8
0
100
AcDbLine
 10
534.0337840950162
 20
78.55052503718801
 30
0.0
 11
534.0337840950162
 21
72.58975552172936
 31
0.0
  0
LINE
  5
135A
330
2
100
AcDbEntity
  8
0
100
AcDbLine
 10
533.733784095016
 20
72.07014027945845
 30
0.0
 11
533.733784095016
 21
79.07014027945845
 31
0.0
  0
LINE
  5
135B
330
2
100
AcDbEntity
  8
0
100
AcDbLine
 10
533.733784095016
 20
72.07014027945845
 30
0.0
 11
530.0337840950162
 21
72.07014027945845
 31
0.0
  0
LINE
  5
135C
330
2
100
AcDbEntity
  8
0
100
AcDbLine
 10
533.733784095016
 20
72.07014027945845
 30
0.0
 11
534.0337840950162
 21
72.58975552172936
 31
0.0
  0
LINE
  5
135D
330
2
100
AcDbEntity
  8
0
100
AcDbLine
 10
534.0337840950162
 20
78.55052503718801
 30
0.0
 11
533.733784095016
 21
79.07014027945845
 31
0.0
  0
LINE
  5
135E
330
2
100
AcDbEntity
  8
0
100
AcDbLine
 10
530.0337840950162
 20
79.07014027945845
 30
0.0
 11
533.733784095016
 21
79.07014027945845
 31
0.0
  0
LINE
  5
135F
330
2
100
AcDbEntity
  8
CENTER
  6
CENS
100
AcDbLine
 10
539.0337840950158
 20
129.3102556496364
 30
0.0
 11
516.0338270053933
 21
129.3102556496364
 31
0.0
  0
LINE
  5
1360
330
2
100
AcDbEntity
  8
CENTER
  6
CENS
100
AcDbLine
 10
539.0337840950158
 20
75.57014027945891
 30
0.0
 11
516.0338270053933
 21
75.57014027945891
 31
0.0
  0
LINE
  5
1361
330
2
100
AcDbEntity
  8
0
100
AcDbLine
 10
555.0337840950158
 20
117.4401979645472
 30
0.0
 11
559.0337840950162
 21
117.4401979645472
 31
0.0
  0
ARC
  5
1362
330
2
100
AcDbEntity
  8
0
100
AcDbCircle
 10
553.0337840950157
 20
117.5598165168117
 30
0.0
 40
2.0
100
AcDbArc
 50
0.0
 51
52.22196899339436
  0
LINE
  5
1363
330
2
100
AcDbEntity
  8
0
100
AcDbLine
 10
555.0337840950158
 20
117.5598165168117
 30
0.0
 11
555.0337840950158
 21
102.4401979645472
 31
0.0
  0
LINE
  5
1364
330
2
100
AcDbEntity
  8
0
100
AcDbLine
 10
542.5337840950162
 20
106.4401979645472
 30
0.0
 11
553.5337840950162
 21
106.4401979645472
 31
0.0
  0
LINE
  5
1365
330
2
100
AcDbEntity
  8
0
100
AcDbLine
 10
542.5337840950162
 20
102.4401979645472
 30
0.0
 11
542.5337840950162
 21
111.0003863935817
 31
0.0
  0
LINE
  5
1366
330
2
100
AcDbEntity
  8
0
100
AcDbLine
 10
548.9696635249368
 20
114.6901979645472
 30
0.0
 11
554.5337840950162
 21
114.6901979645472
 31
0.0
  0
LINE
  5
1367
330
2
100
AcDbEntity
  8
0
100
AcDbLine
 10
554.5337840950162
 20
114.6901979645472
 30
0.0
 11
554.5337840950162
 21
102.4401979645472
 31
0.0
  0
LINE
  5
1368
330
2
100
AcDbEntity
  8
0
100
AcDbLine
 10
553.5337840950162
 20
106.4401979645472
 30
0.0
 11
553.5337840950162
 21
102.4401979645472
 31
0.0
  0
LINE
  5
1369
330
2
100
AcDbEntity
  8
0
100
AcDbLine
 10
553.5337840950162
 20
106.4401979645472
 30
0.0
 11
554.5337840950162
 21
107.0175482337367
 31
0.0
  0
LINE
  5
136A
330
2
100
AcDbEntity
  8
0
100
AcDbLine
 10
540.5337840950162
 20
110.8441862490331
 30
0.0
 11
540.5337840950162
 21
102.4401979645472
 31
0.0
  0
LINE
  5
136B
330
2
100
AcDbEntity
  8
0
100
AcDbLine
 10
534.0337840950162
 20
106.4401979645472
 30
0.0
 11
540.5337840950162
 21
106.4401979645472
 31
0.0
  0
LINE
  5
136C
330
2
100
AcDbEntity
  8
0
100
AcDbLine
 10
536.0337840950162
 20
106.4401979645472
 30
0.0
 11
540.5337840950162
 21
106.4401979645472
 31
0.0
  0
LINE
  5
136D
330
2
100
AcDbEntity
  8
0
100
AcDbLine
 10
530.5337840950162
 20
106.6901979645472
 30
0.0
 11
530.5337840950162
 21
102.4401979645472
 31
0.0
  0
LINE
  5
136E
330
2
100
AcDbEntity
  8
0
100
AcDbLine
 10
534.0337840950162
 20
106.4401979645472
 30
0.0
 11
534.0337840950162
 21
102.4401979645472
 31
0.0
  0
LINE
  5
136F
330
2
100
AcDbEntity
  8
0
100
AcDbLine
 10
534.0337840950162
 20
106.6901979645472
 30
0.0
 11
530.5337840950162
 21
106.6901979645472
 31
0.0
  0
LINE
  5
1370
330
2
100
AcDbEntity
  8
0
100
AcDbLine
 10
534.0337840950162
 20
106.4401979645472
 30
0.0
 11
534.0337840950162
 21
106.6901979645472
 31
0.0
  0
LINE
  5
1371
330
2
100
AcDbEntity
  8
0
100
AcDbLine
 10
530.5337840950162
 20
105.9401979645472
 30
0.0
 11
528.5130581528526
 21
102.4401979645472
 31
0.0
  0
LINE
  5
1372
330
2
100
AcDbEntity
  8
0
100
AcDbLine
 10
551.9631703929896
 20
133.5118601031895
 30
0.0
 11
541.9646934414256
 21
133.6863841675622
 31
0.0
  0
ARC
  5
1373
330
2
100
AcDbEntity
  8
0
100
AcDbCircle
 10
541.8948838156768
 20
129.6869933869366
 30
0.0
 40
3.99999999999998
100
AcDbArc
 50
89.0000000000243
 51
178.9999999999982
  0
LINE
  5
1374
330
2
100
AcDbEntity
  8
0
100
AcDbLine
 10
537.8954930350512
 20
129.7568030126858
 30
0.0
 11
555.892751547866
 21
129.4426596968146
 31
0.0
  0
ARC
  5
1375
330
2
100
AcDbEntity
  8
0
100
AcDbCircle
 10
551.8933607672404
 20
129.5124693225639
 30
0.0
 40
4.000000000000023
100
AcDbArc
 50
358.9999999999982
 51
89.0000000000243
  0
LINE
  5
1376
330
2
100
AcDbEntity
  8
0
100
AcDbLine
 10
557.0686889078834
 20
286.4833673885195
 30
0.0
 11
534.9814268770407
 21
286.0978327956845
 31
0.0
  0
LINE
  5
1377
330
2
100
AcDbEntity
  8
0
100
AcDbLine
 10
537.0337840950092
 20
331.9016796810215
 30
0.0
 11
557.0686889078834
 21
331.5519691166823
 31
0.0
  0
LINE
  5
1378
330
2
100
AcDbEntity
  8
0
100
AcDbLine
 10
537.0337840950098
 20
277.1336568241799
 30
0.0
 11
557.0686889078834
 21
277.483367388519
 31
0.0
  0
LINE
  5
1379
330
2
100
AcDbEntity
  8
0
100
AcDbLine
 10
559.0337840950089
 20
279.4830627788318
 30
0.0
 11
559.0337840950089
 21
329.5522737263695
 31
0.0
  0
ARC
  5
137A
330
2
100
AcDbEntity
  8
0
100
AcDbCircle
 10
557.0337840950088
 20
288.4830627788323
 30
0.0
 40
2.0
100
AcDbArc
 50
270.9999999999757
 51
0.0
  0
ARC
  5
137B
330
2
100
AcDbEntity
  8
0
100
AcDbCircle
 10
557.0337840950088
 20
329.5522737263695
 30
0.0
 40
2.0
100
AcDbArc
 50
0.0
 51
88.99999999999822
  0
LINE
  5
137C
330
2
100
AcDbEntity
  8
0
100
AcDbLine
 10
560.9814301983934
 20
284.4901113960008
 30
0.0
 11
562.0337840950092
 21
284.5176682526006
 31
0.0
  0
ARC
  5
137D
330
2
100
AcDbEntity
  8
0
100
AcDbCircle
 10
557.0337840950088
 20
279.4830627788318
 30
0.0
 40
2.0
100
AcDbArc
 50
271.0000000000017
 51
0.0
  0
LINE
  5
137E
330
2
100
AcDbEntity
  8
0
100
AcDbLine
 10
532.0337840963526
 20
334.4565420996677
 30
0.0
 11
532.0337840963526
 21
274.5787944055336
 31
0.0
  0
LINE
  5
137F
330
2
100
AcDbEntity
  8
0
100
AcDbLine
 10
524.0337840950092
 20
273.5176682526006
 30
0.0
 11
531.0425106318513
 21
273.5788324824697
 31
0.0
  0
ARC
  5
1380
330
2
100
AcDbEntity
  8
0
100
AcDbCircle
 10
535.0337840963526
 20
283.0982897102152
 30
0.0
 40
3.0
100
AcDbArc
 50
91.00000000000177
 51
180.0
  0
ARC
  5
1381
330
2
100
AcDbEntity
  8
0
100
AcDbCircle
 10
531.0337840963526
 20
274.5787944055336
 30
0.0
 40
1.0
100
AcDbArc
 50
270.4999999999915
 51
0.0
  0
LINE
  5
1382
330
2
100
AcDbEntity
  8
0
100
AcDbLine
 10
562.0337840950092
 20
324.5176682526007
 30
0.0
 11
562.0337840950092
 21
284.5176682526006
 31
0.0
  0
ARC
  5
1383
330
2
100
AcDbEntity
  8
0
100
AcDbCircle
 10
561.0337840950088
 20
282.4907967460498
 30
0.0
 40
2.0
100
AcDbArc
 50
91.49999999998968
 51
180.0
  0
LINE
  5
1384
330
2
100
AcDbEntity
  8
0
100
AcDbLine
 10
560.9814301983934
 20
324.5452251092006
 30
0.0
 11
562.0337840950098
 21
324.5176682526007
 31
0.0
  0
ARC
  5
1385
330
2
100
AcDbEntity
  8
0
100
AcDbCircle
 10
561.0337840950093
 20
326.5445397591515
 30
0.0
 40
2.0
100
AcDbArc
 50
180.0
 51
268.5000000000103
  0
LINE
  5
1386
330
2
100
AcDbEntity
  8
0
100
AcDbLine
 10
524.0337840950092
 20
335.5176682526007
 30
0.0
 11
531.0425106318513
 21
335.4565040227317
 31
0.0
  0
ARC
  5
1387
330
2
100
AcDbEntity
  8
0
100
AcDbCircle
 10
531.0337840963526
 20
334.4565420996677
 30
0.0
 40
1.0
100
AcDbArc
 50
0.0
 51
89.49999999998238
  0
ARC
  5
1388
330
2
100
AcDbEntity
  8
0
100
AcDbCircle
 10
536.5085116396405
 20
336.9116099860548
 30
0.0
 40
5.0
100
AcDbArc
 50
204.1532073122307
 51
206.4985685482886
  0
LINE
  5
1389
330
2
100
AcDbEntity
  8
0
100
AcDbLine
 10
557.0337840950092
 20
306.5525783824572
 30
0.0
 11
535.0337840963521
 21
306.9365898108543
 31
0.0
  0
ARC
  5
138A
330
2
100
AcDbEntity
  8
0
100
AcDbCircle
 10
535.0047572844638
 20
274.0977830453288
 30
0.0
 40
3.0
100
AcDbArc
 50
172.0232228966861
 51
173.0933050840563
  0
ARC
  5
138B
330
2
100
AcDbEntity
  8
0
100
AcDbCircle
 10
535.0047572844638
 20
334.9375534598725
 30
0.0
 40
3.0
100
AcDbArc
 50
186.9066949159437
 51
187.9767771033138
  0
LINE
  5
138C
330
2
100
AcDbEntity
  8
0
100
AcDbLine
 10
533.0337840950098
 20
274.1476105675118
 30
0.0
 11
532.0337840950097
 21
274.1476105675118
 31
0.0
  0
LINE
  5
138D
330
2
100
AcDbEntity
  8
0
100
AcDbLine
 10
532.0337840950097
 20
274.1476105675118
 30
0.0
 11
532.0337840950097
 21
281.1476105675118
 31
0.0
  0
LINE
  5
138E
330
2
100
AcDbEntity
  8
0
100
AcDbLine
 10
532.0337840950097
 20
281.1476105675118
 30
0.0
 11
533.0337840950098
 21
281.1476105675118
 31
0.0
  0
LINE
  5
138F
330
2
100
AcDbEntity
  8
0
100
AcDbLine
 10
533.0337840950098
 20
281.1476105675118
 30
0.0
 11
533.0337840950098
 21
274.1476105675118
 31
0.0
  0
LINE
  5
1390
330
2
100
AcDbEntity
  8
0
100
AcDbLine
 10
537.0337840950098
 20
274.6672258097823
 30
0.0
 11
537.0337840950098
 21
280.6279953252409
 31
0.0
  0
LINE
  5
1391
330
2
100
AcDbEntity
  8
0
100
AcDbLine
 10
536.7337840950096
 20
281.1476105675118
 30
0.0
 11
536.7337840950096
 21
274.1476105675118
 31
0.0
  0
LINE
  5
1392
330
2
100
AcDbEntity
  8
0
100
AcDbLine
 10
536.7337840950096
 20
281.1476105675118
 30
0.0
 11
533.0337840950098
 21
281.1476105675118
 31
0.0
  0
LINE
  5
1393
330
2
100
AcDbEntity
  8
0
100
AcDbLine
 10
536.7337840950096
 20
281.1476105675118
 30
0.0
 11
537.0337840950098
 21
280.6279953252409
 31
0.0
  0
LINE
  5
1394
330
2
100
AcDbEntity
  8
0
100
AcDbLine
 10
537.0337840950098
 20
274.6672258097823
 30
0.0
 11
536.7337840950096
 21
274.1476105675118
 31
0.0
  0
LINE
  5
1395
330
2
100
AcDbEntity
  8
0
100
AcDbLine
 10
533.0337840950098
 20
274.1476105675118
 30
0.0
 11
536.7337840950096
 21
274.1476105675118
 31
0.0
  0
LINE
  5
1396
330
2
100
AcDbEntity
  8
0
100
AcDbLine
 10
533.0337840950098
 20
327.8877259376895
 30
0.0
 11
532.0337840950097
 21
327.8877259376895
 31
0.0
  0
LINE
  5
1397
330
2
100
AcDbEntity
  8
0
100
AcDbLine
 10
532.0337840950097
 20
327.8877259376895
 30
0.0
 11
532.0337840950097
 21
334.8877259376895
 31
0.0
  0
LINE
  5
1398
330
2
100
AcDbEntity
  8
0
100
AcDbLine
 10
532.0337840950097
 20
334.8877259376895
 30
0.0
 11
533.0337840950098
 21
334.8877259376895
 31
0.0
  0
LINE
  5
1399
330
2
100
AcDbEntity
  8
0
100
AcDbLine
 10
533.0337840950098
 20
334.8877259376895
 30
0.0
 11
533.0337840950098
 21
327.8877259376895
 31
0.0
  0
LINE
  5
139A
330
2
100
AcDbEntity
  8
0
100
AcDbLine
 10
537.0337840950098
 20
328.4073411799599
 30
0.0
 11
537.0337840950098
 21
334.3681106954186
 31
0.0
  0
LINE
  5
139B
330
2
100
AcDbEntity
  8
0
100
AcDbLine
 10
536.7337840950096
 20
334.8877259376895
 30
0.0
 11
536.7337840950096
 21
327.8877259376895
 31
0.0
  0
LINE
  5
139C
330
2
100
AcDbEntity
  8
0
100
AcDbLine
 10
536.7337840950096
 20
334.8877259376895
 30
0.0
 11
533.0337840950098
 21
334.8877259376895
 31
0.0
  0
LINE
  5
139D
330
2
100
AcDbEntity
  8
0
100
AcDbLine
 10
536.7337840950096
 20
334.8877259376895
 30
0.0
 11
537.0337840950098
 21
334.3681106954186
 31
0.0
  0
LINE
  5
139E
330
2
100
AcDbEntity
  8
0
100
AcDbLine
 10
537.0337840950098
 20
328.4073411799599
 30
0.0
 11
536.7337840950096
 21
327.8877259376895
 31
0.0
  0
LINE
  5
139F
330
2
100
AcDbEntity
  8
0
100
AcDbLine
 10
533.0337840950098
 20
327.8877259376895
 30
0.0
 11
536.7337840950096
 21
327.8877259376895
 31
0.0
  0
LINE
  5
13A0
330
2
100
AcDbEntity
  8
CENTER
  6
CENS
100
AcDbLine
 10
542.0337840950093
 20
277.6476105675114
 30
0.0
 11
519.0338270053867
 21
277.6476105675114
 31
0.0
  0
LINE
  5
13A1
330
2
100
AcDbEntity
  8
CENTER
  6
CENS
100
AcDbLine
 10
542.0337840950093
 20
331.387725937689
 30
0.0
 11
519.0338270053867
 21
331.387725937689
 31
0.0
  0
CIRCLE
  5
13A2
330
2
100
AcDbEntity
  8
0
100
AcDbCircle
 10
550.0337840950093
 20
296.5176682526006
 30
0.0
 40
8.858967454193532
  0
LINE
  5
13A3
330
2
100
AcDbEntity
  8
CENTER
  6
CENS
100
AcDbLine
 10
550.0337840950098
 20
285.3985648140186
 30
0.0
 11
550.0337840950098
 21
307.6367716911835
 31
0.0
  0
LINE
  5
13A4
330
2
100
AcDbEntity
  8
CENTER
  6
CENS
100
AcDbLine
 10
561.1528875335921
 20
296.5176682526011
 30
0.0
 11
538.9146806564273
 21
296.5176682526011
 31
0.0
  0
TEXT
  5
13AA
330
2
100
AcDbEntity
  8
TITLE
100
AcDbText
 10
260.8691460764354
 20
307.0221217876378
 30
0.0
 40
5.0
  1
AFCZ12L-7~10M100S3
100
AcDbText
  0
TEXT
  5
13AB
330
2
100
AcDbEntity
  8
TITLE
100
AcDbText
 10
260.8691460764354
 20
296.6922309086576
 30
0.0
 40
5.0
  1
AFCZ12L-7~10L100S3
100
AcDbText
  0
CIRCLE
  5
1DE0
330
2
100
AcDbEntity
  8
0
100
AcDbCircle
 10
682.970733390745
 20
102.4401979645363
 30
0.0
 40
12.25
  0
LINE
  5
2178
330
2
100
AcDbEntity
  8
CENTER
100
AcDbLine
 10
272.7557396484439
 20
63.94019796454244
 30
0.0
 11
272.7557396484439
 21
140.9401979645429
 31
0.0
  0
LINE
  5
2179
330
2
100
AcDbEntity
  8
CENTER
100
AcDbLine
 10
123.6436085397617
 20
136.0970522140382
 30
0.0
 11
190.9573170387488
 21
68.78334371505104
 31
0.0
  0
LINE
  5
217A
330
2
100
AcDbEntity
  8
CENTER
100
AcDbLine
 10
190.9573170387488
 20
136.0970522140357
 30
0.0
 11
123.6436085397644
 21
68.78334371505093
 31
0.0
  0
LINE
  5
217B
330
2
100
AcDbEntity
  8
CENTER
100
AcDbLine
 10
157.3004627892566
 20
64.44019796454341
 30
0.0
 11
157.3004627892566
 21
140.4401979645434
 31
0.0
  0
LINE
  5
217E
330
2
100
AcDbEntity
  8
CENTER
100
AcDbLine
 10
482.9038417801019
 20
122.8102556496373
 30
0.0
 11
482.9038417801019
 21
135.8102556496369
 31
0.0
  0
LINE
  5
217F
330
2
100
AcDbEntity
  8
CENTER
100
AcDbLine
 10
429.1637264099243
 20
135.8102556496373
 30
0.0
 11
429.1637264099243
 21
122.8102556496373
 31
0.0
  0
LINE
  5
2180
330
2
100
AcDbEntity
  8
CENTER
100
AcDbLine
 10
422.3769298455207
 20
136.0970522140407
 30
0.0
 11
489.6906383445051
 21
68.78334371505568
 31
0.0
  0
LINE
  5
2181
330
2
100
AcDbEntity
  8
CENTER
100
AcDbLine
 10
489.6906383445055
 20
136.0970522140407
 30
0.0
 11
422.3769298455202
 21
68.78334371505596
 31
0.0
  0
CIRCLE
  5
2182
330
2
100
AcDbEntity
  8
CENTER
100
AcDbCircle
 10
456.0337840950131
 20
102.4401979645483
 30
0.0
 40
38.0
  0
LINE
  5
2184
330
2
100
AcDbEntity
  8
CENTER
100
AcDbLine
 10
456.0337840950131
 20
147.4401979645483
 30
0.0
 11
456.0337840950131
 21
57.44019796454833
 31
0.0
  0
LINE
  5
2187
330
2
100
AcDbEntity
  8
0
100
AcDbLine
 10
92.300462789253
 20
133.9401979645425
 30
0.0
 11
98.30046278925482
 21
133.9401979645429
 31
0.0
  0
LINE
  5
2188
330
2
100
AcDbEntity
  8
0
100
AcDbLine
 10
92.30046278925664
 20
70.94019796454341
 30
0.0
 11
98.30046278925482
 21
70.94019796454341
 31
0.0
  0
LINE
  5
2189
330
2
100
AcDbEntity
  8
0
100
AcDbLine
 10
92.30046278925664
 20
71.44019796454341
 30
0.0
 11
98.30046278925482
 21
71.44019796454341
 31
0.0
  0
LINE
  5
218A
330
2
100
AcDbEntity
  8
0
100
AcDbLine
 10
92.300462789253
 20
133.4401979645425
 30
0.0
 11
98.30046278925482
 21
133.4401979645429
 31
0.0
  0
CIRCLE
  5
218E
330
2
100
AcDbEntity
  8
0
100
AcDbCircle
 10
157.3004627892566
 20
102.4401979645434
 30
0.0
 40
25.5
  0
CIRCLE
  5
218F
330
2
100
AcDbEntity
  8
0
100
AcDbCircle
 10
157.3004627892566
 20
102.4401979645434
 30
0.0
 40
22.42259999999999
  0
CIRCLE
  5
2190
330
2
100
AcDbEntity
  8
0
100
AcDbCircle
 10
157.3004627892566
 20
102.4401979645434
 30
0.0
 40
23.0
  0
CIRCLE
  5
2191
330
2
100
AcDbEntity
  8
0
100
AcDbCircle
 10
157.3004627892566
 20
102.4401979645434
 30
0.0
 40
25.0
  0
CIRCLE
  5
2192
330
2
100
AcDbEntity
  8
0
100
AcDbCircle
 10
157.3004627892566
 20
102.4401979645434
 30
0.0
 40
18.0774
  0
CIRCLE
  5
2193
330
2
100
AcDbEntity
  8
0
100
AcDbCircle
 10
157.3004627892566
 20
102.4401979645434
 30
0.0
 40
17.5
  0
LINE
  5
2194
330
2
100
AcDbEntity
  8
0
100
AcDbLine
 10
169.3273747238378
 20
127.9401979645434
 30
0.0
 11
145.2735508546754
 21
127.9401979645431
 31
0.0
  0
LINE
  5
2195
330
2
100
AcDbEntity
  8
0
100
AcDbLine
 10
169.3273747238378
 20
129.9401979645434
 30
0.0
 11
145.2735508546754
 21
129.9401979645434
 31
0.0
  0
LINE
  5
2196
330
2
100
AcDbEntity
  8
0
100
AcDbLine
 10
169.3273747238378
 20
74.94019796454342
 30
0.0
 11
145.2735508546754
 21
74.94019796454342
 31
0.0
  0
LINE
  5
2197
330
2
100
AcDbEntity
  8
0
100
AcDbLine
 10
169.3273747238378
 20
76.94019796454341
 30
0.0
 11
145.2735508546754
 21
76.94019796454341
 31
0.0
  0
ARC
  5
2198
330
2
100
AcDbEntity
  8
0
100
AcDbCircle
 10
157.3004627892548
 20
-16.55980203545658
 30
0.0
 40
150.0
100
AcDbArc
 50
83.88401001893191
 51
96.11598998101577
  0
ARC
  5
2199
330
2
100
AcDbEntity
  8
0
100
AcDbCircle
 10
157.3004627892548
 20
221.4401979645434
 30
0.0
 40
150.0
100
AcDbArc
 50
263.8840100189319
 51
276.1159899810157
  0
LINE
  5
219A
330
2
100
AcDbEntity
  8
0
100
AcDbLine
 10
131.8004627892566
 20
90.41328602996264
 30
0.0
 11
131.8004627892566
 21
114.4671098991241
 31
0.0
  0
LINE
  5
219B
330
2
100
AcDbEntity
  8
0
100
AcDbLine
 10
129.8004627892566
 20
90.4132860299622
 30
0.0
 11
129.8004627892566
 21
114.4671098991246
 31
0.0
  0
LINE
  5
219C
330
2
100
AcDbEntity
  8
0
100
AcDbLine
 10
126.6404627892567
 20
74.44019796454341
 30
0.0
 11
126.6404627892567
 21
130.4401979645434
 31
0.0
  0
LINE
  5
219D
330
2
100
AcDbEntity
  8
0
100
AcDbLine
 10
111.8004627892566
 20
79.44019796526396
 30
0.0
 11
111.8004627892566
 21
125.4401979638299
 31
0.0
  0
LINE
  5
219E
330
2
100
AcDbEntity
  8
0
100
AcDbLine
 10
126.3004627892548
 20
130.4401979645466
 30
0.0
 11
126.3004627892548
 21
74.44019796454523
 31
0.0
  0
LINE
  5
219F
330
2
100
AcDbEntity
  8
0
100
AcDbLine
 10
100.3004627892548
 20
72.94019796454342
 30
0.0
 11
100.3004627892548
 21
131.9401979645429
 31
0.0
  0
CIRCLE
  5
21A0
330
2
100
AcDbEntity
  8
0
100
AcDbCircle
 10
131.3004627892575
 20
76.44019796454387
 30
0.0
 40
3.730384757729268
  0
CIRCLE
  5
21A1
330
2
100
AcDbEntity
  8
0
100
AcDbCircle
 10
131.3004627892575
 20
76.44019796454387
 30
0.0
 40
4.250000000000085
  0
ARC
  5
21A2
330
2
100
AcDbEntity
  8
0
100
AcDbCircle
 10
129.6404627892567
 20
74.44019796454341
 30
0.0
 40
3.0
100
AcDbArc
 50
180.0
 51
270.0
  0
LINE
  5
21A3
330
2
100
AcDbEntity
  8
CENTER
100
AcDbLine
 10
125.5504627892566
 20
76.44019796454341
 30
0.0
 11
137.0504627892566
 21
76.44019796454341
 31
0.0
  0
ARC
  5
21A4
330
2
100
AcDbEntity
  8
0
100
AcDbCircle
 10
129.3004627892548
 20
74.44019796454523
 30
0.0
 40
3.0
100
AcDbArc
 50
180.0
 51
270.0
  0
ARC
  5
21A5
330
2
100
AcDbEntity
  8
0
100
AcDbCircle
 10
98.30046278925482
 20
72.94019796454342
 30
0.0
 40
2.0
100
AcDbArc
 50
270.0
 51
0.0
  0
ARC
  5
21A6
330
2
100
AcDbEntity
  8
0
100
AcDbCircle
 10
112.8004627892466
 20
75.44019796525669
 30
0.0
 40
3.0
100
AcDbArc
 50
90.0
 51
126.8698976456909
  0
ARC
  5
21A7
330
2
100
AcDbEntity
  8
0
100
AcDbCircle
 10
123.3004627892548
 20
75.44019796525692
 30
0.0
 40
3.0
100
AcDbArc
 50
0.0
 51
90.0
  0
ARC
  5
21A8
330
2
100
AcDbEntity
  8
0
100
AcDbCircle
 10
103.3004627892548
 20
74.44019796526418
 30
0.0
 40
3.0
100
AcDbArc
 50
90.0
 51
180.0
  0
LINE
  5
21A9
330
2
100
AcDbEntity
  8
0
100
AcDbLine
 10
109.8004627892566
 20
77.44019796526396
 30
0.0
 11
103.3004627892548
 21
77.44019796526419
 31
0.0
  0
LINE
  5
21AA
330
2
100
AcDbEntity
  8
0
100
AcDbLine
 10
123.3004627892548
 20
78.44019796525691
 30
0.0
 11
112.8004627892466
 21
78.44019796525691
 31
0.0
  0
ARC
  5
21AB
330
2
100
AcDbEntity
  8
0
100
AcDbCircle
 10
109.8004627892566
 20
79.44019796526396
 30
0.0
 40
2.0
100
AcDbArc
 50
270.0
 51
359.9999999917405
  0
ARC
  5
21AC
330
2
100
AcDbEntity
  8
0
100
AcDbCircle
 10
114.8004627892557
 20
79.44019796454341
 30
0.0
 40
3.0
100
AcDbArc
 50
90.0
 51
180.0
  0
ARC
  5
21AD
330
2
100
AcDbEntity
  8
0
100
AcDbCircle
 10
123.3004627892584
 20
79.44019796454319
 30
0.0
 40
3.0
100
AcDbArc
 50
0.0
 51
90.0
  0
LINE
  5
21AE
330
2
100
AcDbEntity
  8
0
100
AcDbLine
 10
123.3004627892584
 20
82.44019796454319
 30
0.0
 11
114.8004627892557
 21
82.44019796454342
 31
0.0
  0
ARC
  5
21AF
330
2
100
AcDbEntity
  8
0
100
AcDbCircle
 10
98.30046278925482
 20
73.44019796454341
 30
0.0
 40
2.0
100
AcDbArc
 50
270.0
 51
0.0
  0
LINE
  5
21B0
330
2
100
AcDbEntity
  8
0
100
AcDbLine
 10
133.3004627892575
 20
75.28549742616434
 30
0.0
 11
133.3004627892575
 21
77.59489850292294
 31
0.0
  0
LINE
  5
21B1
330
2
100
AcDbEntity
  8
0
100
AcDbLine
 10
131.3004627892566
 20
74.13079688778527
 30
0.0
 11
129.3004627892575
 21
75.28549742616434
 31
0.0
  0
LINE
  5
21B2
330
2
100
AcDbEntity
  8
0
100
AcDbLine
 10
129.3004627892575
 20
77.59489850292294
 30
0.0
 11
131.3004627892566
 21
78.74959904130202
 31
0.0
  0
LINE
  5
21B3
330
2
100
AcDbEntity
  8
0
100
AcDbLine
 10
129.3004627892575
 20
75.28549742616434
 30
0.0
 11
129.3004627892575
 21
77.59489850292294
 31
0.0
  0
LINE
  5
21B4
330
2
100
AcDbEntity
  8
0
100
AcDbLine
 10
131.3004627892566
 20
74.13079688778527
 30
0.0
 11
133.3004627892575
 21
75.28549742616434
 31
0.0
  0
LINE
  5
21B5
330
2
100
AcDbEntity
  8
0
100
AcDbLine
 10
133.3004627892575
 20
77.59489850292294
 30
0.0
 11
131.3004627892575
 21
78.74959904130202
 31
0.0
  0
LINE
  5
21B6
330
2
100
AcDbEntity
  8
CENTER
100
AcDbLine
 10
131.3004627892566
 20
70.69019796454341
 30
0.0
 11
131.3004627892566
 21
82.19019796454341
 31
0.0
  0
LINE
  5
21B7
330
2
100
AcDbEntity
  8
0
100
AcDbLine
 10
132.3004627892566
 20
71.44019796454364
 30
0.0
 11
129.6404627892567
 21
71.44019796454364
 31
0.0
  0
LINE
  5
21B8
330
2
100
AcDbEntity
  8
0
100
AcDbLine
 10
132.1810651267002
 20
88.49986886813651
 30
0.0
 11
130.3333060616784
 21
87.7345020034066
 31
0.0
  0
ARC
  5
21B9
330
2
100
AcDbEntity
  8
0
100
AcDbCircle
 10
136.8004627892566
 20
90.41328602996243
 30
0.0
 40
5.0
100
AcDbArc
 50
180.0
 51
225.000000000008
  0
ARC
  5
21BA
330
2
100
AcDbEntity
  8
0
100
AcDbCircle
 10
136.8004627892566
 20
90.4132860299622
 30
0.0
 40
7.0
100
AcDbArc
 50
180.0
 51
225.000000000008
  0
ARC
  5
21BB
330
2
100
AcDbEntity
  8
0
100
AcDbCircle
 10
145.2735508546754
 20
81.94019796454341
 30
0.0
 40
5.0
100
AcDbArc
 50
225.000000000008
 51
270.0
  0
ARC
  5
21BC
330
2
100
AcDbEntity
  8
0
100
AcDbCircle
 10
145.2735508546754
 20
81.94019796454341
 30
0.0
 40
7.0
100
AcDbArc
 50
225.000000000008
 51
270.0
  0
LINE
  5
21BD
330
2
100
AcDbEntity
  8
0
100
AcDbLine
 10
143.3601336928501
 20
77.32080030198705
 30
0.0
 11
142.5947668281202
 21
75.47304123696455
 31
0.0
  0
LINE
  5
21BE
330
2
100
AcDbEntity
  8
0
100
AcDbLine
 10
140.3238033863696
 20
76.99045049623766
 30
0.0
 11
131.8507153209508
 21
85.46353856165643
 31
0.0
  0
LINE
  5
21BF
330
2
100
AcDbEntity
  8
0
100
AcDbLine
 10
141.7380169487429
 20
78.40466405861076
 30
0.0
 11
133.2649288833242
 21
86.87775212402977
 31
0.0
  0
ARC
  5
21C0
330
2
100
AcDbEntity
  8
0
100
AcDbCircle
 10
132.3004627892566
 20
76.440197964545
 30
0.0
 40
5.0
100
AcDbArc
 50
270.0
 51
285.9928477439961
  0
LINE
  5
21C1
330
2
100
AcDbEntity
  8
0
100
AcDbLine
 10
132.3004627892566
 20
71.44019796454478
 30
0.0
 11
129.3004627892548
 21
71.44019796454523
 31
0.0
  0
LINE
  5
21C2
330
2
100
AcDbEntity
  8
0
100
AcDbLine
 10
132.3004627892584
 20
71.44019796454341
 30
0.0
 11
129.3004627892584
 21
71.44019796454341
 31
0.0
  0
LINE
  5
21C3
330
2
100
AcDbEntity
  8
0
100
AcDbLine
 10
132.3004627892548
 20
71.4401979645466
 30
0.0
 11
129.3004627892548
 21
71.4401979645466
 31
0.0
  0
LINE
  5
21C4
330
2
100
AcDbEntity
  8
0
100
AcDbLine
 10
132.3004627892566
 20
71.440197964545
 30
0.0
 11
129.3004627892566
 21
71.440197964545
 31
0.0
  0
ARC
  5
21C5
330
2
100
AcDbEntity
  8
0
100
AcDbCircle
 10
139.1883967635646
 20
52.40779555518139
 30
0.0
 40
20.0
100
AcDbArc
 50
83.88401001893191
 51
105.9928477439961
  0
CIRCLE
  5
21C6
330
2
100
AcDbEntity
  8
0
100
AcDbCircle
 10
131.3004627892575
 20
128.4401979645429
 30
0.0
 40
3.730384757729268
  0
CIRCLE
  5
21C7
330
2
100
AcDbEntity
  8
0
100
AcDbCircle
 10
131.3004627892575
 20
128.4401979645429
 30
0.0
 40
4.250000000000085
  0
LINE
  5
21C8
330
2
100
AcDbEntity
  8
CENTER
100
AcDbLine
 10
125.6272577084998
 20
121.9401979645434
 30
0.0
 11
135.9736678700134
 21
121.9401979645434
 31
0.0
  0
ARC
  5
21C9
330
2
100
AcDbEntity
  8
0
100
AcDbCircle
 10
129.6404627892567
 20
130.4401979645434
 30
0.0
 40
3.0
100
AcDbArc
 50
90.0
 51
180.0
  0
LINE
  5
21CA
330
2
100
AcDbEntity
  8
CENTER
100
AcDbLine
 10
125.5504627892557
 20
128.4401979645427
 30
0.0
 11
137.0504627892557
 21
128.4401979645434
 31
0.0
  0
ARC
  5
21CB
330
2
100
AcDbEntity
  8
0
100
AcDbCircle
 10
129.3004627892548
 20
130.4401979645466
 30
0.0
 40
3.0
100
AcDbArc
 50
90.0
 51
180.0
  0
ARC
  5
21CC
330
2
100
AcDbEntity
  8
0
100
AcDbCircle
 10
98.30046278925482
 20
131.9401979645429
 30
0.0
 40
2.0
100
AcDbArc
 50
0.0
 51
90.0
  0
ARC
  5
21CD
330
2
100
AcDbEntity
  8
0
100
AcDbCircle
 10
112.8004627892466
 20
129.4401979638301
 30
0.0
 40
3.0
100
AcDbArc
 50
233.1301023542601
 51
270.0
  0
ARC
  5
21CE
330
2
100
AcDbEntity
  8
0
100
AcDbCircle
 10
123.3004627892548
 20
129.4401979638299
 30
0.0
 40
3.0
100
AcDbArc
 50
270.0
 51
0.0
  0
LINE
  5
21CF
330
2
100
AcDbEntity
  8
0
100
AcDbLine
 10
123.3004627892548
 20
126.4401979638299
 30
0.0
 11
112.8004627892466
 21
126.4401979638301
 31
0.0
  0
LINE
  5
21D0
330
2
100
AcDbEntity
  8
0
100
AcDbLine
 10
109.8004627892566
 20
127.4401979638299
 30
0.0
 11
103.3004627892548
 21
127.4401979638301
 31
0.0
  0
ARC
  5
21D1
330
2
100
AcDbEntity
  8
0
100
AcDbCircle
 10
103.3004627892548
 20
130.4401979638301
 30
0.0
 40
3.0
100
AcDbArc
 50
180.0
 51
270.0
  0
LINE
  5
21D2
330
2
100
AcDbEntity
  8
0
100
AcDbLine
 10
111.8004627892566
 20
125.4401979645434
 30
0.0
 11
111.8004627892566
 21
125.4401979638299
 31
0.0
  0
ARC
  5
21D3
330
2
100
AcDbEntity
  8
0
100
AcDbCircle
 10
109.8004627892566
 20
125.4401979638299
 30
0.0
 40
2.0
100
AcDbArc
 50
0.0
 51
90.0
  0
ARC
  5
21D4
330
2
100
AcDbEntity
  8
0
100
AcDbCircle
 10
123.3004627892593
 20
125.4401979645434
 30
0.0
 40
3.0
100
AcDbArc
 50
270.0
 51
0.0
  0
ARC
  5
21D5
330
2
100
AcDbEntity
  8
0
100
AcDbCircle
 10
114.8004627892566
 20
125.4401979645434
 30
0.0
 40
3.0
100
AcDbArc
 50
180.0
 51
270.0
  0
LINE
  5
21D6
330
2
100
AcDbEntity
  8
0
100
AcDbLine
 10
123.3004627892593
 20
122.4401979645434
 30
0.0
 11
114.8004627892566
 21
122.4401979645434
 31
0.0
  0
LINE
  5
21D7
330
2
100
AcDbEntity
  8
0
100
AcDbLine
 10
125.8004627892566
 20
110.0395400413288
 30
0.0
 11
125.8004627892557
 21
94.84085588775798
 31
0.0
  0
LINE
  5
21D8
330
2
100
AcDbEntity
  8
0
100
AcDbLine
 10
111.8004627892566
 20
110.0395400413288
 30
0.0
 11
126.3004627892557
 21
110.0395400413288
 31
0.0
  0
LINE
  5
21D9
330
2
100
AcDbEntity
  8
0
100
AcDbLine
 10
111.8004627892566
 20
94.84085588775798
 30
0.0
 11
126.3004627892557
 21
94.84085588775798
 31
0.0
  0
ARC
  5
21DA
330
2
100
AcDbEntity
  8
0
100
AcDbCircle
 10
98.30046278925482
 20
131.4401979645429
 30
0.0
 40
2.0
100
AcDbArc
 50
0.0
 51
90.0
  0
LINE
  5
21DB
330
2
100
AcDbEntity
  8
0
100
AcDbLine
 10
133.3004627892575
 20
129.5948985029224
 30
0.0
 11
133.3004627892575
 21
127.2854974261638
 31
0.0
  0
LINE
  5
21DC
330
2
100
AcDbEntity
  8
0
100
AcDbLine
 10
131.3004627892566
 20
130.7495990413015
 30
0.0
 11
129.3004627892575
 21
129.5948985029224
 31
0.0
  0
LINE
  5
21DD
330
2
100
AcDbEntity
  8
0
100
AcDbLine
 10
129.3004627892575
 20
127.2854974261638
 30
0.0
 11
131.3004627892566
 21
126.1307968877848
 31
0.0
  0
LINE
  5
21DE
330
2
100
AcDbEntity
  8
0
100
AcDbLine
 10
129.3004627892575
 20
129.5948985029224
 30
0.0
 11
129.3004627892575
 21
127.2854974261638
 31
0.0
  0
LINE
  5
21DF
330
2
100
AcDbEntity
  8
0
100
AcDbLine
 10
131.3004627892566
 20
130.7495990413015
 30
0.0
 11
133.3004627892575
 21
129.5948985029224
 31
0.0
  0
LINE
  5
21E0
330
2
100
AcDbEntity
  8
0
100
AcDbLine
 10
133.3004627892575
 20
127.2854974261638
 30
0.0
 11
131.3004627892575
 21
126.1307968877848
 31
0.0
  0
LINE
  5
21E1
330
2
100
AcDbEntity
  8
CENTER
100
AcDbLine
 10
131.3004627892548
 20
134.1901979645431
 30
0.0
 11
131.3004627892557
 21
122.6901979645431
 31
0.0
  0
LINE
  5
21E2
330
2
100
AcDbEntity
  8
0
100
AcDbLine
 10
132.1810651267002
 20
116.3805270609501
 30
0.0
 11
130.3333060616784
 21
117.1458939256802
 31
0.0
  0
ARC
  5
21E3
330
2
100
AcDbEntity
  8
0
100
AcDbCircle
 10
136.8004627892566
 20
114.4671098991241
 30
0.0
 40
5.0
100
AcDbArc
 50
134.9999999999919
 51
180.0
  0
CIRCLE
  5
21E4
330
2
100
AcDbEntity
  8
HOJO
100
AcDbCircle
 10
130.8004627892566
 20
121.9401979645434
 30
0.0
 40
2.0
  0
CIRCLE
  5
21E5
330
2
100
AcDbEntity
  8
0
100
AcDbCircle
 10
130.8004627892566
 20
121.9401979645431
 30
0.0
 40
1.6
  0
ARC
  5
21E6
330
2
100
AcDbEntity
  8
0
100
AcDbCircle
 10
136.8004627892566
 20
114.4671098991246
 30
0.0
 40
7.0
100
AcDbArc
 50
134.9999999999919
 51
180.0
  0
LINE
  5
21E7
330
2
100
AcDbEntity
  8
0
100
AcDbLine
 10
132.3004627892566
 20
133.4401979645434
 30
0.0
 11
129.6404627892567
 21
133.4401979645434
 31
0.0
  0
LINE
  5
21E8
330
2
100
AcDbEntity
  8
CENTER
100
AcDbLine
 10
130.8004627892566
 20
127.1134030453002
 30
0.0
 11
130.8004627892566
 21
116.7669928837861
 31
0.0
  0
ARC
  5
21E9
330
2
100
AcDbEntity
  8
0
100
AcDbCircle
 10
145.2735508546754
 20
122.9401979645431
 30
0.0
 40
7.0
100
AcDbArc
 50
90.0
 51
134.9999999999919
  0
ARC
  5
21EA
330
2
100
AcDbEntity
  8
0
100
AcDbCircle
 10
145.2735508546754
 20
122.9401979645434
 30
0.0
 40
5.0
100
AcDbArc
 50
90.0
 51
134.9999999999919
  0
LINE
  5
21EB
330
2
100
AcDbEntity
  8
0
100
AcDbLine
 10
143.3601336928501
 20
127.5595956270997
 30
0.0
 11
142.5947668281202
 21
129.4073546921222
 31
0.0
  0
LINE
  5
21EC
330
2
100
AcDbEntity
  8
0
100
AcDbLine
 10
141.7380169487429
 20
126.4757318704758
 30
0.0
 11
133.2649288833242
 21
118.002643805057
 31
0.0
  0
LINE
  5
21ED
330
2
100
AcDbEntity
  8
0
100
AcDbLine
 10
140.3238033863696
 20
127.8899454328491
 30
0.0
 11
131.8507153209508
 21
119.4168573674303
 31
0.0
  0
ARC
  5
21EE
330
2
100
AcDbEntity
  8
0
100
AcDbCircle
 10
132.3004627892566
 20
128.4401979645449
 30
0.0
 40
5.0
100
AcDbArc
 50
74.00715225600388
 51
90.0
  0
LINE
  5
21EF
330
2
100
AcDbEntity
  8
0
100
AcDbLine
 10
132.3004627892584
 20
133.4401979645466
 30
0.0
 11
129.3004627892548
 21
133.4401979645466
 31
0.0
  0
ARC
  5
21F0
330
2
100
AcDbEntity
  8
0
100
AcDbCircle
 10
139.1883967635646
 20
152.4726003739083
 30
0.0
 40
20.0
100
AcDbArc
 50
254.0071522560038
 51
276.1159899810157
  0
LINE
  5
21F1
330
2
100
AcDbEntity
  8
0
100
AcDbLine
 10
184.8004627892566
 20
90.4132860299622
 30
0.0
 11
184.8004627892566
 21
114.4671098991246
 31
0.0
  0
LINE
  5
21F2
330
2
100
AcDbEntity
  8
0
100
AcDbLine
 10
182.8004627892566
 20
90.41328602996243
 30
0.0
 11
182.8004627892566
 21
114.4671098991244
 31
0.0
  0
ARC
  5
21F3
330
2
100
AcDbEntity
  8
0
100
AcDbCircle
 10
38.30046278925664
 20
102.4401979645452
 30
0.0
 40
150.0
100
AcDbArc
 50
353.8840100189319
 51
6.115989981068083
  0
LINE
  5
21F4
330
2
100
AcDbEntity
  8
0
100
AcDbLine
 10
185.3004627892566
 20
75.28549742616434
 30
0.0
 11
185.3004627892566
 21
77.59489850292294
 31
0.0
  0
LINE
  5
21F5
330
2
100
AcDbEntity
  8
0
100
AcDbLine
 10
183.3004627892566
 20
74.13079688778527
 30
0.0
 11
181.3004627892566
 21
75.28549742616434
 31
0.0
  0
LINE
  5
21F6
330
2
100
AcDbEntity
  8
0
100
AcDbLine
 10
181.3004627892566
 20
77.59489850292294
 30
0.0
 11
183.3004627892566
 21
78.74959904130202
 31
0.0
  0
LINE
  5
21F7
330
2
100
AcDbEntity
  8
0
100
AcDbLine
 10
181.3004627892566
 20
75.28549742616434
 30
0.0
 11
181.3004627892566
 21
77.59489850292294
 31
0.0
  0
LINE
  5
21F8
330
2
100
AcDbEntity
  8
0
100
AcDbLine
 10
183.3004627892566
 20
74.13079688778527
 30
0.0
 11
185.3004627892566
 21
75.28549742616434
 31
0.0
  0
CIRCLE
  5
21F9
330
2
100
AcDbEntity
  8
0
100
AcDbCircle
 10
183.3004627892566
 20
76.44019796454387
 30
0.0
 40
3.730384757729268
  0
CIRCLE
  5
21FA
330
2
100
AcDbEntity
  8
0
100
AcDbCircle
 10
183.3004627892566
 20
76.44019796454387
 30
0.0
 40
4.250000000000085
  0
LINE
  5
21FB
330
2
100
AcDbEntity
  8
0
100
AcDbLine
 10
185.3004627892566
 20
77.59489850292294
 30
0.0
 11
183.3004627892566
 21
78.74959904130202
 31
0.0
  0
LINE
  5
21FC
330
2
100
AcDbEntity
  8
0
100
AcDbLine
 10
171.240791885664
 20
77.32080030198705
 30
0.0
 11
172.0061587503939
 21
75.47304123696455
 31
0.0
  0
ARC
  5
21FD
330
2
100
AcDbEntity
  8
0
100
AcDbCircle
 10
169.3273747238378
 20
81.94019796454341
 30
0.0
 40
7.0
100
AcDbArc
 50
270.0
 51
314.9999999999919
  0
ARC
  5
21FE
330
2
100
AcDbEntity
  8
0
100
AcDbCircle
 10
169.3273747238378
 20
81.94019796454341
 30
0.0
 40
5.0
100
AcDbArc
 50
270.0
 51
314.9999999999919
  0
CIRCLE
  5
21FF
330
2
100
AcDbEntity
  8
HOJO
100
AcDbCircle
 10
183.8004627892566
 20
82.94019796454364
 30
0.0
 40
2.0
  0
ARC
  5
2200
330
2
100
AcDbEntity
  8
0
100
AcDbCircle
 10
177.8004627892566
 20
90.4132860299622
 30
0.0
 40
7.0
100
AcDbArc
 50
314.9999999999919
 51
0.0
  0
CIRCLE
  5
2201
330
2
100
AcDbEntity
  8
0
100
AcDbCircle
 10
183.8004627892566
 20
82.94019796454364
 30
0.0
 40
1.6
  0
LINE
  5
2202
330
2
100
AcDbEntity
  8
0
100
AcDbLine
 10
182.419860451813
 20
88.49986886813651
 30
0.0
 11
184.2676195168357
 21
87.7345020034066
 31
0.0
  0
ARC
  5
2203
330
2
100
AcDbEntity
  8
0
100
AcDbCircle
 10
177.8004627892566
 20
90.41328602996243
 30
0.0
 40
5.0
100
AcDbArc
 50
314.9999999999919
 51
0.0
  0
LINE
  5
2204
330
2
100
AcDbEntity
  8
CENTER
100
AcDbLine
 10
183.3004627892566
 20
70.69019796454341
 30
0.0
 11
183.3004627892566
 21
82.19019796454341
 31
0.0
  0
LINE
  5
2205
330
2
100
AcDbEntity
  8
CENTER
100
AcDbLine
 10
183.8004627892566
 20
79.82562169680074
 30
0.0
 11
183.8004627892566
 21
88.11340304530068
 31
0.0
  0
LINE
  5
2206
330
2
100
AcDbEntity
  8
0
100
AcDbLine
 10
172.8629086297712
 20
78.40466405861054
 30
0.0
 11
181.3359966951899
 21
86.87775212402977
 31
0.0
  0
LINE
  5
2207
330
2
100
AcDbEntity
  8
0
100
AcDbLine
 10
174.2771221921436
 20
76.99045049623766
 30
0.0
 11
182.7502102575623
 21
85.46353856165621
 31
0.0
  0
LINE
  5
2208
330
2
100
AcDbEntity
  8
CENTER
100
AcDbLine
 10
188.9736678700134
 20
82.94019796454364
 30
0.0
 11
178.6272577084998
 21
82.94019796454364
 31
0.0
  0
LINE
  5
2209
330
2
100
AcDbEntity
  8
CENTER
100
AcDbLine
 10
189.0504627892566
 20
76.44019796454341
 30
0.0
 11
177.5504627892566
 21
76.44019796454341
 31
0.0
  0
ARC
  5
220A
330
2
100
AcDbEntity
  8
0
100
AcDbCircle
 10
182.3004627892566
 20
76.44019796454478
 30
0.0
 40
5.0
100
AcDbArc
 50
254.0071522560038
 51
270.0
  0
ARC
  5
220B
330
2
100
AcDbEntity
  8
0
100
AcDbCircle
 10
175.4125288149495
 20
52.40779555518139
 30
0.0
 40
20.0
100
AcDbArc
 50
74.00715225600388
 51
96.11598998101577
  0
LINE
  5
220C
330
2
100
AcDbEntity
  8
0
100
AcDbLine
 10
182.3004627892566
 20
71.44019796454478
 30
0.0
 11
185.3004627892566
 21
71.440197964545
 31
0.0
  0
LINE
  5
220D
330
2
100
AcDbEntity
  8
0
100
AcDbLine
 10
182.3004627892557
 20
71.44019796454341
 30
0.0
 11
185.3004627892557
 21
71.44019796454341
 31
0.0
  0
LINE
  5
220E
330
2
100
AcDbEntity
  8
0
100
AcDbLine
 10
188.3004627892566
 20
77.44019796454478
 30
0.0
 11
188.3004627892566
 21
74.44019796454478
 31
0.0
  0
LINE
  5
220F
330
2
100
AcDbEntity
  8
0
100
AcDbLine
 10
188.3004627892548
 20
77.44019796454342
 30
0.0
 11
188.3004627892548
 21
74.44019796454341
 31
0.0
  0
LINE
  5
2210
330
2
100
AcDbEntity
  8
0
100
AcDbLine
 10
188.3004627892584
 20
77.44019796454614
 30
0.0
 11
188.3004627892584
 21
74.44019796454637
 31
0.0
  0
LINE
  5
2211
330
2
100
AcDbEntity
  8
0
100
AcDbLine
 10
188.3004627892566
 20
77.44019796454478
 30
0.0
 11
188.3004627892566
 21
74.44019796454501
 31
0.0
  0
ARC
  5
2212
330
2
100
AcDbEntity
  8
0
100
AcDbCircle
 10
183.3004627892566
 20
77.44019796454501
 30
0.0
 40
5.0
100
AcDbArc
 50
0.0
 51
15.99284774399657
  0
ARC
  5
2213
330
2
100
AcDbEntity
  8
0
100
AcDbCircle
 10
207.33286519862
 20
84.32813193885278
 30
0.0
 40
20.0
100
AcDbArc
 50
173.8840100189319
 51
195.9928477439965
  0
ARC
  5
2214
330
2
100
AcDbEntity
  8
0
100
AcDbCircle
 10
185.3004627892566
 20
74.44019796454341
 30
0.0
 40
3.0
100
AcDbArc
 50
270.0
 51
0.0
  0
LINE
  5
2215
330
2
100
AcDbEntity
  8
0
100
AcDbLine
 10
185.3004627892566
 20
129.5948985029224
 30
0.0
 11
185.3004627892566
 21
127.2854974261638
 31
0.0
  0
LINE
  5
2216
330
2
100
AcDbEntity
  8
0
100
AcDbLine
 10
183.3004627892566
 20
130.7495990413015
 30
0.0
 11
181.3004627892566
 21
129.5948985029224
 31
0.0
  0
LINE
  5
2217
330
2
100
AcDbEntity
  8
0
100
AcDbLine
 10
181.3004627892566
 20
127.2854974261638
 30
0.0
 11
183.3004627892566
 21
126.1307968877848
 31
0.0
  0
LINE
  5
2218
330
2
100
AcDbEntity
  8
0
100
AcDbLine
 10
181.3004627892566
 20
129.5948985029224
 30
0.0
 11
181.3004627892566
 21
127.2854974261638
 31
0.0
  0
LINE
  5
2219
330
2
100
AcDbEntity
  8
0
100
AcDbLine
 10
183.3004627892566
 20
130.7495990413015
 30
0.0
 11
185.3004627892566
 21
129.5948985029224
 31
0.0
  0
CIRCLE
  5
221A
330
2
100
AcDbEntity
  8
0
100
AcDbCircle
 10
183.3004627892566
 20
128.4401979645429
 30
0.0
 40
3.730384757729268
  0
CIRCLE
  5
221B
330
2
100
AcDbEntity
  8
0
100
AcDbCircle
 10
183.3004627892566
 20
128.4401979645429
 30
0.0
 40
4.250000000000085
  0
LINE
  5
221C
330
2
100
AcDbEntity
  8
0
100
AcDbLine
 10
185.3004627892566
 20
127.2854974261638
 30
0.0
 11
183.3004627892566
 21
126.1307968877848
 31
0.0
  0
LINE
  5
221D
330
2
100
AcDbEntity
  8
0
100
AcDbLine
 10
171.240791885664
 20
127.5595956270997
 30
0.0
 11
172.0061587503939
 21
129.4073546921222
 31
0.0
  0
ARC
  5
221E
330
2
100
AcDbEntity
  8
0
100
AcDbCircle
 10
169.3273747238378
 20
122.9401979645434
 30
0.0
 40
5.0
100
AcDbArc
 50
45.00000000000806
 51
90.0
  0
ARC
  5
221F
330
2
100
AcDbEntity
  8
0
100
AcDbCircle
 10
169.3273747238378
 20
122.9401979645434
 30
0.0
 40
7.0
100
AcDbArc
 50
45.00000000000806
 51
90.0
  0
ARC
  5
2220
330
2
100
AcDbEntity
  8
0
100
AcDbCircle
 10
177.8004627892566
 20
114.4671098991246
 30
0.0
 40
7.0
100
AcDbArc
 50
0.0
 51
45.00000000000806
  0
LINE
  5
2221
330
2
100
AcDbEntity
  8
0
100
AcDbLine
 10
182.419860451813
 20
116.3805270609501
 30
0.0
 11
184.2676195168357
 21
117.1458939256802
 31
0.0
  0
ARC
  5
2222
330
2
100
AcDbEntity
  8
0
100
AcDbCircle
 10
177.8004627892566
 20
114.4671098991244
 30
0.0
 40
5.0
100
AcDbArc
 50
0.0
 51
45.00000000000806
  0
LINE
  5
2223
330
2
100
AcDbEntity
  8
CENTER
100
AcDbLine
 10
183.3004627892584
 20
134.1901979645431
 30
0.0
 11
183.3004627892584
 21
122.6901979645431
 31
0.0
  0
LINE
  5
2224
330
2
100
AcDbEntity
  8
0
100
AcDbLine
 10
172.8629086297712
 20
126.475731870476
 30
0.0
 11
181.3359966951899
 21
118.002643805057
 31
0.0
  0
LINE
  5
2225
330
2
100
AcDbEntity
  8
0
100
AcDbLine
 10
174.2771221921436
 20
127.8899454328491
 30
0.0
 11
182.7502102575623
 21
119.4168573674303
 31
0.0
  0
LINE
  5
2226
330
2
100
AcDbEntity
  8
CENTER
100
AcDbLine
 10
189.0504627892584
 20
128.4401979645429
 30
0.0
 11
177.5504627892584
 21
128.4401979645434
 31
0.0
  0
ARC
  5
2227
330
2
100
AcDbEntity
  8
0
100
AcDbCircle
 10
182.3004627892566
 20
128.4401979645447
 30
0.0
 40
5.0
100
AcDbArc
 50
90.0
 51
105.9928477439961
  0
ARC
  5
2228
330
2
100
AcDbEntity
  8
0
100
AcDbCircle
 10
175.4125288149495
 20
152.4726003739083
 30
0.0
 40
20.0
100
AcDbArc
 50
263.8840100189319
 51
285.9928477439961
  0
LINE
  5
2229
330
2
100
AcDbEntity
  8
0
100
AcDbLine
 10
182.3004627892584
 20
133.4401979645434
 30
0.0
 11
185.3004627892584
 21
133.4401979645434
 31
0.0
  0
LINE
  5
222A
330
2
100
AcDbEntity
  8
0
100
AcDbLine
 10
182.3004627892566
 20
133.4401979645447
 30
0.0
 11
185.3004627892566
 21
133.4401979645447
 31
0.0
  0
LINE
  5
222B
330
2
100
AcDbEntity
  8
0
100
AcDbLine
 10
182.3004627892557
 20
133.4401979645466
 30
0.0
 11
185.3004627892557
 21
133.4401979645463
 31
0.0
  0
LINE
  5
222C
330
2
100
AcDbEntity
  8
0
100
AcDbLine
 10
182.3004627892566
 20
133.440197964545
 30
0.0
 11
185.3004627892566
 21
133.4401979645447
 31
0.0
  0
ARC
  5
222D
330
2
100
AcDbEntity
  8
0
100
AcDbCircle
 10
183.3004627892566
 20
127.4401979645447
 30
0.0
 40
5.0
100
AcDbArc
 50
344.0071522560034
 51
0.0
  0
LINE
  5
222E
330
2
100
AcDbEntity
  8
0
100
AcDbLine
 10
188.3004627892584
 20
127.4401979645436
 30
0.0
 11
188.3004627892584
 21
130.4401979645434
 31
0.0
  0
ARC
  5
222F
330
2
100
AcDbEntity
  8
0
100
AcDbCircle
 10
207.33286519862
 20
120.552263990237
 30
0.0
 40
20.0
100
AcDbArc
 50
164.0071522560034
 51
186.115989981068
  0
ARC
  5
2230
330
2
100
AcDbEntity
  8
0
100
AcDbCircle
 10
185.3004627892566
 20
130.4401979645434
 30
0.0
 40
3.0
100
AcDbArc
 50
0.0
 51
90.0
  0
LINE
  5
2233
330
2
100
AcDbEntity
  8
0
100
AcDbLine
 10
304.7557396484439
 20
86.45896323598663
 30
0.0
 11
253.7557396484403
 21
86.45896323598663
 31
0.0
  0
LINE
  5
2234
330
2
100
AcDbEntity
  8
0
100
AcDbLine
 10
304.7557396484439
 20
77.44019796454131
 30
0.0
 11
253.7557396484403
 21
77.44019796454131
 31
0.0
  0
LINE
  5
2235
330
2
100
AcDbEntity
  8
0
100
AcDbLine
 10
304.7557396484439
 20
74.44019796453858
 30
0.0
 11
253.7557396484403
 21
74.44019796453858
 31
0.0
  0
LINE
  5
2236
330
2
100
AcDbEntity
  8
0
100
AcDbLine
 10
304.7557396484439
 20
118.4214326930987
 30
0.0
 11
253.7557396484403
 21
118.4214326930987
 31
0.0
  0
LINE
  5
2237
330
2
100
AcDbEntity
  8
0
100
AcDbLine
 10
304.7557396484439
 20
127.440197964544
 30
0.0
 11
253.7557396484403
 21
127.440197964544
 31
0.0
  0
LINE
  5
2238
330
2
100
AcDbEntity
  8
0
100
AcDbLine
 10
304.7557396484439
 20
130.4401979645467
 30
0.0
 11
253.7557396484403
 21
130.4401979645467
 31
0.0
  0
LINE
  5
2239
330
2
100
AcDbEntity
  8
0
100
AcDbLine
 10
253.7557015707802
 20
133.4401977983966
 30
0.0
 11
305.755739648444
 21
132.9864003409593
 31
0.0
  0
LINE
  5
223A
330
2
100
AcDbEntity
  8
0
100
AcDbLine
 10
253.7557396484403
 20
71.44019796454222
 30
0.0
 11
305.755739648444
 21
71.8939950896638
 31
0.0
  0
LINE
  5
223B
330
2
100
AcDbEntity
  8
0
100
AcDbLine
 10
300.8041204525993
 20
71.39259120332804
 30
0.0
 11
272.7557396484439
 21
70.94019796454245
 31
0.0
  0
LINE
  5
223C
330
2
100
AcDbEntity
  8
0
100
AcDbLine
 10
300.8041204525993
 20
133.4878047257573
 30
0.0
 11
272.7557396484439
 21
133.9401979645429
 31
0.0
  0
LINE
  5
223D
330
2
100
AcDbEntity
  8
CENTER
100
AcDbLine
 10
229.7557396484403
 20
102.4401979645426
 30
0.0
 11
344.7557396484439
 21
102.4401979645426
 31
0.0
  0
LINE
  5
223E
330
2
100
AcDbEntity
  8
0
100
AcDbLine
 10
237.7557396484403
 20
79.44019796454222
 30
0.0
 11
237.7557396484403
 21
125.4401979645435
 31
0.0
  0
LINE
  5
223F
330
2
100
AcDbEntity
  8
0
100
AcDbLine
 10
241.4557396484401
 20
124.1901979645463
 30
0.0
 11
241.4557396484401
 21
80.69019796453904
 31
0.0
  0
LINE
  5
2240
330
2
100
AcDbEntity
  8
0
100
AcDbLine
 10
247.2557396484021
 20
72.19019796453904
 30
0.0
 11
247.2557396484349
 21
132.6901979645463
 31
0.0
  0
LINE
  5
2241
330
2
100
AcDbEntity
  8
0
100
AcDbLine
 10
241.2557396484376
 20
80.69019796453904
 30
0.0
 11
241.2557396484376
 21
124.1901979645463
 31
0.0
  0
LINE
  5
2242
330
2
100
AcDbEntity
  8
0
100
AcDbLine
 10
239.2557396484403
 20
79.64019796454249
 30
0.0
 11
239.2557396484403
 21
125.2401979645433
 31
0.0
  0
LINE
  5
2243
330
2
100
AcDbEntity
  8
0
100
AcDbLine
 10
244.7557396484357
 20
124.1901979645463
 30
0.0
 11
244.7557396484403
 21
80.69019796453904
 31
0.0
  0
LINE
  5
2244
330
2
100
AcDbEntity
  8
0
100
AcDbLine
 10
236.7557396484403
 20
80.01754823373152
 30
0.0
 11
236.7557396484403
 21
124.8628476953538
 31
0.0
  0
LINE
  5
2245
330
2
100
AcDbEntity
  8
0
100
AcDbLine
 10
253.7557396484403
 20
71.44456139844078
 30
0.0
 11
253.7557396484403
 21
133.4358345306727
 31
0.0
  0
LINE
  5
2246
330
2
100
AcDbEntity
  8
0
100
AcDbLine
 10
244.7073588442886
 20
71.39259120332804
 30
0.0
 11
272.7557396484439
 21
70.94019796454245
 31
0.0
  0
LINE
  5
2247
330
2
100
AcDbEntity
  8
HIDS
100
AcDbLine
 10
240.9557396484374
 20
80.14019796454249
 30
0.0
 11
241.0557396484405
 21
80.14019796454249
 31
0.0
  0
LINE
  5
2248
330
2
100
AcDbEntity
  8
HIDS
100
AcDbLine
 10
244.7557396484403
 20
80.69019796453904
 30
0.0
 11
244.7557396484403
 21
77.44019796454313
 31
0.0
  0
LINE
  5
2249
330
2
100
AcDbEntity
  8
0
100
AcDbLine
 10
240.9557396484374
 20
80.1705827222686
 30
0.0
 11
240.9557396484374
 21
72.70981320680994
 31
0.0
  0
LINE
  5
224A
330
2
100
AcDbEntity
  8
0
100
AcDbLine
 10
241.2557396484376
 20
72.19019796453904
 30
0.0
 11
240.9557396484374
 21
72.70981320680994
 31
0.0
  0
LINE
  5
224B
330
2
100
AcDbEntity
  8
0
100
AcDbLine
 10
241.2557396484376
 20
80.69019796453904
 30
0.0
 11
240.9557396484374
 21
80.1705827222686
 31
0.0
  0
LINE
  5
224C
330
2
100
AcDbEntity
  8
0
100
AcDbLine
 10
241.2557396484376
 20
80.69019796453904
 30
0.0
 11
241.2557396484376
 21
72.19019796453904
 31
0.0
  0
LINE
  5
224D
330
2
100
AcDbEntity
  8
0
100
AcDbLine
 10
245.9557396484374
 20
80.69019796453904
 30
0.0
 11
245.9557396484374
 21
72.19019796453904
 31
0.0
  0
LINE
  5
224E
330
2
100
AcDbEntity
  8
0
100
AcDbLine
 10
241.2557396484376
 20
80.69019796453904
 30
0.0
 11
247.2557396484376
 21
80.69019796453904
 31
0.0
  0
LINE
  5
224F
330
2
100
AcDbEntity
  8
0
100
AcDbLine
 10
241.2557396484376
 20
72.19019796453904
 30
0.0
 11
247.2557396484021
 21
72.19019796453904
 31
0.0
  0
LINE
  5
2250
330
2
100
AcDbEntity
  8
CENTER
  6
CENS
100
AcDbLine
 10
258.9536941251249
 20
76.44019796453903
 30
0.0
 11
237.9557396484374
 21
76.44019796453903
 31
0.0
  0
LINE
  5
2251
330
2
100
AcDbEntity
  8
0
100
AcDbLine
 10
253.7557396484403
 20
86.45896323598663
 30
0.0
 11
248.2557396484376
 21
86.45896323598663
 31
0.0
  0
LINE
  5
2252
330
2
100
AcDbEntity
  8
0
100
AcDbLine
 10
253.7557396484403
 20
77.44019796454131
 30
0.0
 11
248.2557396484376
 21
77.44019796454131
 31
0.0
  0
LINE
  5
2253
330
2
100
AcDbEntity
  8
0
100
AcDbLine
 10
253.7557396484403
 20
74.44019796453858
 30
0.0
 11
248.2557396484376
 21
74.44019796453858
 31
0.0
  0
ARC
  5
2254
330
2
100
AcDbEntity
  8
HIDS
100
AcDbCircle
 10
245.2557396484349
 20
74.11177083980374
 30
0.0
 40
2.0
100
AcDbArc
 50
0.0000000000521102
 51
45.00000000000806
  0
LINE
  5
2255
330
2
100
AcDbEntity
  8
HIDS
100
AcDbLine
 10
246.6699532108072
 20
75.52598440217707
 30
0.0
 11
244.7557396484403
 21
77.44019796454267
 31
0.0
  0
ARC
  5
2256
330
2
100
AcDbEntity
  8
0
100
AcDbCircle
 10
248.2557396484021
 20
72.48823381577768
 30
0.0
 40
1.0
100
AcDbArc
 50
179.9999999999739
 51
269.4999999999824
  0
LINE
  5
2257
330
2
100
AcDbEntity
  8
0
100
AcDbLine
 10
253.7557396484403
 20
71.44019796454222
 30
0.0
 11
248.2470131129043
 21
71.48827189271333
 31
0.0
  0
ARC
  5
2258
330
2
100
AcDbEntity
  8
HIDS
100
AcDbCircle
 10
241.0557396484405
 20
79.94019796454245
 30
0.0
 40
0.2
100
AcDbArc
 50
0.0
 51
90.0
  0
ARC
  5
2259
330
2
100
AcDbEntity
  8
0
100
AcDbCircle
 10
239.4557396484401
 20
79.94019796454222
 30
0.0
 40
0.2
100
AcDbArc
 50
90.0
 51
180.0
  0
ARC
  5
225A
330
2
100
AcDbEntity
  8
0
100
AcDbCircle
 10
239.0557396484405
 20
79.64019796454249
 30
0.0
 40
0.2
100
AcDbArc
 50
270.0
 51
0.0
  0
LINE
  5
225B
330
2
100
AcDbEntity
  8
0
100
AcDbLine
 10
239.4557396484401
 20
80.14019796454226
 30
0.0
 11
240.9557396484374
 21
80.14019796454249
 31
0.0
  0
LINE
  5
225C
330
2
100
AcDbEntity
  8
0
100
AcDbLine
 10
237.7557396484403
 20
79.44019796454222
 30
0.0
 11
239.0557396484405
 21
79.44019796454222
 31
0.0
  0
LINE
  5
225D
330
2
100
AcDbEntity
  8
HIDS
100
AcDbLine
 10
241.2557396484403
 20
79.64019796454249
 30
0.0
 11
241.4557396484401
 21
79.44019796454267
 31
0.0
  0
LINE
  5
225E
330
2
100
AcDbEntity
  8
0
100
AcDbLine
 10
237.7557396484403
 20
79.44019796454222
 30
0.0
 11
236.7557396484403
 21
80.01754823373175
 31
0.0
  0
LINE
  5
225F
330
2
100
AcDbEntity
  8
HIDS
100
AcDbLine
 10
241.4557396484401
 20
79.44019796454267
 30
0.0
 11
244.7557396484403
 21
79.44019796454313
 31
0.0
  0
LINE
  5
2260
330
2
100
AcDbEntity
  8
HIDS
100
AcDbLine
 10
245.2557396484403
 20
76.94019796454313
 30
0.0
 11
244.7557396484403
 21
77.44019796454313
 31
0.0
  0
ARC
  5
2261
330
2
100
AcDbEntity
  8
0
100
AcDbCircle
 10
244.7557396484439
 20
74.39220106092466
 30
0.0
 40
3.0
100
AcDbArc
 50
227.2228718954012
 51
269.0759546471809
  0
ARC
  5
2262
330
2
100
AcDbEntity
  8
HIDS
100
AcDbCircle
 10
244.7557396484439
 20
74.39220106092466
 30
0.0
 40
3.0
100
AcDbArc
 50
180.0
 51
227.2228718954012
  0
LINE
  5
2263
330
2
100
AcDbEntity
  8
HIDS
100
AcDbLine
 10
241.7557396484439
 20
74.39220106092466
 30
0.0
 11
241.7557396484439
 21
79.44019796454267
 31
0.0
  0
LINE
  5
2264
330
2
100
AcDbEntity
  8
0
100
AcDbLine
 10
244.7073588442886
 20
133.4878047257573
 30
0.0
 11
272.7557396484439
 21
133.9401979645429
 31
0.0
  0
POINT
  5
2265
330
2
100
AcDbEntity
  8
0
100
AcDbPoint
 10
244.2557396484394
 20
102.4401979645426
 30
0.0
  0
LINE
  5
2266
330
2
100
AcDbEntity
  8
HIDS
100
AcDbLine
 10
240.9557396484374
 20
124.740197964543
 30
0.0
 11
241.0557396484405
 21
124.7401979645428
 31
0.0
  0
LINE
  5
2267
330
2
100
AcDbEntity
  8
HIDS
100
AcDbLine
 10
241.4557396484401
 20
125.4401979645431
 30
0.0
 11
241.4557396484401
 21
124.1901979645463
 31
0.0
  0
LINE
  5
2268
330
2
100
AcDbEntity
  8
HIDS
100
AcDbLine
 10
244.7557396484348
 20
127.4401979645367
 30
0.0
 11
244.7557396484357
 21
124.1901979645463
 31
0.0
  0
LINE
  5
2269
330
2
100
AcDbEntity
  8
0
100
AcDbLine
 10
240.9557396484374
 20
124.7098132068167
 30
0.0
 11
240.9557396484374
 21
132.1705827222754
 31
0.0
  0
LINE
  5
226A
330
2
100
AcDbEntity
  8
0
100
AcDbLine
 10
241.2557396484376
 20
132.6901979645463
 30
0.0
 11
240.9557396484374
 21
132.1705827222754
 31
0.0
  0
LINE
  5
226B
330
2
100
AcDbEntity
  8
0
100
AcDbLine
 10
241.2557396484376
 20
124.1901979645463
 30
0.0
 11
240.9557396484374
 21
124.7098132068167
 31
0.0
  0
LINE
  5
226C
330
2
100
AcDbEntity
  8
0
100
AcDbLine
 10
241.2557396484376
 20
124.1901979645463
 30
0.0
 11
241.2557396484376
 21
132.6901979645463
 31
0.0
  0
LINE
  5
226D
330
2
100
AcDbEntity
  8
0
100
AcDbLine
 10
245.9557396484374
 20
124.1901979645463
 30
0.0
 11
245.9557396484374
 21
132.6901979645463
 31
0.0
  0
LINE
  5
226E
330
2
100
AcDbEntity
  8
0
100
AcDbLine
 10
241.2557396484376
 20
124.1901979645463
 30
0.0
 11
247.2557396484376
 21
124.1901979645463
 31
0.0
  0
LINE
  5
226F
330
2
100
AcDbEntity
  8
0
100
AcDbLine
 10
241.2557396484376
 20
132.6901979645463
 30
0.0
 11
247.2557396484349
 21
132.6901979645463
 31
0.0
  0
LINE
  5
2270
330
2
100
AcDbEntity
  8
CENTER
  6
CENS
100
AcDbLine
 10
258.9536941251249
 20
128.4401979645463
 30
0.0
 11
237.9557396484374
 21
128.4401979645463
 31
0.0
  0
LINE
  5
2271
330
2
100
AcDbEntity
  8
0
100
AcDbLine
 10
253.7557396484403
 20
118.4214326930987
 30
0.0
 11
248.2557396484376
 21
118.4214326930987
 31
0.0
  0
LINE
  5
2272
330
2
100
AcDbEntity
  8
0
100
AcDbLine
 10
253.7557396484403
 20
127.440197964544
 30
0.0
 11
248.2557396484376
 21
127.440197964544
 31
0.0
  0
LINE
  5
2273
330
2
100
AcDbEntity
  8
0
100
AcDbLine
 10
253.7557396484403
 20
130.4401979645467
 30
0.0
 11
248.2557396484376
 21
130.4401979645467
 31
0.0
  0
ARC
  5
2274
330
2
100
AcDbEntity
  8
HIDS
100
AcDbCircle
 10
241.0557396484405
 20
124.9401979645431
 30
0.0
 40
0.2
100
AcDbArc
 50
270.0
 51
0.0
  0
ARC
  5
2275
330
2
100
AcDbEntity
  8
0
100
AcDbCircle
 10
239.4557396484401
 20
124.9401979645433
 30
0.0
 40
0.2
100
AcDbArc
 50
180.0
 51
270.0
  0
ARC
  5
2276
330
2
100
AcDbEntity
  8
0
100
AcDbCircle
 10
239.0557396484405
 20
125.2401979645433
 30
0.0
 40
0.2
100
AcDbArc
 50
0.0
 51
90.0
  0
ARC
  5
2277
330
2
100
AcDbEntity
  8
HIDS
100
AcDbCircle
 10
245.2557396484349
 20
130.7686250892816
 30
0.0
 40
2.0
100
AcDbArc
 50
314.9999999999919
 51
359.9999999999739
  0
ARC
  5
2278
330
2
100
AcDbEntity
  8
0
100
AcDbCircle
 10
248.2557396484358
 20
132.3921622794605
 30
0.0
 40
1.0
100
AcDbArc
 50
90.50000000001761
 51
179.9999999999739
  0
LINE
  5
2279
330
2
100
AcDbEntity
  8
HIDS
100
AcDbLine
 10
246.6699532108072
 20
129.3544115269082
 30
0.0
 11
244.7557396484348
 21
127.4401979645367
 31
0.0
  0
LINE
  5
227A
330
2
100
AcDbEntity
  8
0
100
AcDbLine
 10
237.7557396484403
 20
125.4401979645435
 30
0.0
 11
239.0557396484405
 21
125.4401979645431
 31
0.0
  0
LINE
  5
227B
330
2
100
AcDbEntity
  8
0
100
AcDbLine
 10
237.7557396484403
 20
125.4401979645435
 30
0.0
 11
236.7557396484403
 21
124.862847695354
 31
0.0
  0
LINE
  5
227C
330
2
100
AcDbEntity
  8
HIDS
100
AcDbLine
 10
241.2557396484403
 20
125.2401979645428
 30
0.0
 11
241.4557396484401
 21
125.4401979645431
 31
0.0
  0
LINE
  5
227D
330
2
100
AcDbEntity
  8
0
100
AcDbLine
 10
239.4557396484401
 20
124.7401979645433
 30
0.0
 11
240.9557396484374
 21
124.740197964543
 31
0.0
  0
LINE
  5
227E
330
2
100
AcDbEntity
  8
HIDS
100
AcDbLine
 10
241.4557396484401
 20
125.4401979645431
 30
0.0
 11
244.7557396484403
 21
125.4401979645426
 31
0.0
  0
LINE
  5
227F
330
2
100
AcDbEntity
  8
0
100
AcDbLine
 10
253.7557015707802
 20
133.4401977983966
 30
0.0
 11
248.2559109939243
 21
133.3922018531557
 31
0.0
  0
ARC
  5
2280
330
2
100
AcDbEntity
  8
HIDS
100
AcDbCircle
 10
244.7557396484439
 20
130.4881948681607
 30
0.0
 40
3.0
100
AcDbArc
 50
132.7771281045284
 51
180.0
  0
ARC
  5
2281
330
2
100
AcDbEntity
  8
0
100
AcDbCircle
 10
244.7557396484439
 20
130.4881948681607
 30
0.0
 40
3.0
100
AcDbArc
 50
90.924045352819
 51
132.7771281045284
  0
LINE
  5
2282
330
2
100
AcDbEntity
  8
HIDS
100
AcDbLine
 10
241.7557396484439
 20
125.4401979645431
 30
0.0
 11
241.7557396484439
 21
130.4881948681607
 31
0.0
  0
LINE
  5
2283
330
2
100
AcDbEntity
  8
0
100
AcDbLine
 10
315.7557396484457
 20
82.37157551415384
 30
0.0
 11
315.7557396484457
 21
122.5088204149342
 31
0.0
  0
LINE
  5
2284
330
2
100
AcDbEntity
  8
0
100
AcDbLine
 10
305.755739648444
 20
71.8939950896638
 30
0.0
 11
305.755739648444
 21
132.9864003409593
 31
0.0
  0
LINE
  5
2285
330
2
100
AcDbEntity
  8
0
100
AcDbLine
 10
308.7557396484476
 20
127.440197964536
 30
0.0
 11
308.7557396484476
 21
77.44019796453608
 31
0.0
  0
ARC
  5
2286
330
2
100
AcDbEntity
  8
0
100
AcDbCircle
 10
313.7557396484248
 20
82.37157551415384
 30
0.0
 40
2.0
100
AcDbArc
 50
271.9999999999515
 51
359.9999999999478
  0
ARC
  5
2287
330
2
100
AcDbEntity
  8
0
100
AcDbCircle
 10
310.7557396484203
 20
78.26437502848785
 30
0.0
 40
2.0
100
AcDbArc
 50
91.99999999995153
 51
179.9999999999479
  0
LINE
  5
2288
330
2
100
AcDbEntity
  8
0
100
AcDbLine
 10
310.685940655017
 20
80.26315668252573
 30
0.0
 11
313.8255386418272
 21
80.37279386011688
 31
0.0
  0
ARC
  5
2289
330
2
100
AcDbEntity
  8
0
100
AcDbCircle
 10
300.7557396484439
 20
74.39220106092443
 30
0.0
 40
3.0
100
AcDbArc
 50
270.9240453527669
 51
302.7429559374904
  0
LINE
  5
228A
330
2
100
AcDbEntity
  8
0
100
AcDbLine
 10
305.7557396484476
 20
77.44019796453608
 30
0.0
 11
308.7557396484476
 21
77.44019796453608
 31
0.0
  0
ARC
  5
2297
330
2
100
AcDbEntity
  8
0
100
AcDbCircle
 10
313.7557396484457
 20
122.5088204149342
 30
0.0
 40
2.0
100
AcDbArc
 50
0.0
 51
87.99999999999633
  0
ARC
  5
2298
330
2
100
AcDbEntity
  8
0
100
AcDbCircle
 10
310.7557396484458
 20
126.6160209006038
 30
0.0
 40
2.0
100
AcDbArc
 50
180.0
 51
267.9999999999963
  0
LINE
  5
2299
330
2
100
AcDbEntity
  8
0
100
AcDbLine
 10
310.6859406550406
 20
124.6172392465659
 30
0.0
 11
313.8255386418509
 21
124.5076020689721
 31
0.0
  0
ARC
  5
229A
330
2
100
AcDbEntity
  8
0
100
AcDbCircle
 10
300.7557396484439
 20
130.4881948681607
 30
0.0
 40
3.0
100
AcDbArc
 50
57.25704406251043
 51
89.07595464718099
  0
LINE
  5
229B
330
2
100
AcDbEntity
  8
0
100
AcDbLine
 10
305.7557396484476
 20
127.440197964536
 30
0.0
 11
308.7557396484476
 21
127.440197964536
 31
0.0
  0
CIRCLE
  5
22A5
330
2
100
AcDbEntity
  8
0
100
AcDbCircle
 10
456.0337840950122
 20
102.4401979645483
 30
0.0
 40
22.0
  0
CIRCLE
  5
22A6
330
2
100
AcDbEntity
  8
0
100
AcDbCircle
 10
456.0337840950122
 20
102.4401979645483
 30
0.0
 40
18.0774
  0
ARC
  5
22A7
330
2
100
AcDbEntity
  8
0
100
AcDbCircle
 10
456.033784095014
 20
221.4401979645485
 30
0.0
 40
150.0
100
AcDbArc
 50
263.8840100189319
 51
276.115989981068
  0
ARC
  5
22A8
330
2
100
AcDbEntity
  8
0
100
AcDbCircle
 10
456.033784095014
 20
-16.55980203545144
 30
0.0
 40
150.0
100
AcDbArc
 50
83.88401001893191
 51
96.11598998106808
  0
CIRCLE
  5
22A9
330
2
100
AcDbEntity
  8
0
100
AcDbCircle
 10
456.0337840950131
 20
102.4401979645483
 30
0.0
 40
25.0
  0
CIRCLE
  5
22AA
330
2
100
AcDbEntity
  8
0
100
AcDbCircle
 10
456.0337840950131
 20
102.4401979645483
 30
0.0
 40
17.5
  0
ARC
  5
22AB
330
2
100
AcDbEntity
  8
0
100
AcDbCircle
 10
575.0337840950122
 20
102.4401979645467
 30
0.0
 40
150.0
100
AcDbArc
 50
173.8840100189319
 51
186.115989981068
  0
ARC
  5
22AC
330
2
100
AcDbEntity
  8
0
100
AcDbCircle
 10
431.0337840950122
 20
76.4401979645472
 30
0.0
 40
5.0
100
AcDbArc
 50
270.0
 51
285.9928477439961
  0
ARC
  5
22AD
330
2
100
AcDbEntity
  8
0
100
AcDbCircle
 10
437.9217180693211
 20
52.40779555518381
 30
0.0
 40
20.0
100
AcDbArc
 50
83.88401001893191
 51
105.9928477439961
  0
LINE
  5
22AE
330
2
100
AcDbEntity
  8
0
100
AcDbLine
 10
431.0337840950112
 20
71.44019796454855
 30
0.0
 11
428.0337840950113
 21
71.44019796454855
 31
0.0
  0
LINE
  5
22AF
330
2
100
AcDbEntity
  8
0
100
AcDbLine
 10
431.0337840950122
 20
71.4401979645472
 30
0.0
 11
428.0337840950122
 21
71.4401979645472
 31
0.0
  0
LINE
  5
22B0
330
2
100
AcDbEntity
  8
0
100
AcDbLine
 10
431.033784095014
 20
71.44019796454537
 30
0.0
 11
428.033784095014
 21
71.44019796454561
 31
0.0
  0
LINE
  5
22B1
330
2
100
AcDbEntity
  8
0
100
AcDbLine
 10
431.0337840950122
 20
71.4401979645472
 30
0.0
 11
428.0337840950122
 21
71.4401979645472
 31
0.0
  0
ARC
  5
22B2
330
2
100
AcDbEntity
  8
0
100
AcDbCircle
 10
430.0337840950121
 20
77.44019796454719
 30
0.0
 40
5.0
100
AcDbArc
 50
164.0071522559781
 51
180.0
  0
LINE
  5
22B3
330
2
100
AcDbEntity
  8
0
100
AcDbLine
 10
425.0337840950113
 20
77.44019796454856
 30
0.0
 11
425.0337840950113
 21
74.44019796454856
 31
0.0
  0
ARC
  5
22B4
330
2
100
AcDbEntity
  8
0
100
AcDbCircle
 10
406.0013816856497
 20
84.32813193885497
 30
0.0
 40
20.0
100
AcDbArc
 50
344.007152255978
 51
6.115989981068083
  0
LINE
  5
22B5
330
2
100
AcDbEntity
  8
CENTER
100
AcDbLine
 10
429.1637264099234
 20
82.07014027945977
 30
0.0
 11
429.1637264099234
 21
69.07014027945976
 31
0.0
  0
ARC
  5
22B6
330
2
100
AcDbEntity
  8
0
100
AcDbCircle
 10
428.0337840950131
 20
74.4401979645481
 30
0.0
 40
3.0
100
AcDbArc
 50
180.0
 51
270.0
  0
CIRCLE
  5
22B7
330
2
100
AcDbEntity
  8
HOJO
100
AcDbCircle
 10
429.1637264099243
 20
75.57014027945931
 30
0.0
 40
2.5
  0
CIRCLE
  5
22B8
330
2
100
AcDbEntity
  8
0
100
AcDbCircle
 10
429.1637264099243
 20
75.57014027945931
 30
0.0
 40
2.1
  0
LINE
  5
22B9
330
2
100
AcDbEntity
  8
CENTER
100
AcDbLine
 10
422.6637264099234
 20
75.57014027945976
 30
0.0
 11
435.6637264099234
 21
75.57014027945976
 31
0.0
  0
ARC
  5
22BA
330
2
100
AcDbEntity
  8
0
100
AcDbCircle
 10
431.0337840950122
 20
128.4401979645471
 30
0.0
 40
5.0
100
AcDbArc
 50
74.00715225600388
 51
90.0
  0
ARC
  5
22BB
330
2
100
AcDbEntity
  8
0
100
AcDbCircle
 10
437.9217180693211
 20
152.4726003739105
 30
0.0
 40
20.0
100
AcDbArc
 50
254.0071522560038
 51
276.115989981068
  0
LINE
  5
22BC
330
2
100
AcDbEntity
  8
0
100
AcDbLine
 10
431.0337840950122
 20
133.4401979645472
 30
0.0
 11
428.0337840950122
 21
133.4401979645472
 31
0.0
  0
LINE
  5
22BD
330
2
100
AcDbEntity
  8
0
100
AcDbLine
 10
431.033784095014
 20
133.4401979645485
 30
0.0
 11
428.033784095014
 21
133.4401979645485
 31
0.0
  0
LINE
  5
22BE
330
2
100
AcDbEntity
  8
0
100
AcDbLine
 10
425.0337840950122
 20
127.4401979645471
 30
0.0
 11
425.0337840950122
 21
130.4401979645471
 31
0.0
  0
LINE
  5
22BF
330
2
100
AcDbEntity
  8
0
100
AcDbLine
 10
425.033784095014
 20
127.4401979645485
 30
0.0
 11
425.033784095014
 21
130.4401979645485
 31
0.0
  0
LINE
  5
22C0
330
2
100
AcDbEntity
  8
0
100
AcDbLine
 10
425.0337840950113
 20
127.4401979645458
 30
0.0
 11
425.0337840950113
 21
130.4401979645458
 31
0.0
  0
LINE
  5
22C1
330
2
100
AcDbEntity
  8
0
100
AcDbLine
 10
425.0337840950122
 20
127.4401979645471
 30
0.0
 11
425.0337840950122
 21
130.4401979645471
 31
0.0
  0
ARC
  5
22C2
330
2
100
AcDbEntity
  8
0
100
AcDbCircle
 10
430.0337840950121
 20
127.4401979645469
 30
0.0
 40
5.0
100
AcDbArc
 50
180.0
 51
195.9928477440218
  0
ARC
  5
22C3
330
2
100
AcDbEntity
  8
0
100
AcDbCircle
 10
406.0013816856497
 20
120.5522639902391
 30
0.0
 40
20.0
100
AcDbArc
 50
353.8840100189319
 51
15.99284774402184
  0
ARC
  5
22C4
330
2
100
AcDbEntity
  8
0
100
AcDbCircle
 10
428.0337840950131
 20
130.4401979645483
 30
0.0
 40
3.0
100
AcDbArc
 50
90.0
 51
180.0
  0
CIRCLE
  5
22C5
330
2
100
AcDbEntity
  8
HOJO
100
AcDbCircle
 10
429.1637264099243
 20
129.3102556496368
 30
0.0
 40
2.5
  0
CIRCLE
  5
22C6
330
2
100
AcDbEntity
  8
0
100
AcDbCircle
 10
429.1637264099243
 20
129.3102556496368
 30
0.0
 40
2.1
  0
LINE
  5
22C7
330
2
100
AcDbEntity
  8
CENTER
100
AcDbLine
 10
435.6637264099243
 20
129.3102556496373
 30
0.0
 11
422.6637264099243
 21
129.3102556496373
 31
0.0
  0
LINE
  5
22C8
330
2
100
AcDbEntity
  8
0
100
AcDbLine
 10
501.5337840950158
 20
125.4401979638273
 30
0.0
 11
501.5337840950158
 21
79.44019796526138
 31
0.0
  0
LINE
  5
22C9
330
2
100
AcDbEntity
  8
0
100
AcDbLine
 10
513.0337840950176
 20
131.9401979645481
 30
0.0
 11
513.0337840950176
 21
72.94019796454856
 31
0.0
  0
LINE
  5
22CB
330
2
100
AcDbEntity
  8
0
100
AcDbLine
 10
487.0337840950122
 20
74.4401979645481
 30
0.0
 11
487.0337840950167
 21
130.4401979645481
 31
0.0
  0
ARC
  5
22CC
330
2
100
AcDbEntity
  8
0
100
AcDbCircle
 10
490.033784095014
 20
75.44019796526161
 30
0.0
 40
3.0
100
AcDbArc
 50
90.0
 51
180.0
  0
ARC
  5
22CD
330
2
100
AcDbEntity
  8
0
100
AcDbCircle
 10
490.0337840950131
 20
79.4401979645481
 30
0.0
 40
3.0
100
AcDbArc
 50
90.0
 51
180.0
  0
LINE
  5
22CE
330
2
100
AcDbEntity
  8
CENTER
100
AcDbLine
 10
476.4038417801018
 20
75.57014027945931
 30
0.0
 11
489.4038417801019
 21
75.57014027945931
 31
0.0
  0
ARC
  5
22CF
330
2
100
AcDbEntity
  8
0
100
AcDbCircle
 10
481.0337840950122
 20
76.4401979645472
 30
0.0
 40
5.0
100
AcDbArc
 50
254.0071522560038
 51
270.0
  0
LINE
  5
22D0
330
2
100
AcDbEntity
  8
0
100
AcDbLine
 10
481.0337840950112
 20
71.44019796454561
 30
0.0
 11
484.0337840950112
 21
71.44019796454561
 31
0.0
  0
ARC
  5
22D1
330
2
100
AcDbEntity
  8
0
100
AcDbCircle
 10
474.1458501207051
 20
52.40779555518381
 30
0.0
 40
20.0
100
AcDbArc
 50
74.00715225600388
 51
96.11598998106808
  0
CIRCLE
  5
22D2
330
2
100
AcDbEntity
  8
HOJO
100
AcDbCircle
 10
482.9038417801019
 20
75.57014027945953
 30
0.0
 40
2.5
  0
CIRCLE
  5
22D3
330
2
100
AcDbEntity
  8
0
100
AcDbCircle
 10
482.9038417801019
 20
75.57014027945953
 30
0.0
 40
2.1
  0
ARC
  5
22D4
330
2
100
AcDbEntity
  8
0
100
AcDbCircle
 10
484.0337840950131
 20
74.44019796454856
 30
0.0
 40
3.0
100
AcDbArc
 50
270.0
 51
0.0000000068264372
  0
LINE
  5
22D5
330
2
100
AcDbEntity
  8
CENTER
100
AcDbLine
 10
482.9038417801019
 20
69.07014027945931
 30
0.0
 11
482.9038417801019
 21
82.0701402794593
 31
0.0
  0
ARC
  5
22D6
330
2
100
AcDbEntity
  8
0
100
AcDbCircle
 10
515.0337840950176
 20
72.94019796454856
 30
0.0
 40
2.0
100
AcDbArc
 50
180.0
 51
270.0
  0
LINE
  5
22D7
330
2
100
AcDbEntity
  8
0
100
AcDbLine
 10
521.0337840950194
 20
70.94019796454901
 30
0.0
 11
515.0337840950176
 21
70.94019796454856
 31
0.0
  0
ARC
  5
22D8
330
2
100
AcDbEntity
  8
0
100
AcDbCircle
 10
500.5337840950231
 20
75.44019796526161
 30
0.0
 40
3.0
100
AcDbArc
 50
53.1301023542602
 51
90.0
  0
LINE
  5
22D9
330
2
100
AcDbEntity
  8
0
100
AcDbLine
 10
490.033784095014
 20
78.4401979652616
 30
0.0
 11
500.5337840950231
 21
78.4401979652616
 31
0.0
  0
LINE
  5
22DA
330
2
100
AcDbEntity
  8
0
100
AcDbLine
 10
503.5337840950158
 20
77.44019796526138
 30
0.0
 11
510.0337840950176
 21
77.44019796526115
 31
0.0
  0
ARC
  5
22DB
330
2
100
AcDbEntity
  8
0
100
AcDbCircle
 10
510.0337840950176
 20
74.44019796526115
 30
0.0
 40
3.0
100
AcDbArc
 50
0.0
 51
90.0
  0
LINE
  5
22DC
330
2
100
AcDbEntity
  8
0
100
AcDbLine
 10
501.5337840950158
 20
79.4401979645481
 30
0.0
 11
501.5337840950158
 21
79.44019796526138
 31
0.0
  0
ARC
  5
22DD
330
2
100
AcDbEntity
  8
0
100
AcDbCircle
 10
503.5337840950158
 20
79.44019796526138
 30
0.0
 40
2.0
100
AcDbArc
 50
180.0
 51
270.0
  0
ARC
  5
22DE
330
2
100
AcDbEntity
  8
0
100
AcDbCircle
 10
498.5337840950158
 20
79.4401979645481
 30
0.0
 40
3.0
100
AcDbArc
 50
0.0
 51
90.0
  0
LINE
  5
22DF
330
2
100
AcDbEntity
  8
0
100
AcDbLine
 10
490.0337840950131
 20
82.44019796454811
 30
0.0
 11
498.5337840950158
 21
82.44019796454811
 31
0.0
  0
ARC
  5
22E0
330
2
100
AcDbEntity
  8
0
100
AcDbCircle
 10
515.0337840950176
 20
73.44019796454856
 30
0.0
 40
2.0
100
AcDbArc
 50
180.0
 51
270.0
  0
LINE
  5
22E1
330
2
100
AcDbEntity
  8
0
100
AcDbLine
 10
521.0337840950194
 20
71.44019796454902
 30
0.0
 11
515.0337840950176
 21
71.44019796454855
 31
0.0
  0
ARC
  5
22E2
330
2
100
AcDbEntity
  8
0
100
AcDbCircle
 10
490.033784095014
 20
129.440197963835
 30
0.0
 40
3.0
100
AcDbArc
 50
180.0
 51
270.0
  0
ARC
  5
22E3
330
2
100
AcDbEntity
  8
0
100
AcDbCircle
 10
490.0337840950149
 20
97.44019796454811
 30
0.0
 40
3.0
100
AcDbArc
 50
90.0
 51
180.0
  0
ARC
  5
22E4
330
2
100
AcDbEntity
  8
0
100
AcDbCircle
 10
490.0337840950149
 20
107.4401979645481
 30
0.0
 40
3.0
100
AcDbArc
 50
180.0
 51
270.0
  0
ARC
  5
22E5
330
2
100
AcDbEntity
  8
0
100
AcDbCircle
 10
490.0337840950131
 20
125.4401979645481
 30
0.0
 40
3.0
100
AcDbArc
 50
180.0
 51
270.0
  0
LINE
  5
22E6
330
2
100
AcDbEntity
  8
CENTER
100
AcDbLine
 10
489.4038417801019
 20
129.3102556496368
 30
0.0
 11
476.4038417801018
 21
129.3102556496368
 31
0.0
  0
ARC
  5
22E7
330
2
100
AcDbEntity
  8
0
100
AcDbCircle
 10
481.0337840950122
 20
128.4401979645471
 30
0.0
 40
5.0
100
AcDbArc
 50
90.0
 51
105.9928477439961
  0
LINE
  5
22E8
330
2
100
AcDbEntity
  8
0
100
AcDbLine
 10
481.0337840950122
 20
133.4401979645472
 30
0.0
 11
484.0337840950121
 21
133.4401979645472
 31
0.0
  0
LINE
  5
22E9
330
2
100
AcDbEntity
  8
0
100
AcDbLine
 10
481.0337840950112
 20
133.4401979645485
 30
0.0
 11
484.0337840950112
 21
133.4401979645485
 31
0.0
  0
LINE
  5
22EA
330
2
100
AcDbEntity
  8
0
100
AcDbLine
 10
481.033784095014
 20
133.4401979645456
 30
0.0
 11
484.033784095014
 21
133.4401979645453
 31
0.0
  0
LINE
  5
22EB
330
2
100
AcDbEntity
  8
0
100
AcDbLine
 10
481.0337840950131
 20
133.4401979645472
 30
0.0
 11
484.0337840950121
 21
133.4401979645469
 31
0.0
  0
ARC
  5
22EC
330
2
100
AcDbEntity
  8
0
100
AcDbCircle
 10
474.1458501207051
 20
152.4726003739105
 30
0.0
 40
20.0
100
AcDbArc
 50
263.8840100189319
 51
285.9928477439961
  0
CIRCLE
  5
22ED
330
2
100
AcDbEntity
  8
0
100
AcDbCircle
 10
482.9038417801019
 20
129.3102556496371
 30
0.0
 40
2.1
  0
CIRCLE
  5
22EE
330
2
100
AcDbEntity
  8
HOJO
100
AcDbCircle
 10
482.9038417801019
 20
129.3102556496371
 30
0.0
 40
2.5
  0
ARC
  5
22EF
330
2
100
AcDbEntity
  8
0
100
AcDbCircle
 10
484.0337840950131
 20
130.4401979645481
 30
0.0
 40
3.0
100
AcDbArc
 50
359.9999999931214
 51
90.0
  0
LINE
  5
22F0
330
2
100
AcDbEntity
  8
0
100
AcDbLine
 10
521.0337840950158
 20
133.9401979645481
 30
0.0
 11
515.0337840950176
 21
133.9401979645481
 31
0.0
  0
ARC
  5
22F1
330
2
100
AcDbEntity
  8
0
100
AcDbCircle
 10
515.0337840950176
 20
131.9401979645481
 30
0.0
 40
2.0
100
AcDbArc
 50
90.0
 51
180.0
  0
ARC
  5
22F2
330
2
100
AcDbEntity
  8
0
100
AcDbCircle
 10
500.5337840950231
 20
129.440197963835
 30
0.0
 40
3.0
100
AcDbArc
 50
270.0
 51
306.8698976456909
  0
LINE
  5
22F3
330
2
100
AcDbEntity
  8
0
100
AcDbLine
 10
490.033784095014
 20
126.440197963835
 30
0.0
 11
500.5337840950231
 21
126.440197963835
 31
0.0
  0
ARC
  5
22F4
330
2
100
AcDbEntity
  8
0
100
AcDbCircle
 10
498.5337840950158
 20
97.44019796454811
 30
0.0
 40
3.0
100
AcDbArc
 50
0.0
 51
90.0
  0
LINE
  5
22F5
330
2
100
AcDbEntity
  8
0
100
AcDbLine
 10
490.0337840950149
 20
100.4401979645481
 30
0.0
 11
498.5337840950158
 21
100.4401979645481
 31
0.0
  0
ARC
  5
22F6
330
2
100
AcDbEntity
  8
0
100
AcDbCircle
 10
498.5337840950158
 20
107.4401979645481
 30
0.0
 40
3.0
100
AcDbArc
 50
270.0
 51
0.0
  0
ARC
  5
22F7
330
2
100
AcDbEntity
  8
0
100
AcDbCircle
 10
510.0337840950176
 20
130.4401979638273
 30
0.0
 40
3.0
100
AcDbArc
 50
270.0
 51
0.0
  0
LINE
  5
22F8
330
2
100
AcDbEntity
  8
0
100
AcDbLine
 10
503.5337840950158
 20
127.4401979638273
 30
0.0
 11
510.0337840950176
 21
127.4401979638273
 31
0.0
  0
ARC
  5
22F9
330
2
100
AcDbEntity
  8
0
100
AcDbCircle
 10
503.5337840950158
 20
125.4401979638273
 30
0.0
 40
2.0
100
AcDbArc
 50
90.0
 51
180.0
  0
ARC
  5
22FA
330
2
100
AcDbEntity
  8
0
100
AcDbCircle
 10
498.5337840950158
 20
125.4401979645481
 30
0.0
 40
3.0
100
AcDbArc
 50
270.0
 51
0.0
  0
LINE
  5
22FB
330
2
100
AcDbEntity
  8
0
100
AcDbLine
 10
490.0337840950131
 20
122.4401979645481
 30
0.0
 11
498.5337840950158
 21
122.4401979645481
 31
0.0
  0
LINE
  5
22FC
330
2
100
AcDbEntity
  8
0
100
AcDbLine
 10
490.0337840950149
 20
104.4401979645481
 30
0.0
 11
498.5337840950158
 21
104.4401979645481
 31
0.0
  0
LINE
  5
22FD
330
2
100
AcDbEntity
  8
0
100
AcDbLine
 10
521.0337840950158
 20
133.4401979645481
 30
0.0
 11
515.0337840950176
 21
133.4401979645481
 31
0.0
  0
ARC
  5
22FE
330
2
100
AcDbEntity
  8
0
100
AcDbCircle
 10
515.0337840950176
 20
131.4401979645481
 30
0.0
 40
2.0
100
AcDbArc
 50
90.0
 51
180.0
  0
LINE
  5
235A
330
2
100
AcDbEntity
  8
0
100
AcDbLine
 10
438.9651616446123
 20
261.5176682526008
 30
0.0
 11
479.1024065453918
 21
261.5176682526005
 31
0.0
  0
LINE
  5
235B
330
2
100
AcDbEntity
  8
0
100
AcDbLine
 10
484.0337840934713
 20
268.5176682548274
 30
0.0
 11
434.0337840934713
 21
268.5176682548274
 31
0.0
  0
LINE
  5
235C
330
2
100
AcDbEntity
  8
0
100
AcDbLine
 10
428.4875812185715
 20
271.5176682548277
 30
0.0
 11
489.5757974581593
 21
271.5176682548274
 31
0.0
  0
ARC
  5
2361
330
2
100
AcDbEntity
  8
0
100
AcDbCircle
 10
438.9651616446123
 20
263.5176682526223
 30
0.0
 40
2.0
100
AcDbArc
 50
181.9999999999514
 51
269.9999999999478
  0
ARC
  5
2362
330
2
100
AcDbEntity
  8
0
100
AcDbCircle
 10
434.8579611589453
 20
266.5176682526265
 30
0.0
 40
2.0
100
AcDbArc
 50
1.999999999951419
 51
89.99999999994789
  0
LINE
  5
2363
330
2
100
AcDbEntity
  8
0
100
AcDbLine
 10
436.8567428129832
 20
266.5874672460293
 30
0.0
 11
436.9663799905744
 21
263.4478692592195
 31
0.0
  0
LINE
  5
2364
330
2
100
AcDbEntity
  8
0
100
AcDbLine
 10
434.0337840934713
 20
271.5176682548274
 30
0.0
 11
434.0337840934713
 21
268.5176682548274
 31
0.0
  0
ARC
  5
2369
330
2
100
AcDbEntity
  8
0
100
AcDbCircle
 10
479.1024065453918
 20
263.5176682526008
 30
0.0
 40
2.0
100
AcDbArc
 50
270.0
 51
357.9999999999962
  0
ARC
  5
236A
330
2
100
AcDbEntity
  8
0
100
AcDbCircle
 10
483.2096070310623
 20
266.5176682526007
 30
0.0
 40
2.0
100
AcDbArc
 50
90.0
 51
177.9999999999962
  0
LINE
  5
236B
330
2
100
AcDbEntity
  8
0
100
AcDbLine
 10
481.2108253770244
 20
266.5874672460057
 30
0.0
 11
481.1011881994296
 21
263.4478692591958
 31
0.0
  0
LINE
  5
236C
330
2
100
AcDbEntity
  8
0
100
AcDbLine
 10
484.0337840934713
 20
271.5176682548277
 30
0.0
 11
484.0337840934713
 21
268.5176682548274
 31
0.0
  0
LINE
  5
236E
330
2
100
AcDbEntity
  8
CENTER
100
AcDbLine
 10
459.0337840950065
 20
347.5176682526024
 30
0.0
 11
459.0337840950061
 21
232.5176682526009
 31
0.0
  0
LINE
  5
236F
330
2
100
AcDbEntity
  8
0
100
AcDbLine
 10
436.0337840950056
 20
339.5176682526019
 30
0.0
 11
482.0337840950075
 21
339.5176682526019
 31
0.0
  0
LINE
  5
2370
330
2
100
AcDbEntity
  8
0
100
AcDbLine
 10
480.7837840950092
 20
335.817668252602
 30
0.0
 11
437.283784095002
 21
335.817668252602
 31
0.0
  0
LINE
  5
2371
330
2
100
AcDbEntity
  8
0
100
AcDbLine
 10
428.783784095002
 20
330.01766825264
 30
0.0
 11
489.2837840950092
 21
330.0176682526068
 31
0.0
  0
LINE
  5
2372
330
2
100
AcDbEntity
  8
0
100
AcDbLine
 10
437.283784095002
 20
336.0176682526048
 30
0.0
 11
480.7837840950092
 21
336.0176682526048
 31
0.0
  0
LINE
  5
2373
330
2
100
AcDbEntity
  8
0
100
AcDbLine
 10
436.2337840950064
 20
338.0176682526021
 30
0.0
 11
481.8337840950067
 21
338.0176682526021
 31
0.0
  0
LINE
  5
2374
330
2
100
AcDbEntity
  8
0
100
AcDbLine
 10
480.7837840950092
 20
332.5176682526068
 30
0.0
 11
437.283784095002
 21
332.517668252602
 31
0.0
  0
LINE
  5
2375
330
2
100
AcDbEntity
  8
0
100
AcDbLine
 10
436.6111343641947
 20
340.5176682526023
 30
0.0
 11
481.4564338258175
 21
340.5176682526023
 31
0.0
  0
LINE
  5
2376
330
2
100
AcDbEntity
  8
0
100
AcDbLine
 10
428.0381475289037
 20
323.5176682526016
 30
0.0
 11
489.6979736069821
 21
323.5176682526016
 31
0.0
  0
LINE
  5
2377
330
2
100
AcDbEntity
  8
0
100
AcDbLine
 10
431.0337840950056
 20
323.5176682526018
 30
0.0
 11
431.0337840950056
 21
273.0176492141329
 31
0.0
  0
LINE
  5
2378
330
2
100
AcDbEntity
  8
0
100
AcDbLine
 10
434.0337840950057
 20
323.5176682526018
 30
0.0
 11
434.0337840950057
 21
273.0176492141329
 31
0.0
  0
LINE
  5
2379
330
2
100
AcDbEntity
  8
0
100
AcDbLine
 10
443.0525493664596
 20
323.5176682526018
 30
0.0
 11
443.0525493664596
 21
273.0176492141329
 31
0.0
  0
LINE
  5
237A
330
2
100
AcDbEntity
  8
0
100
AcDbLine
 10
428.0337840934713
 20
323.5176682526018
 30
0.0
 11
428.4875812185715
 21
271.5176682548277
 31
0.0
  0
LINE
  5
237B
330
2
100
AcDbEntity
  8
CENTER
  6
CENS
100
AcDbLine
 10
433.033784095002
 20
318.3197137759195
 30
0.0
 11
433.033784095002
 21
339.3176682526075
 31
0.0
  0
LINE
  5
237C
330
2
100
AcDbEntity
  8
HIDS
100
AcDbLine
 10
436.7337840950064
 20
336.317668252605
 30
0.0
 11
436.7337840950064
 21
336.2176682526021
 31
0.0
  0
LINE
  5
237D
330
2
100
AcDbEntity
  8
HIDS
100
AcDbLine
 10
437.283784095002
 20
332.517668252602
 30
0.0
 11
434.0337840950065
 21
332.5176682526016
 31
0.0
  0
LINE
  5
237E
330
2
100
AcDbEntity
  8
0
100
AcDbLine
 10
436.7641688527315
 20
336.317668252605
 30
0.0
 11
429.3033993372733
 21
336.317668252605
 31
0.0
  0
LINE
  5
237F
330
2
100
AcDbEntity
  8
0
100
AcDbLine
 10
428.783784095002
 20
336.0176682526048
 30
0.0
 11
429.3033993372733
 21
336.317668252605
 31
0.0
  0
LINE
  5
2380
330
2
100
AcDbEntity
  8
0
100
AcDbLine
 10
437.283784095002
 20
336.0176682526048
 30
0.0
 11
436.7641688527315
 21
336.317668252605
 31
0.0
  0
LINE
  5
2381
330
2
100
AcDbEntity
  8
0
100
AcDbLine
 10
437.283784095002
 20
336.0176682526048
 30
0.0
 11
428.783784095002
 21
336.0176682526048
 31
0.0
  0
LINE
  5
2382
330
2
100
AcDbEntity
  8
0
100
AcDbLine
 10
437.283784095002
 20
331.317668252605
 30
0.0
 11
428.783784095002
 21
331.317668252605
 31
0.0
  0
LINE
  5
2383
330
2
100
AcDbEntity
  8
0
100
AcDbLine
 10
437.283784095002
 20
336.0176682526048
 30
0.0
 11
437.283784095002
 21
330.017668252605
 31
0.0
  0
LINE
  5
2384
330
2
100
AcDbEntity
  8
0
100
AcDbLine
 10
428.783784095002
 20
336.0176682526048
 30
0.0
 11
428.783784095002
 21
330.01766825264
 31
0.0
  0
LINE
  5
2385
330
2
100
AcDbEntity
  8
0
100
AcDbLine
 10
443.0525493664505
 20
323.5176682526016
 30
0.0
 11
443.0525493664505
 21
329.017668252605
 31
0.0
  0
LINE
  5
2386
330
2
100
AcDbEntity
  8
0
100
AcDbLine
 10
434.0337840950048
 20
323.5176682526016
 30
0.0
 11
434.0337840950048
 21
329.017668252605
 31
0.0
  0
LINE
  5
2387
330
2
100
AcDbEntity
  8
0
100
AcDbLine
 10
431.033784095002
 20
323.5176682526016
 30
0.0
 11
431.033784095002
 21
329.017668252605
 31
0.0
  0
ARC
  5
2388
330
2
100
AcDbEntity
  8
HIDS
100
AcDbCircle
 10
430.7053569702672
 20
332.017668252608
 30
0.0
 40
2.0
100
AcDbArc
 50
270.0000000000521
 51
315.0000000000265
  0
LINE
  5
2389
330
2
100
AcDbEntity
  8
HIDS
100
AcDbLine
 10
432.1195705326405
 20
330.6034546902351
 30
0.0
 11
434.0337840950057
 21
332.5176682526016
 31
0.0
  0
LINE
  5
238A
330
2
100
AcDbEntity
  8
0
100
AcDbLine
 10
428.0337840965399
 20
323.517668252595
 30
0.0
 11
428.0817800417813
 21
329.017458829451
 31
0.0
  0
ARC
  5
238B
330
2
100
AcDbEntity
  8
HIDS
100
AcDbCircle
 10
436.5337840950056
 20
336.2176682526021
 30
0.0
 40
0.2
100
AcDbArc
 50
270.0
 51
0.0
  0
ARC
  5
238C
330
2
100
AcDbEntity
  8
0
100
AcDbCircle
 10
436.5337840950056
 20
337.817668252602
 30
0.0
 40
0.2
100
AcDbArc
 50
0.0
 51
90.0
  0
ARC
  5
238D
330
2
100
AcDbEntity
  8
0
100
AcDbCircle
 10
436.2337840950064
 20
338.2176682526021
 30
0.0
 40
0.2
100
AcDbArc
 50
180.0
 51
270.0
  0
ARC
  5
238E
330
2
100
AcDbEntity
  8
0
100
AcDbCircle
 10
429.0818199477749
 20
329.0176682526396
 30
0.0
 40
1.0
100
AcDbArc
 50
89.99999999994789
 51
179.5000000000084
  0
LINE
  5
238F
330
2
100
AcDbEntity
  8
0
100
AcDbLine
 10
436.7337840950055
 20
337.8176682526023
 30
0.0
 11
436.7337840950064
 21
336.317668252605
 31
0.0
  0
LINE
  5
2390
330
2
100
AcDbEntity
  8
0
100
AcDbLine
 10
436.0337840950056
 20
339.5176682526023
 30
0.0
 11
436.0337840950056
 21
338.2176682526019
 31
0.0
  0
LINE
  5
2391
330
2
100
AcDbEntity
  8
HIDS
100
AcDbLine
 10
436.2337840950064
 20
336.0176682526021
 30
0.0
 11
436.0337840950056
 21
335.817668252602
 31
0.0
  0
LINE
  5
2392
330
2
100
AcDbEntity
  8
0
100
AcDbLine
 10
436.0337840950056
 20
339.5176682526019
 30
0.0
 11
436.6111343641956
 21
340.5176682526023
 31
0.0
  0
LINE
  5
2393
330
2
100
AcDbEntity
  8
HIDS
100
AcDbLine
 10
436.0337840950056
 20
335.817668252602
 30
0.0
 11
436.0337840950065
 21
332.5176682526018
 31
0.0
  0
LINE
  5
2394
330
2
100
AcDbEntity
  8
HIDS
100
AcDbLine
 10
433.5337840950066
 20
332.0176682526016
 30
0.0
 11
434.0337840950065
 21
332.5176682526016
 31
0.0
  0
ARC
  5
2395
330
2
100
AcDbEntity
  8
0
100
AcDbCircle
 10
501.0090372861083
 20
299.5176682526007
 30
0.0
 40
3.0
100
AcDbArc
 50
1.499999999989629
 51
90.0
  0
LINE
  5
2396
330
2
100
AcDbEntity
  8
0
100
AcDbLine
 10
475.0150188235353
 20
323.5176682526016
 30
0.0
 11
475.0150188235353
 21
273.0176492141329
 31
0.0
  0
LINE
  5
2397
330
2
100
AcDbEntity
  8
0
100
AcDbLine
 10
486.8636101730868
 20
304.5176682526007
 30
0.0
 11
486.8636101730868
 21
273.0176492141329
 31
0.0
  0
LINE
  5
2398
330
2
100
AcDbEntity
  8
0
100
AcDbLine
 10
484.0337840950129
 20
304.5176682526007
 30
0.0
 11
484.0337840950129
 21
273.0176492141329
 31
0.0
  0
LINE
  5
2399
330
2
100
AcDbEntity
  8
0
100
AcDbLine
 10
515.9827831868994
 20
275.4653143559854
 30
0.0
 11
515.222020526388
 21
304.5176682526007
 31
0.0
  0
LINE
  5
239A
330
2
100
AcDbEntity
  8
0
100
AcDbLine
 10
504.4827831868993
 20
281.4653143541334
 30
0.0
 11
503.8791360557366
 21
304.5176682526007
 31
0.0
  0
ARC
  5
239B
330
2
100
AcDbEntity
  8
0
100
AcDbCircle
 10
492.8202639912439
 20
299.5176682526005
 30
0.0
 40
3.0
100
AcDbArc
 50
90.0
 51
179.5000000003993
  0
LINE
  5
239C
330
2
100
AcDbEntity
  8
0
100
AcDbLine
 10
489.5757974581593
 20
271.5176682548274
 30
0.0
 11
489.863784095006
 21
304.5176682526007
 31
0.0
  0
ARC
  5
239E
330
2
100
AcDbEntity
  8
0
100
AcDbCircle
 10
492.6282729000227
 20
277.5176682552021
 30
0.0
 40
3.0
100
AcDbArc
 50
90.0
 51
179.5000000003993
  0
ARC
  5
239F
330
2
100
AcDbEntity
  8
0
100
AcDbCircle
 10
492.6631803711349
 20
281.5176682526005
 30
0.0
 40
3.0
100
AcDbArc
 50
90.0
 51
179.5000000003993
  0
ARC
  5
23A0
330
2
100
AcDbEntity
  8
0
100
AcDbCircle
 10
512.9541979528282
 20
276.5176682526008
 30
0.0
 40
3.0
100
AcDbArc
 50
1.499999999989629
 51
90.0
  0
LINE
  5
23A1
330
2
100
AcDbEntity
  8
0
100
AcDbLine
 10
506.4820978368522
 20
279.5176682526008
 30
0.0
 11
512.9541979528282
 21
279.5176682526008
 31
0.0
  0
ARC
  5
23A2
330
2
100
AcDbEntity
  8
0
100
AcDbCircle
 10
517.9820978368503
 20
275.5176682526008
 30
0.0
 40
2.0
100
AcDbArc
 50
181.4999999999896
 51
270.0
  0
LINE
  5
23A3
330
2
100
AcDbEntity
  8
0
100
AcDbLine
 10
517.9820978368503
 20
273.5176682526008
 30
0.0
 11
524.0337840950111
 21
273.5176682548283
 31
0.0
  0
ARC
  5
23A4
330
2
100
AcDbEntity
  8
0
100
AcDbCircle
 10
503.4820978309132
 20
277.5176682552021
 30
0.0
 40
3.0
100
AcDbArc
 50
53.13010226910886
 51
90.0
  0
LINE
  5
23A5
330
2
100
AcDbEntity
  8
0
100
AcDbLine
 10
492.6282729000227
 20
280.5176682552021
 30
0.0
 11
503.4820978309132
 21
280.5176682552021
 31
0.0
  0
ARC
  5
23A6
330
2
100
AcDbEntity
  8
0
100
AcDbCircle
 10
501.4803838743479
 20
281.5176682526007
 30
0.0
 40
3.0
100
AcDbArc
 50
1.500000000015675
 51
90.0
  0
LINE
  5
23A7
330
2
100
AcDbEntity
  8
0
100
AcDbLine
 10
492.6631803711349
 20
284.5176682526005
 30
0.0
 11
501.4803838743479
 21
284.5176682526007
 31
0.0
  0
ARC
  5
23A8
330
2
100
AcDbEntity
  8
0
100
AcDbCircle
 10
506.4820978368503
 20
281.517668250749
 30
0.0
 40
2.0
100
AcDbArc
 50
181.4999999999896
 51
270.0
  0
LINE
  5
23A9
330
2
100
AcDbEntity
  8
0
100
AcDbLine
 10
501.4411049919841
 20
323.017668252234
 30
0.0
 11
490.1981475273429
 21
323.017668252234
 31
0.0
  0
ARC
  5
23AA
330
2
100
AcDbEntity
  8
0
100
AcDbCircle
 10
492.8202639912102
 20
309.5176682526007
 30
0.0
 40
3.0
100
AcDbArc
 50
180.4999999999915
 51
270.0
  0
LINE
  5
23AB
330
2
100
AcDbEntity
  8
0
100
AcDbLine
 10
489.6457101668349
 20
329.0263947881053
 30
0.0
 11
489.6937840950055
 21
323.5176682526014
 31
0.0
  0
LINE
  5
23AC
330
2
100
AcDbEntity
  8
CENTER
  6
CENS
100
AcDbLine
 10
485.0337840950093
 20
318.3197137759195
 30
0.0
 11
485.0337840950093
 21
339.3176682526075
 31
0.0
  0
LINE
  5
23AD
330
2
100
AcDbEntity
  8
HIDS
100
AcDbLine
 10
481.3337840950067
 20
336.317668252605
 30
0.0
 11
481.3337840950067
 21
336.2176682526021
 31
0.0
  0
LINE
  5
23AE
330
2
100
AcDbEntity
  8
HIDS
100
AcDbLine
 10
482.0337840950066
 20
335.817668252602
 30
0.0
 11
480.7837840950092
 21
335.817668252602
 31
0.0
  0
LINE
  5
23AF
330
2
100
AcDbEntity
  8
HIDS
100
AcDbLine
 10
484.0337840950001
 20
332.5176682526073
 30
0.0
 11
480.7837840950092
 21
332.5176682526068
 31
0.0
  0
LINE
  5
23B0
330
2
100
AcDbEntity
  8
0
100
AcDbLine
 10
481.3033993372797
 20
336.317668252605
 30
0.0
 11
488.7641688527388
 21
336.317668252605
 31
0.0
  0
LINE
  5
23B1
330
2
100
AcDbEntity
  8
0
100
AcDbLine
 10
489.2837840950092
 20
336.0176682526048
 30
0.0
 11
488.7641688527388
 21
336.317668252605
 31
0.0
  0
LINE
  5
23B2
330
2
100
AcDbEntity
  8
0
100
AcDbLine
 10
480.7837840950092
 20
336.0176682526048
 30
0.0
 11
481.3033993372797
 21
336.317668252605
 31
0.0
  0
LINE
  5
23B3
330
2
100
AcDbEntity
  8
0
100
AcDbLine
 10
480.7837840950092
 20
336.0176682526048
 30
0.0
 11
489.2837840950092
 21
336.0176682526048
 31
0.0
  0
LINE
  5
23B4
330
2
100
AcDbEntity
  8
0
100
AcDbLine
 10
480.7837840950092
 20
331.317668252605
 30
0.0
 11
489.2837840950092
 21
331.317668252605
 31
0.0
  0
LINE
  5
23B5
330
2
100
AcDbEntity
  8
0
100
AcDbLine
 10
480.7837840950092
 20
336.0176682526048
 30
0.0
 11
480.7837840950092
 21
330.017668252605
 31
0.0
  0
LINE
  5
23B6
330
2
100
AcDbEntity
  8
0
100
AcDbLine
 10
489.2837840950092
 20
336.0176682526048
 30
0.0
 11
489.2837840950092
 21
330.0176682526068
 31
0.0
  0
LINE
  5
23B7
330
2
100
AcDbEntity
  8
0
100
AcDbLine
 10
475.0150188235626
 20
323.5176682526016
 30
0.0
 11
475.0150188235626
 21
329.017668252605
 31
0.0
  0
LINE
  5
23B8
330
2
100
AcDbEntity
  8
0
100
AcDbLine
 10
484.0337840950074
 20
323.5176682526016
 30
0.0
 11
484.0337840950074
 21
329.017668252605
 31
0.0
  0
LINE
  5
23B9
330
2
100
AcDbEntity
  8
0
100
AcDbLine
 10
487.0337840950102
 20
323.5176682526016
 30
0.0
 11
487.0337840950102
 21
329.017668252605
 31
0.0
  0
ARC
  5
23BA
330
2
100
AcDbEntity
  8
HIDS
100
AcDbCircle
 10
481.5337840950065
 20
336.2176682526021
 30
0.0
 40
0.2
100
AcDbArc
 50
179.9999999999739
 51
270.0
  0
ARC
  5
23BB
330
2
100
AcDbEntity
  8
0
100
AcDbCircle
 10
481.5337840950065
 20
337.817668252602
 30
0.0
 40
0.2
100
AcDbArc
 50
90.0
 51
179.9999999999739
  0
ARC
  5
23BC
330
2
100
AcDbEntity
  8
0
100
AcDbCircle
 10
481.8337840950067
 20
338.2176682526021
 30
0.0
 40
0.2
100
AcDbArc
 50
270.0
 51
359.9999999999739
  0
ARC
  5
23BD
330
2
100
AcDbEntity
  8
HIDS
100
AcDbCircle
 10
487.362211219745
 20
332.017668252608
 30
0.0
 40
2.0
100
AcDbArc
 50
224.9999999999735
 51
269.9999999999478
  0
ARC
  5
23BE
330
2
100
AcDbEntity
  8
0
100
AcDbCircle
 10
488.6457482437704
 20
329.017668252607
 30
0.0
 40
1.0
100
AcDbArc
 50
0.4999999999915751
 51
89.99999999994789
  0
LINE
  5
23BF
330
2
100
AcDbEntity
  8
HIDS
100
AcDbLine
 10
485.9479976573717
 20
330.6034546902351
 30
0.0
 11
484.0337840950001
 21
332.5176682526073
 31
0.0
  0
LINE
  5
23C0
330
2
100
AcDbEntity
  8
0
100
AcDbLine
 10
482.0337840950075
 20
339.5176682526023
 30
0.0
 11
482.0337840950066
 21
338.2176682526019
 31
0.0
  0
LINE
  5
23C1
330
2
100
AcDbEntity
  8
0
100
AcDbLine
 10
482.0337840950075
 20
339.5176682526019
 30
0.0
 11
481.4564338258175
 21
340.5176682526023
 31
0.0
  0
LINE
  5
23C2
330
2
100
AcDbEntity
  8
HIDS
100
AcDbLine
 10
481.8337840950067
 20
336.0176682526021
 30
0.0
 11
482.0337840950066
 21
335.817668252602
 31
0.0
  0
LINE
  5
23C3
330
2
100
AcDbEntity
  8
0
100
AcDbLine
 10
481.3337840950067
 20
337.817668252602
 30
0.0
 11
481.3337840950067
 21
336.317668252605
 31
0.0
  0
LINE
  5
23C4
330
2
100
AcDbEntity
  8
HIDS
100
AcDbLine
 10
482.0337840950066
 20
335.817668252602
 30
0.0
 11
482.0337840950056
 21
332.5176682526018
 31
0.0
  0
LINE
  5
23C5
330
2
100
AcDbEntity
  8
0
100
AcDbLine
 10
485.5185664365277
 20
304.5176682526007
 30
0.0
 11
489.863784095006
 21
304.5176682526007
 31
0.0
  0
ARC
  5
23C6
330
2
100
AcDbEntity
  8
0
100
AcDbCircle
 10
485.5185664365277
 20
305.5176682526007
 30
0.0
 40
1.0
100
AcDbArc
 50
181.5000000000157
 51
270.0
  0
LINE
  5
23C7
330
2
100
AcDbEntity
  8
0
100
AcDbLine
 10
484.0468770557905
 20
323.5176682526014
 30
0.0
 11
484.5189091115522
 21
305.4914913042928
 31
0.0
  0
LINE
  5
23C8
330
2
100
AcDbEntity
  8
0
100
AcDbLine
 10
489.6979736069821
 20
323.5176682526018
 30
0.0
 11
490.1979736069812
 21
323.0176682526027
 31
0.0
  0
LINE
  5
23C9
330
2
100
AcDbEntity
  8
0
100
AcDbLine
 10
489.6979736069821
 20
323.5176682526018
 30
0.0
 11
489.8637840950065
 21
304.5176682526096
 31
0.0
  0
ARC
  5
23CA
330
2
100
AcDbEntity
  8
0
100
AcDbCircle
 10
501.0090372861019
 20
309.5176682526007
 30
0.0
 40
3.0
100
AcDbArc
 50
270.0
 51
358.4999999999843
  0
LINE
  5
23CB
330
2
100
AcDbEntity
  8
0
100
AcDbLine
 10
515.2220205263862
 20
304.5176682526355
 30
0.0
 11
524.0337840950092
 21
304.5176682526007
 31
0.0
  0
LINE
  5
23CC
330
2
100
AcDbEntity
  8
0
100
AcDbLine
 10
515.9827831868994
 20
333.570022149215
 30
0.0
 11
515.2220205263862
 21
304.5176682526007
 31
0.0
  0
ARC
  5
23CD
330
2
100
AcDbEntity
  8
0
100
AcDbCircle
 10
512.9541979528282
 20
332.5176682526007
 30
0.0
 40
3.0
100
AcDbArc
 50
270.0
 51
358.5000000000103
  0
LINE
  5
23CE
330
2
100
AcDbEntity
  8
0
100
AcDbLine
 10
506.4820978368522
 20
329.5176682526007
 30
0.0
 11
512.9541979528282
 21
329.5176682526007
 31
0.0
  0
ARC
  5
23CF
330
2
100
AcDbEntity
  8
0
100
AcDbCircle
 10
517.9820978368503
 20
333.5176682526007
 30
0.0
 40
2.0
100
AcDbArc
 50
90.0
 51
178.5000000000103
  0
LINE
  5
23D0
330
2
100
AcDbEntity
  8
0
100
AcDbLine
 10
517.9820978368503
 20
335.5176682526007
 30
0.0
 11
524.0337840950075
 21
335.5176682526007
 31
0.0
  0
LINE
  5
23D1
330
2
100
AcDbEntity
  8
0
100
AcDbLine
 10
492.8202639912439
 20
302.5176682526007
 30
0.0
 11
501.0090372861083
 21
302.5176682526007
 31
0.0
  0
ARC
  5
23D2
330
2
100
AcDbEntity
  8
0
100
AcDbCircle
 10
501.4411049919841
 20
326.0176682522339
 30
0.0
 40
3.0
100
AcDbArc
 50
270.0
 51
358.4999999999843
  0
LINE
  5
23D3
330
2
100
AcDbEntity
  8
0
100
AcDbLine
 10
492.8202639912102
 20
306.5176682526007
 30
0.0
 11
501.0090372861019
 21
306.5176682526007
 31
0.0
  0
ARC
  5
23D4
330
2
100
AcDbEntity
  8
0
100
AcDbCircle
 10
506.4820978368503
 20
327.5176682544524
 30
0.0
 40
2.0
100
AcDbArc
 50
90.0
 51
178.5000000000103
  0
LINE
  5
23D5
330
2
100
AcDbEntity
  8
0
100
AcDbLine
 10
504.4827831868993
 20
327.570022151068
 30
0.0
 11
503.8791360557285
 21
304.5176682526007
 31
0.0
  0
ARC
  5
270D
330
2
100
AcDbEntity
  8
0
100
AcDbCircle
 10
450.3224134080303
 20
261.0176682526025
 30
0.0
 40
0.5
100
AcDbArc
 50
209.9999999999991
 51
270.0
  0
LINE
  5
270E
330
2
100
AcDbEntity
  8
0
100
AcDbLine
 10
452.0337675116795
 20
259.5176735703466
 30
0.0
 11
451.4564180021691
 21
260.5176740089472
 31
0.0
  0
LINE
  5
270F
330
2
100
AcDbEntity
  8
0
100
AcDbLine
 10
466.0337458025303
 20
259.5176682526024
 30
0.0
 11
466.6110960717198
 21
260.5176682526025
 31
0.0
  0
ARC
  5
2710
330
2
100
AcDbEntity
  8
0
100
AcDbCircle
 10
467.745081902349
 20
261.0176682526025
 30
0.0
 40
0.5
100
AcDbArc
 50
270.0
 51
330.0000000000008
  0
LINE
  5
2711
330
2
100
AcDbEntity
  8
CENTER
100
AcDbLine
 10
459.0337840950062
 20
270.4397743162125
 30
0.0
 11
459.0337840950062
 21
234.5176682526024
 31
0.0
  0
CIRCLE
  5
2726
330
2
100
AcDbEntity
  8
0
100
AcDbCircle
 10
456.0337840950131
 20
102.4401979645483
 30
0.0
 40
9.499961707520014
  0
ARC
  5
2727
330
2
100
AcDbEntity
  8
0
100
AcDbCircle
 10
456.0337840950131
 20
102.4401979645483
 30
0.0
 40
7.577311976709552
100
AcDbArc
 50
195.3043240521925
 51
164.6956759477822
  0
ARC
  5
2728
330
2
100
AcDbEntity
  8
0
100
AcDbCircle
 10
456.0337840950131
 20
102.4401979645483
 30
0.0
 40
6.999961707519901
100
AcDbArc
 50
196.6016430457799
 51
163.3983569541947
  0
ARC
  5
2729
330
2
100
AcDbEntity
  8
0
100
AcDbCircle
 10
456.0337840950131
 20
102.4401979645478
 30
0.0
 40
5.999961707520469
100
AcDbArc
 50
199.4713499178904
 51
160.5286500820744
  0
LINE
  5
272A
330
2
100
AcDbEntity
  8
0
100
AcDbLine
 10
618.4707333907453
 20
96.440236257015
 30
0.0
 11
618.4707333907453
 21
108.4402362570127
 31
0.0
  0
LINE
  5
272B
330
2
100
AcDbEntity
  8
0
100
AcDbLine
 10
617.9707333907453
 20
96.94023625701499
 30
0.0
 11
617.9707333907453
 21
107.9402362570127
 31
0.0
  0
LINE
  5
272C
330
2
100
AcDbEntity
  8
0
100
AcDbLine
 10
637.9707333907453
 20
95.44023625701498
 30
0.0
 11
637.9707333907453
 21
109.440236257015
 31
0.0
  0
LINE
  5
272D
330
2
100
AcDbEntity
  8
0
100
AcDbLine
 10
638.9707333907453
 20
111.1515686515149
 30
0.0
 11
638.9707333907453
 21
93.72890015719628
 31
0.0
  0
LINE
  5
2730
330
2
100
AcDbEntity
  8
0
100
AcDbLine
 10
637.9707333907453
 20
96.440236257015
 30
0.0
 11
618.4707333907453
 21
96.440236257015
 31
0.0
  0
LINE
  5
2731
330
2
100
AcDbEntity
  8
0
100
AcDbLine
 10
618.4707333907453
 20
96.440236257015
 30
0.0
 11
617.9707333907453
 21
96.94023625701499
 31
0.0
  0
LINE
  5
2732
330
2
100
AcDbEntity
  8
0
100
AcDbLine
 10
639.2207333907452
 20
93.29588745530378
 30
0.0
 11
639.3726377208166
 21
93.20818544944591
 31
0.0
  0
LINE
  5
2733
330
2
100
AcDbEntity
  8
0
100
AcDbLine
 10
637.9707333907453
 20
95.44023625701498
 30
0.0
 11
638.9707333907453
 21
94.86288598782545
 31
0.0
  0
ARC
  5
2734
330
2
100
AcDbEntity
  8
0
100
AcDbCircle
 10
639.4707333907453
 20
93.72890015719628
 30
0.0
 40
0.5
100
AcDbArc
 50
180.0
 51
239.9999999999994
  0
ARC
  5
2735
330
2
100
AcDbEntity
  8
0
100
AcDbCircle
 10
640.3726377208166
 20
94.94023625701499
 30
0.0
 40
2.0
100
AcDbArc
 50
239.9999999999994
 51
258.4073554322671
  0
LINE
  5
2739
330
2
100
AcDbEntity
  8
0
100
AcDbLine
 10
448.5337458025336
 20
104.4401979645497
 30
0.0
 11
448.5337458025336
 21
100.4401979645497
 31
0.0
  0
LINE
  5
273A
330
2
100
AcDbEntity
  8
0
100
AcDbLine
 10
452.5337458025331
 20
104.4401979645497
 30
0.0
 11
452.5337458025336
 21
100.4401979645497
 31
0.0
  0
LINE
  5
273B
330
2
100
AcDbEntity
  8
0
100
AcDbLine
 10
448.5337458025336
 20
104.4401979645497
 30
0.0
 11
452.5337458025331
 21
104.4401979645497
 31
0.0
  0
LINE
  5
273C
330
2
100
AcDbEntity
  8
0
100
AcDbLine
 10
448.5337458025336
 20
100.4401979645497
 30
0.0
 11
452.5337458025336
 21
100.4401979645497
 31
0.0
  0
ARC
  5
273D
330
2
100
AcDbEntity
  8
0
100
AcDbCircle
 10
456.0337840950131
 20
102.4401979645483
 30
0.0
 40
7.577311976709552
100
AcDbArc
 50
171.8103446301274
 51
188.1896553698789
  0
LINE
  5
273E
330
2
100
AcDbEntity
  8
0
100
AcDbLine
 10
453.3769704608423
 20
255.5176682526024
 30
0.0
 11
453.3769704608423
 21
239.5176682526025
 31
0.0
  0
LINE
  5
273F
330
2
100
AcDbEntity
  8
0
100
AcDbLine
 10
453.3769704608423
 20
239.5176682526025
 30
0.0
 11
453.3769704608423
 21
255.5176682526024
 31
0.0
  0
LINE
  5
2740
330
2
100
AcDbEntity
  8
0
100
AcDbLine
 10
453.3769704608423
 20
239.5176682526025
 30
0.0
 11
453.3769704608423
 21
255.5176682526024
 31
0.0
  0
LINE
  5
2741
330
2
100
AcDbEntity
  8
0
100
AcDbLine
 10
451.5337458025303
 20
257.517668252577
 30
0.0
 11
451.5337458025303
 21
239.5176682526025
 31
0.0
  0
LINE
  5
2742
330
2
100
AcDbEntity
  8
0
100
AcDbLine
 10
465.0337458025303
 20
259.5176682526024
 30
0.0
 11
465.0337458025303
 21
240.0176682526025
 31
0.0
  0
LINE
  5
2743
330
2
100
AcDbEntity
  8
0
100
AcDbLine
 10
465.0337458025303
 20
240.0176682526025
 30
0.0
 11
453.3769704608423
 21
240.0176682526025
 31
0.0
  0
LINE
  5
2744
330
2
100
AcDbEntity
  8
0
100
AcDbLine
 10
465.0337458025303
 20
240.0176682526025
 30
0.0
 11
464.5337458025303
 21
239.5176682526025
 31
0.0
  0
LINE
  5
2745
330
2
100
AcDbEntity
  8
0
100
AcDbLine
 10
464.5337458025303
 20
239.5176682526025
 30
0.0
 11
451.5337458025303
 21
239.5176682526025
 31
0.0
  0
LINE
  5
2746
330
2
100
AcDbEntity
  8
0
100
AcDbLine
 10
453.0337458025303
 20
257.517668252577
 30
0.0
 11
453.3769704608423
 21
255.5176682526024
 31
0.0
  0
LINE
  5
2747
330
2
100
AcDbEntity
  8
0
100
AcDbLine
 10
453.0337458025303
 20
257.517668252577
 30
0.0
 11
451.5337458025303
 21
257.517668252577
 31
0.0
  0
LINE
  5
2748
330
2
100
AcDbEntity
  8
0
100
AcDbLine
 10
453.0337458025303
 20
259.5176682526024
 30
0.0
 11
453.0337458025303
 21
257.517668252577
 31
0.0
  0
LINE
  5
2749
330
2
100
AcDbEntity
  8
0
100
AcDbLine
 10
466.0337458025303
 20
259.5176682526024
 30
0.0
 11
452.0337458025303
 21
259.5176682526024
 31
0.0
  0
LINE
  5
274A
330
2
100
AcDbEntity
  8
0
100
AcDbLine
 10
637.9707333907453
 20
108.4402362570149
 30
0.0
 11
618.4707333907453
 21
108.4402362570127
 31
0.0
  0
LINE
  5
274C
330
2
100
AcDbEntity
  8
0
100
AcDbLine
 10
617.9707333907453
 20
107.9402362570127
 30
0.0
 11
618.4707333907453
 21
108.4402362570127
 31
0.0
  0
LINE
  5
274D
330
2
100
AcDbEntity
  8
0
100
AcDbLine
 10
639.2207333907452
 20
111.584581353407
 30
0.0
 11
639.3726377208166
 21
111.6722833592648
 31
0.0
  0
ARC
  5
274E
330
2
100
AcDbEntity
  8
0
100
AcDbCircle
 10
639.4707333907453
 20
111.1515686515149
 30
0.0
 40
0.5
100
AcDbArc
 50
120.0000000000005
 51
180.0
  0
ARC
  5
274F
330
2
100
AcDbEntity
  8
0
100
AcDbCircle
 10
640.3726377208166
 20
109.940232551696
 30
0.0
 40
2.0
100
AcDbArc
 50
101.5926445677327
 51
120.0000000000005
  0
LINE
  5
2750
330
2
100
AcDbEntity
  8
0
100
AcDbLine
 10
637.9707387084894
 20
109.4402145478657
 30
0.0
 11
638.97073914709
 21
110.0175640573762
 31
0.0
  0
LINE
  5
2752
330
2
100
AcDbEntity
  8
0
100
AcDbLine
 10
449.8894007061383
 20
260.7676682526025
 30
0.0
 11
449.8016987002804
 21
260.9195725826738
 31
0.0
  0
ARC
  5
2753
330
2
100
AcDbEntity
  8
0
100
AcDbCircle
 10
451.533749507849
 20
261.9195725826738
 30
0.0
 40
2.0
100
AcDbArc
 50
191.5926445677324
 51
209.9999999999991
  0
LINE
  5
2754
330
2
100
AcDbEntity
  8
0
100
AcDbLine
 10
468.1780946042415
 20
260.7676682526025
 30
0.0
 11
468.2657966100994
 21
260.9195725826738
 31
0.0
  0
LINE
  5
2755
330
2
100
AcDbEntity
  8
0
100
AcDbLine
 10
450.3224134080303
 20
260.5176682526025
 30
0.0
 11
467.745081902349
 21
260.5176682526025
 31
0.0
  0
ARC
  5
2756
330
2
100
AcDbEntity
  8
0
100
AcDbCircle
 10
466.5337458025303
 20
261.9195725826738
 30
0.0
 40
2.0
100
AcDbArc
 50
330.0000000000008
 51
348.4073554322675
  0
LINE
  5
2757
330
2
100
AcDbEntity
  8
0
100
AcDbLine
 10
317.7557396484439
 20
108.4401596720667
 30
0.0
 11
337.2557396484439
 21
108.4401596720667
 31
0.0
  0
LINE
  5
2758
330
2
100
AcDbEntity
  8
0
100
AcDbLine
 10
317.7557396484439
 20
96.44015967206678
 30
0.0
 11
337.2557396484439
 21
96.44015967206678
 31
0.0
  0
LINE
  5
2759
330
2
100
AcDbEntity
  8
0
100
AcDbLine
 10
321.7557396484439
 20
104.4402080806209
 30
0.0
 11
337.7557396484439
 21
104.4402080806209
 31
0.0
  0
LINE
  5
275A
330
2
100
AcDbEntity
  8
0
100
AcDbLine
 10
321.7557396484439
 20
100.4402080806209
 30
0.0
 11
337.7557396484439
 21
100.4402080806209
 31
0.0
  0
LINE
  5
275B
330
2
100
AcDbEntity
  8
0
100
AcDbLine
 10
316.7557396484439
 20
93.72882727756678
 30
0.0
 11
316.7557396484439
 21
111.1514957718855
 31
0.0
  0
LINE
  5
275C
330
2
100
AcDbEntity
  8
0
100
AcDbLine
 10
317.7557396484439
 20
109.4401596720667
 30
0.0
 11
317.7557396484439
 21
95.44015967206679
 31
0.0
  0
ARC
  5
275D
330
2
100
AcDbEntity
  8
0
100
AcDbCircle
 10
315.3538353183725
 20
94.94016337738571
 30
0.0
 40
2.0
100
AcDbArc
 50
281.5926445677328
 51
299.9999999999997
  0
LINE
  5
275E
330
2
100
AcDbEntity
  8
0
100
AcDbLine
 10
317.7557343306998
 20
95.44018138121577
 30
0.0
 11
316.7557338920992
 21
94.86283187170533
 31
0.0
  0
ARC
  5
275F
330
2
100
AcDbEntity
  8
0
100
AcDbCircle
 10
316.255739648444
 20
93.72882727756678
 30
0.0
 40
0.5
100
AcDbArc
 50
299.9999999999997
 51
0.0
  0
LINE
  5
2760
330
2
100
AcDbEntity
  8
0
100
AcDbLine
 10
316.5057396484439
 20
93.29581457567474
 30
0.0
 11
316.3538353183726
 21
93.20811256981688
 31
0.0
  0
ARC
  5
2761
330
2
100
AcDbEntity
  8
0
100
AcDbCircle
 10
315.3538353183725
 20
109.9401596720667
 30
0.0
 40
2.0
100
AcDbArc
 50
59.99999999999946
 51
78.40735543226724
  0
ARC
  5
2762
330
2
100
AcDbEntity
  8
0
100
AcDbCircle
 10
316.255739648444
 20
111.1514957718855
 30
0.0
 40
0.5
100
AcDbArc
 50
0.0
 51
59.99999999999946
  0
LINE
  5
2763
330
2
100
AcDbEntity
  8
0
100
AcDbLine
 10
317.7557396484439
 20
109.4401596720667
 30
0.0
 11
316.7557396484439
 21
110.0175099412563
 31
0.0
  0
LINE
  5
2764
330
2
100
AcDbEntity
  8
0
100
AcDbLine
 10
316.5057396484439
 20
111.5845084737777
 30
0.0
 11
316.3538353183726
 21
111.6722104796356
 31
0.0
  0
ARC
  5
2765
330
2
100
AcDbEntity
  8
0
100
AcDbCircle
 10
321.7557396484439
 20
102.4402080806209
 30
0.0
 40
2.0
100
AcDbArc
 50
90.0
 51
270.0
  0
LINE
  5
2766
330
2
100
AcDbEntity
  8
0
100
AcDbLine
 10
337.7557396484439
 20
107.9401596720667
 30
0.0
 11
337.7557396484439
 21
96.94015967206679
 31
0.0
  0
LINE
  5
2767
330
2
100
AcDbEntity
  8
0
100
AcDbLine
 10
337.2557396484439
 20
100.4402080806209
 30
0.0
 11
337.2557396484439
 21
96.44015967206678
 31
0.0
  0
LINE
  5
2768
330
2
100
AcDbEntity
  8
0
100
AcDbLine
 10
337.2557396484439
 20
96.44015967206678
 30
0.0
 11
337.7557396484439
 21
96.94015967206679
 31
0.0
  0
LINE
  5
2769
330
2
100
AcDbEntity
  8
0
100
AcDbLine
 10
337.2557396484439
 20
108.4401596720667
 30
0.0
 11
337.2557396484439
 21
104.4402080806209
 31
0.0
  0
LINE
  5
276A
330
2
100
AcDbEntity
  8
0
100
AcDbLine
 10
337.2557396484439
 20
108.4401596720667
 30
0.0
 11
337.7557396484439
 21
107.9401596720667
 31
0.0
  0
ENDSEC
  0
SECTION
  2
OBJECTS
  0
DICTIONARY
  5
7
330
0
100
AcDbDictionary
  3
ACAD_COLOR
350
1DB7
  3
ACAD_GROUP
350
75
  3
ACAD_LAYOUT
350
61
  3
ACAD_MATERIAL
350
1D8D
  3
ACAD_MLEADERSTYLE
350
1DDC
  3
ACAD_MLINESTYLE
350
76
  3
ACAD_PLOTSETTINGS
350
77
  3
ACAD_PLOTSTYLENAME
350
6
  3
ACAD_SCALELIST
350
1DBA
  3
ACAD_TABLESTYLE
350
1DB8
  3
ACAD_VISUALSTYLE
350
1DA6
  3
ACADDIM
350
480
  3
ACDB_RECOMPOSE_DATA
350
1DF5
  3
ACDBHEADERROUNDTRIPXREC
350
2990
  3
ACDBVARIABLEDICTIONARY
350
102
  3
DWGPROPS
350
295B
  0
DICTIONARY
  5
1DFE
330
6E
100
AcDbDictionary
280
     1
  3
ACAD_XREC_ROUNDTRIP
360
2962
  0
DICTIONARY
  5
B00
330
66
100
AcDbDictionary
280
     1
  3
ACAD_LAYERSTATES
360
B01
  0
DICTIONARY
  5
1DE1
330
5E
100
AcDbDictionary
280
     1
  3
ACAD_XREC_ROUNDTRIP
360
295E
  3
ADSK_XREC_LAYER_RECONCILED
360
1DE2
  0
DICTIONARY
  5
1DE3
330
3E
100
AcDbDictionary
280
     1
  3
ACAD_XREC_ROUNDTRIP
360
295D
  3
ADSK_XREC_LAYER_RECONCILED
360
1DE4
  0
DICTIONARY
  5
1DE9
330
2B5
100
AcDbDictionary
280
     1
  3
ACAD_XREC_ROUNDTRIP
360
2968
  3
ADSK_XREC_LAYER_RECONCILED
360
1DEA
  0
DICTIONARY
  5
1DEB
330
2BA
100
AcDbDictionary
280
     1
  3
ACAD_XREC_ROUNDTRIP
360
2969
  3
ADSK_XREC_LAYER_RECONCILED
360
1DEC
  0
DICTIONARY
  5
1DEF
330
3FA
100
AcDbDictionary
280
     1
  3
ACAD_XREC_ROUNDTRIP
360
296B
  3
ADSK_XREC_LAYER_RECONCILED
360
1DF0
  0
DICTIONARY
  5
29B1
330
2
100
AcDbDictionary
280
     1
  3
ACAD_LAYOUTSELFREF
360
29B2
  0
DICTIONARY
  5
29B3
330
298A
100
AcDbDictionary
280
     1
  3
ACAD_LAYOUTSELFREF
360
29B4
  0
DICTIONARY
  5
1DB7
102
{ACAD_REACTORS
330
7
102
}
330
7
100
AcDbDictionary
  0
DICTIONARY
  5
75
102
{ACAD_REACTORS
330
7
102
}
330
7
100
AcDbDictionary
  0
DICTIONARY
  5
61
102
{ACAD_REACTORS
330
7
102
}
330
7
100
AcDbDictionary
  0
DICTIONARY
  5
1D8D
102
{ACAD_REACTORS
330
7
102
}
330
7
100
AcDbDictionary
  3
BYBLOCK
350
1D96
  3
BYLAYER
350
1D8E
  3
GLOBAL
350
1D9E
  0
DICTIONARY
  5
1DDC
102
{ACAD_REACTORS
330
7
102
}
330
7
100
AcDbDictionary
  3
STANDARD
350
1DDD
  0
DICTIONARY
  5
76
102
{ACAD_REACTORS
330
7
102
}
330
7
100
AcDbDictionary
  3
STANDARD
350
78
  0
DICTIONARY
  5
77
102
{ACAD_REACTORS
330
7
102
}
330
7
100
AcDbDictionary
  0
ACDBDICTIONARYWDFLT
  5
6
102
{ACAD_REACTORS
330
7
102
}
330
7
100
AcDbDictionary
281
     1
  3
Normal
350
5
100
AcDbDictionaryWithDefault
340
5
  0
DICTIONARY
  5
1DBA
102
{ACAD_REACTORS
330
7
102
}
330
7
100
AcDbDictionary
  3
A0
350
1DBB
  3
A1
350
1DBC
  3
A2
350
1DBD
  3
A3
350
1DBE
  3
A4
350
1DBF
  3
A5
350
1DC0
  3
A6
350
1DC1
  3
A7
350
1DC2
  3
A8
350
1DC3
  3
A9
350
1DC4
  3
B0
350
1DC5
  3
B1
350
1DC6
  3
B2
350
1DC7
  3
B3
350
1DC8
  3
B4
350
1DC9
  3
B5
350
1DCA
  3
B6
350
1DCB
  3
B7
350
1DCC
  3
B8
350
1DCD
  3
B9
350
1DCE
  3
C0
350
1DCF
  3
C1
350
1DD0
  3
C2
350
1DD1
  3
C3
350
1DD2
  3
C4
350
1DD3
  3
C5
350
1DD4
  3
C6
350
1DD5
  3
C7
350
1DD6
  3
C8
350
1DD7
  3
C9
350
1DD8
  3
D0
350
1DD9
  3
D1
350
1DDA
  3
D2
350
1DDB
  0
DICTIONARY
  5
1DB8
102
{ACAD_REACTORS
330
7
102
}
330
7
100
AcDbDictionary
  3
STANDARD
350
1DB9
  0
DICTIONARY
  5
1DA6
102
{ACAD_REACTORS
330
7
102
}
330
7
100
AcDbDictionary
  3
2DWIREFRAME
350
1DAC
  3
3D_HIDDEN
350
1DAE
  3
3DWIREFRAME
350
1DAD
  3
BASIC
350
1DAB
  3
BRIGHTEN
350
1DB2
  3
COLORCHANGE
350
1DB6
  3
CONCEPTUAL
350
1DAF
  3
DIM
350
1DB1
  3
FACEPATTERN
350
1DB5
  3
FLAT
350
1DA7
  3
FLATWITHEDGES
350
1DA8
  3
GOURAUD
350
1DA9
  3
GOURAUDWITHEDGES
350
1DAA
  3
LINEPATTERN
350
1DB4
  3
REALISTIC
350
1DB0
  3
THICKEN
350
1DB3
  0
XRECORD
  5
480
102
{ACAD_REACTORS
330
7
102
}
330
7
100
AcDbXrecord
 90
   990106
  3

 60
     0
 61
     0
 62
     1
 63
     3
 64
     1
 65
     0
 66
     0
 67
     3
 68
     1
 69
     0
 70
     0
 71
     0
 72
     0
 40
0.0
170
     2
340
0
  0
XRECORD
  5
1DF5
102
{ACAD_REACTORS
330
7
102
}
330
7
100
AcDbXrecord
 90
        1
330
1DB9
  0
DICTIONARY
  5
2990
102
{ACAD_REACTORS
330
7
102
}
330
7
100
AcDbDictionary
  3
CEPSNTYPE
350
299A
  3
DIMSTYLEDATA
350
299E
  3
FINGERPRINTGUID
350
299B
  3
HYPERLINKBASE
350
2993
  3
INSUNITS
350
2999
  3
LAYOUTDICT
350
2995
  3
LWETCUNION
350
2998
  3
PLOTSETDICT
350
2996
  3
PLOTSTYLNAMDICT
350
2997
  3
PSVPSCALE
350
299D
  3
PUCSBASE
350
29A1
  3
PUCSORGBACK
350
29A7
  3
PUCSORGBOTTOM
350
29A3
  3
PUCSORGFRONT
350
29A6
  3
PUCSORGLEFT
350
29A4
  3
PUCSORGRIGHT
350
29A5
  3
PUCSORGTOP
350
29A2
  3
PUCSORTHOREF
350
299F
  3
PUCSORTHOVIEW
350
29A0
  3
STYLESHEET
350
2994
  3
TSTACKALIGN
350
2991
  3
TSTACKSIZE
350
2992
  3
UCSBASE
350
29AA
  3
UCSORGBACK
350
29B0
  3
UCSORGBOTTOM
350
29AC
  3
UCSORGFRONT
350
29AF
  3
UCSORGLEFT
350
29AD
  3
UCSORGRIGHT
350
29AE
  3
UCSORGTOP
350
29AB
  3
UCSORTHOREF
350
29A8
  3
UCSORTHOVIEW
350
29A9
  3
VERSIONGUID
350
299C
  0
DICTIONARY
  5
102
102
{ACAD_REACTORS
330
7
102
}
330
7
100
AcDbDictionary
  3
CANNOSCALE
350
1E18
  3
CMLEADERSTYLE
350
1E17
  3
CTABLESTYLE
350
1E16
  3
DIMASSOC
350
103
  3
INDEXCTL
350
1E19
  3
SORTENTS
350
549
  0
XRECORD
  5
295B
102
{ACAD_REACTORS
330
7
102
}
330
7
100
AcDbXrecord
  1
DWGPROPS COOKIE
  2

  3

  4

  6

  7

  8
ymorima
  9

300
=
301
=
302
=
303
=
304
=
305
=
306
=
307
=
308
=
309
=
 40
0.0414762731481482
 41
2454410.371352349
 42
2454425.753297882
  1

 90
        0
  0
XRECORD
  5
2962
102
{ACAD_REACTORS
330
1DFE
102
}
330
1DFE
100
AcDbXrecord
102
VTR_0.000_0.000_1.000_1.000_VISUALSTYLE
340
1DAC
102
VTR_0.000_0.000_1.000_1.000_GRIDDISPLAY
 70
     3
102
VTR_0.000_0.000_1.000_1.000_GRIDMAJOR
 70
     5
102
VTR_0.000_0.000_1.000_1.000_DEFAULTLIGHTING
280
     1
102
VTR_0.000_0.000_1.000_1.000_DEFAULTLIGHTINGTYPE
 70
     1
102
VTR_0.000_0.000_1.000_1.000_BRIGHTNESS
141
0.0
102
VTR_0.000_0.000_1.000_1.000_CONTRAST
142
0.0
  0
DICTIONARY
  5
B01
102
{ACAD_REACTORS
330
B00
102
}
330
B00
100
AcDbDictionary
  0
XRECORD
  5
295E
102
{ACAD_REACTORS
330
1DE1
102
}
330
1DE1
100
AcDbXrecord
102
MATERIAL
340
1D9E
  0
XRECORD
  5
1DE2
102
{ACAD_REACTORS
330
1DE1
102
}
330
1DE1
100
AcDbXrecord
290
     1
  0
XRECORD
  5
295D
102
{ACAD_REACTORS
330
1DE3
102
}
330
1DE3
100
AcDbXrecord
102
MATERIAL
340
1D9E
  0
XRECORD
  5
1DE4
102
{ACAD_REACTORS
330
1DE3
102
}
330
1DE3
100
AcDbXrecord
290
     1
  0
XRECORD
  5
2968
102
{ACAD_REACTORS
330
1DE9
102
}
330
1DE9
100
AcDbXrecord
102
MATERIAL
340
1D9E
  0
XRECORD
  5
1DEA
102
{ACAD_REACTORS
330
1DE9
102
}
330
1DE9
100
AcDbXrecord
290
     1
  0
XRECORD
  5
2969
102
{ACAD_REACTORS
330
1DEB
102
}
330
1DEB
100
AcDbXrecord
102
MATERIAL
340
1D9E
  0
XRECORD
  5
1DEC
102
{ACAD_REACTORS
330
1DEB
102
}
330
1DEB
100
AcDbXrecord
290
     1
  0
XRECORD
  5
296B
102
{ACAD_REACTORS
330
1DEF
102
}
330
1DEF
100
AcDbXrecord
102
MATERIAL
340
1D9E
  0
XRECORD
  5
1DF0
102
{ACAD_REACTORS
330
1DEF
102
}
330
1DEF
100
AcDbXrecord
290
     1
  0
XRECORD
  5
29B2
102
{ACAD_REACTORS
330
29B1
102
}
330
29B1
100
AcDbXrecord
340
2
  0
XRECORD
  5
29B4
102
{ACAD_REACTORS
330
29B3
102
}
330
29B3
100
AcDbXrecord
340
298A
  0
ACAD_PROXY_OBJECT
  5
1D96
102
{ACAD_XDICTIONARY
360
1D97
102
}
102
{ACAD_REACTORS
330
1D8D
102
}
330
1D8D
100
AcDbProxyObject
 90
      499
 91
      510
 93
     1340
310
42109E509B1BD8DAC02004014080404555555555555953FAA155555555555654FEA9AA400014080404555555555555953FAA155555555555654FEA9AA400000000000000E03F4080404555555555555953FAA155555555555654FEA9AA4014080404555555555555953FAA155555555555654FEA9AA4010201011555555555
310
55654FEA8555555555555953FAA6A9005020101155555555555654FEA8555555555555953FAA6A9002
 94
        0
1001
ACAD
1000
AcadProxyRoundTripData
1071
      504
1071
   655383
1070
     0
  0
ACAD_PROXY_OBJECT
  5
1D8E
102
{ACAD_XDICTIONARY
360
1D8F
102
}
102
{ACAD_REACTORS
330
1D8D
102
}
330
1D8D
100
AcDbProxyObject
 90
      499
 91
      510
 93
     1340
310
42109E53185E595C802004014080404555555555555953FAA155555555555654FEA9AA400014080404555555555555953FAA155555555555654FEA9AA400000000000000E03F4080404555555555555953FAA155555555555654FEA9AA4014080404555555555555953FAA155555555555654FEA9AA4010201011555555555
310
55654FEA8555555555555953FAA6A9005020101155555555555654FEA8555555555555953FAA6A9002
 94
        0
1001
ACAD
1000
AcadProxyRoundTripData
1071
      504
1071
   655383
1070
     0
  0
ACAD_PROXY_OBJECT
  5
1D9E
102
{ACAD_XDICTIONARY
360
1D9F
102
}
102
{ACAD_REACTORS
330
1D8D
102
}
330
1D8D
100
AcDbProxyObject
 90
      499
 91
      510
 93
     1332
310
41D1DB1BD8985B002004014080404555555555555953FAA155555555555654FEA9AA400014080404555555555555953FAA155555555555654FEA9AA400000000000000E03F4080404555555555555953FAA155555555555654FEA9AA4014080404555555555555953FAA155555555555654FEA9AA401020101155555555555
310
654FEA8555555555555953FAA6A9005020101155555555555654FEA8555555555555953FAA6A9000
 94
        0
1001
ACAD
1000
AcadProxyRoundTripData
1071
      504
1071
   655383
1070
     0
  0
ACAD_PROXY_OBJECT
  5
1DDD
102
{ACAD_REACTORS
330
1DDC
102
}
330
1DDC
100
AcDbProxyObject
 90
      499
 91
      510
 93
      618
310
40901902A4063FBFFFFFE056BD1B81E855B9FC0AD7A3703D0AD73F4254DD185B99185C990000AD7A3703D0AC73F90141901A02B5E8DC0F42B1CFC02B5E8DC0F42B1CFE5764000000000000300FC6
340
6A
340
0
340
16
340
0
 94
        0
1001
ACAD_MLEADERVER
1070
     2
1001
ACAD
1000
AcadProxyRoundTripData
1071
      508
1071
   655383
1070
     0
  0
MLINESTYLE
  5
78
102
{ACAD_REACTORS
330
76
102
}
330
76
100
AcDbMlineStyle
  2
STANDARD
 70
     0
  3

 62
     0
 51
90.0
 52
90.0
 71
     2
 49
0.5
 62
   256
  6
BYLAYER
 49
-0.5
 62
   256
  6
BYLAYER
  0
ACDBPLACEHOLDER
  5
5
102
{ACAD_REACTORS
330
6
102
}
330
6
100
AcDbPlaceHolder
280
     0
  0
ACAD_PROXY_OBJECT
  5
1DBB
102
{ACAD_REACTORS
330
1DBA
102
}
330
1DBA
100
AcDbProxyObject
 90
      499
 91
      510
 93
       49
310
904313A3100598
 94
        0
1001
ACAD
1000
AcadProxyRoundTripData
1071
      507
1071
   655383
1070
     0
  0
ACAD_PROXY_OBJECT
  5
1DBC
102
{ACAD_REACTORS
330
1DBA
102
}
330
1DBA
100
AcDbProxyObject
 90
      499
 91
      510
 93
      113
310
904313A3200400000000000000406B
 94
        0
1001
ACAD
1000
AcadProxyRoundTripData
1071
      507
1071
   655383
1070
     0
  0
ACAD_PROXY_OBJECT
  5
1DBD
102
{ACAD_REACTORS
330
1DBA
102
}
330
1DBA
100
AcDbProxyObject
 90
      499
 91
      510
 93
      113
310
904313A3400400000000000010406B
 94
        0
1001
ACAD
1000
AcadProxyRoundTripData
1071
      507
1071
   655383
1070
     0
  0
ACAD_PROXY_OBJECT
  5
1DBE
102
{ACAD_REACTORS
330
1DBA
102
}
330
1DBA
100
AcDbProxyObject
 90
      499
 91
      510
 93
      113
310
904313A3500400000000000014406B
 94
        0
1001
ACAD
1000
AcadProxyRoundTripData
1071
      507
1071
   655383
1070
     0
  0
ACAD_PROXY_OBJECT
  5
1DBF
102
{ACAD_REACTORS
330
1DBA
102
}
330
1DBA
100
AcDbProxyObject
 90
      499
 91
      510
 93
      113
310
904313A3800400000000000020406B
 94
        0
1001
ACAD
1000
AcadProxyRoundTripData
1071
      507
1071
   655383
1070
     0
  0
ACAD_PROXY_OBJECT
  5
1DC0
102
{ACAD_REACTORS
330
1DBA
102
}
330
1DBA
100
AcDbProxyObject
 90
      499
 91
      510
 93
      121
310
905313A3130004000000000000244051
 94
        0
1001
ACAD
1000
AcadProxyRoundTripData
1071
      507
1071
   655383
1070
     0
  0
ACAD_PROXY_OBJECT
  5
1DC1
102
{ACAD_REACTORS
330
1DBA
102
}
330
1DBA
100
AcDbProxyObject
 90
      499
 91
      510
 93
      121
310
905313A3136004000000000000304051
 94
        0
1001
ACAD
1000
AcadProxyRoundTripData
1071
      507
1071
   655383
1070
     0
  0
ACAD_PROXY_OBJECT
  5
1DC2
102
{ACAD_REACTORS
330
1DBA
102
}
330
1DBA
100
AcDbProxyObject
 90
      499
 91
      510
 93
      121
310
905313A3230004000000000000344051
 94
        0
1001
ACAD
1000
AcadProxyRoundTripData
1071
      507
1071
   655383
1070
     0
  0
ACAD_PROXY_OBJECT
  5
1DC3
102
{ACAD_REACTORS
330
1DBA
102
}
330
1DBA
100
AcDbProxyObject
 90
      499
 91
      510
 93
      121
310
905313A33300040000000000003E4051
 94
        0
1001
ACAD
1000
AcadProxyRoundTripData
1071
      507
1071
   655383
1070
     0
  0
ACAD_PROXY_OBJECT
  5
1DC4
102
{ACAD_REACTORS
330
1DBA
102
}
330
1DBA
100
AcDbProxyObject
 90
      499
 91
      510
 93
      121
310
905313A3430004000000000000444051
 94
        0
1001
ACAD
1000
AcadProxyRoundTripData
1071
      507
1071
   655383
1070
     0
  0
ACAD_PROXY_OBJECT
  5
1DC5
102
{ACAD_REACTORS
330
1DBA
102
}
330
1DBA
100
AcDbProxyObject
 90
      499
 91
      510
 93
      121
310
905313A3530004000000000000494051
 94
        0
1001
ACAD
1000
AcadProxyRoundTripData
1071
      507
1071
   655383
1070
     0
  0
ACAD_PROXY_OBJECT
  5
1DC6
102
{ACAD_REACTORS
330
1DBA
102
}
330
1DBA
100
AcDbProxyObject
 90
      499
 91
      510
 93
      129
310
906313A313030004000000000000594038
 94
        0
1001
ACAD
1000
AcadProxyRoundTripData
1071
      507
1071
   655383
1070
     0
  0
ACAD_PROXY_OBJECT
  5
1DC7
102
{ACAD_REACTORS
330
1DBA
102
}
330
1DBA
100
AcDbProxyObject
 90
      499
 91
      510
 93
      113
310
904323A31000000000000000010159
 94
        0
1001
ACAD
1000
AcadProxyRoundTripData
1071
      507
1071
   655383
1070
     0
  0
ACAD_PROXY_OBJECT
  5
1DC8
102
{ACAD_REACTORS
330
1DBA
102
}
330
1DBA
100
AcDbProxyObject
 90
      499
 91
      510
 93
      113
310
904343A31000000000000000410159
 94
        0
1001
ACAD
1000
AcadProxyRoundTripData
1071
      507
1071
   655383
1070
     0
  0
ACAD_PROXY_OBJECT
  5
1DC9
102
{ACAD_REACTORS
330
1DBA
102
}
330
1DBA
100
AcDbProxyObject
 90
      499
 91
      510
 93
      113
310
904383A31000000000000000810159
 94
        0
1001
ACAD
1000
AcadProxyRoundTripData
1071
      507
1071
   655383
1070
     0
  0
ACAD_PROXY_OBJECT
  5
1DCA
102
{ACAD_REACTORS
330
1DBA
102
}
330
1DBA
100
AcDbProxyObject
 90
      499
 91
      510
 93
      121
310
90531303A31000000000000000910140
 94
        0
1001
ACAD
1000
AcadProxyRoundTripData
1071
      507
1071
   655383
1070
     0
  0
ACAD_PROXY_OBJECT
  5
1DCB
102
{ACAD_REACTORS
330
1DBA
102
}
330
1DBA
100
AcDbProxyObject
 90
      499
 91
      510
 93
      129
310
9063130303A31000000000000001650138
 94
        0
1001
ACAD
1000
AcadProxyRoundTripData
1071
      507
1071
   655383
1070
     0
  0
ACAD_PROXY_OBJECT
  5
1DCC
102
{ACAD_REACTORS
330
1DBA
102
}
330
1DBA
100
AcDbProxyObject
 90
      499
 91
      510
 93
      265
310
90F312F31323822203D2031272D302200000000000000200FC00000000000028402B
 94
        0
1001
ACAD
1000
AcadProxyRoundTripData
1071
      507
1071
   655383
1070
     0
  0
ACAD_PROXY_OBJECT
  5
1DCD
102
{ACAD_REACTORS
330
1DBA
102
}
330
1DBA
100
AcDbProxyObject
 90
      499
 91
      510
 93
      257
310
90E312F363422203D2031272D302200000000000000240FC000000000000284040
 94
        0
1001
ACAD
1000
AcadProxyRoundTripData
1071
      507
1071
   655383
1070
     0
  0
ACAD_PROXY_OBJECT
  5
1DCE
102
{ACAD_REACTORS
330
1DBA
102
}
330
1DBA
100
AcDbProxyObject
 90
      499
 91
      510
 93
      257
310
90E312F333222203D2031272D302200000000000000280FC000000000000284040
 94
        0
1001
ACAD
1000
AcadProxyRoundTripData
1071
      507
1071
   655383
1070
     0
  0
ACAD_PROXY_OBJECT
  5
1DCF
102
{ACAD_REACTORS
330
1DBA
102
}
330
1DBA
100
AcDbProxyObject
 90
      499
 91
      510
 93
      257
310
90E312F313622203D2031272D3022000000000000002C0FC000000000000284040
 94
        0
1001
ACAD
1000
AcadProxyRoundTripData
1071
      507
1071
   655383
1070
     0
  0
ACAD_PROXY_OBJECT
  5
1DD0
102
{ACAD_REACTORS
330
1DBA
102
}
330
1DBA
100
AcDbProxyObject
 90
      499
 91
      510
 93
      257
310
90E332F333222203D2031272D3022000000000000002E0FC000000000000284040
 94
        0
1001
ACAD
1000
AcadProxyRoundTripData
1071
      507
1071
   655383
1070
     0
  0
ACAD_PROXY_OBJECT
  5
1DD1
102
{ACAD_REACTORS
330
1DBA
102
}
330
1DBA
100
AcDbProxyObject
 90
      499
 91
      510
 93
      249
310
90D312F3822203D2031272D302200000000000000300FC000000000000284040
 94
        0
1001
ACAD
1000
AcadProxyRoundTripData
1071
      507
1071
   655383
1070
     0
  0
ACAD_PROXY_OBJECT
  5
1DD2
102
{ACAD_REACTORS
330
1DBA
102
}
330
1DBA
100
AcDbProxyObject
 90
      499
 91
      510
 93
      257
310
90E332F313622203D2031272D302200000000000000320FC000000000000284040
 94
        0
1001
ACAD
1000
AcadProxyRoundTripData
1071
      507
1071
   655383
1070
     0
  0
ACAD_PROXY_OBJECT
  5
1DD3
102
{ACAD_REACTORS
330
1DBA
102
}
330
1DBA
100
AcDbProxyObject
 90
      499
 91
      510
 93
      249
310
90D312F3422203D2031272D302200000000000000340FC000000000000284040
 94
        0
1001
ACAD
1000
AcadProxyRoundTripData
1071
      507
1071
   655383
1070
     0
  0
ACAD_PROXY_OBJECT
  5
1DD4
102
{ACAD_REACTORS
330
1DBA
102
}
330
1DBA
100
AcDbProxyObject
 90
      499
 91
      510
 93
      249
310
90D332F3822203D2031272D302200000000000000360FC000000000000284040
 94
        0
1001
ACAD
1000
AcadProxyRoundTripData
1071
      507
1071
   655383
1070
     0
  0
ACAD_PROXY_OBJECT
  5
1DD5
102
{ACAD_REACTORS
330
1DBA
102
}
330
1DBA
100
AcDbProxyObject
 90
      499
 91
      510
 93
      249
310
90D312F3222203D2031272D302200000000000000380FC000000000000284040
 94
        0
1001
ACAD
1000
AcadProxyRoundTripData
1071
      507
1071
   655383
1070
     0
  0
ACAD_PROXY_OBJECT
  5
1DD6
102
{ACAD_REACTORS
330
1DBA
102
}
330
1DBA
100
AcDbProxyObject
 90
      499
 91
      510
 93
      249
310
90D332F3422203D2031272D3022000000000000003A0FC000000000000284040
 94
        0
1001
ACAD
1000
AcadProxyRoundTripData
1071
      507
1071
   655383
1070
     0
  0
ACAD_PROXY_OBJECT
  5
1DD7
102
{ACAD_REACTORS
330
1DBA
102
}
330
1DBA
100
AcDbProxyObject
 90
      499
 91
      510
 93
      169
310
90B3122203D2031272D3022004000000000000284020
 94
        0
1001
ACAD
1000
AcadProxyRoundTripData
1071
      507
1071
   655383
1070
     0
  0
ACAD_PROXY_OBJECT
  5
1DD8
102
{ACAD_REACTORS
330
1DBA
102
}
330
1DBA
100
AcDbProxyObject
 90
      499
 91
      510
 93
      265
310
90F312D312F3222203D2031272D3022000000000000003E0FC00000000000028402B
 94
        0
1001
ACAD
1000
AcadProxyRoundTripData
1071
      507
1071
   655383
1070
     0
  0
ACAD_PROXY_OBJECT
  5
1DD9
102
{ACAD_REACTORS
330
1DBA
102
}
330
1DBA
100
AcDbProxyObject
 90
      499
 91
      510
 93
      233
310
90B3322203D2031272D30220000000000000002100000000000000284000
 94
        0
1001
ACAD
1000
AcadProxyRoundTripData
1071
      507
1071
   655383
1070
     0
  0
ACAD_PROXY_OBJECT
  5
1DDA
102
{ACAD_REACTORS
330
1DBA
102
}
330
1DBA
100
AcDbProxyObject
 90
      499
 91
      510
 93
      233
310
90B3622203D2031272D30220000000000000006100000000000000284000
 94
        0
1001
ACAD
1000
AcadProxyRoundTripData
1071
      507
1071
   655383
1070
     0
  0
ACAD_PROXY_OBJECT
  5
1DDB
102
{ACAD_REACTORS
330
1DBA
102
}
330
1DBA
100
AcDbProxyObject
 90
      499
 91
      510
 93
      257
310
90E31272D3022203D2031272D3022000000000000000A100000000000000284040
 94
        0
1001
ACAD
1000
AcadProxyRoundTripData
1071
      507
1071
   655383
1070
     0
  0
ACAD_PROXY_OBJECT
  5
1DB9
102
{ACAD_XDICTIONARY
360
1DF3
102
}
102
{ACAD_REACTORS
330
1DB8
102
}
330
1DB8
100
AcDbProxyObject
 90
      499
 91
      510
 93
     1849
310
4254DD185B99185C990028B81E85EB51B8AE3F2E07A17AD46E2B8FC02B5E8DC0F42B1CFD028000000C1008070000C3001FDFF8000000C1003FBFF000000182007F7FE00000030400FEFFC00000060801FDFF8000000C1003FBFF00000018200000000000000681FA0B0000001820100E000186003FBFF000000182007F7FE0
310
0000030400FEFFC00000060801FDFF8000000C1003FBFF000000182007F7FE000000304000AD7A3703D0AC73F4160000003040201C00030C007F7FE00000030400FEFFC00000060801FDFF8000000C1003FBFF000000182007F7FE00000030400FEFFC000000608074
340
16
340
16
340
16
 94
        0
1001
ACAD
1000
AcadProxyRoundTripData
1071
      506
1071
   655383
1070
     0
  0
ACAD_PROXY_OBJECT
  5
1DAC
102
{ACAD_REACTORS
330
1DA6
102
}
330
1DA6
100
AcDbProxyObject
 90
      499
 91
      510
 93
      444
310
430C9915DA5C99599C985B59401049028333333333333E3BF0000000000000FB0107901411070040501600405405064090741402480A0340
 94
        0
1001
ACAD
1000
AcDbSavedByObjectVersion
1070
     0
1000
AcadProxyRoundTripData
1071
      505
1071
   655383
1070
     0
  0
ACAD_PROXY_OBJECT
  5
1DAE
102
{ACAD_REACTORS
330
1DA6
102
}
330
1DA6
100
AcDbProxyObject
 90
      499
 91
      510
 93
      508
310
428CD108121A5919195B8010640502408333333333333E3BF0000000000000FB01079024090700405020000000000001110200405405064090740C02480A0340
 94
        0
1001
ACAD
1000
AcDbSavedByObjectVersion
1070
     0
1000
AcadProxyRoundTripData
1071
      505
1071
   655383
1070
     0
  0
ACAD_PROXY_OBJECT
  5
1DAD
102
{ACAD_REACTORS
330
1DA6
102
}
330
1DA6
100
AcDbProxyObject
 90
      499
 91
      510
 93
      444
310
430CD915DA5C99599C985B59401059028333333333333E3BF0000000000000FB0107901411070040501600405405064090741402480A0340
 94
        0
1001
ACAD
1000
AcDbSavedByObjectVersion
1070
     0
1000
AcadProxyRoundTripData
1071
      505
1071
   655383
1070
     0
  0
ACAD_PROXY_OBJECT
  5
1DAB
102
{ACAD_REACTORS
330
1DA6
102
}
330
1DA6
100
AcDbProxyObject
 90
      499
 91
      510
 93
      396
310
4190985CDA58C0107406404333333333333E3BF0000000000000FB0107A41107004050150841D405064090741402480A0356
 94
        0
1001
ACAD
1000
AcDbSavedByObjectVersion
1070
     0
1000
AcadProxyRoundTripData
1071
      505
1071
   655383
1070
     0
  0
ACAD_PROXY_OBJECT
  5
1DB2
102
{ACAD_REACTORS
330
1DA6
102
}
330
1DA6
100
AcDbProxyObject
 90
      499
 91
      510
 93
      436
310
42509C9A59DA1D195B8010C409028333333333333E3BF0000000000000FB010790141107004050150841D405064090741402480A029956
 94
        0
1001
ACAD
1000
AcDbSavedByObjectVersion
1070
     0
1000
AcadProxyRoundTripData
1071
      505
1071
   655383
1070
     0
  0
ACAD_PROXY_OBJECT
  5
1DB6
102
{ACAD_REACTORS
330
1DA6
102
}
330
1DA6
100
AcDbProxyObject
 90
      499
 91
      510
 93
      460
310
4310DBDB1BDC90DA185B99D9401104090240C333333333333E3BF0000000000000FB0108901411070040501508421405064090741402480A0354
 94
        0
1001
ACAD
1000
AcDbSavedByObjectVersion
1070
     0
1000
AcadProxyRoundTripData
1071
      505
1071
   655383
1070
     0
  0
ACAD_PROXY_OBJECT
  5
1DAF
102
{ACAD_REACTORS
330
1DA6
102
}
330
1DA6
100
AcDbProxyObject
 90
      499
 91
      510
 93
      508
310
42D0DBDB98D95C1D1D585B0010940D028333333333333E3BF0000000000000FB0107902409070040501000000000000111010841D405064090740C02480A0340
 94
        0
1001
ACAD
1000
AcDbSavedByObjectVersion
1070
     0
1000
AcadProxyRoundTripData
1071
      505
1071
   655383
1070
     0
  0
ACAD_PROXY_OBJECT
  5
1DB1
102
{ACAD_REACTORS
330
1DA6
102
}
330
1DA6
100
AcDbProxyObject
 90
      499
 91
      510
 93
      420
310
41111A5B4010B409028333333333333E3BF0000000000000FB010790141107004050150841D405064090741402480A02677FFFFFDB
 94
        0
1001
ACAD
1000
AcDbSavedByObjectVersion
1070
     0
1000
AcadProxyRoundTripData
1071
      505
1071
   655383
1070
     0
  0
ACAD_PROXY_OBJECT
  5
1DB5
102
{ACAD_REACTORS
330
1DA6
102
}
330
1DA6
100
AcDbProxyObject
 90
      499
 91
      510
 93
      452
310
43119858D95C185D1D195C9B8010F409028333333333333E3BF0000000000000FB010790141107004050150841D405064090741402480A0350
 94
        0
1001
ACAD
1000
AcDbSavedByObjectVersion
1070
     0
1000
AcadProxyRoundTripData
1071
      505
1071
   655383
1070
     0
  0
ACAD_PROXY_OBJECT
  5
1DA7
102
{ACAD_REACTORS
330
1DA6
102
}
330
1DA6
100
AcDbProxyObject
 90
      499
 91
      510
 93
      396
310
41519B185D00240901404333333333333E3BF0000000000000F9010740A41107004050150841D405064090741402480A1B55
 94
        0
1001
ACAD
1000
AcDbSavedByObjectVersion
1070
     0
1000
AcadProxyRoundTripData
1071
      505
1071
   655383
1070
     0
  0
ACAD_PROXY_OBJECT
  5
1DA8
102
{ACAD_REACTORS
330
1DA6
102
}
330
1DA6
100
AcDbProxyObject
 90
      499
 91
      510
 93
      484
310
43919B185D15DA5D1A115919D95CC010140901404333333333333E3BF0000000000000F9010740901411070040501600405405064090741402480A1B50
 94
        0
1001
ACAD
1000
AcDbSavedByObjectVersion
1070
     0
1000
AcadProxyRoundTripData
1071
      505
1071
   655383
1070
     0
  0
ACAD_PROXY_OBJECT
  5
1DA9
102
{ACAD_REACTORS
330
1DA6
102
}
330
1DA6
100
AcDbProxyObject
 90
      499
 91
      510
 93
      420
310
4211DBDD5C985D590010240902404333333333333E3BF0000000000000F9010740A411070040501641D405064090741402480A1B50
 94
        0
1001
ACAD
1000
AcDbSavedByObjectVersion
1070
     0
1000
AcadProxyRoundTripData
1071
      505
1071
   655383
1070
     0
  0
ACAD_PROXY_OBJECT
  5
1DAA
102
{ACAD_REACTORS
330
1DA6
102
}
330
1DA6
100
AcDbProxyObject
 90
      499
 91
      510
 93
      508
310
4451DBDD5C985D5915DA5D1A115919D95CC010340902404333333333333E3BF0000000000000F9010740901411070040501600405405064090741402480A1B50
 94
        0
1001
ACAD
1000
AcDbSavedByObjectVersion
1070
     0
1000
AcadProxyRoundTripData
1071
      505
1071
   655383
1070
     0
  0
ACAD_PROXY_OBJECT
  5
1DB4
102
{ACAD_REACTORS
330
1DA6
102
}
330
1DA6
100
AcDbProxyObject
 90
      499
 91
      510
 93
      452
310
43131A5B995C185D1D195C9B8010E409028333333333333E3BF0000000000000FB010790141107004050750841D405064090741402483A0350
 94
        0
1001
ACAD
1000
AcDbSavedByObjectVersion
1070
     0
1000
AcadProxyRoundTripData
1071
      505
1071
   655383
1070
     0
  0
ACAD_PROXY_OBJECT
  5
1DB0
102
{ACAD_REACTORS
330
1DA6
102
}
330
1DA6
100
AcDbProxyObject
 90
      499
 91
      510
 93
      428
310
429499585B1A5CDD1A58C0108409028333333333333E3BF0000000000000FB01079019070040501508421405064090741402480A1B45
 94
        0
1001
ACAD
1000
AcDbSavedByObjectVersion
1070
     0
1000
AcadProxyRoundTripData
1071
      505
1071
   655383
1070
     0
  0
ACAD_PROXY_OBJECT
  5
1DB3
102
{ACAD_REACTORS
330
1DA6
102
}
330
1DA6
100
AcDbProxyObject
 90
      499
 91
      510
 93
      420
310
42151A1A58DAD95B8010D409028333333333333E3BF0000000000000FB010790141107004050150C41D405064090741402480A0352
 94
        0
1001
ACAD
1000
AcDbSavedByObjectVersion
1070
     0
1000
AcadProxyRoundTripData
1071
      505
1071
   655383
1070
     0
  0
XRECORD
  5
299A
102
{ACAD_REACTORS
330
2990
102
}
330
2990
100
AcDbXrecord
 90
        0
  0
XRECORD
  5
299E
102
{ACAD_REACTORS
330
2990
102
}
330
2990
100
AcDbXrecord
1000
DSTYLE
1002
{
1070
   179
 70
     2
1070
   277
 70
     6
1002
}
  0
XRECORD
  5
299B
102
{ACAD_REACTORS
330
2990
102
}
330
2990
100
AcDbXrecord
  1
{6385560B-F4B1-4644-A7C2-A3E32AC3D232}
  0
XRECORD
  5
2993
102
{ACAD_REACTORS
330
2990
102
}
330
2990
100
AcDbXrecord
  1

  0
XRECORD
  5
2999
102
{ACAD_REACTORS
330
2990
102
}
330
2990
100
AcDbXrecord
 90
        0
  0
XRECORD
  5
2995
102
{ACAD_REACTORS
330
2990
102
}
330
2990
100
AcDbXrecord
340
61
  0
XRECORD
  5
2998
102
{ACAD_REACTORS
330
2990
102
}
330
2990
100
AcDbXrecord
 90
    10781
  0
XRECORD
  5
2996
102
{ACAD_REACTORS
330
2990
102
}
330
2990
100
AcDbXrecord
340
77
  0
XRECORD
  5
2997
102
{ACAD_REACTORS
330
2990
102
}
330
2990
100
AcDbXrecord
340
6
  0
XRECORD
  5
299D
102
{ACAD_REACTORS
330
2990
102
}
330
2990
100
AcDbXrecord
 40
0.0
  0
XRECORD
  5
29A1
102
{ACAD_REACTORS
330
2990
102
}
330
2990
100
AcDbXrecord
340
0
  0
XRECORD
  5
29A7
102
{ACAD_REACTORS
330
2990
102
}
330
2990
100
AcDbXrecord
 10
0.0
 20
0.0
 30
0.0
  0
XRECORD
  5
29A3
102
{ACAD_REACTORS
330
2990
102
}
330
2990
100
AcDbXrecord
 10
0.0
 20
0.0
 30
0.0
  0
XRECORD
  5
29A6
102
{ACAD_REACTORS
330
2990
102
}
330
2990
100
AcDbXrecord
 10
0.0
 20
0.0
 30
0.0
  0
XRECORD
  5
29A4
102
{ACAD_REACTORS
330
2990
102
}
330
2990
100
AcDbXrecord
 10
0.0
 20
0.0
 30
0.0
  0
XRECORD
  5
29A5
102
{ACAD_REACTORS
330
2990
102
}
330
2990
100
AcDbXrecord
 10
0.0
 20
0.0
 30
0.0
  0
XRECORD
  5
29A2
102
{ACAD_REACTORS
330
2990
102
}
330
2990
100
AcDbXrecord
 10
0.0
 20
0.0
 30
0.0
  0
XRECORD
  5
299F
102
{ACAD_REACTORS
330
2990
102
}
330
2990
100
AcDbXrecord
340
0
  0
XRECORD
  5
29A0
102
{ACAD_REACTORS
330
2990
102
}
330
2990
100
AcDbXrecord
 70
     0
  0
XRECORD
  5
2994
102
{ACAD_REACTORS
330
2990
102
}
330
2990
100
AcDbXrecord
  1
Sekkei.ctb
  0
XRECORD
  5
2991
102
{ACAD_REACTORS
330
2990
102
}
330
2990
100
AcDbXrecord
 90
        1
  0
XRECORD
  5
2992
102
{ACAD_REACTORS
330
2990
102
}
330
2990
100
AcDbXrecord
 90
       70
  0
XRECORD
  5
29AA
102
{ACAD_REACTORS
330
2990
102
}
330
2990
100
AcDbXrecord
340
0
  0
XRECORD
  5
29B0
102
{ACAD_REACTORS
330
2990
102
}
330
2990
100
AcDbXrecord
 10
0.0
 20
0.0
 30
0.0
  0
XRECORD
  5
29AC
102
{ACAD_REACTORS
330
2990
102
}
330
2990
100
AcDbXrecord
 10
0.0
 20
0.0
 30
0.0
  0
XRECORD
  5
29AF
102
{ACAD_REACTORS
330
2990
102
}
330
2990
100
AcDbXrecord
 10
0.0
 20
0.0
 30
0.0
  0
XRECORD
  5
29AD
102
{ACAD_REACTORS
330
2990
102
}
330
2990
100
AcDbXrecord
 10
0.0
 20
0.0
 30
0.0
  0
XRECORD
  5
29AE
102
{ACAD_REACTORS
330
2990
102
}
330
2990
100
AcDbXrecord
 10
0.0
 20
0.0
 30
0.0
  0
XRECORD
  5
29AB
102
{ACAD_REACTORS
330
2990
102
}
330
2990
100
AcDbXrecord
 10
0.0
 20
0.0
 30
0.0
  0
XRECORD
  5
29A8
102
{ACAD_REACTORS
330
2990
102
}
330
2990
100
AcDbXrecord
340
0
  0
XRECORD
  5
29A9
102
{ACAD_REACTORS
330
2990
102
}
330
2990
100
AcDbXrecord
 70
     0
  0
XRECORD
  5
299C
102
{ACAD_REACTORS
330
2990
102
}
330
2990
100
AcDbXrecord
  1
{955E605E-CDA8-43DC-BF2E-E6AC4ECBB55A}
  0
DICTIONARYVAR
  5
1E18
102
{ACAD_REACTORS
330
102
102
}
330
102
100
DictionaryVariables
280
     0
  1
1:1
  0
DICTIONARYVAR
  5
1E17
102
{ACAD_REACTORS
330
102
102
}
330
102
100
DictionaryVariables
280
     0
  1
STANDARD
  0
DICTIONARYVAR
  5
1E16
102
{ACAD_REACTORS
330
102
102
}
330
102
100
DictionaryVariables
280
     0
  1
STANDARD
  0
DICTIONARYVAR
  5
103
102
{ACAD_REACTORS
330
102
102
}
330
102
100
DictionaryVariables
280
     0
  1
1
  0
DICTIONARYVAR
  5
1E19
102
{ACAD_REACTORS
330
102
102
}
330
102
100
DictionaryVariables
280
     0
  1
0
  0
DICTIONARYVAR
  5
549
102
{ACAD_REACTORS
330
102
102
}
330
102
100
DictionaryVariables
280
     0
  1
96
  0
DICTIONARY
  5
1D97
330
1D96
100
AcDbDictionary
280
     1
  3
ACAD_XREC_ROUNDTRIP
360
296F
  3
BUMPTILE
360
1D99
  3
DIFFUSETILE
360
1D98
  3
OPACITYTILE
360
1D9C
  3
REFLECTIONTILE
360
1D9B
  3
REFRACTIONTILE
360
1D9D
  3
SPECULARTILE
360
1D9A
  0
DICTIONARY
  5
1D8F
330
1D8E
100
AcDbDictionary
280
     1
  3
ACAD_XREC_ROUNDTRIP
360
296E
  3
BUMPTILE
360
1D91
  3
DIFFUSETILE
360
1D90
  3
OPACITYTILE
360
1D94
  3
REFLECTIONTILE
360
1D93
  3
REFRACTIONTILE
360
1D95
  3
SPECULARTILE
360
1D92
  0
DICTIONARY
  5
1D9F
330
1D9E
100
AcDbDictionary
280
     1
  3
ACAD_XREC_ROUNDTRIP
360
2970
  3
BUMPTILE
360
1DA1
  3
DIFFUSETILE
360
1DA0
  3
OPACITYTILE
360
1DA4
  3
REFLECTIONTILE
360
1DA3
  3
REFRACTIONTILE
360
1DA5
  3
SPECULARTILE
360
1DA2
  0
DICTIONARY
  5
1DF3
330
1DB9
100
AcDbDictionary
280
     1
  3
ACAD_ROUNDTRIP_2008_TABLES
360
295A
  3
ACAD_XREC_ROUNDTRIP
360
2971
  0
XRECORD
  5
296F
102
{ACAD_REACTORS
330
1D97
102
}
330
1D97
100
AcDbXrecord
102
MATERIAL
148
0.0
149
0.0
149
0.0
 93
        0
 94
      127
282
     0
 72
     0
 77
     0
171
     0
175
     0
179
     0
273
     0
  0
XRECORD
  5
1D99
102
{ACAD_REACTORS
330
1D97
102
}
330
1D97
100
AcDbXrecord
270
     1
271
     1
  0
XRECORD
  5
1D98
102
{ACAD_REACTORS
330
1D97
102
}
330
1D97
100
AcDbXrecord
270
     1
271
     1
  0
XRECORD
  5
1D9C
102
{ACAD_REACTORS
330
1D97
102
}
330
1D97
100
AcDbXrecord
270
     1
271
     1
  0
XRECORD
  5
1D9B
102
{ACAD_REACTORS
330
1D97
102
}
330
1D97
100
AcDbXrecord
270
     1
271
     1
  0
XRECORD
  5
1D9D
102
{ACAD_REACTORS
330
1D97
102
}
330
1D97
100
AcDbXrecord
270
     1
271
     1
  0
XRECORD
  5
1D9A
102
{ACAD_REACTORS
330
1D97
102
}
330
1D97
100
AcDbXrecord
270
     1
271
     1
  0
XRECORD
  5
296E
102
{ACAD_REACTORS
330
1D8F
102
}
330
1D8F
100
AcDbXrecord
102
MATERIAL
148
0.0
149
0.0
149
0.0
 93
        0
 94
      127
282
     0
 72
     0
 77
     0
171
     0
175
     0
179
     0
273
     0
  0
XRECORD
  5
1D91
102
{ACAD_REACTORS
330
1D8F
102
}
330
1D8F
100
AcDbXrecord
270
     1
271
     1
  0
XRECORD
  5
1D90
102
{ACAD_REACTORS
330
1D8F
102
}
330
1D8F
100
AcDbXrecord
270
     1
271
     1
  0
XRECORD
  5
1D94
102
{ACAD_REACTORS
330
1D8F
102
}
330
1D8F
100
AcDbXrecord
270
     1
271
     1
  0
XRECORD
  5
1D93
102
{ACAD_REACTORS
330
1D8F
102
}
330
1D8F
100
AcDbXrecord
270
     1
271
     1
  0
XRECORD
  5
1D95
102
{ACAD_REACTORS
330
1D8F
102
}
330
1D8F
100
AcDbXrecord
270
     1
271
     1
  0
XRECORD
  5
1D92
102
{ACAD_REACTORS
330
1D8F
102
}
330
1D8F
100
AcDbXrecord
270
     1
271
     1
  0
XRECORD
  5
2970
102
{ACAD_REACTORS
330
1D9F
102
}
330
1D9F
100
AcDbXrecord
102
MATERIAL
148
0.0
149
0.0
149
0.0
 93
        0
 94
      127
282
     0
 72
     0
 77
     0
171
     0
175
     0
179
     0
273
     0
  0
XRECORD
  5
1DA1
102
{ACAD_REACTORS
330
1D9F
102
}
330
1D9F
100
AcDbXrecord
270
     1
271
     1
  0
XRECORD
  5
1DA0
102
{ACAD_REACTORS
330
1D9F
102
}
330
1D9F
100
AcDbXrecord
270
     1
271
     1
  0
XRECORD
  5
1DA4
102
{ACAD_REACTORS
330
1D9F
102
}
330
1D9F
100
AcDbXrecord
270
     1
271
     1
  0
XRECORD
  5
1DA3
102
{ACAD_REACTORS
330
1D9F
102
}
330
1D9F
100
AcDbXrecord
270
     1
271
     1
  0
XRECORD
  5
1DA5
102
{ACAD_REACTORS
330
1D9F
102
}
330
1D9F
100
AcDbXrecord
270
     1
271
     1
  0
XRECORD
  5
1DA2
102
{ACAD_REACTORS
330
1D9F
102
}
330
1D9F
100
AcDbXrecord
270
     1
271
     1
  0
ACAD_PROXY_OBJECT
  5
295A
102
{ACAD_REACTORS
330
1DF3
102
}
330
1DF3
100
AcDbProxyObject
 90
      499
 91
      510
 93
     5304
310
40D054060020000020000003200101A000080002A5058000000C100000000000000340FD012E07A17AD46E2B8FCB81E85EB51B8AE3F2E07A17AD46E2B8FCB81E85EB51B8AE3F02B5E8DC0F42B1CFC0AD7A3703D0AC73F419019018000000C1003FBFFFFFE02B5E8DC0F42A9CFD029018000000C1003FBFFFFFE02B5E8DC0F4
310
2A9CFD049018000000C1003FBFFFFFE02B5E8DC0F42A9CFD089018000000C1003FBFFFFFE02B5E8DC0F42A9CFD109018000000C1003FBFFFFFE02B5E8DC0F42A9CFD209018000000C1003FBFFFFFE02B5E8DC0F42A9CFD01405075F5449544C450041501A8000000C800406800020000A9416000000304000AD7A3703D0AC7
310
3F404B81E85EB51B8AE3F2E07A17AD46E2B8FCB81E85EB51B8AE3F2E07A17AD46E2B8FC0AD7A3703D0AC73F02B5E8DC0F42B1CFD0640640600000030400FEFFFFFF80AD7A3703D0AA73F40A40600000030400FEFFFFFF80AD7A3703D0AA73F41240600000030400FEFFFFFF80AD7A3703D0AA73F42240600000030400FEFFF
310
FFF80AD7A3703D0AA73F44240600000030400FEFFFFFF80AD7A3703D0AA73F48240600000030400FEFFFFFF80AD7A3703D0AA73F409014217D2115051115480105406A0000003200101A000080002A5028000000C10002B5E8DC0F42B1CFD012E07A17AD46E2B8FCB81E85EB51B8AE3F2E07A17AD46E2B8FCB81E85EB51B8A
310
E3F02B5E8DC0F42B1CFC0AD7A3703D0AC73F419019018000000C1003FBFFFFFE02B5E8DC0F42A9CFD029018000000C1003FBFFFFFE02B5E8DC0F42A9CFD049018000000C1003FBFFFFFE02B5E8DC0F42A9CFD089018000000C1003FBFFFFFE02B5E8DC0F42A9CFD109018000000C1003FBFFFFFE02B5E8DC0F42A9CFD20901
310
8000000C1003FBFFFFFE02B5E8DC0F42A9CFD03409065F444154410000
340
16
340
0
340
0
340
0
340
0
340
0
340
0
340
16
340
0
340
0
340
0
340
0
340
0
340
0
340
16
340
0
340
0
340
0
340
0
340
0
340
0
 94
        0
1001
ACAD
1000
AcadProxyRoundTripData
1071
      509
1071
   655383
1070
     0
  0
XRECORD
  5
2971
102
{ACAD_REACTORS
330
1DF3
102
}
330
1DF3
100
AcDbXrecord
102
ACAD_ROUNDTRIP_PRE2007_TABLESTYLE
 90
      512
 91
        0
  1

 92
      512
 93
        0
  2

 94
      512
 95
        0
  3

  0
ENDSEC
  0
EOF
