  0
SECTION
  2
HEADER
  9
$ACADVER
  1
AC1014
  9
$ACADMAINTVER
 70
     9
  9
$DWGCODEPAGE
  3
ANSI_932
  9
$INSBASE
 10
0.0
 20
0.0
 30
0.0
  9
$EXTMIN
 10
42.30046278926193
 20
57.44019796454634
 30
0.0
  9
$EXTMAX
 10
732.8518023060715
 20
347.517668252606
 30
0.0
  9
$LIMMIN
 10
0.0
 20
0.0
  9
$LIMMAX
 10
297.0
 20
210.0
  9
$ORTHOMODE
 70
     1
  9
$REGENMODE
 70
     1
  9
$FILLMODE
 70
     1
  9
$QTEXTMODE
 70
     0
  9
$MIRRTEXT
 70
     0
  9
$DRAGMODE
 70
     2
  9
$LTSCALE
 40
2.0
  9
$OSMODE
 70
    37
  9
$ATTMODE
 70
     1
  9
$TEXTSIZE
 40
2.0
  9
$TRACEWID
 40
1.0
  9
$TEXTSTYLE
  7
STANDARD
  9
$CLAYER
  8
0
  9
$CELTYPE
  6
BYLAYER
  9
$CECOLOR
 62
   256
  9
$CELTSCALE
 40
1.0
  9
$DELOBJ
 70
     1
  9
$DISPSILH
 70
     0
  9
$DIMSCALE
 40
2.0
  9
$DIMASZ
 40
1.8
  9
$DIMEXO
 40
0.625
  9
$DIMDLI
 40
3.75
  9
$DIMRND
 40
0.0
  9
$DIMDLE
 40
0.0
  9
$DIMEXE
 40
0.8
  9
$DIMTP
 40
0.0
  9
$DIMTM
 40
0.0
  9
$DIMTXT
 40
1.8
  9
$DIMCEN
 40
2.5
  9
$DIMTSZ
 40
0.0
  9
$DIMTOL
 70
     0
  9
$DIMLIM
 70
     0
  9
$DIMTIH
 70
     0
  9
$DIMTOH
 70
     0
  9
$DIMSE1
 70
     0
  9
$DIMSE2
 70
     0
  9
$DIMTAD
 70
     1
  9
$DIMZIN
 70
     8
  9
$DIMBLK
  1

  9
$DIMASO
 70
     1
  9
$DIMSHO
 70
     1
  9
$DIMPOST
  1

  9
$DIMAPOST
  1

  9
$DIMALT
 70
     0
  9
$DIMALTD
 70
     4
  9
$DIMALTF
 40
0.0394
  9
$DIMLFAC
 40
1.0
  9
$DIMTOFL
 70
     1
  9
$DIMTVP
 40
0.0
  9
$DIMTIX
 70
     0
  9
$DIMSOXD
 70
     0
  9
$DIMSAH
 70
     0
  9
$DIMBLK1
  1

  9
$DIMBLK2
  1

  9
$DIMSTYLE
  2
STANDARD
  9
$DIMCLRD
 70
     0
  9
$DIMCLRE
 70
     0
  9
$DIMCLRT
 70
     0
  9
$DIMTFAC
 40
1.0
  9
$DIMGAP
 40
0.75
  9
$DIMJUST
 70
     0
  9
$DIMSD1
 70
     0
  9
$DIMSD2
 70
     0
  9
$DIMTOLJ
 70
     1
  9
$DIMTZIN
 70
     0
  9
$DIMALTZ
 70
     0
  9
$DIMALTTZ
 70
     0
  9
$DIMFIT
 70
     3
  9
$DIMUPT
 70
     0
  9
$DIMUNIT
 70
     8
  9
$DIMDEC
 70
     2
  9
$DIMTDEC
 70
     2
  9
$DIMALTU
 70
     8
  9
$DIMALTTD
 70
     4
  9
$DIMTXSTY
  7
STANDARD
  9
$DIMAUNIT
 70
     0
  9
$LUNITS
 70
     2
  9
$LUPREC
 70
     3
  9
$SKETCHINC
 40
1.0
  9
$FILLETRAD
 40
10.0
  9
$AUNITS
 70
     0
  9
$AUPREC
 70
     2
  9
$MENU
  1
.
  9
$ELEVATION
 40
0.0
  9
$PELEVATION
 40
0.0
  9
$THICKNESS
 40
0.0
  9
$LIMCHECK
 70
     0
  9
$BLIPMODE
 70
     0
  9
$CHAMFERA
 40
0.0
  9
$CHAMFERB
 40
0.0
  9
$CHAMFERC
 40
20.0
  9
$CHAMFERD
 40
0.0
  9
$SKPOLY
 70
     0
  9
$TDCREATE
 40
2454410.382890984
  9
$TDUPDATE
 40
2454425.763381435
  9
$TDINDWG
 40
0.0730157755
  9
$TDUSRTIMER
 40
0.0730152315
  9
$USRTIMER
 70
     1
  9
$ANGBASE
 50
0.0
  9
$ANGDIR
 70
     0
  9
$PDMODE
 70
     0
  9
$PDSIZE
 40
-10.0
  9
$PLINEWID
 40
0.0
  9
$COORDS
 70
     0
  9
$SPLFRAME
 70
     0
  9
$SPLINETYPE
 70
     6
  9
$SPLINESEGS
 70
     8
  9
$ATTDIA
 70
     0
  9
$ATTREQ
 70
     1
  9
$HANDLING
 70
-16383
  9
$HANDSEED
  5
2DD0
  9
$SURFTAB1
 70
     6
  9
$SURFTAB2
 70
     6
  9
$SURFTYPE
 70
     6
  9
$SURFU
 70
     6
  9
$SURFV
 70
     6
  9
$UCSNAME
  2

  9
$UCSORG
 10
0.0
 20
0.0
 30
0.0
  9
$UCSXDIR
 10
1.0
 20
0.0
 30
0.0
  9
$UCSYDIR
 10
0.0
 20
1.0
 30
0.0
  9
$PUCSNAME
  2

  9
$PUCSORG
 10
0.0
 20
0.0
 30
0.0
  9
$PUCSXDIR
 10
1.0
 20
0.0
 30
0.0
  9
$PUCSYDIR
 10
0.0
 20
1.0
 30
0.0
  9
$USERI1
 70
     0
  9
$USERI2
 70
     0
  9
$USERI3
 70
     0
  9
$USERI4
 70
     0
  9
$USERI5
 70
     0
  9
$USERR1
 40
0.0
  9
$USERR2
 40
0.0
  9
$USERR3
 40
0.0
  9
$USERR4
 40
0.0
  9
$USERR5
 40
0.0
  9
$WORLDVIEW
 70
     1
  9
$SHADEDGE
 70
     3
  9
$SHADEDIF
 70
    70
  9
$TILEMODE
 70
     1
  9
$MAXACTVP
 70
    48
  9
$PINSBASE
 10
0.0
 20
0.0
 30
0.0
  9
$PLIMCHECK
 70
     0
  9
$PEXTMIN
 10
0.0
 20
0.0
 30
0.0
  9
$PEXTMAX
 10
0.0
 20
0.0
 30
0.0
  9
$PLIMMIN
 10
0.0
 20
0.0
  9
$PLIMMAX
 10
12.0
 20
9.0
  9
$UNITMODE
 70
     0
  9
$VISRETAIN
 70
     1
  9
$PLINEGEN
 70
     0
  9
$PSLTSCALE
 70
     1
  9
$TREEDEPTH
 70
  3020
  9
$PICKSTYLE
 70
     1
  9
$CMLSTYLE
  2
STANDARD
  9
$CMLJUST
 70
     0
  9
$CMLSCALE
 40
1.0
  9
$PROXYGRAPHICS
 70
     1
  9
$MEASUREMENT
 70
     0
  0
ENDSEC
  0
SECTION
  2
CLASSES
  0
CLASS
  1
DICTIONARYVAR
  2
AcDbDictionaryVar
  3
AutoCAD 2000
 90
        0
280
     0
281
     0
  0
CLASS
  1
ACDBDICTIONARYWDFLT
  2
AcDbDictionaryWithDefault
  3
AutoCAD 2000
 90
        0
280
     0
281
     0
  0
CLASS
  1
ACDBPLACEHOLDER
  2
AcDbPlaceHolder
  3
AutoCAD 2000
 90
        0
280
     0
281
     0
  0
CLASS
  1
LAYOUT
  2
AcDbLayout
  3
AutoCAD 2000
 90
        0
280
     0
281
     0
  0
CLASS
  1
MATERIAL
  2
AcDbMaterial
  3
ObjectDBX Classes
 90
     1153
280
     0
281
     0
  0
CLASS
  1
VISUALSTYLE
  2
AcDbVisualStyle
  3
ObjectDBX Classes
 90
     4095
280
     0
281
     0
  0
CLASS
  1
TABLESTYLE
  2
AcDbTableStyle
  3
ObjectDBX Classes
 90
     4095
280
     0
281
     0
  0
CLASS
  1
SCALE
  2
AcDbScale
  3
ObjectDBX Classes
 90
     1153
280
     0
281
     0
  0
CLASS
  1
MLEADERSTYLE
  2
AcDbMLeaderStyle
  3
ACDB_MLEADERSTYLE_CLASS
 90
     4095
280
     0
281
     0
  0
CLASS
  1
CELLSTYLEMAP
  2
AcDbCellStyleMap
  3
ObjectDBX Classes
 90
     1152
280
     0
281
     0
  0
CLASS
  1
ACAD_PROXY_OBJECT_WRAPPER
  2
AcDbProxyObjectWrapper
  3
AutoCAD 2000
 90
        0
280
     0
281
     0
  0
CLASS
  1
LONG_TRANSACTION
  2
AcDbLongTransaction
  3
AutoCAD 2000
 90
        0
280
     0
281
     0
  0
CLASS
  1
LWPOLYLINE
  2
AcDbPolyline
  3
AutoCAD 2000
 90
        0
280
     0
281
     1
  0
CLASS
  1
HATCH
  2
AcDbHatch
  3
AutoCAD 2000
 90
        0
280
     0
281
     1
  0
CLASS
  1
XRECORD
  2
AcDbXrecord
  3
AutoCAD 2000
 90
        0
280
     0
281
     0
  0
ENDSEC
  0
SECTION
  2
TABLES
  0
TABLE
  2
VPORT
  5
6E
102
{ACAD_XDICTIONARY
360
1D3D
102
}
330
0
100
AcDbSymbolTable
 70
     2
  0
VPORT
  5
2DAA
330
6E
100
AcDbSymbolTableRecord
100
AcDbViewportTableRecord
  2
*ACTIVE
 70
     0
 10
0.0
 20
0.0
 11
1.0
 21
1.0
 12
435.2679487671465
 22
195.3540758046676
 13
0.0
 23
0.0
 14
10.0
 24
10.0
 15
10.0
 25
10.0
 16
0.0
 26
0.0
 36
1.0
 17
0.0
 27
0.0
 37
0.0
 40
450.2400552340834
 41
1.753504672897196
 42
50.0
 43
0.0
 44
0.0
 50
0.0
 51
0.0
 71
     0
 72
   100
 73
     1
 74
     3
 75
     0
 76
     0
 77
     0
 78
     0
  0
ENDTAB
  0
TABLE
  2
LTYPE
  5
69
330
0
100
AcDbSymbolTable
 70
     5
  0
LTYPE
  5
6A
330
69
100
AcDbSymbolTableRecord
100
AcDbLinetypeTableRecord
  2
BYBLOCK
 70
     0
  3

 72
    65
 73
     0
 40
0.0
  0
LTYPE
  5
6B
330
69
100
AcDbSymbolTableRecord
100
AcDbLinetypeTableRecord
  2
BYLAYER
 70
     0
  3

 72
    65
 73
     0
 40
0.0
  0
LTYPE
  5
8
330
69
100
AcDbSymbolTableRecord
100
AcDbLinetypeTableRecord
  2
CONTINUOUS
 70
     0
  3
Solid line
 72
    65
 73
     0
 40
0.0
  0
LTYPE
  5
27C
330
69
100
AcDbSymbolTableRecord
100
AcDbLinetypeTableRecord
  2
SEKKEI_A2_
 70
     0
  3
center(A2)  ____ _ ____ _ ____ _ ____ _ ____ _ 
 72
    65
 73
     4
 40
14.28749999999999
 49
9.525
 74
     0
 49
-1.587499999999999
 74
     0
 49
1.587499999999999
 74
     0
 49
-1.587499999999999
 74
     0
  0
LTYPE
  5
7F0
330
69
100
AcDbSymbolTableRecord
100
AcDbLinetypeTableRecord
  2
HIDDEN3
 70
     0
  3
Hidden (.3x) _ _ _ _ _ _ _ _ _ _ _ _ _ _ _ _ _
 72
    65
 73
     2
 40
2.857499999999999
 49
1.905
 74
     0
 49
-0.9525
 74
     0
  0
LTYPE
  5
AFD
330
69
100
AcDbSymbolTableRecord
100
AcDbLinetypeTableRecord
  2
CENS
 70
     0
  3
(一点鎖線１)---- - ---- - ---- - ---- - ---- - 
 72
    65
 73
     4
 40
7.0
 49
4.0
 74
     0
 49
-1.0
 74
     0
 49
1.0
 74
     0
 49
-1.0
 74
     0
  0
ENDTAB
  0
TABLE
  2
LAYER
  5
66
102
{ACAD_XDICTIONARY
360
AFE
102
}
330
0
100
AcDbSymbolTable
 70
     9
  0
LAYER
  5
5E
102
{ACAD_XDICTIONARY
360
1D20
102
}
330
66
100
AcDbSymbolTableRecord
100
AcDbLayerTableRecord
  2
0
 70
     0
 62
     7
  6
CONTINUOUS
  0
LAYER
  5
3E
102
{ACAD_XDICTIONARY
360
1D22
102
}
330
66
100
AcDbSymbolTableRecord
100
AcDbLayerTableRecord
  2
CENTER
 70
     0
 62
     3
  6
SEKKEI_A2_
  0
LAYER
  5
2B5
102
{ACAD_XDICTIONARY
360
1D28
102
}
330
66
100
AcDbSymbolTableRecord
100
AcDbLayerTableRecord
  2
HIDS
 70
     0
 62
     1
  6
HIDDEN3
  0
LAYER
  5
2BA
102
{ACAD_XDICTIONARY
360
1D2A
102
}
330
66
100
AcDbSymbolTableRecord
100
AcDbLayerTableRecord
  2
HOJO
 70
     0
 62
     4
  6
CONTINUOUS
  0
LAYER
  5
3FA
102
{ACAD_XDICTIONARY
360
1D2E
102
}
330
66
100
AcDbSymbolTableRecord
100
AcDbLayerTableRecord
  2
TITLE
 70
     0
 62
     4
  6
CONTINUOUS
  0
ENDTAB
  0
TABLE
  2
STYLE
  5
67
330
0
100
AcDbSymbolTable
 70
     2
  0
STYLE
  5
16
330
67
100
AcDbSymbolTableRecord
100
AcDbTextStyleTableRecord
  2
STANDARD
 70
     0
 40
0.0
 41
1.0
 50
0.0
 71
     0
 42
2.0
  3
simplex.shx
  4
extfont.shx
  0
ENDTAB
  0
TABLE
  2
VIEW
  5
6C
330
0
100
AcDbSymbolTable
 70
     0
  0
ENDTAB
  0
TABLE
  2
UCS
  5
6D
330
0
100
AcDbSymbolTable
 70
     0
  0
ENDTAB
  0
TABLE
  2
APPID
  5
70
330
0
100
AcDbSymbolTable
 70
     4
  0
APPID
  5
71
330
70
100
AcDbSymbolTableRecord
100
AcDbRegAppTableRecord
  2
ACAD
 70
     0
  0
APPID
  5
1904
330
70
100
AcDbSymbolTableRecord
100
AcDbRegAppTableRecord
  2
ACAD_MLEADERVER
 70
     0
  0
APPID
  5
1D1E
330
70
100
AcDbSymbolTableRecord
100
AcDbRegAppTableRecord
  2
ACAD_DSTYLE_DIMRADIAL_EXTENSION
 70
     0
  0
APPID
  5
1DC9
330
70
100
AcDbSymbolTableRecord
100
AcDbRegAppTableRecord
  2
ACAD_EXEMPT_FROM_CAD_STANDARDS
 70
     0
  0
ENDTAB
  0
TABLE
  2
DIMSTYLE
  5
72
330
0
100
AcDbSymbolTable
 70
     1
  0
DIMSTYLE
105
73
330
72
100
AcDbSymbolTableRecord
100
AcDbDimStyleTableRecord
  2
STANDARD
 70
     0
  3

  4

  5

  6

  7

 40
2.0
 41
1.8
 42
0.625
 43
3.75
 44
0.8
 45
0.0
 46
0.0
 47
0.0
 48
0.0
140
1.8
141
2.5
142
0.0
143
0.0394
144
1.0
145
0.0
146
1.0
147
0.75
 71
     0
 72
     0
 73
     0
 74
     0
 75
     0
 76
     0
 77
     1
 78
     8
170
     0
171
     4
172
     1
173
     0
174
     0
175
     0
176
     0
177
     0
178
     0
270
     8
271
     2
272
     2
273
     8
274
     4
340
16
275
     0
280
     0
281
     0
282
     0
283
     1
284
     0
285
     0
286
     0
287
     3
288
     0
  0
ENDTAB
  0
TABLE
  2
BLOCK_RECORD
  5
1
330
0
100
AcDbSymbolTable
 70
    47
  0
BLOCK_RECORD
  5
2
102
{ACAD_XDICTIONARY
360
2DCC
102
}
330
1
100
AcDbSymbolTableRecord
100
AcDbBlockTableRecord
  2
*MODEL_SPACE
  0
BLOCK_RECORD
  5
2DA5
102
{ACAD_XDICTIONARY
360
2DCE
102
}
330
1
100
AcDbSymbolTableRecord
100
AcDbBlockTableRecord
  2
*PAPER_SPACE
  0
ENDTAB
  0
ENDSEC
  0
SECTION
  2
BLOCKS
  0
BLOCK
  5
5D
330
2
100
AcDbEntity
  8
0
100
AcDbBlockBegin
  2
*MODEL_SPACE
 70
     0
 10
0.0
 20
0.0
 30
0.0
  3
*MODEL_SPACE
  1

  0
ENDBLK
  5
5F
330
2
100
AcDbEntity
  8
0
100
AcDbBlockEnd
  0
BLOCK
  5
2DA7
330
2DA5
100
AcDbEntity
 67
     1
  8
0
100
AcDbBlockBegin
  2
*PAPER_SPACE
 70
     0
 10
0.0
 20
0.0
 30
0.0
  3
*PAPER_SPACE
  1

  0
ENDBLK
  5
2DA8
330
2DA5
100
AcDbEntity
 67
     1
  8
0
100
AcDbBlockEnd
  0
ENDSEC
  0
SECTION
  2
ENTITIES
  0
LINE
  5
F4E
330
2
100
AcDbEntity
  8
CENTER
100
AcDbLine
 10
401.5593844941535
 20
102.4401979645463
 30
0.0
 11
561.5593844941562
 21
102.4401979645457
 31
0.0
  0
LINE
  5
F50
330
2
100
AcDbEntity
  8
CENTER
100
AcDbLine
 10
408.7251949806436
 20
304.5176682526043
 30
0.0
 11
561.5593844941574
 21
304.5176682526042
 31
0.0
  0
LINE
  5
F5F
330
2
100
AcDbEntity
  8
0
100
AcDbLine
 10
511.5593844941554
 20
335.5176682548308
 30
0.0
 11
511.559384494159
 21
273.5176682548317
 31
0.0
  0
LINE
  5
F9D
330
2
100
AcDbEntity
  8
0
100
AcDbLine
 10
511.5593844941562
 20
133.9401979645461
 30
0.0
 11
511.5593844941562
 21
70.94019796454708
 31
0.0
  0
LINE
  5
FE8
330
2
100
AcDbEntity
  8
CENTER
100
AcDbLine
 10
195.3004627892619
 20
102.4401979645467
 30
0.0
 11
42.30046278926193
 21
102.4401979645467
 31
0.0
  0
LINE
  5
FEA
330
2
100
AcDbEntity
  8
0
100
AcDbLine
 10
92.30046278926193
 20
70.94019796454677
 30
0.0
 11
92.30046278926193
 21
133.9401979645458
 31
0.0
  0
LINE
  5
123F
330
2
100
AcDbEntity
  8
CENTER
100
AcDbLine
 10
732.8518023060715
 20
102.4401979645362
 30
0.0
 11
615.8518023060615
 21
102.4401979645364
 31
0.0
  0
LINE
  5
1240
330
2
100
AcDbEntity
  8
CENTER
100
AcDbLine
 10
687.8518023060679
 20
140.9401979645366
 30
0.0
 11
687.8518023060681
 21
63.94019796453608
 31
0.0
  0
LINE
  5
1241
330
2
100
AcDbEntity
  8
0
100
AcDbLine
 10
651.8518023060654
 20
77.4401979645429
 30
0.0
 11
651.8518023060654
 21
127.4401979645429
 31
0.0
  0
LINE
  5
1242
330
2
100
AcDbEntity
  8
0
100
AcDbLine
 10
654.8518023060654
 20
127.4401979645429
 30
0.0
 11
651.8518023060654
 21
127.4401979645429
 31
0.0
  0
LINE
  5
1243
330
2
100
AcDbEntity
  8
0
100
AcDbLine
 10
654.8518023060654
 20
77.4401979645429
 30
0.0
 11
651.8518023060654
 21
77.4401979645429
 31
0.0
  0
LINE
  5
1244
330
2
100
AcDbEntity
  8
0
100
AcDbLine
 10
654.8518023060681
 20
132.9820374055168
 30
0.0
 11
654.8518023060681
 21
71.89835852354509
 31
0.0
  0
LINE
  5
1245
330
2
100
AcDbEntity
  8
0
100
AcDbLine
 10
715.9001831102244
 20
71.39259120332167
 30
0.0
 11
687.8518023060681
 21
70.94019796453608
 31
0.0
  0
ARC
  5
1246
330
2
100
AcDbEntity
  8
0
100
AcDbCircle
 10
715.8518023060682
 20
74.3922010609183
 30
0.0
 40
3.0
100
AcDbArc
 50
270.9240453527669
 51
315.6481997560372
  0
LINE
  5
1247
330
2
100
AcDbEntity
  8
0
100
AcDbLine
 10
659.8034215019128
 20
71.39259120332167
 30
0.0
 11
687.8518023060681
 21
70.94019796453608
 31
0.0
  0
ARC
  5
1248
330
2
100
AcDbEntity
  8
0
100
AcDbCircle
 10
659.8518023060681
 20
74.3922010609183
 30
0.0
 40
3.0
100
AcDbArc
 50
224.3518002528182
 51
269.0759546471809
  0
LINE
  5
1249
330
2
100
AcDbEntity
  8
0
100
AcDbLine
 10
715.9001831102244
 20
133.4878047257509
 30
0.0
 11
687.8518023060681
 21
133.9401979645365
 31
0.0
  0
LINE
  5
124A
330
2
100
AcDbEntity
  8
0
100
AcDbLine
 10
659.8034215019128
 20
133.4878047257509
 30
0.0
 11
668.5324158911645
 21
133.6285949578384
 31
0.0
  0
ARC
  5
124B
330
2
100
AcDbEntity
  8
0
100
AcDbCircle
 10
715.8518023060691
 20
130.4881948681543
 30
0.0
 40
3.0
100
AcDbArc
 50
44.3518002395819
 51
89.07595464718097
  0
ARC
  5
124C
330
2
100
AcDbEntity
  8
0
100
AcDbCircle
 10
659.8518023060681
 20
130.4881948681545
 30
0.0
 40
3.0
100
AcDbArc
 50
90.9240453527669
 51
135.6481997511572
  0
LINE
  5
124D
330
2
100
AcDbEntity
  8
0
100
AcDbLine
 10
644.8518023060663
 20
122.5088204149251
 30
0.0
 11
644.8518023060663
 21
82.37157551414474
 31
0.0
  0
LINE
  5
124E
330
2
100
AcDbEntity
  8
0
100
AcDbLine
 10
649.9216012994715
 20
80.26315668251299
 30
0.0
 11
646.7820033126612
 21
80.37279386010686
 31
0.0
  0
ARC
  5
124F
330
2
100
AcDbEntity
  8
0
100
AcDbCircle
 10
649.8518023060663
 20
78.26437502847511
 30
0.0
 40
2.0
100
AcDbArc
 50
0.0
 51
87.99999999999636
  0
ARC
  5
1250
330
2
100
AcDbEntity
  8
0
100
AcDbCircle
 10
646.8518023060664
 20
82.37157551414474
 30
0.0
 40
2.0
100
AcDbArc
 50
180.0
 51
267.9999999999963
  0
LINE
  5
1251
330
2
100
AcDbEntity
  8
0
100
AcDbLine
 10
649.9216012994951
 20
124.6172392465532
 30
0.0
 11
646.7820033126848
 21
124.5076020689621
 31
0.0
  0
ARC
  5
1252
330
2
100
AcDbEntity
  8
0
100
AcDbCircle
 10
649.8518023060918
 20
126.6160209005911
 30
0.0
 40
2.0
100
AcDbArc
 50
271.9999999999515
 51
359.9999999999478
  0
ARC
  5
1253
330
2
100
AcDbEntity
  8
0
100
AcDbCircle
 10
646.8518023060872
 20
122.5088204149251
 30
0.0
 40
2.0
100
AcDbArc
 50
91.99999999995149
 51
179.9999999999479
  0
LINE
  5
1254
330
2
100
AcDbEntity
  8
0
100
AcDbLine
 10
658.2291891014778
 20
133.0115114135587
 30
0.0
 11
654.8518023060681
 21
132.9820374055168
 31
0.0
  0
LINE
  5
1255
330
2
100
AcDbEntity
  8
0
100
AcDbLine
 10
658.2291891014786
 20
71.86888451550203
 30
0.0
 11
654.8518023060681
 21
71.89835852354509
 31
0.0
  0
LINE
  5
1256
330
2
100
AcDbEntity
  8
0
100
AcDbLine
 10
723.8518023060727
 20
124.8628476953474
 30
0.0
 11
723.8518023060727
 21
80.01754823372516
 31
0.0
  0
LINE
  5
1257
330
2
100
AcDbEntity
  8
0
100
AcDbLine
 10
719.1518023060719
 20
125.4401979645365
 30
0.0
 11
718.980834564125
 21
125.4401979645366
 31
0.0
  0
LINE
  5
1258
330
2
100
AcDbEntity
  8
0
100
AcDbLine
 10
722.8518023060718
 20
125.440197964537
 30
0.0
 11
723.8518023060727
 21
124.8628476953474
 31
0.0
  0
LINE
  5
1259
330
2
100
AcDbEntity
  8
0
100
AcDbLine
 10
719.3518023060727
 20
125.2401979645362
 30
0.0
 11
719.1518023060719
 21
125.4401979645365
 31
0.0
  0
LINE
  5
125A
330
2
100
AcDbEntity
  8
0
100
AcDbLine
 10
722.8518023060727
 20
125.440197964537
 30
0.0
 11
721.5518023060716
 21
125.4401979645365
 31
0.0
  0
LINE
  5
125B
330
2
100
AcDbEntity
  8
0
100
AcDbLine
 10
721.3518023060727
 20
125.2401979645367
 30
0.0
 11
721.3518023060727
 21
79.64019796453567
 31
0.0
  0
LINE
  5
125C
330
2
100
AcDbEntity
  8
0
100
AcDbLine
 10
721.151802306072
 20
124.7401979645367
 30
0.0
 11
719.5518023060716
 21
124.7401979645365
 31
0.0
  0
LINE
  5
125D
330
2
100
AcDbEntity
  8
0
100
AcDbLine
 10
719.3518023060727
 20
125.2401979645362
 30
0.0
 11
719.3518023060727
 21
79.6401979645359
 31
0.0
  0
LINE
  5
125E
330
2
100
AcDbEntity
  8
0
100
AcDbLine
 10
719.1518023060719
 20
79.44019796453608
 30
0.0
 11
718.9808345641253
 21
79.44019796453608
 31
0.0
  0
LINE
  5
125F
330
2
100
AcDbEntity
  8
0
100
AcDbLine
 10
721.151802306072
 20
80.14019796453567
 30
0.0
 11
719.5518023060716
 21
80.1401979645359
 31
0.0
  0
LINE
  5
1260
330
2
100
AcDbEntity
  8
0
100
AcDbLine
 10
719.3518023060727
 20
79.6401979645359
 30
0.0
 11
719.1518023060719
 21
79.44019796453608
 31
0.0
  0
LINE
  5
1261
330
2
100
AcDbEntity
  8
0
100
AcDbLine
 10
722.8518023060718
 20
79.44019796453563
 30
0.0
 11
723.8518023060727
 21
80.01754823372516
 31
0.0
  0
LINE
  5
1262
330
2
100
AcDbEntity
  8
0
100
AcDbLine
 10
722.8518023060727
 20
79.44019796453563
 30
0.0
 11
721.5518023060716
 21
79.44019796453563
 31
0.0
  0
ARC
  5
1263
330
2
100
AcDbEntity
  8
0
100
AcDbCircle
 10
721.5518023060716
 20
79.64019796453567
 30
0.0
 40
0.2
100
AcDbArc
 50
180.0
 51
270.0
  0
ARC
  5
1264
330
2
100
AcDbEntity
  8
0
100
AcDbCircle
 10
721.151802306072
 20
79.94019796453563
 30
0.0
 40
0.2
100
AcDbArc
 50
0.0
 51
90.0
  0
ARC
  5
1265
330
2
100
AcDbEntity
  8
0
100
AcDbCircle
 10
719.5518023060716
 20
79.94019796453608
 30
0.0
 40
0.2
100
AcDbArc
 50
90.0
 51
180.0
  0
ARC
  5
1266
330
2
100
AcDbEntity
  8
0
100
AcDbCircle
 10
721.5518023060716
 20
125.2401979645367
 30
0.0
 40
0.2
100
AcDbArc
 50
90.0
 51
180.0
  0
ARC
  5
1267
330
2
100
AcDbEntity
  8
0
100
AcDbCircle
 10
721.151802306072
 20
124.9401979645367
 30
0.0
 40
0.2
100
AcDbArc
 50
270.0
 51
0.0
  0
ARC
  5
1268
330
2
100
AcDbEntity
  8
0
100
AcDbCircle
 10
719.5518023060716
 20
124.9401979645365
 30
0.0
 40
0.2
100
AcDbArc
 50
180.0
 51
270.0
  0
LINE
  5
1269
330
2
100
AcDbEntity
  8
0
100
AcDbLine
 10
722.8518023060718
 20
125.440197964537
 30
0.0
 11
722.8518023060718
 21
79.44019796453563
 31
0.0
  0
LINE
  5
126A
330
2
100
AcDbEntity
  8
0
100
AcDbLine
 10
719.1518023060719
 20
79.44019796453608
 30
0.0
 11
719.1518023060719
 21
90.04019796527074
 31
0.0
  0
LINE
  5
126B
330
2
100
AcDbEntity
  8
0
100
AcDbLine
 10
719.3518023060745
 20
72.19019796453267
 30
0.0
 11
717.8892473638573
 21
72.19019796453244
 31
0.0
  0
LINE
  5
126C
330
2
100
AcDbEntity
  8
0
100
AcDbLine
 10
719.3518023060745
 20
80.69019796453266
 30
0.0
 11
719.3518023060745
 21
72.19019796453267
 31
0.0
  0
LINE
  5
126D
330
2
100
AcDbEntity
  8
0
100
AcDbLine
 10
719.3518023060745
 20
72.19019796453267
 30
0.0
 11
719.6518023060756
 21
72.70981320680357
 31
0.0
  0
LINE
  5
126E
330
2
100
AcDbEntity
  8
0
100
AcDbLine
 10
719.6518023060756
 20
80.1401979645359
 30
0.0
 11
719.6518023060756
 21
72.70981320680357
 31
0.0
  0
LINE
  5
126F
330
2
100
AcDbEntity
  8
0
100
AcDbLine
 10
719.3518023060745
 20
132.6901979645399
 30
0.0
 11
717.8892473638573
 21
132.6901979645397
 31
0.0
  0
LINE
  5
1270
330
2
100
AcDbEntity
  8
0
100
AcDbLine
 10
719.3518023060745
 20
124.1901979645399
 30
0.0
 11
719.3518023060745
 21
132.6901979645399
 31
0.0
  0
LINE
  5
1271
330
2
100
AcDbEntity
  8
0
100
AcDbLine
 10
719.3518023060745
 20
132.6901979645399
 30
0.0
 11
719.6518023060756
 21
132.170582722269
 31
0.0
  0
LINE
  5
1272
330
2
100
AcDbEntity
  8
0
100
AcDbLine
 10
719.6518023060747
 20
124.7401979645367
 30
0.0
 11
719.6518023060756
 21
132.170582722269
 31
0.0
  0
LINE
  5
127A
330
2
100
AcDbEntity
  8
0
100
AcDbLine
 10
519.5593844941582
 20
327.887668252604
 30
0.0
 11
519.5593844941572
 21
281.1476682526042
 31
0.0
  0
LINE
  5
127B
330
2
100
AcDbEntity
  8
0
100
AcDbLine
 10
544.5593844941572
 20
307.5176682526041
 30
0.0
 11
544.5593844941572
 21
330.5176682526041
 31
0.0
  0
ARC
  5
127C
330
2
100
AcDbEntity
  8
0
100
AcDbCircle
 10
548.5593844941567
 20
330.5176682526041
 30
0.0
 40
4.0
100
AcDbArc
 50
90.0
 51
180.0
  0
LINE
  5
127D
330
2
100
AcDbEntity
  8
0
100
AcDbLine
 10
554.5593844941572
 20
334.5176682526041
 30
0.0
 11
524.0650792263854
 21
334.5176682526041
 31
0.0
  0
LINE
  5
127E
330
2
100
AcDbEntity
  8
0
100
AcDbLine
 10
518.5593844941581
 20
335.5176682526041
 30
0.0
 11
511.5593844941572
 21
335.5176682526041
 31
0.0
  0
ARC
  5
127F
330
2
100
AcDbEntity
  8
0
100
AcDbCircle
 10
521.2051358052226
 20
337.5176682526041
 30
0.0
 40
3.0
100
AcDbArc
 50
228.5903778907302
 51
241.2428429585938
  0
ARC
  5
1280
330
2
100
AcDbEntity
  8
0
100
AcDbCircle
 10
518.5593844941581
 20
334.5176682526041
 30
0.0
 40
1.0
100
AcDbArc
 50
21.71561728325768
 51
90.0
  0
ARC
  5
1281
330
2
100
AcDbEntity
  8
0
100
AcDbCircle
 10
548.5593844941572
 20
278.5176682526041
 30
0.0
 40
4.0
100
AcDbArc
 50
180.0
 51
270.0
  0
ARC
  5
1282
330
2
100
AcDbEntity
  8
0
100
AcDbCircle
 10
541.5593844941573
 20
281.5176682526041
 30
0.0
 40
3.0
100
AcDbArc
 50
0.0
 51
90.0
  0
ARC
  5
1283
330
2
100
AcDbEntity
  8
0
100
AcDbCircle
 10
541.5593844941573
 20
307.5176682526041
 30
0.0
 40
3.0
100
AcDbArc
 50
270.0
 51
0.0
  0
LINE
  5
1284
330
2
100
AcDbEntity
  8
0
100
AcDbLine
 10
530.5593844941568
 20
287.5176682526041
 30
0.0
 11
530.5593844941572
 21
301.5176682526041
 31
0.0
  0
LINE
  5
1285
330
2
100
AcDbEntity
  8
0
100
AcDbLine
 10
541.5593844941573
 20
304.5176682526041
 30
0.0
 11
533.5593844941572
 21
304.5176682526041
 31
0.0
  0
ARC
  5
1286
330
2
100
AcDbEntity
  8
0
100
AcDbCircle
 10
533.5593844941572
 20
301.5176682526041
 30
0.0
 40
3.0
100
AcDbArc
 50
90.0
 51
180.0
  0
LINE
  5
1287
330
2
100
AcDbEntity
  8
0
100
AcDbLine
 10
541.5593844941573
 20
284.5176682526041
 30
0.0
 11
533.5593844941568
 21
284.5176682526041
 31
0.0
  0
LINE
  5
1288
330
2
100
AcDbEntity
  8
0
100
AcDbLine
 10
544.5593844941572
 20
278.5176682526041
 30
0.0
 11
544.5593844941572
 21
281.5176682526041
 31
0.0
  0
ARC
  5
1289
330
2
100
AcDbEntity
  8
0
100
AcDbCircle
 10
533.5593844941568
 20
287.5176682526041
 30
0.0
 40
3.0
100
AcDbArc
 50
180.0
 51
270.0
  0
LINE
  5
128A
330
2
100
AcDbEntity
  8
0
100
AcDbLine
 10
554.5593844941572
 20
274.5176682526041
 30
0.0
 11
524.0650792263859
 21
274.5176682526041
 31
0.0
  0
LINE
  5
128B
330
2
100
AcDbEntity
  8
0
100
AcDbLine
 10
518.5593844941568
 20
273.5176682526041
 30
0.0
 11
511.5593844941572
 21
273.5176682526041
 31
0.0
  0
ARC
  5
128C
330
2
100
AcDbEntity
  8
0
100
AcDbCircle
 10
521.2051358052217
 20
271.5176682526041
 30
0.0
 40
3.0
100
AcDbArc
 50
118.7571570414059
 51
131.4096221092842
  0
ARC
  5
128D
330
2
100
AcDbEntity
  8
0
100
AcDbCircle
 10
518.5593844941568
 20
274.5176682526041
 30
0.0
 40
1.0
100
AcDbArc
 50
270.0
 51
338.2843827167423
  0
LINE
  5
128E
330
2
100
AcDbEntity
  8
0
100
AcDbLine
 10
554.5593844941572
 20
274.5176682526041
 30
0.0
 11
554.5593844941572
 21
334.5176682526041
 31
0.0
  0
LINE
  5
128F
330
2
100
AcDbEntity
  8
0
100
AcDbLine
 10
544.964513439323
 20
125.6500196886564
 30
0.0
 11
545.0144347138401
 21
128.5100075902952
 31
0.0
  0
LINE
  5
1290
330
2
100
AcDbEntity
  8
0
100
AcDbLine
 10
519.430749115719
 20
109.809713859891
 30
0.0
 11
519.035427913421
 21
132.4576503709837
 31
0.0
  0
LINE
  5
1291
330
2
100
AcDbEntity
  8
0
100
AcDbLine
 10
511.5593844941562
 20
102.4401979645459
 30
0.0
 11
512.0194238473422
 21
102.4401979645459
 31
0.0
  0
ARC
  5
1292
330
2
100
AcDbEntity
  8
0
100
AcDbCircle
 10
527.4758198694583
 20
127.67896442532
 30
0.0
 40
3.0
100
AcDbArc
 50
270.000000000013
 51
359.0000000000242
  0
LINE
  5
1293
330
2
100
AcDbEntity
  8
0
100
AcDbLine
 10
541.9471066225209
 20
124.6789644253204
 30
0.0
 11
527.4758198694583
 21
124.6789644253204
 31
0.0
  0
LINE
  5
1294
330
2
100
AcDbEntity
  8
0
100
AcDbLine
 10
524.0650792263844
 20
72.44019796454594
 30
0.0
 11
554.5593844941562
 21
72.44019796454594
 31
0.0
  0
LINE
  5
1295
330
2
100
AcDbEntity
  8
0
100
AcDbLine
 10
544.5593844941562
 20
102.4401979645459
 30
0.0
 11
545.0144347138405
 21
76.37038833879668
 31
0.0
  0
ARC
  5
1296
330
2
100
AcDbEntity
  8
0
100
AcDbCircle
 10
549.0138254944658
 20
76.44019796454594
 30
0.0
 40
4.0
100
AcDbArc
 50
181.0000000000017
 51
270.0
  0
ARC
  5
1297
330
2
100
AcDbEntity
  8
0
100
AcDbCircle
 10
532.5247790203869
 20
130.4401979645459
 30
0.0
 40
2.0
100
AcDbArc
 50
90.0
 51
179.0000000000242
  0
LINE
  5
1298
330
2
100
AcDbEntity
  8
0
100
AcDbLine
 10
530.5250836300746
 20
130.4751027774205
 30
0.0
 11
530.475362954928
 21
127.6266072060085
 31
0.0
  0
LINE
  5
1299
330
2
100
AcDbEntity
  8
0
100
AcDbLine
 10
519.5593844941639
 20
102.4401979645459
 30
0.0
 11
519.035427913422
 21
72.42274555810863
 31
0.0
  0
ARC
  5
129A
330
2
100
AcDbEntity
  8
0
100
AcDbCircle
 10
520.6813315293296
 20
69.44019796454594
 30
0.0
 40
3.0
100
AcDbArc
 50
118.7571570414059
 51
131.4096221092698
  0
ARC
  5
129B
330
2
100
AcDbEntity
  8
0
100
AcDbCircle
 10
518.0355802182656
 20
72.44019796454594
 30
0.0
 40
1.0
100
AcDbArc
 50
270.0
 51
358.9999999999852
  0
LINE
  5
129C
330
2
100
AcDbEntity
  8
0
100
AcDbLine
 10
511.5593844941562
 20
71.44019796454594
 30
0.0
 11
518.0355802182656
 21
71.44019796454594
 31
0.0
  0
LINE
  5
129D
330
2
100
AcDbEntity
  8
0
100
AcDbLine
 10
524.0650792263844
 20
132.4401979645459
 30
0.0
 11
554.5593844941562
 21
132.4401979645459
 31
0.0
  0
LINE
  5
129E
330
2
100
AcDbEntity
  8
CENTER
  6
CENS
100
AcDbLine
 10
540.5593844941562
 20
141.4401979645491
 30
0.0
 11
540.5593844941562
 21
118.9577882467957
 31
0.0
  0
ARC
  5
129F
330
2
100
AcDbEntity
  8
0
100
AcDbCircle
 10
549.0138254944652
 20
128.4401979645459
 30
0.0
 40
4.0
100
AcDbArc
 50
90.0
 51
178.9999999999982
  0
ARC
  5
12A0
330
2
100
AcDbEntity
  8
0
100
AcDbCircle
 10
520.6813315293283
 20
135.4401979645459
 30
0.0
 40
3.0
100
AcDbArc
 50
228.5903778907486
 51
241.2428429585938
  0
ARC
  5
12A1
330
2
100
AcDbEntity
  8
0
100
AcDbCircle
 10
518.0355802182642
 20
132.4401979645459
 30
0.0
 40
1.0
100
AcDbArc
 50
1.000000000014801
 51
90.0
  0
LINE
  5
12A2
330
2
100
AcDbEntity
  8
0
100
AcDbLine
 10
511.5593844941562
 20
133.4401979645459
 30
0.0
 11
518.0355802182642
 21
133.4401979645459
 31
0.0
  0
LINE
  5
12A3
330
2
100
AcDbEntity
  8
0
100
AcDbLine
 10
554.5593844941562
 20
132.4401979645459
 30
0.0
 11
554.5593844941562
 21
72.44019796454594
 31
0.0
  0
LINE
  5
12A4
330
2
100
AcDbEntity
  8
0
100
AcDbLine
 10
520.1514596267847
 20
132.8101979645458
 30
0.0
 11
519.1514596267847
 21
132.8101979645458
 31
0.0
  0
LINE
  5
12A5
330
2
100
AcDbEntity
  8
0
100
AcDbLine
 10
519.1514596267847
 20
132.8101979645458
 30
0.0
 11
519.1514596267847
 21
125.8101979645458
 31
0.0
  0
LINE
  5
12A6
330
2
100
AcDbEntity
  8
0
100
AcDbLine
 10
519.1514596267847
 20
125.8101979645458
 30
0.0
 11
520.1514596267847
 21
125.8101979645458
 31
0.0
  0
LINE
  5
12A7
330
2
100
AcDbEntity
  8
0
100
AcDbLine
 10
520.1514596267847
 20
125.8101979645458
 30
0.0
 11
520.1514596267847
 21
132.8101979645458
 31
0.0
  0
LINE
  5
12A8
330
2
100
AcDbEntity
  8
0
100
AcDbLine
 10
524.1514596267847
 20
132.2905827222753
 30
0.0
 11
524.1514596267847
 21
126.3298132068162
 31
0.0
  0
LINE
  5
12A9
330
2
100
AcDbEntity
  8
0
100
AcDbLine
 10
523.8514596267845
 20
125.8101979645458
 30
0.0
 11
523.8514596267845
 21
132.8101979645458
 31
0.0
  0
LINE
  5
12AA
330
2
100
AcDbEntity
  8
0
100
AcDbLine
 10
523.8514596267845
 20
125.8101979645458
 30
0.0
 11
520.1514596267847
 21
125.8101979645458
 31
0.0
  0
LINE
  5
12AB
330
2
100
AcDbEntity
  8
0
100
AcDbLine
 10
523.8514596267845
 20
125.8101979645458
 30
0.0
 11
524.1514596267847
 21
126.3298132068162
 31
0.0
  0
LINE
  5
12AC
330
2
100
AcDbEntity
  8
0
100
AcDbLine
 10
524.1514596267847
 20
132.2905827222753
 30
0.0
 11
523.8514596267845
 21
132.8101979645458
 31
0.0
  0
LINE
  5
12AD
330
2
100
AcDbEntity
  8
0
100
AcDbLine
 10
520.1514596267847
 20
132.8101979645458
 30
0.0
 11
523.8514596267845
 21
132.8101979645458
 31
0.0
  0
LINE
  5
12AE
330
2
100
AcDbEntity
  8
CENTER
  6
CENS
100
AcDbLine
 10
529.0903668995346
 20
129.3101979645463
 30
0.0
 11
506.0904098099121
 21
129.3101979645463
 31
0.0
  0
LINE
  5
12AF
330
2
100
AcDbEntity
  8
CENTER
  6
CENS
100
AcDbLine
 10
529.0903668995346
 20
75.5701979645456
 30
0.0
 11
506.0904098099121
 21
75.5701979645456
 31
0.0
  0
LINE
  5
12B0
330
2
100
AcDbEntity
  8
CENTER
  6
CENS
100
AcDbLine
 10
529.0903668995356
 20
277.6476682526042
 30
0.0
 11
506.0904098099131
 21
277.6476682526042
 31
0.0
  0
LINE
  5
12B1
330
2
100
AcDbEntity
  8
0
100
AcDbLine
 10
520.1514596267856
 20
274.1476682526042
 30
0.0
 11
519.1514596267857
 21
274.1476682526042
 31
0.0
  0
LINE
  5
12B2
330
2
100
AcDbEntity
  8
0
100
AcDbLine
 10
519.1514596267857
 20
281.1476682526042
 30
0.0
 11
520.1514596267856
 21
281.1476682526042
 31
0.0
  0
LINE
  5
12B3
330
2
100
AcDbEntity
  8
0
100
AcDbLine
 10
520.1514596267856
 20
281.1476682526042
 30
0.0
 11
520.1514596267856
 21
274.1476682526042
 31
0.0
  0
LINE
  5
12B4
330
2
100
AcDbEntity
  8
0
100
AcDbLine
 10
524.1514596267856
 20
274.6672834948751
 30
0.0
 11
524.1514596267856
 21
280.6280530103338
 31
0.0
  0
LINE
  5
12B5
330
2
100
AcDbEntity
  8
0
100
AcDbLine
 10
523.8514596267854
 20
281.1476682526042
 30
0.0
 11
523.8514596267854
 21
274.1476682526042
 31
0.0
  0
LINE
  5
12B6
330
2
100
AcDbEntity
  8
0
100
AcDbLine
 10
523.8514596267854
 20
281.1476682526042
 30
0.0
 11
520.1514596267856
 21
281.1476682526042
 31
0.0
  0
LINE
  5
12B7
330
2
100
AcDbEntity
  8
0
100
AcDbLine
 10
523.8514596267854
 20
281.1476682526042
 30
0.0
 11
524.1514596267856
 21
280.6280530103338
 31
0.0
  0
LINE
  5
12B8
330
2
100
AcDbEntity
  8
0
100
AcDbLine
 10
524.1514596267856
 20
274.6672834948751
 30
0.0
 11
523.8514596267854
 21
274.1476682526042
 31
0.0
  0
LINE
  5
12B9
330
2
100
AcDbEntity
  8
0
100
AcDbLine
 10
520.1514596267856
 20
274.1476682526042
 30
0.0
 11
523.8514596267854
 21
274.1476682526042
 31
0.0
  0
LINE
  5
12BA
330
2
100
AcDbEntity
  8
0
100
AcDbLine
 10
519.1514596267857
 20
274.1476682526042
 30
0.0
 11
519.1514596267857
 21
281.1476682526042
 31
0.0
  0
LINE
  5
12BB
330
2
100
AcDbEntity
  8
0
100
AcDbLine
 10
519.1514596267857
 20
281.1476682526042
 30
0.0
 11
519.1514596267857
 21
274.1476682526042
 31
0.0
  0
LINE
  5
12BC
330
2
100
AcDbEntity
  8
CENTER
  6
CENS
100
AcDbLine
 10
529.0903668995356
 20
331.3876682526045
 30
0.0
 11
506.0904098099131
 21
331.3876682526045
 31
0.0
  0
LINE
  5
12BD
330
2
100
AcDbEntity
  8
0
100
AcDbLine
 10
520.1514596267856
 20
334.887668252604
 30
0.0
 11
519.1514596267857
 21
334.887668252604
 31
0.0
  0
LINE
  5
12BE
330
2
100
AcDbEntity
  8
0
100
AcDbLine
 10
519.1514596267857
 20
327.887668252604
 30
0.0
 11
520.1514596267856
 21
327.887668252604
 31
0.0
  0
LINE
  5
12BF
330
2
100
AcDbEntity
  8
0
100
AcDbLine
 10
520.1514596267856
 20
327.887668252604
 30
0.0
 11
520.1514596267856
 21
334.887668252604
 31
0.0
  0
LINE
  5
12C0
330
2
100
AcDbEntity
  8
0
100
AcDbLine
 10
524.1514596267856
 20
334.3680530103335
 30
0.0
 11
524.1514596267856
 21
328.4072834948749
 31
0.0
  0
LINE
  5
12C1
330
2
100
AcDbEntity
  8
0
100
AcDbLine
 10
523.8514596267854
 20
327.887668252604
 30
0.0
 11
523.8514596267854
 21
334.887668252604
 31
0.0
  0
LINE
  5
12C2
330
2
100
AcDbEntity
  8
0
100
AcDbLine
 10
523.8514596267854
 20
327.887668252604
 30
0.0
 11
520.1514596267856
 21
327.887668252604
 31
0.0
  0
LINE
  5
12C3
330
2
100
AcDbEntity
  8
0
100
AcDbLine
 10
523.8514596267854
 20
327.887668252604
 30
0.0
 11
524.1514596267856
 21
328.4072834948749
 31
0.0
  0
LINE
  5
12C4
330
2
100
AcDbEntity
  8
0
100
AcDbLine
 10
524.1514596267856
 20
334.3680530103335
 30
0.0
 11
523.8514596267854
 21
334.887668252604
 31
0.0
  0
LINE
  5
12C5
330
2
100
AcDbEntity
  8
0
100
AcDbLine
 10
520.1514596267856
 20
334.887668252604
 30
0.0
 11
523.8514596267854
 21
334.887668252604
 31
0.0
  0
LINE
  5
12C6
330
2
100
AcDbEntity
  8
0
100
AcDbLine
 10
519.1514596267857
 20
334.887668252604
 30
0.0
 11
519.1514596267857
 21
327.887668252604
 31
0.0
  0
LINE
  5
12C7
330
2
100
AcDbEntity
  8
0
100
AcDbLine
 10
519.1514596267857
 20
327.887668252604
 30
0.0
 11
519.1514596267857
 21
334.887668252604
 31
0.0
  0
LINE
  5
12C8
330
2
100
AcDbEntity
  8
0
100
AcDbLine
 10
520.1514596267847
 20
72.07019796454606
 30
0.0
 11
519.1514596267847
 21
72.07019796454606
 31
0.0
  0
LINE
  5
12C9
330
2
100
AcDbEntity
  8
0
100
AcDbLine
 10
519.1514596267847
 20
72.07019796454606
 30
0.0
 11
519.1514596267847
 21
79.07019796454605
 31
0.0
  0
LINE
  5
12CA
330
2
100
AcDbEntity
  8
0
100
AcDbLine
 10
519.1514596267847
 20
79.07019796454605
 30
0.0
 11
520.1514596267847
 21
79.07019796454605
 31
0.0
  0
LINE
  5
12CB
330
2
100
AcDbEntity
  8
0
100
AcDbLine
 10
520.1514596267847
 20
79.07019796454605
 30
0.0
 11
520.1514596267847
 21
72.07019796454606
 31
0.0
  0
LINE
  5
12CC
330
2
100
AcDbEntity
  8
0
100
AcDbLine
 10
524.1514596267847
 20
72.5898132068165
 30
0.0
 11
524.1514596267847
 21
78.55058272227561
 31
0.0
  0
LINE
  5
12CD
330
2
100
AcDbEntity
  8
0
100
AcDbLine
 10
523.8514596267845
 20
79.07019796454605
 30
0.0
 11
523.8514596267845
 21
72.07019796454606
 31
0.0
  0
LINE
  5
12CE
330
2
100
AcDbEntity
  8
0
100
AcDbLine
 10
523.8514596267845
 20
79.07019796454605
 30
0.0
 11
520.1514596267847
 21
79.07019796454605
 31
0.0
  0
LINE
  5
12CF
330
2
100
AcDbEntity
  8
0
100
AcDbLine
 10
523.8514596267845
 20
79.07019796454605
 30
0.0
 11
524.1514596267847
 21
78.55058272227561
 31
0.0
  0
LINE
  5
12D0
330
2
100
AcDbEntity
  8
0
100
AcDbLine
 10
524.1514596267847
 20
72.5898132068165
 30
0.0
 11
523.8514596267845
 21
72.07019796454606
 31
0.0
  0
LINE
  5
12D1
330
2
100
AcDbEntity
  8
0
100
AcDbLine
 10
520.1514596267847
 20
72.07019796454606
 30
0.0
 11
523.8514596267845
 21
72.07019796454606
 31
0.0
  0
LINE
  5
12D2
330
2
100
AcDbEntity
  8
0
100
AcDbLine
 10
545.0593738851056
 20
107.9401979645463
 30
0.0
 11
535.0593738851052
 21
107.9401979645463
 31
0.0
  0
LINE
  5
12D3
330
2
100
AcDbEntity
  8
0
100
AcDbLine
 10
545.0593738851056
 20
107.9401979645459
 30
0.0
 11
545.0593738851056
 21
102.4401979645459
 31
0.0
  0
LINE
  5
12D4
330
2
100
AcDbEntity
  8
0
100
AcDbLine
 10
547.0593738851056
 20
109.0948985029254
 30
0.0
 11
545.0593738851056
 21
107.9401979645459
 31
0.0
  0
LINE
  5
12D5
330
2
100
AcDbEntity
  8
0
100
AcDbLine
 10
518.0593738851061
 20
108.1901979645459
 30
0.0
 11
518.0593738851061
 21
102.4401979645459
 31
0.0
  0
LINE
  5
12D6
330
2
100
AcDbEntity
  8
0
100
AcDbLine
 10
545.0593738851056
 20
107.9401979645459
 30
0.0
 11
535.0593738851056
 21
107.9401979645459
 31
0.0
  0
LINE
  5
12D7
330
2
100
AcDbEntity
  8
0
100
AcDbLine
 10
539.9715880637785
 20
117.1901979645459
 30
0.0
 11
547.0593738851056
 21
117.1901979645459
 31
0.0
  0
LINE
  5
12D8
330
2
100
AcDbEntity
  8
0
100
AcDbLine
 10
547.0593738851056
 20
117.1901979645459
 30
0.0
 11
547.0593738851056
 21
102.4401979645459
 31
0.0
  0
LINE
  5
12D9
330
2
100
AcDbEntity
  8
0
100
AcDbLine
 10
533.0593738851056
 20
112.7248791512689
 30
0.0
 11
533.0593738851056
 21
102.4401979645459
 31
0.0
  0
LINE
  5
12DA
330
2
100
AcDbEntity
  8
0
100
AcDbLine
 10
535.0593738851056
 20
113.2502792987011
 30
0.0
 11
535.0593738851056
 21
102.4401979645459
 31
0.0
  0
LINE
  5
12DB
330
2
100
AcDbEntity
  8
0
100
AcDbLine
 10
526.0593738851061
 20
108.1901979645459
 30
0.0
 11
518.0593738851061
 21
108.1901979645459
 31
0.0
  0
LINE
  5
12DC
330
2
100
AcDbEntity
  8
0
100
AcDbLine
 10
526.0593738851061
 20
102.4401979645459
 30
0.0
 11
526.0593738851061
 21
108.1901979645459
 31
0.0
  0
LINE
  5
12DD
330
2
100
AcDbEntity
  8
0
100
AcDbLine
 10
533.0593738851056
 20
107.9401979645459
 30
0.0
 11
526.0593738851061
 21
107.9401979645459
 31
0.0
  0
LINE
  5
12DE
330
2
100
AcDbEntity
  8
0
100
AcDbLine
 10
515.1726225391579
 20
102.4401979645459
 30
0.0
 11
518.0593738851061
 21
107.4401979645459
 31
0.0
  0
LINE
  5
12DF
330
2
100
AcDbEntity
  8
0
100
AcDbLine
 10
547.5593844941562
 20
127.4401979645459
 30
0.0
 11
547.5593844941567
 21
102.4401979645459
 31
0.0
  0
LINE
  5
12E0
330
2
100
AcDbEntity
  8
0
100
AcDbLine
 10
554.5593844941562
 20
127.4401979645459
 30
0.0
 11
547.5593844941562
 21
127.4401979645459
 31
0.0
  0
SPLINE
  5
12E1
330
2
100
AcDbEntity
  8
HOJO
100
AcDbSpline
210
0.0
220
0.0
230
1.0
 70
     8
 71
     3
 72
    20
 73
    16
 74
     0
 42
0.0000000001
 43
0.0000000001
 40
0.0
 40
0.0
 40
0.0
 40
0.0
 40
5.311626210389601
 40
7.954639692924123
 40
10.24579206730457
 40
14.18281221953265
 40
18.83794314114633
 40
26.54246833222011
 40
31.19712602527561
 40
34.95638115537181
 40
42.12378530287149
 40
45.78553747213095
 40
50.20353689726185
 40
53.26513166942802
 40
54.23175360515262
 40
54.23175360515262
 40
54.23175360515262
 40
54.23175360515262
 10
554.5593844941562
 20
129.127646686562
 30
0.0
 10
552.8464053282676
 20
129.0196046363358
 30
0.0
 10
550.2810644088566
 20
128.8578019139318
 30
0.0
 10
546.5093105217796
 20
128.6056692417638
 30
0.0
 10
545.1901693056455
 20
125.6732277567972
 30
0.0
 10
542.7549599373549
 20
123.0187189335016
 30
0.0
 10
540.9169115942048
 20
117.8674235003378
 30
0.0
 10
536.7920751847276
 20
113.1576761487122
 30
0.0
 10
531.3144276817214
 20
112.5203447142926
 30
0.0
 10
526.4010421721557
 20
110.834025767585
 30
0.0
 10
521.5670428253973
 20
110.214038675611
 30
0.0
 10
516.5293160607587
 20
109.2588146579497
 30
0.0
 10
513.458165439389
 20
106.724602815199
 30
0.0
 10
512.4581911446633
 20
104.0463622943094
 30
0.0
 10
512.1021516194308
 20
102.7513492642384
 30
0.0
 10
512.0194238473422
 20
102.4401979645459
 30
0.0
  0
LINE
  5
12E2
330
2
100
AcDbEntity
  8
0
100
AcDbLine
 10
545.5593844941562
 20
136.4401979645459
 30
0.0
 11
535.5593844941562
 21
136.4401979645459
 31
0.0
  0
ARC
  5
12E3
330
2
100
AcDbEntity
  8
0
100
AcDbCircle
 10
535.5593844941562
 20
132.4401979645459
 30
0.0
 40
4.0
100
AcDbArc
 50
90.0
 51
180.0
  0
ARC
  5
12E4
330
2
100
AcDbEntity
  8
0
100
AcDbCircle
 10
545.5593844941562
 20
132.4401979645459
 30
0.0
 40
4.000000000000028
100
AcDbArc
 50
0.0
 51
90.0
  0
CIRCLE
  5
12E5
330
2
100
AcDbEntity
  8
0
100
AcDbCircle
 10
540.5593844941572
 20
294.0176682526041
 30
0.0
 40
9.0
  0
LINE
  5
12E6
330
2
100
AcDbEntity
  8
CENTER
  6
CENS
100
AcDbLine
 10
540.5593844941572
 20
282.4771573484806
 30
0.0
 11
540.5593844941572
 21
305.5581791567285
 31
0.0
  0
LINE
  5
12E7
330
2
100
AcDbEntity
  8
CENTER
  6
CENS
100
AcDbLine
 10
552.0998953982812
 20
294.0176682526045
 30
0.0
 11
529.0188735900333
 21
294.0176682526045
 31
0.0
  0
LINE
  5
12E8
330
2
100
AcDbEntity
  8
0
100
AcDbLine
 10
59.30046278926283
 20
102.4401979645467
 30
0.0
 11
58.845412569578
 21
128.510007590296
 31
0.0
  0
LINE
  5
12E9
330
2
100
AcDbEntity
  8
0
100
AcDbLine
 10
84.3004627892542
 20
102.4401979645467
 30
0.0
 11
84.82441936999704
 21
132.4576503709845
 31
0.0
  0
LINE
  5
12EA
330
2
100
AcDbEntity
  8
0
100
AcDbLine
 10
92.30046278926193
 20
102.4401979645467
 30
0.0
 11
49.30046278926193
 21
102.4401979645467
 31
0.0
  0
ARC
  5
12EB
330
2
100
AcDbEntity
  8
0
100
AcDbCircle
 10
76.38402741395975
 20
77.20143150377271
 30
0.0
 40
3.0
100
AcDbArc
 50
90.00000000001303
 51
179.0000000000242
  0
LINE
  5
12EC
330
2
100
AcDbEntity
  8
0
100
AcDbLine
 10
61.91274066089727
 20
80.20143150377226
 30
0.0
 11
76.38402741395975
 21
80.20143150377226
 31
0.0
  0
LINE
  5
12ED
330
2
100
AcDbEntity
  8
0
100
AcDbLine
 10
79.79476805703325
 20
72.44019796454677
 30
0.0
 11
49.30046278926193
 21
72.44019796454677
 31
0.0
  0
LINE
  5
12EE
330
2
100
AcDbEntity
  8
0
100
AcDbLine
 10
59.30046278926193
 20
102.4401979645467
 30
0.0
 11
58.84541256957755
 21
76.37038833879751
 31
0.0
  0
ARC
  5
12EF
330
2
100
AcDbEntity
  8
0
100
AcDbCircle
 10
54.84602178895238
 20
76.44019796454677
 30
0.0
 40
4.0
100
AcDbArc
 50
270.0
 51
358.9999999999982
  0
ARC
  5
12F0
330
2
100
AcDbEntity
  8
0
100
AcDbCircle
 10
71.33506826303118
 20
74.44019796454677
 30
0.0
 40
2.0
100
AcDbArc
 50
270.0
 51
359.0000000000242
  0
LINE
  5
12F1
330
2
100
AcDbEntity
  8
0
100
AcDbLine
 10
73.33476365334354
 20
74.40529315167214
 30
0.0
 11
73.38448432849009
 21
77.2537887230842
 31
0.0
  0
LINE
  5
12F2
330
2
100
AcDbEntity
  8
0
100
AcDbLine
 10
84.30046278925374
 20
102.4401979645467
 30
0.0
 11
84.82441936999611
 21
72.42274555810945
 31
0.0
  0
ARC
  5
12F3
330
2
100
AcDbEntity
  8
0
100
AcDbCircle
 10
83.17851575408804
 20
69.44019796454677
 30
0.0
 40
3.0
100
AcDbArc
 50
48.59037789073019
 51
61.24284295859403
  0
ARC
  5
12F4
330
2
100
AcDbEntity
  8
0
100
AcDbCircle
 10
85.82426706515253
 20
72.44019796454677
 30
0.0
 40
1.0
100
AcDbArc
 50
181.0000000000147
 51
270.0
  0
LINE
  5
12F5
330
2
100
AcDbEntity
  8
0
100
AcDbLine
 10
92.30046278926193
 20
71.44019796454677
 30
0.0
 11
85.82426706515253
 21
71.44019796454677
 31
0.0
  0
LINE
  5
12F6
330
2
100
AcDbEntity
  8
0
100
AcDbLine
 10
79.7947680570337
 20
132.4401979645467
 30
0.0
 11
49.30046278926193
 21
132.4401979645467
 31
0.0
  0
LINE
  5
12F7
330
2
100
AcDbEntity
  8
CENTER
  6
CENS
100
AcDbLine
 10
63.30046278926193
 20
141.4401979645499
 30
0.0
 11
63.30046278926193
 21
118.9577882467965
 31
0.0
  0
ARC
  5
12F8
330
2
100
AcDbEntity
  8
0
100
AcDbCircle
 10
54.84602178895238
 20
128.4401979645467
 30
0.0
 40
4.0
100
AcDbArc
 50
1.000000000001775
 51
90.0
  0
ARC
  5
12F9
330
2
100
AcDbEntity
  8
0
100
AcDbCircle
 10
83.17851575408941
 20
135.4401979645467
 30
0.0
 40
3.0
100
AcDbArc
 50
298.7571570414061
 51
311.4096221092513
  0
ARC
  5
12FA
330
2
100
AcDbEntity
  8
0
100
AcDbCircle
 10
85.82426706515343
 20
132.4401979645467
 30
0.0
 40
1.0
100
AcDbArc
 50
90.0
 51
178.9999999999851
  0
LINE
  5
12FB
330
2
100
AcDbEntity
  8
0
100
AcDbLine
 10
92.30046278926193
 20
133.4401979645467
 30
0.0
 11
85.82426706515343
 21
133.4401979645467
 31
0.0
  0
LINE
  5
12FC
330
2
100
AcDbEntity
  8
0
100
AcDbLine
 10
49.30046278926193
 20
132.4401979645467
 30
0.0
 11
49.30046278926193
 21
72.44019796454677
 31
0.0
  0
LINE
  5
12FD
330
2
100
AcDbEntity
  8
0
100
AcDbLine
 10
83.70838765663348
 20
132.8101979645466
 30
0.0
 11
84.70838765663348
 21
132.8101979645466
 31
0.0
  0
LINE
  5
12FE
330
2
100
AcDbEntity
  8
0
100
AcDbLine
 10
84.70838765663348
 20
132.8101979645466
 30
0.0
 11
84.70838765663348
 21
125.8101979645466
 31
0.0
  0
LINE
  5
12FF
330
2
100
AcDbEntity
  8
0
100
AcDbLine
 10
84.70838765663348
 20
125.8101979645466
 30
0.0
 11
83.70838765663348
 21
125.8101979645466
 31
0.0
  0
LINE
  5
1300
330
2
100
AcDbEntity
  8
0
100
AcDbLine
 10
83.70838765663348
 20
125.8101979645466
 30
0.0
 11
83.70838765663348
 21
132.8101979645466
 31
0.0
  0
LINE
  5
1301
330
2
100
AcDbEntity
  8
0
100
AcDbLine
 10
79.70838765663348
 20
132.2905827222762
 30
0.0
 11
79.70838765663348
 21
126.3298132068171
 31
0.0
  0
LINE
  5
1302
330
2
100
AcDbEntity
  8
0
100
AcDbLine
 10
80.00838765663321
 20
125.8101979645466
 30
0.0
 11
80.00838765663321
 21
132.8101979645466
 31
0.0
  0
LINE
  5
1303
330
2
100
AcDbEntity
  8
0
100
AcDbLine
 10
80.00838765663321
 20
125.8101979645466
 30
0.0
 11
83.70838765663348
 21
125.8101979645466
 31
0.0
  0
LINE
  5
1304
330
2
100
AcDbEntity
  8
0
100
AcDbLine
 10
80.00838765663321
 20
125.8101979645466
 30
0.0
 11
79.70838765663348
 21
126.3298132068171
 31
0.0
  0
LINE
  5
1305
330
2
100
AcDbEntity
  8
0
100
AcDbLine
 10
79.70838765663348
 20
132.2905827222762
 30
0.0
 11
80.00838765663321
 21
132.8101979645466
 31
0.0
  0
LINE
  5
1306
330
2
100
AcDbEntity
  8
0
100
AcDbLine
 10
83.70838765663348
 20
132.8101979645466
 30
0.0
 11
80.00838765663321
 21
132.8101979645466
 31
0.0
  0
LINE
  5
1307
330
2
100
AcDbEntity
  8
CENTER
  6
CENS
100
AcDbLine
 10
74.76948038388354
 20
129.3101979645471
 30
0.0
 11
97.76943747350607
 21
129.3101979645471
 31
0.0
  0
LINE
  5
1308
330
2
100
AcDbEntity
  8
CENTER
  6
CENS
100
AcDbLine
 10
74.76948038388354
 20
75.57019796454643
 30
0.0
 11
97.76943747350607
 21
75.57019796454643
 31
0.0
  0
LINE
  5
1309
330
2
100
AcDbEntity
  8
0
100
AcDbLine
 10
83.70838765663348
 20
72.07019796454687
 30
0.0
 11
84.70838765663348
 21
72.07019796454687
 31
0.0
  0
LINE
  5
130A
330
2
100
AcDbEntity
  8
0
100
AcDbLine
 10
84.70838765663348
 20
72.07019796454687
 30
0.0
 11
84.70838765663348
 21
79.07019796454687
 31
0.0
  0
LINE
  5
130B
330
2
100
AcDbEntity
  8
0
100
AcDbLine
 10
84.70838765663348
 20
79.07019796454687
 30
0.0
 11
83.70838765663348
 21
79.07019796454687
 31
0.0
  0
LINE
  5
130C
330
2
100
AcDbEntity
  8
0
100
AcDbLine
 10
83.70838765663348
 20
79.07019796454687
 30
0.0
 11
83.70838765663348
 21
72.07019796454687
 31
0.0
  0
LINE
  5
130D
330
2
100
AcDbEntity
  8
0
100
AcDbLine
 10
79.70838765663348
 20
72.58981320681733
 30
0.0
 11
79.70838765663348
 21
78.55058272227643
 31
0.0
  0
LINE
  5
130E
330
2
100
AcDbEntity
  8
0
100
AcDbLine
 10
80.00838765663321
 20
79.07019796454687
 30
0.0
 11
80.00838765663321
 21
72.07019796454687
 31
0.0
  0
LINE
  5
130F
330
2
100
AcDbEntity
  8
0
100
AcDbLine
 10
80.00838765663321
 20
79.07019796454687
 30
0.0
 11
83.70838765663348
 21
79.07019796454687
 31
0.0
  0
LINE
  5
1310
330
2
100
AcDbEntity
  8
0
100
AcDbLine
 10
80.00838765663321
 20
79.07019796454687
 30
0.0
 11
79.70838765663348
 21
78.55058272227643
 31
0.0
  0
LINE
  5
1311
330
2
100
AcDbEntity
  8
0
100
AcDbLine
 10
79.70838765663348
 20
72.58981320681733
 30
0.0
 11
80.00838765663321
 21
72.07019796454687
 31
0.0
  0
LINE
  5
1312
330
2
100
AcDbEntity
  8
0
100
AcDbLine
 10
83.70838765663348
 20
72.07019796454687
 30
0.0
 11
80.00838765663321
 21
72.07019796454687
 31
0.0
  0
LINE
  5
1313
330
2
100
AcDbEntity
  8
0
100
AcDbLine
 10
58.30046278926193
 20
136.4401979645467
 30
0.0
 11
68.30046278926193
 21
136.4401979645467
 31
0.0
  0
ARC
  5
1314
330
2
100
AcDbEntity
  8
0
100
AcDbCircle
 10
68.30046278926193
 20
132.4401979645467
 30
0.0
 40
4.0
100
AcDbArc
 50
0.0
 51
90.0
  0
ARC
  5
1315
330
2
100
AcDbEntity
  8
0
100
AcDbCircle
 10
58.30046278926193
 20
132.4401979645467
 30
0.0
 40
4.000000000000028
100
AcDbArc
 50
90.0
 51
180.0
  0
LINE
  5
1316
330
2
100
AcDbEntity
  8
0
100
AcDbLine
 10
547.5593844941562
 20
124.9401979645454
 30
0.0
 11
544.4587178225382
 21
124.9401979645459
 31
0.0
  0
CIRCLE
  5
1317
330
2
100
AcDbEntity
  8
HIDS
100
AcDbCircle
 10
687.8518023060607
 20
102.4401979645331
 30
0.0
 40
30.0
  0
LINE
  5
1318
330
2
100
AcDbEntity
  8
0
100
AcDbLine
 10
657.9245668684658
 20
77.42565357519334
 30
0.0
 11
657.8518023060611
 21
102.4401979645331
 31
0.0
  0
LINE
  5
1319
330
2
100
AcDbEntity
  8
0
100
AcDbLine
 10
717.7790377436564
 20
77.42565357519288
 30
0.0
 11
717.8518023060611
 21
102.4401979645331
 31
0.0
  0
LINE
  5
131A
330
2
100
AcDbEntity
  8
0
100
AcDbLine
 10
718.8994090672841
 20
74.39181716037819
 30
0.0
 11
719.3518023060593
 21
102.4401979645363
 31
0.0
  0
LINE
  5
131B
330
2
100
AcDbEntity
  8
0
100
AcDbLine
 10
656.8041955448371
 20
74.39181716037819
 30
0.0
 11
656.351802306062
 21
102.4401979645363
 31
0.0
  0
CIRCLE
  5
131C
330
2
100
AcDbEntity
  8
0
100
AcDbCircle
 10
687.8518023060607
 20
102.4401979645331
 30
0.0
 40
25.00000000345432
  0
LINE
  5
131D
330
2
100
AcDbEntity
  8
0
100
AcDbLine
 10
662.9245457144949
 20
72.44019796453312
 30
0.0
 11
712.7790588976274
 21
72.44019796453312
 31
0.0
  0
LINE
  5
131E
330
2
100
AcDbEntity
  8
0
100
AcDbLine
 10
659.8038054024337
 20
71.44019796453313
 30
0.0
 11
715.8997992096876
 21
71.44019796453313
 31
0.0
  0
ARC
  5
131F
330
2
100
AcDbEntity
  8
0
100
AcDbCircle
 10
662.9245457144949
 20
77.44019796453312
 30
0.0
 40
5.0
100
AcDbArc
 50
180.1666666600049
 51
270.0
  0
ARC
  5
1320
330
2
100
AcDbEntity
  8
0
100
AcDbCircle
 10
659.8038054024337
 20
74.44019796453313
 30
0.0
 40
3.0
100
AcDbArc
 50
180.9240453527669
 51
270.0
  0
ARC
  5
1321
330
2
100
AcDbEntity
  8
0
100
AcDbCircle
 10
712.7790588976274
 20
77.44019796453312
 30
0.0
 40
5.0
100
AcDbArc
 50
270.0
 51
359.833333339995
  0
ARC
  5
1322
330
2
100
AcDbEntity
  8
0
100
AcDbCircle
 10
715.8997992096876
 20
74.44019796453313
 30
0.0
 40
3.0
100
AcDbArc
 50
270.0
 51
359.0759546472331
  0
LINE
  5
1323
330
2
100
AcDbEntity
  8
HIDS
100
AcDbLine
 10
707.8861031701422
 20
74.4052931516585
 30
0.0
 11
707.9652317063279
 21
78.93856395361808
 31
0.0
  0
ARC
  5
1324
330
2
100
AcDbEntity
  8
HIDS
100
AcDbCircle
 10
705.8864077798294
 20
74.44019796453313
 30
0.0
 40
2.0
100
AcDbArc
 50
270.0
 51
358.9999999999852
  0
ARC
  5
1325
330
2
100
AcDbEntity
  8
HIDS
100
AcDbCircle
 10
710.9647747917971
 20
78.88620673430614
 30
0.0
 40
3.0
100
AcDbArc
 50
134.458551434695
 51
178.9999999999982
  0
LINE
  5
1326
330
2
100
AcDbEntity
  8
0
100
AcDbLine
 10
662.9245457144949
 20
132.4401979645331
 30
0.0
 11
712.7790588976274
 21
132.4401979645331
 31
0.0
  0
LINE
  5
1327
330
2
100
AcDbEntity
  8
0
100
AcDbLine
 10
659.8038054024337
 20
133.4401979645331
 30
0.0
 11
668.4788189598545
 21
133.4401979645331
 31
0.0
  0
LINE
  5
1328
330
2
100
AcDbEntity
  8
0
100
AcDbLine
 10
686.2247856522709
 20
133.4401979645331
 30
0.0
 11
715.8997992096876
 21
133.4401979645331
 31
0.0
  0
LINE
  5
1329
330
2
100
AcDbEntity
  8
0
100
AcDbLine
 10
657.9245668684658
 20
127.4547423538729
 30
0.0
 11
657.8518023060611
 21
102.4401979645331
 31
0.0
  0
LINE
  5
132A
330
2
100
AcDbEntity
  8
0
100
AcDbLine
 10
656.8041955448371
 20
130.488578768688
 30
0.0
 11
656.351802306062
 21
102.4401979645363
 31
0.0
  0
LINE
  5
132B
330
2
100
AcDbEntity
  8
HIDS
100
AcDbLine
 10
671.6018023060615
 20
132.4401979645331
 30
0.0
 11
671.8493704247381
 21
118.2570299445365
 31
0.0
  0
LINE
  5
132C
330
2
100
AcDbEntity
  8
0
100
AcDbLine
 10
656.3518023060606
 20
102.4401979645331
 30
0.0
 11
657.8518023060606
 21
102.4401979644926
 31
0.0
  0
ARC
  5
132D
330
2
100
AcDbEntity
  8
0
100
AcDbCircle
 10
662.9245457144949
 20
127.4401979645331
 30
0.0
 40
5.0
100
AcDbArc
 50
90.0
 51
179.833333339995
  0
ARC
  5
132E
330
2
100
AcDbEntity
  8
0
100
AcDbCircle
 10
659.8038054024337
 20
130.4401979645331
 30
0.0
 40
3.0
100
AcDbArc
 50
90.0
 51
179.075954647233
  0
LINE
  5
132F
330
2
100
AcDbEntity
  8
HIDS
100
AcDbLine
 10
683.1018023060607
 20
132.4401979645331
 30
0.0
 11
682.9615006822156
 21
124.4023233176935
 31
0.0
  0
LINE
  5
1330
330
2
100
AcDbEntity
  8
0
100
AcDbLine
 10
717.7790377436564
 20
127.4547423538733
 30
0.0
 11
717.8518023060611
 21
102.4401979645331
 31
0.0
  0
LINE
  5
1331
330
2
100
AcDbEntity
  8
0
100
AcDbLine
 10
718.8994090672841
 20
130.488578768688
 30
0.0
 11
719.3518023060593
 21
102.4401979645363
 31
0.0
  0
LINE
  5
1332
330
2
100
AcDbEntity
  8
0
100
AcDbLine
 10
717.8518023060607
 20
102.4401979645199
 30
0.0
 11
719.3518023060606
 21
102.4401979645331
 31
0.0
  0
ARC
  5
1333
330
2
100
AcDbEntity
  8
0
100
AcDbCircle
 10
712.7790588976274
 20
127.4401979645331
 30
0.0
 40
5.0
100
AcDbArc
 50
0.1666666599919691
 51
90.0
  0
ARC
  5
1334
330
2
100
AcDbEntity
  8
0
100
AcDbCircle
 10
715.8997992096876
 20
130.4401979645331
 30
0.0
 40
3.0
100
AcDbArc
 50
0.9240453527669025
 51
90.0
  0
LINE
  5
1335
330
2
100
AcDbEntity
  8
CENTER
100
AcDbLine
 10
663.1030649645314
 20
130.6889353060623
 30
0.0
 11
663.1030649645314
 21
123.6889353060623
 31
0.0
  0
LINE
  5
1336
330
2
100
AcDbEntity
  8
CENTER
100
AcDbLine
 10
666.6030649645314
 20
127.1889353060623
 30
0.0
 11
659.6030649645314
 21
127.1889353060623
 31
0.0
  0
LINE
  5
1337
330
2
100
AcDbEntity
  8
CENTER
100
AcDbLine
 10
659.6030649645318
 20
77.69146062300388
 30
0.0
 11
666.6030649645318
 21
77.69146062300388
 31
0.0
  0
LINE
  5
1338
330
2
100
AcDbEntity
  8
CENTER
100
AcDbLine
 10
663.1030649645318
 20
81.19146062300387
 30
0.0
 11
663.1030649645318
 21
74.19146062300388
 31
0.0
  0
LINE
  5
1339
330
2
100
AcDbEntity
  8
CENTER
100
AcDbLine
 10
712.6005396475899
 20
74.19146062300433
 30
0.0
 11
712.6005396475899
 21
81.19146062300433
 31
0.0
  0
LINE
  5
133A
330
2
100
AcDbEntity
  8
CENTER
100
AcDbLine
 10
709.1005396475899
 20
77.69146062300433
 30
0.0
 11
716.1005396475899
 21
77.69146062300433
 31
0.0
  0
LINE
  5
133B
330
2
100
AcDbEntity
  8
CENTER
100
AcDbLine
 10
716.1005396475899
 20
127.1889353060623
 30
0.0
 11
709.1005396475899
 21
127.1889353060623
 31
0.0
  0
LINE
  5
133C
330
2
100
AcDbEntity
  8
CENTER
100
AcDbLine
 10
712.6005396475899
 20
123.6889353060623
 30
0.0
 11
712.6005396475899
 21
130.6889353060623
 31
0.0
  0
CIRCLE
  5
133D
330
2
100
AcDbEntity
  8
CENTER
100
AcDbCircle
 10
687.8518023060607
 20
102.4401979645331
 30
0.0
 40
35.00000000000006
  0
LINE
  5
133F
330
2
100
AcDbEntity
  8
0
100
AcDbLine
 10
673.1208824434067
 20
101.6901979645363
 30
0.0
 11
677.351802306063
 21
101.6901979645363
 31
0.0
  0
LINE
  5
1340
330
2
100
AcDbEntity
  8
0
100
AcDbLine
 10
673.1208824434067
 20
103.1901979645363
 30
0.0
 11
677.351802306063
 21
103.1901979645363
 31
0.0
  0
LINE
  5
1341
330
2
100
AcDbEntity
  8
0
100
AcDbLine
 10
701.8518023060629
 20
103.1901979645363
 30
0.0
 11
701.8518023060629
 21
101.6901979645363
 31
0.0
  0
LINE
  5
1342
330
2
100
AcDbEntity
  8
0
100
AcDbLine
 10
693.3004259854861
 20
103.1901979645363
 30
0.0
 11
701.8518023060629
 21
103.1901979645363
 31
0.0
  0
LINE
  5
1343
330
2
100
AcDbEntity
  8
0
100
AcDbLine
 10
701.8518023060629
 20
101.6901979645363
 30
0.0
 11
693.3004259854861
 21
101.6901979645363
 31
0.0
  0
LINE
  5
1344
330
2
100
AcDbEntity
  8
HIDS
100
AcDbLine
 10
681.3518023060624
 20
115.6807606414017
 30
0.0
 11
681.3518023060624
 21
107.4401979645363
 31
0.0
  0
LINE
  5
1345
330
2
100
AcDbEntity
  8
HIDS
100
AcDbLine
 10
679.0184689727294
 20
92.906864631203
 30
0.0
 11
679.0184689727294
 21
90.6277163360969
 31
0.0
  0
LINE
  5
1346
330
2
100
AcDbEntity
  8
HIDS
100
AcDbLine
 10
679.3518023060625
 20
101.6901979645363
 30
0.0
 11
679.3518023060625
 21
90.38563451329492
 31
0.0
  0
LINE
  5
1347
330
2
100
AcDbEntity
  8
HIDS
100
AcDbLine
 10
674.8518023060625
 20
107.4401979645363
 30
0.0
 11
674.8518023060625
 21
103.1901979645363
 31
0.0
  0
LINE
  5
1348
330
2
100
AcDbEntity
  8
HIDS
100
AcDbLine
 10
679.8518023060625
 20
107.4401979645363
 30
0.0
 11
679.8518023060625
 21
103.1901979645363
 31
0.0
  0
LINE
  5
1349
330
2
100
AcDbEntity
  8
HIDS
100
AcDbLine
 10
673.9751132196849
 20
107.4401979645363
 30
0.0
 11
681.3518023060624
 21
107.4401979645363
 31
0.0
  0
LINE
  5
134A
330
2
100
AcDbEntity
  8
CENTER
  6
CENS
100
AcDbLine
 10
677.351802306063
 20
141.4401979645363
 30
0.0
 11
677.351802306063
 21
87.28849532494086
 31
0.0
  0
LINE
  5
134B
330
2
100
AcDbEntity
  8
HIDS
100
AcDbLine
 10
675.3518023060629
 20
107.4401979645363
 30
0.0
 11
675.3518023060629
 21
103.1901979645363
 31
0.0
  0
LINE
  5
134C
330
2
100
AcDbEntity
  8
HIDS
100
AcDbLine
 10
675.6851356393964
 20
105.7735312978697
 30
0.0
 11
675.6851356393964
 21
103.1901979645363
 31
0.0
  0
LINE
  5
134D
330
2
100
AcDbEntity
  8
HIDS
100
AcDbLine
 10
679.0184689727294
 20
105.7735312978697
 30
0.0
 11
679.0184689727294
 21
103.1901979645363
 31
0.0
  0
LINE
  5
134E
330
2
100
AcDbEntity
  8
HIDS
100
AcDbLine
 10
679.3518023060629
 20
107.4401979645363
 30
0.0
 11
679.3518023060629
 21
103.1901979645363
 31
0.0
  0
LINE
  5
134F
330
2
100
AcDbEntity
  8
HIDS
100
AcDbLine
 10
679.3518023060629
 20
93.24019796453603
 30
0.0
 11
676.3226002521479
 21
93.24019796453603
 31
0.0
  0
LINE
  5
1350
330
2
100
AcDbEntity
  8
HIDS
100
AcDbLine
 10
678.5518023060632
 20
92.44019796453631
 30
0.0
 11
677.0091780849622
 21
92.44019796453631
 31
0.0
  0
LINE
  5
1351
330
2
100
AcDbEntity
  8
0
100
AcDbLine
 10
676.1518023060626
 20
92.44019796453631
 30
0.0
 11
677.0091780849622
 21
92.44019796453631
 31
0.0
  0
LINE
  5
1352
330
2
100
AcDbEntity
  8
0
100
AcDbLine
 10
675.3518023060629
 20
93.24019796453603
 30
0.0
 11
676.1518023060626
 21
92.44019796453631
 31
0.0
  0
LINE
  5
1353
330
2
100
AcDbEntity
  8
0
100
AcDbLine
 10
675.3518023060629
 20
93.24019796453603
 30
0.0
 11
676.3226002521479
 21
93.24019796453603
 31
0.0
  0
LINE
  5
1354
330
2
100
AcDbEntity
  8
HIDS
100
AcDbLine
 10
679.3518023060629
 20
93.24019796453603
 30
0.0
 11
678.5518023060632
 21
92.44019796453631
 31
0.0
  0
LINE
  5
1355
330
2
100
AcDbEntity
  8
0
100
AcDbLine
 10
673.8518023060629
 20
107.4401979645363
 30
0.0
 11
673.9751132196849
 21
107.4401979645363
 31
0.0
  0
LINE
  5
1356
330
2
100
AcDbEntity
  8
HIDS
100
AcDbLine
 10
679.3518023060629
 20
105.7735312978697
 30
0.0
 11
675.3518023060629
 21
105.7735312978697
 31
0.0
  0
LINE
  5
1357
330
2
100
AcDbEntity
  8
0
100
AcDbLine
 10
673.8518023060629
 20
111.1401979645365
 30
0.0
 11
675.9407780008233
 21
111.1401979645365
 31
0.0
  0
LINE
  5
1358
330
2
100
AcDbEntity
  8
HIDS
100
AcDbLine
 10
680.332187063792
 20
111.4401979645363
 30
0.0
 11
676.1658064135428
 21
111.4401979645363
 31
0.0
  0
LINE
  5
1359
330
2
100
AcDbEntity
  8
0
100
AcDbLine
 10
673.8518023060629
 20
111.1401979645365
 30
0.0
 11
673.8518023060629
 21
107.4401979645363
 31
0.0
  0
LINE
  5
135A
330
2
100
AcDbEntity
  8
HIDS
100
AcDbLine
 10
675.3518023060629
 20
107.4401979645363
 30
0.0
 11
675.6851356393964
 21
105.7735312978697
 31
0.0
  0
LINE
  5
135B
330
2
100
AcDbEntity
  8
0
100
AcDbLine
 10
673.8518023060629
 20
111.1401979645365
 30
0.0
 11
674.3714175483338
 21
111.4401979645363
 31
0.0
  0
LINE
  5
135C
330
2
100
AcDbEntity
  8
HIDS
100
AcDbLine
 10
680.8518023060629
 20
107.4401979645363
 30
0.0
 11
680.8518023060629
 21
111.1401979645365
 31
0.0
  0
LINE
  5
135D
330
2
100
AcDbEntity
  8
HIDS
100
AcDbLine
 10
679.3518023060629
 20
107.4401979645363
 30
0.0
 11
679.0184689727294
 21
105.7735312978697
 31
0.0
  0
LINE
  5
135E
330
2
100
AcDbEntity
  8
HIDS
100
AcDbLine
 10
680.332187063792
 20
111.4401979645363
 30
0.0
 11
680.8518023060629
 21
111.1401979645365
 31
0.0
  0
LINE
  5
1360
330
2
100
AcDbEntity
  8
0
100
AcDbLine
 10
677.351802306063
 20
103.1901979645363
 30
0.0
 11
682.4031786266397
 21
103.1901979645363
 31
0.0
  0
LINE
  5
1361
330
2
100
AcDbEntity
  8
0
100
AcDbLine
 10
677.351802306063
 20
101.6901979645363
 30
0.0
 11
682.4031786266397
 21
101.6901979645363
 31
0.0
  0
LINE
  5
1363
330
2
100
AcDbEntity
  8
HIDS
100
AcDbLine
 10
675.9407780008233
 20
111.1401979645365
 30
0.0
 11
680.8518023060629
 21
111.1401979645365
 31
0.0
  0
LINE
  5
1364
330
2
100
AcDbEntity
  8
0
100
AcDbLine
 10
676.1658064135428
 20
111.4401979645363
 30
0.0
 11
674.3714175483338
 21
111.4401979645363
 31
0.0
  0
LINE
  5
1365
330
2
100
AcDbEntity
  8
HIDS
100
AcDbLine
 10
673.9751132196849
 20
107.4401979645363
 30
0.0
 11
680.8518023060629
 21
107.4401979645363
 31
0.0
  0
LINE
  5
1366
330
2
100
AcDbEntity
  8
0
100
AcDbLine
 10
679.3518023060629
 20
103.1901979645363
 30
0.0
 11
679.3518023060629
 21
101.6901979645363
 31
0.0
  0
LINE
  5
1367
330
2
100
AcDbEntity
  8
HOJO
100
AcDbLine
 10
679.0184689727294
 20
103.1901979645363
 30
0.0
 11
679.0184689727294
 21
101.6901979645363
 31
0.0
  0
LINE
  5
1368
330
2
100
AcDbEntity
  8
HOJO
100
AcDbLine
 10
675.6851356393964
 20
103.1901979645363
 30
0.0
 11
675.6851356393964
 21
101.6901979645363
 31
0.0
  0
LINE
  5
1369
330
2
100
AcDbEntity
  8
0
100
AcDbLine
 10
675.3518023060629
 20
103.1901979645363
 30
0.0
 11
675.3518023060629
 21
101.6901979645363
 31
0.0
  0
LINE
  5
136A
330
2
100
AcDbEntity
  8
HIDS
100
AcDbLine
 10
675.3518023060629
 20
101.6901979645363
 30
0.0
 11
675.3518023060629
 21
94.60996808285335
 31
0.0
  0
LINE
  5
136B
330
2
100
AcDbEntity
  8
HIDS
100
AcDbLine
 10
675.6851356393964
 20
101.6901979645363
 30
0.0
 11
675.6851356393964
 21
94.10144972380976
 31
0.0
  0
LINE
  5
136C
330
2
100
AcDbEntity
  8
HIDS
100
AcDbLine
 10
679.0184689727294
 20
101.6901979645363
 30
0.0
 11
679.0184689727294
 21
92.906864631203
 31
0.0
  0
LINE
  5
136D
330
2
100
AcDbEntity
  8
HIDS
100
AcDbLine
 10
679.3518023060629
 20
101.6901979645363
 30
0.0
 11
679.3518023060629
 21
93.24019796453603
 31
0.0
  0
LINE
  5
136E
330
2
100
AcDbEntity
  8
HOJO
100
AcDbLine
 10
675.6851356393964
 20
94.10144972380976
 30
0.0
 11
675.6851356393964
 21
92.906864631203
 31
0.0
  0
LINE
  5
136F
330
2
100
AcDbEntity
  8
0
100
AcDbLine
 10
675.3518023060629
 20
94.60996808285335
 30
0.0
 11
675.3518023060629
 21
93.24019796453603
 31
0.0
  0
CIRCLE
  5
1370
330
2
100
AcDbEntity
  8
0
100
AcDbCircle
 10
687.8518023060629
 20
102.4401979645363
 30
0.0
 40
5.499999999997157
  0
ARC
  5
1371
330
2
100
AcDbEntity
  8
0
100
AcDbCircle
 10
687.8518023060629
 20
102.4401979645363
 30
0.0
 40
6.654700538376232
100
AcDbArc
 50
6.471114411181717
 51
173.5288855888182
  0
ARC
  5
1372
330
2
100
AcDbEntity
  8
0
100
AcDbCircle
 10
687.8518023060629
 20
102.4401979645363
 30
0.0
 40
6.654700538376232
100
AcDbArc
 50
186.4711144111808
 51
353.5288855888182
  0
LINE
  5
1373
330
2
100
AcDbEntity
  8
0
100
AcDbLine
 10
672.3518023060629
 20
136.4401979645363
 30
0.0
 11
682.3518023060629
 21
136.4401979645363
 31
0.0
  0
ARC
  5
1374
330
2
100
AcDbEntity
  8
0
100
AcDbCircle
 10
682.3518023060629
 20
132.4401979645363
 30
0.0
 40
3.999999999999971
100
AcDbArc
 50
359.9999999999544
 51
90.0
  0
ARC
  5
1375
330
2
100
AcDbEntity
  8
0
100
AcDbCircle
 10
672.3518023060629
 20
132.4401979645363
 30
0.0
 40
4.000000000000056
100
AcDbArc
 50
90.0
 51
180.0000000000455
  0
ARC
  5
1376
330
2
100
AcDbEntity
  8
0
100
AcDbCircle
 10
714.6993136810212
 20
129.3327921185678
 30
0.0
 40
3.499999999999717
100
AcDbArc
 50
331.4660973942729
 51
117.7026032046078
  0
ARC
  5
1377
330
2
100
AcDbEntity
  8
0
100
AcDbCircle
 10
714.6993136810212
 20
129.3327921185678
 30
0.0
 40
2.980384757729353
100
AcDbArc
 50
347.9891694961356
 51
101.179531102749
  0
ARC
  5
1378
330
2
100
AcDbEntity
  8
0
100
AcDbCircle
 10
660.9592081520315
 20
129.2877093394945
 30
0.0
 40
3.499999999999717
100
AcDbArc
 50
63.62312482358027
 51
209.9169029323347
  0
ARC
  5
1379
330
2
100
AcDbEntity
  8
0
100
AcDbCircle
 10
660.9592081520315
 20
129.2877093394945
 30
0.0
 40
2.980384757729353
100
AcDbArc
 50
80.12981105457564
 51
193.4102167013287
  0
ARC
  5
137A
330
2
100
AcDbEntity
  8
0
100
AcDbCircle
 10
661.0042909311042
 20
75.54760381050482
 30
0.0
 40
3.499999999999717
100
AcDbArc
 50
151.4660973942784
 51
297.7026032046078
  0
ARC
  5
137B
330
2
100
AcDbEntity
  8
0
100
AcDbCircle
 10
661.0042909311042
 20
75.54760381050482
 30
0.0
 40
2.980384757729353
100
AcDbArc
 50
167.9891694961356
 51
281.179531102749
  0
ARC
  5
137C
330
2
100
AcDbEntity
  8
0
100
AcDbCircle
 10
714.7443964600939
 20
75.59268658957808
 30
0.0
 40
3.499999999999717
100
AcDbArc
 50
243.6231248237701
 51
29.9169029324278
  0
ARC
  5
137D
330
2
100
AcDbEntity
  8
0
100
AcDbCircle
 10
714.7443964600939
 20
75.59268658957808
 30
0.0
 40
2.980384757729353
100
AcDbArc
 50
260.1298110548003
 51
13.41021670139492
  0
LINE
  5
137E
330
2
100
AcDbEntity
  8
HIDS
100
AcDbLine
 10
667.8175014419836
 20
130.4751027774141
 30
0.0
 11
667.738372905798
 21
125.9418319754545
 31
0.0
  0
ARC
  5
137F
330
2
100
AcDbEntity
  8
HIDS
100
AcDbCircle
 10
669.8171968322964
 20
130.4401979645394
 30
0.0
 40
2.0
100
AcDbArc
 50
90.0
 51
178.9999999999721
  0
ARC
  5
1380
330
2
100
AcDbEntity
  8
HIDS
100
AcDbCircle
 10
664.7388298203288
 20
125.9941891947664
 30
0.0
 40
3.0
100
AcDbArc
 50
314.4585514346815
 51
359.0000000000242
  0
CIRCLE
  5
1381
330
2
100
AcDbEntity
  8
0
100
AcDbCircle
 10
663.1030649645314
 20
127.1889353060623
 30
0.0
 40
2.0
  0
CIRCLE
  5
1382
330
2
100
AcDbEntity
  8
HOJO
100
AcDbCircle
 10
663.1030649645314
 20
127.1889353060623
 30
0.0
 40
2.5
  0
CIRCLE
  5
1383
330
2
100
AcDbEntity
  8
0
100
AcDbCircle
 10
663.1030649645318
 20
77.69146062300388
 30
0.0
 40
2.0
  0
CIRCLE
  5
1384
330
2
100
AcDbEntity
  8
HOJO
100
AcDbCircle
 10
663.1030649645318
 20
77.69146062300388
 30
0.0
 40
2.5
  0
CIRCLE
  5
1385
330
2
100
AcDbEntity
  8
0
100
AcDbCircle
 10
712.6005396475899
 20
77.69146062300411
 30
0.0
 40
2.0
  0
CIRCLE
  5
1386
330
2
100
AcDbEntity
  8
HOJO
100
AcDbCircle
 10
712.6005396475899
 20
77.69146062300411
 30
0.0
 40
2.5
  0
CIRCLE
  5
1387
330
2
100
AcDbEntity
  8
0
100
AcDbCircle
 10
712.6005396475899
 20
127.1889353060623
 30
0.0
 40
2.0
  0
CIRCLE
  5
1388
330
2
100
AcDbEntity
  8
HOJO
100
AcDbCircle
 10
712.6005396475899
 20
127.1889353060623
 30
0.0
 40
2.5
  0
CIRCLE
  5
1389
330
2
100
AcDbEntity
  8
0
100
AcDbCircle
 10
687.8518023060629
 20
102.4401979645363
 30
0.0
 40
22.5
  0
LINE
  5
138A
330
2
100
AcDbEntity
  8
0
100
AcDbLine
 10
719.1518023060719
 20
114.8401979637826
 30
0.0
 11
719.1518023060719
 21
125.4401979645365
 31
0.0
  0
LINE
  5
138B
330
2
100
AcDbEntity
  8
0
100
AcDbLine
 10
686.071388896994
 20
133.9114816192284
 30
0.0
 11
687.8518023060681
 21
133.9401979645365
 31
0.0
  0
TEXT
  5
1395
330
2
100
AcDbEntity
  8
TITLE
100
AcDbText
 10
233.6003826671571
 20
301.1902063482303
 30
0.0
 40
5.0
  1
AFCZ12L-3~5M200S1
100
AcDbText
  0
TEXT
  5
1397
330
2
100
AcDbEntity
  8
TITLE
100
AcDbText
 10
233.6003826671571
 20
290.8603154692502
 30
0.0
 40
5.0
  1
AFCZ12L-3~5L200S1
100
AcDbText
  0
CIRCLE
  5
1D1F
330
2
100
AcDbEntity
  8
0
100
AcDbCircle
 10
687.8518023060616
 20
102.4401979645363
 30
0.0
 40
14.75
  0
LINE
  5
2129
330
2
100
AcDbEntity
  8
CENTER
100
AcDbLine
 10
269.8131273543331
 20
63.94019796454244
 30
0.0
 11
269.8131273543331
 21
140.9401979645429
 31
0.0
  0
LINE
  5
212A
330
2
100
AcDbEntity
  8
CENTER
100
AcDbLine
 10
123.643608539767
 20
136.0970522140416
 30
0.0
 11
190.9573170387541
 21
68.7833437150544
 31
0.0
  0
LINE
  5
212B
330
2
100
AcDbEntity
  8
CENTER
100
AcDbLine
 10
190.9573170387541
 20
136.0970522140391
 30
0.0
 11
123.6436085397697
 21
68.78334371505428
 31
0.0
  0
LINE
  5
212C
330
2
100
AcDbEntity
  8
CENTER
100
AcDbLine
 10
157.3004627892619
 20
64.44019796454677
 30
0.0
 11
157.3004627892619
 21
140.4401979645467
 31
0.0
  0
LINE
  5
212F
330
2
100
AcDbEntity
  8
CENTER
100
AcDbLine
 10
473.4294421792423
 20
122.8102556496353
 30
0.0
 11
473.4294421792423
 21
135.8102556496349
 31
0.0
  0
LINE
  5
2130
330
2
100
AcDbEntity
  8
CENTER
100
AcDbLine
 10
419.6893268090646
 20
135.8102556496353
 30
0.0
 11
419.6893268090646
 21
122.8102556496353
 31
0.0
  0
LINE
  5
2131
330
2
100
AcDbEntity
  8
CENTER
100
AcDbLine
 10
412.9025302446611
 20
136.0970522140387
 30
0.0
 11
480.2162387436454
 21
68.78334371505369
 31
0.0
  0
LINE
  5
2132
330
2
100
AcDbEntity
  8
CENTER
100
AcDbLine
 10
480.2162387436459
 20
136.0970522140387
 30
0.0
 11
412.9025302446605
 21
68.78334371505397
 31
0.0
  0
CIRCLE
  5
2133
330
2
100
AcDbEntity
  8
CENTER
100
AcDbCircle
 10
446.5593844941535
 20
102.4401979645463
 30
0.0
 40
38.0
  0
LINE
  5
2135
330
2
100
AcDbEntity
  8
CENTER
100
AcDbLine
 10
446.5593844941535
 20
147.4401979645463
 30
0.0
 11
446.5593844941535
 21
57.44019796454634
 31
0.0
  0
LINE
  5
2138
330
2
100
AcDbEntity
  8
0
100
AcDbLine
 10
92.30046278925829
 20
133.9401979645458
 30
0.0
 11
98.30046278926012
 21
133.9401979645463
 31
0.0
  0
LINE
  5
2139
330
2
100
AcDbEntity
  8
0
100
AcDbLine
 10
92.30046278926193
 20
70.94019796454677
 30
0.0
 11
98.30046278926012
 21
70.94019796454677
 31
0.0
  0
LINE
  5
213A
330
2
100
AcDbEntity
  8
0
100
AcDbLine
 10
92.30046278926193
 20
71.44019796454677
 30
0.0
 11
98.30046278926012
 21
71.44019796454677
 31
0.0
  0
LINE
  5
213B
330
2
100
AcDbEntity
  8
0
100
AcDbLine
 10
92.30046278925829
 20
133.4401979645458
 30
0.0
 11
98.30046278926012
 21
133.4401979645463
 31
0.0
  0
CIRCLE
  5
213E
330
2
100
AcDbEntity
  8
0
100
AcDbCircle
 10
157.3004627892619
 20
102.4401979645467
 30
0.0
 40
25.5
  0
CIRCLE
  5
213F
330
2
100
AcDbEntity
  8
0
100
AcDbCircle
 10
157.3004627892619
 20
102.4401979645467
 30
0.0
 40
22.42259999999999
  0
CIRCLE
  5
2140
330
2
100
AcDbEntity
  8
0
100
AcDbCircle
 10
157.3004627892619
 20
102.4401979645467
 30
0.0
 40
23.0
  0
CIRCLE
  5
2141
330
2
100
AcDbEntity
  8
0
100
AcDbCircle
 10
157.3004627892619
 20
102.4401979645467
 30
0.0
 40
25.0
  0
CIRCLE
  5
2142
330
2
100
AcDbEntity
  8
0
100
AcDbCircle
 10
157.3004627892619
 20
102.4401979645467
 30
0.0
 40
18.0774
  0
CIRCLE
  5
2143
330
2
100
AcDbEntity
  8
0
100
AcDbCircle
 10
157.3004627892619
 20
102.4401979645467
 30
0.0
 40
17.5
  0
LINE
  5
2144
330
2
100
AcDbEntity
  8
0
100
AcDbLine
 10
169.3273747238431
 20
127.9401979645467
 30
0.0
 11
145.2735508546806
 21
127.9401979645465
 31
0.0
  0
LINE
  5
2145
330
2
100
AcDbEntity
  8
0
100
AcDbLine
 10
169.3273747238431
 20
129.9401979645467
 30
0.0
 11
145.2735508546806
 21
129.9401979645467
 31
0.0
  0
LINE
  5
2146
330
2
100
AcDbEntity
  8
0
100
AcDbLine
 10
169.3273747238431
 20
74.94019796454677
 30
0.0
 11
145.2735508546806
 21
74.94019796454677
 31
0.0
  0
LINE
  5
2147
330
2
100
AcDbEntity
  8
0
100
AcDbLine
 10
169.3273747238431
 20
76.94019796454677
 30
0.0
 11
145.2735508546806
 21
76.94019796454677
 31
0.0
  0
ARC
  5
2148
330
2
100
AcDbEntity
  8
0
100
AcDbCircle
 10
157.3004627892601
 20
-16.55980203545323
 30
0.0
 40
150.0
100
AcDbArc
 50
83.88401001893184
 51
96.11598998101577
  0
ARC
  5
2149
330
2
100
AcDbEntity
  8
0
100
AcDbCircle
 10
157.3004627892601
 20
221.4401979645467
 30
0.0
 40
150.0
100
AcDbArc
 50
263.8840100189318
 51
276.1159899810157
  0
LINE
  5
214A
330
2
100
AcDbEntity
  8
0
100
AcDbLine
 10
131.8004627892619
 20
90.413286029966
 30
0.0
 11
131.8004627892619
 21
114.4671098991275
 31
0.0
  0
LINE
  5
214B
330
2
100
AcDbEntity
  8
0
100
AcDbLine
 10
129.8004627892619
 20
90.41328602996555
 30
0.0
 11
129.8004627892619
 21
114.4671098991279
 31
0.0
  0
LINE
  5
214C
330
2
100
AcDbEntity
  8
0
100
AcDbLine
 10
126.640462789262
 20
74.44019796454677
 30
0.0
 11
126.640462789262
 21
130.4401979645467
 31
0.0
  0
LINE
  5
214D
330
2
100
AcDbEntity
  8
0
100
AcDbLine
 10
111.8004627892619
 20
79.44019796526731
 30
0.0
 11
111.8004627892619
 21
125.4401979638332
 31
0.0
  0
LINE
  5
214E
330
2
100
AcDbEntity
  8
0
100
AcDbLine
 10
126.3004627892601
 20
130.4401979645499
 30
0.0
 11
126.3004627892601
 21
74.44019796454859
 31
0.0
  0
LINE
  5
214F
330
2
100
AcDbEntity
  8
0
100
AcDbLine
 10
100.3004627892601
 20
72.94019796454676
 30
0.0
 11
100.3004627892601
 21
131.9401979645463
 31
0.0
  0
CIRCLE
  5
2150
330
2
100
AcDbEntity
  8
0
100
AcDbCircle
 10
131.3004627892628
 20
76.44019796454722
 30
0.0
 40
3.730384757729268
  0
CIRCLE
  5
2151
330
2
100
AcDbEntity
  8
0
100
AcDbCircle
 10
131.3004627892628
 20
76.44019796454722
 30
0.0
 40
4.250000000000085
  0
ARC
  5
2152
330
2
100
AcDbEntity
  8
0
100
AcDbCircle
 10
129.640462789262
 20
74.44019796454677
 30
0.0
 40
3.0
100
AcDbArc
 50
180.0
 51
270.0
  0
LINE
  5
2153
330
2
100
AcDbEntity
  8
CENTER
100
AcDbLine
 10
125.5504627892619
 20
76.44019796454677
 30
0.0
 11
137.0504627892619
 21
76.44019796454677
 31
0.0
  0
ARC
  5
2154
330
2
100
AcDbEntity
  8
0
100
AcDbCircle
 10
129.3004627892601
 20
74.44019796454859
 30
0.0
 40
3.0
100
AcDbArc
 50
180.0
 51
270.0
  0
ARC
  5
2155
330
2
100
AcDbEntity
  8
0
100
AcDbCircle
 10
98.30046278926012
 20
72.94019796454676
 30
0.0
 40
2.0
100
AcDbArc
 50
270.0
 51
0.0
  0
ARC
  5
2156
330
2
100
AcDbEntity
  8
0
100
AcDbCircle
 10
112.8004627892519
 20
75.44019796526004
 30
0.0
 40
3.0
100
AcDbArc
 50
90.0
 51
126.8698976456909
  0
ARC
  5
2157
330
2
100
AcDbEntity
  8
0
100
AcDbCircle
 10
123.3004627892601
 20
75.44019796526026
 30
0.0
 40
3.0
100
AcDbArc
 50
0.0
 51
90.0
  0
ARC
  5
2158
330
2
100
AcDbEntity
  8
0
100
AcDbCircle
 10
103.3004627892601
 20
74.44019796526754
 30
0.0
 40
3.0
100
AcDbArc
 50
90.0
 51
180.0
  0
LINE
  5
2159
330
2
100
AcDbEntity
  8
0
100
AcDbLine
 10
109.8004627892619
 20
77.44019796526732
 30
0.0
 11
103.3004627892601
 21
77.44019796526754
 31
0.0
  0
LINE
  5
215A
330
2
100
AcDbEntity
  8
0
100
AcDbLine
 10
123.3004627892601
 20
78.44019796526026
 30
0.0
 11
112.8004627892519
 21
78.44019796526026
 31
0.0
  0
ARC
  5
215B
330
2
100
AcDbEntity
  8
0
100
AcDbCircle
 10
109.8004627892619
 20
79.44019796526731
 30
0.0
 40
2.0
100
AcDbArc
 50
270.0
 51
359.9999999917405
  0
ARC
  5
215C
330
2
100
AcDbEntity
  8
0
100
AcDbCircle
 10
114.800462789261
 20
79.44019796454677
 30
0.0
 40
3.0
100
AcDbArc
 50
90.0
 51
180.0
  0
ARC
  5
215D
330
2
100
AcDbEntity
  8
0
100
AcDbCircle
 10
123.3004627892637
 20
79.44019796454654
 30
0.0
 40
3.0
100
AcDbArc
 50
0.0
 51
90.0
  0
LINE
  5
215E
330
2
100
AcDbEntity
  8
0
100
AcDbLine
 10
123.3004627892637
 20
82.44019796454654
 30
0.0
 11
114.800462789261
 21
82.44019796454677
 31
0.0
  0
ARC
  5
215F
330
2
100
AcDbEntity
  8
0
100
AcDbCircle
 10
98.30046278926012
 20
73.44019796454677
 30
0.0
 40
2.0
100
AcDbArc
 50
270.0
 51
0.0
  0
LINE
  5
2160
330
2
100
AcDbEntity
  8
0
100
AcDbLine
 10
133.3004627892628
 20
75.28549742616769
 30
0.0
 11
133.3004627892628
 21
77.5948985029263
 31
0.0
  0
LINE
  5
2161
330
2
100
AcDbEntity
  8
0
100
AcDbLine
 10
131.3004627892619
 20
74.13079688778862
 30
0.0
 11
129.3004627892628
 21
75.28549742616769
 31
0.0
  0
LINE
  5
2162
330
2
100
AcDbEntity
  8
0
100
AcDbLine
 10
129.3004627892628
 20
77.5948985029263
 30
0.0
 11
131.3004627892619
 21
78.74959904130538
 31
0.0
  0
LINE
  5
2163
330
2
100
AcDbEntity
  8
0
100
AcDbLine
 10
129.3004627892628
 20
75.28549742616769
 30
0.0
 11
129.3004627892628
 21
77.5948985029263
 31
0.0
  0
LINE
  5
2164
330
2
100
AcDbEntity
  8
0
100
AcDbLine
 10
131.3004627892619
 20
74.13079688778862
 30
0.0
 11
133.3004627892628
 21
75.28549742616769
 31
0.0
  0
LINE
  5
2165
330
2
100
AcDbEntity
  8
0
100
AcDbLine
 10
133.3004627892628
 20
77.5948985029263
 30
0.0
 11
131.3004627892628
 21
78.74959904130538
 31
0.0
  0
LINE
  5
2166
330
2
100
AcDbEntity
  8
CENTER
100
AcDbLine
 10
131.3004627892619
 20
70.69019796454677
 30
0.0
 11
131.3004627892619
 21
82.19019796454677
 31
0.0
  0
LINE
  5
2167
330
2
100
AcDbEntity
  8
0
100
AcDbLine
 10
132.3004627892619
 20
71.44019796454699
 30
0.0
 11
129.640462789262
 21
71.44019796454699
 31
0.0
  0
LINE
  5
2168
330
2
100
AcDbEntity
  8
0
100
AcDbLine
 10
132.1810651267055
 20
88.49986886813985
 30
0.0
 11
130.3333060616837
 21
87.73450200340993
 31
0.0
  0
ARC
  5
2169
330
2
100
AcDbEntity
  8
0
100
AcDbCircle
 10
136.8004627892619
 20
90.41328602996577
 30
0.0
 40
5.0
100
AcDbArc
 50
180.0
 51
225.000000000008
  0
ARC
  5
216A
330
2
100
AcDbEntity
  8
0
100
AcDbCircle
 10
136.8004627892619
 20
90.41328602996555
 30
0.0
 40
7.0
100
AcDbArc
 50
180.0
 51
225.000000000008
  0
ARC
  5
216B
330
2
100
AcDbEntity
  8
0
100
AcDbCircle
 10
145.2735508546806
 20
81.94019796454677
 30
0.0
 40
5.0
100
AcDbArc
 50
225.000000000008
 51
270.0
  0
ARC
  5
216C
330
2
100
AcDbEntity
  8
0
100
AcDbCircle
 10
145.2735508546806
 20
81.94019796454677
 30
0.0
 40
7.0
100
AcDbArc
 50
225.000000000008
 51
270.0
  0
LINE
  5
216D
330
2
100
AcDbEntity
  8
0
100
AcDbLine
 10
143.3601336928554
 20
77.3208003019904
 30
0.0
 11
142.5947668281255
 21
75.4730412369679
 31
0.0
  0
LINE
  5
216E
330
2
100
AcDbEntity
  8
0
100
AcDbLine
 10
140.3238033863749
 20
76.99045049624101
 30
0.0
 11
131.8507153209561
 21
85.46353856165978
 31
0.0
  0
LINE
  5
216F
330
2
100
AcDbEntity
  8
0
100
AcDbLine
 10
141.7380169487482
 20
78.40466405861412
 30
0.0
 11
133.2649288833295
 21
86.87775212403312
 31
0.0
  0
ARC
  5
2170
330
2
100
AcDbEntity
  8
0
100
AcDbCircle
 10
132.3004627892619
 20
76.44019796454836
 30
0.0
 40
5.0
100
AcDbArc
 50
270.0
 51
285.9928477439961
  0
LINE
  5
2171
330
2
100
AcDbEntity
  8
0
100
AcDbLine
 10
132.3004627892619
 20
71.44019796454813
 30
0.0
 11
129.3004627892601
 21
71.44019796454859
 31
0.0
  0
LINE
  5
2172
330
2
100
AcDbEntity
  8
0
100
AcDbLine
 10
132.3004627892637
 20
71.44019796454677
 30
0.0
 11
129.3004627892637
 21
71.44019796454677
 31
0.0
  0
LINE
  5
2173
330
2
100
AcDbEntity
  8
0
100
AcDbLine
 10
132.3004627892601
 20
71.44019796454995
 30
0.0
 11
129.3004627892601
 21
71.44019796454995
 31
0.0
  0
LINE
  5
2174
330
2
100
AcDbEntity
  8
0
100
AcDbLine
 10
132.3004627892619
 20
71.44019796454836
 30
0.0
 11
129.3004627892619
 21
71.44019796454836
 31
0.0
  0
ARC
  5
2175
330
2
100
AcDbEntity
  8
0
100
AcDbCircle
 10
139.1883967635699
 20
52.40779555518475
 30
0.0
 40
20.0
100
AcDbArc
 50
83.88401001893184
 51
105.9928477439961
  0
CIRCLE
  5
2176
330
2
100
AcDbEntity
  8
0
100
AcDbCircle
 10
131.3004627892628
 20
128.4401979645463
 30
0.0
 40
3.730384757729268
  0
CIRCLE
  5
2177
330
2
100
AcDbEntity
  8
0
100
AcDbCircle
 10
131.3004627892628
 20
128.4401979645463
 30
0.0
 40
4.250000000000085
  0
LINE
  5
2178
330
2
100
AcDbEntity
  8
CENTER
100
AcDbLine
 10
125.6272577085051
 20
121.9401979645467
 30
0.0
 11
135.9736678700187
 21
121.9401979645467
 31
0.0
  0
ARC
  5
2179
330
2
100
AcDbEntity
  8
0
100
AcDbCircle
 10
129.640462789262
 20
130.4401979645467
 30
0.0
 40
3.0
100
AcDbArc
 50
90.0
 51
180.0
  0
LINE
  5
217A
330
2
100
AcDbEntity
  8
CENTER
100
AcDbLine
 10
125.550462789261
 20
128.440197964546
 30
0.0
 11
137.050462789261
 21
128.4401979645467
 31
0.0
  0
ARC
  5
217B
330
2
100
AcDbEntity
  8
0
100
AcDbCircle
 10
129.3004627892601
 20
130.4401979645499
 30
0.0
 40
3.0
100
AcDbArc
 50
90.0
 51
180.0
  0
ARC
  5
217C
330
2
100
AcDbEntity
  8
0
100
AcDbCircle
 10
98.30046278926012
 20
131.9401979645463
 30
0.0
 40
2.0
100
AcDbArc
 50
0.0
 51
90.0
  0
ARC
  5
217D
330
2
100
AcDbEntity
  8
0
100
AcDbCircle
 10
112.8004627892519
 20
129.4401979638335
 30
0.0
 40
3.0
100
AcDbArc
 50
233.1301023542601
 51
270.0
  0
ARC
  5
217E
330
2
100
AcDbEntity
  8
0
100
AcDbCircle
 10
123.3004627892601
 20
129.4401979638332
 30
0.0
 40
3.0
100
AcDbArc
 50
270.0
 51
0.0
  0
LINE
  5
217F
330
2
100
AcDbEntity
  8
0
100
AcDbLine
 10
123.3004627892601
 20
126.4401979638332
 30
0.0
 11
112.8004627892519
 21
126.4401979638335
 31
0.0
  0
LINE
  5
2180
330
2
100
AcDbEntity
  8
0
100
AcDbLine
 10
109.8004627892619
 20
127.4401979638332
 30
0.0
 11
103.3004627892601
 21
127.4401979638335
 31
0.0
  0
ARC
  5
2181
330
2
100
AcDbEntity
  8
0
100
AcDbCircle
 10
103.3004627892601
 20
130.4401979638335
 30
0.0
 40
3.0
100
AcDbArc
 50
180.0
 51
270.0
  0
LINE
  5
2182
330
2
100
AcDbEntity
  8
0
100
AcDbLine
 10
111.8004627892619
 20
125.4401979645467
 30
0.0
 11
111.8004627892619
 21
125.4401979638332
 31
0.0
  0
ARC
  5
2183
330
2
100
AcDbEntity
  8
0
100
AcDbCircle
 10
109.8004627892619
 20
125.4401979638332
 30
0.0
 40
2.0
100
AcDbArc
 50
0.0
 51
90.0
  0
ARC
  5
2184
330
2
100
AcDbEntity
  8
0
100
AcDbCircle
 10
123.3004627892646
 20
125.4401979645467
 30
0.0
 40
3.0
100
AcDbArc
 50
270.0
 51
0.0
  0
ARC
  5
2185
330
2
100
AcDbEntity
  8
0
100
AcDbCircle
 10
114.8004627892619
 20
125.4401979645467
 30
0.0
 40
3.0
100
AcDbArc
 50
180.0
 51
270.0
  0
LINE
  5
2186
330
2
100
AcDbEntity
  8
0
100
AcDbLine
 10
123.3004627892646
 20
122.4401979645467
 30
0.0
 11
114.8004627892619
 21
122.4401979645467
 31
0.0
  0
LINE
  5
2187
330
2
100
AcDbEntity
  8
0
100
AcDbLine
 10
125.8004627892619
 20
110.0395400413322
 30
0.0
 11
125.800462789261
 21
94.84085588776133
 31
0.0
  0
LINE
  5
2188
330
2
100
AcDbEntity
  8
0
100
AcDbLine
 10
111.8004627892619
 20
110.0395400413322
 30
0.0
 11
126.300462789261
 21
110.0395400413322
 31
0.0
  0
LINE
  5
2189
330
2
100
AcDbEntity
  8
0
100
AcDbLine
 10
111.8004627892619
 20
94.84085588776133
 30
0.0
 11
126.300462789261
 21
94.84085588776133
 31
0.0
  0
ARC
  5
218A
330
2
100
AcDbEntity
  8
0
100
AcDbCircle
 10
98.30046278926012
 20
131.4401979645463
 30
0.0
 40
2.0
100
AcDbArc
 50
0.0
 51
90.0
  0
LINE
  5
218B
330
2
100
AcDbEntity
  8
0
100
AcDbLine
 10
133.3004627892628
 20
129.5948985029258
 30
0.0
 11
133.3004627892628
 21
127.2854974261672
 31
0.0
  0
LINE
  5
218C
330
2
100
AcDbEntity
  8
0
100
AcDbLine
 10
131.3004627892619
 20
130.7495990413049
 30
0.0
 11
129.3004627892628
 21
129.5948985029258
 31
0.0
  0
LINE
  5
218D
330
2
100
AcDbEntity
  8
0
100
AcDbLine
 10
129.3004627892628
 20
127.2854974261672
 30
0.0
 11
131.3004627892619
 21
126.1307968877881
 31
0.0
  0
LINE
  5
218E
330
2
100
AcDbEntity
  8
0
100
AcDbLine
 10
129.3004627892628
 20
129.5948985029258
 30
0.0
 11
129.3004627892628
 21
127.2854974261672
 31
0.0
  0
LINE
  5
218F
330
2
100
AcDbEntity
  8
0
100
AcDbLine
 10
131.3004627892619
 20
130.7495990413049
 30
0.0
 11
133.3004627892628
 21
129.5948985029258
 31
0.0
  0
LINE
  5
2190
330
2
100
AcDbEntity
  8
0
100
AcDbLine
 10
133.3004627892628
 20
127.2854974261672
 30
0.0
 11
131.3004627892628
 21
126.1307968877881
 31
0.0
  0
LINE
  5
2191
330
2
100
AcDbEntity
  8
CENTER
100
AcDbLine
 10
131.3004627892601
 20
134.1901979645465
 30
0.0
 11
131.300462789261
 21
122.6901979645465
 31
0.0
  0
LINE
  5
2192
330
2
100
AcDbEntity
  8
0
100
AcDbLine
 10
132.1810651267055
 20
116.3805270609534
 30
0.0
 11
130.3333060616837
 21
117.1458939256835
 31
0.0
  0
ARC
  5
2193
330
2
100
AcDbEntity
  8
0
100
AcDbCircle
 10
136.8004627892619
 20
114.4671098991275
 30
0.0
 40
5.0
100
AcDbArc
 50
134.9999999999919
 51
180.0
  0
CIRCLE
  5
2194
330
2
100
AcDbEntity
  8
HOJO
100
AcDbCircle
 10
130.8004627892619
 20
121.9401979645467
 30
0.0
 40
2.0
  0
CIRCLE
  5
2195
330
2
100
AcDbEntity
  8
0
100
AcDbCircle
 10
130.8004627892619
 20
121.9401979645465
 30
0.0
 40
1.6
  0
ARC
  5
2196
330
2
100
AcDbEntity
  8
0
100
AcDbCircle
 10
136.8004627892619
 20
114.4671098991279
 30
0.0
 40
7.0
100
AcDbArc
 50
134.9999999999919
 51
180.0
  0
LINE
  5
2197
330
2
100
AcDbEntity
  8
0
100
AcDbLine
 10
132.3004627892619
 20
133.4401979645467
 30
0.0
 11
129.640462789262
 21
133.4401979645467
 31
0.0
  0
LINE
  5
2198
330
2
100
AcDbEntity
  8
CENTER
100
AcDbLine
 10
130.8004627892619
 20
127.1134030453035
 30
0.0
 11
130.8004627892619
 21
116.7669928837895
 31
0.0
  0
ARC
  5
2199
330
2
100
AcDbEntity
  8
0
100
AcDbCircle
 10
145.2735508546806
 20
122.9401979645465
 30
0.0
 40
7.0
100
AcDbArc
 50
90.0
 51
134.9999999999919
  0
ARC
  5
219A
330
2
100
AcDbEntity
  8
0
100
AcDbCircle
 10
145.2735508546806
 20
122.9401979645467
 30
0.0
 40
5.0
100
AcDbArc
 50
90.0
 51
134.9999999999919
  0
LINE
  5
219B
330
2
100
AcDbEntity
  8
0
100
AcDbLine
 10
143.3601336928554
 20
127.5595956271031
 30
0.0
 11
142.5947668281255
 21
129.4073546921256
 31
0.0
  0
LINE
  5
219C
330
2
100
AcDbEntity
  8
0
100
AcDbLine
 10
141.7380169487482
 20
126.4757318704792
 30
0.0
 11
133.2649288833295
 21
118.0026438050604
 31
0.0
  0
LINE
  5
219D
330
2
100
AcDbEntity
  8
0
100
AcDbLine
 10
140.3238033863749
 20
127.8899454328525
 30
0.0
 11
131.8507153209561
 21
119.4168573674337
 31
0.0
  0
ARC
  5
219E
330
2
100
AcDbEntity
  8
0
100
AcDbCircle
 10
132.3004627892619
 20
128.4401979645483
 30
0.0
 40
5.0
100
AcDbArc
 50
74.00715225600388
 51
90.0
  0
LINE
  5
219F
330
2
100
AcDbEntity
  8
0
100
AcDbLine
 10
132.3004627892637
 20
133.4401979645499
 30
0.0
 11
129.3004627892601
 21
133.4401979645499
 31
0.0
  0
ARC
  5
21A0
330
2
100
AcDbEntity
  8
0
100
AcDbCircle
 10
139.1883967635699
 20
152.4726003739117
 30
0.0
 40
20.0
100
AcDbArc
 50
254.0071522560038
 51
276.1159899810157
  0
LINE
  5
21A1
330
2
100
AcDbEntity
  8
0
100
AcDbLine
 10
184.8004627892619
 20
90.41328602996555
 30
0.0
 11
184.8004627892619
 21
114.4671098991279
 31
0.0
  0
LINE
  5
21A2
330
2
100
AcDbEntity
  8
0
100
AcDbLine
 10
182.8004627892619
 20
90.41328602996577
 30
0.0
 11
182.8004627892619
 21
114.4671098991277
 31
0.0
  0
ARC
  5
21A3
330
2
100
AcDbEntity
  8
0
100
AcDbCircle
 10
38.30046278926193
 20
102.4401979645485
 30
0.0
 40
150.0
100
AcDbArc
 50
353.8840100189311
 51
6.115989981068892
  0
LINE
  5
21A4
330
2
100
AcDbEntity
  8
0
100
AcDbLine
 10
185.3004627892619
 20
75.28549742616769
 30
0.0
 11
185.3004627892619
 21
77.5948985029263
 31
0.0
  0
LINE
  5
21A5
330
2
100
AcDbEntity
  8
0
100
AcDbLine
 10
183.3004627892619
 20
74.13079688778862
 30
0.0
 11
181.3004627892619
 21
75.28549742616769
 31
0.0
  0
LINE
  5
21A6
330
2
100
AcDbEntity
  8
0
100
AcDbLine
 10
181.3004627892619
 20
77.5948985029263
 30
0.0
 11
183.3004627892619
 21
78.74959904130538
 31
0.0
  0
LINE
  5
21A7
330
2
100
AcDbEntity
  8
0
100
AcDbLine
 10
181.3004627892619
 20
75.28549742616769
 30
0.0
 11
181.3004627892619
 21
77.5948985029263
 31
0.0
  0
LINE
  5
21A8
330
2
100
AcDbEntity
  8
0
100
AcDbLine
 10
183.3004627892619
 20
74.13079688778862
 30
0.0
 11
185.3004627892619
 21
75.28549742616769
 31
0.0
  0
CIRCLE
  5
21A9
330
2
100
AcDbEntity
  8
0
100
AcDbCircle
 10
183.3004627892619
 20
76.44019796454722
 30
0.0
 40
3.730384757729268
  0
CIRCLE
  5
21AA
330
2
100
AcDbEntity
  8
0
100
AcDbCircle
 10
183.3004627892619
 20
76.44019796454722
 30
0.0
 40
4.250000000000085
  0
LINE
  5
21AB
330
2
100
AcDbEntity
  8
0
100
AcDbLine
 10
185.3004627892619
 20
77.5948985029263
 30
0.0
 11
183.3004627892619
 21
78.74959904130538
 31
0.0
  0
LINE
  5
21AC
330
2
100
AcDbEntity
  8
0
100
AcDbLine
 10
171.2407918856692
 20
77.3208003019904
 30
0.0
 11
172.0061587503992
 21
75.4730412369679
 31
0.0
  0
ARC
  5
21AD
330
2
100
AcDbEntity
  8
0
100
AcDbCircle
 10
169.3273747238431
 20
81.94019796454677
 30
0.0
 40
7.0
100
AcDbArc
 50
270.0
 51
314.9999999999919
  0
ARC
  5
21AE
330
2
100
AcDbEntity
  8
0
100
AcDbCircle
 10
169.3273747238431
 20
81.94019796454677
 30
0.0
 40
5.0
100
AcDbArc
 50
270.0
 51
314.9999999999919
  0
CIRCLE
  5
21AF
330
2
100
AcDbEntity
  8
HOJO
100
AcDbCircle
 10
183.8004627892619
 20
82.94019796454699
 30
0.0
 40
2.0
  0
ARC
  5
21B0
330
2
100
AcDbEntity
  8
0
100
AcDbCircle
 10
177.8004627892619
 20
90.41328602996555
 30
0.0
 40
7.0
100
AcDbArc
 50
314.9999999999919
 51
0.0
  0
CIRCLE
  5
21B1
330
2
100
AcDbEntity
  8
0
100
AcDbCircle
 10
183.8004627892619
 20
82.94019796454699
 30
0.0
 40
1.6
  0
LINE
  5
21B2
330
2
100
AcDbEntity
  8
0
100
AcDbLine
 10
182.4198604518183
 20
88.49986886813985
 30
0.0
 11
184.267619516841
 21
87.73450200340993
 31
0.0
  0
ARC
  5
21B3
330
2
100
AcDbEntity
  8
0
100
AcDbCircle
 10
177.8004627892619
 20
90.41328602996577
 30
0.0
 40
5.0
100
AcDbArc
 50
314.9999999999919
 51
0.0
  0
LINE
  5
21B4
330
2
100
AcDbEntity
  8
CENTER
100
AcDbLine
 10
183.3004627892619
 20
70.69019796454677
 30
0.0
 11
183.3004627892619
 21
82.19019796454677
 31
0.0
  0
LINE
  5
21B5
330
2
100
AcDbEntity
  8
CENTER
100
AcDbLine
 10
183.8004627892619
 20
79.82562169680409
 30
0.0
 11
183.8004627892619
 21
88.11340304530403
 31
0.0
  0
LINE
  5
21B6
330
2
100
AcDbEntity
  8
0
100
AcDbLine
 10
172.8629086297764
 20
78.40466405861389
 30
0.0
 11
181.3359966951952
 21
86.87775212403312
 31
0.0
  0
LINE
  5
21B7
330
2
100
AcDbEntity
  8
0
100
AcDbLine
 10
174.2771221921489
 20
76.99045049624101
 30
0.0
 11
182.7502102575676
 21
85.46353856165955
 31
0.0
  0
LINE
  5
21B8
330
2
100
AcDbEntity
  8
CENTER
100
AcDbLine
 10
188.9736678700187
 20
82.94019796454699
 30
0.0
 11
178.6272577085051
 21
82.94019796454699
 31
0.0
  0
LINE
  5
21B9
330
2
100
AcDbEntity
  8
CENTER
100
AcDbLine
 10
189.0504627892619
 20
76.44019796454677
 30
0.0
 11
177.5504627892619
 21
76.44019796454677
 31
0.0
  0
ARC
  5
21BA
330
2
100
AcDbEntity
  8
0
100
AcDbCircle
 10
182.3004627892619
 20
76.44019796454813
 30
0.0
 40
5.0
100
AcDbArc
 50
254.0071522560038
 51
270.0
  0
ARC
  5
21BB
330
2
100
AcDbEntity
  8
0
100
AcDbCircle
 10
175.4125288149548
 20
52.40779555518475
 30
0.0
 40
20.0
100
AcDbArc
 50
74.00715225600388
 51
96.11598998101577
  0
LINE
  5
21BC
330
2
100
AcDbEntity
  8
0
100
AcDbLine
 10
182.3004627892619
 20
71.44019796454813
 30
0.0
 11
185.3004627892619
 21
71.44019796454836
 31
0.0
  0
LINE
  5
21BD
330
2
100
AcDbEntity
  8
0
100
AcDbLine
 10
182.300462789261
 20
71.44019796454677
 30
0.0
 11
185.300462789261
 21
71.44019796454677
 31
0.0
  0
LINE
  5
21BE
330
2
100
AcDbEntity
  8
0
100
AcDbLine
 10
188.3004627892619
 20
77.44019796454813
 30
0.0
 11
188.3004627892619
 21
74.44019796454814
 31
0.0
  0
LINE
  5
21BF
330
2
100
AcDbEntity
  8
0
100
AcDbLine
 10
188.3004627892601
 20
77.44019796454677
 30
0.0
 11
188.3004627892601
 21
74.44019796454677
 31
0.0
  0
LINE
  5
21C0
330
2
100
AcDbEntity
  8
0
100
AcDbLine
 10
188.3004627892637
 20
77.44019796454949
 30
0.0
 11
188.3004627892637
 21
74.44019796454973
 31
0.0
  0
LINE
  5
21C1
330
2
100
AcDbEntity
  8
0
100
AcDbLine
 10
188.3004627892619
 20
77.44019796454813
 30
0.0
 11
188.3004627892619
 21
74.44019796454836
 31
0.0
  0
ARC
  5
21C2
330
2
100
AcDbEntity
  8
0
100
AcDbCircle
 10
183.3004627892619
 20
77.44019796454836
 30
0.0
 40
5.0
100
AcDbArc
 50
0.0
 51
15.99284774399735
  0
ARC
  5
21C3
330
2
100
AcDbEntity
  8
0
100
AcDbCircle
 10
207.3328651986253
 20
84.32813193885612
 30
0.0
 40
20.0
100
AcDbArc
 50
173.884010018931
 51
195.9928477439973
  0
ARC
  5
21C4
330
2
100
AcDbEntity
  8
0
100
AcDbCircle
 10
185.3004627892619
 20
74.44019796454677
 30
0.0
 40
3.0
100
AcDbArc
 50
270.0
 51
0.0
  0
LINE
  5
21C5
330
2
100
AcDbEntity
  8
0
100
AcDbLine
 10
185.3004627892619
 20
129.5948985029258
 30
0.0
 11
185.3004627892619
 21
127.2854974261672
 31
0.0
  0
LINE
  5
21C6
330
2
100
AcDbEntity
  8
0
100
AcDbLine
 10
183.3004627892619
 20
130.7495990413049
 30
0.0
 11
181.3004627892619
 21
129.5948985029258
 31
0.0
  0
LINE
  5
21C7
330
2
100
AcDbEntity
  8
0
100
AcDbLine
 10
181.3004627892619
 20
127.2854974261672
 30
0.0
 11
183.3004627892619
 21
126.1307968877881
 31
0.0
  0
LINE
  5
21C8
330
2
100
AcDbEntity
  8
0
100
AcDbLine
 10
181.3004627892619
 20
129.5948985029258
 30
0.0
 11
181.3004627892619
 21
127.2854974261672
 31
0.0
  0
LINE
  5
21C9
330
2
100
AcDbEntity
  8
0
100
AcDbLine
 10
183.3004627892619
 20
130.7495990413049
 30
0.0
 11
185.3004627892619
 21
129.5948985029258
 31
0.0
  0
CIRCLE
  5
21CA
330
2
100
AcDbEntity
  8
0
100
AcDbCircle
 10
183.3004627892619
 20
128.4401979645463
 30
0.0
 40
3.730384757729268
  0
CIRCLE
  5
21CB
330
2
100
AcDbEntity
  8
0
100
AcDbCircle
 10
183.3004627892619
 20
128.4401979645463
 30
0.0
 40
4.250000000000085
  0
LINE
  5
21CC
330
2
100
AcDbEntity
  8
0
100
AcDbLine
 10
185.3004627892619
 20
127.2854974261672
 30
0.0
 11
183.3004627892619
 21
126.1307968877881
 31
0.0
  0
LINE
  5
21CD
330
2
100
AcDbEntity
  8
0
100
AcDbLine
 10
171.2407918856692
 20
127.5595956271031
 30
0.0
 11
172.0061587503992
 21
129.4073546921256
 31
0.0
  0
ARC
  5
21CE
330
2
100
AcDbEntity
  8
0
100
AcDbCircle
 10
169.3273747238431
 20
122.9401979645467
 30
0.0
 40
5.0
100
AcDbArc
 50
45.00000000000806
 51
90.0
  0
ARC
  5
21CF
330
2
100
AcDbEntity
  8
0
100
AcDbCircle
 10
169.3273747238431
 20
122.9401979645467
 30
0.0
 40
7.0
100
AcDbArc
 50
45.00000000000806
 51
90.0
  0
ARC
  5
21D0
330
2
100
AcDbEntity
  8
0
100
AcDbCircle
 10
177.8004627892619
 20
114.4671098991279
 30
0.0
 40
7.0
100
AcDbArc
 50
0.0
 51
45.00000000000806
  0
LINE
  5
21D1
330
2
100
AcDbEntity
  8
0
100
AcDbLine
 10
182.4198604518183
 20
116.3805270609534
 30
0.0
 11
184.267619516841
 21
117.1458939256835
 31
0.0
  0
ARC
  5
21D2
330
2
100
AcDbEntity
  8
0
100
AcDbCircle
 10
177.8004627892619
 20
114.4671098991277
 30
0.0
 40
5.0
100
AcDbArc
 50
0.0
 51
45.00000000000806
  0
LINE
  5
21D3
330
2
100
AcDbEntity
  8
CENTER
100
AcDbLine
 10
183.3004627892637
 20
134.1901979645465
 30
0.0
 11
183.3004627892637
 21
122.6901979645465
 31
0.0
  0
LINE
  5
21D4
330
2
100
AcDbEntity
  8
0
100
AcDbLine
 10
172.8629086297764
 20
126.4757318704794
 30
0.0
 11
181.3359966951952
 21
118.0026438050604
 31
0.0
  0
LINE
  5
21D5
330
2
100
AcDbEntity
  8
0
100
AcDbLine
 10
174.2771221921489
 20
127.8899454328525
 30
0.0
 11
182.7502102575676
 21
119.4168573674337
 31
0.0
  0
LINE
  5
21D6
330
2
100
AcDbEntity
  8
CENTER
100
AcDbLine
 10
189.0504627892637
 20
128.4401979645463
 30
0.0
 11
177.5504627892637
 21
128.4401979645467
 31
0.0
  0
ARC
  5
21D7
330
2
100
AcDbEntity
  8
0
100
AcDbCircle
 10
182.3004627892619
 20
128.4401979645481
 30
0.0
 40
5.0
100
AcDbArc
 50
90.0
 51
105.9928477439961
  0
ARC
  5
21D8
330
2
100
AcDbEntity
  8
0
100
AcDbCircle
 10
175.4125288149548
 20
152.4726003739117
 30
0.0
 40
20.0
100
AcDbArc
 50
263.8840100189318
 51
285.9928477439961
  0
LINE
  5
21D9
330
2
100
AcDbEntity
  8
0
100
AcDbLine
 10
182.3004627892637
 20
133.4401979645467
 30
0.0
 11
185.3004627892637
 21
133.4401979645467
 31
0.0
  0
LINE
  5
21DA
330
2
100
AcDbEntity
  8
0
100
AcDbLine
 10
182.3004627892619
 20
133.4401979645481
 30
0.0
 11
185.3004627892619
 21
133.4401979645481
 31
0.0
  0
LINE
  5
21DB
330
2
100
AcDbEntity
  8
0
100
AcDbLine
 10
182.300462789261
 20
133.4401979645499
 30
0.0
 11
185.300462789261
 21
133.4401979645497
 31
0.0
  0
LINE
  5
21DC
330
2
100
AcDbEntity
  8
0
100
AcDbLine
 10
182.3004627892619
 20
133.4401979645483
 30
0.0
 11
185.3004627892619
 21
133.4401979645481
 31
0.0
  0
ARC
  5
21DD
330
2
100
AcDbEntity
  8
0
100
AcDbCircle
 10
183.3004627892619
 20
127.4401979645481
 30
0.0
 40
5.0
100
AcDbArc
 50
344.0071522560026
 51
0.0
  0
LINE
  5
21DE
330
2
100
AcDbEntity
  8
0
100
AcDbLine
 10
188.3004627892637
 20
127.4401979645469
 30
0.0
 11
188.3004627892637
 21
130.4401979645467
 31
0.0
  0
ARC
  5
21DF
330
2
100
AcDbEntity
  8
0
100
AcDbCircle
 10
207.3328651986253
 20
120.5522639902403
 30
0.0
 40
20.0
100
AcDbArc
 50
164.0071522560026
 51
186.1159899810689
  0
ARC
  5
21E0
330
2
100
AcDbEntity
  8
0
100
AcDbCircle
 10
185.3004627892619
 20
130.4401979645467
 30
0.0
 40
3.0
100
AcDbArc
 50
0.0
 51
90.0
  0
LINE
  5
21E3
330
2
100
AcDbEntity
  8
0
100
AcDbLine
 10
301.8131273543331
 20
86.45896323598663
 30
0.0
 11
250.8131273543294
 21
86.45896323598663
 31
0.0
  0
LINE
  5
21E4
330
2
100
AcDbEntity
  8
0
100
AcDbLine
 10
301.8131273543331
 20
77.44019796454131
 30
0.0
 11
250.8131273543294
 21
77.44019796454131
 31
0.0
  0
LINE
  5
21E5
330
2
100
AcDbEntity
  8
0
100
AcDbLine
 10
301.8131273543331
 20
74.44019796453858
 30
0.0
 11
250.8131273543294
 21
74.44019796453858
 31
0.0
  0
LINE
  5
21E6
330
2
100
AcDbEntity
  8
0
100
AcDbLine
 10
301.8131273543331
 20
118.4214326930987
 30
0.0
 11
250.8131273543294
 21
118.4214326930987
 31
0.0
  0
LINE
  5
21E7
330
2
100
AcDbEntity
  8
0
100
AcDbLine
 10
301.8131273543331
 20
127.440197964544
 30
0.0
 11
250.8131273543294
 21
127.440197964544
 31
0.0
  0
LINE
  5
21E8
330
2
100
AcDbEntity
  8
0
100
AcDbLine
 10
301.8131273543331
 20
130.4401979645467
 30
0.0
 11
250.8131273543294
 21
130.4401979645467
 31
0.0
  0
LINE
  5
21E9
330
2
100
AcDbEntity
  8
0
100
AcDbLine
 10
250.8130892766694
 20
133.4401977983966
 30
0.0
 11
302.8131273543331
 21
132.9864003409593
 31
0.0
  0
LINE
  5
21EA
330
2
100
AcDbEntity
  8
0
100
AcDbLine
 10
250.8131273543294
 20
71.44019796454222
 30
0.0
 11
302.8131273543331
 21
71.8939950896638
 31
0.0
  0
LINE
  5
21EB
330
2
100
AcDbEntity
  8
0
100
AcDbLine
 10
297.8615081584885
 20
71.39259120332804
 30
0.0
 11
269.8131273543331
 21
70.94019796454245
 31
0.0
  0
LINE
  5
21EC
330
2
100
AcDbEntity
  8
0
100
AcDbLine
 10
297.8615081584885
 20
133.4878047257573
 30
0.0
 11
269.8131273543331
 21
133.9401979645429
 31
0.0
  0
LINE
  5
21ED
330
2
100
AcDbEntity
  8
CENTER
100
AcDbLine
 10
226.8131273543295
 20
102.4401979645426
 30
0.0
 11
341.8131273543331
 21
102.4401979645426
 31
0.0
  0
LINE
  5
21EE
330
2
100
AcDbEntity
  8
0
100
AcDbLine
 10
234.8131273543294
 20
79.44019796454222
 30
0.0
 11
234.8131273543294
 21
125.4401979645435
 31
0.0
  0
LINE
  5
21EF
330
2
100
AcDbEntity
  8
0
100
AcDbLine
 10
238.5131273543293
 20
124.1901979645463
 30
0.0
 11
238.5131273543293
 21
80.69019796453904
 31
0.0
  0
LINE
  5
21F0
330
2
100
AcDbEntity
  8
0
100
AcDbLine
 10
244.3131273542912
 20
72.19019796453904
 30
0.0
 11
244.313127354324
 21
132.6901979645463
 31
0.0
  0
LINE
  5
21F1
330
2
100
AcDbEntity
  8
0
100
AcDbLine
 10
238.3131273543267
 20
80.69019796453904
 30
0.0
 11
238.3131273543267
 21
124.1901979645463
 31
0.0
  0
LINE
  5
21F2
330
2
100
AcDbEntity
  8
0
100
AcDbLine
 10
236.3131273543294
 20
79.64019796454249
 30
0.0
 11
236.3131273543294
 21
125.2401979645433
 31
0.0
  0
LINE
  5
21F3
330
2
100
AcDbEntity
  8
0
100
AcDbLine
 10
241.8131273543249
 20
124.1901979645463
 30
0.0
 11
241.8131273543294
 21
80.69019796453904
 31
0.0
  0
LINE
  5
21F4
330
2
100
AcDbEntity
  8
0
100
AcDbLine
 10
233.8131273543294
 20
80.01754823373152
 30
0.0
 11
233.8131273543294
 21
124.8628476953538
 31
0.0
  0
LINE
  5
21F5
330
2
100
AcDbEntity
  8
0
100
AcDbLine
 10
250.8131273543294
 20
71.44456139844078
 30
0.0
 11
250.8131273543294
 21
133.4358345306727
 31
0.0
  0
LINE
  5
21F6
330
2
100
AcDbEntity
  8
0
100
AcDbLine
 10
241.7647465501777
 20
71.39259120332804
 30
0.0
 11
269.8131273543331
 21
70.94019796454245
 31
0.0
  0
LINE
  5
21F7
330
2
100
AcDbEntity
  8
HIDS
100
AcDbLine
 10
238.0131273543265
 20
80.14019796454249
 30
0.0
 11
238.1131273543296
 21
80.14019796454249
 31
0.0
  0
LINE
  5
21F8
330
2
100
AcDbEntity
  8
HIDS
100
AcDbLine
 10
241.8131273543294
 20
80.69019796453904
 30
0.0
 11
241.8131273543294
 21
77.44019796454313
 31
0.0
  0
LINE
  5
21F9
330
2
100
AcDbEntity
  8
0
100
AcDbLine
 10
238.0131273543265
 20
80.1705827222686
 30
0.0
 11
238.0131273543265
 21
72.70981320680994
 31
0.0
  0
LINE
  5
21FA
330
2
100
AcDbEntity
  8
0
100
AcDbLine
 10
238.3131273543267
 20
72.19019796453904
 30
0.0
 11
238.0131273543265
 21
72.70981320680994
 31
0.0
  0
LINE
  5
21FB
330
2
100
AcDbEntity
  8
0
100
AcDbLine
 10
238.3131273543267
 20
80.69019796453904
 30
0.0
 11
238.0131273543265
 21
80.1705827222686
 31
0.0
  0
LINE
  5
21FC
330
2
100
AcDbEntity
  8
0
100
AcDbLine
 10
238.3131273543267
 20
80.69019796453904
 30
0.0
 11
238.3131273543267
 21
72.19019796453904
 31
0.0
  0
LINE
  5
21FD
330
2
100
AcDbEntity
  8
0
100
AcDbLine
 10
243.0131273543265
 20
80.69019796453904
 30
0.0
 11
243.0131273543265
 21
72.19019796453904
 31
0.0
  0
LINE
  5
21FE
330
2
100
AcDbEntity
  8
0
100
AcDbLine
 10
238.3131273543267
 20
80.69019796453904
 30
0.0
 11
244.3131273543267
 21
80.69019796453904
 31
0.0
  0
LINE
  5
21FF
330
2
100
AcDbEntity
  8
0
100
AcDbLine
 10
238.3131273543267
 20
72.19019796453904
 30
0.0
 11
244.3131273542912
 21
72.19019796453904
 31
0.0
  0
LINE
  5
2200
330
2
100
AcDbEntity
  8
CENTER
  6
CENS
100
AcDbLine
 10
256.011081831014
 20
76.44019796453903
 30
0.0
 11
235.0131273543265
 21
76.44019796453903
 31
0.0
  0
LINE
  5
2201
330
2
100
AcDbEntity
  8
0
100
AcDbLine
 10
250.8131273543294
 20
86.45896323598663
 30
0.0
 11
245.3131273543267
 21
86.45896323598663
 31
0.0
  0
LINE
  5
2202
330
2
100
AcDbEntity
  8
0
100
AcDbLine
 10
250.8131273543294
 20
77.44019796454131
 30
0.0
 11
245.3131273543267
 21
77.44019796454131
 31
0.0
  0
LINE
  5
2203
330
2
100
AcDbEntity
  8
0
100
AcDbLine
 10
250.8131273543294
 20
74.44019796453858
 30
0.0
 11
245.3131273543267
 21
74.44019796453858
 31
0.0
  0
ARC
  5
2204
330
2
100
AcDbEntity
  8
HIDS
100
AcDbCircle
 10
242.313127354324
 20
74.11177083980374
 30
0.0
 40
2.0
100
AcDbArc
 50
0.0000000000521102
 51
45.00000000000806
  0
LINE
  5
2205
330
2
100
AcDbEntity
  8
HIDS
100
AcDbLine
 10
243.7273409166964
 20
75.52598440217707
 30
0.0
 11
241.8131273543294
 21
77.44019796454267
 31
0.0
  0
ARC
  5
2206
330
2
100
AcDbEntity
  8
0
100
AcDbCircle
 10
245.3131273542912
 20
72.48823381577768
 30
0.0
 40
1.0
100
AcDbArc
 50
179.9999999999739
 51
269.4999999999824
  0
LINE
  5
2207
330
2
100
AcDbEntity
  8
0
100
AcDbLine
 10
250.8131273543294
 20
71.44019796454222
 30
0.0
 11
245.3044008187934
 21
71.48827189271333
 31
0.0
  0
ARC
  5
2208
330
2
100
AcDbEntity
  8
HIDS
100
AcDbCircle
 10
238.1131273543296
 20
79.94019796454245
 30
0.0
 40
0.2
100
AcDbArc
 50
0.0
 51
90.0
  0
ARC
  5
2209
330
2
100
AcDbEntity
  8
0
100
AcDbCircle
 10
236.5131273543293
 20
79.94019796454222
 30
0.0
 40
0.2
100
AcDbArc
 50
90.0
 51
180.0
  0
ARC
  5
220A
330
2
100
AcDbEntity
  8
0
100
AcDbCircle
 10
236.1131273543296
 20
79.64019796454249
 30
0.0
 40
0.2
100
AcDbArc
 50
270.0
 51
0.0
  0
LINE
  5
220B
330
2
100
AcDbEntity
  8
0
100
AcDbLine
 10
236.5131273543293
 20
80.14019796454226
 30
0.0
 11
238.0131273543265
 21
80.14019796454249
 31
0.0
  0
LINE
  5
220C
330
2
100
AcDbEntity
  8
0
100
AcDbLine
 10
234.8131273543294
 20
79.44019796454222
 30
0.0
 11
236.1131273543296
 21
79.44019796454222
 31
0.0
  0
LINE
  5
220D
330
2
100
AcDbEntity
  8
HIDS
100
AcDbLine
 10
238.3131273543294
 20
79.64019796454249
 30
0.0
 11
238.5131273543293
 21
79.44019796454267
 31
0.0
  0
LINE
  5
220E
330
2
100
AcDbEntity
  8
0
100
AcDbLine
 10
234.8131273543294
 20
79.44019796454222
 30
0.0
 11
233.8131273543294
 21
80.01754823373175
 31
0.0
  0
LINE
  5
220F
330
2
100
AcDbEntity
  8
HIDS
100
AcDbLine
 10
238.5131273543293
 20
79.44019796454267
 30
0.0
 11
241.8131273543294
 21
79.44019796454313
 31
0.0
  0
LINE
  5
2210
330
2
100
AcDbEntity
  8
HIDS
100
AcDbLine
 10
242.3131273543294
 20
76.94019796454313
 30
0.0
 11
241.8131273543294
 21
77.44019796454313
 31
0.0
  0
ARC
  5
2211
330
2
100
AcDbEntity
  8
0
100
AcDbCircle
 10
241.8131273543331
 20
74.39220106092466
 30
0.0
 40
3.0
100
AcDbArc
 50
227.2228718954006
 51
269.0759546471809
  0
ARC
  5
2212
330
2
100
AcDbEntity
  8
HIDS
100
AcDbCircle
 10
241.8131273543331
 20
74.39220106092466
 30
0.0
 40
3.0
100
AcDbArc
 50
180.0
 51
227.2228718954006
  0
LINE
  5
2213
330
2
100
AcDbEntity
  8
HIDS
100
AcDbLine
 10
238.8131273543331
 20
74.39220106092466
 30
0.0
 11
238.8131273543331
 21
79.44019796454267
 31
0.0
  0
LINE
  5
2214
330
2
100
AcDbEntity
  8
0
100
AcDbLine
 10
241.7647465501777
 20
133.4878047257573
 30
0.0
 11
269.8131273543331
 21
133.9401979645429
 31
0.0
  0
POINT
  5
2215
330
2
100
AcDbEntity
  8
0
100
AcDbPoint
 10
241.3131273543285
 20
102.4401979645426
 30
0.0
  0
LINE
  5
2216
330
2
100
AcDbEntity
  8
HIDS
100
AcDbLine
 10
238.0131273543265
 20
124.740197964543
 30
0.0
 11
238.1131273543296
 21
124.7401979645428
 31
0.0
  0
LINE
  5
2217
330
2
100
AcDbEntity
  8
HIDS
100
AcDbLine
 10
238.5131273543293
 20
125.4401979645431
 30
0.0
 11
238.5131273543293
 21
124.1901979645463
 31
0.0
  0
LINE
  5
2218
330
2
100
AcDbEntity
  8
HIDS
100
AcDbLine
 10
241.813127354324
 20
127.4401979645367
 30
0.0
 11
241.8131273543249
 21
124.1901979645463
 31
0.0
  0
LINE
  5
2219
330
2
100
AcDbEntity
  8
0
100
AcDbLine
 10
238.0131273543265
 20
124.7098132068167
 30
0.0
 11
238.0131273543265
 21
132.1705827222754
 31
0.0
  0
LINE
  5
221A
330
2
100
AcDbEntity
  8
0
100
AcDbLine
 10
238.3131273543267
 20
132.6901979645463
 30
0.0
 11
238.0131273543265
 21
132.1705827222754
 31
0.0
  0
LINE
  5
221B
330
2
100
AcDbEntity
  8
0
100
AcDbLine
 10
238.3131273543267
 20
124.1901979645463
 30
0.0
 11
238.0131273543265
 21
124.7098132068167
 31
0.0
  0
LINE
  5
221C
330
2
100
AcDbEntity
  8
0
100
AcDbLine
 10
238.3131273543267
 20
124.1901979645463
 30
0.0
 11
238.3131273543267
 21
132.6901979645463
 31
0.0
  0
LINE
  5
221D
330
2
100
AcDbEntity
  8
0
100
AcDbLine
 10
243.0131273543265
 20
124.1901979645463
 30
0.0
 11
243.0131273543265
 21
132.6901979645463
 31
0.0
  0
LINE
  5
221E
330
2
100
AcDbEntity
  8
0
100
AcDbLine
 10
238.3131273543267
 20
124.1901979645463
 30
0.0
 11
244.3131273543267
 21
124.1901979645463
 31
0.0
  0
LINE
  5
221F
330
2
100
AcDbEntity
  8
0
100
AcDbLine
 10
238.3131273543267
 20
132.6901979645463
 30
0.0
 11
244.313127354324
 21
132.6901979645463
 31
0.0
  0
LINE
  5
2220
330
2
100
AcDbEntity
  8
CENTER
  6
CENS
100
AcDbLine
 10
256.011081831014
 20
128.4401979645463
 30
0.0
 11
235.0131273543265
 21
128.4401979645463
 31
0.0
  0
LINE
  5
2221
330
2
100
AcDbEntity
  8
0
100
AcDbLine
 10
250.8131273543294
 20
118.4214326930987
 30
0.0
 11
245.3131273543267
 21
118.4214326930987
 31
0.0
  0
LINE
  5
2222
330
2
100
AcDbEntity
  8
0
100
AcDbLine
 10
250.8131273543294
 20
127.440197964544
 30
0.0
 11
245.3131273543267
 21
127.440197964544
 31
0.0
  0
LINE
  5
2223
330
2
100
AcDbEntity
  8
0
100
AcDbLine
 10
250.8131273543294
 20
130.4401979645467
 30
0.0
 11
245.3131273543267
 21
130.4401979645467
 31
0.0
  0
ARC
  5
2224
330
2
100
AcDbEntity
  8
HIDS
100
AcDbCircle
 10
238.1131273543296
 20
124.9401979645431
 30
0.0
 40
0.2
100
AcDbArc
 50
270.0
 51
0.0
  0
ARC
  5
2225
330
2
100
AcDbEntity
  8
0
100
AcDbCircle
 10
236.5131273543293
 20
124.9401979645433
 30
0.0
 40
0.2
100
AcDbArc
 50
180.0
 51
270.0
  0
ARC
  5
2226
330
2
100
AcDbEntity
  8
0
100
AcDbCircle
 10
236.1131273543296
 20
125.2401979645433
 30
0.0
 40
0.2
100
AcDbArc
 50
0.0
 51
90.0
  0
ARC
  5
2227
330
2
100
AcDbEntity
  8
HIDS
100
AcDbCircle
 10
242.313127354324
 20
130.7686250892816
 30
0.0
 40
2.0
100
AcDbArc
 50
314.9999999999919
 51
359.9999999999739
  0
ARC
  5
2228
330
2
100
AcDbEntity
  8
0
100
AcDbCircle
 10
245.3131273543249
 20
132.3921622794605
 30
0.0
 40
1.0
100
AcDbArc
 50
90.50000000001761
 51
179.9999999999739
  0
LINE
  5
2229
330
2
100
AcDbEntity
  8
HIDS
100
AcDbLine
 10
243.7273409166964
 20
129.3544115269082
 30
0.0
 11
241.813127354324
 21
127.4401979645367
 31
0.0
  0
LINE
  5
222A
330
2
100
AcDbEntity
  8
0
100
AcDbLine
 10
234.8131273543294
 20
125.4401979645435
 30
0.0
 11
236.1131273543296
 21
125.4401979645431
 31
0.0
  0
LINE
  5
222B
330
2
100
AcDbEntity
  8
0
100
AcDbLine
 10
234.8131273543294
 20
125.4401979645435
 30
0.0
 11
233.8131273543294
 21
124.862847695354
 31
0.0
  0
LINE
  5
222C
330
2
100
AcDbEntity
  8
HIDS
100
AcDbLine
 10
238.3131273543294
 20
125.2401979645428
 30
0.0
 11
238.5131273543293
 21
125.4401979645431
 31
0.0
  0
LINE
  5
222D
330
2
100
AcDbEntity
  8
0
100
AcDbLine
 10
236.5131273543293
 20
124.7401979645433
 30
0.0
 11
238.0131273543265
 21
124.740197964543
 31
0.0
  0
LINE
  5
222E
330
2
100
AcDbEntity
  8
HIDS
100
AcDbLine
 10
238.5131273543293
 20
125.4401979645431
 30
0.0
 11
241.8131273543294
 21
125.4401979645426
 31
0.0
  0
LINE
  5
222F
330
2
100
AcDbEntity
  8
0
100
AcDbLine
 10
250.8130892766694
 20
133.4401977983966
 30
0.0
 11
245.3132986998134
 21
133.3922018531557
 31
0.0
  0
ARC
  5
2230
330
2
100
AcDbEntity
  8
HIDS
100
AcDbCircle
 10
241.8131273543331
 20
130.4881948681607
 30
0.0
 40
3.0
100
AcDbArc
 50
132.7771281045279
 51
180.0
  0
ARC
  5
2231
330
2
100
AcDbEntity
  8
0
100
AcDbCircle
 10
241.8131273543331
 20
130.4881948681607
 30
0.0
 40
3.0
100
AcDbArc
 50
90.92404535281902
 51
132.7771281045279
  0
LINE
  5
2232
330
2
100
AcDbEntity
  8
HIDS
100
AcDbLine
 10
238.8131273543331
 20
125.4401979645431
 30
0.0
 11
238.8131273543331
 21
130.4881948681607
 31
0.0
  0
LINE
  5
2233
330
2
100
AcDbEntity
  8
0
100
AcDbLine
 10
312.8131273543349
 20
82.37157551415384
 30
0.0
 11
312.8131273543349
 21
122.5088204149342
 31
0.0
  0
LINE
  5
2234
330
2
100
AcDbEntity
  8
0
100
AcDbLine
 10
302.8131273543331
 20
71.8939950896638
 30
0.0
 11
302.8131273543331
 21
132.9864003409593
 31
0.0
  0
LINE
  5
2235
330
2
100
AcDbEntity
  8
0
100
AcDbLine
 10
305.8131273543367
 20
127.440197964536
 30
0.0
 11
305.8131273543367
 21
77.44019796453608
 31
0.0
  0
ARC
  5
2236
330
2
100
AcDbEntity
  8
0
100
AcDbCircle
 10
310.813127354314
 20
82.37157551415384
 30
0.0
 40
2.0
100
AcDbArc
 50
271.9999999999515
 51
359.9999999999478
  0
ARC
  5
2237
330
2
100
AcDbEntity
  8
0
100
AcDbCircle
 10
307.8131273543094
 20
78.26437502848785
 30
0.0
 40
2.0
100
AcDbArc
 50
91.99999999995149
 51
179.9999999999479
  0
LINE
  5
2238
330
2
100
AcDbEntity
  8
0
100
AcDbLine
 10
307.7433283609061
 20
80.26315668252573
 30
0.0
 11
310.8829263477164
 21
80.37279386011688
 31
0.0
  0
ARC
  5
2239
330
2
100
AcDbEntity
  8
0
100
AcDbCircle
 10
297.8131273543331
 20
74.39220106092443
 30
0.0
 40
3.0
100
AcDbArc
 50
270.9240453527669
 51
302.7429559374904
  0
LINE
  5
223A
330
2
100
AcDbEntity
  8
0
100
AcDbLine
 10
302.8131273543367
 20
77.44019796453608
 30
0.0
 11
305.8131273543367
 21
77.44019796453608
 31
0.0
  0
ARC
  5
2247
330
2
100
AcDbEntity
  8
0
100
AcDbCircle
 10
310.8131273543349
 20
122.5088204149342
 30
0.0
 40
2.0
100
AcDbArc
 50
0.0
 51
87.99999999999636
  0
ARC
  5
2248
330
2
100
AcDbEntity
  8
0
100
AcDbCircle
 10
307.8131273543349
 20
126.6160209006038
 30
0.0
 40
2.0
100
AcDbArc
 50
180.0
 51
267.9999999999963
  0
LINE
  5
2249
330
2
100
AcDbEntity
  8
0
100
AcDbLine
 10
307.7433283609298
 20
124.6172392465659
 30
0.0
 11
310.88292634774
 21
124.5076020689721
 31
0.0
  0
ARC
  5
224A
330
2
100
AcDbEntity
  8
0
100
AcDbCircle
 10
297.8131273543331
 20
130.4881948681607
 30
0.0
 40
3.0
100
AcDbArc
 50
57.25704406251043
 51
89.07595464718097
  0
LINE
  5
224B
330
2
100
AcDbEntity
  8
0
100
AcDbLine
 10
302.8131273543367
 20
127.440197964536
 30
0.0
 11
305.8131273543367
 21
127.440197964536
 31
0.0
  0
CIRCLE
  5
2255
330
2
100
AcDbEntity
  8
0
100
AcDbCircle
 10
446.5593844941525
 20
102.4401979645463
 30
0.0
 40
22.0
  0
CIRCLE
  5
2256
330
2
100
AcDbEntity
  8
0
100
AcDbCircle
 10
446.5593844941525
 20
102.4401979645463
 30
0.0
 40
18.0774
  0
ARC
  5
2257
330
2
100
AcDbEntity
  8
0
100
AcDbCircle
 10
446.5593844941544
 20
221.4401979645465
 30
0.0
 40
150.0
100
AcDbArc
 50
263.8840100189318
 51
276.1159899810681
  0
ARC
  5
2258
330
2
100
AcDbEntity
  8
0
100
AcDbCircle
 10
446.5593844941544
 20
-16.55980203545342
 30
0.0
 40
150.0
100
AcDbArc
 50
83.88401001893184
 51
96.11598998106819
  0
CIRCLE
  5
2259
330
2
100
AcDbEntity
  8
0
100
AcDbCircle
 10
446.5593844941535
 20
102.4401979645463
 30
0.0
 40
25.0
  0
CIRCLE
  5
225A
330
2
100
AcDbEntity
  8
0
100
AcDbCircle
 10
446.5593844941535
 20
102.4401979645463
 30
0.0
 40
17.5
  0
ARC
  5
225B
330
2
100
AcDbEntity
  8
0
100
AcDbCircle
 10
565.5593844941526
 20
102.4401979645447
 30
0.0
 40
150.0
100
AcDbArc
 50
173.884010018931
 51
186.1159899810689
  0
ARC
  5
225C
330
2
100
AcDbEntity
  8
0
100
AcDbCircle
 10
421.5593844941525
 20
76.44019796454521
 30
0.0
 40
5.0
100
AcDbArc
 50
270.0
 51
285.9928477439961
  0
ARC
  5
225D
330
2
100
AcDbEntity
  8
0
100
AcDbCircle
 10
428.4473184684615
 20
52.40779555518182
 30
0.0
 40
20.0
100
AcDbArc
 50
83.88401001893184
 51
105.9928477439961
  0
LINE
  5
225E
330
2
100
AcDbEntity
  8
0
100
AcDbLine
 10
421.5593844941516
 20
71.44019796454657
 30
0.0
 11
418.5593844941516
 21
71.44019796454657
 31
0.0
  0
LINE
  5
225F
330
2
100
AcDbEntity
  8
0
100
AcDbLine
 10
421.5593844941525
 20
71.44019796454521
 30
0.0
 11
418.5593844941526
 21
71.44019796454521
 31
0.0
  0
LINE
  5
2260
330
2
100
AcDbEntity
  8
0
100
AcDbLine
 10
421.5593844941544
 20
71.44019796454339
 30
0.0
 11
418.5593844941544
 21
71.44019796454362
 31
0.0
  0
LINE
  5
2261
330
2
100
AcDbEntity
  8
0
100
AcDbLine
 10
421.5593844941525
 20
71.44019796454521
 30
0.0
 11
418.5593844941526
 21
71.44019796454521
 31
0.0
  0
ARC
  5
2262
330
2
100
AcDbEntity
  8
0
100
AcDbCircle
 10
420.5593844941525
 20
77.4401979645452
 30
0.0
 40
5.0
100
AcDbArc
 50
164.0071522559781
 51
180.0
  0
LINE
  5
2263
330
2
100
AcDbEntity
  8
0
100
AcDbLine
 10
415.5593844941517
 20
77.44019796454657
 30
0.0
 11
415.5593844941517
 21
74.44019796454657
 31
0.0
  0
ARC
  5
2264
330
2
100
AcDbEntity
  8
0
100
AcDbCircle
 10
396.5269820847901
 20
84.32813193885298
 30
0.0
 40
20.0
100
AcDbArc
 50
344.007152255978
 51
6.115989981068892
  0
LINE
  5
2265
330
2
100
AcDbEntity
  8
CENTER
100
AcDbLine
 10
419.6893268090637
 20
82.07014027945778
 30
0.0
 11
419.6893268090637
 21
69.07014027945777
 31
0.0
  0
ARC
  5
2266
330
2
100
AcDbEntity
  8
0
100
AcDbCircle
 10
418.5593844941535
 20
74.44019796454611
 30
0.0
 40
3.0
100
AcDbArc
 50
180.0
 51
270.0
  0
CIRCLE
  5
2267
330
2
100
AcDbEntity
  8
HOJO
100
AcDbCircle
 10
419.6893268090646
 20
75.57014027945732
 30
0.0
 40
2.5
  0
CIRCLE
  5
2268
330
2
100
AcDbEntity
  8
0
100
AcDbCircle
 10
419.6893268090646
 20
75.57014027945732
 30
0.0
 40
2.1
  0
LINE
  5
2269
330
2
100
AcDbEntity
  8
CENTER
100
AcDbLine
 10
413.1893268090638
 20
75.57014027945777
 30
0.0
 11
426.1893268090638
 21
75.57014027945777
 31
0.0
  0
ARC
  5
226A
330
2
100
AcDbEntity
  8
0
100
AcDbCircle
 10
421.5593844941525
 20
128.4401979645451
 30
0.0
 40
5.0
100
AcDbArc
 50
74.00715225600388
 51
90.0
  0
ARC
  5
226B
330
2
100
AcDbEntity
  8
0
100
AcDbCircle
 10
428.4473184684615
 20
152.4726003739085
 30
0.0
 40
20.0
100
AcDbArc
 50
254.0071522560038
 51
276.1159899810681
  0
LINE
  5
226C
330
2
100
AcDbEntity
  8
0
100
AcDbLine
 10
421.5593844941525
 20
133.4401979645452
 30
0.0
 11
418.5593844941526
 21
133.4401979645452
 31
0.0
  0
LINE
  5
226D
330
2
100
AcDbEntity
  8
0
100
AcDbLine
 10
421.5593844941544
 20
133.4401979645465
 30
0.0
 11
418.5593844941544
 21
133.4401979645465
 31
0.0
  0
LINE
  5
226E
330
2
100
AcDbEntity
  8
0
100
AcDbLine
 10
415.5593844941526
 20
127.4401979645451
 30
0.0
 11
415.5593844941526
 21
130.4401979645452
 31
0.0
  0
LINE
  5
226F
330
2
100
AcDbEntity
  8
0
100
AcDbLine
 10
415.5593844941543
 20
127.4401979645465
 30
0.0
 11
415.5593844941543
 21
130.4401979645465
 31
0.0
  0
LINE
  5
2270
330
2
100
AcDbEntity
  8
0
100
AcDbLine
 10
415.5593844941517
 20
127.4401979645438
 30
0.0
 11
415.5593844941517
 21
130.4401979645438
 31
0.0
  0
LINE
  5
2271
330
2
100
AcDbEntity
  8
0
100
AcDbLine
 10
415.5593844941526
 20
127.4401979645451
 30
0.0
 11
415.5593844941526
 21
130.4401979645452
 31
0.0
  0
ARC
  5
2272
330
2
100
AcDbEntity
  8
0
100
AcDbCircle
 10
420.5593844941525
 20
127.4401979645449
 30
0.0
 40
5.0
100
AcDbArc
 50
180.0
 51
195.9928477440218
  0
ARC
  5
2273
330
2
100
AcDbEntity
  8
0
100
AcDbCircle
 10
396.5269820847901
 20
120.5522639902372
 30
0.0
 40
20.0
100
AcDbArc
 50
353.8840100189311
 51
15.99284774402184
  0
ARC
  5
2274
330
2
100
AcDbEntity
  8
0
100
AcDbCircle
 10
418.5593844941535
 20
130.4401979645463
 30
0.0
 40
3.0
100
AcDbArc
 50
90.0
 51
180.0
  0
CIRCLE
  5
2275
330
2
100
AcDbEntity
  8
HOJO
100
AcDbCircle
 10
419.6893268090646
 20
129.3102556496349
 30
0.0
 40
2.5
  0
CIRCLE
  5
2276
330
2
100
AcDbEntity
  8
0
100
AcDbCircle
 10
419.6893268090646
 20
129.3102556496349
 30
0.0
 40
2.1
  0
LINE
  5
2277
330
2
100
AcDbEntity
  8
CENTER
100
AcDbLine
 10
426.1893268090647
 20
129.3102556496353
 30
0.0
 11
413.1893268090647
 21
129.3102556496353
 31
0.0
  0
LINE
  5
2278
330
2
100
AcDbEntity
  8
0
100
AcDbLine
 10
492.0593844941562
 20
125.4401979638253
 30
0.0
 11
492.0593844941562
 21
79.44019796525939
 31
0.0
  0
LINE
  5
2279
330
2
100
AcDbEntity
  8
0
100
AcDbLine
 10
503.559384494158
 20
131.9401979645461
 30
0.0
 11
503.559384494158
 21
72.94019796454657
 31
0.0
  0
LINE
  5
227B
330
2
100
AcDbEntity
  8
0
100
AcDbLine
 10
477.5593844941526
 20
74.44019796454611
 30
0.0
 11
477.5593844941571
 21
130.4401979645461
 31
0.0
  0
ARC
  5
227C
330
2
100
AcDbEntity
  8
0
100
AcDbCircle
 10
480.5593844941544
 20
75.44019796525962
 30
0.0
 40
3.0
100
AcDbArc
 50
90.0
 51
180.0
  0
ARC
  5
227D
330
2
100
AcDbEntity
  8
0
100
AcDbCircle
 10
480.5593844941535
 20
79.44019796454611
 30
0.0
 40
3.0
100
AcDbArc
 50
90.0
 51
180.0
  0
LINE
  5
227E
330
2
100
AcDbEntity
  8
CENTER
100
AcDbLine
 10
466.9294421792423
 20
75.57014027945732
 30
0.0
 11
479.9294421792422
 21
75.57014027945732
 31
0.0
  0
ARC
  5
227F
330
2
100
AcDbEntity
  8
0
100
AcDbCircle
 10
471.5593844941525
 20
76.44019796454521
 30
0.0
 40
5.0
100
AcDbArc
 50
254.0071522560038
 51
270.0
  0
LINE
  5
2280
330
2
100
AcDbEntity
  8
0
100
AcDbLine
 10
471.5593844941516
 20
71.44019796454362
 30
0.0
 11
474.5593844941517
 21
71.44019796454362
 31
0.0
  0
ARC
  5
2281
330
2
100
AcDbEntity
  8
0
100
AcDbCircle
 10
464.6714505198454
 20
52.40779555518182
 30
0.0
 40
20.0
100
AcDbArc
 50
74.00715225600388
 51
96.11598998106819
  0
CIRCLE
  5
2282
330
2
100
AcDbEntity
  8
HOJO
100
AcDbCircle
 10
473.4294421792423
 20
75.57014027945754
 30
0.0
 40
2.5
  0
CIRCLE
  5
2283
330
2
100
AcDbEntity
  8
0
100
AcDbCircle
 10
473.4294421792423
 20
75.57014027945754
 30
0.0
 40
2.1
  0
ARC
  5
2284
330
2
100
AcDbEntity
  8
0
100
AcDbCircle
 10
474.5593844941534
 20
74.44019796454657
 30
0.0
 40
3.0
100
AcDbArc
 50
270.0
 51
0.0000000068264372
  0
LINE
  5
2285
330
2
100
AcDbEntity
  8
CENTER
100
AcDbLine
 10
473.4294421792423
 20
69.07014027945732
 30
0.0
 11
473.4294421792423
 21
82.07014027945731
 31
0.0
  0
ARC
  5
2286
330
2
100
AcDbEntity
  8
0
100
AcDbCircle
 10
505.559384494158
 20
72.94019796454657
 30
0.0
 40
2.0
100
AcDbArc
 50
180.0
 51
270.0
  0
LINE
  5
2287
330
2
100
AcDbEntity
  8
0
100
AcDbLine
 10
511.5593844941598
 20
70.94019796454702
 30
0.0
 11
505.559384494158
 21
70.94019796454657
 31
0.0
  0
ARC
  5
2288
330
2
100
AcDbEntity
  8
0
100
AcDbCircle
 10
491.0593844941635
 20
75.44019796525962
 30
0.0
 40
3.0
100
AcDbArc
 50
53.1301023542602
 51
90.0
  0
LINE
  5
2289
330
2
100
AcDbEntity
  8
0
100
AcDbLine
 10
480.5593844941544
 20
78.44019796525961
 30
0.0
 11
491.0593844941635
 21
78.44019796525961
 31
0.0
  0
LINE
  5
228A
330
2
100
AcDbEntity
  8
0
100
AcDbLine
 10
494.0593844941562
 20
77.44019796525939
 30
0.0
 11
500.559384494158
 21
77.44019796525916
 31
0.0
  0
ARC
  5
228B
330
2
100
AcDbEntity
  8
0
100
AcDbCircle
 10
500.559384494158
 20
74.44019796525916
 30
0.0
 40
3.0
100
AcDbArc
 50
0.0
 51
90.0
  0
LINE
  5
228C
330
2
100
AcDbEntity
  8
0
100
AcDbLine
 10
492.0593844941562
 20
79.44019796454611
 30
0.0
 11
492.0593844941562
 21
79.44019796525939
 31
0.0
  0
ARC
  5
228D
330
2
100
AcDbEntity
  8
0
100
AcDbCircle
 10
494.0593844941562
 20
79.44019796525939
 30
0.0
 40
2.0
100
AcDbArc
 50
180.0
 51
270.0
  0
ARC
  5
228E
330
2
100
AcDbEntity
  8
0
100
AcDbCircle
 10
489.0593844941562
 20
79.44019796454611
 30
0.0
 40
3.0
100
AcDbArc
 50
0.0
 51
90.0
  0
LINE
  5
228F
330
2
100
AcDbEntity
  8
0
100
AcDbLine
 10
480.5593844941535
 20
82.44019796454612
 30
0.0
 11
489.0593844941562
 21
82.44019796454612
 31
0.0
  0
ARC
  5
2290
330
2
100
AcDbEntity
  8
0
100
AcDbCircle
 10
505.559384494158
 20
73.44019796454657
 30
0.0
 40
2.0
100
AcDbArc
 50
180.0
 51
270.0
  0
LINE
  5
2291
330
2
100
AcDbEntity
  8
0
100
AcDbLine
 10
511.5593844941598
 20
71.44019796454703
 30
0.0
 11
505.559384494158
 21
71.44019796454657
 31
0.0
  0
ARC
  5
2292
330
2
100
AcDbEntity
  8
0
100
AcDbCircle
 10
480.5593844941544
 20
129.440197963833
 30
0.0
 40
3.0
100
AcDbArc
 50
180.0
 51
270.0
  0
ARC
  5
2293
330
2
100
AcDbEntity
  8
0
100
AcDbCircle
 10
480.5593844941553
 20
97.44019796454612
 30
0.0
 40
3.0
100
AcDbArc
 50
90.0
 51
180.0
  0
ARC
  5
2294
330
2
100
AcDbEntity
  8
0
100
AcDbCircle
 10
480.5593844941553
 20
107.4401979645461
 30
0.0
 40
3.0
100
AcDbArc
 50
180.0
 51
270.0
  0
ARC
  5
2295
330
2
100
AcDbEntity
  8
0
100
AcDbCircle
 10
480.5593844941535
 20
125.4401979645461
 30
0.0
 40
3.0
100
AcDbArc
 50
180.0
 51
270.0
  0
LINE
  5
2296
330
2
100
AcDbEntity
  8
CENTER
100
AcDbLine
 10
479.9294421792422
 20
129.3102556496349
 30
0.0
 11
466.9294421792423
 21
129.3102556496349
 31
0.0
  0
ARC
  5
2297
330
2
100
AcDbEntity
  8
0
100
AcDbCircle
 10
471.5593844941525
 20
128.4401979645451
 30
0.0
 40
5.0
100
AcDbArc
 50
90.0
 51
105.9928477439961
  0
LINE
  5
2298
330
2
100
AcDbEntity
  8
0
100
AcDbLine
 10
471.5593844941525
 20
133.4401979645452
 30
0.0
 11
474.5593844941526
 21
133.4401979645452
 31
0.0
  0
LINE
  5
2299
330
2
100
AcDbEntity
  8
0
100
AcDbLine
 10
471.5593844941516
 20
133.4401979645465
 30
0.0
 11
474.5593844941517
 21
133.4401979645465
 31
0.0
  0
LINE
  5
229A
330
2
100
AcDbEntity
  8
0
100
AcDbLine
 10
471.5593844941544
 20
133.4401979645436
 30
0.0
 11
474.5593844941544
 21
133.4401979645433
 31
0.0
  0
LINE
  5
229B
330
2
100
AcDbEntity
  8
0
100
AcDbLine
 10
471.5593844941535
 20
133.4401979645452
 30
0.0
 11
474.5593844941526
 21
133.4401979645449
 31
0.0
  0
ARC
  5
229C
330
2
100
AcDbEntity
  8
0
100
AcDbCircle
 10
464.6714505198454
 20
152.4726003739085
 30
0.0
 40
20.0
100
AcDbArc
 50
263.8840100189318
 51
285.9928477439961
  0
CIRCLE
  5
229D
330
2
100
AcDbEntity
  8
0
100
AcDbCircle
 10
473.4294421792423
 20
129.3102556496351
 30
0.0
 40
2.1
  0
CIRCLE
  5
229E
330
2
100
AcDbEntity
  8
HOJO
100
AcDbCircle
 10
473.4294421792423
 20
129.3102556496351
 30
0.0
 40
2.5
  0
ARC
  5
229F
330
2
100
AcDbEntity
  8
0
100
AcDbCircle
 10
474.5593844941534
 20
130.4401979645461
 30
0.0
 40
3.0
100
AcDbArc
 50
359.9999999931214
 51
90.0
  0
LINE
  5
22A0
330
2
100
AcDbEntity
  8
0
100
AcDbLine
 10
511.5593844941562
 20
133.9401979645461
 30
0.0
 11
505.559384494158
 21
133.9401979645461
 31
0.0
  0
ARC
  5
22A1
330
2
100
AcDbEntity
  8
0
100
AcDbCircle
 10
505.559384494158
 20
131.9401979645461
 30
0.0
 40
2.0
100
AcDbArc
 50
90.0
 51
180.0
  0
ARC
  5
22A2
330
2
100
AcDbEntity
  8
0
100
AcDbCircle
 10
491.0593844941635
 20
129.440197963833
 30
0.0
 40
3.0
100
AcDbArc
 50
270.0
 51
306.8698976456909
  0
LINE
  5
22A3
330
2
100
AcDbEntity
  8
0
100
AcDbLine
 10
480.5593844941544
 20
126.440197963833
 30
0.0
 11
491.0593844941635
 21
126.440197963833
 31
0.0
  0
ARC
  5
22A4
330
2
100
AcDbEntity
  8
0
100
AcDbCircle
 10
489.0593844941562
 20
97.44019796454612
 30
0.0
 40
3.0
100
AcDbArc
 50
0.0
 51
90.0
  0
LINE
  5
22A5
330
2
100
AcDbEntity
  8
0
100
AcDbLine
 10
480.5593844941553
 20
100.4401979645461
 30
0.0
 11
489.0593844941562
 21
100.4401979645461
 31
0.0
  0
ARC
  5
22A6
330
2
100
AcDbEntity
  8
0
100
AcDbCircle
 10
489.0593844941562
 20
107.4401979645461
 30
0.0
 40
3.0
100
AcDbArc
 50
270.0
 51
0.0
  0
ARC
  5
22A7
330
2
100
AcDbEntity
  8
0
100
AcDbCircle
 10
500.559384494158
 20
130.4401979638253
 30
0.0
 40
3.0
100
AcDbArc
 50
270.0
 51
0.0
  0
LINE
  5
22A8
330
2
100
AcDbEntity
  8
0
100
AcDbLine
 10
494.0593844941562
 20
127.4401979638253
 30
0.0
 11
500.559384494158
 21
127.4401979638253
 31
0.0
  0
ARC
  5
22A9
330
2
100
AcDbEntity
  8
0
100
AcDbCircle
 10
494.0593844941562
 20
125.4401979638253
 30
0.0
 40
2.0
100
AcDbArc
 50
90.0
 51
180.0
  0
ARC
  5
22AA
330
2
100
AcDbEntity
  8
0
100
AcDbCircle
 10
489.0593844941562
 20
125.4401979645461
 30
0.0
 40
3.0
100
AcDbArc
 50
270.0
 51
0.0
  0
LINE
  5
22AB
330
2
100
AcDbEntity
  8
0
100
AcDbLine
 10
480.5593844941535
 20
122.4401979645461
 30
0.0
 11
489.0593844941562
 21
122.4401979645461
 31
0.0
  0
LINE
  5
22AC
330
2
100
AcDbEntity
  8
0
100
AcDbLine
 10
480.5593844941553
 20
104.4401979645461
 30
0.0
 11
489.0593844941562
 21
104.4401979645461
 31
0.0
  0
LINE
  5
22AD
330
2
100
AcDbEntity
  8
0
100
AcDbLine
 10
511.5593844941562
 20
133.4401979645461
 30
0.0
 11
505.559384494158
 21
133.4401979645461
 31
0.0
  0
ARC
  5
22AE
330
2
100
AcDbEntity
  8
0
100
AcDbCircle
 10
505.559384494158
 20
131.4401979645461
 30
0.0
 40
2.0
100
AcDbArc
 50
90.0
 51
180.0
  0
LINE
  5
230A
330
2
100
AcDbEntity
  8
0
100
AcDbLine
 10
426.4907620437602
 20
261.5176682526044
 30
0.0
 11
466.6280069445397
 21
261.5176682526041
 31
0.0
  0
LINE
  5
230B
330
2
100
AcDbEntity
  8
0
100
AcDbLine
 10
471.5593844926193
 20
268.517668254831
 30
0.0
 11
421.5593844926193
 21
268.517668254831
 31
0.0
  0
ARC
  5
2310
330
2
100
AcDbEntity
  8
0
100
AcDbCircle
 10
426.4907620437602
 20
263.5176682526259
 30
0.0
 40
2.0
100
AcDbArc
 50
181.9999999999514
 51
269.9999999999478
  0
ARC
  5
2311
330
2
100
AcDbEntity
  8
0
100
AcDbCircle
 10
422.3835615580933
 20
266.51766825263
 30
0.0
 40
2.0
100
AcDbArc
 50
1.999999999951419
 51
89.99999999994789
  0
LINE
  5
2312
330
2
100
AcDbEntity
  8
0
100
AcDbLine
 10
424.3823432121311
 20
266.5874672460329
 30
0.0
 11
424.4919803897223
 21
263.4478692592231
 31
0.0
  0
ARC
  5
2317
330
2
100
AcDbEntity
  8
0
100
AcDbCircle
 10
466.6280069445397
 20
263.5176682526043
 30
0.0
 40
2.0
100
AcDbArc
 50
270.0
 51
357.9999999999962
  0
ARC
  5
2318
330
2
100
AcDbEntity
  8
0
100
AcDbCircle
 10
470.7352074302102
 20
266.5176682526043
 30
0.0
 40
2.0
100
AcDbArc
 50
90.0
 51
177.9999999999962
  0
LINE
  5
2319
330
2
100
AcDbEntity
  8
0
100
AcDbLine
 10
468.7364257761723
 20
266.5874672460093
 30
0.0
 11
468.6267885985776
 21
263.4478692591994
 31
0.0
  0
LINE
  5
231B
330
2
100
AcDbEntity
  8
CENTER
100
AcDbLine
 10
446.5593844941545
 20
347.517668252606
 30
0.0
 11
446.559384494154
 21
232.5176682526045
 31
0.0
  0
LINE
  5
231C
330
2
100
AcDbEntity
  8
0
100
AcDbLine
 10
423.5593844941536
 20
339.5176682526054
 30
0.0
 11
469.5593844941554
 21
339.5176682526054
 31
0.0
  0
LINE
  5
231D
330
2
100
AcDbEntity
  8
0
100
AcDbLine
 10
468.3093844941573
 20
335.8176682526056
 30
0.0
 11
424.8093844941499
 21
335.8176682526056
 31
0.0
  0
LINE
  5
231E
330
2
100
AcDbEntity
  8
0
100
AcDbLine
 10
416.3093844941499
 20
330.0176682526436
 30
0.0
 11
476.8093844941573
 21
330.0176682526104
 31
0.0
  0
LINE
  5
231F
330
2
100
AcDbEntity
  8
0
100
AcDbLine
 10
424.8093844941499
 20
336.0176682526084
 30
0.0
 11
468.3093844941573
 21
336.0176682526084
 31
0.0
  0
LINE
  5
2320
330
2
100
AcDbEntity
  8
0
100
AcDbLine
 10
423.7593844941543
 20
338.0176682526057
 30
0.0
 11
469.3593844941546
 21
338.0176682526057
 31
0.0
  0
LINE
  5
2321
330
2
100
AcDbEntity
  8
0
100
AcDbLine
 10
468.3093844941573
 20
332.5176682526104
 30
0.0
 11
424.8093844941499
 21
332.5176682526056
 31
0.0
  0
LINE
  5
2322
330
2
100
AcDbEntity
  8
0
100
AcDbLine
 10
424.1367347633427
 20
340.5176682526059
 30
0.0
 11
468.9820342249654
 21
340.5176682526059
 31
0.0
  0
LINE
  5
2323
330
2
100
AcDbEntity
  8
0
100
AcDbLine
 10
415.5637479280517
 20
323.5176682526052
 30
0.0
 11
477.2235740061301
 21
323.5176682526052
 31
0.0
  0
LINE
  5
2324
330
2
100
AcDbEntity
  8
0
100
AcDbLine
 10
416.0131816177194
 20
271.5176682548313
 30
0.0
 11
477.1013978573073
 21
271.517668254831
 31
0.0
  0
LINE
  5
2325
330
2
100
AcDbEntity
  8
0
100
AcDbLine
 10
418.5593844941536
 20
323.5176682526054
 30
0.0
 11
418.5593844941536
 21
273.0176492141365
 31
0.0
  0
LINE
  5
2326
330
2
100
AcDbEntity
  8
0
100
AcDbLine
 10
421.5593844941536
 20
323.5176682526054
 30
0.0
 11
421.5593844941536
 21
273.0176492141365
 31
0.0
  0
LINE
  5
2327
330
2
100
AcDbEntity
  8
0
100
AcDbLine
 10
430.5781497656075
 20
323.5176682526054
 30
0.0
 11
430.5781497656075
 21
273.0176492141365
 31
0.0
  0
LINE
  5
2328
330
2
100
AcDbEntity
  8
0
100
AcDbLine
 10
415.5593844926192
 20
323.5176682526054
 30
0.0
 11
416.0131816177194
 21
271.5176682548313
 31
0.0
  0
LINE
  5
2329
330
2
100
AcDbEntity
  8
0
100
AcDbLine
 10
421.5593844926193
 20
271.517668254831
 30
0.0
 11
421.5593844926193
 21
268.517668254831
 31
0.0
  0
LINE
  5
232A
330
2
100
AcDbEntity
  8
CENTER
  6
CENS
100
AcDbLine
 10
420.55938449415
 20
318.3197137759231
 30
0.0
 11
420.55938449415
 21
339.3176682526111
 31
0.0
  0
LINE
  5
232B
330
2
100
AcDbEntity
  8
HIDS
100
AcDbLine
 10
424.2593844941543
 20
336.3176682526086
 30
0.0
 11
424.2593844941543
 21
336.2176682526057
 31
0.0
  0
LINE
  5
232C
330
2
100
AcDbEntity
  8
HIDS
100
AcDbLine
 10
424.8093844941499
 20
332.5176682526056
 30
0.0
 11
421.5593844941545
 21
332.5176682526052
 31
0.0
  0
LINE
  5
232D
330
2
100
AcDbEntity
  8
0
100
AcDbLine
 10
424.2897692518795
 20
336.3176682526086
 30
0.0
 11
416.8289997364213
 21
336.3176682526086
 31
0.0
  0
LINE
  5
232E
330
2
100
AcDbEntity
  8
0
100
AcDbLine
 10
416.3093844941499
 20
336.0176682526084
 30
0.0
 11
416.8289997364213
 21
336.3176682526086
 31
0.0
  0
LINE
  5
232F
330
2
100
AcDbEntity
  8
0
100
AcDbLine
 10
424.8093844941499
 20
336.0176682526084
 30
0.0
 11
424.2897692518795
 21
336.3176682526086
 31
0.0
  0
LINE
  5
2330
330
2
100
AcDbEntity
  8
0
100
AcDbLine
 10
424.8093844941499
 20
336.0176682526084
 30
0.0
 11
416.3093844941499
 21
336.0176682526084
 31
0.0
  0
LINE
  5
2331
330
2
100
AcDbEntity
  8
0
100
AcDbLine
 10
424.8093844941499
 20
331.3176682526086
 30
0.0
 11
416.3093844941499
 21
331.3176682526086
 31
0.0
  0
LINE
  5
2332
330
2
100
AcDbEntity
  8
0
100
AcDbLine
 10
424.8093844941499
 20
336.0176682526084
 30
0.0
 11
424.8093844941499
 21
330.0176682526086
 31
0.0
  0
LINE
  5
2333
330
2
100
AcDbEntity
  8
0
100
AcDbLine
 10
416.3093844941499
 20
336.0176682526084
 30
0.0
 11
416.3093844941499
 21
330.0176682526436
 31
0.0
  0
LINE
  5
2334
330
2
100
AcDbEntity
  8
0
100
AcDbLine
 10
430.5781497655984
 20
323.5176682526052
 30
0.0
 11
430.5781497655984
 21
329.0176682526086
 31
0.0
  0
LINE
  5
2335
330
2
100
AcDbEntity
  8
0
100
AcDbLine
 10
421.5593844941527
 20
323.5176682526052
 30
0.0
 11
421.5593844941527
 21
329.0176682526086
 31
0.0
  0
LINE
  5
2336
330
2
100
AcDbEntity
  8
0
100
AcDbLine
 10
418.5593844941499
 20
323.5176682526052
 30
0.0
 11
418.5593844941499
 21
329.0176682526086
 31
0.0
  0
ARC
  5
2337
330
2
100
AcDbEntity
  8
HIDS
100
AcDbCircle
 10
418.2309573694151
 20
332.0176682526116
 30
0.0
 40
2.0
100
AcDbArc
 50
270.0000000000521
 51
315.0000000000265
  0
LINE
  5
2338
330
2
100
AcDbEntity
  8
HIDS
100
AcDbLine
 10
419.6451709317885
 20
330.6034546902387
 30
0.0
 11
421.5593844941536
 21
332.5176682526052
 31
0.0
  0
LINE
  5
2339
330
2
100
AcDbEntity
  8
0
100
AcDbLine
 10
415.5593844956879
 20
323.5176682525986
 30
0.0
 11
415.6073804409293
 21
329.0174588294545
 31
0.0
  0
ARC
  5
233A
330
2
100
AcDbEntity
  8
HIDS
100
AcDbCircle
 10
424.0593844941535
 20
336.2176682526057
 30
0.0
 40
0.2
100
AcDbArc
 50
270.0
 51
0.0
  0
ARC
  5
233B
330
2
100
AcDbEntity
  8
0
100
AcDbCircle
 10
424.0593844941535
 20
337.8176682526056
 30
0.0
 40
0.2
100
AcDbArc
 50
0.0
 51
90.0
  0
ARC
  5
233C
330
2
100
AcDbEntity
  8
0
100
AcDbCircle
 10
423.7593844941543
 20
338.2176682526057
 30
0.0
 40
0.2
100
AcDbArc
 50
180.0
 51
270.0
  0
ARC
  5
233D
330
2
100
AcDbEntity
  8
0
100
AcDbCircle
 10
416.6074203469229
 20
329.0176682526432
 30
0.0
 40
1.0
100
AcDbArc
 50
89.99999999994789
 51
179.5000000000084
  0
LINE
  5
233E
330
2
100
AcDbEntity
  8
0
100
AcDbLine
 10
424.2593844941534
 20
337.8176682526058
 30
0.0
 11
424.2593844941543
 21
336.3176682526086
 31
0.0
  0
LINE
  5
233F
330
2
100
AcDbEntity
  8
0
100
AcDbLine
 10
423.5593844941536
 20
339.5176682526059
 30
0.0
 11
423.5593844941536
 21
338.2176682526055
 31
0.0
  0
LINE
  5
2340
330
2
100
AcDbEntity
  8
HIDS
100
AcDbLine
 10
423.7593844941543
 20
336.0176682526057
 30
0.0
 11
423.5593844941536
 21
335.8176682526056
 31
0.0
  0
LINE
  5
2341
330
2
100
AcDbEntity
  8
0
100
AcDbLine
 10
423.5593844941536
 20
339.5176682526054
 30
0.0
 11
424.1367347633436
 21
340.5176682526059
 31
0.0
  0
LINE
  5
2342
330
2
100
AcDbEntity
  8
HIDS
100
AcDbLine
 10
423.5593844941536
 20
335.8176682526056
 30
0.0
 11
423.5593844941545
 21
332.5176682526054
 31
0.0
  0
LINE
  5
2343
330
2
100
AcDbEntity
  8
HIDS
100
AcDbLine
 10
421.0593844941545
 20
332.0176682526052
 30
0.0
 11
421.5593844941545
 21
332.5176682526052
 31
0.0
  0
ARC
  5
2344
330
2
100
AcDbEntity
  8
0
100
AcDbCircle
 10
488.5346376852562
 20
299.5176682526043
 30
0.0
 40
3.0
100
AcDbArc
 50
1.499999999989629
 51
90.0
  0
LINE
  5
2345
330
2
100
AcDbEntity
  8
0
100
AcDbLine
 10
462.5406192226832
 20
323.5176682526052
 30
0.0
 11
462.5406192226832
 21
273.0176492141365
 31
0.0
  0
LINE
  5
2346
330
2
100
AcDbEntity
  8
0
100
AcDbLine
 10
474.3892105722347
 20
304.5176682526043
 30
0.0
 11
474.3892105722347
 21
273.0176492141365
 31
0.0
  0
LINE
  5
2347
330
2
100
AcDbEntity
  8
0
100
AcDbLine
 10
471.5593844941609
 20
304.5176682526043
 30
0.0
 11
471.5593844941609
 21
273.0176492141365
 31
0.0
  0
LINE
  5
2348
330
2
100
AcDbEntity
  8
0
100
AcDbLine
 10
503.5083835860473
 20
275.4653143559889
 30
0.0
 11
502.747620925536
 21
304.5176682526043
 31
0.0
  0
LINE
  5
2349
330
2
100
AcDbEntity
  8
0
100
AcDbLine
 10
492.0083835860473
 20
281.4653143541369
 30
0.0
 11
491.4047364548846
 21
304.5176682526043
 31
0.0
  0
ARC
  5
234A
330
2
100
AcDbEntity
  8
0
100
AcDbCircle
 10
480.3458643903918
 20
299.517668252604
 30
0.0
 40
3.0
100
AcDbArc
 50
90.0
 51
179.5000000003993
  0
LINE
  5
234B
330
2
100
AcDbEntity
  8
0
100
AcDbLine
 10
477.1013978573073
 20
271.517668254831
 30
0.0
 11
477.389384494154
 21
304.5176682526043
 31
0.0
  0
ARC
  5
234D
330
2
100
AcDbEntity
  8
0
100
AcDbCircle
 10
480.1538732991708
 20
277.5176682552057
 30
0.0
 40
3.0
100
AcDbArc
 50
90.0
 51
179.5000000003993
  0
ARC
  5
234E
330
2
100
AcDbEntity
  8
0
100
AcDbCircle
 10
480.1887807702828
 20
281.5176682526041
 30
0.0
 40
3.0
100
AcDbArc
 50
90.0
 51
179.5000000003993
  0
LINE
  5
234F
330
2
100
AcDbEntity
  8
0
100
AcDbLine
 10
471.5593844926193
 20
271.5176682548313
 30
0.0
 11
471.5593844926193
 21
268.517668254831
 31
0.0
  0
ARC
  5
2350
330
2
100
AcDbEntity
  8
0
100
AcDbCircle
 10
500.4797983519761
 20
276.5176682526043
 30
0.0
 40
3.0
100
AcDbArc
 50
1.499999999989629
 51
90.0
  0
LINE
  5
2351
330
2
100
AcDbEntity
  8
0
100
AcDbLine
 10
494.0076982360001
 20
279.5176682526043
 30
0.0
 11
500.4797983519761
 21
279.5176682526043
 31
0.0
  0
ARC
  5
2352
330
2
100
AcDbEntity
  8
0
100
AcDbCircle
 10
505.5076982359983
 20
275.5176682526043
 30
0.0
 40
2.0
100
AcDbArc
 50
181.4999999999896
 51
270.0
  0
LINE
  5
2353
330
2
100
AcDbEntity
  8
0
100
AcDbLine
 10
505.5076982359983
 20
273.5176682526043
 30
0.0
 11
511.559384494159
 21
273.5176682548319
 31
0.0
  0
ARC
  5
2354
330
2
100
AcDbEntity
  8
0
100
AcDbCircle
 10
491.0076982300611
 20
277.5176682552057
 30
0.0
 40
3.0
100
AcDbArc
 50
53.13010226910886
 51
90.0
  0
LINE
  5
2355
330
2
100
AcDbEntity
  8
0
100
AcDbLine
 10
480.1538732991708
 20
280.5176682552057
 30
0.0
 11
491.0076982300611
 21
280.5176682552057
 31
0.0
  0
ARC
  5
2356
330
2
100
AcDbEntity
  8
0
100
AcDbCircle
 10
489.0059842734959
 20
281.5176682526043
 30
0.0
 40
3.0
100
AcDbArc
 50
1.500000000015675
 51
90.0
  0
LINE
  5
2357
330
2
100
AcDbEntity
  8
0
100
AcDbLine
 10
480.1887807702828
 20
284.5176682526041
 30
0.0
 11
489.0059842734959
 21
284.5176682526043
 31
0.0
  0
ARC
  5
2358
330
2
100
AcDbEntity
  8
0
100
AcDbCircle
 10
494.0076982359983
 20
281.5176682507526
 30
0.0
 40
2.0
100
AcDbArc
 50
181.4999999999896
 51
270.0
  0
LINE
  5
2359
330
2
100
AcDbEntity
  8
0
100
AcDbLine
 10
488.966705391132
 20
323.0176682522375
 30
0.0
 11
477.7237479264909
 21
323.0176682522375
 31
0.0
  0
ARC
  5
235A
330
2
100
AcDbEntity
  8
0
100
AcDbCircle
 10
480.3458643903582
 20
309.5176682526043
 30
0.0
 40
3.0
100
AcDbArc
 50
180.4999999999915
 51
270.0
  0
LINE
  5
235B
330
2
100
AcDbEntity
  8
0
100
AcDbLine
 10
477.1713105659828
 20
329.0263947881089
 30
0.0
 11
477.2193844941535
 21
323.5176682526049
 31
0.0
  0
LINE
  5
235C
330
2
100
AcDbEntity
  8
CENTER
  6
CENS
100
AcDbLine
 10
472.5593844941572
 20
318.3197137759231
 30
0.0
 11
472.5593844941572
 21
339.3176682526111
 31
0.0
  0
LINE
  5
235D
330
2
100
AcDbEntity
  8
HIDS
100
AcDbLine
 10
468.8593844941546
 20
336.3176682526086
 30
0.0
 11
468.8593844941546
 21
336.2176682526057
 31
0.0
  0
LINE
  5
235E
330
2
100
AcDbEntity
  8
HIDS
100
AcDbLine
 10
469.5593844941545
 20
335.8176682526056
 30
0.0
 11
468.3093844941573
 21
335.8176682526056
 31
0.0
  0
LINE
  5
235F
330
2
100
AcDbEntity
  8
HIDS
100
AcDbLine
 10
471.5593844941481
 20
332.5176682526109
 30
0.0
 11
468.3093844941573
 21
332.5176682526104
 31
0.0
  0
LINE
  5
2360
330
2
100
AcDbEntity
  8
0
100
AcDbLine
 10
468.8289997364277
 20
336.3176682526086
 30
0.0
 11
476.2897692518868
 21
336.3176682526086
 31
0.0
  0
LINE
  5
2361
330
2
100
AcDbEntity
  8
0
100
AcDbLine
 10
476.8093844941573
 20
336.0176682526084
 30
0.0
 11
476.2897692518868
 21
336.3176682526086
 31
0.0
  0
LINE
  5
2362
330
2
100
AcDbEntity
  8
0
100
AcDbLine
 10
468.3093844941573
 20
336.0176682526084
 30
0.0
 11
468.8289997364277
 21
336.3176682526086
 31
0.0
  0
LINE
  5
2363
330
2
100
AcDbEntity
  8
0
100
AcDbLine
 10
468.3093844941573
 20
336.0176682526084
 30
0.0
 11
476.8093844941573
 21
336.0176682526084
 31
0.0
  0
LINE
  5
2364
330
2
100
AcDbEntity
  8
0
100
AcDbLine
 10
468.3093844941573
 20
331.3176682526086
 30
0.0
 11
476.8093844941573
 21
331.3176682526086
 31
0.0
  0
LINE
  5
2365
330
2
100
AcDbEntity
  8
0
100
AcDbLine
 10
468.3093844941573
 20
336.0176682526084
 30
0.0
 11
468.3093844941573
 21
330.0176682526086
 31
0.0
  0
LINE
  5
2366
330
2
100
AcDbEntity
  8
0
100
AcDbLine
 10
476.8093844941573
 20
336.0176682526084
 30
0.0
 11
476.8093844941573
 21
330.0176682526104
 31
0.0
  0
LINE
  5
2367
330
2
100
AcDbEntity
  8
0
100
AcDbLine
 10
462.5406192227106
 20
323.5176682526052
 30
0.0
 11
462.5406192227106
 21
329.0176682526086
 31
0.0
  0
LINE
  5
2368
330
2
100
AcDbEntity
  8
0
100
AcDbLine
 10
471.5593844941554
 20
323.5176682526052
 30
0.0
 11
471.5593844941554
 21
329.0176682526086
 31
0.0
  0
LINE
  5
2369
330
2
100
AcDbEntity
  8
0
100
AcDbLine
 10
474.5593844941581
 20
323.5176682526052
 30
0.0
 11
474.5593844941581
 21
329.0176682526086
 31
0.0
  0
ARC
  5
236A
330
2
100
AcDbEntity
  8
HIDS
100
AcDbCircle
 10
469.0593844941544
 20
336.2176682526057
 30
0.0
 40
0.2
100
AcDbArc
 50
179.9999999999739
 51
270.0
  0
ARC
  5
236B
330
2
100
AcDbEntity
  8
0
100
AcDbCircle
 10
469.0593844941544
 20
337.8176682526056
 30
0.0
 40
0.2
100
AcDbArc
 50
90.0
 51
179.9999999999739
  0
ARC
  5
236C
330
2
100
AcDbEntity
  8
0
100
AcDbCircle
 10
469.3593844941546
 20
338.2176682526057
 30
0.0
 40
0.2
100
AcDbArc
 50
270.0
 51
359.9999999999739
  0
ARC
  5
236D
330
2
100
AcDbEntity
  8
HIDS
100
AcDbCircle
 10
474.8878116188929
 20
332.0176682526116
 30
0.0
 40
2.0
100
AcDbArc
 50
224.9999999999735
 51
269.9999999999478
  0
ARC
  5
236E
330
2
100
AcDbEntity
  8
0
100
AcDbCircle
 10
476.1713486429185
 20
329.0176682526106
 30
0.0
 40
1.0
100
AcDbArc
 50
0.4999999999915751
 51
89.99999999994789
  0
LINE
  5
236F
330
2
100
AcDbEntity
  8
HIDS
100
AcDbLine
 10
473.4735980565196
 20
330.6034546902387
 30
0.0
 11
471.5593844941481
 21
332.5176682526109
 31
0.0
  0
LINE
  5
2370
330
2
100
AcDbEntity
  8
0
100
AcDbLine
 10
469.5593844941554
 20
339.5176682526059
 30
0.0
 11
469.5593844941545
 21
338.2176682526055
 31
0.0
  0
LINE
  5
2371
330
2
100
AcDbEntity
  8
0
100
AcDbLine
 10
469.5593844941554
 20
339.5176682526054
 30
0.0
 11
468.9820342249654
 21
340.5176682526059
 31
0.0
  0
LINE
  5
2372
330
2
100
AcDbEntity
  8
HIDS
100
AcDbLine
 10
469.3593844941546
 20
336.0176682526057
 30
0.0
 11
469.5593844941545
 21
335.8176682526056
 31
0.0
  0
LINE
  5
2373
330
2
100
AcDbEntity
  8
0
100
AcDbLine
 10
468.8593844941546
 20
337.8176682526056
 30
0.0
 11
468.8593844941546
 21
336.3176682526086
 31
0.0
  0
LINE
  5
2374
330
2
100
AcDbEntity
  8
HIDS
100
AcDbLine
 10
469.5593844941545
 20
335.8176682526056
 30
0.0
 11
469.5593844941535
 21
332.5176682526054
 31
0.0
  0
LINE
  5
2375
330
2
100
AcDbEntity
  8
0
100
AcDbLine
 10
473.0441668356757
 20
304.5176682526043
 30
0.0
 11
477.389384494154
 21
304.5176682526043
 31
0.0
  0
ARC
  5
2376
330
2
100
AcDbEntity
  8
0
100
AcDbCircle
 10
473.0441668356757
 20
305.5176682526043
 30
0.0
 40
1.0
100
AcDbArc
 50
181.5000000000157
 51
270.0
  0
LINE
  5
2377
330
2
100
AcDbEntity
  8
0
100
AcDbLine
 10
471.5724774549385
 20
323.5176682526049
 30
0.0
 11
472.0445095107002
 21
305.4914913042964
 31
0.0
  0
LINE
  5
2378
330
2
100
AcDbEntity
  8
0
100
AcDbLine
 10
477.2235740061301
 20
323.5176682526054
 30
0.0
 11
477.7235740061292
 21
323.0176682526063
 31
0.0
  0
LINE
  5
2379
330
2
100
AcDbEntity
  8
0
100
AcDbLine
 10
477.2235740061301
 20
323.5176682526054
 30
0.0
 11
477.3893844941544
 21
304.5176682526132
 31
0.0
  0
ARC
  5
237A
330
2
100
AcDbEntity
  8
0
100
AcDbCircle
 10
488.5346376852498
 20
309.5176682526043
 30
0.0
 40
3.0
100
AcDbArc
 50
270.0
 51
358.4999999999843
  0
LINE
  5
237B
330
2
100
AcDbEntity
  8
0
100
AcDbLine
 10
502.7476209255341
 20
304.5176682526391
 30
0.0
 11
511.5593844941572
 21
304.5176682526043
 31
0.0
  0
LINE
  5
237C
330
2
100
AcDbEntity
  8
0
100
AcDbLine
 10
503.5083835860473
 20
333.5700221492185
 30
0.0
 11
502.7476209255341
 21
304.5176682526043
 31
0.0
  0
ARC
  5
237D
330
2
100
AcDbEntity
  8
0
100
AcDbCircle
 10
500.4797983519761
 20
332.5176682526043
 30
0.0
 40
3.0
100
AcDbArc
 50
270.0
 51
358.5000000000103
  0
LINE
  5
237E
330
2
100
AcDbEntity
  8
0
100
AcDbLine
 10
494.0076982360001
 20
329.5176682526043
 30
0.0
 11
500.4797983519761
 21
329.5176682526043
 31
0.0
  0
ARC
  5
237F
330
2
100
AcDbEntity
  8
0
100
AcDbCircle
 10
505.5076982359983
 20
333.5176682526043
 30
0.0
 40
2.0
100
AcDbArc
 50
90.0
 51
178.5000000000103
  0
LINE
  5
2380
330
2
100
AcDbEntity
  8
0
100
AcDbLine
 10
505.5076982359983
 20
335.5176682526043
 30
0.0
 11
511.5593844941554
 21
335.5176682526043
 31
0.0
  0
LINE
  5
2381
330
2
100
AcDbEntity
  8
0
100
AcDbLine
 10
480.3458643903918
 20
302.5176682526043
 30
0.0
 11
488.5346376852562
 21
302.5176682526043
 31
0.0
  0
ARC
  5
2382
330
2
100
AcDbEntity
  8
0
100
AcDbCircle
 10
488.966705391132
 20
326.0176682522375
 30
0.0
 40
3.0
100
AcDbArc
 50
270.0
 51
358.4999999999843
  0
LINE
  5
2383
330
2
100
AcDbEntity
  8
0
100
AcDbLine
 10
480.3458643903582
 20
306.5176682526043
 30
0.0
 11
488.5346376852498
 21
306.5176682526043
 31
0.0
  0
ARC
  5
2384
330
2
100
AcDbEntity
  8
0
100
AcDbCircle
 10
494.0076982359983
 20
327.517668254456
 30
0.0
 40
2.0
100
AcDbArc
 50
90.0
 51
178.5000000000103
  0
LINE
  5
2385
330
2
100
AcDbEntity
  8
0
100
AcDbLine
 10
492.0083835860473
 20
327.5700221510716
 30
0.0
 11
491.4047364548764
 21
304.5176682526043
 31
0.0
  0
ARC
  5
2A87
330
2
100
AcDbEntity
  8
0
100
AcDbCircle
 10
275.3131273543382
 20
132.4401979645427
 30
0.0
 40
3.999999999999971
100
AcDbArc
 50
90.0
 51
158.4187099909067
  0
LINE
  5
2A88
330
2
100
AcDbEntity
  8
0
100
AcDbLine
 10
285.3131273543382
 20
136.4401979645426
 30
0.0
 11
275.3131273543382
 21
136.4401979645426
 31
0.0
  0
ARC
  5
2A89
330
2
100
AcDbEntity
  8
0
100
AcDbCircle
 10
285.3131273543382
 20
132.4401979645427
 30
0.0
 40
4.000000000000056
100
AcDbArc
 50
17.28346027335914
 51
90.0
  0
LINE
  5
2A8A
330
2
100
AcDbEntity
  8
CENTER
  6
CENS
100
AcDbLine
 10
280.3131273543382
 20
141.4401979645426
 30
0.0
 11
280.3131273543382
 21
118.9577882467957
 31
0.0
  0
ARC
  5
2B24
330
2
100
AcDbEntity
  8
0
100
AcDbCircle
 10
437.8480138071783
 20
261.0176682526061
 30
0.0
 40
0.5
100
AcDbArc
 50
209.9999999999991
 51
270.0
  0
LINE
  5
2B25
330
2
100
AcDbEntity
  8
0
100
AcDbLine
 10
439.5593679108275
 20
259.5176735703502
 30
0.0
 11
438.9820184013171
 21
260.5176740089508
 31
0.0
  0
LINE
  5
2B26
330
2
100
AcDbEntity
  8
0
100
AcDbLine
 10
453.5593462016783
 20
259.517668252606
 30
0.0
 11
454.1366964708678
 21
260.517668252606
 31
0.0
  0
ARC
  5
2B27
330
2
100
AcDbEntity
  8
0
100
AcDbCircle
 10
455.270682301497
 20
261.0176682526061
 30
0.0
 40
0.5
100
AcDbArc
 50
270.0
 51
330.0000000000008
  0
LINE
  5
2B29
330
2
100
AcDbEntity
  8
0
100
AcDbLine
 10
318.8131273543331
 20
100.4402080806209
 30
0.0
 11
334.8131273543331
 21
100.4402080806209
 31
0.0
  0
LINE
  5
2B2A
330
2
100
AcDbEntity
  8
0
100
AcDbLine
 10
318.8131273543331
 20
104.4402080806209
 30
0.0
 11
334.8131273543331
 21
104.4402080806209
 31
0.0
  0
LINE
  5
2B2B
330
2
100
AcDbEntity
  8
0
100
AcDbLine
 10
314.8131273543331
 20
96.44015967206678
 30
0.0
 11
334.3131273543331
 21
96.44015967206678
 31
0.0
  0
LINE
  5
2B2C
330
2
100
AcDbEntity
  8
0
100
AcDbLine
 10
314.8131273543331
 20
108.4401596720667
 30
0.0
 11
334.3131273543331
 21
108.4401596720667
 31
0.0
  0
LINE
  5
2B2E
330
2
100
AcDbEntity
  8
0
100
AcDbLine
 10
314.8131273543331
 20
109.4401596720667
 30
0.0
 11
314.8131273543331
 21
95.44015967206679
 31
0.0
  0
LINE
  5
2B2F
330
2
100
AcDbEntity
  8
0
100
AcDbLine
 10
313.8131273543331
 20
93.72882727756678
 30
0.0
 11
313.8131273543331
 21
111.1514957718855
 31
0.0
  0
LINE
  5
2B31
330
2
100
AcDbEntity
  8
0
100
AcDbLine
 10
313.5631273543331
 20
93.29581457567474
 30
0.0
 11
313.4112230242617
 21
93.20811256981688
 31
0.0
  0
ARC
  5
2B32
330
2
100
AcDbEntity
  8
0
100
AcDbCircle
 10
313.3131273543331
 20
93.72882727756678
 30
0.0
 40
0.5
100
AcDbArc
 50
299.9999999999997
 51
0.0
  0
ARC
  5
2B33
330
2
100
AcDbEntity
  8
0
100
AcDbCircle
 10
312.4112230242617
 20
94.94016337738571
 30
0.0
 40
2.0
100
AcDbArc
 50
281.5926445677328
 51
299.9999999999997
  0
LINE
  5
2B34
330
2
100
AcDbEntity
  8
0
100
AcDbLine
 10
314.813122036589
 20
95.44018138121577
 30
0.0
 11
313.8131215979883
 21
94.86283187170533
 31
0.0
  0
ARC
  5
2B35
330
2
100
AcDbEntity
  8
0
100
AcDbCircle
 10
318.8131273543331
 20
102.4402080806209
 30
0.0
 40
2.0
100
AcDbArc
 50
90.0
 51
270.0
  0
LINE
  5
2B36
330
2
100
AcDbEntity
  8
0
100
AcDbLine
 10
313.5631273543331
 20
111.5845084737777
 30
0.0
 11
313.4112230242617
 21
111.6722104796356
 31
0.0
  0
LINE
  5
2B37
330
2
100
AcDbEntity
  8
0
100
AcDbLine
 10
314.8131273543331
 20
109.4401596720667
 30
0.0
 11
313.8131273543331
 21
110.0175099412563
 31
0.0
  0
ARC
  5
2B38
330
2
100
AcDbEntity
  8
0
100
AcDbCircle
 10
313.3131273543331
 20
111.1514957718855
 30
0.0
 40
0.5
100
AcDbArc
 50
0.0
 51
59.99999999999946
  0
ARC
  5
2B39
330
2
100
AcDbEntity
  8
0
100
AcDbCircle
 10
312.4112230242617
 20
109.9401596720667
 30
0.0
 40
2.0
100
AcDbArc
 50
59.99999999999946
 51
78.40735543226724
  0
LINE
  5
2B3B
330
2
100
AcDbEntity
  8
0
100
AcDbLine
 10
334.3131273543331
 20
100.4402080806209
 30
0.0
 11
334.3131273543331
 21
96.44015967206678
 31
0.0
  0
LINE
  5
2B3C
330
2
100
AcDbEntity
  8
0
100
AcDbLine
 10
334.8131273543331
 20
107.9401596720667
 30
0.0
 11
334.8131273543331
 21
96.94015967206679
 31
0.0
  0
CIRCLE
  5
2B3E
330
2
100
AcDbEntity
  8
0
100
AcDbCircle
 10
446.5593844941535
 20
102.4401979645449
 30
0.0
 40
9.499961707520014
  0
ARC
  5
2B3F
330
2
100
AcDbEntity
  8
0
100
AcDbCircle
 10
446.5593844941535
 20
102.4401979645449
 30
0.0
 40
7.577311976709552
100
AcDbArc
 50
195.3043240521925
 51
164.6956759477822
  0
ARC
  5
2B40
330
2
100
AcDbEntity
  8
0
100
AcDbCircle
 10
446.5593844941535
 20
102.4401979645449
 30
0.0
 40
6.999961707519901
100
AcDbArc
 50
196.6016430457799
 51
163.3983569541947
  0
ARC
  5
2B41
330
2
100
AcDbEntity
  8
0
100
AcDbCircle
 10
446.5593844941535
 20
102.4401979645445
 30
0.0
 40
5.999961707520469
100
AcDbArc
 50
199.4713499178904
 51
160.5286500820744
  0
LINE
  5
2B42
330
2
100
AcDbEntity
  8
0
100
AcDbLine
 10
623.3518023060682
 20
96.44023625701226
 30
0.0
 11
623.3518023060682
 21
108.4402362570099
 31
0.0
  0
LINE
  5
2B43
330
2
100
AcDbEntity
  8
0
100
AcDbLine
 10
622.8518023060681
 20
96.94023625701227
 30
0.0
 11
622.8518023060681
 21
107.9402362570099
 31
0.0
  0
LINE
  5
2B44
330
2
100
AcDbEntity
  8
0
100
AcDbLine
 10
642.8518023060681
 20
95.44023625701226
 30
0.0
 11
642.8518023060681
 21
109.4402362570122
 31
0.0
  0
LINE
  5
2B45
330
2
100
AcDbEntity
  8
0
100
AcDbLine
 10
643.8518023060681
 20
111.1515686515122
 30
0.0
 11
643.8518023060681
 21
93.72890015719354
 31
0.0
  0
LINE
  5
2B47
330
2
100
AcDbEntity
  8
0
100
AcDbLine
 10
334.3131273543331
 20
96.44015967206678
 30
0.0
 11
334.8131273543331
 21
96.94015967206679
 31
0.0
  0
LINE
  5
2B48
330
2
100
AcDbEntity
  8
0
100
AcDbLine
 10
642.8518023060681
 20
96.44023625701226
 30
0.0
 11
623.3518023060682
 21
96.44023625701226
 31
0.0
  0
LINE
  5
2B49
330
2
100
AcDbEntity
  8
0
100
AcDbLine
 10
623.3518023060682
 20
96.44023625701226
 30
0.0
 11
622.8518023060681
 21
96.94023625701227
 31
0.0
  0
LINE
  5
2B4A
330
2
100
AcDbEntity
  8
0
100
AcDbLine
 10
644.1018023060681
 20
93.29588745530106
 30
0.0
 11
644.2537066361396
 21
93.20818544944319
 31
0.0
  0
LINE
  5
2B4B
330
2
100
AcDbEntity
  8
0
100
AcDbLine
 10
642.8518023060681
 20
95.44023625701226
 30
0.0
 11
643.8518023060681
 21
94.86288598782271
 31
0.0
  0
ARC
  5
2B4C
330
2
100
AcDbEntity
  8
0
100
AcDbCircle
 10
644.3518023060682
 20
93.72890015719354
 30
0.0
 40
0.5
100
AcDbArc
 50
180.0
 51
239.9999999999994
  0
ARC
  5
2B4D
330
2
100
AcDbEntity
  8
0
100
AcDbCircle
 10
645.2537066361395
 20
94.94023625701226
 30
0.0
 40
2.0
100
AcDbArc
 50
239.9999999999994
 51
258.4073554322671
  0
LINE
  5
2B4F
330
2
100
AcDbEntity
  8
0
100
AcDbLine
 10
334.3131273543331
 20
108.4401596720667
 30
0.0
 11
334.3131273543331
 21
104.4402080806209
 31
0.0
  0
LINE
  5
2B50
330
2
100
AcDbEntity
  8
0
100
AcDbLine
 10
334.3131273543331
 20
108.4401596720667
 30
0.0
 11
334.8131273543331
 21
107.9401596720667
 31
0.0
  0
LINE
  5
2B52
330
2
100
AcDbEntity
  8
0
100
AcDbLine
 10
439.0593462016739
 20
104.4401979645463
 30
0.0
 11
439.0593462016739
 21
100.4401979645463
 31
0.0
  0
LINE
  5
2B53
330
2
100
AcDbEntity
  8
0
100
AcDbLine
 10
443.0593462016735
 20
104.4401979645463
 30
0.0
 11
443.0593462016739
 21
100.4401979645463
 31
0.0
  0
LINE
  5
2B54
330
2
100
AcDbEntity
  8
0
100
AcDbLine
 10
439.0593462016739
 20
104.4401979645463
 30
0.0
 11
443.0593462016735
 21
104.4401979645463
 31
0.0
  0
LINE
  5
2B55
330
2
100
AcDbEntity
  8
0
100
AcDbLine
 10
439.0593462016739
 20
100.4401979645463
 30
0.0
 11
443.0593462016739
 21
100.4401979645463
 31
0.0
  0
ARC
  5
2B56
330
2
100
AcDbEntity
  8
0
100
AcDbCircle
 10
446.5593844941535
 20
102.4401979645449
 30
0.0
 40
7.577311976709552
100
AcDbArc
 50
171.8103446301274
 51
188.1896553698789
  0
LINE
  5
2B57
330
2
100
AcDbEntity
  8
0
100
AcDbLine
 10
440.9025708599902
 20
255.517668252606
 30
0.0
 11
440.9025708599902
 21
239.517668252606
 31
0.0
  0
LINE
  5
2B58
330
2
100
AcDbEntity
  8
0
100
AcDbLine
 10
440.9025708599902
 20
239.517668252606
 30
0.0
 11
440.9025708599902
 21
255.517668252606
 31
0.0
  0
LINE
  5
2B59
330
2
100
AcDbEntity
  8
0
100
AcDbLine
 10
440.9025708599902
 20
239.517668252606
 30
0.0
 11
440.9025708599902
 21
255.517668252606
 31
0.0
  0
LINE
  5
2B5A
330
2
100
AcDbEntity
  8
0
100
AcDbLine
 10
439.0593462016783
 20
257.5176682525806
 30
0.0
 11
439.0593462016783
 21
239.517668252606
 31
0.0
  0
LINE
  5
2B5B
330
2
100
AcDbEntity
  8
0
100
AcDbLine
 10
452.5593462016782
 20
259.517668252606
 30
0.0
 11
452.5593462016782
 21
240.0176682526061
 31
0.0
  0
LINE
  5
2B5C
330
2
100
AcDbEntity
  8
0
100
AcDbLine
 10
452.5593462016782
 20
240.0176682526061
 30
0.0
 11
440.9025708599902
 21
240.0176682526061
 31
0.0
  0
LINE
  5
2B5D
330
2
100
AcDbEntity
  8
0
100
AcDbLine
 10
452.5593462016782
 20
240.0176682526061
 30
0.0
 11
452.0593462016782
 21
239.517668252606
 31
0.0
  0
LINE
  5
2B5E
330
2
100
AcDbEntity
  8
0
100
AcDbLine
 10
452.0593462016782
 20
239.517668252606
 30
0.0
 11
439.0593462016783
 21
239.517668252606
 31
0.0
  0
LINE
  5
2B5F
330
2
100
AcDbEntity
  8
0
100
AcDbLine
 10
440.5593462016782
 20
257.5176682525806
 30
0.0
 11
440.9025708599902
 21
255.517668252606
 31
0.0
  0
LINE
  5
2B60
330
2
100
AcDbEntity
  8
0
100
AcDbLine
 10
440.5593462016782
 20
257.5176682525806
 30
0.0
 11
439.0593462016783
 21
257.5176682525806
 31
0.0
  0
LINE
  5
2B61
330
2
100
AcDbEntity
  8
0
100
AcDbLine
 10
440.5593462016782
 20
259.517668252606
 30
0.0
 11
440.5593462016782
 21
257.5176682525806
 31
0.0
  0
LINE
  5
2B62
330
2
100
AcDbEntity
  8
0
100
AcDbLine
 10
453.5593462016783
 20
259.517668252606
 30
0.0
 11
439.5593462016782
 21
259.517668252606
 31
0.0
  0
LINE
  5
2B63
330
2
100
AcDbEntity
  8
0
100
AcDbLine
 10
642.8518023060681
 20
108.4402362570122
 30
0.0
 11
623.3518023060682
 21
108.4402362570099
 31
0.0
  0
LINE
  5
2B65
330
2
100
AcDbEntity
  8
0
100
AcDbLine
 10
622.8518023060681
 20
107.9402362570099
 30
0.0
 11
623.3518023060682
 21
108.4402362570099
 31
0.0
  0
LINE
  5
2B66
330
2
100
AcDbEntity
  8
0
100
AcDbLine
 10
644.1018023060681
 20
111.5845813534042
 30
0.0
 11
644.2537066361396
 21
111.6722833592621
 31
0.0
  0
ARC
  5
2B67
330
2
100
AcDbEntity
  8
0
100
AcDbCircle
 10
644.3518023060682
 20
111.1515686515122
 30
0.0
 40
0.5
100
AcDbArc
 50
120.0000000000005
 51
180.0
  0
ARC
  5
2B68
330
2
100
AcDbEntity
  8
0
100
AcDbCircle
 10
645.2537066361395
 20
109.9402325516933
 30
0.0
 40
2.0
100
AcDbArc
 50
101.5926445677327
 51
120.0000000000005
  0
LINE
  5
2B69
330
2
100
AcDbEntity
  8
0
100
AcDbLine
 10
642.8518076238122
 20
109.440214547863
 30
0.0
 11
643.8518080624129
 21
110.0175640573734
 31
0.0
  0
LINE
  5
2B6B
330
2
100
AcDbEntity
  8
0
100
AcDbLine
 10
437.4150011052862
 20
260.7676682526061
 30
0.0
 11
437.3272990994284
 21
260.9195725826774
 31
0.0
  0
ARC
  5
2B6C
330
2
100
AcDbEntity
  8
0
100
AcDbCircle
 10
439.059349906997
 20
261.9195725826774
 30
0.0
 40
2.0
100
AcDbArc
 50
191.5926445677324
 51
209.9999999999991
  0
LINE
  5
2B6D
330
2
100
AcDbEntity
  8
0
100
AcDbLine
 10
455.7036950033895
 20
260.7676682526061
 30
0.0
 11
455.7913970092474
 21
260.9195725826774
 31
0.0
  0
LINE
  5
2B6E
330
2
100
AcDbEntity
  8
0
100
AcDbLine
 10
437.8480138071783
 20
260.517668252606
 30
0.0
 11
455.270682301497
 21
260.517668252606
 31
0.0
  0
ARC
  5
2B6F
330
2
100
AcDbEntity
  8
0
100
AcDbCircle
 10
454.0593462016783
 20
261.9195725826774
 30
0.0
 40
2.0
100
AcDbArc
 50
330.0000000000008
 51
348.4073554322675
  0
ENDSEC
  0
SECTION
  2
OBJECTS
  0
DICTIONARY
  5
7
330
0
100
AcDbDictionary
  3
ACAD_COLOR
350
1CF5
  3
ACAD_GROUP
350
75
  3
ACAD_LAYOUT
350
61
  3
ACAD_MATERIAL
350
1CCB
  3
ACAD_MLEADERSTYLE
350
1D1A
  3
ACAD_MLINESTYLE
350
76
  3
ACAD_PLOTSETTINGS
350
77
  3
ACAD_PLOTSTYLENAME
350
6
  3
ACAD_SCALELIST
350
1CF8
  3
ACAD_TABLESTYLE
350
1CF6
  3
ACAD_VISUALSTYLE
350
1CE4
  3
ACADDIM
350
480
  3
ACDB_RECOMPOSE_DATA
350
1D34
  3
ACDBHEADERROUNDTRIPXREC
350
2DAB
  3
ACDBVARIABLEDICTIONARY
350
102
  3
DWGPROPS
350
2D78
  0
DICTIONARY
  5
1D3D
330
6E
100
AcDbDictionary
280
     1
  3
ACAD_XREC_ROUNDTRIP
360
2D7F
  0
DICTIONARY
  5
AFE
330
66
100
AcDbDictionary
280
     1
  3
ACAD_LAYERSTATES
360
AFF
  0
DICTIONARY
  5
1D20
330
5E
100
AcDbDictionary
280
     1
  3
ACAD_XREC_ROUNDTRIP
360
2D7B
  3
ADSK_XREC_LAYER_RECONCILED
360
1D21
  0
DICTIONARY
  5
1D22
330
3E
100
AcDbDictionary
280
     1
  3
ACAD_XREC_ROUNDTRIP
360
2D7A
  3
ADSK_XREC_LAYER_RECONCILED
360
1D23
  0
DICTIONARY
  5
1D28
330
2B5
100
AcDbDictionary
280
     1
  3
ACAD_XREC_ROUNDTRIP
360
2D85
  3
ADSK_XREC_LAYER_RECONCILED
360
1D29
  0
DICTIONARY
  5
1D2A
330
2BA
100
AcDbDictionary
280
     1
  3
ACAD_XREC_ROUNDTRIP
360
2D86
  3
ADSK_XREC_LAYER_RECONCILED
360
1D2B
  0
DICTIONARY
  5
1D2E
330
3FA
100
AcDbDictionary
280
     1
  3
ACAD_XREC_ROUNDTRIP
360
2D88
  3
ADSK_XREC_LAYER_RECONCILED
360
1D2F
  0
DICTIONARY
  5
2DCC
330
2
100
AcDbDictionary
280
     1
  3
ACAD_LAYOUTSELFREF
360
2DCD
  0
DICTIONARY
  5
2DCE
330
2DA5
100
AcDbDictionary
280
     1
  3
ACAD_LAYOUTSELFREF
360
2DCF
  0
DICTIONARY
  5
1CF5
102
{ACAD_REACTORS
330
7
102
}
330
7
100
AcDbDictionary
  0
DICTIONARY
  5
75
102
{ACAD_REACTORS
330
7
102
}
330
7
100
AcDbDictionary
  0
DICTIONARY
  5
61
102
{ACAD_REACTORS
330
7
102
}
330
7
100
AcDbDictionary
  0
DICTIONARY
  5
1CCB
102
{ACAD_REACTORS
330
7
102
}
330
7
100
AcDbDictionary
  3
BYBLOCK
350
1CD4
  3
BYLAYER
350
1CCC
  3
GLOBAL
350
1CDC
  0
DICTIONARY
  5
1D1A
102
{ACAD_REACTORS
330
7
102
}
330
7
100
AcDbDictionary
  3
STANDARD
350
1D1B
  0
DICTIONARY
  5
76
102
{ACAD_REACTORS
330
7
102
}
330
7
100
AcDbDictionary
  3
STANDARD
350
78
  0
DICTIONARY
  5
77
102
{ACAD_REACTORS
330
7
102
}
330
7
100
AcDbDictionary
  0
ACDBDICTIONARYWDFLT
  5
6
102
{ACAD_REACTORS
330
7
102
}
330
7
100
AcDbDictionary
281
     1
  3
Normal
350
5
100
AcDbDictionaryWithDefault
340
5
  0
DICTIONARY
  5
1CF8
102
{ACAD_REACTORS
330
7
102
}
330
7
100
AcDbDictionary
  3
A0
350
1CF9
  3
A1
350
1CFA
  3
A2
350
1CFB
  3
A3
350
1CFC
  3
A4
350
1CFD
  3
A5
350
1CFE
  3
A6
350
1CFF
  3
A7
350
1D00
  3
A8
350
1D01
  3
A9
350
1D02
  3
B0
350
1D03
  3
B1
350
1D04
  3
B2
350
1D05
  3
B3
350
1D06
  3
B4
350
1D07
  3
B5
350
1D08
  3
B6
350
1D09
  3
B7
350
1D0A
  3
B8
350
1D0B
  3
B9
350
1D0C
  3
C0
350
1D0D
  3
C1
350
1D0E
  3
C2
350
1D0F
  3
C3
350
1D10
  3
C4
350
1D11
  3
C5
350
1D12
  3
C6
350
1D13
  3
C7
350
1D14
  3
C8
350
1D15
  3
C9
350
1D16
  3
D0
350
1D17
  3
D1
350
1D18
  3
D2
350
1D19
  0
DICTIONARY
  5
1CF6
102
{ACAD_REACTORS
330
7
102
}
330
7
100
AcDbDictionary
  3
STANDARD
350
1CF7
  0
DICTIONARY
  5
1CE4
102
{ACAD_REACTORS
330
7
102
}
330
7
100
AcDbDictionary
  3
2DWIREFRAME
350
1CEA
  3
3D_HIDDEN
350
1CEC
  3
3DWIREFRAME
350
1CEB
  3
BASIC
350
1CE9
  3
BRIGHTEN
350
1CF0
  3
COLORCHANGE
350
1CF4
  3
CONCEPTUAL
350
1CED
  3
DIM
350
1CEF
  3
FACEPATTERN
350
1CF3
  3
FLAT
350
1CE5
  3
FLATWITHEDGES
350
1CE6
  3
GOURAUD
350
1CE7
  3
GOURAUDWITHEDGES
350
1CE8
  3
LINEPATTERN
350
1CF2
  3
REALISTIC
350
1CEE
  3
THICKEN
350
1CF1
  0
XRECORD
  5
480
102
{ACAD_REACTORS
330
7
102
}
330
7
100
AcDbXrecord
 90
   990106
  3

 60
     0
 61
     0
 62
     1
 63
     3
 64
     1
 65
     0
 66
     0
 67
     3
 68
     1
 69
     0
 70
     0
 71
     0
 72
     0
 40
0.0
170
     2
340
0
  0
XRECORD
  5
1D34
102
{ACAD_REACTORS
330
7
102
}
330
7
100
AcDbXrecord
 90
        1
330
1CF7
  0
DICTIONARY
  5
2DAB
102
{ACAD_REACTORS
330
7
102
}
330
7
100
AcDbDictionary
  3
CEPSNTYPE
350
2DB5
  3
DIMSTYLEDATA
350
2DB9
  3
FINGERPRINTGUID
350
2DB6
  3
HYPERLINKBASE
350
2DAE
  3
INSUNITS
350
2DB4
  3
LAYOUTDICT
350
2DB0
  3
LWETCUNION
350
2DB3
  3
PLOTSETDICT
350
2DB1
  3
PLOTSTYLNAMDICT
350
2DB2
  3
PSVPSCALE
350
2DB8
  3
PUCSBASE
350
2DBC
  3
PUCSORGBACK
350
2DC2
  3
PUCSORGBOTTOM
350
2DBE
  3
PUCSORGFRONT
350
2DC1
  3
PUCSORGLEFT
350
2DBF
  3
PUCSORGRIGHT
350
2DC0
  3
PUCSORGTOP
350
2DBD
  3
PUCSORTHOREF
350
2DBA
  3
PUCSORTHOVIEW
350
2DBB
  3
STYLESHEET
350
2DAF
  3
TSTACKALIGN
350
2DAC
  3
TSTACKSIZE
350
2DAD
  3
UCSBASE
350
2DC5
  3
UCSORGBACK
350
2DCB
  3
UCSORGBOTTOM
350
2DC7
  3
UCSORGFRONT
350
2DCA
  3
UCSORGLEFT
350
2DC8
  3
UCSORGRIGHT
350
2DC9
  3
UCSORGTOP
350
2DC6
  3
UCSORTHOREF
350
2DC3
  3
UCSORTHOVIEW
350
2DC4
  3
VERSIONGUID
350
2DB7
  0
DICTIONARY
  5
102
102
{ACAD_REACTORS
330
7
102
}
330
7
100
AcDbDictionary
  3
CANNOSCALE
350
1D55
  3
CMLEADERSTYLE
350
1D54
  3
CTABLESTYLE
350
1D53
  3
DIMASSOC
350
103
  3
INDEXCTL
350
1D56
  3
SORTENTS
350
549
  0
XRECORD
  5
2D78
102
{ACAD_REACTORS
330
7
102
}
330
7
100
AcDbXrecord
  1
DWGPROPS COOKIE
  2

  3

  4

  6

  7

  8
ymorima
  9

300
=
301
=
302
=
303
=
304
=
305
=
306
=
307
=
308
=
309
=
 40
0.0728316782407408
 41
2454410.382890984
 42
2454425.753606586
  1

 90
        0
  0
XRECORD
  5
2D7F
102
{ACAD_REACTORS
330
1D3D
102
}
330
1D3D
100
AcDbXrecord
102
VTR_0.000_0.000_1.000_1.000_VISUALSTYLE
340
1CEA
102
VTR_0.000_0.000_1.000_1.000_GRIDDISPLAY
 70
     3
102
VTR_0.000_0.000_1.000_1.000_GRIDMAJOR
 70
     5
102
VTR_0.000_0.000_1.000_1.000_DEFAULTLIGHTING
280
     1
102
VTR_0.000_0.000_1.000_1.000_DEFAULTLIGHTINGTYPE
 70
     1
102
VTR_0.000_0.000_1.000_1.000_BRIGHTNESS
141
0.0
102
VTR_0.000_0.000_1.000_1.000_CONTRAST
142
0.0
  0
DICTIONARY
  5
AFF
102
{ACAD_REACTORS
330
AFE
102
}
330
AFE
100
AcDbDictionary
  0
XRECORD
  5
2D7B
102
{ACAD_REACTORS
330
1D20
102
}
330
1D20
100
AcDbXrecord
102
MATERIAL
340
1CDC
  0
XRECORD
  5
1D21
102
{ACAD_REACTORS
330
1D20
102
}
330
1D20
100
AcDbXrecord
290
     1
  0
XRECORD
  5
2D7A
102
{ACAD_REACTORS
330
1D22
102
}
330
1D22
100
AcDbXrecord
102
MATERIAL
340
1CDC
  0
XRECORD
  5
1D23
102
{ACAD_REACTORS
330
1D22
102
}
330
1D22
100
AcDbXrecord
290
     1
  0
XRECORD
  5
2D85
102
{ACAD_REACTORS
330
1D28
102
}
330
1D28
100
AcDbXrecord
102
MATERIAL
340
1CDC
  0
XRECORD
  5
1D29
102
{ACAD_REACTORS
330
1D28
102
}
330
1D28
100
AcDbXrecord
290
     1
  0
XRECORD
  5
2D86
102
{ACAD_REACTORS
330
1D2A
102
}
330
1D2A
100
AcDbXrecord
102
MATERIAL
340
1CDC
  0
XRECORD
  5
1D2B
102
{ACAD_REACTORS
330
1D2A
102
}
330
1D2A
100
AcDbXrecord
290
     1
  0
XRECORD
  5
2D88
102
{ACAD_REACTORS
330
1D2E
102
}
330
1D2E
100
AcDbXrecord
102
MATERIAL
340
1CDC
  0
XRECORD
  5
1D2F
102
{ACAD_REACTORS
330
1D2E
102
}
330
1D2E
100
AcDbXrecord
290
     1
  0
XRECORD
  5
2DCD
102
{ACAD_REACTORS
330
2DCC
102
}
330
2DCC
100
AcDbXrecord
340
2
  0
XRECORD
  5
2DCF
102
{ACAD_REACTORS
330
2DCE
102
}
330
2DCE
100
AcDbXrecord
340
2DA5
  0
ACAD_PROXY_OBJECT
  5
1CD4
102
{ACAD_XDICTIONARY
360
1CD5
102
}
102
{ACAD_REACTORS
330
1CCB
102
}
330
1CCB
100
AcDbProxyObject
 90
      499
 91
      510
 93
     1340
310
42109E509B1BD8DAC02004014080404555555555555953FAA155555555555654FEA9AA400014080404555555555555953FAA155555555555654FEA9AA400000000000000E03F4080404555555555555953FAA155555555555654FEA9AA4014080404555555555555953FAA155555555555654FEA9AA4010201011555555555
310
55654FEA8555555555555953FAA6A9005020101155555555555654FEA8555555555555953FAA6A9000
 94
        0
1001
ACAD
1000
AcadProxyRoundTripData
1071
      504
1071
   655383
1070
     0
  0
ACAD_PROXY_OBJECT
  5
1CCC
102
{ACAD_XDICTIONARY
360
1CCD
102
}
102
{ACAD_REACTORS
330
1CCB
102
}
330
1CCB
100
AcDbProxyObject
 90
      499
 91
      510
 93
     1340
310
42109E53185E595C802004014080404555555555555953FAA155555555555654FEA9AA400014080404555555555555953FAA155555555555654FEA9AA400000000000000E03F4080404555555555555953FAA155555555555654FEA9AA4014080404555555555555953FAA155555555555654FEA9AA4010201011555555555
310
55654FEA8555555555555953FAA6A9005020101155555555555654FEA8555555555555953FAA6A9000
 94
        0
1001
ACAD
1000
AcadProxyRoundTripData
1071
      504
1071
   655383
1070
     0
  0
ACAD_PROXY_OBJECT
  5
1CDC
102
{ACAD_XDICTIONARY
360
1CDD
102
}
102
{ACAD_REACTORS
330
1CCB
102
}
330
1CCB
100
AcDbProxyObject
 90
      499
 91
      510
 93
     1332
310
41D1DB1BD8985B002004014080404555555555555953FAA155555555555654FEA9AA400014080404555555555555953FAA155555555555654FEA9AA400000000000000E03F4080404555555555555953FAA155555555555654FEA9AA4014080404555555555555953FAA155555555555654FEA9AA401020101155555555555
310
654FEA8555555555555953FAA6A9005020101155555555555654FEA8555555555555953FAA6A9000
 94
        0
1001
ACAD
1000
AcadProxyRoundTripData
1071
      504
1071
   655383
1070
     0
  0
ACAD_PROXY_OBJECT
  5
1D1B
102
{ACAD_REACTORS
330
1D1A
102
}
330
1D1A
100
AcDbProxyObject
 90
      499
 91
      510
 93
      618
310
40901902A4063FBFFFFFE056BD1B81E855B9FC0AD7A3703D0AD73F4254DD185B99185C990000AD7A3703D0AC73F90141901A02B5E8DC0F42B1CFC02B5E8DC0F42B1CFE5764000000000000300FC6
340
6A
340
0
340
16
340
0
 94
        0
1001
ACAD_MLEADERVER
1070
     2
1001
ACAD
1000
AcadProxyRoundTripData
1071
      508
1071
   655383
1070
     0
  0
MLINESTYLE
  5
78
102
{ACAD_REACTORS
330
76
102
}
330
76
100
AcDbMlineStyle
  2
STANDARD
 70
     0
  3

 62
     0
 51
90.0
 52
90.0
 71
     2
 49
0.5
 62
   256
  6
BYLAYER
 49
-0.5
 62
   256
  6
BYLAYER
  0
ACDBPLACEHOLDER
  5
5
102
{ACAD_REACTORS
330
6
102
}
330
6
100
AcDbPlaceHolder
280
     0
  0
ACAD_PROXY_OBJECT
  5
1CF9
102
{ACAD_REACTORS
330
1CF8
102
}
330
1CF8
100
AcDbProxyObject
 90
      499
 91
      510
 93
       49
310
904313A3100598
 94
        0
1001
ACAD
1000
AcadProxyRoundTripData
1071
      507
1071
   655383
1070
     0
  0
ACAD_PROXY_OBJECT
  5
1CFA
102
{ACAD_REACTORS
330
1CF8
102
}
330
1CF8
100
AcDbProxyObject
 90
      499
 91
      510
 93
      113
310
904313A3200400000000000000406B
 94
        0
1001
ACAD
1000
AcadProxyRoundTripData
1071
      507
1071
   655383
1070
     0
  0
ACAD_PROXY_OBJECT
  5
1CFB
102
{ACAD_REACTORS
330
1CF8
102
}
330
1CF8
100
AcDbProxyObject
 90
      499
 91
      510
 93
      113
310
904313A3400400000000000010406B
 94
        0
1001
ACAD
1000
AcadProxyRoundTripData
1071
      507
1071
   655383
1070
     0
  0
ACAD_PROXY_OBJECT
  5
1CFC
102
{ACAD_REACTORS
330
1CF8
102
}
330
1CF8
100
AcDbProxyObject
 90
      499
 91
      510
 93
      113
310
904313A3500400000000000014406B
 94
        0
1001
ACAD
1000
AcadProxyRoundTripData
1071
      507
1071
   655383
1070
     0
  0
ACAD_PROXY_OBJECT
  5
1CFD
102
{ACAD_REACTORS
330
1CF8
102
}
330
1CF8
100
AcDbProxyObject
 90
      499
 91
      510
 93
      113
310
904313A3800400000000000020406B
 94
        0
1001
ACAD
1000
AcadProxyRoundTripData
1071
      507
1071
   655383
1070
     0
  0
ACAD_PROXY_OBJECT
  5
1CFE
102
{ACAD_REACTORS
330
1CF8
102
}
330
1CF8
100
AcDbProxyObject
 90
      499
 91
      510
 93
      121
310
905313A3130004000000000000244051
 94
        0
1001
ACAD
1000
AcadProxyRoundTripData
1071
      507
1071
   655383
1070
     0
  0
ACAD_PROXY_OBJECT
  5
1CFF
102
{ACAD_REACTORS
330
1CF8
102
}
330
1CF8
100
AcDbProxyObject
 90
      499
 91
      510
 93
      121
310
905313A3136004000000000000304051
 94
        0
1001
ACAD
1000
AcadProxyRoundTripData
1071
      507
1071
   655383
1070
     0
  0
ACAD_PROXY_OBJECT
  5
1D00
102
{ACAD_REACTORS
330
1CF8
102
}
330
1CF8
100
AcDbProxyObject
 90
      499
 91
      510
 93
      121
310
905313A3230004000000000000344051
 94
        0
1001
ACAD
1000
AcadProxyRoundTripData
1071
      507
1071
   655383
1070
     0
  0
ACAD_PROXY_OBJECT
  5
1D01
102
{ACAD_REACTORS
330
1CF8
102
}
330
1CF8
100
AcDbProxyObject
 90
      499
 91
      510
 93
      121
310
905313A33300040000000000003E4051
 94
        0
1001
ACAD
1000
AcadProxyRoundTripData
1071
      507
1071
   655383
1070
     0
  0
ACAD_PROXY_OBJECT
  5
1D02
102
{ACAD_REACTORS
330
1CF8
102
}
330
1CF8
100
AcDbProxyObject
 90
      499
 91
      510
 93
      121
310
905313A3430004000000000000444051
 94
        0
1001
ACAD
1000
AcadProxyRoundTripData
1071
      507
1071
   655383
1070
     0
  0
ACAD_PROXY_OBJECT
  5
1D03
102
{ACAD_REACTORS
330
1CF8
102
}
330
1CF8
100
AcDbProxyObject
 90
      499
 91
      510
 93
      121
310
905313A3530004000000000000494051
 94
        0
1001
ACAD
1000
AcadProxyRoundTripData
1071
      507
1071
   655383
1070
     0
  0
ACAD_PROXY_OBJECT
  5
1D04
102
{ACAD_REACTORS
330
1CF8
102
}
330
1CF8
100
AcDbProxyObject
 90
      499
 91
      510
 93
      129
310
906313A313030004000000000000594038
 94
        0
1001
ACAD
1000
AcadProxyRoundTripData
1071
      507
1071
   655383
1070
     0
  0
ACAD_PROXY_OBJECT
  5
1D05
102
{ACAD_REACTORS
330
1CF8
102
}
330
1CF8
100
AcDbProxyObject
 90
      499
 91
      510
 93
      113
310
904323A31000000000000000010159
 94
        0
1001
ACAD
1000
AcadProxyRoundTripData
1071
      507
1071
   655383
1070
     0
  0
ACAD_PROXY_OBJECT
  5
1D06
102
{ACAD_REACTORS
330
1CF8
102
}
330
1CF8
100
AcDbProxyObject
 90
      499
 91
      510
 93
      113
310
904343A31000000000000000410159
 94
        0
1001
ACAD
1000
AcadProxyRoundTripData
1071
      507
1071
   655383
1070
     0
  0
ACAD_PROXY_OBJECT
  5
1D07
102
{ACAD_REACTORS
330
1CF8
102
}
330
1CF8
100
AcDbProxyObject
 90
      499
 91
      510
 93
      113
310
904383A31000000000000000810159
 94
        0
1001
ACAD
1000
AcadProxyRoundTripData
1071
      507
1071
   655383
1070
     0
  0
ACAD_PROXY_OBJECT
  5
1D08
102
{ACAD_REACTORS
330
1CF8
102
}
330
1CF8
100
AcDbProxyObject
 90
      499
 91
      510
 93
      121
310
90531303A31000000000000000910140
 94
        0
1001
ACAD
1000
AcadProxyRoundTripData
1071
      507
1071
   655383
1070
     0
  0
ACAD_PROXY_OBJECT
  5
1D09
102
{ACAD_REACTORS
330
1CF8
102
}
330
1CF8
100
AcDbProxyObject
 90
      499
 91
      510
 93
      129
310
9063130303A31000000000000001650138
 94
        0
1001
ACAD
1000
AcadProxyRoundTripData
1071
      507
1071
   655383
1070
     0
  0
ACAD_PROXY_OBJECT
  5
1D0A
102
{ACAD_REACTORS
330
1CF8
102
}
330
1CF8
100
AcDbProxyObject
 90
      499
 91
      510
 93
      265
310
90F312F31323822203D2031272D302200000000000000200FC00000000000028402B
 94
        0
1001
ACAD
1000
AcadProxyRoundTripData
1071
      507
1071
   655383
1070
     0
  0
ACAD_PROXY_OBJECT
  5
1D0B
102
{ACAD_REACTORS
330
1CF8
102
}
330
1CF8
100
AcDbProxyObject
 90
      499
 91
      510
 93
      257
310
90E312F363422203D2031272D302200000000000000240FC000000000000284040
 94
        0
1001
ACAD
1000
AcadProxyRoundTripData
1071
      507
1071
   655383
1070
     0
  0
ACAD_PROXY_OBJECT
  5
1D0C
102
{ACAD_REACTORS
330
1CF8
102
}
330
1CF8
100
AcDbProxyObject
 90
      499
 91
      510
 93
      257
310
90E312F333222203D2031272D302200000000000000280FC000000000000284040
 94
        0
1001
ACAD
1000
AcadProxyRoundTripData
1071
      507
1071
   655383
1070
     0
  0
ACAD_PROXY_OBJECT
  5
1D0D
102
{ACAD_REACTORS
330
1CF8
102
}
330
1CF8
100
AcDbProxyObject
 90
      499
 91
      510
 93
      257
310
90E312F313622203D2031272D3022000000000000002C0FC000000000000284040
 94
        0
1001
ACAD
1000
AcadProxyRoundTripData
1071
      507
1071
   655383
1070
     0
  0
ACAD_PROXY_OBJECT
  5
1D0E
102
{ACAD_REACTORS
330
1CF8
102
}
330
1CF8
100
AcDbProxyObject
 90
      499
 91
      510
 93
      257
310
90E332F333222203D2031272D3022000000000000002E0FC000000000000284040
 94
        0
1001
ACAD
1000
AcadProxyRoundTripData
1071
      507
1071
   655383
1070
     0
  0
ACAD_PROXY_OBJECT
  5
1D0F
102
{ACAD_REACTORS
330
1CF8
102
}
330
1CF8
100
AcDbProxyObject
 90
      499
 91
      510
 93
      249
310
90D312F3822203D2031272D302200000000000000300FC000000000000284040
 94
        0
1001
ACAD
1000
AcadProxyRoundTripData
1071
      507
1071
   655383
1070
     0
  0
ACAD_PROXY_OBJECT
  5
1D10
102
{ACAD_REACTORS
330
1CF8
102
}
330
1CF8
100
AcDbProxyObject
 90
      499
 91
      510
 93
      257
310
90E332F313622203D2031272D302200000000000000320FC000000000000284040
 94
        0
1001
ACAD
1000
AcadProxyRoundTripData
1071
      507
1071
   655383
1070
     0
  0
ACAD_PROXY_OBJECT
  5
1D11
102
{ACAD_REACTORS
330
1CF8
102
}
330
1CF8
100
AcDbProxyObject
 90
      499
 91
      510
 93
      249
310
90D312F3422203D2031272D302200000000000000340FC000000000000284040
 94
        0
1001
ACAD
1000
AcadProxyRoundTripData
1071
      507
1071
   655383
1070
     0
  0
ACAD_PROXY_OBJECT
  5
1D12
102
{ACAD_REACTORS
330
1CF8
102
}
330
1CF8
100
AcDbProxyObject
 90
      499
 91
      510
 93
      249
310
90D332F3822203D2031272D302200000000000000360FC000000000000284040
 94
        0
1001
ACAD
1000
AcadProxyRoundTripData
1071
      507
1071
   655383
1070
     0
  0
ACAD_PROXY_OBJECT
  5
1D13
102
{ACAD_REACTORS
330
1CF8
102
}
330
1CF8
100
AcDbProxyObject
 90
      499
 91
      510
 93
      249
310
90D312F3222203D2031272D302200000000000000380FC000000000000284040
 94
        0
1001
ACAD
1000
AcadProxyRoundTripData
1071
      507
1071
   655383
1070
     0
  0
ACAD_PROXY_OBJECT
  5
1D14
102
{ACAD_REACTORS
330
1CF8
102
}
330
1CF8
100
AcDbProxyObject
 90
      499
 91
      510
 93
      249
310
90D332F3422203D2031272D3022000000000000003A0FC000000000000284040
 94
        0
1001
ACAD
1000
AcadProxyRoundTripData
1071
      507
1071
   655383
1070
     0
  0
ACAD_PROXY_OBJECT
  5
1D15
102
{ACAD_REACTORS
330
1CF8
102
}
330
1CF8
100
AcDbProxyObject
 90
      499
 91
      510
 93
      169
310
90B3122203D2031272D3022004000000000000284020
 94
        0
1001
ACAD
1000
AcadProxyRoundTripData
1071
      507
1071
   655383
1070
     0
  0
ACAD_PROXY_OBJECT
  5
1D16
102
{ACAD_REACTORS
330
1CF8
102
}
330
1CF8
100
AcDbProxyObject
 90
      499
 91
      510
 93
      265
310
90F312D312F3222203D2031272D3022000000000000003E0FC00000000000028402B
 94
        0
1001
ACAD
1000
AcadProxyRoundTripData
1071
      507
1071
   655383
1070
     0
  0
ACAD_PROXY_OBJECT
  5
1D17
102
{ACAD_REACTORS
330
1CF8
102
}
330
1CF8
100
AcDbProxyObject
 90
      499
 91
      510
 93
      233
310
90B3322203D2031272D30220000000000000002100000000000000284000
 94
        0
1001
ACAD
1000
AcadProxyRoundTripData
1071
      507
1071
   655383
1070
     0
  0
ACAD_PROXY_OBJECT
  5
1D18
102
{ACAD_REACTORS
330
1CF8
102
}
330
1CF8
100
AcDbProxyObject
 90
      499
 91
      510
 93
      233
310
90B3622203D2031272D30220000000000000006100000000000000284000
 94
        0
1001
ACAD
1000
AcadProxyRoundTripData
1071
      507
1071
   655383
1070
     0
  0
ACAD_PROXY_OBJECT
  5
1D19
102
{ACAD_REACTORS
330
1CF8
102
}
330
1CF8
100
AcDbProxyObject
 90
      499
 91
      510
 93
      257
310
90E31272D3022203D2031272D3022000000000000000A100000000000000284040
 94
        0
1001
ACAD
1000
AcadProxyRoundTripData
1071
      507
1071
   655383
1070
     0
  0
ACAD_PROXY_OBJECT
  5
1CF7
102
{ACAD_XDICTIONARY
360
1D32
102
}
102
{ACAD_REACTORS
330
1CF6
102
}
330
1CF6
100
AcDbProxyObject
 90
      499
 91
      510
 93
     1849
310
4254DD185B99185C990028B81E85EB51B8AE3F2E07A17AD46E2B8FC02B5E8DC0F42B1CFD028000000C1008070000C3001FDFF8000000C1003FBFF000000182007F7FE00000030400FEFFC00000060801FDFF8000000C1003FBFF00000018200000000000000681FA0B0000001820100E000186003FBFF000000182007F7FE0
310
0000030400FEFFC00000060801FDFF8000000C1003FBFF000000182007F7FE000000304000AD7A3703D0AC73F4160000003040201C00030C007F7FE00000030400FEFFC00000060801FDFF8000000C1003FBFF000000182007F7FE00000030400FEFFC000000608000
340
16
340
16
340
16
 94
        0
1001
ACAD
1000
AcadProxyRoundTripData
1071
      506
1071
   655383
1070
     0
  0
ACAD_PROXY_OBJECT
  5
1CEA
102
{ACAD_REACTORS
330
1CE4
102
}
330
1CE4
100
AcDbProxyObject
 90
      499
 91
      510
 93
      444
310
430C9915DA5C99599C985B59401049028333333333333E3BF0000000000000FB0107901411070040501600405405064090741402480A0340
 94
        0
1001
ACAD
1000
AcDbSavedByObjectVersion
1070
     0
1000
AcadProxyRoundTripData
1071
      505
1071
   655383
1070
     0
  0
ACAD_PROXY_OBJECT
  5
1CEC
102
{ACAD_REACTORS
330
1CE4
102
}
330
1CE4
100
AcDbProxyObject
 90
      499
 91
      510
 93
      508
310
428CD108121A5919195B8010640502408333333333333E3BF0000000000000FB01079024090700405020000000000001110200405405064090740C02480A0340
 94
        0
1001
ACAD
1000
AcDbSavedByObjectVersion
1070
     0
1000
AcadProxyRoundTripData
1071
      505
1071
   655383
1070
     0
  0
ACAD_PROXY_OBJECT
  5
1CEB
102
{ACAD_REACTORS
330
1CE4
102
}
330
1CE4
100
AcDbProxyObject
 90
      499
 91
      510
 93
      444
310
430CD915DA5C99599C985B59401059028333333333333E3BF0000000000000FB0107901411070040501600405405064090741402480A0340
 94
        0
1001
ACAD
1000
AcDbSavedByObjectVersion
1070
     0
1000
AcadProxyRoundTripData
1071
      505
1071
   655383
1070
     0
  0
ACAD_PROXY_OBJECT
  5
1CE9
102
{ACAD_REACTORS
330
1CE4
102
}
330
1CE4
100
AcDbProxyObject
 90
      499
 91
      510
 93
      396
310
4190985CDA58C0107406404333333333333E3BF0000000000000FB0107A41107004050150841D405064090741402480A0356
 94
        0
1001
ACAD
1000
AcDbSavedByObjectVersion
1070
     0
1000
AcadProxyRoundTripData
1071
      505
1071
   655383
1070
     0
  0
ACAD_PROXY_OBJECT
  5
1CF0
102
{ACAD_REACTORS
330
1CE4
102
}
330
1CE4
100
AcDbProxyObject
 90
      499
 91
      510
 93
      436
310
42509C9A59DA1D195B8010C409028333333333333E3BF0000000000000FB010790141107004050150841D405064090741402480A029956
 94
        0
1001
ACAD
1000
AcDbSavedByObjectVersion
1070
     0
1000
AcadProxyRoundTripData
1071
      505
1071
   655383
1070
     0
  0
ACAD_PROXY_OBJECT
  5
1CF4
102
{ACAD_REACTORS
330
1CE4
102
}
330
1CE4
100
AcDbProxyObject
 90
      499
 91
      510
 93
      460
310
4310DBDB1BDC90DA185B99D9401104090240C333333333333E3BF0000000000000FB0108901411070040501508421405064090741402480A0354
 94
        0
1001
ACAD
1000
AcDbSavedByObjectVersion
1070
     0
1000
AcadProxyRoundTripData
1071
      505
1071
   655383
1070
     0
  0
ACAD_PROXY_OBJECT
  5
1CED
102
{ACAD_REACTORS
330
1CE4
102
}
330
1CE4
100
AcDbProxyObject
 90
      499
 91
      510
 93
      508
310
42D0DBDB98D95C1D1D585B0010940D028333333333333E3BF0000000000000FB0107902409070040501000000000000111010841D405064090740C02480A0340
 94
        0
1001
ACAD
1000
AcDbSavedByObjectVersion
1070
     0
1000
AcadProxyRoundTripData
1071
      505
1071
   655383
1070
     0
  0
ACAD_PROXY_OBJECT
  5
1CEF
102
{ACAD_REACTORS
330
1CE4
102
}
330
1CE4
100
AcDbProxyObject
 90
      499
 91
      510
 93
      420
310
41111A5B4010B409028333333333333E3BF0000000000000FB010790141107004050150841D405064090741402480A02677FFFFFDB
 94
        0
1001
ACAD
1000
AcDbSavedByObjectVersion
1070
     0
1000
AcadProxyRoundTripData
1071
      505
1071
   655383
1070
     0
  0
ACAD_PROXY_OBJECT
  5
1CF3
102
{ACAD_REACTORS
330
1CE4
102
}
330
1CE4
100
AcDbProxyObject
 90
      499
 91
      510
 93
      452
310
43119858D95C185D1D195C9B8010F409028333333333333E3BF0000000000000FB010790141107004050150841D405064090741402480A0350
 94
        0
1001
ACAD
1000
AcDbSavedByObjectVersion
1070
     0
1000
AcadProxyRoundTripData
1071
      505
1071
   655383
1070
     0
  0
ACAD_PROXY_OBJECT
  5
1CE5
102
{ACAD_REACTORS
330
1CE4
102
}
330
1CE4
100
AcDbProxyObject
 90
      499
 91
      510
 93
      396
310
41519B185D00240901404333333333333E3BF0000000000000F9010740A41107004050150841D405064090741402480A1B55
 94
        0
1001
ACAD
1000
AcDbSavedByObjectVersion
1070
     0
1000
AcadProxyRoundTripData
1071
      505
1071
   655383
1070
     0
  0
ACAD_PROXY_OBJECT
  5
1CE6
102
{ACAD_REACTORS
330
1CE4
102
}
330
1CE4
100
AcDbProxyObject
 90
      499
 91
      510
 93
      484
310
43919B185D15DA5D1A115919D95CC010140901404333333333333E3BF0000000000000F9010740901411070040501600405405064090741402480A1B50
 94
        0
1001
ACAD
1000
AcDbSavedByObjectVersion
1070
     0
1000
AcadProxyRoundTripData
1071
      505
1071
   655383
1070
     0
  0
ACAD_PROXY_OBJECT
  5
1CE7
102
{ACAD_REACTORS
330
1CE4
102
}
330
1CE4
100
AcDbProxyObject
 90
      499
 91
      510
 93
      420
310
4211DBDD5C985D590010240902404333333333333E3BF0000000000000F9010740A411070040501641D405064090741402480A1B50
 94
        0
1001
ACAD
1000
AcDbSavedByObjectVersion
1070
     0
1000
AcadProxyRoundTripData
1071
      505
1071
   655383
1070
     0
  0
ACAD_PROXY_OBJECT
  5
1CE8
102
{ACAD_REACTORS
330
1CE4
102
}
330
1CE4
100
AcDbProxyObject
 90
      499
 91
      510
 93
      508
310
4451DBDD5C985D5915DA5D1A115919D95CC010340902404333333333333E3BF0000000000000F9010740901411070040501600405405064090741402480A1B50
 94
        0
1001
ACAD
1000
AcDbSavedByObjectVersion
1070
     0
1000
AcadProxyRoundTripData
1071
      505
1071
   655383
1070
     0
  0
ACAD_PROXY_OBJECT
  5
1CF2
102
{ACAD_REACTORS
330
1CE4
102
}
330
1CE4
100
AcDbProxyObject
 90
      499
 91
      510
 93
      452
310
43131A5B995C185D1D195C9B8010E409028333333333333E3BF0000000000000FB010790141107004050750841D405064090741402483A0350
 94
        0
1001
ACAD
1000
AcDbSavedByObjectVersion
1070
     0
1000
AcadProxyRoundTripData
1071
      505
1071
   655383
1070
     0
  0
ACAD_PROXY_OBJECT
  5
1CEE
102
{ACAD_REACTORS
330
1CE4
102
}
330
1CE4
100
AcDbProxyObject
 90
      499
 91
      510
 93
      428
310
429499585B1A5CDD1A58C0108409028333333333333E3BF0000000000000FB01079019070040501508421405064090741402480A1B45
 94
        0
1001
ACAD
1000
AcDbSavedByObjectVersion
1070
     0
1000
AcadProxyRoundTripData
1071
      505
1071
   655383
1070
     0
  0
ACAD_PROXY_OBJECT
  5
1CF1
102
{ACAD_REACTORS
330
1CE4
102
}
330
1CE4
100
AcDbProxyObject
 90
      499
 91
      510
 93
      420
310
42151A1A58DAD95B8010D409028333333333333E3BF0000000000000FB010790141107004050150C41D405064090741402480A0352
 94
        0
1001
ACAD
1000
AcDbSavedByObjectVersion
1070
     0
1000
AcadProxyRoundTripData
1071
      505
1071
   655383
1070
     0
  0
XRECORD
  5
2DB5
102
{ACAD_REACTORS
330
2DAB
102
}
330
2DAB
100
AcDbXrecord
 90
        0
  0
XRECORD
  5
2DB9
102
{ACAD_REACTORS
330
2DAB
102
}
330
2DAB
100
AcDbXrecord
1000
DSTYLE
1002
{
1070
   179
 70
     2
1070
   277
 70
     6
1002
}
  0
XRECORD
  5
2DB6
102
{ACAD_REACTORS
330
2DAB
102
}
330
2DAB
100
AcDbXrecord
  1
{6385560B-F4B1-4644-A7C2-A3E32AC3D232}
  0
XRECORD
  5
2DAE
102
{ACAD_REACTORS
330
2DAB
102
}
330
2DAB
100
AcDbXrecord
  1

  0
XRECORD
  5
2DB4
102
{ACAD_REACTORS
330
2DAB
102
}
330
2DAB
100
AcDbXrecord
 90
        0
  0
XRECORD
  5
2DB0
102
{ACAD_REACTORS
330
2DAB
102
}
330
2DAB
100
AcDbXrecord
340
61
  0
XRECORD
  5
2DB3
102
{ACAD_REACTORS
330
2DAB
102
}
330
2DAB
100
AcDbXrecord
 90
    10781
  0
XRECORD
  5
2DB1
102
{ACAD_REACTORS
330
2DAB
102
}
330
2DAB
100
AcDbXrecord
340
77
  0
XRECORD
  5
2DB2
102
{ACAD_REACTORS
330
2DAB
102
}
330
2DAB
100
AcDbXrecord
340
6
  0
XRECORD
  5
2DB8
102
{ACAD_REACTORS
330
2DAB
102
}
330
2DAB
100
AcDbXrecord
 40
0.0
  0
XRECORD
  5
2DBC
102
{ACAD_REACTORS
330
2DAB
102
}
330
2DAB
100
AcDbXrecord
340
0
  0
XRECORD
  5
2DC2
102
{ACAD_REACTORS
330
2DAB
102
}
330
2DAB
100
AcDbXrecord
 10
0.0
 20
0.0
 30
0.0
  0
XRECORD
  5
2DBE
102
{ACAD_REACTORS
330
2DAB
102
}
330
2DAB
100
AcDbXrecord
 10
0.0
 20
0.0
 30
0.0
  0
XRECORD
  5
2DC1
102
{ACAD_REACTORS
330
2DAB
102
}
330
2DAB
100
AcDbXrecord
 10
0.0
 20
0.0
 30
0.0
  0
XRECORD
  5
2DBF
102
{ACAD_REACTORS
330
2DAB
102
}
330
2DAB
100
AcDbXrecord
 10
0.0
 20
0.0
 30
0.0
  0
XRECORD
  5
2DC0
102
{ACAD_REACTORS
330
2DAB
102
}
330
2DAB
100
AcDbXrecord
 10
0.0
 20
0.0
 30
0.0
  0
XRECORD
  5
2DBD
102
{ACAD_REACTORS
330
2DAB
102
}
330
2DAB
100
AcDbXrecord
 10
0.0
 20
0.0
 30
0.0
  0
XRECORD
  5
2DBA
102
{ACAD_REACTORS
330
2DAB
102
}
330
2DAB
100
AcDbXrecord
340
0
  0
XRECORD
  5
2DBB
102
{ACAD_REACTORS
330
2DAB
102
}
330
2DAB
100
AcDbXrecord
 70
     0
  0
XRECORD
  5
2DAF
102
{ACAD_REACTORS
330
2DAB
102
}
330
2DAB
100
AcDbXrecord
  1
Sekkei.ctb
  0
XRECORD
  5
2DAC
102
{ACAD_REACTORS
330
2DAB
102
}
330
2DAB
100
AcDbXrecord
 90
        1
  0
XRECORD
  5
2DAD
102
{ACAD_REACTORS
330
2DAB
102
}
330
2DAB
100
AcDbXrecord
 90
       70
  0
XRECORD
  5
2DC5
102
{ACAD_REACTORS
330
2DAB
102
}
330
2DAB
100
AcDbXrecord
340
0
  0
XRECORD
  5
2DCB
102
{ACAD_REACTORS
330
2DAB
102
}
330
2DAB
100
AcDbXrecord
 10
0.0
 20
0.0
 30
0.0
  0
XRECORD
  5
2DC7
102
{ACAD_REACTORS
330
2DAB
102
}
330
2DAB
100
AcDbXrecord
 10
0.0
 20
0.0
 30
0.0
  0
XRECORD
  5
2DCA
102
{ACAD_REACTORS
330
2DAB
102
}
330
2DAB
100
AcDbXrecord
 10
0.0
 20
0.0
 30
0.0
  0
XRECORD
  5
2DC8
102
{ACAD_REACTORS
330
2DAB
102
}
330
2DAB
100
AcDbXrecord
 10
0.0
 20
0.0
 30
0.0
  0
XRECORD
  5
2DC9
102
{ACAD_REACTORS
330
2DAB
102
}
330
2DAB
100
AcDbXrecord
 10
0.0
 20
0.0
 30
0.0
  0
XRECORD
  5
2DC6
102
{ACAD_REACTORS
330
2DAB
102
}
330
2DAB
100
AcDbXrecord
 10
0.0
 20
0.0
 30
0.0
  0
XRECORD
  5
2DC3
102
{ACAD_REACTORS
330
2DAB
102
}
330
2DAB
100
AcDbXrecord
340
0
  0
XRECORD
  5
2DC4
102
{ACAD_REACTORS
330
2DAB
102
}
330
2DAB
100
AcDbXrecord
 70
     0
  0
XRECORD
  5
2DB7
102
{ACAD_REACTORS
330
2DAB
102
}
330
2DAB
100
AcDbXrecord
  1
{D9C68402-6B0B-4EF9-AD5B-CDF37BD82B24}
  0
DICTIONARYVAR
  5
1D55
102
{ACAD_REACTORS
330
102
102
}
330
102
100
DictionaryVariables
280
     0
  1
1:1
  0
DICTIONARYVAR
  5
1D54
102
{ACAD_REACTORS
330
102
102
}
330
102
100
DictionaryVariables
280
     0
  1
STANDARD
  0
DICTIONARYVAR
  5
1D53
102
{ACAD_REACTORS
330
102
102
}
330
102
100
DictionaryVariables
280
     0
  1
STANDARD
  0
DICTIONARYVAR
  5
103
102
{ACAD_REACTORS
330
102
102
}
330
102
100
DictionaryVariables
280
     0
  1
1
  0
DICTIONARYVAR
  5
1D56
102
{ACAD_REACTORS
330
102
102
}
330
102
100
DictionaryVariables
280
     0
  1
0
  0
DICTIONARYVAR
  5
549
102
{ACAD_REACTORS
330
102
102
}
330
102
100
DictionaryVariables
280
     0
  1
96
  0
DICTIONARY
  5
1CD5
330
1CD4
100
AcDbDictionary
280
     1
  3
ACAD_XREC_ROUNDTRIP
360
2D8C
  3
BUMPTILE
360
1CD7
  3
DIFFUSETILE
360
1CD6
  3
OPACITYTILE
360
1CDA
  3
REFLECTIONTILE
360
1CD9
  3
REFRACTIONTILE
360
1CDB
  3
SPECULARTILE
360
1CD8
  0
DICTIONARY
  5
1CCD
330
1CCC
100
AcDbDictionary
280
     1
  3
ACAD_XREC_ROUNDTRIP
360
2D8B
  3
BUMPTILE
360
1CCF
  3
DIFFUSETILE
360
1CCE
  3
OPACITYTILE
360
1CD2
  3
REFLECTIONTILE
360
1CD1
  3
REFRACTIONTILE
360
1CD3
  3
SPECULARTILE
360
1CD0
  0
DICTIONARY
  5
1CDD
330
1CDC
100
AcDbDictionary
280
     1
  3
ACAD_XREC_ROUNDTRIP
360
2D8D
  3
BUMPTILE
360
1CDF
  3
DIFFUSETILE
360
1CDE
  3
OPACITYTILE
360
1CE2
  3
REFLECTIONTILE
360
1CE1
  3
REFRACTIONTILE
360
1CE3
  3
SPECULARTILE
360
1CE0
  0
DICTIONARY
  5
1D32
330
1CF7
100
AcDbDictionary
280
     1
  3
ACAD_ROUNDTRIP_2008_TABLES
360
2D77
  3
ACAD_XREC_ROUNDTRIP
360
2D8E
  0
XRECORD
  5
2D8C
102
{ACAD_REACTORS
330
1CD5
102
}
330
1CD5
100
AcDbXrecord
102
MATERIAL
148
0.0
149
0.0
149
0.0
 93
        0
 94
      127
282
     0
 72
     0
 77
     0
171
     0
175
     0
179
     0
273
     0
  0
XRECORD
  5
1CD7
102
{ACAD_REACTORS
330
1CD5
102
}
330
1CD5
100
AcDbXrecord
270
     1
271
     1
  0
XRECORD
  5
1CD6
102
{ACAD_REACTORS
330
1CD5
102
}
330
1CD5
100
AcDbXrecord
270
     1
271
     1
  0
XRECORD
  5
1CDA
102
{ACAD_REACTORS
330
1CD5
102
}
330
1CD5
100
AcDbXrecord
270
     1
271
     1
  0
XRECORD
  5
1CD9
102
{ACAD_REACTORS
330
1CD5
102
}
330
1CD5
100
AcDbXrecord
270
     1
271
     1
  0
XRECORD
  5
1CDB
102
{ACAD_REACTORS
330
1CD5
102
}
330
1CD5
100
AcDbXrecord
270
     1
271
     1
  0
XRECORD
  5
1CD8
102
{ACAD_REACTORS
330
1CD5
102
}
330
1CD5
100
AcDbXrecord
270
     1
271
     1
  0
XRECORD
  5
2D8B
102
{ACAD_REACTORS
330
1CCD
102
}
330
1CCD
100
AcDbXrecord
102
MATERIAL
148
0.0
149
0.0
149
0.0
 93
        0
 94
      127
282
     0
 72
     0
 77
     0
171
     0
175
     0
179
     0
273
     0
  0
XRECORD
  5
1CCF
102
{ACAD_REACTORS
330
1CCD
102
}
330
1CCD
100
AcDbXrecord
270
     1
271
     1
  0
XRECORD
  5
1CCE
102
{ACAD_REACTORS
330
1CCD
102
}
330
1CCD
100
AcDbXrecord
270
     1
271
     1
  0
XRECORD
  5
1CD2
102
{ACAD_REACTORS
330
1CCD
102
}
330
1CCD
100
AcDbXrecord
270
     1
271
     1
  0
XRECORD
  5
1CD1
102
{ACAD_REACTORS
330
1CCD
102
}
330
1CCD
100
AcDbXrecord
270
     1
271
     1
  0
XRECORD
  5
1CD3
102
{ACAD_REACTORS
330
1CCD
102
}
330
1CCD
100
AcDbXrecord
270
     1
271
     1
  0
XRECORD
  5
1CD0
102
{ACAD_REACTORS
330
1CCD
102
}
330
1CCD
100
AcDbXrecord
270
     1
271
     1
  0
XRECORD
  5
2D8D
102
{ACAD_REACTORS
330
1CDD
102
}
330
1CDD
100
AcDbXrecord
102
MATERIAL
148
0.0
149
0.0
149
0.0
 93
        0
 94
      127
282
     0
 72
     0
 77
     0
171
     0
175
     0
179
     0
273
     0
  0
XRECORD
  5
1CDF
102
{ACAD_REACTORS
330
1CDD
102
}
330
1CDD
100
AcDbXrecord
270
     1
271
     1
  0
XRECORD
  5
1CDE
102
{ACAD_REACTORS
330
1CDD
102
}
330
1CDD
100
AcDbXrecord
270
     1
271
     1
  0
XRECORD
  5
1CE2
102
{ACAD_REACTORS
330
1CDD
102
}
330
1CDD
100
AcDbXrecord
270
     1
271
     1
  0
XRECORD
  5
1CE1
102
{ACAD_REACTORS
330
1CDD
102
}
330
1CDD
100
AcDbXrecord
270
     1
271
     1
  0
XRECORD
  5
1CE3
102
{ACAD_REACTORS
330
1CDD
102
}
330
1CDD
100
AcDbXrecord
270
     1
271
     1
  0
XRECORD
  5
1CE0
102
{ACAD_REACTORS
330
1CDD
102
}
330
1CDD
100
AcDbXrecord
270
     1
271
     1
  0
ACAD_PROXY_OBJECT
  5
2D77
102
{ACAD_REACTORS
330
1D32
102
}
330
1D32
100
AcDbProxyObject
 90
      499
 91
      510
 93
     5304
310
40D054060020000020000003200101A000080002A5058000000C100000000000000340FD012E07A17AD46E2B8FCB81E85EB51B8AE3F2E07A17AD46E2B8FCB81E85EB51B8AE3F02B5E8DC0F42B1CFC0AD7A3703D0AC73F419019018000000C1003FBFFFFFE02B5E8DC0F42A9CFD029018000000C1003FBFFFFFE02B5E8DC0F4
310
2A9CFD049018000000C1003FBFFFFFE02B5E8DC0F42A9CFD089018000000C1003FBFFFFFE02B5E8DC0F42A9CFD109018000000C1003FBFFFFFE02B5E8DC0F42A9CFD209018000000C1003FBFFFFFE02B5E8DC0F42A9CFD01405075F5449544C450041501A8000000C800406800020000A9416000000304000AD7A3703D0AC7
310
3F404B81E85EB51B8AE3F2E07A17AD46E2B8FCB81E85EB51B8AE3F2E07A17AD46E2B8FC0AD7A3703D0AC73F02B5E8DC0F42B1CFD0640640600000030400FEFFFFFF80AD7A3703D0AA73F40A40600000030400FEFFFFFF80AD7A3703D0AA73F41240600000030400FEFFFFFF80AD7A3703D0AA73F42240600000030400FEFFF
310
FFF80AD7A3703D0AA73F44240600000030400FEFFFFFF80AD7A3703D0AA73F48240600000030400FEFFFFFF80AD7A3703D0AA73F409014217D2115051115480105406A0000003200101A000080002A5028000000C10002B5E8DC0F42B1CFD012E07A17AD46E2B8FCB81E85EB51B8AE3F2E07A17AD46E2B8FCB81E85EB51B8A
310
E3F02B5E8DC0F42B1CFC0AD7A3703D0AC73F419019018000000C1003FBFFFFFE02B5E8DC0F42A9CFD029018000000C1003FBFFFFFE02B5E8DC0F42A9CFD049018000000C1003FBFFFFFE02B5E8DC0F42A9CFD089018000000C1003FBFFFFFE02B5E8DC0F42A9CFD109018000000C1003FBFFFFFE02B5E8DC0F42A9CFD20901
310
8000000C1003FBFFFFFE02B5E8DC0F42A9CFD03409065F444154410000
340
16
340
0
340
0
340
0
340
0
340
0
340
0
340
16
340
0
340
0
340
0
340
0
340
0
340
0
340
16
340
0
340
0
340
0
340
0
340
0
340
0
 94
        0
1001
ACAD
1000
AcadProxyRoundTripData
1071
      509
1071
   655383
1070
     0
  0
XRECORD
  5
2D8E
102
{ACAD_REACTORS
330
1D32
102
}
330
1D32
100
AcDbXrecord
102
ACAD_ROUNDTRIP_PRE2007_TABLESTYLE
 90
      512
 91
        0
  1

 92
      512
 93
        0
  2

 94
      512
 95
        0
  3

  0
ENDSEC
  0
EOF
