  0
SECTION
  2
HEADER
  9
$ACADVER
  1
AC1014
  9
$ACADMAINTVER
 70
     9
  9
$DWGCODEPAGE
  3
ANSI_932
  9
$INSBASE
 10
0.0
 20
0.0
 30
0.0
  9
$EXTMIN
 10
42.30046278926159
 20
57.44019796454683
 30
0.0
  9
$EXTMAX
 10
732.8518023060722
 20
347.5176682526059
 30
0.0
  9
$LIMMIN
 10
0.0
 20
0.0
  9
$LIMMAX
 10
297.0
 20
210.0
  9
$ORTHOMODE
 70
     1
  9
$REGENMODE
 70
     1
  9
$FILLMODE
 70
     1
  9
$QTEXTMODE
 70
     0
  9
$MIRRTEXT
 70
     0
  9
$DRAGMODE
 70
     2
  9
$LTSCALE
 40
2.0
  9
$OSMODE
 70
    37
  9
$ATTMODE
 70
     1
  9
$TEXTSIZE
 40
2.0
  9
$TRACEWID
 40
1.0
  9
$TEXTSTYLE
  7
STANDARD
  9
$CLAYER
  8
0
  9
$CELTYPE
  6
BYLAYER
  9
$CECOLOR
 62
   256
  9
$CELTSCALE
 40
1.0
  9
$DELOBJ
 70
     1
  9
$DISPSILH
 70
     0
  9
$DIMSCALE
 40
2.0
  9
$DIMASZ
 40
1.8
  9
$DIMEXO
 40
0.625
  9
$DIMDLI
 40
3.75
  9
$DIMRND
 40
0.0
  9
$DIMDLE
 40
0.0
  9
$DIMEXE
 40
0.8
  9
$DIMTP
 40
0.0
  9
$DIMTM
 40
0.0
  9
$DIMTXT
 40
1.8
  9
$DIMCEN
 40
2.5
  9
$DIMTSZ
 40
0.0
  9
$DIMTOL
 70
     0
  9
$DIMLIM
 70
     0
  9
$DIMTIH
 70
     0
  9
$DIMTOH
 70
     0
  9
$DIMSE1
 70
     0
  9
$DIMSE2
 70
     0
  9
$DIMTAD
 70
     1
  9
$DIMZIN
 70
     8
  9
$DIMBLK
  1

  9
$DIMASO
 70
     1
  9
$DIMSHO
 70
     1
  9
$DIMPOST
  1

  9
$DIMAPOST
  1

  9
$DIMALT
 70
     0
  9
$DIMALTD
 70
     4
  9
$DIMALTF
 40
0.0394
  9
$DIMLFAC
 40
1.0
  9
$DIMTOFL
 70
     1
  9
$DIMTVP
 40
0.0
  9
$DIMTIX
 70
     0
  9
$DIMSOXD
 70
     0
  9
$DIMSAH
 70
     0
  9
$DIMBLK1
  1

  9
$DIMBLK2
  1

  9
$DIMSTYLE
  2
STANDARD
  9
$DIMCLRD
 70
     0
  9
$DIMCLRE
 70
     0
  9
$DIMCLRT
 70
     0
  9
$DIMTFAC
 40
1.0
  9
$DIMGAP
 40
0.75
  9
$DIMJUST
 70
     0
  9
$DIMSD1
 70
     0
  9
$DIMSD2
 70
     0
  9
$DIMTOLJ
 70
     1
  9
$DIMTZIN
 70
     0
  9
$DIMALTZ
 70
     0
  9
$DIMALTTZ
 70
     0
  9
$DIMFIT
 70
     3
  9
$DIMUPT
 70
     0
  9
$DIMUNIT
 70
     8
  9
$DIMDEC
 70
     2
  9
$DIMTDEC
 70
     2
  9
$DIMALTU
 70
     8
  9
$DIMALTTD
 70
     4
  9
$DIMTXSTY
  7
STANDARD
  9
$DIMAUNIT
 70
     0
  9
$LUNITS
 70
     2
  9
$LUPREC
 70
     3
  9
$SKETCHINC
 40
1.0
  9
$FILLETRAD
 40
10.0
  9
$AUNITS
 70
     0
  9
$AUPREC
 70
     2
  9
$MENU
  1
.
  9
$ELEVATION
 40
0.0
  9
$PELEVATION
 40
0.0
  9
$THICKNESS
 40
0.0
  9
$LIMCHECK
 70
     0
  9
$BLIPMODE
 70
     0
  9
$CHAMFERA
 40
0.0
  9
$CHAMFERB
 40
0.0
  9
$CHAMFERC
 40
20.0
  9
$CHAMFERD
 40
0.0
  9
$SKPOLY
 70
     0
  9
$TDCREATE
 40
2454410.388680555
  9
$TDUPDATE
 40
2454425.763780196
  9
$TDINDWG
 40
0.0738566667
  9
$TDUSRTIMER
 40
0.0738566667
  9
$USRTIMER
 70
     1
  9
$ANGBASE
 50
0.0
  9
$ANGDIR
 70
     0
  9
$PDMODE
 70
     0
  9
$PDSIZE
 40
-10.0
  9
$PLINEWID
 40
0.0
  9
$COORDS
 70
     0
  9
$SPLFRAME
 70
     0
  9
$SPLINETYPE
 70
     6
  9
$SPLINESEGS
 70
     8
  9
$ATTDIA
 70
     0
  9
$ATTREQ
 70
     1
  9
$HANDLING
 70
-16383
  9
$HANDSEED
  5
2B1C
  9
$SURFTAB1
 70
     6
  9
$SURFTAB2
 70
     6
  9
$SURFTYPE
 70
     6
  9
$SURFU
 70
     6
  9
$SURFV
 70
     6
  9
$UCSNAME
  2

  9
$UCSORG
 10
0.0
 20
0.0
 30
0.0
  9
$UCSXDIR
 10
1.0
 20
0.0
 30
0.0
  9
$UCSYDIR
 10
0.0
 20
1.0
 30
0.0
  9
$PUCSNAME
  2

  9
$PUCSORG
 10
0.0
 20
0.0
 30
0.0
  9
$PUCSXDIR
 10
1.0
 20
0.0
 30
0.0
  9
$PUCSYDIR
 10
0.0
 20
1.0
 30
0.0
  9
$USERI1
 70
     0
  9
$USERI2
 70
     0
  9
$USERI3
 70
     0
  9
$USERI4
 70
     0
  9
$USERI5
 70
     0
  9
$USERR1
 40
0.0
  9
$USERR2
 40
0.0
  9
$USERR3
 40
0.0
  9
$USERR4
 40
0.0
  9
$USERR5
 40
0.0
  9
$WORLDVIEW
 70
     1
  9
$SHADEDGE
 70
     3
  9
$SHADEDIF
 70
    70
  9
$TILEMODE
 70
     1
  9
$MAXACTVP
 70
    48
  9
$PINSBASE
 10
0.0
 20
0.0
 30
0.0
  9
$PLIMCHECK
 70
     0
  9
$PEXTMIN
 10
0.0
 20
0.0
 30
0.0
  9
$PEXTMAX
 10
0.0
 20
0.0
 30
0.0
  9
$PLIMMIN
 10
0.0
 20
0.0
  9
$PLIMMAX
 10
12.0
 20
9.0
  9
$UNITMODE
 70
     0
  9
$VISRETAIN
 70
     1
  9
$PLINEGEN
 70
     0
  9
$PSLTSCALE
 70
     1
  9
$TREEDEPTH
 70
  3020
  9
$PICKSTYLE
 70
     1
  9
$CMLSTYLE
  2
STANDARD
  9
$CMLJUST
 70
     0
  9
$CMLSCALE
 40
1.0
  9
$PROXYGRAPHICS
 70
     1
  9
$MEASUREMENT
 70
     0
  0
ENDSEC
  0
SECTION
  2
CLASSES
  0
CLASS
  1
DICTIONARYVAR
  2
AcDbDictionaryVar
  3
AutoCAD 2000
 90
        0
280
     0
281
     0
  0
CLASS
  1
ACDBDICTIONARYWDFLT
  2
AcDbDictionaryWithDefault
  3
AutoCAD 2000
 90
        0
280
     0
281
     0
  0
CLASS
  1
ACDBPLACEHOLDER
  2
AcDbPlaceHolder
  3
AutoCAD 2000
 90
        0
280
     0
281
     0
  0
CLASS
  1
LAYOUT
  2
AcDbLayout
  3
AutoCAD 2000
 90
        0
280
     0
281
     0
  0
CLASS
  1
MATERIAL
  2
AcDbMaterial
  3
ObjectDBX Classes
 90
     1153
280
     0
281
     0
  0
CLASS
  1
VISUALSTYLE
  2
AcDbVisualStyle
  3
ObjectDBX Classes
 90
     4095
280
     0
281
     0
  0
CLASS
  1
TABLESTYLE
  2
AcDbTableStyle
  3
ObjectDBX Classes
 90
     4095
280
     0
281
     0
  0
CLASS
  1
SCALE
  2
AcDbScale
  3
ObjectDBX Classes
 90
     1153
280
     0
281
     0
  0
CLASS
  1
MLEADERSTYLE
  2
AcDbMLeaderStyle
  3
ACDB_MLEADERSTYLE_CLASS
 90
     4095
280
     0
281
     0
  0
CLASS
  1
CELLSTYLEMAP
  2
AcDbCellStyleMap
  3
ObjectDBX Classes
 90
     1152
280
     0
281
     0
  0
CLASS
  1
ACAD_PROXY_OBJECT_WRAPPER
  2
AcDbProxyObjectWrapper
  3
AutoCAD 2000
 90
        0
280
     0
281
     0
  0
CLASS
  1
LONG_TRANSACTION
  2
AcDbLongTransaction
  3
AutoCAD 2000
 90
        0
280
     0
281
     0
  0
CLASS
  1
LWPOLYLINE
  2
AcDbPolyline
  3
AutoCAD 2000
 90
        0
280
     0
281
     1
  0
CLASS
  1
HATCH
  2
AcDbHatch
  3
AutoCAD 2000
 90
        0
280
     0
281
     1
  0
CLASS
  1
XRECORD
  2
AcDbXrecord
  3
AutoCAD 2000
 90
        0
280
     0
281
     0
  0
ENDSEC
  0
SECTION
  2
TABLES
  0
TABLE
  2
VPORT
  5
6E
102
{ACAD_XDICTIONARY
360
1D3F
102
}
330
0
100
AcDbSymbolTable
 70
     2
  0
VPORT
  5
2AF6
330
6E
100
AcDbSymbolTableRecord
100
AcDbViewportTableRecord
  2
*ACTIVE
 70
     0
 10
0.0
 20
0.0
 11
1.0
 21
1.0
 12
435.2810131489015
 22
195.3600379927893
 13
0.0
 23
0.0
 14
10.0
 24
10.0
 15
10.0
 25
10.0
 16
0.0
 26
0.0
 36
1.0
 17
0.0
 27
0.0
 37
0.0
 40
450.2359799603868
 41
1.753504672897196
 42
50.0
 43
0.0
 44
0.0
 50
0.0
 51
0.0
 71
     0
 72
   100
 73
     1
 74
     3
 75
     0
 76
     0
 77
     0
 78
     0
  0
ENDTAB
  0
TABLE
  2
LTYPE
  5
69
330
0
100
AcDbSymbolTable
 70
     5
  0
LTYPE
  5
6A
330
69
100
AcDbSymbolTableRecord
100
AcDbLinetypeTableRecord
  2
BYBLOCK
 70
     0
  3

 72
    65
 73
     0
 40
0.0
  0
LTYPE
  5
6B
330
69
100
AcDbSymbolTableRecord
100
AcDbLinetypeTableRecord
  2
BYLAYER
 70
     0
  3

 72
    65
 73
     0
 40
0.0
  0
LTYPE
  5
8
330
69
100
AcDbSymbolTableRecord
100
AcDbLinetypeTableRecord
  2
CONTINUOUS
 70
     0
  3
Solid line
 72
    65
 73
     0
 40
0.0
  0
LTYPE
  5
27C
330
69
100
AcDbSymbolTableRecord
100
AcDbLinetypeTableRecord
  2
SEKKEI_A2_
 70
     0
  3
center(A2)  ____ _ ____ _ ____ _ ____ _ ____ _ 
 72
    65
 73
     4
 40
14.28749999999999
 49
9.525
 74
     0
 49
-1.587499999999999
 74
     0
 49
1.587499999999999
 74
     0
 49
-1.587499999999999
 74
     0
  0
LTYPE
  5
7F0
330
69
100
AcDbSymbolTableRecord
100
AcDbLinetypeTableRecord
  2
HIDDEN3
 70
     0
  3
Hidden (.3x) _ _ _ _ _ _ _ _ _ _ _ _ _ _ _ _ _
 72
    65
 73
     2
 40
2.857499999999999
 49
1.905
 74
     0
 49
-0.9525
 74
     0
  0
LTYPE
  5
AFE
330
69
100
AcDbSymbolTableRecord
100
AcDbLinetypeTableRecord
  2
CENS
 70
     0
  3
(一点鎖線１)---- - ---- - ---- - ---- - ---- - 
 72
    65
 73
     4
 40
7.0
 49
4.0
 74
     0
 49
-1.0
 74
     0
 49
1.0
 74
     0
 49
-1.0
 74
     0
  0
ENDTAB
  0
TABLE
  2
LAYER
  5
66
102
{ACAD_XDICTIONARY
360
AFF
102
}
330
0
100
AcDbSymbolTable
 70
     9
  0
LAYER
  5
5E
102
{ACAD_XDICTIONARY
360
1D22
102
}
330
66
100
AcDbSymbolTableRecord
100
AcDbLayerTableRecord
  2
0
 70
     0
 62
     7
  6
CONTINUOUS
  0
LAYER
  5
3E
102
{ACAD_XDICTIONARY
360
1D24
102
}
330
66
100
AcDbSymbolTableRecord
100
AcDbLayerTableRecord
  2
CENTER
 70
     0
 62
     3
  6
SEKKEI_A2_
  0
LAYER
  5
2B5
102
{ACAD_XDICTIONARY
360
1D2A
102
}
330
66
100
AcDbSymbolTableRecord
100
AcDbLayerTableRecord
  2
HIDS
 70
     0
 62
     1
  6
HIDDEN3
  0
LAYER
  5
2BA
102
{ACAD_XDICTIONARY
360
1D2C
102
}
330
66
100
AcDbSymbolTableRecord
100
AcDbLayerTableRecord
  2
HOJO
 70
     0
 62
     4
  6
CONTINUOUS
  0
LAYER
  5
3FA
102
{ACAD_XDICTIONARY
360
1D30
102
}
330
66
100
AcDbSymbolTableRecord
100
AcDbLayerTableRecord
  2
TITLE
 70
     0
 62
     4
  6
CONTINUOUS
  0
ENDTAB
  0
TABLE
  2
STYLE
  5
67
330
0
100
AcDbSymbolTable
 70
     1
  0
STYLE
  5
16
330
67
100
AcDbSymbolTableRecord
100
AcDbTextStyleTableRecord
  2
STANDARD
 70
     0
 40
0.0
 41
1.0
 50
0.0
 71
     0
 42
2.0
  3
simplex.shx
  4
extfont.shx
  0
ENDTAB
  0
TABLE
  2
VIEW
  5
6C
330
0
100
AcDbSymbolTable
 70
     0
  0
ENDTAB
  0
TABLE
  2
UCS
  5
6D
330
0
100
AcDbSymbolTable
 70
     0
  0
ENDTAB
  0
TABLE
  2
APPID
  5
70
330
0
100
AcDbSymbolTable
 70
     4
  0
APPID
  5
71
330
70
100
AcDbSymbolTableRecord
100
AcDbRegAppTableRecord
  2
ACAD
 70
     0
  0
APPID
  5
1D1F
330
70
100
AcDbSymbolTableRecord
100
AcDbRegAppTableRecord
  2
ACAD_MLEADERVER
 70
     0
  0
APPID
  5
1D5C
330
70
100
AcDbSymbolTableRecord
100
AcDbRegAppTableRecord
  2
ACAD_DSTYLE_DIMRADIAL_EXTENSION
 70
     0
  0
APPID
  5
1E07
330
70
100
AcDbSymbolTableRecord
100
AcDbRegAppTableRecord
  2
ACAD_EXEMPT_FROM_CAD_STANDARDS
 70
     0
  0
ENDTAB
  0
TABLE
  2
DIMSTYLE
  5
72
330
0
100
AcDbSymbolTable
 70
     1
  0
DIMSTYLE
105
73
330
72
100
AcDbSymbolTableRecord
100
AcDbDimStyleTableRecord
  2
STANDARD
 70
     0
  3

  4

  5

  6

  7

 40
2.0
 41
1.8
 42
0.625
 43
3.75
 44
0.8
 45
0.0
 46
0.0
 47
0.0
 48
0.0
140
1.8
141
2.5
142
0.0
143
0.0394
144
1.0
145
0.0
146
1.0
147
0.75
 71
     0
 72
     0
 73
     0
 74
     0
 75
     0
 76
     0
 77
     1
 78
     8
170
     0
171
     4
172
     1
173
     0
174
     0
175
     0
176
     0
177
     0
178
     0
270
     8
271
     2
272
     2
273
     8
274
     4
340
16
275
     0
280
     0
281
     0
282
     0
283
     1
284
     0
285
     0
286
     0
287
     3
288
     0
  0
ENDTAB
  0
TABLE
  2
BLOCK_RECORD
  5
1
330
0
100
AcDbSymbolTable
 70
    47
  0
BLOCK_RECORD
  5
2
102
{ACAD_XDICTIONARY
360
2B18
102
}
330
1
100
AcDbSymbolTableRecord
100
AcDbBlockTableRecord
  2
*MODEL_SPACE
  0
BLOCK_RECORD
  5
2AF1
102
{ACAD_XDICTIONARY
360
2B1A
102
}
330
1
100
AcDbSymbolTableRecord
100
AcDbBlockTableRecord
  2
*PAPER_SPACE
  0
ENDTAB
  0
ENDSEC
  0
SECTION
  2
BLOCKS
  0
BLOCK
  5
5D
330
2
100
AcDbEntity
  8
0
100
AcDbBlockBegin
  2
*MODEL_SPACE
 70
     0
 10
0.0
 20
0.0
 30
0.0
  3
*MODEL_SPACE
  1

  0
ENDBLK
  5
5F
330
2
100
AcDbEntity
  8
0
100
AcDbBlockEnd
  0
BLOCK
  5
2AF3
330
2AF1
100
AcDbEntity
 67
     1
  8
0
100
AcDbBlockBegin
  2
*PAPER_SPACE
 70
     0
 10
0.0
 20
0.0
 30
0.0
  3
*PAPER_SPACE
  1

  0
ENDBLK
  5
2AF4
330
2AF1
100
AcDbEntity
 67
     1
  8
0
100
AcDbBlockEnd
  0
ENDSEC
  0
SECTION
  2
ENTITIES
  0
LINE
  5
F4E
330
2
100
AcDbEntity
  8
CENTER
100
AcDbLine
 10
401.5593844941539
 20
102.4401979645468
 30
0.0
 11
561.5593844941566
 21
102.4401979645463
 31
0.0
  0
LINE
  5
F50
330
2
100
AcDbEntity
  8
CENTER
100
AcDbLine
 10
408.7251949806436
 20
304.5176682526044
 30
0.0
 11
561.5593844941572
 21
304.5176682526042
 31
0.0
  0
LINE
  5
F5F
330
2
100
AcDbEntity
  8
0
100
AcDbLine
 10
511.5593844941554
 20
335.5176682548308
 30
0.0
 11
511.559384494159
 21
273.5176682548317
 31
0.0
  0
LINE
  5
F9D
330
2
100
AcDbEntity
  8
0
100
AcDbLine
 10
511.5593844941566
 20
133.9401979645466
 30
0.0
 11
511.5593844941566
 21
70.94019796454756
 31
0.0
  0
LINE
  5
FE8
330
2
100
AcDbEntity
  8
CENTER
100
AcDbLine
 10
195.300462789262
 20
102.4401979645466
 30
0.0
 11
42.30046278926159
 21
102.4401979645466
 31
0.0
  0
LINE
  5
FEA
330
2
100
AcDbEntity
  8
0
100
AcDbLine
 10
92.30046278926204
 20
70.94019796454666
 30
0.0
 11
92.30046278926204
 21
133.9401979645457
 31
0.0
  0
LINE
  5
1235
330
2
100
AcDbEntity
  8
CENTER
100
AcDbLine
 10
732.8518023060722
 20
102.4401979645361
 30
0.0
 11
615.851802306068
 21
102.4401979645364
 31
0.0
  0
LINE
  5
1236
330
2
100
AcDbEntity
  8
CENTER
100
AcDbLine
 10
687.8518023060685
 20
140.9401979645366
 30
0.0
 11
687.8518023060689
 21
63.94019796453605
 31
0.0
  0
LINE
  5
1237
330
2
100
AcDbEntity
  8
0
100
AcDbLine
 10
651.8518023060662
 20
77.44019796454288
 30
0.0
 11
651.8518023060662
 21
127.4401979645428
 31
0.0
  0
LINE
  5
1238
330
2
100
AcDbEntity
  8
0
100
AcDbLine
 10
654.8518023060662
 20
127.4401979645428
 30
0.0
 11
651.8518023060662
 21
127.4401979645428
 31
0.0
  0
LINE
  5
1239
330
2
100
AcDbEntity
  8
0
100
AcDbLine
 10
654.8518023060662
 20
77.44019796454288
 30
0.0
 11
651.8518023060662
 21
77.44019796454288
 31
0.0
  0
LINE
  5
123A
330
2
100
AcDbEntity
  8
0
100
AcDbLine
 10
654.8518023060689
 20
132.9820374055168
 30
0.0
 11
654.8518023060689
 21
71.89835852354505
 31
0.0
  0
LINE
  5
123B
330
2
100
AcDbEntity
  8
0
100
AcDbLine
 10
715.9001831102252
 20
71.39259120332164
 30
0.0
 11
687.8518023060689
 21
70.94019796453605
 31
0.0
  0
ARC
  5
123C
330
2
100
AcDbEntity
  8
0
100
AcDbCircle
 10
715.851802306069
 20
74.39220106091827
 30
0.0
 40
3.0
100
AcDbArc
 50
270.9240453527669
 51
315.6481997532208
  0
LINE
  5
123D
330
2
100
AcDbEntity
  8
0
100
AcDbLine
 10
659.8034215019136
 20
71.39259120332164
 30
0.0
 11
687.8518023060689
 21
70.94019796453605
 31
0.0
  0
ARC
  5
123E
330
2
100
AcDbEntity
  8
0
100
AcDbCircle
 10
659.8518023060689
 20
74.39220106091827
 30
0.0
 40
3.0
100
AcDbArc
 50
224.3518002499902
 51
269.0759546471809
  0
LINE
  5
123F
330
2
100
AcDbEntity
  8
0
100
AcDbLine
 10
715.9001831102252
 20
133.4878047257509
 30
0.0
 11
687.8518023060689
 21
133.9401979645365
 31
0.0
  0
LINE
  5
1240
330
2
100
AcDbEntity
  8
0
100
AcDbLine
 10
659.8034215019136
 20
133.4878047257509
 30
0.0
 11
668.5324158911701
 21
133.6285949578385
 31
0.0
  0
ARC
  5
1241
330
2
100
AcDbEntity
  8
0
100
AcDbCircle
 10
715.8518023060699
 20
130.4881948681543
 30
0.0
 40
3.0
100
AcDbArc
 50
44.35180024240783
 51
89.07595464718097
  0
ARC
  5
1242
330
2
100
AcDbEntity
  8
0
100
AcDbCircle
 10
659.8518023060689
 20
130.4881948681545
 30
0.0
 40
3.0
100
AcDbArc
 50
90.9240453527669
 51
135.6481997539739
  0
LINE
  5
1243
330
2
100
AcDbEntity
  8
0
100
AcDbLine
 10
644.8518023060671
 20
122.5088204149251
 30
0.0
 11
644.8518023060671
 21
82.37157551414473
 31
0.0
  0
LINE
  5
1244
330
2
100
AcDbEntity
  8
0
100
AcDbLine
 10
649.9216012994723
 20
80.26315668251298
 30
0.0
 11
646.782003312662
 21
80.37279386010684
 31
0.0
  0
ARC
  5
1245
330
2
100
AcDbEntity
  8
0
100
AcDbCircle
 10
649.8518023060671
 20
78.26437502847508
 30
0.0
 40
2.0
100
AcDbArc
 50
0.0
 51
87.99999999999636
  0
ARC
  5
1246
330
2
100
AcDbEntity
  8
0
100
AcDbCircle
 10
646.8518023060672
 20
82.37157551414473
 30
0.0
 40
2.0
100
AcDbArc
 50
180.0
 51
267.9999999999963
  0
LINE
  5
1247
330
2
100
AcDbEntity
  8
0
100
AcDbLine
 10
649.9216012994959
 20
124.6172392465532
 30
0.0
 11
646.7820033126856
 21
124.507602068962
 31
0.0
  0
ARC
  5
1248
330
2
100
AcDbEntity
  8
0
100
AcDbCircle
 10
649.8518023060926
 20
126.6160209005911
 30
0.0
 40
2.0
100
AcDbArc
 50
271.9999999999515
 51
359.9999999999478
  0
ARC
  5
1249
330
2
100
AcDbEntity
  8
0
100
AcDbCircle
 10
646.851802306088
 20
122.5088204149251
 30
0.0
 40
2.0
100
AcDbArc
 50
91.99999999995149
 51
179.9999999999479
  0
LINE
  5
124A
330
2
100
AcDbEntity
  8
0
100
AcDbLine
 10
658.2291891014786
 20
133.0115114135587
 30
0.0
 11
654.8518023060689
 21
132.9820374055168
 31
0.0
  0
LINE
  5
124B
330
2
100
AcDbEntity
  8
0
100
AcDbLine
 10
658.2291891014794
 20
71.868884515502
 30
0.0
 11
654.8518023060689
 21
71.89835852354505
 31
0.0
  0
LINE
  5
124C
330
2
100
AcDbEntity
  8
0
100
AcDbLine
 10
723.8518023060735
 20
124.8628476953474
 30
0.0
 11
723.8518023060735
 21
80.01754823372513
 31
0.0
  0
LINE
  5
124D
330
2
100
AcDbEntity
  8
0
100
AcDbLine
 10
719.1518023060727
 20
125.4401979645365
 30
0.0
 11
718.9808345641307
 21
125.4401979645365
 31
0.0
  0
LINE
  5
124E
330
2
100
AcDbEntity
  8
0
100
AcDbLine
 10
722.8518023060725
 20
125.4401979645369
 30
0.0
 11
723.8518023060735
 21
124.8628476953474
 31
0.0
  0
LINE
  5
124F
330
2
100
AcDbEntity
  8
0
100
AcDbLine
 10
719.3518023060735
 20
125.2401979645362
 30
0.0
 11
719.1518023060727
 21
125.4401979645365
 31
0.0
  0
LINE
  5
1250
330
2
100
AcDbEntity
  8
0
100
AcDbLine
 10
722.8518023060735
 20
125.4401979645369
 30
0.0
 11
721.5518023060724
 21
125.4401979645365
 31
0.0
  0
LINE
  5
1251
330
2
100
AcDbEntity
  8
0
100
AcDbLine
 10
721.3518023060735
 20
125.2401979645366
 30
0.0
 11
721.3518023060735
 21
79.64019796453564
 31
0.0
  0
LINE
  5
1252
330
2
100
AcDbEntity
  8
0
100
AcDbLine
 10
721.1518023060728
 20
124.7401979645367
 30
0.0
 11
719.5518023060724
 21
124.7401979645364
 31
0.0
  0
LINE
  5
1253
330
2
100
AcDbEntity
  8
0
100
AcDbLine
 10
719.3518023060735
 20
125.2401979645362
 30
0.0
 11
719.3518023060735
 21
79.64019796453587
 31
0.0
  0
LINE
  5
1254
330
2
100
AcDbEntity
  8
0
100
AcDbLine
 10
719.1518023060727
 20
79.44019796453606
 30
0.0
 11
718.9808345641305
 21
79.44019796453602
 31
0.0
  0
LINE
  5
1255
330
2
100
AcDbEntity
  8
0
100
AcDbLine
 10
721.1518023060728
 20
80.14019796453565
 30
0.0
 11
719.5518023060724
 21
80.14019796453586
 31
0.0
  0
LINE
  5
1256
330
2
100
AcDbEntity
  8
0
100
AcDbLine
 10
719.3518023060735
 20
79.64019796453587
 30
0.0
 11
719.1518023060727
 21
79.44019796453606
 31
0.0
  0
LINE
  5
1257
330
2
100
AcDbEntity
  8
0
100
AcDbLine
 10
722.8518023060725
 20
79.44019796453559
 30
0.0
 11
723.8518023060735
 21
80.01754823372513
 31
0.0
  0
LINE
  5
1258
330
2
100
AcDbEntity
  8
0
100
AcDbLine
 10
722.8518023060735
 20
79.44019796453559
 30
0.0
 11
721.5518023060724
 21
79.44019796453559
 31
0.0
  0
ARC
  5
1259
330
2
100
AcDbEntity
  8
0
100
AcDbCircle
 10
721.5518023060724
 20
79.64019796453564
 30
0.0
 40
0.2
100
AcDbArc
 50
180.0
 51
270.0
  0
ARC
  5
125A
330
2
100
AcDbEntity
  8
0
100
AcDbCircle
 10
721.1518023060728
 20
79.9401979645356
 30
0.0
 40
0.2
100
AcDbArc
 50
0.0
 51
90.0
  0
ARC
  5
125B
330
2
100
AcDbEntity
  8
0
100
AcDbCircle
 10
719.5518023060724
 20
79.94019796453605
 30
0.0
 40
0.2
100
AcDbArc
 50
90.0
 51
180.0
  0
ARC
  5
125C
330
2
100
AcDbEntity
  8
0
100
AcDbCircle
 10
721.5518023060724
 20
125.2401979645366
 30
0.0
 40
0.2
100
AcDbArc
 50
90.0
 51
180.0
  0
ARC
  5
125D
330
2
100
AcDbEntity
  8
0
100
AcDbCircle
 10
721.1518023060728
 20
124.9401979645367
 30
0.0
 40
0.2
100
AcDbArc
 50
270.0
 51
0.0
  0
ARC
  5
125E
330
2
100
AcDbEntity
  8
0
100
AcDbCircle
 10
719.5518023060724
 20
124.9401979645365
 30
0.0
 40
0.2
100
AcDbArc
 50
180.0
 51
270.0
  0
LINE
  5
125F
330
2
100
AcDbEntity
  8
0
100
AcDbLine
 10
722.8518023060725
 20
125.4401979645369
 30
0.0
 11
722.8518023060725
 21
79.44019796453559
 31
0.0
  0
LINE
  5
1260
330
2
100
AcDbEntity
  8
0
100
AcDbLine
 10
719.1518023060727
 20
79.44019796453606
 30
0.0
 11
719.1518023060727
 21
125.4401979645365
 31
0.0
  0
LINE
  5
1261
330
2
100
AcDbEntity
  8
0
100
AcDbLine
 10
719.3518023060753
 20
72.19019796453264
 30
0.0
 11
717.8892473638581
 21
72.19019796453242
 31
0.0
  0
LINE
  5
1262
330
2
100
AcDbEntity
  8
0
100
AcDbLine
 10
719.3518023060753
 20
80.69019796453265
 30
0.0
 11
719.3518023060753
 21
72.19019796453264
 31
0.0
  0
LINE
  5
1263
330
2
100
AcDbEntity
  8
0
100
AcDbLine
 10
719.3518023060753
 20
72.19019796453264
 30
0.0
 11
719.6518023060764
 21
72.70981320680355
 31
0.0
  0
LINE
  5
1264
330
2
100
AcDbEntity
  8
0
100
AcDbLine
 10
719.6518023060764
 20
80.14019796453586
 30
0.0
 11
719.6518023060764
 21
72.70981320680355
 31
0.0
  0
LINE
  5
1265
330
2
100
AcDbEntity
  8
0
100
AcDbLine
 10
719.3518023060753
 20
132.6901979645399
 30
0.0
 11
717.8892473638581
 21
132.6901979645396
 31
0.0
  0
LINE
  5
1266
330
2
100
AcDbEntity
  8
0
100
AcDbLine
 10
719.3518023060753
 20
124.1901979645399
 30
0.0
 11
719.3518023060753
 21
132.6901979645399
 31
0.0
  0
LINE
  5
1267
330
2
100
AcDbEntity
  8
0
100
AcDbLine
 10
719.3518023060753
 20
132.6901979645399
 30
0.0
 11
719.6518023060764
 21
132.170582722269
 31
0.0
  0
LINE
  5
1268
330
2
100
AcDbEntity
  8
0
100
AcDbLine
 10
719.6518023060755
 20
124.7401979645367
 30
0.0
 11
719.6518023060764
 21
132.170582722269
 31
0.0
  0
LINE
  5
1276
330
2
100
AcDbEntity
  8
0
100
AcDbLine
 10
59.30046278926295
 20
102.4401979645466
 30
0.0
 11
58.84541256957811
 21
128.5100075902959
 31
0.0
  0
LINE
  5
1277
330
2
100
AcDbEntity
  8
0
100
AcDbLine
 10
84.30046278925431
 20
102.4401979645466
 30
0.0
 11
84.82441936999714
 21
132.4576503709844
 31
0.0
  0
LINE
  5
1278
330
2
100
AcDbEntity
  8
0
100
AcDbLine
 10
92.30046278926204
 20
102.4401979645466
 30
0.0
 11
49.30046278926204
 21
102.4401979645466
 31
0.0
  0
ARC
  5
1279
330
2
100
AcDbEntity
  8
0
100
AcDbCircle
 10
76.38402741395987
 20
77.2014315037726
 30
0.0
 40
3.0
100
AcDbArc
 50
90.0
 51
179.0000000000242
  0
LINE
  5
127A
330
2
100
AcDbEntity
  8
0
100
AcDbLine
 10
61.91274066089738
 20
80.20143150377213
 30
0.0
 11
76.38402741395987
 21
80.20143150377213
 31
0.0
  0
LINE
  5
127B
330
2
100
AcDbEntity
  8
0
100
AcDbLine
 10
79.79476805703336
 20
72.44019796454665
 30
0.0
 11
49.30046278926204
 21
72.44019796454665
 31
0.0
  0
LINE
  5
127C
330
2
100
AcDbEntity
  8
0
100
AcDbLine
 10
59.30046278926204
 20
102.4401979645466
 30
0.0
 11
58.84541256957766
 21
76.37038833879739
 31
0.0
  0
ARC
  5
127D
330
2
100
AcDbEntity
  8
0
100
AcDbCircle
 10
54.8460217889525
 20
76.44019796454665
 30
0.0
 40
4.0
100
AcDbArc
 50
270.0
 51
358.9999999999982
  0
ARC
  5
127E
330
2
100
AcDbEntity
  8
0
100
AcDbCircle
 10
71.3350682630313
 20
74.44019796454665
 30
0.0
 40
2.0
100
AcDbArc
 50
270.0
 51
359.0000000000242
  0
LINE
  5
127F
330
2
100
AcDbEntity
  8
0
100
AcDbLine
 10
73.33476365334366
 20
74.40529315167203
 30
0.0
 11
73.3844843284902
 21
77.25378872308408
 31
0.0
  0
LINE
  5
1280
330
2
100
AcDbEntity
  8
0
100
AcDbLine
 10
84.30046278925386
 20
102.4401979645466
 30
0.0
 11
84.82441936999624
 21
72.42274555810934
 31
0.0
  0
ARC
  5
1281
330
2
100
AcDbEntity
  8
0
100
AcDbCircle
 10
83.17851575408814
 20
69.44019796454665
 30
0.0
 40
3.0
100
AcDbArc
 50
48.59037789073998
 51
61.24284295859403
  0
ARC
  5
1282
330
2
100
AcDbEntity
  8
0
100
AcDbCircle
 10
85.82426706515263
 20
72.44019796454665
 30
0.0
 40
1.0
100
AcDbArc
 50
181.0000000000147
 51
270.0
  0
LINE
  5
1283
330
2
100
AcDbEntity
  8
0
100
AcDbLine
 10
92.30046278926204
 20
71.44019796454665
 30
0.0
 11
85.82426706515263
 21
71.44019796454665
 31
0.0
  0
LINE
  5
1284
330
2
100
AcDbEntity
  8
0
100
AcDbLine
 10
79.79476805703382
 20
132.4401979645466
 30
0.0
 11
49.30046278926204
 21
132.4401979645466
 31
0.0
  0
LINE
  5
1285
330
2
100
AcDbEntity
  8
CENTER
  6
CENS
100
AcDbLine
 10
63.30046278926204
 20
141.4401979645498
 30
0.0
 11
63.30046278926204
 21
118.9577882467964
 31
0.0
  0
ARC
  5
1286
330
2
100
AcDbEntity
  8
0
100
AcDbCircle
 10
54.8460217889525
 20
128.4401979645466
 30
0.0
 40
4.0
100
AcDbArc
 50
1.000000000001775
 51
90.0
  0
ARC
  5
1287
330
2
100
AcDbEntity
  8
0
100
AcDbCircle
 10
83.17851575408951
 20
135.4401979645466
 30
0.0
 40
3.0
100
AcDbArc
 50
298.7571570414059
 51
311.4096221092513
  0
ARC
  5
1288
330
2
100
AcDbEntity
  8
0
100
AcDbCircle
 10
85.82426706515354
 20
132.4401979645466
 30
0.0
 40
1.0
100
AcDbArc
 50
90.0
 51
178.9999999999851
  0
LINE
  5
1289
330
2
100
AcDbEntity
  8
0
100
AcDbLine
 10
92.30046278926204
 20
133.4401979645466
 30
0.0
 11
85.82426706515354
 21
133.4401979645466
 31
0.0
  0
LINE
  5
128A
330
2
100
AcDbEntity
  8
0
100
AcDbLine
 10
49.30046278926204
 20
132.4401979645466
 30
0.0
 11
49.30046278926204
 21
72.44019796454665
 31
0.0
  0
LINE
  5
128B
330
2
100
AcDbEntity
  8
0
100
AcDbLine
 10
83.70838765663359
 20
132.8101979645465
 30
0.0
 11
84.70838765663359
 21
132.8101979645465
 31
0.0
  0
LINE
  5
128C
330
2
100
AcDbEntity
  8
0
100
AcDbLine
 10
84.70838765663359
 20
132.8101979645465
 30
0.0
 11
84.70838765663359
 21
125.8101979645465
 31
0.0
  0
LINE
  5
128D
330
2
100
AcDbEntity
  8
0
100
AcDbLine
 10
84.70838765663359
 20
125.8101979645465
 30
0.0
 11
83.70838765663359
 21
125.8101979645465
 31
0.0
  0
LINE
  5
128E
330
2
100
AcDbEntity
  8
0
100
AcDbLine
 10
83.70838765663359
 20
125.8101979645465
 30
0.0
 11
83.70838765663359
 21
132.8101979645465
 31
0.0
  0
LINE
  5
128F
330
2
100
AcDbEntity
  8
0
100
AcDbLine
 10
79.70838765663359
 20
132.290582722276
 30
0.0
 11
79.70838765663359
 21
126.3298132068169
 31
0.0
  0
LINE
  5
1290
330
2
100
AcDbEntity
  8
0
100
AcDbLine
 10
80.00838765663331
 20
125.8101979645465
 30
0.0
 11
80.00838765663331
 21
132.8101979645465
 31
0.0
  0
LINE
  5
1291
330
2
100
AcDbEntity
  8
0
100
AcDbLine
 10
80.00838765663331
 20
125.8101979645465
 30
0.0
 11
83.70838765663359
 21
125.8101979645465
 31
0.0
  0
LINE
  5
1292
330
2
100
AcDbEntity
  8
0
100
AcDbLine
 10
80.00838765663331
 20
125.8101979645465
 30
0.0
 11
79.70838765663359
 21
126.3298132068169
 31
0.0
  0
LINE
  5
1293
330
2
100
AcDbEntity
  8
0
100
AcDbLine
 10
79.70838765663359
 20
132.290582722276
 30
0.0
 11
80.00838765663331
 21
132.8101979645465
 31
0.0
  0
LINE
  5
1294
330
2
100
AcDbEntity
  8
0
100
AcDbLine
 10
83.70838765663359
 20
132.8101979645465
 30
0.0
 11
80.00838765663331
 21
132.8101979645465
 31
0.0
  0
LINE
  5
1295
330
2
100
AcDbEntity
  8
CENTER
  6
CENS
100
AcDbLine
 10
74.76948038388366
 20
129.310197964547
 30
0.0
 11
97.76943747350617
 21
129.310197964547
 31
0.0
  0
LINE
  5
1296
330
2
100
AcDbEntity
  8
CENTER
  6
CENS
100
AcDbLine
 10
74.76948038388366
 20
75.57019796454631
 30
0.0
 11
97.76943747350617
 21
75.57019796454631
 31
0.0
  0
LINE
  5
1297
330
2
100
AcDbEntity
  8
0
100
AcDbLine
 10
83.70838765663359
 20
72.07019796454677
 30
0.0
 11
84.70838765663359
 21
72.07019796454677
 31
0.0
  0
LINE
  5
1298
330
2
100
AcDbEntity
  8
0
100
AcDbLine
 10
84.70838765663359
 20
72.07019796454677
 30
0.0
 11
84.70838765663359
 21
79.07019796454676
 31
0.0
  0
LINE
  5
1299
330
2
100
AcDbEntity
  8
0
100
AcDbLine
 10
84.70838765663359
 20
79.07019796454676
 30
0.0
 11
83.70838765663359
 21
79.07019796454676
 31
0.0
  0
LINE
  5
129A
330
2
100
AcDbEntity
  8
0
100
AcDbLine
 10
83.70838765663359
 20
79.07019796454676
 30
0.0
 11
83.70838765663359
 21
72.07019796454677
 31
0.0
  0
LINE
  5
129B
330
2
100
AcDbEntity
  8
0
100
AcDbLine
 10
79.70838765663359
 20
72.58981320681721
 30
0.0
 11
79.70838765663359
 21
78.55058272227632
 31
0.0
  0
LINE
  5
129C
330
2
100
AcDbEntity
  8
0
100
AcDbLine
 10
80.00838765663331
 20
79.07019796454676
 30
0.0
 11
80.00838765663331
 21
72.07019796454677
 31
0.0
  0
LINE
  5
129D
330
2
100
AcDbEntity
  8
0
100
AcDbLine
 10
80.00838765663331
 20
79.07019796454676
 30
0.0
 11
83.70838765663359
 21
79.07019796454676
 31
0.0
  0
LINE
  5
129E
330
2
100
AcDbEntity
  8
0
100
AcDbLine
 10
80.00838765663331
 20
79.07019796454676
 30
0.0
 11
79.70838765663359
 21
78.55058272227632
 31
0.0
  0
LINE
  5
129F
330
2
100
AcDbEntity
  8
0
100
AcDbLine
 10
79.70838765663359
 20
72.58981320681721
 30
0.0
 11
80.00838765663331
 21
72.07019796454677
 31
0.0
  0
LINE
  5
12A0
330
2
100
AcDbEntity
  8
0
100
AcDbLine
 10
83.70838765663359
 20
72.07019796454677
 30
0.0
 11
80.00838765663331
 21
72.07019796454677
 31
0.0
  0
LINE
  5
12A1
330
2
100
AcDbEntity
  8
0
100
AcDbLine
 10
58.30046278926204
 20
136.4401979645466
 30
0.0
 11
68.30046278926204
 21
136.4401979645466
 31
0.0
  0
ARC
  5
12A2
330
2
100
AcDbEntity
  8
0
100
AcDbCircle
 10
68.30046278926204
 20
132.4401979645466
 30
0.0
 40
4.0
100
AcDbArc
 50
0.0
 51
90.0
  0
ARC
  5
12A3
330
2
100
AcDbEntity
  8
0
100
AcDbCircle
 10
58.30046278926204
 20
132.4401979645466
 30
0.0
 40
4.000000000000028
100
AcDbArc
 50
90.0
 51
180.0
  0
CIRCLE
  5
12A4
330
2
100
AcDbEntity
  8
HIDS
100
AcDbCircle
 10
687.8518023060662
 20
102.440197964533
 30
0.0
 40
30.0
  0
LINE
  5
12A5
330
2
100
AcDbEntity
  8
0
100
AcDbLine
 10
657.9245668684714
 20
77.42565357519331
 30
0.0
 11
657.8518023060667
 21
102.440197964533
 31
0.0
  0
LINE
  5
12A6
330
2
100
AcDbEntity
  8
0
100
AcDbLine
 10
717.779037743662
 20
77.42565357519286
 30
0.0
 11
717.8518023060667
 21
102.440197964533
 31
0.0
  0
LINE
  5
12A7
330
2
100
AcDbEntity
  8
0
100
AcDbLine
 10
718.8994090672897
 20
74.39181716037817
 30
0.0
 11
719.3518023060648
 21
102.4401979645362
 31
0.0
  0
LINE
  5
12A8
330
2
100
AcDbEntity
  8
0
100
AcDbLine
 10
656.8041955448427
 20
74.39181716037817
 30
0.0
 11
656.3518023060676
 21
102.4401979645362
 31
0.0
  0
CIRCLE
  5
12A9
330
2
100
AcDbEntity
  8
0
100
AcDbCircle
 10
687.8518023060662
 20
102.440197964533
 30
0.0
 40
25.00000000345432
  0
LINE
  5
12AA
330
2
100
AcDbEntity
  8
0
100
AcDbLine
 10
662.9245457145004
 20
72.4401979645331
 30
0.0
 11
712.7790588976329
 21
72.4401979645331
 31
0.0
  0
LINE
  5
12AB
330
2
100
AcDbEntity
  8
0
100
AcDbLine
 10
659.8038054024393
 20
71.4401979645331
 30
0.0
 11
715.8997992096931
 21
71.4401979645331
 31
0.0
  0
ARC
  5
12AC
330
2
100
AcDbEntity
  8
0
100
AcDbCircle
 10
662.9245457145004
 20
77.4401979645331
 30
0.0
 40
5.0
100
AcDbArc
 50
180.1666666600049
 51
270.0
  0
ARC
  5
12AD
330
2
100
AcDbEntity
  8
0
100
AcDbCircle
 10
659.8038054024393
 20
74.4401979645331
 30
0.0
 40
3.0
100
AcDbArc
 50
180.9240453527669
 51
270.0
  0
ARC
  5
12AE
330
2
100
AcDbEntity
  8
0
100
AcDbCircle
 10
712.7790588976329
 20
77.4401979645331
 30
0.0
 40
5.0
100
AcDbArc
 50
270.0
 51
359.833333339995
  0
ARC
  5
12AF
330
2
100
AcDbEntity
  8
0
100
AcDbCircle
 10
715.8997992096931
 20
74.4401979645331
 30
0.0
 40
3.0
100
AcDbArc
 50
270.0
 51
359.0759546472331
  0
LINE
  5
12B0
330
2
100
AcDbEntity
  8
HIDS
100
AcDbLine
 10
707.8861031701478
 20
74.40529315165846
 30
0.0
 11
707.9652317063334
 21
78.93856395361805
 31
0.0
  0
ARC
  5
12B1
330
2
100
AcDbEntity
  8
HIDS
100
AcDbCircle
 10
705.886407779835
 20
74.4401979645331
 30
0.0
 40
2.0
100
AcDbArc
 50
270.0
 51
358.9999999999852
  0
ARC
  5
12B2
330
2
100
AcDbEntity
  8
HIDS
100
AcDbCircle
 10
710.9647747918026
 20
78.88620673430612
 30
0.0
 40
3.0
100
AcDbArc
 50
134.4585514346973
 51
178.9999999999982
  0
LINE
  5
12B3
330
2
100
AcDbEntity
  8
0
100
AcDbLine
 10
662.9245457145004
 20
132.4401979645331
 30
0.0
 11
712.7790588976329
 21
132.4401979645331
 31
0.0
  0
LINE
  5
12B4
330
2
100
AcDbEntity
  8
0
100
AcDbLine
 10
659.8038054024393
 20
133.4401979645331
 30
0.0
 11
668.47881895986
 21
133.4401979645331
 31
0.0
  0
LINE
  5
12B5
330
2
100
AcDbEntity
  8
0
100
AcDbLine
 10
686.2247856522765
 20
133.4401979645331
 30
0.0
 11
715.8997992096931
 21
133.4401979645331
 31
0.0
  0
LINE
  5
12B6
330
2
100
AcDbEntity
  8
0
100
AcDbLine
 10
657.9245668684714
 20
127.4547423538728
 30
0.0
 11
657.8518023060667
 21
102.440197964533
 31
0.0
  0
LINE
  5
12B7
330
2
100
AcDbEntity
  8
0
100
AcDbLine
 10
656.8041955448427
 20
130.488578768688
 30
0.0
 11
656.3518023060676
 21
102.4401979645362
 31
0.0
  0
LINE
  5
12B8
330
2
100
AcDbEntity
  8
HIDS
100
AcDbLine
 10
671.6018023060671
 20
132.4401979645331
 30
0.0
 11
671.8493704247436
 21
118.2570299445364
 31
0.0
  0
LINE
  5
12B9
330
2
100
AcDbEntity
  8
0
100
AcDbLine
 10
656.3518023060662
 20
102.440197964533
 30
0.0
 11
657.8518023060662
 21
102.4401979644926
 31
0.0
  0
ARC
  5
12BA
330
2
100
AcDbEntity
  8
0
100
AcDbCircle
 10
662.9245457145004
 20
127.440197964533
 30
0.0
 40
5.0
100
AcDbArc
 50
90.0
 51
179.833333339995
  0
ARC
  5
12BB
330
2
100
AcDbEntity
  8
0
100
AcDbCircle
 10
659.8038054024393
 20
130.4401979645331
 30
0.0
 40
3.0
100
AcDbArc
 50
90.0
 51
179.075954647233
  0
LINE
  5
12BC
330
2
100
AcDbEntity
  8
HIDS
100
AcDbLine
 10
683.1018023060662
 20
132.4401979645331
 30
0.0
 11
682.9615006822211
 21
124.4023233176935
 31
0.0
  0
LINE
  5
12BD
330
2
100
AcDbEntity
  8
0
100
AcDbLine
 10
717.779037743662
 20
127.4547423538733
 30
0.0
 11
717.8518023060667
 21
102.440197964533
 31
0.0
  0
LINE
  5
12BE
330
2
100
AcDbEntity
  8
0
100
AcDbLine
 10
718.8994090672897
 20
130.488578768688
 30
0.0
 11
719.3518023060648
 21
102.4401979645362
 31
0.0
  0
LINE
  5
12BF
330
2
100
AcDbEntity
  8
0
100
AcDbLine
 10
717.8518023060662
 20
102.4401979645199
 30
0.0
 11
719.3518023060662
 21
102.440197964533
 31
0.0
  0
ARC
  5
12C0
330
2
100
AcDbEntity
  8
0
100
AcDbCircle
 10
712.7790588976329
 20
127.440197964533
 30
0.0
 40
5.0
100
AcDbArc
 50
0.1666666599919691
 51
90.0
  0
ARC
  5
12C1
330
2
100
AcDbEntity
  8
0
100
AcDbCircle
 10
715.8997992096931
 20
130.4401979645331
 30
0.0
 40
3.0
100
AcDbArc
 50
0.9240453527669025
 51
90.0
  0
LINE
  5
12C2
330
2
100
AcDbEntity
  8
CENTER
100
AcDbLine
 10
663.103064964537
 20
130.6889353060623
 30
0.0
 11
663.103064964537
 21
123.6889353060623
 31
0.0
  0
LINE
  5
12C3
330
2
100
AcDbEntity
  8
CENTER
100
AcDbLine
 10
666.603064964537
 20
127.1889353060623
 30
0.0
 11
659.603064964537
 21
127.1889353060623
 31
0.0
  0
LINE
  5
12C4
330
2
100
AcDbEntity
  8
CENTER
100
AcDbLine
 10
659.6030649645374
 20
77.69146062300385
 30
0.0
 11
666.6030649645374
 21
77.69146062300385
 31
0.0
  0
LINE
  5
12C5
330
2
100
AcDbEntity
  8
CENTER
100
AcDbLine
 10
663.1030649645374
 20
81.19146062300385
 30
0.0
 11
663.1030649645374
 21
74.19146062300384
 31
0.0
  0
LINE
  5
12C6
330
2
100
AcDbEntity
  8
CENTER
100
AcDbLine
 10
712.6005396475955
 20
74.19146062300431
 30
0.0
 11
712.6005396475955
 21
81.1914606230043
 31
0.0
  0
LINE
  5
12C7
330
2
100
AcDbEntity
  8
CENTER
100
AcDbLine
 10
709.1005396475955
 20
77.6914606230043
 30
0.0
 11
716.1005396475955
 21
77.6914606230043
 31
0.0
  0
LINE
  5
12C8
330
2
100
AcDbEntity
  8
CENTER
100
AcDbLine
 10
716.1005396475955
 20
127.1889353060623
 30
0.0
 11
709.1005396475955
 21
127.1889353060623
 31
0.0
  0
LINE
  5
12C9
330
2
100
AcDbEntity
  8
CENTER
100
AcDbLine
 10
712.6005396475955
 20
123.6889353060623
 30
0.0
 11
712.6005396475955
 21
130.6889353060623
 31
0.0
  0
CIRCLE
  5
12CA
330
2
100
AcDbEntity
  8
CENTER
100
AcDbCircle
 10
687.8518023060662
 20
102.440197964533
 30
0.0
 40
35.00000000000006
  0
LINE
  5
12CC
330
2
100
AcDbEntity
  8
0
100
AcDbLine
 10
673.1208824434122
 20
101.6901979645362
 30
0.0
 11
677.3518023060685
 21
101.6901979645362
 31
0.0
  0
LINE
  5
12CD
330
2
100
AcDbEntity
  8
0
100
AcDbLine
 10
673.1208824434122
 20
103.1901979645362
 30
0.0
 11
677.3518023060685
 21
103.1901979645362
 31
0.0
  0
LINE
  5
12CE
330
2
100
AcDbEntity
  8
0
100
AcDbLine
 10
701.8518023060685
 20
103.1901979645362
 30
0.0
 11
701.8518023060685
 21
101.6901979645362
 31
0.0
  0
LINE
  5
12CF
330
2
100
AcDbEntity
  8
0
100
AcDbLine
 10
693.3004259854917
 20
103.1901979645362
 30
0.0
 11
701.8518023060685
 21
103.1901979645362
 31
0.0
  0
LINE
  5
12D0
330
2
100
AcDbEntity
  8
0
100
AcDbLine
 10
701.8518023060685
 20
101.6901979645362
 30
0.0
 11
693.3004259854917
 21
101.6901979645362
 31
0.0
  0
LINE
  5
12D1
330
2
100
AcDbEntity
  8
HIDS
100
AcDbLine
 10
681.351802306068
 20
115.6807606414017
 30
0.0
 11
681.351802306068
 21
107.4401979645362
 31
0.0
  0
LINE
  5
12D2
330
2
100
AcDbEntity
  8
HIDS
100
AcDbLine
 10
679.018468972735
 20
92.90686463120298
 30
0.0
 11
679.018468972735
 21
90.62771633609688
 31
0.0
  0
LINE
  5
12D3
330
2
100
AcDbEntity
  8
HIDS
100
AcDbLine
 10
679.3518023060681
 20
101.6901979645362
 30
0.0
 11
679.3518023060681
 21
90.38563451329489
 31
0.0
  0
LINE
  5
12D4
330
2
100
AcDbEntity
  8
HIDS
100
AcDbLine
 10
674.8518023060681
 20
107.4401979645362
 30
0.0
 11
674.8518023060681
 21
103.1901979645362
 31
0.0
  0
LINE
  5
12D5
330
2
100
AcDbEntity
  8
HIDS
100
AcDbLine
 10
679.851802306068
 20
107.4401979645362
 30
0.0
 11
679.851802306068
 21
103.1901979645362
 31
0.0
  0
LINE
  5
12D6
330
2
100
AcDbEntity
  8
HIDS
100
AcDbLine
 10
673.9751132196905
 20
107.4401979645362
 30
0.0
 11
681.351802306068
 21
107.4401979645362
 31
0.0
  0
LINE
  5
12D7
330
2
100
AcDbEntity
  8
CENTER
  6
CENS
100
AcDbLine
 10
677.3518023060685
 20
141.4401979645362
 30
0.0
 11
677.3518023060685
 21
87.28849532494084
 31
0.0
  0
LINE
  5
12D8
330
2
100
AcDbEntity
  8
HIDS
100
AcDbLine
 10
675.3518023060685
 20
107.4401979645362
 30
0.0
 11
675.3518023060685
 21
103.1901979645362
 31
0.0
  0
LINE
  5
12D9
330
2
100
AcDbEntity
  8
HIDS
100
AcDbLine
 10
675.685135639402
 20
105.7735312978697
 30
0.0
 11
675.685135639402
 21
103.1901979645362
 31
0.0
  0
LINE
  5
12DA
330
2
100
AcDbEntity
  8
HIDS
100
AcDbLine
 10
679.018468972735
 20
105.7735312978697
 30
0.0
 11
679.018468972735
 21
103.1901979645362
 31
0.0
  0
LINE
  5
12DB
330
2
100
AcDbEntity
  8
HIDS
100
AcDbLine
 10
679.3518023060685
 20
107.4401979645362
 30
0.0
 11
679.3518023060685
 21
103.1901979645362
 31
0.0
  0
LINE
  5
12DC
330
2
100
AcDbEntity
  8
HIDS
100
AcDbLine
 10
679.3518023060685
 20
93.24019796453601
 30
0.0
 11
676.3226002521535
 21
93.24019796453601
 31
0.0
  0
LINE
  5
12DD
330
2
100
AcDbEntity
  8
HIDS
100
AcDbLine
 10
678.5518023060688
 20
92.44019796453628
 30
0.0
 11
677.0091780849677
 21
92.44019796453628
 31
0.0
  0
LINE
  5
12DE
330
2
100
AcDbEntity
  8
0
100
AcDbLine
 10
676.1518023060682
 20
92.44019796453628
 30
0.0
 11
677.0091780849677
 21
92.44019796453628
 31
0.0
  0
LINE
  5
12DF
330
2
100
AcDbEntity
  8
0
100
AcDbLine
 10
675.3518023060685
 20
93.24019796453601
 30
0.0
 11
676.1518023060682
 21
92.44019796453628
 31
0.0
  0
LINE
  5
12E0
330
2
100
AcDbEntity
  8
0
100
AcDbLine
 10
675.3518023060685
 20
93.24019796453601
 30
0.0
 11
676.3226002521535
 21
93.24019796453601
 31
0.0
  0
LINE
  5
12E1
330
2
100
AcDbEntity
  8
HIDS
100
AcDbLine
 10
679.3518023060685
 20
93.24019796453601
 30
0.0
 11
678.5518023060688
 21
92.44019796453628
 31
0.0
  0
LINE
  5
12E2
330
2
100
AcDbEntity
  8
0
100
AcDbLine
 10
673.8518023060684
 20
107.4401979645362
 30
0.0
 11
673.9751132196905
 21
107.4401979645362
 31
0.0
  0
LINE
  5
12E3
330
2
100
AcDbEntity
  8
HIDS
100
AcDbLine
 10
679.3518023060685
 20
105.7735312978697
 30
0.0
 11
675.3518023060685
 21
105.7735312978697
 31
0.0
  0
LINE
  5
12E4
330
2
100
AcDbEntity
  8
0
100
AcDbLine
 10
673.8518023060684
 20
111.1401979645365
 30
0.0
 11
675.9407780008289
 21
111.1401979645365
 31
0.0
  0
LINE
  5
12E5
330
2
100
AcDbEntity
  8
HIDS
100
AcDbLine
 10
680.3321870637976
 20
111.4401979645362
 30
0.0
 11
676.1658064135483
 21
111.4401979645362
 31
0.0
  0
LINE
  5
12E6
330
2
100
AcDbEntity
  8
0
100
AcDbLine
 10
673.8518023060684
 20
111.1401979645365
 30
0.0
 11
673.8518023060684
 21
107.4401979645362
 31
0.0
  0
LINE
  5
12E7
330
2
100
AcDbEntity
  8
HIDS
100
AcDbLine
 10
675.3518023060685
 20
107.4401979645362
 30
0.0
 11
675.685135639402
 21
105.7735312978697
 31
0.0
  0
LINE
  5
12E8
330
2
100
AcDbEntity
  8
0
100
AcDbLine
 10
673.8518023060684
 20
111.1401979645365
 30
0.0
 11
674.3714175483394
 21
111.4401979645362
 31
0.0
  0
LINE
  5
12E9
330
2
100
AcDbEntity
  8
HIDS
100
AcDbLine
 10
680.8518023060685
 20
107.4401979645362
 30
0.0
 11
680.8518023060685
 21
111.1401979645365
 31
0.0
  0
LINE
  5
12EA
330
2
100
AcDbEntity
  8
HIDS
100
AcDbLine
 10
679.3518023060685
 20
107.4401979645362
 30
0.0
 11
679.018468972735
 21
105.7735312978697
 31
0.0
  0
LINE
  5
12EB
330
2
100
AcDbEntity
  8
HIDS
100
AcDbLine
 10
680.3321870637976
 20
111.4401979645362
 30
0.0
 11
680.8518023060685
 21
111.1401979645365
 31
0.0
  0
LINE
  5
12ED
330
2
100
AcDbEntity
  8
0
100
AcDbLine
 10
677.3518023060685
 20
103.1901979645362
 30
0.0
 11
682.4031786266452
 21
103.1901979645362
 31
0.0
  0
LINE
  5
12EE
330
2
100
AcDbEntity
  8
0
100
AcDbLine
 10
677.3518023060685
 20
101.6901979645362
 30
0.0
 11
682.4031786266452
 21
101.6901979645362
 31
0.0
  0
LINE
  5
12F0
330
2
100
AcDbEntity
  8
HIDS
100
AcDbLine
 10
675.9407780008289
 20
111.1401979645365
 30
0.0
 11
680.8518023060685
 21
111.1401979645365
 31
0.0
  0
LINE
  5
12F1
330
2
100
AcDbEntity
  8
0
100
AcDbLine
 10
676.1658064135483
 20
111.4401979645362
 30
0.0
 11
674.3714175483394
 21
111.4401979645362
 31
0.0
  0
LINE
  5
12F2
330
2
100
AcDbEntity
  8
HIDS
100
AcDbLine
 10
673.9751132196905
 20
107.4401979645362
 30
0.0
 11
680.8518023060685
 21
107.4401979645362
 31
0.0
  0
LINE
  5
12F3
330
2
100
AcDbEntity
  8
0
100
AcDbLine
 10
679.3518023060685
 20
103.1901979645362
 30
0.0
 11
679.3518023060685
 21
101.6901979645362
 31
0.0
  0
LINE
  5
12F4
330
2
100
AcDbEntity
  8
HOJO
100
AcDbLine
 10
679.018468972735
 20
103.1901979645362
 30
0.0
 11
679.018468972735
 21
101.6901979645362
 31
0.0
  0
LINE
  5
12F5
330
2
100
AcDbEntity
  8
HOJO
100
AcDbLine
 10
675.685135639402
 20
103.1901979645362
 30
0.0
 11
675.685135639402
 21
101.6901979645362
 31
0.0
  0
LINE
  5
12F6
330
2
100
AcDbEntity
  8
0
100
AcDbLine
 10
675.3518023060685
 20
103.1901979645362
 30
0.0
 11
675.3518023060685
 21
101.6901979645362
 31
0.0
  0
LINE
  5
12F7
330
2
100
AcDbEntity
  8
HIDS
100
AcDbLine
 10
675.3518023060685
 20
101.6901979645362
 30
0.0
 11
675.3518023060685
 21
94.60996808285333
 31
0.0
  0
LINE
  5
12F8
330
2
100
AcDbEntity
  8
HIDS
100
AcDbLine
 10
675.685135639402
 20
101.6901979645362
 30
0.0
 11
675.685135639402
 21
94.10144972380974
 31
0.0
  0
LINE
  5
12F9
330
2
100
AcDbEntity
  8
HIDS
100
AcDbLine
 10
679.018468972735
 20
101.6901979645362
 30
0.0
 11
679.018468972735
 21
92.90686463120298
 31
0.0
  0
LINE
  5
12FA
330
2
100
AcDbEntity
  8
HIDS
100
AcDbLine
 10
679.3518023060685
 20
101.6901979645362
 30
0.0
 11
679.3518023060685
 21
93.24019796453601
 31
0.0
  0
LINE
  5
12FB
330
2
100
AcDbEntity
  8
HOJO
100
AcDbLine
 10
675.685135639402
 20
94.10144972380974
 30
0.0
 11
675.685135639402
 21
92.90686463120298
 31
0.0
  0
LINE
  5
12FC
330
2
100
AcDbEntity
  8
0
100
AcDbLine
 10
675.3518023060685
 20
94.60996808285333
 30
0.0
 11
675.3518023060685
 21
93.24019796453601
 31
0.0
  0
CIRCLE
  5
12FD
330
2
100
AcDbEntity
  8
0
100
AcDbCircle
 10
687.8518023060685
 20
102.4401979645362
 30
0.0
 40
5.499999999997157
  0
ARC
  5
12FE
330
2
100
AcDbEntity
  8
0
100
AcDbCircle
 10
687.8518023060685
 20
102.4401979645362
 30
0.0
 40
6.654700538376232
100
AcDbArc
 50
6.471114411181717
 51
173.5288855888182
  0
ARC
  5
12FF
330
2
100
AcDbEntity
  8
0
100
AcDbCircle
 10
687.8518023060685
 20
102.4401979645362
 30
0.0
 40
6.654700538376232
100
AcDbArc
 50
186.4711144111808
 51
353.5288855888182
  0
LINE
  5
1300
330
2
100
AcDbEntity
  8
0
100
AcDbLine
 10
672.3518023060685
 20
136.4401979645362
 30
0.0
 11
682.3518023060685
 21
136.4401979645362
 31
0.0
  0
ARC
  5
1301
330
2
100
AcDbEntity
  8
0
100
AcDbCircle
 10
682.3518023060685
 20
132.4401979645362
 30
0.0
 40
3.999999999999971
100
AcDbArc
 50
359.9999999999544
 51
90.0
  0
ARC
  5
1302
330
2
100
AcDbEntity
  8
0
100
AcDbCircle
 10
672.3518023060685
 20
132.4401979645362
 30
0.0
 40
4.000000000000056
100
AcDbArc
 50
90.0
 51
180.0000000000455
  0
ARC
  5
1303
330
2
100
AcDbEntity
  8
0
100
AcDbCircle
 10
714.6993136810267
 20
129.3327921185677
 30
0.0
 40
3.499999999999717
100
AcDbArc
 50
331.4660973942729
 51
117.7026032046078
  0
ARC
  5
1304
330
2
100
AcDbEntity
  8
0
100
AcDbCircle
 10
714.6993136810267
 20
129.3327921185677
 30
0.0
 40
2.980384757729353
100
AcDbArc
 50
347.989169496133
 51
101.179531102749
  0
ARC
  5
1305
330
2
100
AcDbEntity
  8
0
100
AcDbCircle
 10
660.959208152037
 20
129.2877093394945
 30
0.0
 40
3.499999999999717
100
AcDbArc
 50
63.62312482356935
 51
209.9169029323347
  0
ARC
  5
1306
330
2
100
AcDbEntity
  8
0
100
AcDbCircle
 10
660.959208152037
 20
129.2877093394945
 30
0.0
 40
2.980384757729353
100
AcDbArc
 50
80.12981105458875
 51
193.4102167013254
  0
ARC
  5
1307
330
2
100
AcDbEntity
  8
0
100
AcDbCircle
 10
661.0042909311098
 20
75.54760381050479
 30
0.0
 40
3.499999999999717
100
AcDbArc
 50
151.4660973942759
 51
297.7026032046078
  0
ARC
  5
1308
330
2
100
AcDbEntity
  8
0
100
AcDbCircle
 10
661.0042909311098
 20
75.54760381050479
 30
0.0
 40
2.980384757729353
100
AcDbArc
 50
167.989169496133
 51
281.179531102749
  0
ARC
  5
1309
330
2
100
AcDbEntity
  8
0
100
AcDbCircle
 10
714.7443964600995
 20
75.59268658957805
 30
0.0
 40
3.499999999999717
100
AcDbArc
 50
243.6231248237703
 51
29.91690293243689
  0
ARC
  5
130A
330
2
100
AcDbEntity
  8
0
100
AcDbCircle
 10
714.7443964600995
 20
75.59268658957805
 30
0.0
 40
2.980384757729353
100
AcDbArc
 50
260.1298110548003
 51
13.41021670139828
  0
CIRCLE
  5
130B
330
2
100
AcDbEntity
  8
HOJO
100
AcDbCircle
 10
712.6005396475959
 20
127.1889353060619
 30
0.0
 40
2.0
  0
CIRCLE
  5
130C
330
2
100
AcDbEntity
  8
0
100
AcDbCircle
 10
712.6005396475959
 20
127.1889353060619
 30
0.0
 40
1.6
  0
CIRCLE
  5
130D
330
2
100
AcDbEntity
  8
HOJO
100
AcDbCircle
 10
663.103064964537
 20
127.1889353060623
 30
0.0
 40
2.0
  0
CIRCLE
  5
130E
330
2
100
AcDbEntity
  8
0
100
AcDbCircle
 10
663.103064964537
 20
127.1889353060623
 30
0.0
 40
1.6
  0
CIRCLE
  5
130F
330
2
100
AcDbEntity
  8
HOJO
100
AcDbCircle
 10
663.1030649645374
 20
77.69146062300385
 30
0.0
 40
2.0
  0
CIRCLE
  5
1310
330
2
100
AcDbEntity
  8
0
100
AcDbCircle
 10
663.1030649645374
 20
77.69146062300385
 30
0.0
 40
1.6
  0
CIRCLE
  5
1311
330
2
100
AcDbEntity
  8
HOJO
100
AcDbCircle
 10
712.6005396475955
 20
77.6914606230043
 30
0.0
 40
2.0
  0
CIRCLE
  5
1312
330
2
100
AcDbEntity
  8
0
100
AcDbCircle
 10
712.6005396475955
 20
77.6914606230043
 30
0.0
 40
1.6
  0
LINE
  5
1313
330
2
100
AcDbEntity
  8
HIDS
100
AcDbLine
 10
667.8175014419892
 20
130.475102777414
 30
0.0
 11
667.7383729058036
 21
125.9418319754544
 31
0.0
  0
ARC
  5
1314
330
2
100
AcDbEntity
  8
HIDS
100
AcDbCircle
 10
669.817196832302
 20
130.4401979645394
 30
0.0
 40
2.0
100
AcDbArc
 50
90.0
 51
178.9999999999721
  0
ARC
  5
1315
330
2
100
AcDbEntity
  8
HIDS
100
AcDbCircle
 10
664.7388298203343
 20
125.9941891947664
 30
0.0
 40
3.0
100
AcDbArc
 50
314.4585514346904
 51
359.0000000000242
  0
CIRCLE
  5
1316
330
2
100
AcDbEntity
  8
0
100
AcDbCircle
 10
687.8518023060685
 20
102.4401979645362
 30
0.0
 40
22.5
  0
LINE
  5
1317
330
2
100
AcDbEntity
  8
0
100
AcDbLine
 10
686.0713888969996
 20
133.9114816192283
 30
0.0
 11
687.8518023060689
 21
133.9401979645365
 31
0.0
  0
LINE
  5
1318
330
2
100
AcDbEntity
  8
0
100
AcDbLine
 10
544.9645134393234
 20
125.6500196886569
 30
0.0
 11
545.0144347138405
 21
128.5100075902956
 31
0.0
  0
LINE
  5
1319
330
2
100
AcDbEntity
  8
0
100
AcDbLine
 10
519.4307491157196
 20
109.8097138598915
 30
0.0
 11
519.0354279134216
 21
132.4576503709842
 31
0.0
  0
LINE
  5
131A
330
2
100
AcDbEntity
  8
0
100
AcDbLine
 10
511.5593844941566
 20
102.4401979645464
 30
0.0
 11
512.0194238473425
 21
102.4401979645464
 31
0.0
  0
ARC
  5
131B
330
2
100
AcDbEntity
  8
0
100
AcDbCircle
 10
527.4758198694589
 20
127.6789644253204
 30
0.0
 40
3.0
100
AcDbArc
 50
270.0
 51
359.0000000000242
  0
LINE
  5
131C
330
2
100
AcDbEntity
  8
0
100
AcDbLine
 10
541.9471066225213
 20
124.6789644253209
 30
0.0
 11
527.4758198694589
 21
124.6789644253209
 31
0.0
  0
LINE
  5
131D
330
2
100
AcDbEntity
  8
0
100
AcDbLine
 10
524.0650792263848
 20
72.44019796454643
 30
0.0
 11
554.5593844941566
 21
72.44019796454643
 31
0.0
  0
LINE
  5
131E
330
2
100
AcDbEntity
  8
0
100
AcDbLine
 10
547.5593844941567
 20
124.9401979645459
 30
0.0
 11
544.4587178225386
 21
124.9401979645464
 31
0.0
  0
LINE
  5
131F
330
2
100
AcDbEntity
  8
0
100
AcDbLine
 10
544.5593844941567
 20
102.4401979645464
 30
0.0
 11
545.0144347138411
 21
76.37038833879717
 31
0.0
  0
ARC
  5
1320
330
2
100
AcDbEntity
  8
0
100
AcDbCircle
 10
549.0138254944662
 20
76.44019796454642
 30
0.0
 40
4.0
100
AcDbArc
 50
181.0000000000017
 51
270.0
  0
ARC
  5
1321
330
2
100
AcDbEntity
  8
0
100
AcDbCircle
 10
532.5247790203873
 20
130.4401979645464
 30
0.0
 40
2.0
100
AcDbArc
 50
90.0
 51
179.0000000000242
  0
LINE
  5
1322
330
2
100
AcDbEntity
  8
0
100
AcDbLine
 10
530.525083630075
 20
130.475102777421
 30
0.0
 11
530.4753629549285
 21
127.626607206009
 31
0.0
  0
LINE
  5
1323
330
2
100
AcDbEntity
  8
0
100
AcDbLine
 10
519.5593844941644
 20
102.4401979645464
 30
0.0
 11
519.0354279134225
 21
72.42274555810912
 31
0.0
  0
ARC
  5
1324
330
2
100
AcDbEntity
  8
0
100
AcDbCircle
 10
520.6813315293301
 20
69.44019796454643
 30
0.0
 40
3.0
100
AcDbArc
 50
118.7571570414059
 51
131.40962210926
  0
ARC
  5
1325
330
2
100
AcDbEntity
  8
0
100
AcDbCircle
 10
518.0355802182661
 20
72.44019796454643
 30
0.0
 40
1.0
100
AcDbArc
 50
270.0
 51
358.9999999999852
  0
LINE
  5
1326
330
2
100
AcDbEntity
  8
0
100
AcDbLine
 10
511.5593844941566
 20
71.44019796454642
 30
0.0
 11
518.0355802182661
 21
71.44019796454642
 31
0.0
  0
LINE
  5
1327
330
2
100
AcDbEntity
  8
0
100
AcDbLine
 10
524.0650792263848
 20
132.4401979645464
 30
0.0
 11
554.5593844941566
 21
132.4401979645464
 31
0.0
  0
LINE
  5
1328
330
2
100
AcDbEntity
  8
CENTER
  6
CENS
100
AcDbLine
 10
540.5593844941567
 20
141.4401979645496
 30
0.0
 11
540.5593844941567
 21
118.9577882467962
 31
0.0
  0
ARC
  5
1329
330
2
100
AcDbEntity
  8
0
100
AcDbCircle
 10
549.0138254944658
 20
128.4401979645464
 30
0.0
 40
4.0
100
AcDbArc
 50
90.0
 51
178.9999999999982
  0
ARC
  5
132A
330
2
100
AcDbEntity
  8
0
100
AcDbCircle
 10
520.6813315293287
 20
135.4401979645464
 30
0.0
 40
3.0
100
AcDbArc
 50
228.5903778907486
 51
241.242842958594
  0
ARC
  5
132B
330
2
100
AcDbEntity
  8
0
100
AcDbCircle
 10
518.0355802182647
 20
132.4401979645464
 30
0.0
 40
1.0
100
AcDbArc
 50
1.000000000014801
 51
90.0
  0
LINE
  5
132C
330
2
100
AcDbEntity
  8
0
100
AcDbLine
 10
511.5593844941566
 20
133.4401979645464
 30
0.0
 11
518.0355802182647
 21
133.4401979645464
 31
0.0
  0
LINE
  5
132D
330
2
100
AcDbEntity
  8
0
100
AcDbLine
 10
554.5593844941566
 20
132.4401979645464
 30
0.0
 11
554.5593844941566
 21
72.44019796454643
 31
0.0
  0
LINE
  5
132E
330
2
100
AcDbEntity
  8
0
100
AcDbLine
 10
520.1514596267851
 20
132.8101979645463
 30
0.0
 11
519.1514596267851
 21
132.8101979645463
 31
0.0
  0
LINE
  5
132F
330
2
100
AcDbEntity
  8
0
100
AcDbLine
 10
519.1514596267851
 20
132.8101979645463
 30
0.0
 11
519.1514596267851
 21
125.8101979645463
 31
0.0
  0
LINE
  5
1330
330
2
100
AcDbEntity
  8
0
100
AcDbLine
 10
519.1514596267851
 20
125.8101979645463
 30
0.0
 11
520.1514596267851
 21
125.8101979645463
 31
0.0
  0
LINE
  5
1331
330
2
100
AcDbEntity
  8
0
100
AcDbLine
 10
520.1514596267851
 20
125.8101979645463
 30
0.0
 11
520.1514596267851
 21
132.8101979645463
 31
0.0
  0
LINE
  5
1332
330
2
100
AcDbEntity
  8
0
100
AcDbLine
 10
524.1514596267851
 20
132.2905827222758
 30
0.0
 11
524.1514596267851
 21
126.3298132068167
 31
0.0
  0
LINE
  5
1333
330
2
100
AcDbEntity
  8
0
100
AcDbLine
 10
523.8514596267849
 20
125.8101979645463
 30
0.0
 11
523.8514596267849
 21
132.8101979645463
 31
0.0
  0
LINE
  5
1334
330
2
100
AcDbEntity
  8
0
100
AcDbLine
 10
523.8514596267849
 20
125.8101979645463
 30
0.0
 11
520.1514596267851
 21
125.8101979645463
 31
0.0
  0
LINE
  5
1335
330
2
100
AcDbEntity
  8
0
100
AcDbLine
 10
523.8514596267849
 20
125.8101979645463
 30
0.0
 11
524.1514596267851
 21
126.3298132068167
 31
0.0
  0
LINE
  5
1336
330
2
100
AcDbEntity
  8
0
100
AcDbLine
 10
524.1514596267851
 20
132.2905827222758
 30
0.0
 11
523.8514596267849
 21
132.8101979645463
 31
0.0
  0
LINE
  5
1337
330
2
100
AcDbEntity
  8
0
100
AcDbLine
 10
520.1514596267851
 20
132.8101979645463
 30
0.0
 11
523.8514596267849
 21
132.8101979645463
 31
0.0
  0
LINE
  5
1338
330
2
100
AcDbEntity
  8
CENTER
  6
CENS
100
AcDbLine
 10
529.090366899535
 20
129.3101979645467
 30
0.0
 11
506.0904098099126
 21
129.3101979645467
 31
0.0
  0
LINE
  5
1339
330
2
100
AcDbEntity
  8
CENTER
  6
CENS
100
AcDbLine
 10
529.090366899535
 20
75.57019796454608
 30
0.0
 11
506.0904098099126
 21
75.57019796454608
 31
0.0
  0
LINE
  5
133A
330
2
100
AcDbEntity
  8
0
100
AcDbLine
 10
520.1514596267851
 20
72.07019796454654
 30
0.0
 11
519.1514596267851
 21
72.07019796454654
 31
0.0
  0
LINE
  5
133B
330
2
100
AcDbEntity
  8
0
100
AcDbLine
 10
519.1514596267851
 20
72.07019796454654
 30
0.0
 11
519.1514596267851
 21
79.07019796454654
 31
0.0
  0
LINE
  5
133C
330
2
100
AcDbEntity
  8
0
100
AcDbLine
 10
519.1514596267851
 20
79.07019796454654
 30
0.0
 11
520.1514596267851
 21
79.07019796454654
 31
0.0
  0
LINE
  5
133D
330
2
100
AcDbEntity
  8
0
100
AcDbLine
 10
520.1514596267851
 20
79.07019796454654
 30
0.0
 11
520.1514596267851
 21
72.07019796454654
 31
0.0
  0
LINE
  5
133E
330
2
100
AcDbEntity
  8
0
100
AcDbLine
 10
524.1514596267851
 20
72.58981320681698
 30
0.0
 11
524.1514596267851
 21
78.55058272227608
 31
0.0
  0
LINE
  5
133F
330
2
100
AcDbEntity
  8
0
100
AcDbLine
 10
523.8514596267849
 20
79.07019796454654
 30
0.0
 11
523.8514596267849
 21
72.07019796454654
 31
0.0
  0
LINE
  5
1340
330
2
100
AcDbEntity
  8
0
100
AcDbLine
 10
523.8514596267849
 20
79.07019796454654
 30
0.0
 11
520.1514596267851
 21
79.07019796454654
 31
0.0
  0
LINE
  5
1341
330
2
100
AcDbEntity
  8
0
100
AcDbLine
 10
523.8514596267849
 20
79.07019796454654
 30
0.0
 11
524.1514596267851
 21
78.55058272227608
 31
0.0
  0
LINE
  5
1342
330
2
100
AcDbEntity
  8
0
100
AcDbLine
 10
524.1514596267851
 20
72.58981320681698
 30
0.0
 11
523.8514596267849
 21
72.07019796454654
 31
0.0
  0
LINE
  5
1343
330
2
100
AcDbEntity
  8
0
100
AcDbLine
 10
520.1514596267851
 20
72.07019796454654
 30
0.0
 11
523.8514596267849
 21
72.07019796454654
 31
0.0
  0
LINE
  5
1344
330
2
100
AcDbEntity
  8
0
100
AcDbLine
 10
545.059373885106
 20
107.9401979645468
 30
0.0
 11
535.0593738851056
 21
107.9401979645468
 31
0.0
  0
LINE
  5
1345
330
2
100
AcDbEntity
  8
0
100
AcDbLine
 10
545.059373885106
 20
107.9401979645464
 30
0.0
 11
545.059373885106
 21
102.4401979645464
 31
0.0
  0
LINE
  5
1346
330
2
100
AcDbEntity
  8
0
100
AcDbLine
 10
547.0593738851061
 20
109.0948985029259
 30
0.0
 11
545.059373885106
 21
107.9401979645464
 31
0.0
  0
LINE
  5
1347
330
2
100
AcDbEntity
  8
0
100
AcDbLine
 10
518.0593738851065
 20
108.1901979645464
 30
0.0
 11
518.0593738851065
 21
102.4401979645464
 31
0.0
  0
LINE
  5
1348
330
2
100
AcDbEntity
  8
0
100
AcDbLine
 10
545.059373885106
 20
107.9401979645464
 30
0.0
 11
535.0593738851061
 21
107.9401979645464
 31
0.0
  0
LINE
  5
1349
330
2
100
AcDbEntity
  8
0
100
AcDbLine
 10
539.9715880637789
 20
117.1901979645464
 30
0.0
 11
547.0593738851061
 21
117.1901979645464
 31
0.0
  0
LINE
  5
134A
330
2
100
AcDbEntity
  8
0
100
AcDbLine
 10
547.0593738851061
 20
117.1901979645464
 30
0.0
 11
547.0593738851061
 21
102.4401979645464
 31
0.0
  0
LINE
  5
134B
330
2
100
AcDbEntity
  8
0
100
AcDbLine
 10
533.059373885106
 20
112.7248791512694
 30
0.0
 11
533.059373885106
 21
102.4401979645464
 31
0.0
  0
LINE
  5
134C
330
2
100
AcDbEntity
  8
0
100
AcDbLine
 10
535.0593738851061
 20
113.2502792987016
 30
0.0
 11
535.0593738851061
 21
102.4401979645464
 31
0.0
  0
LINE
  5
134D
330
2
100
AcDbEntity
  8
0
100
AcDbLine
 10
526.0593738851065
 20
108.1901979645464
 30
0.0
 11
518.0593738851065
 21
108.1901979645464
 31
0.0
  0
LINE
  5
134E
330
2
100
AcDbEntity
  8
0
100
AcDbLine
 10
526.0593738851065
 20
102.4401979645464
 30
0.0
 11
526.0593738851065
 21
108.1901979645464
 31
0.0
  0
LINE
  5
134F
330
2
100
AcDbEntity
  8
0
100
AcDbLine
 10
533.059373885106
 20
107.9401979645464
 30
0.0
 11
526.0593738851065
 21
107.9401979645464
 31
0.0
  0
LINE
  5
1350
330
2
100
AcDbEntity
  8
0
100
AcDbLine
 10
515.1726225391583
 20
102.4401979645464
 30
0.0
 11
518.0593738851065
 21
107.4401979645464
 31
0.0
  0
LINE
  5
1351
330
2
100
AcDbEntity
  8
0
100
AcDbLine
 10
547.5593844941567
 20
127.4401979645464
 30
0.0
 11
547.5593844941571
 21
102.4401979645464
 31
0.0
  0
LINE
  5
1352
330
2
100
AcDbEntity
  8
0
100
AcDbLine
 10
554.5593844941566
 20
127.4401979645464
 30
0.0
 11
547.5593844941567
 21
127.4401979645464
 31
0.0
  0
SPLINE
  5
1353
330
2
100
AcDbEntity
  8
HOJO
100
AcDbSpline
210
0.0
220
0.0
230
1.0
 70
     8
 71
     3
 72
    20
 73
    16
 74
     0
 42
0.0000000001
 43
0.0000000001
 40
0.0
 40
0.0
 40
0.0
 40
0.0
 40
5.311626210389601
 40
7.954639692924123
 40
10.24579206730457
 40
14.18281221953265
 40
18.83794314114633
 40
26.54246833222011
 40
31.19712602527561
 40
34.95638115537181
 40
42.12378530287149
 40
45.78553747213095
 40
50.20353689726185
 40
53.26513166942802
 40
54.23175360515262
 40
54.23175360515262
 40
54.23175360515262
 40
54.23175360515262
 10
554.5593844941566
 20
129.1276466865625
 30
0.0
 10
552.8464053282681
 20
129.0196046363363
 30
0.0
 10
550.2810644088571
 20
128.8578019139323
 30
0.0
 10
546.5093105217801
 20
128.6056692417643
 30
0.0
 10
545.190169305646
 20
125.6732277567977
 30
0.0
 10
542.7549599373555
 20
123.0187189335021
 30
0.0
 10
540.9169115942053
 20
117.8674235003382
 30
0.0
 10
536.7920751847281
 20
113.1576761487127
 30
0.0
 10
531.3144276817219
 20
112.5203447142931
 30
0.0
 10
526.4010421721563
 20
110.8340257675855
 30
0.0
 10
521.5670428253978
 20
110.2140386756115
 30
0.0
 10
516.5293160607592
 20
109.2588146579502
 30
0.0
 10
513.4581654393895
 20
106.7246028151995
 30
0.0
 10
512.4581911446638
 20
104.0463622943099
 30
0.0
 10
512.1021516194312
 20
102.7513492642389
 30
0.0
 10
512.0194238473426
 20
102.4401979645464
 30
0.0
  0
LINE
  5
1354
330
2
100
AcDbEntity
  8
0
100
AcDbLine
 10
545.5593844941566
 20
136.4401979645464
 30
0.0
 11
535.5593844941567
 21
136.4401979645464
 31
0.0
  0
ARC
  5
1355
330
2
100
AcDbEntity
  8
0
100
AcDbCircle
 10
535.5593844941567
 20
132.4401979645464
 30
0.0
 40
4.0
100
AcDbArc
 50
90.0
 51
180.0
  0
ARC
  5
1356
330
2
100
AcDbEntity
  8
0
100
AcDbCircle
 10
545.5593844941566
 20
132.4401979645464
 30
0.0
 40
4.000000000000028
100
AcDbArc
 50
0.0
 51
90.0
  0
LINE
  5
1357
330
2
100
AcDbEntity
  8
0
100
AcDbLine
 10
519.5593844941582
 20
327.8876682526042
 30
0.0
 11
519.5593844941572
 21
281.1476682526044
 31
0.0
  0
LINE
  5
1358
330
2
100
AcDbEntity
  8
0
100
AcDbLine
 10
544.5593844941572
 20
307.5176682526043
 30
0.0
 11
544.5593844941572
 21
330.5176682526043
 31
0.0
  0
ARC
  5
1359
330
2
100
AcDbEntity
  8
0
100
AcDbCircle
 10
548.5593844941567
 20
330.5176682526043
 30
0.0
 40
4.0
100
AcDbArc
 50
90.0
 51
180.0
  0
LINE
  5
135A
330
2
100
AcDbEntity
  8
0
100
AcDbLine
 10
554.5593844941572
 20
334.5176682526043
 30
0.0
 11
524.0650792263854
 21
334.5176682526043
 31
0.0
  0
LINE
  5
135B
330
2
100
AcDbEntity
  8
0
100
AcDbLine
 10
518.5593844941581
 20
335.5176682526043
 30
0.0
 11
511.5593844941572
 21
335.5176682526043
 31
0.0
  0
ARC
  5
135C
330
2
100
AcDbEntity
  8
0
100
AcDbCircle
 10
521.2051358052226
 20
337.5176682526043
 30
0.0
 40
3.0
100
AcDbArc
 50
228.5903778907203
 51
241.242842958594
  0
ARC
  5
135D
330
2
100
AcDbEntity
  8
0
100
AcDbCircle
 10
518.5593844941581
 20
334.5176682526043
 30
0.0
 40
1.0
100
AcDbArc
 50
21.71561728325768
 51
90.0
  0
ARC
  5
135E
330
2
100
AcDbEntity
  8
0
100
AcDbCircle
 10
548.5593844941572
 20
278.5176682526043
 30
0.0
 40
4.0
100
AcDbArc
 50
180.0
 51
270.0
  0
ARC
  5
135F
330
2
100
AcDbEntity
  8
0
100
AcDbCircle
 10
541.5593844941573
 20
281.5176682526043
 30
0.0
 40
3.0
100
AcDbArc
 50
0.0
 51
90.0
  0
ARC
  5
1360
330
2
100
AcDbEntity
  8
0
100
AcDbCircle
 10
541.5593844941573
 20
307.5176682526043
 30
0.0
 40
3.0
100
AcDbArc
 50
270.0
 51
0.0
  0
LINE
  5
1361
330
2
100
AcDbEntity
  8
0
100
AcDbLine
 10
530.5593844941568
 20
287.5176682526043
 30
0.0
 11
530.5593844941572
 21
301.5176682526043
 31
0.0
  0
LINE
  5
1362
330
2
100
AcDbEntity
  8
0
100
AcDbLine
 10
541.5593844941573
 20
304.5176682526043
 30
0.0
 11
533.5593844941572
 21
304.5176682526043
 31
0.0
  0
ARC
  5
1363
330
2
100
AcDbEntity
  8
0
100
AcDbCircle
 10
533.5593844941572
 20
301.5176682526043
 30
0.0
 40
3.0
100
AcDbArc
 50
90.0
 51
180.0
  0
LINE
  5
1364
330
2
100
AcDbEntity
  8
0
100
AcDbLine
 10
541.5593844941573
 20
284.5176682526043
 30
0.0
 11
533.5593844941568
 21
284.5176682526043
 31
0.0
  0
LINE
  5
1365
330
2
100
AcDbEntity
  8
0
100
AcDbLine
 10
544.5593844941572
 20
278.5176682526043
 30
0.0
 11
544.5593844941572
 21
281.5176682526043
 31
0.0
  0
ARC
  5
1366
330
2
100
AcDbEntity
  8
0
100
AcDbCircle
 10
533.5593844941568
 20
287.5176682526043
 30
0.0
 40
3.0
100
AcDbArc
 50
180.0
 51
270.0
  0
LINE
  5
1367
330
2
100
AcDbEntity
  8
0
100
AcDbLine
 10
554.5593844941572
 20
274.5176682526043
 30
0.0
 11
524.0650792263859
 21
274.5176682526043
 31
0.0
  0
LINE
  5
1368
330
2
100
AcDbEntity
  8
0
100
AcDbLine
 10
518.5593844941568
 20
273.5176682526043
 30
0.0
 11
511.5593844941572
 21
273.5176682526043
 31
0.0
  0
ARC
  5
1369
330
2
100
AcDbEntity
  8
0
100
AcDbCircle
 10
521.2051358052217
 20
271.5176682526043
 30
0.0
 40
3.0
100
AcDbArc
 50
118.7571570414059
 51
131.4096221092842
  0
ARC
  5
136A
330
2
100
AcDbEntity
  8
0
100
AcDbCircle
 10
518.5593844941568
 20
274.5176682526043
 30
0.0
 40
1.0
100
AcDbArc
 50
270.0
 51
338.2843827167423
  0
LINE
  5
136B
330
2
100
AcDbEntity
  8
0
100
AcDbLine
 10
554.5593844941572
 20
274.5176682526043
 30
0.0
 11
554.5593844941572
 21
334.5176682526043
 31
0.0
  0
LINE
  5
136C
330
2
100
AcDbEntity
  8
CENTER
  6
CENS
100
AcDbLine
 10
529.0903668995356
 20
277.6476682526044
 30
0.0
 11
506.0904098099131
 21
277.6476682526044
 31
0.0
  0
LINE
  5
136D
330
2
100
AcDbEntity
  8
0
100
AcDbLine
 10
520.1514596267856
 20
274.1476682526044
 30
0.0
 11
519.1514596267857
 21
274.1476682526044
 31
0.0
  0
LINE
  5
136E
330
2
100
AcDbEntity
  8
0
100
AcDbLine
 10
519.1514596267857
 20
281.1476682526044
 30
0.0
 11
520.1514596267856
 21
281.1476682526044
 31
0.0
  0
LINE
  5
136F
330
2
100
AcDbEntity
  8
0
100
AcDbLine
 10
520.1514596267856
 20
281.1476682526044
 30
0.0
 11
520.1514596267856
 21
274.1476682526044
 31
0.0
  0
LINE
  5
1370
330
2
100
AcDbEntity
  8
0
100
AcDbLine
 10
524.1514596267856
 20
274.6672834948753
 30
0.0
 11
524.1514596267856
 21
280.6280530103339
 31
0.0
  0
LINE
  5
1371
330
2
100
AcDbEntity
  8
0
100
AcDbLine
 10
523.8514596267854
 20
281.1476682526044
 30
0.0
 11
523.8514596267854
 21
274.1476682526044
 31
0.0
  0
LINE
  5
1372
330
2
100
AcDbEntity
  8
0
100
AcDbLine
 10
523.8514596267854
 20
281.1476682526044
 30
0.0
 11
520.1514596267856
 21
281.1476682526044
 31
0.0
  0
LINE
  5
1373
330
2
100
AcDbEntity
  8
0
100
AcDbLine
 10
523.8514596267854
 20
281.1476682526044
 30
0.0
 11
524.1514596267856
 21
280.6280530103339
 31
0.0
  0
LINE
  5
1374
330
2
100
AcDbEntity
  8
0
100
AcDbLine
 10
524.1514596267856
 20
274.6672834948753
 30
0.0
 11
523.8514596267854
 21
274.1476682526044
 31
0.0
  0
LINE
  5
1375
330
2
100
AcDbEntity
  8
0
100
AcDbLine
 10
520.1514596267856
 20
274.1476682526044
 30
0.0
 11
523.8514596267854
 21
274.1476682526044
 31
0.0
  0
LINE
  5
1376
330
2
100
AcDbEntity
  8
0
100
AcDbLine
 10
519.1514596267857
 20
274.1476682526044
 30
0.0
 11
519.1514596267857
 21
281.1476682526044
 31
0.0
  0
LINE
  5
1377
330
2
100
AcDbEntity
  8
0
100
AcDbLine
 10
519.1514596267857
 20
281.1476682526044
 30
0.0
 11
519.1514596267857
 21
274.1476682526044
 31
0.0
  0
LINE
  5
1378
330
2
100
AcDbEntity
  8
CENTER
  6
CENS
100
AcDbLine
 10
529.0903668995356
 20
331.3876682526046
 30
0.0
 11
506.0904098099131
 21
331.3876682526046
 31
0.0
  0
LINE
  5
1379
330
2
100
AcDbEntity
  8
0
100
AcDbLine
 10
520.1514596267856
 20
334.8876682526042
 30
0.0
 11
519.1514596267857
 21
334.8876682526042
 31
0.0
  0
LINE
  5
137A
330
2
100
AcDbEntity
  8
0
100
AcDbLine
 10
519.1514596267857
 20
327.8876682526042
 30
0.0
 11
520.1514596267856
 21
327.8876682526042
 31
0.0
  0
LINE
  5
137B
330
2
100
AcDbEntity
  8
0
100
AcDbLine
 10
520.1514596267856
 20
327.8876682526042
 30
0.0
 11
520.1514596267856
 21
334.8876682526042
 31
0.0
  0
LINE
  5
137C
330
2
100
AcDbEntity
  8
0
100
AcDbLine
 10
524.1514596267856
 20
334.3680530103337
 30
0.0
 11
524.1514596267856
 21
328.4072834948751
 31
0.0
  0
LINE
  5
137D
330
2
100
AcDbEntity
  8
0
100
AcDbLine
 10
523.8514596267854
 20
327.8876682526042
 30
0.0
 11
523.8514596267854
 21
334.8876682526042
 31
0.0
  0
LINE
  5
137E
330
2
100
AcDbEntity
  8
0
100
AcDbLine
 10
523.8514596267854
 20
327.8876682526042
 30
0.0
 11
520.1514596267856
 21
327.8876682526042
 31
0.0
  0
LINE
  5
137F
330
2
100
AcDbEntity
  8
0
100
AcDbLine
 10
523.8514596267854
 20
327.8876682526042
 30
0.0
 11
524.1514596267856
 21
328.4072834948751
 31
0.0
  0
LINE
  5
1380
330
2
100
AcDbEntity
  8
0
100
AcDbLine
 10
524.1514596267856
 20
334.3680530103337
 30
0.0
 11
523.8514596267854
 21
334.8876682526042
 31
0.0
  0
LINE
  5
1381
330
2
100
AcDbEntity
  8
0
100
AcDbLine
 10
520.1514596267856
 20
334.8876682526042
 30
0.0
 11
523.8514596267854
 21
334.8876682526042
 31
0.0
  0
LINE
  5
1382
330
2
100
AcDbEntity
  8
0
100
AcDbLine
 10
519.1514596267857
 20
334.8876682526042
 30
0.0
 11
519.1514596267857
 21
327.8876682526042
 31
0.0
  0
LINE
  5
1383
330
2
100
AcDbEntity
  8
0
100
AcDbLine
 10
519.1514596267857
 20
327.8876682526042
 30
0.0
 11
519.1514596267857
 21
334.8876682526042
 31
0.0
  0
CIRCLE
  5
1384
330
2
100
AcDbEntity
  8
0
100
AcDbCircle
 10
540.5593844941572
 20
294.0176682526043
 30
0.0
 40
9.0
  0
LINE
  5
1385
330
2
100
AcDbEntity
  8
CENTER
  6
CENS
100
AcDbLine
 10
540.5593844941572
 20
282.4771573484808
 30
0.0
 11
540.5593844941572
 21
305.5581791567287
 31
0.0
  0
LINE
  5
1386
330
2
100
AcDbEntity
  8
CENTER
  6
CENS
100
AcDbLine
 10
552.0998953982812
 20
294.0176682526047
 30
0.0
 11
529.0188735900333
 21
294.0176682526047
 31
0.0
  0
TEXT
  5
1394
330
2
100
AcDbEntity
  8
TITLE
100
AcDbText
 10
248.0020981337646
 20
305.0289442002804
 30
0.0
 40
5.0
  1
AFCZ12L-3~5M200S3
100
AcDbText
  0
TEXT
  5
1396
330
2
100
AcDbEntity
  8
TITLE
100
AcDbText
 10
248.0020981337646
 20
294.6990533213002
 30
0.0
 40
5.0
  1
AFCZ12L-3~5L200S3
100
AcDbText
  0
CIRCLE
  5
1D5D
330
2
100
AcDbEntity
  8
0
100
AcDbCircle
 10
687.8518023060681
 20
102.4401979645362
 30
0.0
 40
14.75
  0
LINE
  5
21EC
330
2
100
AcDbEntity
  8
CENTER
100
AcDbLine
 10
269.8131273543331
 20
63.94019796454244
 30
0.0
 11
269.8131273543331
 21
140.9401979645429
 31
0.0
  0
LINE
  5
21ED
330
2
100
AcDbEntity
  8
CENTER
100
AcDbLine
 10
123.6436085397671
 20
136.0970522140415
 30
0.0
 11
190.9573170387542
 21
68.78334371505428
 31
0.0
  0
LINE
  5
21EE
330
2
100
AcDbEntity
  8
CENTER
100
AcDbLine
 10
190.9573170387542
 20
136.097052214039
 30
0.0
 11
123.6436085397698
 21
68.78334371505417
 31
0.0
  0
LINE
  5
21EF
330
2
100
AcDbEntity
  8
CENTER
100
AcDbLine
 10
157.300462789262
 20
64.44019796454665
 30
0.0
 11
157.300462789262
 21
140.4401979645466
 31
0.0
  0
LINE
  5
21F2
330
2
100
AcDbEntity
  8
CENTER
100
AcDbLine
 10
473.4294421792427
 20
122.8102556496358
 30
0.0
 11
473.4294421792427
 21
135.8102556496354
 31
0.0
  0
LINE
  5
21F3
330
2
100
AcDbEntity
  8
CENTER
100
AcDbLine
 10
419.6893268090652
 20
135.8102556496358
 30
0.0
 11
419.6893268090652
 21
122.8102556496358
 31
0.0
  0
LINE
  5
21F4
330
2
100
AcDbEntity
  8
CENTER
100
AcDbLine
 10
412.9025302446615
 20
136.0970522140392
 30
0.0
 11
480.2162387436459
 21
68.78334371505417
 31
0.0
  0
LINE
  5
21F5
330
2
100
AcDbEntity
  8
CENTER
100
AcDbLine
 10
480.2162387436464
 20
136.0970522140392
 30
0.0
 11
412.9025302446611
 21
68.78334371505445
 31
0.0
  0
CIRCLE
  5
21F6
330
2
100
AcDbEntity
  8
CENTER
100
AcDbCircle
 10
446.5593844941539
 20
102.4401979645468
 30
0.0
 40
38.0
  0
LINE
  5
21F8
330
2
100
AcDbEntity
  8
CENTER
100
AcDbLine
 10
446.5593844941539
 20
147.4401979645468
 30
0.0
 11
446.5593844941539
 21
57.44019796454683
 31
0.0
  0
LINE
  5
21FB
330
2
100
AcDbEntity
  8
0
100
AcDbLine
 10
92.3004627892584
 20
133.9401979645457
 30
0.0
 11
98.30046278926023
 21
133.9401979645461
 31
0.0
  0
LINE
  5
21FC
330
2
100
AcDbEntity
  8
0
100
AcDbLine
 10
92.30046278926204
 20
70.94019796454666
 30
0.0
 11
98.30046278926023
 21
70.94019796454666
 31
0.0
  0
LINE
  5
21FD
330
2
100
AcDbEntity
  8
0
100
AcDbLine
 10
92.30046278926204
 20
71.44019796454665
 30
0.0
 11
98.30046278926023
 21
71.44019796454665
 31
0.0
  0
LINE
  5
21FE
330
2
100
AcDbEntity
  8
0
100
AcDbLine
 10
92.3004627892584
 20
133.4401979645457
 30
0.0
 11
98.30046278926023
 21
133.4401979645462
 31
0.0
  0
CIRCLE
  5
2201
330
2
100
AcDbEntity
  8
0
100
AcDbCircle
 10
157.300462789262
 20
102.4401979645466
 30
0.0
 40
25.5
  0
CIRCLE
  5
2202
330
2
100
AcDbEntity
  8
0
100
AcDbCircle
 10
157.300462789262
 20
102.4401979645466
 30
0.0
 40
22.42259999999999
  0
CIRCLE
  5
2203
330
2
100
AcDbEntity
  8
0
100
AcDbCircle
 10
157.300462789262
 20
102.4401979645466
 30
0.0
 40
23.0
  0
CIRCLE
  5
2204
330
2
100
AcDbEntity
  8
0
100
AcDbCircle
 10
157.300462789262
 20
102.4401979645466
 30
0.0
 40
25.0
  0
CIRCLE
  5
2205
330
2
100
AcDbEntity
  8
0
100
AcDbCircle
 10
157.300462789262
 20
102.4401979645466
 30
0.0
 40
18.0774
  0
CIRCLE
  5
2206
330
2
100
AcDbEntity
  8
0
100
AcDbCircle
 10
157.300462789262
 20
102.4401979645466
 30
0.0
 40
17.5
  0
LINE
  5
2207
330
2
100
AcDbEntity
  8
0
100
AcDbLine
 10
169.3273747238432
 20
127.9401979645466
 30
0.0
 11
145.2735508546808
 21
127.9401979645464
 31
0.0
  0
LINE
  5
2208
330
2
100
AcDbEntity
  8
0
100
AcDbLine
 10
169.3273747238432
 20
129.9401979645466
 30
0.0
 11
145.2735508546808
 21
129.9401979645466
 31
0.0
  0
LINE
  5
2209
330
2
100
AcDbEntity
  8
0
100
AcDbLine
 10
169.3273747238432
 20
74.94019796454665
 30
0.0
 11
145.2735508546808
 21
74.94019796454665
 31
0.0
  0
LINE
  5
220A
330
2
100
AcDbEntity
  8
0
100
AcDbLine
 10
169.3273747238432
 20
76.94019796454665
 30
0.0
 11
145.2735508546808
 21
76.94019796454665
 31
0.0
  0
ARC
  5
220B
330
2
100
AcDbEntity
  8
0
100
AcDbCircle
 10
157.3004627892602
 20
-16.55980203545334
 30
0.0
 40
150.0
100
AcDbArc
 50
83.88401001893187
 51
96.11598998101571
  0
ARC
  5
220C
330
2
100
AcDbEntity
  8
0
100
AcDbCircle
 10
157.3004627892602
 20
221.4401979645466
 30
0.0
 40
150.0
100
AcDbArc
 50
263.8840100189318
 51
276.1159899810156
  0
LINE
  5
220D
330
2
100
AcDbEntity
  8
0
100
AcDbLine
 10
131.800462789262
 20
90.41328602996589
 30
0.0
 11
131.800462789262
 21
114.4671098991274
 31
0.0
  0
LINE
  5
220E
330
2
100
AcDbEntity
  8
0
100
AcDbLine
 10
129.800462789262
 20
90.41328602996543
 30
0.0
 11
129.800462789262
 21
114.4671098991278
 31
0.0
  0
LINE
  5
220F
330
2
100
AcDbEntity
  8
0
100
AcDbLine
 10
126.6404627892621
 20
74.44019796454665
 30
0.0
 11
126.6404627892621
 21
130.4401979645466
 31
0.0
  0
LINE
  5
2210
330
2
100
AcDbEntity
  8
0
100
AcDbLine
 10
111.800462789262
 20
79.4401979652672
 30
0.0
 11
111.800462789262
 21
125.4401979638331
 31
0.0
  0
LINE
  5
2211
330
2
100
AcDbEntity
  8
0
100
AcDbLine
 10
126.3004627892602
 20
130.4401979645498
 30
0.0
 11
126.3004627892602
 21
74.44019796454847
 31
0.0
  0
LINE
  5
2212
330
2
100
AcDbEntity
  8
0
100
AcDbLine
 10
100.3004627892602
 20
72.94019796454666
 30
0.0
 11
100.3004627892602
 21
131.9401979645462
 31
0.0
  0
CIRCLE
  5
2213
330
2
100
AcDbEntity
  8
0
100
AcDbCircle
 10
131.3004627892629
 20
76.44019796454711
 30
0.0
 40
3.730384757729268
  0
CIRCLE
  5
2214
330
2
100
AcDbEntity
  8
0
100
AcDbCircle
 10
131.3004627892629
 20
76.44019796454711
 30
0.0
 40
4.250000000000085
  0
ARC
  5
2215
330
2
100
AcDbEntity
  8
0
100
AcDbCircle
 10
129.6404627892622
 20
74.44019796454665
 30
0.0
 40
3.0
100
AcDbArc
 50
180.0
 51
270.0
  0
LINE
  5
2216
330
2
100
AcDbEntity
  8
CENTER
100
AcDbLine
 10
125.550462789262
 20
76.44019796454665
 30
0.0
 11
137.050462789262
 21
76.44019796454665
 31
0.0
  0
ARC
  5
2217
330
2
100
AcDbEntity
  8
0
100
AcDbCircle
 10
129.3004627892602
 20
74.44019796454847
 30
0.0
 40
3.0
100
AcDbArc
 50
180.0
 51
270.0
  0
ARC
  5
2218
330
2
100
AcDbEntity
  8
0
100
AcDbCircle
 10
98.30046278926023
 20
72.94019796454666
 30
0.0
 40
2.0
100
AcDbArc
 50
270.0
 51
0.0
  0
ARC
  5
2219
330
2
100
AcDbEntity
  8
0
100
AcDbCircle
 10
112.800462789252
 20
75.44019796525993
 30
0.0
 40
3.0
100
AcDbArc
 50
90.0
 51
126.8698976456909
  0
ARC
  5
221A
330
2
100
AcDbEntity
  8
0
100
AcDbCircle
 10
123.3004627892602
 20
75.44019796526015
 30
0.0
 40
3.0
100
AcDbArc
 50
0.0
 51
90.0
  0
ARC
  5
221B
330
2
100
AcDbEntity
  8
0
100
AcDbCircle
 10
103.3004627892602
 20
74.44019796526743
 30
0.0
 40
3.0
100
AcDbArc
 50
90.0
 51
180.0
  0
LINE
  5
221C
330
2
100
AcDbEntity
  8
0
100
AcDbLine
 10
109.800462789262
 20
77.4401979652672
 30
0.0
 11
103.3004627892602
 21
77.44019796526742
 31
0.0
  0
LINE
  5
221D
330
2
100
AcDbEntity
  8
0
100
AcDbLine
 10
123.3004627892602
 20
78.44019796526016
 30
0.0
 11
112.800462789252
 21
78.44019796526016
 31
0.0
  0
ARC
  5
221E
330
2
100
AcDbEntity
  8
0
100
AcDbCircle
 10
109.800462789262
 20
79.4401979652672
 30
0.0
 40
2.0
100
AcDbArc
 50
270.0
 51
359.9999999917405
  0
ARC
  5
221F
330
2
100
AcDbEntity
  8
0
100
AcDbCircle
 10
114.8004627892611
 20
79.44019796454665
 30
0.0
 40
3.0
100
AcDbArc
 50
90.0
 51
180.0
  0
ARC
  5
2220
330
2
100
AcDbEntity
  8
0
100
AcDbCircle
 10
123.3004627892638
 20
79.44019796454643
 30
0.0
 40
3.0
100
AcDbArc
 50
0.0
 51
90.0
  0
LINE
  5
2221
330
2
100
AcDbEntity
  8
0
100
AcDbLine
 10
123.3004627892638
 20
82.44019796454642
 30
0.0
 11
114.8004627892611
 21
82.44019796454665
 31
0.0
  0
ARC
  5
2222
330
2
100
AcDbEntity
  8
0
100
AcDbCircle
 10
98.30046278926023
 20
73.44019796454666
 30
0.0
 40
2.0
100
AcDbArc
 50
270.0
 51
0.0
  0
LINE
  5
2223
330
2
100
AcDbEntity
  8
0
100
AcDbLine
 10
133.3004627892629
 20
75.28549742616758
 30
0.0
 11
133.3004627892629
 21
77.59489850292618
 31
0.0
  0
LINE
  5
2224
330
2
100
AcDbEntity
  8
0
100
AcDbLine
 10
131.300462789262
 20
74.1307968877885
 30
0.0
 11
129.3004627892629
 21
75.28549742616758
 31
0.0
  0
LINE
  5
2225
330
2
100
AcDbEntity
  8
0
100
AcDbLine
 10
129.3004627892629
 20
77.59489850292618
 30
0.0
 11
131.300462789262
 21
78.74959904130526
 31
0.0
  0
LINE
  5
2226
330
2
100
AcDbEntity
  8
0
100
AcDbLine
 10
129.3004627892629
 20
75.28549742616758
 30
0.0
 11
129.3004627892629
 21
77.59489850292618
 31
0.0
  0
LINE
  5
2227
330
2
100
AcDbEntity
  8
0
100
AcDbLine
 10
131.300462789262
 20
74.1307968877885
 30
0.0
 11
133.3004627892629
 21
75.28549742616758
 31
0.0
  0
LINE
  5
2228
330
2
100
AcDbEntity
  8
0
100
AcDbLine
 10
133.3004627892629
 20
77.59489850292618
 30
0.0
 11
131.3004627892629
 21
78.74959904130526
 31
0.0
  0
LINE
  5
2229
330
2
100
AcDbEntity
  8
CENTER
100
AcDbLine
 10
131.300462789262
 20
70.69019796454665
 30
0.0
 11
131.300462789262
 21
82.19019796454665
 31
0.0
  0
LINE
  5
222A
330
2
100
AcDbEntity
  8
0
100
AcDbLine
 10
132.300462789262
 20
71.44019796454688
 30
0.0
 11
129.6404627892622
 21
71.44019796454688
 31
0.0
  0
LINE
  5
222B
330
2
100
AcDbEntity
  8
0
100
AcDbLine
 10
132.1810651267056
 20
88.49986886813974
 30
0.0
 11
130.3333060616838
 21
87.73450200340983
 31
0.0
  0
ARC
  5
222C
330
2
100
AcDbEntity
  8
0
100
AcDbCircle
 10
136.800462789262
 20
90.41328602996566
 30
0.0
 40
5.0
100
AcDbArc
 50
180.0
 51
225.0000000000078
  0
ARC
  5
222D
330
2
100
AcDbEntity
  8
0
100
AcDbCircle
 10
136.800462789262
 20
90.41328602996543
 30
0.0
 40
7.0
100
AcDbArc
 50
180.0
 51
225.0000000000078
  0
ARC
  5
222E
330
2
100
AcDbEntity
  8
0
100
AcDbCircle
 10
145.2735508546808
 20
81.94019796454666
 30
0.0
 40
5.0
100
AcDbArc
 50
225.0000000000078
 51
270.0
  0
ARC
  5
222F
330
2
100
AcDbEntity
  8
0
100
AcDbCircle
 10
145.2735508546808
 20
81.94019796454666
 30
0.0
 40
7.0
100
AcDbArc
 50
225.0000000000078
 51
270.0
  0
LINE
  5
2230
330
2
100
AcDbEntity
  8
0
100
AcDbLine
 10
143.3601336928555
 20
77.32080030199028
 30
0.0
 11
142.5947668281256
 21
75.47304123696779
 31
0.0
  0
LINE
  5
2231
330
2
100
AcDbEntity
  8
0
100
AcDbLine
 10
140.323803386375
 20
76.99045049624089
 30
0.0
 11
131.8507153209562
 21
85.46353856165968
 31
0.0
  0
LINE
  5
2232
330
2
100
AcDbEntity
  8
0
100
AcDbLine
 10
141.7380169487483
 20
78.404664058614
 30
0.0
 11
133.2649288833296
 21
86.877752124033
 31
0.0
  0
ARC
  5
2233
330
2
100
AcDbEntity
  8
0
100
AcDbCircle
 10
132.300462789262
 20
76.44019796454824
 30
0.0
 40
5.0
100
AcDbArc
 50
270.0
 51
285.992847743996
  0
LINE
  5
2234
330
2
100
AcDbEntity
  8
0
100
AcDbLine
 10
132.300462789262
 20
71.44019796454802
 30
0.0
 11
129.3004627892602
 21
71.44019796454847
 31
0.0
  0
LINE
  5
2235
330
2
100
AcDbEntity
  8
0
100
AcDbLine
 10
132.3004627892638
 20
71.44019796454665
 30
0.0
 11
129.3004627892638
 21
71.44019796454665
 31
0.0
  0
LINE
  5
2236
330
2
100
AcDbEntity
  8
0
100
AcDbLine
 10
132.3004627892602
 20
71.44019796454983
 30
0.0
 11
129.3004627892602
 21
71.44019796454983
 31
0.0
  0
LINE
  5
2237
330
2
100
AcDbEntity
  8
0
100
AcDbLine
 10
132.300462789262
 20
71.44019796454824
 30
0.0
 11
129.300462789262
 21
71.44019796454824
 31
0.0
  0
ARC
  5
2238
330
2
100
AcDbEntity
  8
0
100
AcDbCircle
 10
139.18839676357
 20
52.40779555518463
 30
0.0
 40
20.0
100
AcDbArc
 50
83.88401001893187
 51
105.992847743996
  0
CIRCLE
  5
2239
330
2
100
AcDbEntity
  8
0
100
AcDbCircle
 10
131.3004627892629
 20
128.4401979645461
 30
0.0
 40
3.730384757729268
  0
CIRCLE
  5
223A
330
2
100
AcDbEntity
  8
0
100
AcDbCircle
 10
131.3004627892629
 20
128.4401979645461
 30
0.0
 40
4.250000000000085
  0
LINE
  5
223B
330
2
100
AcDbEntity
  8
CENTER
100
AcDbLine
 10
125.6272577085052
 20
121.9401979645466
 30
0.0
 11
135.9736678700188
 21
121.9401979645466
 31
0.0
  0
ARC
  5
223C
330
2
100
AcDbEntity
  8
0
100
AcDbCircle
 10
129.6404627892622
 20
130.4401979645466
 30
0.0
 40
3.0
100
AcDbArc
 50
90.0
 51
180.0
  0
LINE
  5
223D
330
2
100
AcDbEntity
  8
CENTER
100
AcDbLine
 10
125.5504627892611
 20
128.4401979645459
 30
0.0
 11
137.0504627892611
 21
128.4401979645466
 31
0.0
  0
ARC
  5
223E
330
2
100
AcDbEntity
  8
0
100
AcDbCircle
 10
129.3004627892602
 20
130.4401979645498
 30
0.0
 40
3.0
100
AcDbArc
 50
90.0
 51
180.0
  0
ARC
  5
223F
330
2
100
AcDbEntity
  8
0
100
AcDbCircle
 10
98.30046278926023
 20
131.9401979645462
 30
0.0
 40
2.0
100
AcDbArc
 50
0.0
 51
90.0
  0
ARC
  5
2240
330
2
100
AcDbEntity
  8
0
100
AcDbCircle
 10
112.800462789252
 20
129.4401979638333
 30
0.0
 40
3.0
100
AcDbArc
 50
233.1301023542601
 51
270.0
  0
ARC
  5
2241
330
2
100
AcDbEntity
  8
0
100
AcDbCircle
 10
123.3004627892602
 20
129.4401979638331
 30
0.0
 40
3.0
100
AcDbArc
 50
270.0
 51
0.0
  0
LINE
  5
2242
330
2
100
AcDbEntity
  8
0
100
AcDbLine
 10
123.3004627892602
 20
126.4401979638331
 30
0.0
 11
112.800462789252
 21
126.4401979638333
 31
0.0
  0
LINE
  5
2243
330
2
100
AcDbEntity
  8
0
100
AcDbLine
 10
109.800462789262
 20
127.4401979638331
 30
0.0
 11
103.3004627892602
 21
127.4401979638333
 31
0.0
  0
ARC
  5
2244
330
2
100
AcDbEntity
  8
0
100
AcDbCircle
 10
103.3004627892602
 20
130.4401979638333
 30
0.0
 40
3.0
100
AcDbArc
 50
180.0
 51
270.0
  0
LINE
  5
2245
330
2
100
AcDbEntity
  8
0
100
AcDbLine
 10
111.800462789262
 20
125.4401979645466
 30
0.0
 11
111.800462789262
 21
125.4401979638331
 31
0.0
  0
ARC
  5
2246
330
2
100
AcDbEntity
  8
0
100
AcDbCircle
 10
109.800462789262
 20
125.4401979638331
 30
0.0
 40
2.0
100
AcDbArc
 50
0.0
 51
90.0
  0
ARC
  5
2247
330
2
100
AcDbEntity
  8
0
100
AcDbCircle
 10
123.3004627892647
 20
125.4401979645466
 30
0.0
 40
3.0
100
AcDbArc
 50
270.0
 51
0.0
  0
ARC
  5
2248
330
2
100
AcDbEntity
  8
0
100
AcDbCircle
 10
114.800462789262
 20
125.4401979645466
 30
0.0
 40
3.0
100
AcDbArc
 50
180.0
 51
270.0
  0
LINE
  5
2249
330
2
100
AcDbEntity
  8
0
100
AcDbLine
 10
123.3004627892647
 20
122.4401979645466
 30
0.0
 11
114.800462789262
 21
122.4401979645466
 31
0.0
  0
LINE
  5
224A
330
2
100
AcDbEntity
  8
0
100
AcDbLine
 10
125.800462789262
 20
110.039540041332
 30
0.0
 11
125.8004627892611
 21
94.84085588776123
 31
0.0
  0
LINE
  5
224B
330
2
100
AcDbEntity
  8
0
100
AcDbLine
 10
111.800462789262
 20
110.039540041332
 30
0.0
 11
126.3004627892611
 21
110.039540041332
 31
0.0
  0
LINE
  5
224C
330
2
100
AcDbEntity
  8
0
100
AcDbLine
 10
111.800462789262
 20
94.84085588776123
 30
0.0
 11
126.3004627892611
 21
94.84085588776123
 31
0.0
  0
ARC
  5
224D
330
2
100
AcDbEntity
  8
0
100
AcDbCircle
 10
98.30046278926023
 20
131.4401979645462
 30
0.0
 40
2.0
100
AcDbArc
 50
0.0
 51
90.0
  0
LINE
  5
224E
330
2
100
AcDbEntity
  8
0
100
AcDbLine
 10
133.3004627892629
 20
129.5948985029257
 30
0.0
 11
133.3004627892629
 21
127.2854974261671
 31
0.0
  0
LINE
  5
224F
330
2
100
AcDbEntity
  8
0
100
AcDbLine
 10
131.300462789262
 20
130.7495990413048
 30
0.0
 11
129.3004627892629
 21
129.5948985029257
 31
0.0
  0
LINE
  5
2250
330
2
100
AcDbEntity
  8
0
100
AcDbLine
 10
129.3004627892629
 20
127.2854974261671
 30
0.0
 11
131.300462789262
 21
126.130796887788
 31
0.0
  0
LINE
  5
2251
330
2
100
AcDbEntity
  8
0
100
AcDbLine
 10
129.3004627892629
 20
129.5948985029257
 30
0.0
 11
129.3004627892629
 21
127.2854974261671
 31
0.0
  0
LINE
  5
2252
330
2
100
AcDbEntity
  8
0
100
AcDbLine
 10
131.300462789262
 20
130.7495990413048
 30
0.0
 11
133.3004627892629
 21
129.5948985029257
 31
0.0
  0
LINE
  5
2253
330
2
100
AcDbEntity
  8
0
100
AcDbLine
 10
133.3004627892629
 20
127.2854974261671
 30
0.0
 11
131.3004627892629
 21
126.130796887788
 31
0.0
  0
LINE
  5
2254
330
2
100
AcDbEntity
  8
CENTER
100
AcDbLine
 10
131.3004627892602
 20
134.1901979645464
 30
0.0
 11
131.3004627892611
 21
122.6901979645464
 31
0.0
  0
LINE
  5
2255
330
2
100
AcDbEntity
  8
0
100
AcDbLine
 10
132.1810651267056
 20
116.3805270609533
 30
0.0
 11
130.3333060616838
 21
117.1458939256834
 31
0.0
  0
ARC
  5
2256
330
2
100
AcDbEntity
  8
0
100
AcDbCircle
 10
136.800462789262
 20
114.4671098991274
 30
0.0
 40
5.0
100
AcDbArc
 50
134.9999999999921
 51
180.0
  0
CIRCLE
  5
2257
330
2
100
AcDbEntity
  8
HOJO
100
AcDbCircle
 10
130.800462789262
 20
121.9401979645466
 30
0.0
 40
2.0
  0
CIRCLE
  5
2258
330
2
100
AcDbEntity
  8
0
100
AcDbCircle
 10
130.800462789262
 20
121.9401979645464
 30
0.0
 40
1.6
  0
ARC
  5
2259
330
2
100
AcDbEntity
  8
0
100
AcDbCircle
 10
136.800462789262
 20
114.4671098991278
 30
0.0
 40
7.0
100
AcDbArc
 50
134.9999999999921
 51
180.0
  0
LINE
  5
225A
330
2
100
AcDbEntity
  8
0
100
AcDbLine
 10
132.300462789262
 20
133.4401979645466
 30
0.0
 11
129.6404627892622
 21
133.4401979645466
 31
0.0
  0
LINE
  5
225B
330
2
100
AcDbEntity
  8
CENTER
100
AcDbLine
 10
130.800462789262
 20
127.1134030453034
 30
0.0
 11
130.800462789262
 21
116.7669928837893
 31
0.0
  0
ARC
  5
225C
330
2
100
AcDbEntity
  8
0
100
AcDbCircle
 10
145.2735508546808
 20
122.9401979645464
 30
0.0
 40
7.0
100
AcDbArc
 50
90.0
 51
134.9999999999921
  0
ARC
  5
225D
330
2
100
AcDbEntity
  8
0
100
AcDbCircle
 10
145.2735508546808
 20
122.9401979645466
 30
0.0
 40
5.0
100
AcDbArc
 50
90.0
 51
134.9999999999921
  0
LINE
  5
225E
330
2
100
AcDbEntity
  8
0
100
AcDbLine
 10
143.3601336928555
 20
127.559595627103
 30
0.0
 11
142.5947668281256
 21
129.4073546921255
 31
0.0
  0
LINE
  5
225F
330
2
100
AcDbEntity
  8
0
100
AcDbLine
 10
141.7380169487483
 20
126.475731870479
 30
0.0
 11
133.2649288833296
 21
118.0026438050603
 31
0.0
  0
LINE
  5
2260
330
2
100
AcDbEntity
  8
0
100
AcDbLine
 10
140.323803386375
 20
127.8899454328524
 30
0.0
 11
131.8507153209562
 21
119.4168573674336
 31
0.0
  0
ARC
  5
2261
330
2
100
AcDbEntity
  8
0
100
AcDbCircle
 10
132.300462789262
 20
128.4401979645482
 30
0.0
 40
5.0
100
AcDbArc
 50
74.00715225600399
 51
90.0
  0
LINE
  5
2262
330
2
100
AcDbEntity
  8
0
100
AcDbLine
 10
132.3004627892638
 20
133.4401979645498
 30
0.0
 11
129.3004627892602
 21
133.4401979645498
 31
0.0
  0
ARC
  5
2263
330
2
100
AcDbEntity
  8
0
100
AcDbCircle
 10
139.18839676357
 20
152.4726003739116
 30
0.0
 40
20.0
100
AcDbArc
 50
254.0071522560038
 51
276.1159899810156
  0
LINE
  5
2264
330
2
100
AcDbEntity
  8
0
100
AcDbLine
 10
184.800462789262
 20
90.41328602996543
 30
0.0
 11
184.800462789262
 21
114.4671098991278
 31
0.0
  0
LINE
  5
2265
330
2
100
AcDbEntity
  8
0
100
AcDbLine
 10
182.800462789262
 20
90.41328602996566
 30
0.0
 11
182.800462789262
 21
114.4671098991276
 31
0.0
  0
ARC
  5
2266
330
2
100
AcDbEntity
  8
0
100
AcDbCircle
 10
38.30046278926204
 20
102.4401979645484
 30
0.0
 40
150.0
100
AcDbArc
 50
353.8840100189313
 51
6.115989981068691
  0
LINE
  5
2267
330
2
100
AcDbEntity
  8
0
100
AcDbLine
 10
185.300462789262
 20
75.28549742616758
 30
0.0
 11
185.300462789262
 21
77.59489850292618
 31
0.0
  0
LINE
  5
2268
330
2
100
AcDbEntity
  8
0
100
AcDbLine
 10
183.300462789262
 20
74.1307968877885
 30
0.0
 11
181.300462789262
 21
75.28549742616758
 31
0.0
  0
LINE
  5
2269
330
2
100
AcDbEntity
  8
0
100
AcDbLine
 10
181.300462789262
 20
77.59489850292618
 30
0.0
 11
183.300462789262
 21
78.74959904130526
 31
0.0
  0
LINE
  5
226A
330
2
100
AcDbEntity
  8
0
100
AcDbLine
 10
181.300462789262
 20
75.28549742616758
 30
0.0
 11
181.300462789262
 21
77.59489850292618
 31
0.0
  0
LINE
  5
226B
330
2
100
AcDbEntity
  8
0
100
AcDbLine
 10
183.300462789262
 20
74.1307968877885
 30
0.0
 11
185.300462789262
 21
75.28549742616758
 31
0.0
  0
CIRCLE
  5
226C
330
2
100
AcDbEntity
  8
0
100
AcDbCircle
 10
183.300462789262
 20
76.44019796454711
 30
0.0
 40
3.730384757729268
  0
CIRCLE
  5
226D
330
2
100
AcDbEntity
  8
0
100
AcDbCircle
 10
183.300462789262
 20
76.44019796454711
 30
0.0
 40
4.250000000000085
  0
LINE
  5
226E
330
2
100
AcDbEntity
  8
0
100
AcDbLine
 10
185.300462789262
 20
77.59489850292618
 30
0.0
 11
183.300462789262
 21
78.74959904130526
 31
0.0
  0
LINE
  5
226F
330
2
100
AcDbEntity
  8
0
100
AcDbLine
 10
171.2407918856694
 20
77.32080030199028
 30
0.0
 11
172.0061587503993
 21
75.47304123696779
 31
0.0
  0
ARC
  5
2270
330
2
100
AcDbEntity
  8
0
100
AcDbCircle
 10
169.3273747238432
 20
81.94019796454666
 30
0.0
 40
7.0
100
AcDbArc
 50
270.0
 51
314.9999999999921
  0
ARC
  5
2271
330
2
100
AcDbEntity
  8
0
100
AcDbCircle
 10
169.3273747238432
 20
81.94019796454666
 30
0.0
 40
5.0
100
AcDbArc
 50
270.0
 51
314.9999999999921
  0
CIRCLE
  5
2272
330
2
100
AcDbEntity
  8
HOJO
100
AcDbCircle
 10
183.800462789262
 20
82.94019796454689
 30
0.0
 40
2.0
  0
ARC
  5
2273
330
2
100
AcDbEntity
  8
0
100
AcDbCircle
 10
177.800462789262
 20
90.41328602996543
 30
0.0
 40
7.0
100
AcDbArc
 50
314.9999999999921
 51
0.0
  0
CIRCLE
  5
2274
330
2
100
AcDbEntity
  8
0
100
AcDbCircle
 10
183.800462789262
 20
82.94019796454689
 30
0.0
 40
1.6
  0
LINE
  5
2275
330
2
100
AcDbEntity
  8
0
100
AcDbLine
 10
182.4198604518184
 20
88.49986886813974
 30
0.0
 11
184.2676195168411
 21
87.73450200340983
 31
0.0
  0
ARC
  5
2276
330
2
100
AcDbEntity
  8
0
100
AcDbCircle
 10
177.800462789262
 20
90.41328602996566
 30
0.0
 40
5.0
100
AcDbArc
 50
314.9999999999921
 51
0.0
  0
LINE
  5
2277
330
2
100
AcDbEntity
  8
CENTER
100
AcDbLine
 10
183.300462789262
 20
70.69019796454665
 30
0.0
 11
183.300462789262
 21
82.19019796454665
 31
0.0
  0
LINE
  5
2278
330
2
100
AcDbEntity
  8
CENTER
100
AcDbLine
 10
183.800462789262
 20
79.82562169680398
 30
0.0
 11
183.800462789262
 21
88.11340304530393
 31
0.0
  0
LINE
  5
2279
330
2
100
AcDbEntity
  8
0
100
AcDbLine
 10
172.8629086297766
 20
78.40466405861377
 30
0.0
 11
181.3359966951953
 21
86.877752124033
 31
0.0
  0
LINE
  5
227A
330
2
100
AcDbEntity
  8
0
100
AcDbLine
 10
174.277122192149
 20
76.99045049624089
 30
0.0
 11
182.7502102575678
 21
85.46353856165945
 31
0.0
  0
LINE
  5
227B
330
2
100
AcDbEntity
  8
CENTER
100
AcDbLine
 10
188.9736678700188
 20
82.94019796454689
 30
0.0
 11
178.6272577085052
 21
82.94019796454689
 31
0.0
  0
LINE
  5
227C
330
2
100
AcDbEntity
  8
CENTER
100
AcDbLine
 10
189.050462789262
 20
76.44019796454665
 30
0.0
 11
177.550462789262
 21
76.44019796454665
 31
0.0
  0
ARC
  5
227D
330
2
100
AcDbEntity
  8
0
100
AcDbCircle
 10
182.300462789262
 20
76.44019796454802
 30
0.0
 40
5.0
100
AcDbArc
 50
254.0071522560038
 51
270.0
  0
ARC
  5
227E
330
2
100
AcDbEntity
  8
0
100
AcDbCircle
 10
175.4125288149549
 20
52.40779555518463
 30
0.0
 40
20.0
100
AcDbArc
 50
74.00715225600399
 51
96.11598998101571
  0
LINE
  5
227F
330
2
100
AcDbEntity
  8
0
100
AcDbLine
 10
182.300462789262
 20
71.44019796454802
 30
0.0
 11
185.300462789262
 21
71.44019796454824
 31
0.0
  0
LINE
  5
2280
330
2
100
AcDbEntity
  8
0
100
AcDbLine
 10
182.3004627892611
 20
71.44019796454665
 30
0.0
 11
185.3004627892611
 21
71.44019796454665
 31
0.0
  0
LINE
  5
2281
330
2
100
AcDbEntity
  8
0
100
AcDbLine
 10
188.300462789262
 20
77.44019796454802
 30
0.0
 11
188.300462789262
 21
74.44019796454802
 31
0.0
  0
LINE
  5
2282
330
2
100
AcDbEntity
  8
0
100
AcDbLine
 10
188.3004627892602
 20
77.44019796454665
 30
0.0
 11
188.3004627892602
 21
74.44019796454665
 31
0.0
  0
LINE
  5
2283
330
2
100
AcDbEntity
  8
0
100
AcDbLine
 10
188.3004627892638
 20
77.44019796454939
 30
0.0
 11
188.3004627892638
 21
74.44019796454961
 31
0.0
  0
LINE
  5
2284
330
2
100
AcDbEntity
  8
0
100
AcDbLine
 10
188.300462789262
 20
77.44019796454802
 30
0.0
 11
188.300462789262
 21
74.44019796454824
 31
0.0
  0
ARC
  5
2285
330
2
100
AcDbEntity
  8
0
100
AcDbCircle
 10
183.300462789262
 20
77.44019796454825
 30
0.0
 40
5.0
100
AcDbArc
 50
0.0
 51
15.99284774399706
  0
ARC
  5
2286
330
2
100
AcDbEntity
  8
0
100
AcDbCircle
 10
207.3328651986254
 20
84.32813193885602
 30
0.0
 40
20.0
100
AcDbArc
 50
173.8840100189313
 51
195.992847743997
  0
ARC
  5
2287
330
2
100
AcDbEntity
  8
0
100
AcDbCircle
 10
185.300462789262
 20
74.44019796454665
 30
0.0
 40
3.0
100
AcDbArc
 50
270.0
 51
0.0
  0
LINE
  5
2288
330
2
100
AcDbEntity
  8
0
100
AcDbLine
 10
185.300462789262
 20
129.5948985029257
 30
0.0
 11
185.300462789262
 21
127.2854974261671
 31
0.0
  0
LINE
  5
2289
330
2
100
AcDbEntity
  8
0
100
AcDbLine
 10
183.300462789262
 20
130.7495990413048
 30
0.0
 11
181.300462789262
 21
129.5948985029257
 31
0.0
  0
LINE
  5
228A
330
2
100
AcDbEntity
  8
0
100
AcDbLine
 10
181.300462789262
 20
127.2854974261671
 30
0.0
 11
183.300462789262
 21
126.130796887788
 31
0.0
  0
LINE
  5
228B
330
2
100
AcDbEntity
  8
0
100
AcDbLine
 10
181.300462789262
 20
129.5948985029257
 30
0.0
 11
181.300462789262
 21
127.2854974261671
 31
0.0
  0
LINE
  5
228C
330
2
100
AcDbEntity
  8
0
100
AcDbLine
 10
183.300462789262
 20
130.7495990413048
 30
0.0
 11
185.300462789262
 21
129.5948985029257
 31
0.0
  0
CIRCLE
  5
228D
330
2
100
AcDbEntity
  8
0
100
AcDbCircle
 10
183.300462789262
 20
128.4401979645461
 30
0.0
 40
3.730384757729268
  0
CIRCLE
  5
228E
330
2
100
AcDbEntity
  8
0
100
AcDbCircle
 10
183.300462789262
 20
128.4401979645461
 30
0.0
 40
4.250000000000085
  0
LINE
  5
228F
330
2
100
AcDbEntity
  8
0
100
AcDbLine
 10
185.300462789262
 20
127.2854974261671
 30
0.0
 11
183.300462789262
 21
126.130796887788
 31
0.0
  0
LINE
  5
2290
330
2
100
AcDbEntity
  8
0
100
AcDbLine
 10
171.2407918856694
 20
127.559595627103
 30
0.0
 11
172.0061587503993
 21
129.4073546921255
 31
0.0
  0
ARC
  5
2291
330
2
100
AcDbEntity
  8
0
100
AcDbCircle
 10
169.3273747238432
 20
122.9401979645466
 30
0.0
 40
5.0
100
AcDbArc
 50
45.00000000000784
 51
90.0
  0
ARC
  5
2292
330
2
100
AcDbEntity
  8
0
100
AcDbCircle
 10
169.3273747238432
 20
122.9401979645466
 30
0.0
 40
7.0
100
AcDbArc
 50
45.00000000000784
 51
90.0
  0
ARC
  5
2293
330
2
100
AcDbEntity
  8
0
100
AcDbCircle
 10
177.800462789262
 20
114.4671098991278
 30
0.0
 40
7.0
100
AcDbArc
 50
0.0
 51
45.00000000000784
  0
LINE
  5
2294
330
2
100
AcDbEntity
  8
0
100
AcDbLine
 10
182.4198604518184
 20
116.3805270609533
 30
0.0
 11
184.2676195168411
 21
117.1458939256834
 31
0.0
  0
ARC
  5
2295
330
2
100
AcDbEntity
  8
0
100
AcDbCircle
 10
177.800462789262
 20
114.4671098991276
 30
0.0
 40
5.0
100
AcDbArc
 50
0.0
 51
45.00000000000784
  0
LINE
  5
2296
330
2
100
AcDbEntity
  8
CENTER
100
AcDbLine
 10
183.3004627892638
 20
134.1901979645464
 30
0.0
 11
183.3004627892638
 21
122.6901979645464
 31
0.0
  0
LINE
  5
2297
330
2
100
AcDbEntity
  8
0
100
AcDbLine
 10
172.8629086297766
 20
126.4757318704793
 30
0.0
 11
181.3359966951953
 21
118.0026438050603
 31
0.0
  0
LINE
  5
2298
330
2
100
AcDbEntity
  8
0
100
AcDbLine
 10
174.277122192149
 20
127.8899454328524
 30
0.0
 11
182.7502102575678
 21
119.4168573674336
 31
0.0
  0
LINE
  5
2299
330
2
100
AcDbEntity
  8
CENTER
100
AcDbLine
 10
189.0504627892638
 20
128.4401979645461
 30
0.0
 11
177.5504627892638
 21
128.4401979645466
 31
0.0
  0
ARC
  5
229A
330
2
100
AcDbEntity
  8
0
100
AcDbCircle
 10
182.300462789262
 20
128.440197964548
 30
0.0
 40
5.0
100
AcDbArc
 50
90.0
 51
105.992847743996
  0
ARC
  5
229B
330
2
100
AcDbEntity
  8
0
100
AcDbCircle
 10
175.4125288149549
 20
152.4726003739116
 30
0.0
 40
20.0
100
AcDbArc
 50
263.8840100189318
 51
285.992847743996
  0
LINE
  5
229C
330
2
100
AcDbEntity
  8
0
100
AcDbLine
 10
182.3004627892638
 20
133.4401979645466
 30
0.0
 11
185.3004627892638
 21
133.4401979645466
 31
0.0
  0
LINE
  5
229D
330
2
100
AcDbEntity
  8
0
100
AcDbLine
 10
182.300462789262
 20
133.440197964548
 30
0.0
 11
185.300462789262
 21
133.440197964548
 31
0.0
  0
LINE
  5
229E
330
2
100
AcDbEntity
  8
0
100
AcDbLine
 10
182.3004627892611
 20
133.4401979645498
 30
0.0
 11
185.3004627892611
 21
133.4401979645496
 31
0.0
  0
LINE
  5
229F
330
2
100
AcDbEntity
  8
0
100
AcDbLine
 10
182.300462789262
 20
133.4401979645482
 30
0.0
 11
185.300462789262
 21
133.440197964548
 31
0.0
  0
ARC
  5
22A0
330
2
100
AcDbEntity
  8
0
100
AcDbCircle
 10
183.300462789262
 20
127.440197964548
 30
0.0
 40
5.0
100
AcDbArc
 50
344.0071522560029
 51
0.0
  0
LINE
  5
22A1
330
2
100
AcDbEntity
  8
0
100
AcDbLine
 10
188.3004627892638
 20
127.4401979645468
 30
0.0
 11
188.3004627892638
 21
130.4401979645466
 31
0.0
  0
ARC
  5
22A2
330
2
100
AcDbEntity
  8
0
100
AcDbCircle
 10
207.3328651986254
 20
120.5522639902402
 30
0.0
 40
20.0
100
AcDbArc
 50
164.0071522560029
 51
186.1159899810687
  0
ARC
  5
22A3
330
2
100
AcDbEntity
  8
0
100
AcDbCircle
 10
185.300462789262
 20
130.4401979645466
 30
0.0
 40
3.0
100
AcDbArc
 50
0.0
 51
90.0
  0
LINE
  5
22A6
330
2
100
AcDbEntity
  8
0
100
AcDbLine
 10
301.8131273543331
 20
86.45896323598663
 30
0.0
 11
250.8131273543294
 21
86.45896323598663
 31
0.0
  0
LINE
  5
22A7
330
2
100
AcDbEntity
  8
0
100
AcDbLine
 10
301.8131273543331
 20
77.44019796454131
 30
0.0
 11
250.8131273543294
 21
77.44019796454131
 31
0.0
  0
LINE
  5
22A8
330
2
100
AcDbEntity
  8
0
100
AcDbLine
 10
301.8131273543331
 20
74.44019796453858
 30
0.0
 11
250.8131273543294
 21
74.44019796453858
 31
0.0
  0
LINE
  5
22A9
330
2
100
AcDbEntity
  8
0
100
AcDbLine
 10
301.8131273543331
 20
118.4214326930987
 30
0.0
 11
250.8131273543294
 21
118.4214326930987
 31
0.0
  0
LINE
  5
22AA
330
2
100
AcDbEntity
  8
0
100
AcDbLine
 10
301.8131273543331
 20
127.440197964544
 30
0.0
 11
250.8131273543294
 21
127.440197964544
 31
0.0
  0
LINE
  5
22AB
330
2
100
AcDbEntity
  8
0
100
AcDbLine
 10
301.8131273543331
 20
130.4401979645467
 30
0.0
 11
250.8131273543294
 21
130.4401979645467
 31
0.0
  0
LINE
  5
22AC
330
2
100
AcDbEntity
  8
0
100
AcDbLine
 10
250.8130892766694
 20
133.4401977983966
 30
0.0
 11
302.8131273543331
 21
132.9864003409593
 31
0.0
  0
LINE
  5
22AD
330
2
100
AcDbEntity
  8
0
100
AcDbLine
 10
250.8131273543294
 20
71.44019796454222
 30
0.0
 11
302.8131273543331
 21
71.8939950896638
 31
0.0
  0
LINE
  5
22AE
330
2
100
AcDbEntity
  8
0
100
AcDbLine
 10
297.8615081584885
 20
71.39259120332804
 30
0.0
 11
269.8131273543331
 21
70.94019796454245
 31
0.0
  0
LINE
  5
22AF
330
2
100
AcDbEntity
  8
0
100
AcDbLine
 10
297.8615081584885
 20
133.4878047257573
 30
0.0
 11
269.8131273543331
 21
133.9401979645429
 31
0.0
  0
LINE
  5
22B0
330
2
100
AcDbEntity
  8
CENTER
100
AcDbLine
 10
226.8131273543295
 20
102.4401979645426
 30
0.0
 11
341.8131273543331
 21
102.4401979645426
 31
0.0
  0
LINE
  5
22B1
330
2
100
AcDbEntity
  8
0
100
AcDbLine
 10
234.8131273543294
 20
79.44019796454222
 30
0.0
 11
234.8131273543294
 21
125.4401979645435
 31
0.0
  0
LINE
  5
22B2
330
2
100
AcDbEntity
  8
0
100
AcDbLine
 10
238.5131273543293
 20
124.1901979645463
 30
0.0
 11
238.5131273543293
 21
80.69019796453904
 31
0.0
  0
LINE
  5
22B3
330
2
100
AcDbEntity
  8
0
100
AcDbLine
 10
244.3131273542912
 20
72.19019796453904
 30
0.0
 11
244.313127354324
 21
132.6901979645463
 31
0.0
  0
LINE
  5
22B4
330
2
100
AcDbEntity
  8
0
100
AcDbLine
 10
238.3131273543267
 20
80.69019796453904
 30
0.0
 11
238.3131273543267
 21
124.1901979645463
 31
0.0
  0
LINE
  5
22B5
330
2
100
AcDbEntity
  8
0
100
AcDbLine
 10
236.3131273543294
 20
79.64019796454249
 30
0.0
 11
236.3131273543294
 21
125.2401979645433
 31
0.0
  0
LINE
  5
22B6
330
2
100
AcDbEntity
  8
0
100
AcDbLine
 10
241.8131273543249
 20
124.1901979645463
 30
0.0
 11
241.8131273543294
 21
80.69019796453904
 31
0.0
  0
LINE
  5
22B7
330
2
100
AcDbEntity
  8
0
100
AcDbLine
 10
233.8131273543294
 20
80.01754823373152
 30
0.0
 11
233.8131273543294
 21
124.8628476953538
 31
0.0
  0
LINE
  5
22B8
330
2
100
AcDbEntity
  8
0
100
AcDbLine
 10
250.8131273543294
 20
71.44456139844078
 30
0.0
 11
250.8131273543294
 21
133.4358345306727
 31
0.0
  0
LINE
  5
22B9
330
2
100
AcDbEntity
  8
0
100
AcDbLine
 10
241.7647465501777
 20
71.39259120332804
 30
0.0
 11
269.8131273543331
 21
70.94019796454245
 31
0.0
  0
LINE
  5
22BA
330
2
100
AcDbEntity
  8
HIDS
100
AcDbLine
 10
238.0131273543265
 20
80.14019796454249
 30
0.0
 11
238.1131273543296
 21
80.14019796454249
 31
0.0
  0
LINE
  5
22BB
330
2
100
AcDbEntity
  8
HIDS
100
AcDbLine
 10
241.8131273543294
 20
80.69019796453904
 30
0.0
 11
241.8131273543294
 21
77.44019796454313
 31
0.0
  0
LINE
  5
22BC
330
2
100
AcDbEntity
  8
0
100
AcDbLine
 10
238.0131273543265
 20
80.1705827222686
 30
0.0
 11
238.0131273543265
 21
72.70981320680994
 31
0.0
  0
LINE
  5
22BD
330
2
100
AcDbEntity
  8
0
100
AcDbLine
 10
238.3131273543267
 20
72.19019796453904
 30
0.0
 11
238.0131273543265
 21
72.70981320680994
 31
0.0
  0
LINE
  5
22BE
330
2
100
AcDbEntity
  8
0
100
AcDbLine
 10
238.3131273543267
 20
80.69019796453904
 30
0.0
 11
238.0131273543265
 21
80.1705827222686
 31
0.0
  0
LINE
  5
22BF
330
2
100
AcDbEntity
  8
0
100
AcDbLine
 10
238.3131273543267
 20
80.69019796453904
 30
0.0
 11
238.3131273543267
 21
72.19019796453904
 31
0.0
  0
LINE
  5
22C0
330
2
100
AcDbEntity
  8
0
100
AcDbLine
 10
243.0131273543265
 20
80.69019796453904
 30
0.0
 11
243.0131273543265
 21
72.19019796453904
 31
0.0
  0
LINE
  5
22C1
330
2
100
AcDbEntity
  8
0
100
AcDbLine
 10
238.3131273543267
 20
80.69019796453904
 30
0.0
 11
244.3131273543267
 21
80.69019796453904
 31
0.0
  0
LINE
  5
22C2
330
2
100
AcDbEntity
  8
0
100
AcDbLine
 10
238.3131273543267
 20
72.19019796453904
 30
0.0
 11
244.3131273542912
 21
72.19019796453904
 31
0.0
  0
LINE
  5
22C3
330
2
100
AcDbEntity
  8
CENTER
  6
CENS
100
AcDbLine
 10
256.011081831014
 20
76.44019796453903
 30
0.0
 11
235.0131273543265
 21
76.44019796453903
 31
0.0
  0
LINE
  5
22C4
330
2
100
AcDbEntity
  8
0
100
AcDbLine
 10
250.8131273543294
 20
86.45896323598663
 30
0.0
 11
245.3131273543267
 21
86.45896323598663
 31
0.0
  0
LINE
  5
22C5
330
2
100
AcDbEntity
  8
0
100
AcDbLine
 10
250.8131273543294
 20
77.44019796454131
 30
0.0
 11
245.3131273543267
 21
77.44019796454131
 31
0.0
  0
LINE
  5
22C6
330
2
100
AcDbEntity
  8
0
100
AcDbLine
 10
250.8131273543294
 20
74.44019796453858
 30
0.0
 11
245.3131273543267
 21
74.44019796453858
 31
0.0
  0
ARC
  5
22C7
330
2
100
AcDbEntity
  8
HIDS
100
AcDbCircle
 10
242.313127354324
 20
74.11177083980374
 30
0.0
 40
2.0
100
AcDbArc
 50
0.0000000000521102
 51
45.00000000000784
  0
LINE
  5
22C8
330
2
100
AcDbEntity
  8
HIDS
100
AcDbLine
 10
243.7273409166964
 20
75.52598440217707
 30
0.0
 11
241.8131273543294
 21
77.44019796454267
 31
0.0
  0
ARC
  5
22C9
330
2
100
AcDbEntity
  8
0
100
AcDbCircle
 10
245.3131273542912
 20
72.48823381577768
 30
0.0
 40
1.0
100
AcDbArc
 50
179.9999999999739
 51
269.4999999999824
  0
LINE
  5
22CA
330
2
100
AcDbEntity
  8
0
100
AcDbLine
 10
250.8131273543294
 20
71.44019796454222
 30
0.0
 11
245.3044008187934
 21
71.48827189271333
 31
0.0
  0
ARC
  5
22CB
330
2
100
AcDbEntity
  8
HIDS
100
AcDbCircle
 10
238.1131273543296
 20
79.94019796454245
 30
0.0
 40
0.2
100
AcDbArc
 50
0.0
 51
90.0
  0
ARC
  5
22CC
330
2
100
AcDbEntity
  8
0
100
AcDbCircle
 10
236.5131273543293
 20
79.94019796454222
 30
0.0
 40
0.2
100
AcDbArc
 50
90.0
 51
180.0
  0
ARC
  5
22CD
330
2
100
AcDbEntity
  8
0
100
AcDbCircle
 10
236.1131273543296
 20
79.64019796454249
 30
0.0
 40
0.2
100
AcDbArc
 50
270.0
 51
0.0
  0
LINE
  5
22CE
330
2
100
AcDbEntity
  8
0
100
AcDbLine
 10
236.5131273543293
 20
80.14019796454226
 30
0.0
 11
238.0131273543265
 21
80.14019796454249
 31
0.0
  0
LINE
  5
22CF
330
2
100
AcDbEntity
  8
0
100
AcDbLine
 10
234.8131273543294
 20
79.44019796454222
 30
0.0
 11
236.1131273543296
 21
79.44019796454222
 31
0.0
  0
LINE
  5
22D0
330
2
100
AcDbEntity
  8
HIDS
100
AcDbLine
 10
238.3131273543294
 20
79.64019796454249
 30
0.0
 11
238.5131273543293
 21
79.44019796454267
 31
0.0
  0
LINE
  5
22D1
330
2
100
AcDbEntity
  8
0
100
AcDbLine
 10
234.8131273543294
 20
79.44019796454222
 30
0.0
 11
233.8131273543294
 21
80.01754823373175
 31
0.0
  0
LINE
  5
22D2
330
2
100
AcDbEntity
  8
HIDS
100
AcDbLine
 10
238.5131273543293
 20
79.44019796454267
 30
0.0
 11
241.8131273543294
 21
79.44019796454313
 31
0.0
  0
LINE
  5
22D3
330
2
100
AcDbEntity
  8
HIDS
100
AcDbLine
 10
242.3131273543294
 20
76.94019796454313
 30
0.0
 11
241.8131273543294
 21
77.44019796454313
 31
0.0
  0
ARC
  5
22D4
330
2
100
AcDbEntity
  8
0
100
AcDbCircle
 10
241.8131273543331
 20
74.39220106092466
 30
0.0
 40
3.0
100
AcDbArc
 50
227.2228718954006
 51
269.0759546471809
  0
ARC
  5
22D5
330
2
100
AcDbEntity
  8
HIDS
100
AcDbCircle
 10
241.8131273543331
 20
74.39220106092466
 30
0.0
 40
3.0
100
AcDbArc
 50
180.0
 51
227.2228718954006
  0
LINE
  5
22D6
330
2
100
AcDbEntity
  8
HIDS
100
AcDbLine
 10
238.8131273543331
 20
74.39220106092466
 30
0.0
 11
238.8131273543331
 21
79.44019796454267
 31
0.0
  0
LINE
  5
22D7
330
2
100
AcDbEntity
  8
0
100
AcDbLine
 10
241.7647465501777
 20
133.4878047257573
 30
0.0
 11
269.8131273543331
 21
133.9401979645429
 31
0.0
  0
POINT
  5
22D8
330
2
100
AcDbEntity
  8
0
100
AcDbPoint
 10
241.3131273543285
 20
102.4401979645426
 30
0.0
  0
LINE
  5
22D9
330
2
100
AcDbEntity
  8
HIDS
100
AcDbLine
 10
238.0131273543265
 20
124.740197964543
 30
0.0
 11
238.1131273543296
 21
124.7401979645428
 31
0.0
  0
LINE
  5
22DA
330
2
100
AcDbEntity
  8
HIDS
100
AcDbLine
 10
238.5131273543293
 20
125.4401979645431
 30
0.0
 11
238.5131273543293
 21
124.1901979645463
 31
0.0
  0
LINE
  5
22DB
330
2
100
AcDbEntity
  8
HIDS
100
AcDbLine
 10
241.813127354324
 20
127.4401979645367
 30
0.0
 11
241.8131273543249
 21
124.1901979645463
 31
0.0
  0
LINE
  5
22DC
330
2
100
AcDbEntity
  8
0
100
AcDbLine
 10
238.0131273543265
 20
124.7098132068167
 30
0.0
 11
238.0131273543265
 21
132.1705827222754
 31
0.0
  0
LINE
  5
22DD
330
2
100
AcDbEntity
  8
0
100
AcDbLine
 10
238.3131273543267
 20
132.6901979645463
 30
0.0
 11
238.0131273543265
 21
132.1705827222754
 31
0.0
  0
LINE
  5
22DE
330
2
100
AcDbEntity
  8
0
100
AcDbLine
 10
238.3131273543267
 20
124.1901979645463
 30
0.0
 11
238.0131273543265
 21
124.7098132068167
 31
0.0
  0
LINE
  5
22DF
330
2
100
AcDbEntity
  8
0
100
AcDbLine
 10
238.3131273543267
 20
124.1901979645463
 30
0.0
 11
238.3131273543267
 21
132.6901979645463
 31
0.0
  0
LINE
  5
22E0
330
2
100
AcDbEntity
  8
0
100
AcDbLine
 10
243.0131273543265
 20
124.1901979645463
 30
0.0
 11
243.0131273543265
 21
132.6901979645463
 31
0.0
  0
LINE
  5
22E1
330
2
100
AcDbEntity
  8
0
100
AcDbLine
 10
238.3131273543267
 20
124.1901979645463
 30
0.0
 11
244.3131273543267
 21
124.1901979645463
 31
0.0
  0
LINE
  5
22E2
330
2
100
AcDbEntity
  8
0
100
AcDbLine
 10
238.3131273543267
 20
132.6901979645463
 30
0.0
 11
244.313127354324
 21
132.6901979645463
 31
0.0
  0
LINE
  5
22E3
330
2
100
AcDbEntity
  8
CENTER
  6
CENS
100
AcDbLine
 10
256.011081831014
 20
128.4401979645463
 30
0.0
 11
235.0131273543265
 21
128.4401979645463
 31
0.0
  0
LINE
  5
22E4
330
2
100
AcDbEntity
  8
0
100
AcDbLine
 10
250.8131273543294
 20
118.4214326930987
 30
0.0
 11
245.3131273543267
 21
118.4214326930987
 31
0.0
  0
LINE
  5
22E5
330
2
100
AcDbEntity
  8
0
100
AcDbLine
 10
250.8131273543294
 20
127.440197964544
 30
0.0
 11
245.3131273543267
 21
127.440197964544
 31
0.0
  0
LINE
  5
22E6
330
2
100
AcDbEntity
  8
0
100
AcDbLine
 10
250.8131273543294
 20
130.4401979645467
 30
0.0
 11
245.3131273543267
 21
130.4401979645467
 31
0.0
  0
ARC
  5
22E7
330
2
100
AcDbEntity
  8
HIDS
100
AcDbCircle
 10
238.1131273543296
 20
124.9401979645431
 30
0.0
 40
0.2
100
AcDbArc
 50
270.0
 51
0.0
  0
ARC
  5
22E8
330
2
100
AcDbEntity
  8
0
100
AcDbCircle
 10
236.5131273543293
 20
124.9401979645433
 30
0.0
 40
0.2
100
AcDbArc
 50
180.0
 51
270.0
  0
ARC
  5
22E9
330
2
100
AcDbEntity
  8
0
100
AcDbCircle
 10
236.1131273543296
 20
125.2401979645433
 30
0.0
 40
0.2
100
AcDbArc
 50
0.0
 51
90.0
  0
ARC
  5
22EA
330
2
100
AcDbEntity
  8
HIDS
100
AcDbCircle
 10
242.313127354324
 20
130.7686250892816
 30
0.0
 40
2.0
100
AcDbArc
 50
314.9999999999921
 51
359.9999999999739
  0
ARC
  5
22EB
330
2
100
AcDbEntity
  8
0
100
AcDbCircle
 10
245.3131273543249
 20
132.3921622794605
 30
0.0
 40
1.0
100
AcDbArc
 50
90.50000000001761
 51
179.9999999999739
  0
LINE
  5
22EC
330
2
100
AcDbEntity
  8
HIDS
100
AcDbLine
 10
243.7273409166964
 20
129.3544115269082
 30
0.0
 11
241.813127354324
 21
127.4401979645367
 31
0.0
  0
LINE
  5
22ED
330
2
100
AcDbEntity
  8
0
100
AcDbLine
 10
234.8131273543294
 20
125.4401979645435
 30
0.0
 11
236.1131273543296
 21
125.4401979645431
 31
0.0
  0
LINE
  5
22EE
330
2
100
AcDbEntity
  8
0
100
AcDbLine
 10
234.8131273543294
 20
125.4401979645435
 30
0.0
 11
233.8131273543294
 21
124.862847695354
 31
0.0
  0
LINE
  5
22EF
330
2
100
AcDbEntity
  8
HIDS
100
AcDbLine
 10
238.3131273543294
 20
125.2401979645428
 30
0.0
 11
238.5131273543293
 21
125.4401979645431
 31
0.0
  0
LINE
  5
22F0
330
2
100
AcDbEntity
  8
0
100
AcDbLine
 10
236.5131273543293
 20
124.7401979645433
 30
0.0
 11
238.0131273543265
 21
124.740197964543
 31
0.0
  0
LINE
  5
22F1
330
2
100
AcDbEntity
  8
HIDS
100
AcDbLine
 10
238.5131273543293
 20
125.4401979645431
 30
0.0
 11
241.8131273543294
 21
125.4401979645426
 31
0.0
  0
LINE
  5
22F2
330
2
100
AcDbEntity
  8
0
100
AcDbLine
 10
250.8130892766694
 20
133.4401977983966
 30
0.0
 11
245.3132986998134
 21
133.3922018531557
 31
0.0
  0
ARC
  5
22F3
330
2
100
AcDbEntity
  8
HIDS
100
AcDbCircle
 10
241.8131273543331
 20
130.4881948681607
 30
0.0
 40
3.0
100
AcDbArc
 50
132.7771281045281
 51
180.0
  0
ARC
  5
22F4
330
2
100
AcDbEntity
  8
0
100
AcDbCircle
 10
241.8131273543331
 20
130.4881948681607
 30
0.0
 40
3.0
100
AcDbArc
 50
90.92404535281902
 51
132.7771281045281
  0
LINE
  5
22F5
330
2
100
AcDbEntity
  8
HIDS
100
AcDbLine
 10
238.8131273543331
 20
125.4401979645431
 30
0.0
 11
238.8131273543331
 21
130.4881948681607
 31
0.0
  0
LINE
  5
22F6
330
2
100
AcDbEntity
  8
0
100
AcDbLine
 10
312.8131273543349
 20
82.37157551415384
 30
0.0
 11
312.8131273543349
 21
122.5088204149342
 31
0.0
  0
LINE
  5
22F7
330
2
100
AcDbEntity
  8
0
100
AcDbLine
 10
302.8131273543331
 20
71.8939950896638
 30
0.0
 11
302.8131273543331
 21
132.9864003409593
 31
0.0
  0
LINE
  5
22F8
330
2
100
AcDbEntity
  8
0
100
AcDbLine
 10
305.8131273543367
 20
127.440197964536
 30
0.0
 11
305.8131273543367
 21
77.44019796453608
 31
0.0
  0
ARC
  5
22F9
330
2
100
AcDbEntity
  8
0
100
AcDbCircle
 10
310.813127354314
 20
82.37157551415384
 30
0.0
 40
2.0
100
AcDbArc
 50
271.9999999999515
 51
359.9999999999478
  0
ARC
  5
22FA
330
2
100
AcDbEntity
  8
0
100
AcDbCircle
 10
307.8131273543094
 20
78.26437502848785
 30
0.0
 40
2.0
100
AcDbArc
 50
91.99999999995149
 51
179.9999999999479
  0
LINE
  5
22FB
330
2
100
AcDbEntity
  8
0
100
AcDbLine
 10
307.7433283609061
 20
80.26315668252573
 30
0.0
 11
310.8829263477164
 21
80.37279386011688
 31
0.0
  0
ARC
  5
22FC
330
2
100
AcDbEntity
  8
0
100
AcDbCircle
 10
297.8131273543331
 20
74.39220106092443
 30
0.0
 40
3.0
100
AcDbArc
 50
270.9240453527669
 51
302.7429559374902
  0
LINE
  5
22FD
330
2
100
AcDbEntity
  8
0
100
AcDbLine
 10
302.8131273543367
 20
77.44019796453608
 30
0.0
 11
305.8131273543367
 21
77.44019796453608
 31
0.0
  0
ARC
  5
230A
330
2
100
AcDbEntity
  8
0
100
AcDbCircle
 10
310.8131273543349
 20
122.5088204149342
 30
0.0
 40
2.0
100
AcDbArc
 50
0.0
 51
87.99999999999634
  0
ARC
  5
230B
330
2
100
AcDbEntity
  8
0
100
AcDbCircle
 10
307.8131273543349
 20
126.6160209006038
 30
0.0
 40
2.0
100
AcDbArc
 50
180.0
 51
267.9999999999963
  0
LINE
  5
230C
330
2
100
AcDbEntity
  8
0
100
AcDbLine
 10
307.7433283609298
 20
124.6172392465659
 30
0.0
 11
310.88292634774
 21
124.5076020689721
 31
0.0
  0
ARC
  5
230D
330
2
100
AcDbEntity
  8
0
100
AcDbCircle
 10
297.8131273543331
 20
130.4881948681607
 30
0.0
 40
3.0
100
AcDbArc
 50
57.25704406251026
 51
89.07595464718097
  0
LINE
  5
230E
330
2
100
AcDbEntity
  8
0
100
AcDbLine
 10
302.8131273543367
 20
127.440197964536
 30
0.0
 11
305.8131273543367
 21
127.440197964536
 31
0.0
  0
CIRCLE
  5
2318
330
2
100
AcDbEntity
  8
0
100
AcDbCircle
 10
446.559384494153
 20
102.4401979645468
 30
0.0
 40
22.0
  0
CIRCLE
  5
2319
330
2
100
AcDbEntity
  8
0
100
AcDbCircle
 10
446.559384494153
 20
102.4401979645468
 30
0.0
 40
18.0774
  0
ARC
  5
231A
330
2
100
AcDbEntity
  8
0
100
AcDbCircle
 10
446.5593844941548
 20
221.440197964547
 30
0.0
 40
150.0
100
AcDbArc
 50
263.8840100189318
 51
276.1159899810681
  0
ARC
  5
231B
330
2
100
AcDbEntity
  8
0
100
AcDbCircle
 10
446.5593844941548
 20
-16.55980203545294
 30
0.0
 40
150.0
100
AcDbArc
 50
83.88401001893187
 51
96.11598998106813
  0
CIRCLE
  5
231C
330
2
100
AcDbEntity
  8
0
100
AcDbCircle
 10
446.5593844941539
 20
102.4401979645468
 30
0.0
 40
25.0
  0
CIRCLE
  5
231D
330
2
100
AcDbEntity
  8
0
100
AcDbCircle
 10
446.5593844941539
 20
102.4401979645468
 30
0.0
 40
17.5
  0
ARC
  5
231E
330
2
100
AcDbEntity
  8
0
100
AcDbCircle
 10
565.559384494153
 20
102.4401979645452
 30
0.0
 40
150.0
100
AcDbArc
 50
173.8840100189313
 51
186.1159899810687
  0
ARC
  5
231F
330
2
100
AcDbEntity
  8
0
100
AcDbCircle
 10
421.559384494153
 20
76.44019796454569
 30
0.0
 40
5.0
100
AcDbArc
 50
270.0
 51
285.992847743996
  0
ARC
  5
2320
330
2
100
AcDbEntity
  8
0
100
AcDbCircle
 10
428.4473184684619
 20
52.4077955551823
 30
0.0
 40
20.0
100
AcDbArc
 50
83.88401001893187
 51
105.992847743996
  0
LINE
  5
2321
330
2
100
AcDbEntity
  8
0
100
AcDbLine
 10
421.5593844941521
 20
71.44019796454705
 30
0.0
 11
418.5593844941521
 21
71.44019796454705
 31
0.0
  0
LINE
  5
2322
330
2
100
AcDbEntity
  8
0
100
AcDbLine
 10
421.559384494153
 20
71.44019796454569
 30
0.0
 11
418.559384494153
 21
71.44019796454569
 31
0.0
  0
LINE
  5
2323
330
2
100
AcDbEntity
  8
0
100
AcDbLine
 10
421.5593844941548
 20
71.44019796454387
 30
0.0
 11
418.5593844941548
 21
71.4401979645441
 31
0.0
  0
LINE
  5
2324
330
2
100
AcDbEntity
  8
0
100
AcDbLine
 10
421.559384494153
 20
71.44019796454569
 30
0.0
 11
418.559384494153
 21
71.44019796454569
 31
0.0
  0
ARC
  5
2325
330
2
100
AcDbEntity
  8
0
100
AcDbCircle
 10
420.559384494153
 20
77.44019796454569
 30
0.0
 40
5.0
100
AcDbArc
 50
164.0071522559779
 51
180.0
  0
LINE
  5
2326
330
2
100
AcDbEntity
  8
0
100
AcDbLine
 10
415.5593844941521
 20
77.44019796454705
 30
0.0
 11
415.5593844941521
 21
74.44019796454705
 31
0.0
  0
ARC
  5
2327
330
2
100
AcDbEntity
  8
0
100
AcDbCircle
 10
396.5269820847905
 20
84.32813193885346
 30
0.0
 40
20.0
100
AcDbArc
 50
344.0071522559779
 51
6.115989981068691
  0
LINE
  5
2328
330
2
100
AcDbEntity
  8
CENTER
100
AcDbLine
 10
419.6893268090642
 20
82.07014027945826
 30
0.0
 11
419.6893268090642
 21
69.07014027945826
 31
0.0
  0
ARC
  5
2329
330
2
100
AcDbEntity
  8
0
100
AcDbCircle
 10
418.5593844941539
 20
74.4401979645466
 30
0.0
 40
3.0
100
AcDbArc
 50
180.0
 51
270.0
  0
CIRCLE
  5
232A
330
2
100
AcDbEntity
  8
HOJO
100
AcDbCircle
 10
419.6893268090652
 20
75.5701402794578
 30
0.0
 40
2.5
  0
CIRCLE
  5
232B
330
2
100
AcDbEntity
  8
0
100
AcDbCircle
 10
419.6893268090652
 20
75.5701402794578
 30
0.0
 40
2.1
  0
LINE
  5
232C
330
2
100
AcDbEntity
  8
CENTER
100
AcDbLine
 10
413.1893268090642
 20
75.57014027945825
 30
0.0
 11
426.1893268090642
 21
75.57014027945825
 31
0.0
  0
ARC
  5
232D
330
2
100
AcDbEntity
  8
0
100
AcDbCircle
 10
421.559384494153
 20
128.4401979645456
 30
0.0
 40
5.0
100
AcDbArc
 50
74.00715225600399
 51
90.0
  0
ARC
  5
232E
330
2
100
AcDbEntity
  8
0
100
AcDbCircle
 10
428.4473184684619
 20
152.472600373909
 30
0.0
 40
20.0
100
AcDbArc
 50
254.0071522560038
 51
276.1159899810681
  0
LINE
  5
232F
330
2
100
AcDbEntity
  8
0
100
AcDbLine
 10
421.559384494153
 20
133.4401979645456
 30
0.0
 11
418.559384494153
 21
133.4401979645456
 31
0.0
  0
LINE
  5
2330
330
2
100
AcDbEntity
  8
0
100
AcDbLine
 10
421.5593844941548
 20
133.440197964547
 30
0.0
 11
418.5593844941548
 21
133.440197964547
 31
0.0
  0
LINE
  5
2331
330
2
100
AcDbEntity
  8
0
100
AcDbLine
 10
415.559384494153
 20
127.4401979645456
 30
0.0
 11
415.559384494153
 21
130.4401979645456
 31
0.0
  0
LINE
  5
2332
330
2
100
AcDbEntity
  8
0
100
AcDbLine
 10
415.5593844941548
 20
127.440197964547
 30
0.0
 11
415.5593844941548
 21
130.440197964547
 31
0.0
  0
LINE
  5
2333
330
2
100
AcDbEntity
  8
0
100
AcDbLine
 10
415.5593844941521
 20
127.4401979645443
 30
0.0
 11
415.5593844941521
 21
130.4401979645443
 31
0.0
  0
LINE
  5
2334
330
2
100
AcDbEntity
  8
0
100
AcDbLine
 10
415.559384494153
 20
127.4401979645456
 30
0.0
 11
415.559384494153
 21
130.4401979645456
 31
0.0
  0
ARC
  5
2335
330
2
100
AcDbEntity
  8
0
100
AcDbCircle
 10
420.559384494153
 20
127.4401979645454
 30
0.0
 40
5.0
100
AcDbArc
 50
180.0
 51
195.9928477440219
  0
ARC
  5
2336
330
2
100
AcDbEntity
  8
0
100
AcDbCircle
 10
396.5269820847905
 20
120.5522639902376
 30
0.0
 40
20.0
100
AcDbArc
 50
353.8840100189313
 51
15.99284774402194
  0
ARC
  5
2337
330
2
100
AcDbEntity
  8
0
100
AcDbCircle
 10
418.5593844941539
 20
130.4401979645468
 30
0.0
 40
3.0
100
AcDbArc
 50
90.0
 51
180.0
  0
CIRCLE
  5
2338
330
2
100
AcDbEntity
  8
HOJO
100
AcDbCircle
 10
419.6893268090652
 20
129.3102556496353
 30
0.0
 40
2.5
  0
CIRCLE
  5
2339
330
2
100
AcDbEntity
  8
0
100
AcDbCircle
 10
419.6893268090652
 20
129.3102556496353
 30
0.0
 40
2.1
  0
LINE
  5
233A
330
2
100
AcDbEntity
  8
CENTER
100
AcDbLine
 10
426.1893268090651
 20
129.3102556496358
 30
0.0
 11
413.1893268090651
 21
129.3102556496358
 31
0.0
  0
LINE
  5
233B
330
2
100
AcDbEntity
  8
0
100
AcDbLine
 10
492.0593844941566
 20
125.4401979638258
 30
0.0
 11
492.0593844941566
 21
79.44019796525987
 31
0.0
  0
LINE
  5
233C
330
2
100
AcDbEntity
  8
0
100
AcDbLine
 10
503.5593844941585
 20
131.9401979645465
 30
0.0
 11
503.5593844941585
 21
72.94019796454705
 31
0.0
  0
LINE
  5
233E
330
2
100
AcDbEntity
  8
0
100
AcDbLine
 10
477.559384494153
 20
74.4401979645466
 30
0.0
 11
477.5593844941576
 21
130.4401979645466
 31
0.0
  0
ARC
  5
233F
330
2
100
AcDbEntity
  8
0
100
AcDbCircle
 10
480.5593844941548
 20
75.4401979652601
 30
0.0
 40
3.0
100
AcDbArc
 50
90.0
 51
180.0
  0
ARC
  5
2340
330
2
100
AcDbEntity
  8
0
100
AcDbCircle
 10
480.5593844941539
 20
79.4401979645466
 30
0.0
 40
3.0
100
AcDbArc
 50
90.0
 51
180.0
  0
LINE
  5
2341
330
2
100
AcDbEntity
  8
CENTER
100
AcDbLine
 10
466.9294421792427
 20
75.5701402794578
 30
0.0
 11
479.9294421792427
 21
75.5701402794578
 31
0.0
  0
ARC
  5
2342
330
2
100
AcDbEntity
  8
0
100
AcDbCircle
 10
471.559384494153
 20
76.44019796454569
 30
0.0
 40
5.0
100
AcDbArc
 50
254.0071522560038
 51
270.0
  0
LINE
  5
2343
330
2
100
AcDbEntity
  8
0
100
AcDbLine
 10
471.5593844941521
 20
71.4401979645441
 30
0.0
 11
474.5593844941521
 21
71.4401979645441
 31
0.0
  0
ARC
  5
2344
330
2
100
AcDbEntity
  8
0
100
AcDbCircle
 10
464.6714505198459
 20
52.4077955551823
 30
0.0
 40
20.0
100
AcDbArc
 50
74.00715225600399
 51
96.11598998106813
  0
CIRCLE
  5
2345
330
2
100
AcDbEntity
  8
HOJO
100
AcDbCircle
 10
473.4294421792427
 20
75.57014027945803
 30
0.0
 40
2.5
  0
CIRCLE
  5
2346
330
2
100
AcDbEntity
  8
0
100
AcDbCircle
 10
473.4294421792427
 20
75.57014027945803
 30
0.0
 40
2.1
  0
ARC
  5
2347
330
2
100
AcDbEntity
  8
0
100
AcDbCircle
 10
474.5593844941539
 20
74.44019796454705
 30
0.0
 40
3.0
100
AcDbArc
 50
270.0
 51
0.0000000068264372
  0
LINE
  5
2348
330
2
100
AcDbEntity
  8
CENTER
100
AcDbLine
 10
473.4294421792427
 20
69.07014027945781
 30
0.0
 11
473.4294421792427
 21
82.07014027945779
 31
0.0
  0
ARC
  5
2349
330
2
100
AcDbEntity
  8
0
100
AcDbCircle
 10
505.5593844941585
 20
72.94019796454705
 30
0.0
 40
2.0
100
AcDbArc
 50
180.0
 51
270.0
  0
LINE
  5
234A
330
2
100
AcDbEntity
  8
0
100
AcDbLine
 10
511.5593844941603
 20
70.94019796454751
 30
0.0
 11
505.5593844941585
 21
70.94019796454706
 31
0.0
  0
ARC
  5
234B
330
2
100
AcDbEntity
  8
0
100
AcDbCircle
 10
491.0593844941639
 20
75.4401979652601
 30
0.0
 40
3.0
100
AcDbArc
 50
53.1301023542602
 51
90.0
  0
LINE
  5
234C
330
2
100
AcDbEntity
  8
0
100
AcDbLine
 10
480.5593844941548
 20
78.44019796526009
 30
0.0
 11
491.0593844941639
 21
78.44019796526009
 31
0.0
  0
LINE
  5
234D
330
2
100
AcDbEntity
  8
0
100
AcDbLine
 10
494.0593844941567
 20
77.44019796525987
 30
0.0
 11
500.5593844941585
 21
77.44019796525964
 31
0.0
  0
ARC
  5
234E
330
2
100
AcDbEntity
  8
0
100
AcDbCircle
 10
500.5593844941585
 20
74.44019796525964
 30
0.0
 40
3.0
100
AcDbArc
 50
0.0
 51
90.0
  0
LINE
  5
234F
330
2
100
AcDbEntity
  8
0
100
AcDbLine
 10
492.0593844941566
 20
79.4401979645466
 30
0.0
 11
492.0593844941566
 21
79.44019796525987
 31
0.0
  0
ARC
  5
2350
330
2
100
AcDbEntity
  8
0
100
AcDbCircle
 10
494.0593844941567
 20
79.44019796525987
 30
0.0
 40
2.0
100
AcDbArc
 50
180.0
 51
270.0
  0
ARC
  5
2351
330
2
100
AcDbEntity
  8
0
100
AcDbCircle
 10
489.0593844941567
 20
79.4401979645466
 30
0.0
 40
3.0
100
AcDbArc
 50
0.0
 51
90.0
  0
LINE
  5
2352
330
2
100
AcDbEntity
  8
0
100
AcDbLine
 10
480.5593844941539
 20
82.4401979645466
 30
0.0
 11
489.0593844941567
 21
82.4401979645466
 31
0.0
  0
ARC
  5
2353
330
2
100
AcDbEntity
  8
0
100
AcDbCircle
 10
505.5593844941585
 20
73.44019796454706
 30
0.0
 40
2.0
100
AcDbArc
 50
180.0
 51
270.0
  0
LINE
  5
2354
330
2
100
AcDbEntity
  8
0
100
AcDbLine
 10
511.5593844941603
 20
71.44019796454751
 30
0.0
 11
505.5593844941585
 21
71.44019796454705
 31
0.0
  0
ARC
  5
2355
330
2
100
AcDbEntity
  8
0
100
AcDbCircle
 10
480.5593844941548
 20
129.4401979638335
 30
0.0
 40
3.0
100
AcDbArc
 50
180.0
 51
270.0
  0
ARC
  5
2356
330
2
100
AcDbEntity
  8
0
100
AcDbCircle
 10
480.5593844941557
 20
97.4401979645466
 30
0.0
 40
3.0
100
AcDbArc
 50
90.0
 51
180.0
  0
ARC
  5
2357
330
2
100
AcDbEntity
  8
0
100
AcDbCircle
 10
480.5593844941557
 20
107.4401979645466
 30
0.0
 40
3.0
100
AcDbArc
 50
180.0
 51
270.0
  0
ARC
  5
2358
330
2
100
AcDbEntity
  8
0
100
AcDbCircle
 10
480.5593844941539
 20
125.4401979645465
 30
0.0
 40
3.0
100
AcDbArc
 50
180.0
 51
270.0
  0
LINE
  5
2359
330
2
100
AcDbEntity
  8
CENTER
100
AcDbLine
 10
479.9294421792427
 20
129.3102556496353
 30
0.0
 11
466.9294421792427
 21
129.3102556496353
 31
0.0
  0
ARC
  5
235A
330
2
100
AcDbEntity
  8
0
100
AcDbCircle
 10
471.559384494153
 20
128.4401979645456
 30
0.0
 40
5.0
100
AcDbArc
 50
90.0
 51
105.992847743996
  0
LINE
  5
235B
330
2
100
AcDbEntity
  8
0
100
AcDbLine
 10
471.559384494153
 20
133.4401979645456
 30
0.0
 11
474.559384494153
 21
133.4401979645456
 31
0.0
  0
LINE
  5
235C
330
2
100
AcDbEntity
  8
0
100
AcDbLine
 10
471.5593844941521
 20
133.440197964547
 30
0.0
 11
474.5593844941521
 21
133.440197964547
 31
0.0
  0
LINE
  5
235D
330
2
100
AcDbEntity
  8
0
100
AcDbLine
 10
471.5593844941548
 20
133.440197964544
 30
0.0
 11
474.5593844941549
 21
133.4401979645438
 31
0.0
  0
LINE
  5
235E
330
2
100
AcDbEntity
  8
0
100
AcDbLine
 10
471.5593844941539
 20
133.4401979645456
 30
0.0
 11
474.559384494153
 21
133.4401979645454
 31
0.0
  0
ARC
  5
235F
330
2
100
AcDbEntity
  8
0
100
AcDbCircle
 10
464.6714505198459
 20
152.472600373909
 30
0.0
 40
20.0
100
AcDbArc
 50
263.8840100189318
 51
285.992847743996
  0
CIRCLE
  5
2360
330
2
100
AcDbEntity
  8
0
100
AcDbCircle
 10
473.4294421792427
 20
129.3102556496356
 30
0.0
 40
2.1
  0
CIRCLE
  5
2361
330
2
100
AcDbEntity
  8
HOJO
100
AcDbCircle
 10
473.4294421792427
 20
129.3102556496356
 30
0.0
 40
2.5
  0
ARC
  5
2362
330
2
100
AcDbEntity
  8
0
100
AcDbCircle
 10
474.5593844941539
 20
130.4401979645466
 30
0.0
 40
3.0
100
AcDbArc
 50
359.9999999931214
 51
90.0
  0
LINE
  5
2363
330
2
100
AcDbEntity
  8
0
100
AcDbLine
 10
511.5593844941566
 20
133.9401979645465
 30
0.0
 11
505.5593844941585
 21
133.9401979645465
 31
0.0
  0
ARC
  5
2364
330
2
100
AcDbEntity
  8
0
100
AcDbCircle
 10
505.5593844941585
 20
131.9401979645465
 30
0.0
 40
2.0
100
AcDbArc
 50
90.0
 51
180.0
  0
ARC
  5
2365
330
2
100
AcDbEntity
  8
0
100
AcDbCircle
 10
491.0593844941639
 20
129.4401979638335
 30
0.0
 40
3.0
100
AcDbArc
 50
270.0
 51
306.8698976456909
  0
LINE
  5
2366
330
2
100
AcDbEntity
  8
0
100
AcDbLine
 10
480.5593844941548
 20
126.4401979638335
 30
0.0
 11
491.0593844941639
 21
126.4401979638335
 31
0.0
  0
ARC
  5
2367
330
2
100
AcDbEntity
  8
0
100
AcDbCircle
 10
489.0593844941567
 20
97.4401979645466
 30
0.0
 40
3.0
100
AcDbArc
 50
0.0
 51
90.0
  0
LINE
  5
2368
330
2
100
AcDbEntity
  8
0
100
AcDbLine
 10
480.5593844941557
 20
100.4401979645465
 30
0.0
 11
489.0593844941567
 21
100.4401979645465
 31
0.0
  0
ARC
  5
2369
330
2
100
AcDbEntity
  8
0
100
AcDbCircle
 10
489.0593844941567
 20
107.4401979645466
 30
0.0
 40
3.0
100
AcDbArc
 50
270.0
 51
0.0
  0
ARC
  5
236A
330
2
100
AcDbEntity
  8
0
100
AcDbCircle
 10
500.5593844941585
 20
130.4401979638258
 30
0.0
 40
3.0
100
AcDbArc
 50
270.0
 51
0.0
  0
LINE
  5
236B
330
2
100
AcDbEntity
  8
0
100
AcDbLine
 10
494.0593844941567
 20
127.4401979638258
 30
0.0
 11
500.5593844941585
 21
127.4401979638258
 31
0.0
  0
ARC
  5
236C
330
2
100
AcDbEntity
  8
0
100
AcDbCircle
 10
494.0593844941567
 20
125.4401979638258
 30
0.0
 40
2.0
100
AcDbArc
 50
90.0
 51
180.0
  0
ARC
  5
236D
330
2
100
AcDbEntity
  8
0
100
AcDbCircle
 10
489.0593844941567
 20
125.4401979645465
 30
0.0
 40
3.0
100
AcDbArc
 50
270.0
 51
0.0
  0
LINE
  5
236E
330
2
100
AcDbEntity
  8
0
100
AcDbLine
 10
480.5593844941539
 20
122.4401979645465
 30
0.0
 11
489.0593844941567
 21
122.4401979645465
 31
0.0
  0
LINE
  5
236F
330
2
100
AcDbEntity
  8
0
100
AcDbLine
 10
480.5593844941557
 20
104.4401979645465
 30
0.0
 11
489.0593844941567
 21
104.4401979645465
 31
0.0
  0
LINE
  5
2370
330
2
100
AcDbEntity
  8
0
100
AcDbLine
 10
511.5593844941566
 20
133.4401979645466
 30
0.0
 11
505.5593844941585
 21
133.4401979645466
 31
0.0
  0
ARC
  5
2371
330
2
100
AcDbEntity
  8
0
100
AcDbCircle
 10
505.5593844941585
 20
131.4401979645466
 30
0.0
 40
2.0
100
AcDbArc
 50
90.0
 51
180.0
  0
LINE
  5
23CD
330
2
100
AcDbEntity
  8
0
100
AcDbLine
 10
426.4907620437602
 20
261.5176682526043
 30
0.0
 11
466.6280069445397
 21
261.517668252604
 31
0.0
  0
LINE
  5
23CE
330
2
100
AcDbEntity
  8
0
100
AcDbLine
 10
471.5593844926193
 20
268.517668254831
 30
0.0
 11
421.5593844926193
 21
268.517668254831
 31
0.0
  0
LINE
  5
23CF
330
2
100
AcDbEntity
  8
0
100
AcDbLine
 10
416.0131816177194
 20
271.5176682548312
 30
0.0
 11
477.1013978573073
 21
271.5176682548309
 31
0.0
  0
ARC
  5
23D4
330
2
100
AcDbEntity
  8
0
100
AcDbCircle
 10
426.4907620437602
 20
263.5176682526259
 30
0.0
 40
2.0
100
AcDbArc
 50
181.9999999999513
 51
269.9999999999478
  0
ARC
  5
23D5
330
2
100
AcDbEntity
  8
0
100
AcDbCircle
 10
422.3835615580933
 20
266.51766825263
 30
0.0
 40
2.0
100
AcDbArc
 50
1.999999999951318
 51
89.99999999994789
  0
LINE
  5
23D6
330
2
100
AcDbEntity
  8
0
100
AcDbLine
 10
424.3823432121311
 20
266.5874672460328
 30
0.0
 11
424.4919803897223
 21
263.447869259223
 31
0.0
  0
LINE
  5
23D7
330
2
100
AcDbEntity
  8
0
100
AcDbLine
 10
421.5593844926193
 20
271.5176682548309
 30
0.0
 11
421.5593844926193
 21
268.517668254831
 31
0.0
  0
ARC
  5
23DC
330
2
100
AcDbEntity
  8
0
100
AcDbCircle
 10
466.6280069445397
 20
263.5176682526043
 30
0.0
 40
2.0
100
AcDbArc
 50
270.0
 51
357.9999999999963
  0
ARC
  5
23DD
330
2
100
AcDbEntity
  8
0
100
AcDbCircle
 10
470.7352074302102
 20
266.5176682526043
 30
0.0
 40
2.0
100
AcDbArc
 50
90.0
 51
177.9999999999964
  0
LINE
  5
23DE
330
2
100
AcDbEntity
  8
0
100
AcDbLine
 10
468.7364257761723
 20
266.5874672460092
 30
0.0
 11
468.6267885985776
 21
263.4478692591994
 31
0.0
  0
LINE
  5
23DF
330
2
100
AcDbEntity
  8
0
100
AcDbLine
 10
471.5593844926193
 20
271.5176682548312
 30
0.0
 11
471.5593844926193
 21
268.517668254831
 31
0.0
  0
LINE
  5
23E1
330
2
100
AcDbEntity
  8
CENTER
100
AcDbLine
 10
446.5593844941545
 20
347.5176682526059
 30
0.0
 11
446.559384494154
 21
232.5176682526044
 31
0.0
  0
LINE
  5
23E2
330
2
100
AcDbEntity
  8
0
100
AcDbLine
 10
423.5593844941536
 20
339.5176682526054
 30
0.0
 11
469.5593844941554
 21
339.5176682526054
 31
0.0
  0
LINE
  5
23E3
330
2
100
AcDbEntity
  8
0
100
AcDbLine
 10
468.3093844941573
 20
335.8176682526055
 30
0.0
 11
424.8093844941499
 21
335.8176682526055
 31
0.0
  0
LINE
  5
23E4
330
2
100
AcDbEntity
  8
0
100
AcDbLine
 10
416.3093844941499
 20
330.0176682526436
 30
0.0
 11
476.8093844941573
 21
330.0176682526104
 31
0.0
  0
LINE
  5
23E5
330
2
100
AcDbEntity
  8
0
100
AcDbLine
 10
424.8093844941499
 20
336.0176682526083
 30
0.0
 11
468.3093844941573
 21
336.0176682526083
 31
0.0
  0
LINE
  5
23E6
330
2
100
AcDbEntity
  8
0
100
AcDbLine
 10
423.7593844941543
 20
338.0176682526056
 30
0.0
 11
469.3593844941546
 21
338.0176682526056
 31
0.0
  0
LINE
  5
23E7
330
2
100
AcDbEntity
  8
0
100
AcDbLine
 10
468.3093844941573
 20
332.5176682526103
 30
0.0
 11
424.8093844941499
 21
332.5176682526056
 31
0.0
  0
LINE
  5
23E8
330
2
100
AcDbEntity
  8
0
100
AcDbLine
 10
424.1367347633427
 20
340.5176682526058
 30
0.0
 11
468.9820342249654
 21
340.5176682526058
 31
0.0
  0
LINE
  5
23E9
330
2
100
AcDbEntity
  8
0
100
AcDbLine
 10
415.5637479280517
 20
323.5176682526051
 30
0.0
 11
477.2235740061301
 21
323.5176682526051
 31
0.0
  0
LINE
  5
23EA
330
2
100
AcDbEntity
  8
0
100
AcDbLine
 10
418.5593844941536
 20
323.5176682526053
 30
0.0
 11
418.5593844941536
 21
273.0176492141365
 31
0.0
  0
LINE
  5
23EB
330
2
100
AcDbEntity
  8
0
100
AcDbLine
 10
421.5593844941536
 20
323.5176682526053
 30
0.0
 11
421.5593844941536
 21
273.0176492141365
 31
0.0
  0
LINE
  5
23EC
330
2
100
AcDbEntity
  8
0
100
AcDbLine
 10
430.5781497656075
 20
323.5176682526053
 30
0.0
 11
430.5781497656075
 21
273.0176492141365
 31
0.0
  0
LINE
  5
23ED
330
2
100
AcDbEntity
  8
0
100
AcDbLine
 10
415.5593844926192
 20
323.5176682526053
 30
0.0
 11
416.0131816177194
 21
271.5176682548312
 31
0.0
  0
LINE
  5
23EE
330
2
100
AcDbEntity
  8
CENTER
  6
CENS
100
AcDbLine
 10
420.55938449415
 20
318.319713775923
 30
0.0
 11
420.55938449415
 21
339.317668252611
 31
0.0
  0
LINE
  5
23EF
330
2
100
AcDbEntity
  8
HIDS
100
AcDbLine
 10
424.2593844941543
 20
336.3176682526085
 30
0.0
 11
424.2593844941543
 21
336.2176682526056
 31
0.0
  0
LINE
  5
23F0
330
2
100
AcDbEntity
  8
HIDS
100
AcDbLine
 10
424.8093844941499
 20
332.5176682526056
 30
0.0
 11
421.5593844941545
 21
332.5176682526052
 31
0.0
  0
LINE
  5
23F1
330
2
100
AcDbEntity
  8
0
100
AcDbLine
 10
424.2897692518795
 20
336.3176682526085
 30
0.0
 11
416.8289997364213
 21
336.3176682526085
 31
0.0
  0
LINE
  5
23F2
330
2
100
AcDbEntity
  8
0
100
AcDbLine
 10
416.3093844941499
 20
336.0176682526083
 30
0.0
 11
416.8289997364213
 21
336.3176682526085
 31
0.0
  0
LINE
  5
23F3
330
2
100
AcDbEntity
  8
0
100
AcDbLine
 10
424.8093844941499
 20
336.0176682526083
 30
0.0
 11
424.2897692518795
 21
336.3176682526085
 31
0.0
  0
LINE
  5
23F4
330
2
100
AcDbEntity
  8
0
100
AcDbLine
 10
424.8093844941499
 20
336.0176682526083
 30
0.0
 11
416.3093844941499
 21
336.0176682526083
 31
0.0
  0
LINE
  5
23F5
330
2
100
AcDbEntity
  8
0
100
AcDbLine
 10
424.8093844941499
 20
331.3176682526085
 30
0.0
 11
416.3093844941499
 21
331.3176682526085
 31
0.0
  0
LINE
  5
23F6
330
2
100
AcDbEntity
  8
0
100
AcDbLine
 10
424.8093844941499
 20
336.0176682526083
 30
0.0
 11
424.8093844941499
 21
330.0176682526085
 31
0.0
  0
LINE
  5
23F7
330
2
100
AcDbEntity
  8
0
100
AcDbLine
 10
416.3093844941499
 20
336.0176682526083
 30
0.0
 11
416.3093844941499
 21
330.0176682526436
 31
0.0
  0
LINE
  5
23F8
330
2
100
AcDbEntity
  8
0
100
AcDbLine
 10
430.5781497655984
 20
323.5176682526051
 30
0.0
 11
430.5781497655984
 21
329.0176682526086
 31
0.0
  0
LINE
  5
23F9
330
2
100
AcDbEntity
  8
0
100
AcDbLine
 10
421.5593844941527
 20
323.5176682526051
 30
0.0
 11
421.5593844941527
 21
329.0176682526086
 31
0.0
  0
LINE
  5
23FA
330
2
100
AcDbEntity
  8
0
100
AcDbLine
 10
418.5593844941499
 20
323.5176682526051
 30
0.0
 11
418.5593844941499
 21
329.0176682526086
 31
0.0
  0
ARC
  5
23FB
330
2
100
AcDbEntity
  8
HIDS
100
AcDbCircle
 10
418.2309573694151
 20
332.0176682526115
 30
0.0
 40
2.0
100
AcDbArc
 50
270.0000000000521
 51
315.0000000000267
  0
LINE
  5
23FC
330
2
100
AcDbEntity
  8
HIDS
100
AcDbLine
 10
419.6451709317885
 20
330.6034546902386
 30
0.0
 11
421.5593844941536
 21
332.5176682526052
 31
0.0
  0
LINE
  5
23FD
330
2
100
AcDbEntity
  8
0
100
AcDbLine
 10
415.5593844956879
 20
323.5176682525986
 30
0.0
 11
415.6073804409293
 21
329.0174588294545
 31
0.0
  0
ARC
  5
23FE
330
2
100
AcDbEntity
  8
HIDS
100
AcDbCircle
 10
424.0593844941535
 20
336.2176682526056
 30
0.0
 40
0.2
100
AcDbArc
 50
270.0
 51
0.0
  0
ARC
  5
23FF
330
2
100
AcDbEntity
  8
0
100
AcDbCircle
 10
424.0593844941535
 20
337.8176682526055
 30
0.0
 40
0.2
100
AcDbArc
 50
0.0
 51
90.0
  0
ARC
  5
2400
330
2
100
AcDbEntity
  8
0
100
AcDbCircle
 10
423.7593844941543
 20
338.2176682526056
 30
0.0
 40
0.2
100
AcDbArc
 50
180.0
 51
270.0
  0
ARC
  5
2401
330
2
100
AcDbEntity
  8
0
100
AcDbCircle
 10
416.6074203469229
 20
329.0176682526431
 30
0.0
 40
1.0
100
AcDbArc
 50
89.99999999994789
 51
179.5000000000084
  0
LINE
  5
2402
330
2
100
AcDbEntity
  8
0
100
AcDbLine
 10
424.2593844941534
 20
337.8176682526058
 30
0.0
 11
424.2593844941543
 21
336.3176682526085
 31
0.0
  0
LINE
  5
2403
330
2
100
AcDbEntity
  8
0
100
AcDbLine
 10
423.5593844941536
 20
339.5176682526058
 30
0.0
 11
423.5593844941536
 21
338.2176682526054
 31
0.0
  0
LINE
  5
2404
330
2
100
AcDbEntity
  8
HIDS
100
AcDbLine
 10
423.7593844941543
 20
336.0176682526056
 30
0.0
 11
423.5593844941536
 21
335.8176682526055
 31
0.0
  0
LINE
  5
2405
330
2
100
AcDbEntity
  8
0
100
AcDbLine
 10
423.5593844941536
 20
339.5176682526054
 30
0.0
 11
424.1367347633436
 21
340.5176682526058
 31
0.0
  0
LINE
  5
2406
330
2
100
AcDbEntity
  8
HIDS
100
AcDbLine
 10
423.5593844941536
 20
335.8176682526055
 30
0.0
 11
423.5593844941545
 21
332.5176682526054
 31
0.0
  0
LINE
  5
2407
330
2
100
AcDbEntity
  8
HIDS
100
AcDbLine
 10
421.0593844941545
 20
332.0176682526051
 30
0.0
 11
421.5593844941545
 21
332.5176682526052
 31
0.0
  0
ARC
  5
2408
330
2
100
AcDbEntity
  8
0
100
AcDbCircle
 10
488.5346376852562
 20
299.5176682526042
 30
0.0
 40
3.0
100
AcDbArc
 50
1.499999999989731
 51
90.0
  0
LINE
  5
2409
330
2
100
AcDbEntity
  8
0
100
AcDbLine
 10
462.5406192226832
 20
323.5176682526051
 30
0.0
 11
462.5406192226832
 21
273.0176492141365
 31
0.0
  0
LINE
  5
240A
330
2
100
AcDbEntity
  8
0
100
AcDbLine
 10
474.3892105722347
 20
304.5176682526042
 30
0.0
 11
474.3892105722347
 21
273.0176492141365
 31
0.0
  0
LINE
  5
240B
330
2
100
AcDbEntity
  8
0
100
AcDbLine
 10
471.5593844941609
 20
304.5176682526042
 30
0.0
 11
471.5593844941609
 21
273.0176492141365
 31
0.0
  0
LINE
  5
240C
330
2
100
AcDbEntity
  8
0
100
AcDbLine
 10
503.5083835860473
 20
275.4653143559889
 30
0.0
 11
502.747620925536
 21
304.5176682526042
 31
0.0
  0
LINE
  5
240D
330
2
100
AcDbEntity
  8
0
100
AcDbLine
 10
492.0083835860473
 20
281.4653143541369
 30
0.0
 11
491.4047364548846
 21
304.5176682526042
 31
0.0
  0
ARC
  5
240E
330
2
100
AcDbEntity
  8
0
100
AcDbCircle
 10
480.3458643903918
 20
299.517668252604
 30
0.0
 40
3.0
100
AcDbArc
 50
90.0
 51
179.5000000003992
  0
LINE
  5
240F
330
2
100
AcDbEntity
  8
0
100
AcDbLine
 10
477.1013978573073
 20
271.5176682548309
 30
0.0
 11
477.389384494154
 21
304.5176682526042
 31
0.0
  0
ARC
  5
2411
330
2
100
AcDbEntity
  8
0
100
AcDbCircle
 10
480.1538732991708
 20
277.5176682552057
 30
0.0
 40
3.0
100
AcDbArc
 50
90.0
 51
179.5000000003992
  0
ARC
  5
2412
330
2
100
AcDbEntity
  8
0
100
AcDbCircle
 10
480.1887807702828
 20
281.517668252604
 30
0.0
 40
3.0
100
AcDbArc
 50
90.0
 51
179.5000000003992
  0
ARC
  5
2413
330
2
100
AcDbEntity
  8
0
100
AcDbCircle
 10
500.4797983519761
 20
276.5176682526043
 30
0.0
 40
3.0
100
AcDbArc
 50
1.499999999989731
 51
90.0
  0
LINE
  5
2414
330
2
100
AcDbEntity
  8
0
100
AcDbLine
 10
494.0076982360001
 20
279.5176682526043
 30
0.0
 11
500.4797983519761
 21
279.5176682526043
 31
0.0
  0
ARC
  5
2415
330
2
100
AcDbEntity
  8
0
100
AcDbCircle
 10
505.5076982359983
 20
275.5176682526043
 30
0.0
 40
2.0
100
AcDbArc
 50
181.4999999999897
 51
270.0
  0
LINE
  5
2416
330
2
100
AcDbEntity
  8
0
100
AcDbLine
 10
505.5076982359983
 20
273.5176682526043
 30
0.0
 11
511.559384494159
 21
273.5176682548319
 31
0.0
  0
ARC
  5
2417
330
2
100
AcDbEntity
  8
0
100
AcDbCircle
 10
491.0076982300611
 20
277.5176682552057
 30
0.0
 40
3.0
100
AcDbArc
 50
53.13010226910886
 51
90.0
  0
LINE
  5
2418
330
2
100
AcDbEntity
  8
0
100
AcDbLine
 10
480.1538732991708
 20
280.5176682552056
 30
0.0
 11
491.0076982300611
 21
280.5176682552056
 31
0.0
  0
ARC
  5
2419
330
2
100
AcDbEntity
  8
0
100
AcDbCircle
 10
489.0059842734959
 20
281.5176682526042
 30
0.0
 40
3.0
100
AcDbArc
 50
1.500000000015777
 51
90.0
  0
LINE
  5
241A
330
2
100
AcDbEntity
  8
0
100
AcDbLine
 10
480.1887807702828
 20
284.517668252604
 30
0.0
 11
489.0059842734959
 21
284.5176682526042
 31
0.0
  0
ARC
  5
241B
330
2
100
AcDbEntity
  8
0
100
AcDbCircle
 10
494.0076982359983
 20
281.5176682507525
 30
0.0
 40
2.0
100
AcDbArc
 50
181.4999999999897
 51
270.0
  0
LINE
  5
241C
330
2
100
AcDbEntity
  8
0
100
AcDbLine
 10
488.966705391132
 20
323.0176682522375
 30
0.0
 11
477.7237479264909
 21
323.0176682522375
 31
0.0
  0
ARC
  5
241D
330
2
100
AcDbEntity
  8
0
100
AcDbCircle
 10
480.3458643903582
 20
309.5176682526042
 30
0.0
 40
3.0
100
AcDbArc
 50
180.4999999999915
 51
270.0
  0
LINE
  5
241E
330
2
100
AcDbEntity
  8
0
100
AcDbLine
 10
477.1713105659828
 20
329.0263947881088
 30
0.0
 11
477.2193844941535
 21
323.5176682526049
 31
0.0
  0
LINE
  5
241F
330
2
100
AcDbEntity
  8
CENTER
  6
CENS
100
AcDbLine
 10
472.5593844941572
 20
318.319713775923
 30
0.0
 11
472.5593844941572
 21
339.317668252611
 31
0.0
  0
LINE
  5
2420
330
2
100
AcDbEntity
  8
HIDS
100
AcDbLine
 10
468.8593844941546
 20
336.3176682526085
 30
0.0
 11
468.8593844941546
 21
336.2176682526056
 31
0.0
  0
LINE
  5
2421
330
2
100
AcDbEntity
  8
HIDS
100
AcDbLine
 10
469.5593844941545
 20
335.8176682526055
 30
0.0
 11
468.3093844941573
 21
335.8176682526055
 31
0.0
  0
LINE
  5
2422
330
2
100
AcDbEntity
  8
HIDS
100
AcDbLine
 10
471.5593844941481
 20
332.5176682526108
 30
0.0
 11
468.3093844941573
 21
332.5176682526103
 31
0.0
  0
LINE
  5
2423
330
2
100
AcDbEntity
  8
0
100
AcDbLine
 10
468.8289997364277
 20
336.3176682526085
 30
0.0
 11
476.2897692518868
 21
336.3176682526085
 31
0.0
  0
LINE
  5
2424
330
2
100
AcDbEntity
  8
0
100
AcDbLine
 10
476.8093844941573
 20
336.0176682526083
 30
0.0
 11
476.2897692518868
 21
336.3176682526085
 31
0.0
  0
LINE
  5
2425
330
2
100
AcDbEntity
  8
0
100
AcDbLine
 10
468.3093844941573
 20
336.0176682526083
 30
0.0
 11
468.8289997364277
 21
336.3176682526085
 31
0.0
  0
LINE
  5
2426
330
2
100
AcDbEntity
  8
0
100
AcDbLine
 10
468.3093844941573
 20
336.0176682526083
 30
0.0
 11
476.8093844941573
 21
336.0176682526083
 31
0.0
  0
LINE
  5
2427
330
2
100
AcDbEntity
  8
0
100
AcDbLine
 10
468.3093844941573
 20
331.3176682526085
 30
0.0
 11
476.8093844941573
 21
331.3176682526085
 31
0.0
  0
LINE
  5
2428
330
2
100
AcDbEntity
  8
0
100
AcDbLine
 10
468.3093844941573
 20
336.0176682526083
 30
0.0
 11
468.3093844941573
 21
330.0176682526085
 31
0.0
  0
LINE
  5
2429
330
2
100
AcDbEntity
  8
0
100
AcDbLine
 10
476.8093844941573
 20
336.0176682526083
 30
0.0
 11
476.8093844941573
 21
330.0176682526104
 31
0.0
  0
LINE
  5
242A
330
2
100
AcDbEntity
  8
0
100
AcDbLine
 10
462.5406192227106
 20
323.5176682526051
 30
0.0
 11
462.5406192227106
 21
329.0176682526086
 31
0.0
  0
LINE
  5
242B
330
2
100
AcDbEntity
  8
0
100
AcDbLine
 10
471.5593844941554
 20
323.5176682526051
 30
0.0
 11
471.5593844941554
 21
329.0176682526086
 31
0.0
  0
LINE
  5
242C
330
2
100
AcDbEntity
  8
0
100
AcDbLine
 10
474.5593844941581
 20
323.5176682526051
 30
0.0
 11
474.5593844941581
 21
329.0176682526086
 31
0.0
  0
ARC
  5
242D
330
2
100
AcDbEntity
  8
HIDS
100
AcDbCircle
 10
469.0593844941544
 20
336.2176682526056
 30
0.0
 40
0.2
100
AcDbArc
 50
179.9999999999739
 51
270.0
  0
ARC
  5
242E
330
2
100
AcDbEntity
  8
0
100
AcDbCircle
 10
469.0593844941544
 20
337.8176682526055
 30
0.0
 40
0.2
100
AcDbArc
 50
90.0
 51
179.9999999999739
  0
ARC
  5
242F
330
2
100
AcDbEntity
  8
0
100
AcDbCircle
 10
469.3593844941546
 20
338.2176682526056
 30
0.0
 40
0.2
100
AcDbArc
 50
270.0
 51
359.9999999999739
  0
ARC
  5
2430
330
2
100
AcDbEntity
  8
HIDS
100
AcDbCircle
 10
474.8878116188929
 20
332.0176682526115
 30
0.0
 40
2.0
100
AcDbArc
 50
224.9999999999733
 51
269.9999999999478
  0
ARC
  5
2431
330
2
100
AcDbEntity
  8
0
100
AcDbCircle
 10
476.1713486429185
 20
329.0176682526106
 30
0.0
 40
1.0
100
AcDbArc
 50
0.4999999999915751
 51
89.99999999994789
  0
LINE
  5
2432
330
2
100
AcDbEntity
  8
HIDS
100
AcDbLine
 10
473.4735980565196
 20
330.6034546902386
 30
0.0
 11
471.5593844941481
 21
332.5176682526108
 31
0.0
  0
LINE
  5
2433
330
2
100
AcDbEntity
  8
0
100
AcDbLine
 10
469.5593844941554
 20
339.5176682526058
 30
0.0
 11
469.5593844941545
 21
338.2176682526054
 31
0.0
  0
LINE
  5
2434
330
2
100
AcDbEntity
  8
0
100
AcDbLine
 10
469.5593844941554
 20
339.5176682526054
 30
0.0
 11
468.9820342249654
 21
340.5176682526058
 31
0.0
  0
LINE
  5
2435
330
2
100
AcDbEntity
  8
HIDS
100
AcDbLine
 10
469.3593844941546
 20
336.0176682526056
 30
0.0
 11
469.5593844941545
 21
335.8176682526055
 31
0.0
  0
LINE
  5
2436
330
2
100
AcDbEntity
  8
0
100
AcDbLine
 10
468.8593844941546
 20
337.8176682526055
 30
0.0
 11
468.8593844941546
 21
336.3176682526085
 31
0.0
  0
LINE
  5
2437
330
2
100
AcDbEntity
  8
HIDS
100
AcDbLine
 10
469.5593844941545
 20
335.8176682526055
 30
0.0
 11
469.5593844941535
 21
332.5176682526054
 31
0.0
  0
LINE
  5
2438
330
2
100
AcDbEntity
  8
0
100
AcDbLine
 10
473.0441668356757
 20
304.5176682526042
 30
0.0
 11
477.389384494154
 21
304.5176682526042
 31
0.0
  0
ARC
  5
2439
330
2
100
AcDbEntity
  8
0
100
AcDbCircle
 10
473.0441668356757
 20
305.5176682526042
 30
0.0
 40
1.0
100
AcDbArc
 50
181.5000000000157
 51
270.0
  0
LINE
  5
243A
330
2
100
AcDbEntity
  8
0
100
AcDbLine
 10
471.5724774549385
 20
323.5176682526049
 30
0.0
 11
472.0445095107002
 21
305.4914913042963
 31
0.0
  0
LINE
  5
243B
330
2
100
AcDbEntity
  8
0
100
AcDbLine
 10
477.2235740061301
 20
323.5176682526053
 30
0.0
 11
477.7235740061292
 21
323.0176682526063
 31
0.0
  0
LINE
  5
243C
330
2
100
AcDbEntity
  8
0
100
AcDbLine
 10
477.2235740061301
 20
323.5176682526053
 30
0.0
 11
477.3893844941544
 21
304.5176682526131
 31
0.0
  0
ARC
  5
243D
330
2
100
AcDbEntity
  8
0
100
AcDbCircle
 10
488.5346376852498
 20
309.5176682526042
 30
0.0
 40
3.0
100
AcDbArc
 50
270.0
 51
358.4999999999841
  0
LINE
  5
243E
330
2
100
AcDbEntity
  8
0
100
AcDbLine
 10
502.7476209255341
 20
304.517668252639
 30
0.0
 11
511.5593844941572
 21
304.5176682526042
 31
0.0
  0
LINE
  5
243F
330
2
100
AcDbEntity
  8
0
100
AcDbLine
 10
503.5083835860473
 20
333.5700221492185
 30
0.0
 11
502.7476209255341
 21
304.5176682526042
 31
0.0
  0
ARC
  5
2440
330
2
100
AcDbEntity
  8
0
100
AcDbCircle
 10
500.4797983519761
 20
332.5176682526042
 30
0.0
 40
3.0
100
AcDbArc
 50
270.0
 51
358.5000000000102
  0
LINE
  5
2441
330
2
100
AcDbEntity
  8
0
100
AcDbLine
 10
494.0076982360001
 20
329.5176682526042
 30
0.0
 11
500.4797983519761
 21
329.5176682526042
 31
0.0
  0
ARC
  5
2442
330
2
100
AcDbEntity
  8
0
100
AcDbCircle
 10
505.5076982359983
 20
333.5176682526042
 30
0.0
 40
2.0
100
AcDbArc
 50
90.0
 51
178.5000000000102
  0
LINE
  5
2443
330
2
100
AcDbEntity
  8
0
100
AcDbLine
 10
505.5076982359983
 20
335.5176682526042
 30
0.0
 11
511.5593844941554
 21
335.5176682526042
 31
0.0
  0
LINE
  5
2444
330
2
100
AcDbEntity
  8
0
100
AcDbLine
 10
480.3458643903918
 20
302.5176682526042
 30
0.0
 11
488.5346376852562
 21
302.5176682526042
 31
0.0
  0
ARC
  5
2445
330
2
100
AcDbEntity
  8
0
100
AcDbCircle
 10
488.966705391132
 20
326.0176682522375
 30
0.0
 40
3.0
100
AcDbArc
 50
270.0
 51
358.4999999999841
  0
LINE
  5
2446
330
2
100
AcDbEntity
  8
0
100
AcDbLine
 10
480.3458643903582
 20
306.5176682526042
 30
0.0
 11
488.5346376852498
 21
306.5176682526042
 31
0.0
  0
ARC
  5
2447
330
2
100
AcDbEntity
  8
0
100
AcDbCircle
 10
494.0076982359983
 20
327.517668254456
 30
0.0
 40
2.0
100
AcDbArc
 50
90.0
 51
178.5000000000102
  0
LINE
  5
2448
330
2
100
AcDbEntity
  8
0
100
AcDbLine
 10
492.0083835860473
 20
327.5700221510716
 30
0.0
 11
491.4047364548764
 21
304.5176682526042
 31
0.0
  0
ARC
  5
27D9
330
2
100
AcDbEntity
  8
0
100
AcDbCircle
 10
275.3131273543331
 20
132.4401979645426
 30
0.0
 40
3.999999999999971
100
AcDbArc
 50
90.0
 51
158.4187099909052
  0
LINE
  5
27DA
330
2
100
AcDbEntity
  8
0
100
AcDbLine
 10
285.3131273543331
 20
136.4401979645426
 30
0.0
 11
275.3131273543331
 21
136.4401979645426
 31
0.0
  0
ARC
  5
27DB
330
2
100
AcDbEntity
  8
0
100
AcDbCircle
 10
285.3131273543331
 20
132.4401979645426
 30
0.0
 40
4.000000000000056
100
AcDbArc
 50
17.28346027336093
 51
90.0
  0
LINE
  5
27DC
330
2
100
AcDbEntity
  8
CENTER
  6
CENS
100
AcDbLine
 10
280.3131273543331
 20
141.4401979645426
 30
0.0
 11
280.3131273543331
 21
118.9577882467964
 31
0.0
  0
ARC
  5
2871
330
2
100
AcDbEntity
  8
0
100
AcDbCircle
 10
437.8480138071783
 20
261.017668252606
 30
0.0
 40
0.5
100
AcDbArc
 50
209.9999999999991
 51
270.0
  0
LINE
  5
2872
330
2
100
AcDbEntity
  8
0
100
AcDbLine
 10
439.5593679108275
 20
259.5176735703501
 30
0.0
 11
438.9820184013171
 21
260.5176740089508
 31
0.0
  0
LINE
  5
2873
330
2
100
AcDbEntity
  8
0
100
AcDbLine
 10
453.5593462016783
 20
259.517668252606
 30
0.0
 11
454.1366964708678
 21
260.517668252606
 31
0.0
  0
ARC
  5
2874
330
2
100
AcDbEntity
  8
0
100
AcDbCircle
 10
455.270682301497
 20
261.017668252606
 30
0.0
 40
0.5
100
AcDbArc
 50
270.0
 51
330.0000000000008
  0
LINE
  5
2876
330
2
100
AcDbEntity
  8
0
100
AcDbLine
 10
318.8131273543331
 20
100.4402080806209
 30
0.0
 11
334.8131273543331
 21
100.4402080806209
 31
0.0
  0
LINE
  5
2877
330
2
100
AcDbEntity
  8
0
100
AcDbLine
 10
318.8131273543331
 20
104.4402080806209
 30
0.0
 11
334.8131273543331
 21
104.4402080806209
 31
0.0
  0
LINE
  5
2878
330
2
100
AcDbEntity
  8
0
100
AcDbLine
 10
314.8131273543331
 20
96.44015967206678
 30
0.0
 11
334.3131273543331
 21
96.44015967206678
 31
0.0
  0
LINE
  5
2879
330
2
100
AcDbEntity
  8
0
100
AcDbLine
 10
314.8131273543331
 20
108.4401596720667
 30
0.0
 11
334.3131273543331
 21
108.4401596720667
 31
0.0
  0
LINE
  5
287B
330
2
100
AcDbEntity
  8
0
100
AcDbLine
 10
314.8131273543331
 20
109.4401596720667
 30
0.0
 11
314.8131273543331
 21
95.44015967206679
 31
0.0
  0
LINE
  5
287C
330
2
100
AcDbEntity
  8
0
100
AcDbLine
 10
313.8131273543331
 20
93.72882727756678
 30
0.0
 11
313.8131273543331
 21
111.1514957718855
 31
0.0
  0
LINE
  5
287E
330
2
100
AcDbEntity
  8
0
100
AcDbLine
 10
313.5631273543331
 20
93.29581457567474
 30
0.0
 11
313.4112230242617
 21
93.20811256981688
 31
0.0
  0
ARC
  5
287F
330
2
100
AcDbEntity
  8
0
100
AcDbCircle
 10
313.3131273543331
 20
93.72882727756678
 30
0.0
 40
0.5
100
AcDbArc
 50
299.9999999999997
 51
0.0
  0
ARC
  5
2880
330
2
100
AcDbEntity
  8
0
100
AcDbCircle
 10
312.4112230242617
 20
94.94016337738571
 30
0.0
 40
2.0
100
AcDbArc
 50
281.5926445677328
 51
299.9999999999997
  0
LINE
  5
2881
330
2
100
AcDbEntity
  8
0
100
AcDbLine
 10
314.813122036589
 20
95.44018138121577
 30
0.0
 11
313.8131215979883
 21
94.86283187170533
 31
0.0
  0
ARC
  5
2882
330
2
100
AcDbEntity
  8
0
100
AcDbCircle
 10
318.8131273543331
 20
102.4402080806209
 30
0.0
 40
2.0
100
AcDbArc
 50
90.0
 51
270.0
  0
LINE
  5
2883
330
2
100
AcDbEntity
  8
0
100
AcDbLine
 10
313.5631273543331
 20
111.5845084737777
 30
0.0
 11
313.4112230242617
 21
111.6722104796356
 31
0.0
  0
LINE
  5
2884
330
2
100
AcDbEntity
  8
0
100
AcDbLine
 10
314.8131273543331
 20
109.4401596720667
 30
0.0
 11
313.8131273543331
 21
110.0175099412563
 31
0.0
  0
ARC
  5
2885
330
2
100
AcDbEntity
  8
0
100
AcDbCircle
 10
313.3131273543331
 20
111.1514957718855
 30
0.0
 40
0.5
100
AcDbArc
 50
0.0
 51
59.99999999999946
  0
ARC
  5
2886
330
2
100
AcDbEntity
  8
0
100
AcDbCircle
 10
312.4112230242617
 20
109.9401596720667
 30
0.0
 40
2.0
100
AcDbArc
 50
59.99999999999946
 51
78.40735543226724
  0
LINE
  5
2888
330
2
100
AcDbEntity
  8
0
100
AcDbLine
 10
334.3131273543331
 20
100.4402080806209
 30
0.0
 11
334.3131273543331
 21
96.44015967206678
 31
0.0
  0
LINE
  5
2889
330
2
100
AcDbEntity
  8
0
100
AcDbLine
 10
334.8131273543331
 20
107.9401596720667
 30
0.0
 11
334.8131273543331
 21
96.94015967206679
 31
0.0
  0
CIRCLE
  5
288B
330
2
100
AcDbEntity
  8
0
100
AcDbCircle
 10
446.5593844941553
 20
102.4401979645488
 30
0.0
 40
9.499961707520014
  0
ARC
  5
288C
330
2
100
AcDbEntity
  8
0
100
AcDbCircle
 10
446.5593844941553
 20
102.4401979645488
 30
0.0
 40
7.577311976709552
100
AcDbArc
 50
195.3043240521925
 51
164.6956759477822
  0
ARC
  5
288D
330
2
100
AcDbEntity
  8
0
100
AcDbCircle
 10
446.5593844941553
 20
102.4401979645488
 30
0.0
 40
6.999961707519901
100
AcDbArc
 50
196.6016430457799
 51
163.3983569541947
  0
ARC
  5
288E
330
2
100
AcDbEntity
  8
0
100
AcDbCircle
 10
446.5593844941553
 20
102.4401979645484
 30
0.0
 40
5.999961707520469
100
AcDbArc
 50
199.4713499178904
 51
160.5286500820744
  0
LINE
  5
288F
330
2
100
AcDbEntity
  8
0
100
AcDbLine
 10
623.3518023060689
 20
96.44023625701226
 30
0.0
 11
623.3518023060689
 21
108.4402362570099
 31
0.0
  0
LINE
  5
2890
330
2
100
AcDbEntity
  8
0
100
AcDbLine
 10
622.8518023060689
 20
96.94023625701227
 30
0.0
 11
622.8518023060689
 21
107.9402362570099
 31
0.0
  0
LINE
  5
2891
330
2
100
AcDbEntity
  8
0
100
AcDbLine
 10
642.8518023060689
 20
95.44023625701226
 30
0.0
 11
642.8518023060689
 21
109.4402362570122
 31
0.0
  0
LINE
  5
2892
330
2
100
AcDbEntity
  8
0
100
AcDbLine
 10
643.8518023060689
 20
111.1515686515122
 30
0.0
 11
643.8518023060689
 21
93.72890015719354
 31
0.0
  0
LINE
  5
2894
330
2
100
AcDbEntity
  8
0
100
AcDbLine
 10
334.3131273543331
 20
96.44015967206678
 30
0.0
 11
334.8131273543331
 21
96.94015967206679
 31
0.0
  0
LINE
  5
2895
330
2
100
AcDbEntity
  8
0
100
AcDbLine
 10
642.8518023060689
 20
96.44023625701226
 30
0.0
 11
623.3518023060689
 21
96.44023625701226
 31
0.0
  0
LINE
  5
2896
330
2
100
AcDbEntity
  8
0
100
AcDbLine
 10
623.3518023060689
 20
96.44023625701226
 30
0.0
 11
622.8518023060689
 21
96.94023625701227
 31
0.0
  0
LINE
  5
2897
330
2
100
AcDbEntity
  8
0
100
AcDbLine
 10
644.1018023060689
 20
93.29588745530106
 30
0.0
 11
644.2537066361403
 21
93.20818544944319
 31
0.0
  0
LINE
  5
2898
330
2
100
AcDbEntity
  8
0
100
AcDbLine
 10
642.8518023060689
 20
95.44023625701226
 30
0.0
 11
643.8518023060689
 21
94.86288598782271
 31
0.0
  0
ARC
  5
2899
330
2
100
AcDbEntity
  8
0
100
AcDbCircle
 10
644.351802306069
 20
93.72890015719354
 30
0.0
 40
0.5
100
AcDbArc
 50
180.0
 51
239.9999999999994
  0
ARC
  5
289A
330
2
100
AcDbEntity
  8
0
100
AcDbCircle
 10
645.2537066361403
 20
94.94023625701226
 30
0.0
 40
2.0
100
AcDbArc
 50
239.9999999999994
 51
258.4073554322671
  0
LINE
  5
289C
330
2
100
AcDbEntity
  8
0
100
AcDbLine
 10
334.3131273543331
 20
108.4401596720667
 30
0.0
 11
334.3131273543331
 21
104.4402080806209
 31
0.0
  0
LINE
  5
289D
330
2
100
AcDbEntity
  8
0
100
AcDbLine
 10
334.3131273543331
 20
108.4401596720667
 30
0.0
 11
334.8131273543331
 21
107.9401596720667
 31
0.0
  0
LINE
  5
289F
330
2
100
AcDbEntity
  8
0
100
AcDbLine
 10
439.0593462016758
 20
104.4401979645502
 30
0.0
 11
439.0593462016758
 21
100.4401979645502
 31
0.0
  0
LINE
  5
28A0
330
2
100
AcDbEntity
  8
0
100
AcDbLine
 10
443.0593462016753
 20
104.4401979645502
 30
0.0
 11
443.0593462016758
 21
100.4401979645502
 31
0.0
  0
LINE
  5
28A1
330
2
100
AcDbEntity
  8
0
100
AcDbLine
 10
439.0593462016758
 20
104.4401979645502
 30
0.0
 11
443.0593462016753
 21
104.4401979645502
 31
0.0
  0
LINE
  5
28A2
330
2
100
AcDbEntity
  8
0
100
AcDbLine
 10
439.0593462016758
 20
100.4401979645502
 30
0.0
 11
443.0593462016758
 21
100.4401979645502
 31
0.0
  0
ARC
  5
28A3
330
2
100
AcDbEntity
  8
0
100
AcDbCircle
 10
446.5593844941553
 20
102.4401979645488
 30
0.0
 40
7.577311976709552
100
AcDbArc
 50
171.8103446301274
 51
188.1896553698789
  0
LINE
  5
28A4
330
2
100
AcDbEntity
  8
0
100
AcDbLine
 10
440.9025708599902
 20
255.517668252606
 30
0.0
 11
440.9025708599902
 21
239.517668252606
 31
0.0
  0
LINE
  5
28A5
330
2
100
AcDbEntity
  8
0
100
AcDbLine
 10
440.9025708599902
 20
239.517668252606
 30
0.0
 11
440.9025708599902
 21
255.517668252606
 31
0.0
  0
LINE
  5
28A6
330
2
100
AcDbEntity
  8
0
100
AcDbLine
 10
440.9025708599902
 20
239.517668252606
 30
0.0
 11
440.9025708599902
 21
255.517668252606
 31
0.0
  0
LINE
  5
28A7
330
2
100
AcDbEntity
  8
0
100
AcDbLine
 10
439.0593462016783
 20
257.5176682525805
 30
0.0
 11
439.0593462016783
 21
239.517668252606
 31
0.0
  0
LINE
  5
28A8
330
2
100
AcDbEntity
  8
0
100
AcDbLine
 10
452.5593462016782
 20
259.517668252606
 30
0.0
 11
452.5593462016782
 21
240.017668252606
 31
0.0
  0
LINE
  5
28A9
330
2
100
AcDbEntity
  8
0
100
AcDbLine
 10
452.5593462016782
 20
240.017668252606
 30
0.0
 11
440.9025708599902
 21
240.017668252606
 31
0.0
  0
LINE
  5
28AA
330
2
100
AcDbEntity
  8
0
100
AcDbLine
 10
452.5593462016782
 20
240.017668252606
 30
0.0
 11
452.0593462016782
 21
239.517668252606
 31
0.0
  0
LINE
  5
28AB
330
2
100
AcDbEntity
  8
0
100
AcDbLine
 10
452.0593462016782
 20
239.517668252606
 30
0.0
 11
439.0593462016783
 21
239.517668252606
 31
0.0
  0
LINE
  5
28AC
330
2
100
AcDbEntity
  8
0
100
AcDbLine
 10
440.5593462016782
 20
257.5176682525805
 30
0.0
 11
440.9025708599902
 21
255.517668252606
 31
0.0
  0
LINE
  5
28AD
330
2
100
AcDbEntity
  8
0
100
AcDbLine
 10
440.5593462016782
 20
257.5176682525805
 30
0.0
 11
439.0593462016783
 21
257.5176682525805
 31
0.0
  0
LINE
  5
28AE
330
2
100
AcDbEntity
  8
0
100
AcDbLine
 10
440.5593462016782
 20
259.517668252606
 30
0.0
 11
440.5593462016782
 21
257.5176682525805
 31
0.0
  0
LINE
  5
28AF
330
2
100
AcDbEntity
  8
0
100
AcDbLine
 10
453.5593462016783
 20
259.517668252606
 30
0.0
 11
439.5593462016782
 21
259.517668252606
 31
0.0
  0
LINE
  5
28B0
330
2
100
AcDbEntity
  8
0
100
AcDbLine
 10
642.8518023060689
 20
108.4402362570122
 30
0.0
 11
623.3518023060689
 21
108.4402362570099
 31
0.0
  0
LINE
  5
28B2
330
2
100
AcDbEntity
  8
0
100
AcDbLine
 10
622.8518023060689
 20
107.9402362570099
 30
0.0
 11
623.3518023060689
 21
108.4402362570099
 31
0.0
  0
LINE
  5
28B3
330
2
100
AcDbEntity
  8
0
100
AcDbLine
 10
644.1018023060689
 20
111.5845813534042
 30
0.0
 11
644.2537066361403
 21
111.6722833592621
 31
0.0
  0
ARC
  5
28B4
330
2
100
AcDbEntity
  8
0
100
AcDbCircle
 10
644.351802306069
 20
111.1515686515122
 30
0.0
 40
0.5
100
AcDbArc
 50
120.0000000000005
 51
180.0
  0
ARC
  5
28B5
330
2
100
AcDbEntity
  8
0
100
AcDbCircle
 10
645.2537066361403
 20
109.9402325516933
 30
0.0
 40
2.0
100
AcDbArc
 50
101.5926445677327
 51
120.0000000000005
  0
LINE
  5
28B6
330
2
100
AcDbEntity
  8
0
100
AcDbLine
 10
642.851807623813
 20
109.440214547863
 30
0.0
 11
643.8518080624137
 21
110.0175640573734
 31
0.0
  0
LINE
  5
28B8
330
2
100
AcDbEntity
  8
0
100
AcDbLine
 10
437.4150011052862
 20
260.767668252606
 30
0.0
 11
437.3272990994284
 21
260.9195725826773
 31
0.0
  0
ARC
  5
28B9
330
2
100
AcDbEntity
  8
0
100
AcDbCircle
 10
439.059349906997
 20
261.9195725826774
 30
0.0
 40
2.0
100
AcDbArc
 50
191.5926445677324
 51
209.9999999999991
  0
LINE
  5
28BA
330
2
100
AcDbEntity
  8
0
100
AcDbLine
 10
455.7036950033895
 20
260.767668252606
 30
0.0
 11
455.7913970092474
 21
260.9195725826773
 31
0.0
  0
LINE
  5
28BB
330
2
100
AcDbEntity
  8
0
100
AcDbLine
 10
437.8480138071783
 20
260.517668252606
 30
0.0
 11
455.270682301497
 21
260.517668252606
 31
0.0
  0
ARC
  5
28BC
330
2
100
AcDbEntity
  8
0
100
AcDbCircle
 10
454.0593462016783
 20
261.9195725826774
 30
0.0
 40
2.0
100
AcDbArc
 50
330.0000000000008
 51
348.4073554322675
  0
ENDSEC
  0
SECTION
  2
OBJECTS
  0
DICTIONARY
  5
7
330
0
100
AcDbDictionary
  3
ACAD_COLOR
350
1CF8
  3
ACAD_GROUP
350
75
  3
ACAD_LAYOUT
350
61
  3
ACAD_MATERIAL
350
1CCE
  3
ACAD_MLEADERSTYLE
350
1D1D
  3
ACAD_MLINESTYLE
350
76
  3
ACAD_PLOTSETTINGS
350
77
  3
ACAD_PLOTSTYLENAME
350
6
  3
ACAD_SCALELIST
350
1CFB
  3
ACAD_TABLESTYLE
350
1CF9
  3
ACAD_VISUALSTYLE
350
1CE7
  3
ACADDIM
350
480
  3
ACDB_RECOMPOSE_DATA
350
1D36
  3
ACDBHEADERROUNDTRIPXREC
350
2AF7
  3
ACDBVARIABLEDICTIONARY
350
102
  3
DWGPROPS
350
2AC4
  0
DICTIONARY
  5
1D3F
330
6E
100
AcDbDictionary
280
     1
  3
ACAD_XREC_ROUNDTRIP
360
2ACB
  0
DICTIONARY
  5
AFF
330
66
100
AcDbDictionary
280
     1
  3
ACAD_LAYERSTATES
360
B00
  0
DICTIONARY
  5
1D22
330
5E
100
AcDbDictionary
280
     1
  3
ACAD_XREC_ROUNDTRIP
360
2AC7
  3
ADSK_XREC_LAYER_RECONCILED
360
1D23
  0
DICTIONARY
  5
1D24
330
3E
100
AcDbDictionary
280
     1
  3
ACAD_XREC_ROUNDTRIP
360
2AC6
  3
ADSK_XREC_LAYER_RECONCILED
360
1D25
  0
DICTIONARY
  5
1D2A
330
2B5
100
AcDbDictionary
280
     1
  3
ACAD_XREC_ROUNDTRIP
360
2AD1
  3
ADSK_XREC_LAYER_RECONCILED
360
1D2B
  0
DICTIONARY
  5
1D2C
330
2BA
100
AcDbDictionary
280
     1
  3
ACAD_XREC_ROUNDTRIP
360
2AD2
  3
ADSK_XREC_LAYER_RECONCILED
360
1D2D
  0
DICTIONARY
  5
1D30
330
3FA
100
AcDbDictionary
280
     1
  3
ACAD_XREC_ROUNDTRIP
360
2AD4
  3
ADSK_XREC_LAYER_RECONCILED
360
1D31
  0
DICTIONARY
  5
2B18
330
2
100
AcDbDictionary
280
     1
  3
ACAD_LAYOUTSELFREF
360
2B19
  0
DICTIONARY
  5
2B1A
330
2AF1
100
AcDbDictionary
280
     1
  3
ACAD_LAYOUTSELFREF
360
2B1B
  0
DICTIONARY
  5
1CF8
102
{ACAD_REACTORS
330
7
102
}
330
7
100
AcDbDictionary
  0
DICTIONARY
  5
75
102
{ACAD_REACTORS
330
7
102
}
330
7
100
AcDbDictionary
  0
DICTIONARY
  5
61
102
{ACAD_REACTORS
330
7
102
}
330
7
100
AcDbDictionary
  0
DICTIONARY
  5
1CCE
102
{ACAD_REACTORS
330
7
102
}
330
7
100
AcDbDictionary
  3
BYBLOCK
350
1CD7
  3
BYLAYER
350
1CCF
  3
GLOBAL
350
1CDF
  0
DICTIONARY
  5
1D1D
102
{ACAD_REACTORS
330
7
102
}
330
7
100
AcDbDictionary
  3
STANDARD
350
1D1E
  0
DICTIONARY
  5
76
102
{ACAD_REACTORS
330
7
102
}
330
7
100
AcDbDictionary
  3
STANDARD
350
78
  0
DICTIONARY
  5
77
102
{ACAD_REACTORS
330
7
102
}
330
7
100
AcDbDictionary
  0
ACDBDICTIONARYWDFLT
  5
6
102
{ACAD_REACTORS
330
7
102
}
330
7
100
AcDbDictionary
281
     1
  3
Normal
350
5
100
AcDbDictionaryWithDefault
340
5
  0
DICTIONARY
  5
1CFB
102
{ACAD_REACTORS
330
7
102
}
330
7
100
AcDbDictionary
  3
A0
350
1CFC
  3
A1
350
1CFD
  3
A2
350
1CFE
  3
A3
350
1CFF
  3
A4
350
1D00
  3
A5
350
1D01
  3
A6
350
1D02
  3
A7
350
1D03
  3
A8
350
1D04
  3
A9
350
1D05
  3
B0
350
1D06
  3
B1
350
1D07
  3
B2
350
1D08
  3
B3
350
1D09
  3
B4
350
1D0A
  3
B5
350
1D0B
  3
B6
350
1D0C
  3
B7
350
1D0D
  3
B8
350
1D0E
  3
B9
350
1D0F
  3
C0
350
1D10
  3
C1
350
1D11
  3
C2
350
1D12
  3
C3
350
1D13
  3
C4
350
1D14
  3
C5
350
1D15
  3
C6
350
1D16
  3
C7
350
1D17
  3
C8
350
1D18
  3
C9
350
1D19
  3
D0
350
1D1A
  3
D1
350
1D1B
  3
D2
350
1D1C
  0
DICTIONARY
  5
1CF9
102
{ACAD_REACTORS
330
7
102
}
330
7
100
AcDbDictionary
  3
STANDARD
350
1CFA
  0
DICTIONARY
  5
1CE7
102
{ACAD_REACTORS
330
7
102
}
330
7
100
AcDbDictionary
  3
2DWIREFRAME
350
1CED
  3
3D_HIDDEN
350
1CEF
  3
3DWIREFRAME
350
1CEE
  3
BASIC
350
1CEC
  3
BRIGHTEN
350
1CF3
  3
COLORCHANGE
350
1CF7
  3
CONCEPTUAL
350
1CF0
  3
DIM
350
1CF2
  3
FACEPATTERN
350
1CF6
  3
FLAT
350
1CE8
  3
FLATWITHEDGES
350
1CE9
  3
GOURAUD
350
1CEA
  3
GOURAUDWITHEDGES
350
1CEB
  3
LINEPATTERN
350
1CF5
  3
REALISTIC
350
1CF1
  3
THICKEN
350
1CF4
  0
XRECORD
  5
480
102
{ACAD_REACTORS
330
7
102
}
330
7
100
AcDbXrecord
 90
   990106
  3

 60
     0
 61
     0
 62
     1
 63
     3
 64
     1
 65
     0
 66
     0
 67
     3
 68
     1
 69
     0
 70
     0
 71
     0
 72
     0
 40
0.0
170
     2
340
0
  0
XRECORD
  5
1D36
102
{ACAD_REACTORS
330
7
102
}
330
7
100
AcDbXrecord
 90
        1
330
1CFA
  0
DICTIONARY
  5
2AF7
102
{ACAD_REACTORS
330
7
102
}
330
7
100
AcDbDictionary
  3
CEPSNTYPE
350
2B01
  3
DIMSTYLEDATA
350
2B05
  3
FINGERPRINTGUID
350
2B02
  3
HYPERLINKBASE
350
2AFA
  3
INSUNITS
350
2B00
  3
LAYOUTDICT
350
2AFC
  3
LWETCUNION
350
2AFF
  3
PLOTSETDICT
350
2AFD
  3
PLOTSTYLNAMDICT
350
2AFE
  3
PSVPSCALE
350
2B04
  3
PUCSBASE
350
2B08
  3
PUCSORGBACK
350
2B0E
  3
PUCSORGBOTTOM
350
2B0A
  3
PUCSORGFRONT
350
2B0D
  3
PUCSORGLEFT
350
2B0B
  3
PUCSORGRIGHT
350
2B0C
  3
PUCSORGTOP
350
2B09
  3
PUCSORTHOREF
350
2B06
  3
PUCSORTHOVIEW
350
2B07
  3
STYLESHEET
350
2AFB
  3
TSTACKALIGN
350
2AF8
  3
TSTACKSIZE
350
2AF9
  3
UCSBASE
350
2B11
  3
UCSORGBACK
350
2B17
  3
UCSORGBOTTOM
350
2B13
  3
UCSORGFRONT
350
2B16
  3
UCSORGLEFT
350
2B14
  3
UCSORGRIGHT
350
2B15
  3
UCSORGTOP
350
2B12
  3
UCSORTHOREF
350
2B0F
  3
UCSORTHOVIEW
350
2B10
  3
VERSIONGUID
350
2B03
  0
DICTIONARY
  5
102
102
{ACAD_REACTORS
330
7
102
}
330
7
100
AcDbDictionary
  3
CANNOSCALE
350
1D57
  3
CMLEADERSTYLE
350
1D56
  3
CTABLESTYLE
350
1D55
  3
DIMASSOC
350
103
  3
INDEXCTL
350
1D58
  3
SORTENTS
350
549
  0
XRECORD
  5
2AC4
102
{ACAD_REACTORS
330
7
102
}
330
7
100
AcDbXrecord
  1
DWGPROPS COOKIE
  2

  3

  4

  6

  7

  8
ymorima
  9

300
=
301
=
302
=
303
=
304
=
305
=
306
=
307
=
308
=
309
=
 40
0.0736723842592593
 41
2454410.388680555
 42
2454425.752464363
  1

 90
        0
  0
XRECORD
  5
2ACB
102
{ACAD_REACTORS
330
1D3F
102
}
330
1D3F
100
AcDbXrecord
102
VTR_0.000_0.000_1.000_1.000_VISUALSTYLE
340
1CED
102
VTR_0.000_0.000_1.000_1.000_GRIDDISPLAY
 70
     3
102
VTR_0.000_0.000_1.000_1.000_GRIDMAJOR
 70
     5
102
VTR_0.000_0.000_1.000_1.000_DEFAULTLIGHTING
280
     1
102
VTR_0.000_0.000_1.000_1.000_DEFAULTLIGHTINGTYPE
 70
     1
102
VTR_0.000_0.000_1.000_1.000_BRIGHTNESS
141
0.0
102
VTR_0.000_0.000_1.000_1.000_CONTRAST
142
0.0
  0
DICTIONARY
  5
B00
102
{ACAD_REACTORS
330
AFF
102
}
330
AFF
100
AcDbDictionary
  0
XRECORD
  5
2AC7
102
{ACAD_REACTORS
330
1D22
102
}
330
1D22
100
AcDbXrecord
102
MATERIAL
340
1CDF
  0
XRECORD
  5
1D23
102
{ACAD_REACTORS
330
1D22
102
}
330
1D22
100
AcDbXrecord
290
     1
  0
XRECORD
  5
2AC6
102
{ACAD_REACTORS
330
1D24
102
}
330
1D24
100
AcDbXrecord
102
MATERIAL
340
1CDF
  0
XRECORD
  5
1D25
102
{ACAD_REACTORS
330
1D24
102
}
330
1D24
100
AcDbXrecord
290
     1
  0
XRECORD
  5
2AD1
102
{ACAD_REACTORS
330
1D2A
102
}
330
1D2A
100
AcDbXrecord
102
MATERIAL
340
1CDF
  0
XRECORD
  5
1D2B
102
{ACAD_REACTORS
330
1D2A
102
}
330
1D2A
100
AcDbXrecord
290
     1
  0
XRECORD
  5
2AD2
102
{ACAD_REACTORS
330
1D2C
102
}
330
1D2C
100
AcDbXrecord
102
MATERIAL
340
1CDF
  0
XRECORD
  5
1D2D
102
{ACAD_REACTORS
330
1D2C
102
}
330
1D2C
100
AcDbXrecord
290
     1
  0
XRECORD
  5
2AD4
102
{ACAD_REACTORS
330
1D30
102
}
330
1D30
100
AcDbXrecord
102
MATERIAL
340
1CDF
  0
XRECORD
  5
1D31
102
{ACAD_REACTORS
330
1D30
102
}
330
1D30
100
AcDbXrecord
290
     1
  0
XRECORD
  5
2B19
102
{ACAD_REACTORS
330
2B18
102
}
330
2B18
100
AcDbXrecord
340
2
  0
XRECORD
  5
2B1B
102
{ACAD_REACTORS
330
2B1A
102
}
330
2B1A
100
AcDbXrecord
340
2AF1
  0
ACAD_PROXY_OBJECT
  5
1CD7
102
{ACAD_XDICTIONARY
360
1CD8
102
}
102
{ACAD_REACTORS
330
1CCE
102
}
330
1CCE
100
AcDbProxyObject
 90
      499
 91
      510
 93
     1340
310
42109E509B1BD8DAC02004014080404555555555555953FAA155555555555654FEA9AA400014080404555555555555953FAA155555555555654FEA9AA400000000000000E03F4080404555555555555953FAA155555555555654FEA9AA4014080404555555555555953FAA155555555555654FEA9AA4010201011555555555
310
55654FEA8555555555555953FAA6A9005020101155555555555654FEA8555555555555953FAA6A9000
 94
        0
1001
ACAD
1000
AcadProxyRoundTripData
1071
      504
1071
   655383
1070
     0
  0
ACAD_PROXY_OBJECT
  5
1CCF
102
{ACAD_XDICTIONARY
360
1CD0
102
}
102
{ACAD_REACTORS
330
1CCE
102
}
330
1CCE
100
AcDbProxyObject
 90
      499
 91
      510
 93
     1340
310
42109E53185E595C802004014080404555555555555953FAA155555555555654FEA9AA400014080404555555555555953FAA155555555555654FEA9AA400000000000000E03F4080404555555555555953FAA155555555555654FEA9AA4014080404555555555555953FAA155555555555654FEA9AA4010201011555555555
310
55654FEA8555555555555953FAA6A9005020101155555555555654FEA8555555555555953FAA6A9000
 94
        0
1001
ACAD
1000
AcadProxyRoundTripData
1071
      504
1071
   655383
1070
     0
  0
ACAD_PROXY_OBJECT
  5
1CDF
102
{ACAD_XDICTIONARY
360
1CE0
102
}
102
{ACAD_REACTORS
330
1CCE
102
}
330
1CCE
100
AcDbProxyObject
 90
      499
 91
      510
 93
     1332
310
41D1DB1BD8985B002004014080404555555555555953FAA155555555555654FEA9AA400014080404555555555555953FAA155555555555654FEA9AA400000000000000E03F4080404555555555555953FAA155555555555654FEA9AA4014080404555555555555953FAA155555555555654FEA9AA401020101155555555555
310
654FEA8555555555555953FAA6A9005020101155555555555654FEA8555555555555953FAA6A9000
 94
        0
1001
ACAD
1000
AcadProxyRoundTripData
1071
      504
1071
   655383
1070
     0
  0
ACAD_PROXY_OBJECT
  5
1D1E
102
{ACAD_REACTORS
330
1D1D
102
}
330
1D1D
100
AcDbProxyObject
 90
      499
 91
      510
 93
      618
310
40901902A4063FBFFFFFE056BD1B81E855B9FC0AD7A3703D0AD73F4254DD185B99185C990000AD7A3703D0AC73F90141901A02B5E8DC0F42B1CFC02B5E8DC0F42B1CFE5764000000000000300FC6
340
6A
340
0
340
16
340
0
 94
        0
1001
ACAD_MLEADERVER
1070
     2
1001
ACAD
1000
AcadProxyRoundTripData
1071
      508
1071
   655383
1070
     0
  0
MLINESTYLE
  5
78
102
{ACAD_REACTORS
330
76
102
}
330
76
100
AcDbMlineStyle
  2
STANDARD
 70
     0
  3

 62
     0
 51
90.0
 52
90.0
 71
     2
 49
0.5
 62
   256
  6
BYLAYER
 49
-0.5
 62
   256
  6
BYLAYER
  0
ACDBPLACEHOLDER
  5
5
102
{ACAD_REACTORS
330
6
102
}
330
6
100
AcDbPlaceHolder
280
     0
  0
ACAD_PROXY_OBJECT
  5
1CFC
102
{ACAD_REACTORS
330
1CFB
102
}
330
1CFB
100
AcDbProxyObject
 90
      499
 91
      510
 93
       49
310
904313A3100598
 94
        0
1001
ACAD
1000
AcadProxyRoundTripData
1071
      507
1071
   655383
1070
     0
  0
ACAD_PROXY_OBJECT
  5
1CFD
102
{ACAD_REACTORS
330
1CFB
102
}
330
1CFB
100
AcDbProxyObject
 90
      499
 91
      510
 93
      113
310
904313A3200400000000000000406B
 94
        0
1001
ACAD
1000
AcadProxyRoundTripData
1071
      507
1071
   655383
1070
     0
  0
ACAD_PROXY_OBJECT
  5
1CFE
102
{ACAD_REACTORS
330
1CFB
102
}
330
1CFB
100
AcDbProxyObject
 90
      499
 91
      510
 93
      113
310
904313A3400400000000000010406B
 94
        0
1001
ACAD
1000
AcadProxyRoundTripData
1071
      507
1071
   655383
1070
     0
  0
ACAD_PROXY_OBJECT
  5
1CFF
102
{ACAD_REACTORS
330
1CFB
102
}
330
1CFB
100
AcDbProxyObject
 90
      499
 91
      510
 93
      113
310
904313A3500400000000000014406B
 94
        0
1001
ACAD
1000
AcadProxyRoundTripData
1071
      507
1071
   655383
1070
     0
  0
ACAD_PROXY_OBJECT
  5
1D00
102
{ACAD_REACTORS
330
1CFB
102
}
330
1CFB
100
AcDbProxyObject
 90
      499
 91
      510
 93
      113
310
904313A3800400000000000020406B
 94
        0
1001
ACAD
1000
AcadProxyRoundTripData
1071
      507
1071
   655383
1070
     0
  0
ACAD_PROXY_OBJECT
  5
1D01
102
{ACAD_REACTORS
330
1CFB
102
}
330
1CFB
100
AcDbProxyObject
 90
      499
 91
      510
 93
      121
310
905313A3130004000000000000244051
 94
        0
1001
ACAD
1000
AcadProxyRoundTripData
1071
      507
1071
   655383
1070
     0
  0
ACAD_PROXY_OBJECT
  5
1D02
102
{ACAD_REACTORS
330
1CFB
102
}
330
1CFB
100
AcDbProxyObject
 90
      499
 91
      510
 93
      121
310
905313A3136004000000000000304051
 94
        0
1001
ACAD
1000
AcadProxyRoundTripData
1071
      507
1071
   655383
1070
     0
  0
ACAD_PROXY_OBJECT
  5
1D03
102
{ACAD_REACTORS
330
1CFB
102
}
330
1CFB
100
AcDbProxyObject
 90
      499
 91
      510
 93
      121
310
905313A3230004000000000000344051
 94
        0
1001
ACAD
1000
AcadProxyRoundTripData
1071
      507
1071
   655383
1070
     0
  0
ACAD_PROXY_OBJECT
  5
1D04
102
{ACAD_REACTORS
330
1CFB
102
}
330
1CFB
100
AcDbProxyObject
 90
      499
 91
      510
 93
      121
310
905313A33300040000000000003E4051
 94
        0
1001
ACAD
1000
AcadProxyRoundTripData
1071
      507
1071
   655383
1070
     0
  0
ACAD_PROXY_OBJECT
  5
1D05
102
{ACAD_REACTORS
330
1CFB
102
}
330
1CFB
100
AcDbProxyObject
 90
      499
 91
      510
 93
      121
310
905313A3430004000000000000444051
 94
        0
1001
ACAD
1000
AcadProxyRoundTripData
1071
      507
1071
   655383
1070
     0
  0
ACAD_PROXY_OBJECT
  5
1D06
102
{ACAD_REACTORS
330
1CFB
102
}
330
1CFB
100
AcDbProxyObject
 90
      499
 91
      510
 93
      121
310
905313A3530004000000000000494051
 94
        0
1001
ACAD
1000
AcadProxyRoundTripData
1071
      507
1071
   655383
1070
     0
  0
ACAD_PROXY_OBJECT
  5
1D07
102
{ACAD_REACTORS
330
1CFB
102
}
330
1CFB
100
AcDbProxyObject
 90
      499
 91
      510
 93
      129
310
906313A313030004000000000000594038
 94
        0
1001
ACAD
1000
AcadProxyRoundTripData
1071
      507
1071
   655383
1070
     0
  0
ACAD_PROXY_OBJECT
  5
1D08
102
{ACAD_REACTORS
330
1CFB
102
}
330
1CFB
100
AcDbProxyObject
 90
      499
 91
      510
 93
      113
310
904323A31000000000000000010159
 94
        0
1001
ACAD
1000
AcadProxyRoundTripData
1071
      507
1071
   655383
1070
     0
  0
ACAD_PROXY_OBJECT
  5
1D09
102
{ACAD_REACTORS
330
1CFB
102
}
330
1CFB
100
AcDbProxyObject
 90
      499
 91
      510
 93
      113
310
904343A31000000000000000410159
 94
        0
1001
ACAD
1000
AcadProxyRoundTripData
1071
      507
1071
   655383
1070
     0
  0
ACAD_PROXY_OBJECT
  5
1D0A
102
{ACAD_REACTORS
330
1CFB
102
}
330
1CFB
100
AcDbProxyObject
 90
      499
 91
      510
 93
      113
310
904383A31000000000000000810159
 94
        0
1001
ACAD
1000
AcadProxyRoundTripData
1071
      507
1071
   655383
1070
     0
  0
ACAD_PROXY_OBJECT
  5
1D0B
102
{ACAD_REACTORS
330
1CFB
102
}
330
1CFB
100
AcDbProxyObject
 90
      499
 91
      510
 93
      121
310
90531303A31000000000000000910140
 94
        0
1001
ACAD
1000
AcadProxyRoundTripData
1071
      507
1071
   655383
1070
     0
  0
ACAD_PROXY_OBJECT
  5
1D0C
102
{ACAD_REACTORS
330
1CFB
102
}
330
1CFB
100
AcDbProxyObject
 90
      499
 91
      510
 93
      129
310
9063130303A31000000000000001650138
 94
        0
1001
ACAD
1000
AcadProxyRoundTripData
1071
      507
1071
   655383
1070
     0
  0
ACAD_PROXY_OBJECT
  5
1D0D
102
{ACAD_REACTORS
330
1CFB
102
}
330
1CFB
100
AcDbProxyObject
 90
      499
 91
      510
 93
      265
310
90F312F31323822203D2031272D302200000000000000200FC00000000000028402B
 94
        0
1001
ACAD
1000
AcadProxyRoundTripData
1071
      507
1071
   655383
1070
     0
  0
ACAD_PROXY_OBJECT
  5
1D0E
102
{ACAD_REACTORS
330
1CFB
102
}
330
1CFB
100
AcDbProxyObject
 90
      499
 91
      510
 93
      257
310
90E312F363422203D2031272D302200000000000000240FC000000000000284040
 94
        0
1001
ACAD
1000
AcadProxyRoundTripData
1071
      507
1071
   655383
1070
     0
  0
ACAD_PROXY_OBJECT
  5
1D0F
102
{ACAD_REACTORS
330
1CFB
102
}
330
1CFB
100
AcDbProxyObject
 90
      499
 91
      510
 93
      257
310
90E312F333222203D2031272D302200000000000000280FC000000000000284040
 94
        0
1001
ACAD
1000
AcadProxyRoundTripData
1071
      507
1071
   655383
1070
     0
  0
ACAD_PROXY_OBJECT
  5
1D10
102
{ACAD_REACTORS
330
1CFB
102
}
330
1CFB
100
AcDbProxyObject
 90
      499
 91
      510
 93
      257
310
90E312F313622203D2031272D3022000000000000002C0FC000000000000284040
 94
        0
1001
ACAD
1000
AcadProxyRoundTripData
1071
      507
1071
   655383
1070
     0
  0
ACAD_PROXY_OBJECT
  5
1D11
102
{ACAD_REACTORS
330
1CFB
102
}
330
1CFB
100
AcDbProxyObject
 90
      499
 91
      510
 93
      257
310
90E332F333222203D2031272D3022000000000000002E0FC000000000000284040
 94
        0
1001
ACAD
1000
AcadProxyRoundTripData
1071
      507
1071
   655383
1070
     0
  0
ACAD_PROXY_OBJECT
  5
1D12
102
{ACAD_REACTORS
330
1CFB
102
}
330
1CFB
100
AcDbProxyObject
 90
      499
 91
      510
 93
      249
310
90D312F3822203D2031272D302200000000000000300FC000000000000284040
 94
        0
1001
ACAD
1000
AcadProxyRoundTripData
1071
      507
1071
   655383
1070
     0
  0
ACAD_PROXY_OBJECT
  5
1D13
102
{ACAD_REACTORS
330
1CFB
102
}
330
1CFB
100
AcDbProxyObject
 90
      499
 91
      510
 93
      257
310
90E332F313622203D2031272D302200000000000000320FC000000000000284040
 94
        0
1001
ACAD
1000
AcadProxyRoundTripData
1071
      507
1071
   655383
1070
     0
  0
ACAD_PROXY_OBJECT
  5
1D14
102
{ACAD_REACTORS
330
1CFB
102
}
330
1CFB
100
AcDbProxyObject
 90
      499
 91
      510
 93
      249
310
90D312F3422203D2031272D302200000000000000340FC000000000000284040
 94
        0
1001
ACAD
1000
AcadProxyRoundTripData
1071
      507
1071
   655383
1070
     0
  0
ACAD_PROXY_OBJECT
  5
1D15
102
{ACAD_REACTORS
330
1CFB
102
}
330
1CFB
100
AcDbProxyObject
 90
      499
 91
      510
 93
      249
310
90D332F3822203D2031272D302200000000000000360FC000000000000284040
 94
        0
1001
ACAD
1000
AcadProxyRoundTripData
1071
      507
1071
   655383
1070
     0
  0
ACAD_PROXY_OBJECT
  5
1D16
102
{ACAD_REACTORS
330
1CFB
102
}
330
1CFB
100
AcDbProxyObject
 90
      499
 91
      510
 93
      249
310
90D312F3222203D2031272D302200000000000000380FC000000000000284040
 94
        0
1001
ACAD
1000
AcadProxyRoundTripData
1071
      507
1071
   655383
1070
     0
  0
ACAD_PROXY_OBJECT
  5
1D17
102
{ACAD_REACTORS
330
1CFB
102
}
330
1CFB
100
AcDbProxyObject
 90
      499
 91
      510
 93
      249
310
90D332F3422203D2031272D3022000000000000003A0FC000000000000284040
 94
        0
1001
ACAD
1000
AcadProxyRoundTripData
1071
      507
1071
   655383
1070
     0
  0
ACAD_PROXY_OBJECT
  5
1D18
102
{ACAD_REACTORS
330
1CFB
102
}
330
1CFB
100
AcDbProxyObject
 90
      499
 91
      510
 93
      169
310
90B3122203D2031272D3022004000000000000284020
 94
        0
1001
ACAD
1000
AcadProxyRoundTripData
1071
      507
1071
   655383
1070
     0
  0
ACAD_PROXY_OBJECT
  5
1D19
102
{ACAD_REACTORS
330
1CFB
102
}
330
1CFB
100
AcDbProxyObject
 90
      499
 91
      510
 93
      265
310
90F312D312F3222203D2031272D3022000000000000003E0FC00000000000028402B
 94
        0
1001
ACAD
1000
AcadProxyRoundTripData
1071
      507
1071
   655383
1070
     0
  0
ACAD_PROXY_OBJECT
  5
1D1A
102
{ACAD_REACTORS
330
1CFB
102
}
330
1CFB
100
AcDbProxyObject
 90
      499
 91
      510
 93
      233
310
90B3322203D2031272D30220000000000000002100000000000000284000
 94
        0
1001
ACAD
1000
AcadProxyRoundTripData
1071
      507
1071
   655383
1070
     0
  0
ACAD_PROXY_OBJECT
  5
1D1B
102
{ACAD_REACTORS
330
1CFB
102
}
330
1CFB
100
AcDbProxyObject
 90
      499
 91
      510
 93
      233
310
90B3622203D2031272D30220000000000000006100000000000000284000
 94
        0
1001
ACAD
1000
AcadProxyRoundTripData
1071
      507
1071
   655383
1070
     0
  0
ACAD_PROXY_OBJECT
  5
1D1C
102
{ACAD_REACTORS
330
1CFB
102
}
330
1CFB
100
AcDbProxyObject
 90
      499
 91
      510
 93
      257
310
90E31272D3022203D2031272D3022000000000000000A100000000000000284040
 94
        0
1001
ACAD
1000
AcadProxyRoundTripData
1071
      507
1071
   655383
1070
     0
  0
ACAD_PROXY_OBJECT
  5
1CFA
102
{ACAD_XDICTIONARY
360
1D34
102
}
102
{ACAD_REACTORS
330
1CF9
102
}
330
1CF9
100
AcDbProxyObject
 90
      499
 91
      510
 93
     1849
310
4254DD185B99185C990028B81E85EB51B8AE3F2E07A17AD46E2B8FC02B5E8DC0F42B1CFD028000000C1008070000C3001FDFF8000000C1003FBFF000000182007F7FE00000030400FEFFC00000060801FDFF8000000C1003FBFF00000018200000000000000681FA0B0000001820100E000186003FBFF000000182007F7FE0
310
0000030400FEFFC00000060801FDFF8000000C1003FBFF000000182007F7FE000000304000AD7A3703D0AC73F4160000003040201C00030C007F7FE00000030400FEFFC00000060801FDFF8000000C1003FBFF000000182007F7FE00000030400FEFFC000000608000
340
16
340
16
340
16
 94
        0
1001
ACAD
1000
AcadProxyRoundTripData
1071
      506
1071
   655383
1070
     0
  0
ACAD_PROXY_OBJECT
  5
1CED
102
{ACAD_REACTORS
330
1CE7
102
}
330
1CE7
100
AcDbProxyObject
 90
      499
 91
      510
 93
      444
310
430C9915DA5C99599C985B59401049028333333333333E3BF0000000000000FB0107901411070040501600405405064090741402480A0340
 94
        0
1001
ACAD
1000
AcDbSavedByObjectVersion
1070
     0
1000
AcadProxyRoundTripData
1071
      505
1071
   655383
1070
     0
  0
ACAD_PROXY_OBJECT
  5
1CEF
102
{ACAD_REACTORS
330
1CE7
102
}
330
1CE7
100
AcDbProxyObject
 90
      499
 91
      510
 93
      508
310
428CD108121A5919195B8010640502408333333333333E3BF0000000000000FB01079024090700405020000000000001110200405405064090740C02480A0340
 94
        0
1001
ACAD
1000
AcDbSavedByObjectVersion
1070
     0
1000
AcadProxyRoundTripData
1071
      505
1071
   655383
1070
     0
  0
ACAD_PROXY_OBJECT
  5
1CEE
102
{ACAD_REACTORS
330
1CE7
102
}
330
1CE7
100
AcDbProxyObject
 90
      499
 91
      510
 93
      444
310
430CD915DA5C99599C985B59401059028333333333333E3BF0000000000000FB0107901411070040501600405405064090741402480A0340
 94
        0
1001
ACAD
1000
AcDbSavedByObjectVersion
1070
     0
1000
AcadProxyRoundTripData
1071
      505
1071
   655383
1070
     0
  0
ACAD_PROXY_OBJECT
  5
1CEC
102
{ACAD_REACTORS
330
1CE7
102
}
330
1CE7
100
AcDbProxyObject
 90
      499
 91
      510
 93
      396
310
4190985CDA58C0107406404333333333333E3BF0000000000000FB0107A41107004050150841D405064090741402480A0356
 94
        0
1001
ACAD
1000
AcDbSavedByObjectVersion
1070
     0
1000
AcadProxyRoundTripData
1071
      505
1071
   655383
1070
     0
  0
ACAD_PROXY_OBJECT
  5
1CF3
102
{ACAD_REACTORS
330
1CE7
102
}
330
1CE7
100
AcDbProxyObject
 90
      499
 91
      510
 93
      436
310
42509C9A59DA1D195B8010C409028333333333333E3BF0000000000000FB010790141107004050150841D405064090741402480A029956
 94
        0
1001
ACAD
1000
AcDbSavedByObjectVersion
1070
     0
1000
AcadProxyRoundTripData
1071
      505
1071
   655383
1070
     0
  0
ACAD_PROXY_OBJECT
  5
1CF7
102
{ACAD_REACTORS
330
1CE7
102
}
330
1CE7
100
AcDbProxyObject
 90
      499
 91
      510
 93
      460
310
4310DBDB1BDC90DA185B99D9401104090240C333333333333E3BF0000000000000FB0108901411070040501508421405064090741402480A0354
 94
        0
1001
ACAD
1000
AcDbSavedByObjectVersion
1070
     0
1000
AcadProxyRoundTripData
1071
      505
1071
   655383
1070
     0
  0
ACAD_PROXY_OBJECT
  5
1CF0
102
{ACAD_REACTORS
330
1CE7
102
}
330
1CE7
100
AcDbProxyObject
 90
      499
 91
      510
 93
      508
310
42D0DBDB98D95C1D1D585B0010940D028333333333333E3BF0000000000000FB0107902409070040501000000000000111010841D405064090740C02480A0340
 94
        0
1001
ACAD
1000
AcDbSavedByObjectVersion
1070
     0
1000
AcadProxyRoundTripData
1071
      505
1071
   655383
1070
     0
  0
ACAD_PROXY_OBJECT
  5
1CF2
102
{ACAD_REACTORS
330
1CE7
102
}
330
1CE7
100
AcDbProxyObject
 90
      499
 91
      510
 93
      420
310
41111A5B4010B409028333333333333E3BF0000000000000FB010790141107004050150841D405064090741402480A02677FFFFFDB
 94
        0
1001
ACAD
1000
AcDbSavedByObjectVersion
1070
     0
1000
AcadProxyRoundTripData
1071
      505
1071
   655383
1070
     0
  0
ACAD_PROXY_OBJECT
  5
1CF6
102
{ACAD_REACTORS
330
1CE7
102
}
330
1CE7
100
AcDbProxyObject
 90
      499
 91
      510
 93
      452
310
43119858D95C185D1D195C9B8010F409028333333333333E3BF0000000000000FB010790141107004050150841D405064090741402480A0350
 94
        0
1001
ACAD
1000
AcDbSavedByObjectVersion
1070
     0
1000
AcadProxyRoundTripData
1071
      505
1071
   655383
1070
     0
  0
ACAD_PROXY_OBJECT
  5
1CE8
102
{ACAD_REACTORS
330
1CE7
102
}
330
1CE7
100
AcDbProxyObject
 90
      499
 91
      510
 93
      396
310
41519B185D00240901404333333333333E3BF0000000000000F9010740A41107004050150841D405064090741402480A1B55
 94
        0
1001
ACAD
1000
AcDbSavedByObjectVersion
1070
     0
1000
AcadProxyRoundTripData
1071
      505
1071
   655383
1070
     0
  0
ACAD_PROXY_OBJECT
  5
1CE9
102
{ACAD_REACTORS
330
1CE7
102
}
330
1CE7
100
AcDbProxyObject
 90
      499
 91
      510
 93
      484
310
43919B185D15DA5D1A115919D95CC010140901404333333333333E3BF0000000000000F9010740901411070040501600405405064090741402480A1B50
 94
        0
1001
ACAD
1000
AcDbSavedByObjectVersion
1070
     0
1000
AcadProxyRoundTripData
1071
      505
1071
   655383
1070
     0
  0
ACAD_PROXY_OBJECT
  5
1CEA
102
{ACAD_REACTORS
330
1CE7
102
}
330
1CE7
100
AcDbProxyObject
 90
      499
 91
      510
 93
      420
310
4211DBDD5C985D590010240902404333333333333E3BF0000000000000F9010740A411070040501641D405064090741402480A1B50
 94
        0
1001
ACAD
1000
AcDbSavedByObjectVersion
1070
     0
1000
AcadProxyRoundTripData
1071
      505
1071
   655383
1070
     0
  0
ACAD_PROXY_OBJECT
  5
1CEB
102
{ACAD_REACTORS
330
1CE7
102
}
330
1CE7
100
AcDbProxyObject
 90
      499
 91
      510
 93
      508
310
4451DBDD5C985D5915DA5D1A115919D95CC010340902404333333333333E3BF0000000000000F9010740901411070040501600405405064090741402480A1B50
 94
        0
1001
ACAD
1000
AcDbSavedByObjectVersion
1070
     0
1000
AcadProxyRoundTripData
1071
      505
1071
   655383
1070
     0
  0
ACAD_PROXY_OBJECT
  5
1CF5
102
{ACAD_REACTORS
330
1CE7
102
}
330
1CE7
100
AcDbProxyObject
 90
      499
 91
      510
 93
      452
310
43131A5B995C185D1D195C9B8010E409028333333333333E3BF0000000000000FB010790141107004050750841D405064090741402483A0350
 94
        0
1001
ACAD
1000
AcDbSavedByObjectVersion
1070
     0
1000
AcadProxyRoundTripData
1071
      505
1071
   655383
1070
     0
  0
ACAD_PROXY_OBJECT
  5
1CF1
102
{ACAD_REACTORS
330
1CE7
102
}
330
1CE7
100
AcDbProxyObject
 90
      499
 91
      510
 93
      428
310
429499585B1A5CDD1A58C0108409028333333333333E3BF0000000000000FB01079019070040501508421405064090741402480A1B45
 94
        0
1001
ACAD
1000
AcDbSavedByObjectVersion
1070
     0
1000
AcadProxyRoundTripData
1071
      505
1071
   655383
1070
     0
  0
ACAD_PROXY_OBJECT
  5
1CF4
102
{ACAD_REACTORS
330
1CE7
102
}
330
1CE7
100
AcDbProxyObject
 90
      499
 91
      510
 93
      420
310
42151A1A58DAD95B8010D409028333333333333E3BF0000000000000FB010790141107004050150C41D405064090741402480A0352
 94
        0
1001
ACAD
1000
AcDbSavedByObjectVersion
1070
     0
1000
AcadProxyRoundTripData
1071
      505
1071
   655383
1070
     0
  0
XRECORD
  5
2B01
102
{ACAD_REACTORS
330
2AF7
102
}
330
2AF7
100
AcDbXrecord
 90
        0
  0
XRECORD
  5
2B05
102
{ACAD_REACTORS
330
2AF7
102
}
330
2AF7
100
AcDbXrecord
1000
DSTYLE
1002
{
1070
   179
 70
     2
1070
   277
 70
     6
1002
}
  0
XRECORD
  5
2B02
102
{ACAD_REACTORS
330
2AF7
102
}
330
2AF7
100
AcDbXrecord
  1
{6385560B-F4B1-4644-A7C2-A3E32AC3D232}
  0
XRECORD
  5
2AFA
102
{ACAD_REACTORS
330
2AF7
102
}
330
2AF7
100
AcDbXrecord
  1

  0
XRECORD
  5
2B00
102
{ACAD_REACTORS
330
2AF7
102
}
330
2AF7
100
AcDbXrecord
 90
        0
  0
XRECORD
  5
2AFC
102
{ACAD_REACTORS
330
2AF7
102
}
330
2AF7
100
AcDbXrecord
340
61
  0
XRECORD
  5
2AFF
102
{ACAD_REACTORS
330
2AF7
102
}
330
2AF7
100
AcDbXrecord
 90
    10781
  0
XRECORD
  5
2AFD
102
{ACAD_REACTORS
330
2AF7
102
}
330
2AF7
100
AcDbXrecord
340
77
  0
XRECORD
  5
2AFE
102
{ACAD_REACTORS
330
2AF7
102
}
330
2AF7
100
AcDbXrecord
340
6
  0
XRECORD
  5
2B04
102
{ACAD_REACTORS
330
2AF7
102
}
330
2AF7
100
AcDbXrecord
 40
0.0
  0
XRECORD
  5
2B08
102
{ACAD_REACTORS
330
2AF7
102
}
330
2AF7
100
AcDbXrecord
340
0
  0
XRECORD
  5
2B0E
102
{ACAD_REACTORS
330
2AF7
102
}
330
2AF7
100
AcDbXrecord
 10
0.0
 20
0.0
 30
0.0
  0
XRECORD
  5
2B0A
102
{ACAD_REACTORS
330
2AF7
102
}
330
2AF7
100
AcDbXrecord
 10
0.0
 20
0.0
 30
0.0
  0
XRECORD
  5
2B0D
102
{ACAD_REACTORS
330
2AF7
102
}
330
2AF7
100
AcDbXrecord
 10
0.0
 20
0.0
 30
0.0
  0
XRECORD
  5
2B0B
102
{ACAD_REACTORS
330
2AF7
102
}
330
2AF7
100
AcDbXrecord
 10
0.0
 20
0.0
 30
0.0
  0
XRECORD
  5
2B0C
102
{ACAD_REACTORS
330
2AF7
102
}
330
2AF7
100
AcDbXrecord
 10
0.0
 20
0.0
 30
0.0
  0
XRECORD
  5
2B09
102
{ACAD_REACTORS
330
2AF7
102
}
330
2AF7
100
AcDbXrecord
 10
0.0
 20
0.0
 30
0.0
  0
XRECORD
  5
2B06
102
{ACAD_REACTORS
330
2AF7
102
}
330
2AF7
100
AcDbXrecord
340
0
  0
XRECORD
  5
2B07
102
{ACAD_REACTORS
330
2AF7
102
}
330
2AF7
100
AcDbXrecord
 70
     0
  0
XRECORD
  5
2AFB
102
{ACAD_REACTORS
330
2AF7
102
}
330
2AF7
100
AcDbXrecord
  1
Sekkei.ctb
  0
XRECORD
  5
2AF8
102
{ACAD_REACTORS
330
2AF7
102
}
330
2AF7
100
AcDbXrecord
 90
        1
  0
XRECORD
  5
2AF9
102
{ACAD_REACTORS
330
2AF7
102
}
330
2AF7
100
AcDbXrecord
 90
       70
  0
XRECORD
  5
2B11
102
{ACAD_REACTORS
330
2AF7
102
}
330
2AF7
100
AcDbXrecord
340
0
  0
XRECORD
  5
2B17
102
{ACAD_REACTORS
330
2AF7
102
}
330
2AF7
100
AcDbXrecord
 10
0.0
 20
0.0
 30
0.0
  0
XRECORD
  5
2B13
102
{ACAD_REACTORS
330
2AF7
102
}
330
2AF7
100
AcDbXrecord
 10
0.0
 20
0.0
 30
0.0
  0
XRECORD
  5
2B16
102
{ACAD_REACTORS
330
2AF7
102
}
330
2AF7
100
AcDbXrecord
 10
0.0
 20
0.0
 30
0.0
  0
XRECORD
  5
2B14
102
{ACAD_REACTORS
330
2AF7
102
}
330
2AF7
100
AcDbXrecord
 10
0.0
 20
0.0
 30
0.0
  0
XRECORD
  5
2B15
102
{ACAD_REACTORS
330
2AF7
102
}
330
2AF7
100
AcDbXrecord
 10
0.0
 20
0.0
 30
0.0
  0
XRECORD
  5
2B12
102
{ACAD_REACTORS
330
2AF7
102
}
330
2AF7
100
AcDbXrecord
 10
0.0
 20
0.0
 30
0.0
  0
XRECORD
  5
2B0F
102
{ACAD_REACTORS
330
2AF7
102
}
330
2AF7
100
AcDbXrecord
340
0
  0
XRECORD
  5
2B10
102
{ACAD_REACTORS
330
2AF7
102
}
330
2AF7
100
AcDbXrecord
 70
     0
  0
XRECORD
  5
2B03
102
{ACAD_REACTORS
330
2AF7
102
}
330
2AF7
100
AcDbXrecord
  1
{1D16EA44-E392-457B-9699-2FD96951C065}
  0
DICTIONARYVAR
  5
1D57
102
{ACAD_REACTORS
330
102
102
}
330
102
100
DictionaryVariables
280
     0
  1
1:1
  0
DICTIONARYVAR
  5
1D56
102
{ACAD_REACTORS
330
102
102
}
330
102
100
DictionaryVariables
280
     0
  1
STANDARD
  0
DICTIONARYVAR
  5
1D55
102
{ACAD_REACTORS
330
102
102
}
330
102
100
DictionaryVariables
280
     0
  1
STANDARD
  0
DICTIONARYVAR
  5
103
102
{ACAD_REACTORS
330
102
102
}
330
102
100
DictionaryVariables
280
     0
  1
1
  0
DICTIONARYVAR
  5
1D58
102
{ACAD_REACTORS
330
102
102
}
330
102
100
DictionaryVariables
280
     0
  1
0
  0
DICTIONARYVAR
  5
549
102
{ACAD_REACTORS
330
102
102
}
330
102
100
DictionaryVariables
280
     0
  1
96
  0
DICTIONARY
  5
1CD8
330
1CD7
100
AcDbDictionary
280
     1
  3
ACAD_XREC_ROUNDTRIP
360
2AD8
  3
BUMPTILE
360
1CDA
  3
DIFFUSETILE
360
1CD9
  3
OPACITYTILE
360
1CDD
  3
REFLECTIONTILE
360
1CDC
  3
REFRACTIONTILE
360
1CDE
  3
SPECULARTILE
360
1CDB
  0
DICTIONARY
  5
1CD0
330
1CCF
100
AcDbDictionary
280
     1
  3
ACAD_XREC_ROUNDTRIP
360
2AD7
  3
BUMPTILE
360
1CD2
  3
DIFFUSETILE
360
1CD1
  3
OPACITYTILE
360
1CD5
  3
REFLECTIONTILE
360
1CD4
  3
REFRACTIONTILE
360
1CD6
  3
SPECULARTILE
360
1CD3
  0
DICTIONARY
  5
1CE0
330
1CDF
100
AcDbDictionary
280
     1
  3
ACAD_XREC_ROUNDTRIP
360
2AD9
  3
BUMPTILE
360
1CE2
  3
DIFFUSETILE
360
1CE1
  3
OPACITYTILE
360
1CE5
  3
REFLECTIONTILE
360
1CE4
  3
REFRACTIONTILE
360
1CE6
  3
SPECULARTILE
360
1CE3
  0
DICTIONARY
  5
1D34
330
1CFA
100
AcDbDictionary
280
     1
  3
ACAD_ROUNDTRIP_2008_TABLES
360
2AC3
  3
ACAD_XREC_ROUNDTRIP
360
2ADA
  0
XRECORD
  5
2AD8
102
{ACAD_REACTORS
330
1CD8
102
}
330
1CD8
100
AcDbXrecord
102
MATERIAL
148
0.0
149
0.0
149
0.0
 93
        0
 94
      127
282
     0
 72
     0
 77
     0
171
     0
175
     0
179
     0
273
     0
  0
XRECORD
  5
1CDA
102
{ACAD_REACTORS
330
1CD8
102
}
330
1CD8
100
AcDbXrecord
270
     1
271
     1
  0
XRECORD
  5
1CD9
102
{ACAD_REACTORS
330
1CD8
102
}
330
1CD8
100
AcDbXrecord
270
     1
271
     1
  0
XRECORD
  5
1CDD
102
{ACAD_REACTORS
330
1CD8
102
}
330
1CD8
100
AcDbXrecord
270
     1
271
     1
  0
XRECORD
  5
1CDC
102
{ACAD_REACTORS
330
1CD8
102
}
330
1CD8
100
AcDbXrecord
270
     1
271
     1
  0
XRECORD
  5
1CDE
102
{ACAD_REACTORS
330
1CD8
102
}
330
1CD8
100
AcDbXrecord
270
     1
271
     1
  0
XRECORD
  5
1CDB
102
{ACAD_REACTORS
330
1CD8
102
}
330
1CD8
100
AcDbXrecord
270
     1
271
     1
  0
XRECORD
  5
2AD7
102
{ACAD_REACTORS
330
1CD0
102
}
330
1CD0
100
AcDbXrecord
102
MATERIAL
148
0.0
149
0.0
149
0.0
 93
        0
 94
      127
282
     0
 72
     0
 77
     0
171
     0
175
     0
179
     0
273
     0
  0
XRECORD
  5
1CD2
102
{ACAD_REACTORS
330
1CD0
102
}
330
1CD0
100
AcDbXrecord
270
     1
271
     1
  0
XRECORD
  5
1CD1
102
{ACAD_REACTORS
330
1CD0
102
}
330
1CD0
100
AcDbXrecord
270
     1
271
     1
  0
XRECORD
  5
1CD5
102
{ACAD_REACTORS
330
1CD0
102
}
330
1CD0
100
AcDbXrecord
270
     1
271
     1
  0
XRECORD
  5
1CD4
102
{ACAD_REACTORS
330
1CD0
102
}
330
1CD0
100
AcDbXrecord
270
     1
271
     1
  0
XRECORD
  5
1CD6
102
{ACAD_REACTORS
330
1CD0
102
}
330
1CD0
100
AcDbXrecord
270
     1
271
     1
  0
XRECORD
  5
1CD3
102
{ACAD_REACTORS
330
1CD0
102
}
330
1CD0
100
AcDbXrecord
270
     1
271
     1
  0
XRECORD
  5
2AD9
102
{ACAD_REACTORS
330
1CE0
102
}
330
1CE0
100
AcDbXrecord
102
MATERIAL
148
0.0
149
0.0
149
0.0
 93
        0
 94
      127
282
     0
 72
     0
 77
     0
171
     0
175
     0
179
     0
273
     0
  0
XRECORD
  5
1CE2
102
{ACAD_REACTORS
330
1CE0
102
}
330
1CE0
100
AcDbXrecord
270
     1
271
     1
  0
XRECORD
  5
1CE1
102
{ACAD_REACTORS
330
1CE0
102
}
330
1CE0
100
AcDbXrecord
270
     1
271
     1
  0
XRECORD
  5
1CE5
102
{ACAD_REACTORS
330
1CE0
102
}
330
1CE0
100
AcDbXrecord
270
     1
271
     1
  0
XRECORD
  5
1CE4
102
{ACAD_REACTORS
330
1CE0
102
}
330
1CE0
100
AcDbXrecord
270
     1
271
     1
  0
XRECORD
  5
1CE6
102
{ACAD_REACTORS
330
1CE0
102
}
330
1CE0
100
AcDbXrecord
270
     1
271
     1
  0
XRECORD
  5
1CE3
102
{ACAD_REACTORS
330
1CE0
102
}
330
1CE0
100
AcDbXrecord
270
     1
271
     1
  0
ACAD_PROXY_OBJECT
  5
2AC3
102
{ACAD_REACTORS
330
1D34
102
}
330
1D34
100
AcDbProxyObject
 90
      499
 91
      510
 93
     5304
310
40D054060020000020000003200101A000080002A5058000000C100000000000000340FD012E07A17AD46E2B8FCB81E85EB51B8AE3F2E07A17AD46E2B8FCB81E85EB51B8AE3F02B5E8DC0F42B1CFC0AD7A3703D0AC73F419019018000000C1003FBFFFFFE02B5E8DC0F42A9CFD029018000000C1003FBFFFFFE02B5E8DC0F4
310
2A9CFD049018000000C1003FBFFFFFE02B5E8DC0F42A9CFD089018000000C1003FBFFFFFE02B5E8DC0F42A9CFD109018000000C1003FBFFFFFE02B5E8DC0F42A9CFD209018000000C1003FBFFFFFE02B5E8DC0F42A9CFD01405075F5449544C450041501A8000000C800406800020000A9416000000304000AD7A3703D0AC7
310
3F404B81E85EB51B8AE3F2E07A17AD46E2B8FCB81E85EB51B8AE3F2E07A17AD46E2B8FC0AD7A3703D0AC73F02B5E8DC0F42B1CFD0640640600000030400FEFFFFFF80AD7A3703D0AA73F40A40600000030400FEFFFFFF80AD7A3703D0AA73F41240600000030400FEFFFFFF80AD7A3703D0AA73F42240600000030400FEFFF
310
FFF80AD7A3703D0AA73F44240600000030400FEFFFFFF80AD7A3703D0AA73F48240600000030400FEFFFFFF80AD7A3703D0AA73F409014217D2115051115480105406A0000003200101A000080002A5028000000C10002B5E8DC0F42B1CFD012E07A17AD46E2B8FCB81E85EB51B8AE3F2E07A17AD46E2B8FCB81E85EB51B8A
310
E3F02B5E8DC0F42B1CFC0AD7A3703D0AC73F419019018000000C1003FBFFFFFE02B5E8DC0F42A9CFD029018000000C1003FBFFFFFE02B5E8DC0F42A9CFD049018000000C1003FBFFFFFE02B5E8DC0F42A9CFD089018000000C1003FBFFFFFE02B5E8DC0F42A9CFD109018000000C1003FBFFFFFE02B5E8DC0F42A9CFD20901
310
8000000C1003FBFFFFFE02B5E8DC0F42A9CFD03409065F444154410000
340
16
340
0
340
0
340
0
340
0
340
0
340
0
340
16
340
0
340
0
340
0
340
0
340
0
340
0
340
16
340
0
340
0
340
0
340
0
340
0
340
0
 94
        0
1001
ACAD
1000
AcadProxyRoundTripData
1071
      509
1071
   655383
1070
     0
  0
XRECORD
  5
2ADA
102
{ACAD_REACTORS
330
1D34
102
}
330
1D34
100
AcDbXrecord
102
ACAD_ROUNDTRIP_PRE2007_TABLESTYLE
 90
      512
 91
        0
  1

 92
      512
 93
        0
  2

 94
      512
 95
        0
  3

  0
ENDSEC
  0
EOF
