  0
SECTION
  2
HEADER
  9
$ACADVER
  1
AC1014
  9
$ACADMAINTVER
 70
     9
  9
$DWGCODEPAGE
  3
ANSI_932
  9
$INSBASE
 10
0.0
 20
0.0
 30
0.0
  9
$EXTMIN
 10
66.74391375224809
 20
85.00563287914401
 30
0.0
  9
$EXTMAX
 10
743.026799811676
 20
520.8495876798126
 30
0.0
  9
$LIMMIN
 10
0.0
 20
0.0
  9
$LIMMAX
 10
297.0
 20
210.0
  9
$ORTHOMODE
 70
     1
  9
$REGENMODE
 70
     1
  9
$FILLMODE
 70
     1
  9
$QTEXTMODE
 70
     0
  9
$MIRRTEXT
 70
     0
  9
$DRAGMODE
 70
     2
  9
$LTSCALE
 40
2.0
  9
$OSMODE
 70
    37
  9
$ATTMODE
 70
     1
  9
$TEXTSIZE
 40
2.0
  9
$TRACEWID
 40
1.0
  9
$TEXTSTYLE
  7
STANDARD
  9
$CLAYER
  8
0
  9
$CELTYPE
  6
BYLAYER
  9
$CECOLOR
 62
   256
  9
$CELTSCALE
 40
1.0
  9
$DELOBJ
 70
     1
  9
$DISPSILH
 70
     0
  9
$DIMSCALE
 40
2.0
  9
$DIMASZ
 40
1.8
  9
$DIMEXO
 40
0.625
  9
$DIMDLI
 40
3.75
  9
$DIMRND
 40
0.0
  9
$DIMDLE
 40
0.0
  9
$DIMEXE
 40
0.8
  9
$DIMTP
 40
0.0
  9
$DIMTM
 40
0.0
  9
$DIMTXT
 40
1.8
  9
$DIMCEN
 40
2.5
  9
$DIMTSZ
 40
0.0
  9
$DIMTOL
 70
     0
  9
$DIMLIM
 70
     0
  9
$DIMTIH
 70
     0
  9
$DIMTOH
 70
     0
  9
$DIMSE1
 70
     0
  9
$DIMSE2
 70
     0
  9
$DIMTAD
 70
     1
  9
$DIMZIN
 70
     8
  9
$DIMBLK
  1

  9
$DIMASO
 70
     1
  9
$DIMSHO
 70
     1
  9
$DIMPOST
  1

  9
$DIMAPOST
  1

  9
$DIMALT
 70
     0
  9
$DIMALTD
 70
     4
  9
$DIMALTF
 40
0.0394
  9
$DIMLFAC
 40
1.0
  9
$DIMTOFL
 70
     1
  9
$DIMTVP
 40
0.0
  9
$DIMTIX
 70
     0
  9
$DIMSOXD
 70
     0
  9
$DIMSAH
 70
     0
  9
$DIMBLK1
  1

  9
$DIMBLK2
  1

  9
$DIMSTYLE
  2
STANDARD
  9
$DIMCLRD
 70
     0
  9
$DIMCLRE
 70
     0
  9
$DIMCLRT
 70
     0
  9
$DIMTFAC
 40
1.0
  9
$DIMGAP
 40
0.75
  9
$DIMJUST
 70
     0
  9
$DIMSD1
 70
     0
  9
$DIMSD2
 70
     0
  9
$DIMTOLJ
 70
     1
  9
$DIMTZIN
 70
     0
  9
$DIMALTZ
 70
     0
  9
$DIMALTTZ
 70
     0
  9
$DIMFIT
 70
     3
  9
$DIMUPT
 70
     0
  9
$DIMUNIT
 70
     8
  9
$DIMDEC
 70
     2
  9
$DIMTDEC
 70
     2
  9
$DIMALTU
 70
     8
  9
$DIMALTTD
 70
     4
  9
$DIMTXSTY
  7
STANDARD
  9
$DIMAUNIT
 70
     0
  9
$LUNITS
 70
     2
  9
$LUPREC
 70
     3
  9
$SKETCHINC
 40
1.0
  9
$FILLETRAD
 40
10.0
  9
$AUNITS
 70
     0
  9
$AUPREC
 70
     2
  9
$MENU
  1
.
  9
$ELEVATION
 40
0.0
  9
$PELEVATION
 40
0.0
  9
$THICKNESS
 40
0.0
  9
$LIMCHECK
 70
     0
  9
$BLIPMODE
 70
     0
  9
$CHAMFERA
 40
0.0
  9
$CHAMFERB
 40
0.0
  9
$CHAMFERC
 40
20.0
  9
$CHAMFERD
 40
0.0
  9
$SKPOLY
 70
     0
  9
$TDCREATE
 40
2454410.382890984
  9
$TDUPDATE
 40
2454425.682975254
  9
$TDINDWG
 40
0.0181179398
  9
$TDUSRTIMER
 40
0.0181173958
  9
$USRTIMER
 70
     1
  9
$ANGBASE
 50
0.0
  9
$ANGDIR
 70
     0
  9
$PDMODE
 70
     0
  9
$PDSIZE
 40
-10.0
  9
$PLINEWID
 40
0.0
  9
$COORDS
 70
     0
  9
$SPLFRAME
 70
     0
  9
$SPLINETYPE
 70
     6
  9
$SPLINESEGS
 70
     8
  9
$ATTDIA
 70
     0
  9
$ATTREQ
 70
     1
  9
$HANDLING
 70
-16383
  9
$HANDSEED
  5
1E7E
  9
$SURFTAB1
 70
     6
  9
$SURFTAB2
 70
     6
  9
$SURFTYPE
 70
     6
  9
$SURFU
 70
     6
  9
$SURFV
 70
     6
  9
$UCSNAME
  2

  9
$UCSORG
 10
0.0
 20
0.0
 30
0.0
  9
$UCSXDIR
 10
1.0
 20
0.0
 30
0.0
  9
$UCSYDIR
 10
0.0
 20
1.0
 30
0.0
  9
$PUCSNAME
  2

  9
$PUCSORG
 10
0.0
 20
0.0
 30
0.0
  9
$PUCSXDIR
 10
1.0
 20
0.0
 30
0.0
  9
$PUCSYDIR
 10
0.0
 20
1.0
 30
0.0
  9
$USERI1
 70
     0
  9
$USERI2
 70
     0
  9
$USERI3
 70
     0
  9
$USERI4
 70
     0
  9
$USERI5
 70
     0
  9
$USERR1
 40
0.0
  9
$USERR2
 40
0.0
  9
$USERR3
 40
0.0
  9
$USERR4
 40
0.0
  9
$USERR5
 40
0.0
  9
$WORLDVIEW
 70
     1
  9
$SHADEDGE
 70
     3
  9
$SHADEDIF
 70
    70
  9
$TILEMODE
 70
     1
  9
$MAXACTVP
 70
    48
  9
$PINSBASE
 10
0.0
 20
0.0
 30
0.0
  9
$PLIMCHECK
 70
     0
  9
$PEXTMIN
 10
0.0
 20
0.0
 30
0.0
  9
$PEXTMAX
 10
0.0
 20
0.0
 30
0.0
  9
$PLIMMIN
 10
0.0
 20
0.0
  9
$PLIMMAX
 10
12.0
 20
9.0
  9
$UNITMODE
 70
     0
  9
$VISRETAIN
 70
     1
  9
$PLINEGEN
 70
     0
  9
$PSLTSCALE
 70
     1
  9
$TREEDEPTH
 70
  3020
  9
$PICKSTYLE
 70
     1
  9
$CMLSTYLE
  2
STANDARD
  9
$CMLJUST
 70
     0
  9
$CMLSCALE
 40
1.0
  9
$PROXYGRAPHICS
 70
     1
  9
$MEASUREMENT
 70
     0
  0
ENDSEC
  0
SECTION
  2
CLASSES
  0
CLASS
  1
DICTIONARYVAR
  2
AcDbDictionaryVar
  3
AutoCAD 2000
 90
        0
280
     0
281
     0
  0
CLASS
  1
ACDBDICTIONARYWDFLT
  2
AcDbDictionaryWithDefault
  3
AutoCAD 2000
 90
        0
280
     0
281
     0
  0
CLASS
  1
ACDBPLACEHOLDER
  2
AcDbPlaceHolder
  3
AutoCAD 2000
 90
        0
280
     0
281
     0
  0
CLASS
  1
LAYOUT
  2
AcDbLayout
  3
AutoCAD 2000
 90
        0
280
     0
281
     0
  0
CLASS
  1
MATERIAL
  2
AcDbMaterial
  3
ObjectDBX Classes
 90
     1153
280
     0
281
     0
  0
CLASS
  1
VISUALSTYLE
  2
AcDbVisualStyle
  3
ObjectDBX Classes
 90
     4095
280
     0
281
     0
  0
CLASS
  1
TABLESTYLE
  2
AcDbTableStyle
  3
ObjectDBX Classes
 90
     4095
280
     0
281
     0
  0
CLASS
  1
SCALE
  2
AcDbScale
  3
ObjectDBX Classes
 90
     1153
280
     0
281
     0
  0
CLASS
  1
MLEADERSTYLE
  2
AcDbMLeaderStyle
  3
ACDB_MLEADERSTYLE_CLASS
 90
     4095
280
     0
281
     0
  0
CLASS
  1
CELLSTYLEMAP
  2
AcDbCellStyleMap
  3
ObjectDBX Classes
 90
     1152
280
     0
281
     0
  0
CLASS
  1
ACAD_PROXY_OBJECT_WRAPPER
  2
AcDbProxyObjectWrapper
  3
AutoCAD 2000
 90
        0
280
     0
281
     0
  0
CLASS
  1
LONG_TRANSACTION
  2
AcDbLongTransaction
  3
AutoCAD 2000
 90
        0
280
     0
281
     0
  0
CLASS
  1
LWPOLYLINE
  2
AcDbPolyline
  3
AutoCAD 2000
 90
        0
280
     0
281
     1
  0
CLASS
  1
HATCH
  2
AcDbHatch
  3
AutoCAD 2000
 90
        0
280
     0
281
     1
  0
CLASS
  1
XRECORD
  2
AcDbXrecord
  3
AutoCAD 2000
 90
        0
280
     0
281
     0
  0
ENDSEC
  0
SECTION
  2
TABLES
  0
TABLE
  2
VPORT
  5
6E
102
{ACAD_XDICTIONARY
360
1D3D
102
}
330
0
100
AcDbSymbolTable
 70
     2
  0
VPORT
  5
1E58
330
6E
100
AcDbSymbolTableRecord
100
AcDbViewportTableRecord
  2
*ACTIVE
 70
     0
 10
0.0
 20
0.0
 11
1.0
 21
1.0
 12
417.7490455078964
 22
292.6257048013583
 13
0.0
 23
0.0
 14
10.0
 24
10.0
 15
10.0
 25
10.0
 16
0.0
 26
0.0
 36
1.0
 17
0.0
 27
0.0
 37
0.0
 40
459.6057954920016
 41
1.753504672897196
 42
50.0
 43
0.0
 44
0.0
 50
0.0
 51
0.0
 71
     0
 72
   100
 73
     1
 74
     3
 75
     0
 76
     0
 77
     0
 78
     0
  0
ENDTAB
  0
TABLE
  2
LTYPE
  5
69
330
0
100
AcDbSymbolTable
 70
     8
  0
LTYPE
  5
6A
330
69
100
AcDbSymbolTableRecord
100
AcDbLinetypeTableRecord
  2
BYBLOCK
 70
     0
  3

 72
    65
 73
     0
 40
0.0
  0
LTYPE
  5
6B
330
69
100
AcDbSymbolTableRecord
100
AcDbLinetypeTableRecord
  2
BYLAYER
 70
     0
  3

 72
    65
 73
     0
 40
0.0
  0
LTYPE
  5
8
330
69
100
AcDbSymbolTableRecord
100
AcDbLinetypeTableRecord
  2
CONTINUOUS
 70
     0
  3
Solid line
 72
    65
 73
     0
 40
0.0
  0
LTYPE
  5
27C
330
69
100
AcDbSymbolTableRecord
100
AcDbLinetypeTableRecord
  2
SEKKEI_A2_
 70
     0
  3
center(A2)  ____ _ ____ _ ____ _ ____ _ ____ _ 
 72
    65
 73
     4
 40
14.28749999999999
 49
9.525
 74
     0
 49
-1.587499999999999
 74
     0
 49
1.587499999999999
 74
     0
 49
-1.587499999999999
 74
     0
  0
LTYPE
  5
48F
330
69
100
AcDbSymbolTableRecord
100
AcDbLinetypeTableRecord
  2
SEKKEI_H
 70
     0
  3
Hidden-S _ _ _ _ _ _ _ _ _ _ _ _ _ _ _ _ _
 72
    65
 73
     2
 40
2.381249999999999
 49
1.587499999999999
 74
     0
 49
-0.79375
 74
     0
  0
LTYPE
  5
494
330
69
100
AcDbSymbolTableRecord
100
AcDbLinetypeTableRecord
  2
SEKKEI_P_S
 70
     0
  3
Phantom_S   __ _ _ __ _ _ __ _ _ ___
 72
    65
 73
     6
 40
7.5
 49
3.75
 74
     0
 49
-0.75
 74
     0
 49
0.75
 74
     0
 49
-0.75
 74
     0
 49
0.75
 74
     0
 49
-0.75
 74
     0
  0
LTYPE
  5
7EF
330
69
100
AcDbSymbolTableRecord
100
AcDbLinetypeTableRecord
  2
PHANTOM3
 70
     0
  3
Phantom  ___ _ _ ___ _ _ ___ _ _ ___ _ _
 72
    65
 73
     6
 40
9.0
 49
4.0
 74
     0
 49
-1.0
 74
     0
 49
1.0
 74
     0
 49
-1.0
 74
     0
 49
1.0
 74
     0
 49
-1.0
 74
     0
  0
LTYPE
  5
7F0
330
69
100
AcDbSymbolTableRecord
100
AcDbLinetypeTableRecord
  2
HIDDEN3
 70
     0
  3
Hidden (.3x) _ _ _ _ _ _ _ _ _ _ _ _ _ _ _ _ _
 72
    65
 73
     2
 40
2.857499999999999
 49
1.905
 74
     0
 49
-0.9525
 74
     0
  0
LTYPE
  5
AFD
330
69
100
AcDbSymbolTableRecord
100
AcDbLinetypeTableRecord
  2
CENS
 70
     0
  3
(一点鎖線１)---- - ---- - ---- - ---- - ---- - 
 72
    65
 73
     4
 40
7.0
 49
4.0
 74
     0
 49
-1.0
 74
     0
 49
1.0
 74
     0
 49
-1.0
 74
     0
  0
ENDTAB
  0
TABLE
  2
LAYER
  5
66
102
{ACAD_XDICTIONARY
360
AFE
102
}
330
0
100
AcDbSymbolTable
 70
    10
  0
LAYER
  5
5E
102
{ACAD_XDICTIONARY
360
1D20
102
}
330
66
100
AcDbSymbolTableRecord
100
AcDbLayerTableRecord
  2
0
 70
     0
 62
     7
  6
CONTINUOUS
  0
LAYER
  5
3E
102
{ACAD_XDICTIONARY
360
1D22
102
}
330
66
100
AcDbSymbolTableRecord
100
AcDbLayerTableRecord
  2
CENTER
 70
     0
 62
     3
  6
SEKKEI_A2_
  0
LAYER
  5
2B5
102
{ACAD_XDICTIONARY
360
1D28
102
}
330
66
100
AcDbSymbolTableRecord
100
AcDbLayerTableRecord
  2
HIDS
 70
     0
 62
     1
  6
HIDDEN3
  0
LAYER
  5
2BA
102
{ACAD_XDICTIONARY
360
1D2A
102
}
330
66
100
AcDbSymbolTableRecord
100
AcDbLayerTableRecord
  2
HOJO
 70
     0
 62
     4
  6
CONTINUOUS
  0
LAYER
  5
3FA
102
{ACAD_XDICTIONARY
360
1D2E
102
}
330
66
100
AcDbSymbolTableRecord
100
AcDbLayerTableRecord
  2
TITLE
 70
     0
 62
     4
  6
CONTINUOUS
  0
LAYER
  5
478
102
{ACAD_XDICTIONARY
360
1D30
102
}
330
66
100
AcDbSymbolTableRecord
100
AcDbLayerTableRecord
  2
PHAS
 70
     0
 62
     2
  6
PHANTOM3
  0
ENDTAB
  0
TABLE
  2
STYLE
  5
67
330
0
100
AcDbSymbolTable
 70
     2
  0
STYLE
  5
16
330
67
100
AcDbSymbolTableRecord
100
AcDbTextStyleTableRecord
  2
STANDARD
 70
     0
 40
0.0
 41
1.0
 50
0.0
 71
     0
 42
2.0
  3
simplex.shx
  4
extfont.shx
  0
ENDTAB
  0
TABLE
  2
VIEW
  5
6C
330
0
100
AcDbSymbolTable
 70
     0
  0
ENDTAB
  0
TABLE
  2
UCS
  5
6D
330
0
100
AcDbSymbolTable
 70
     0
  0
ENDTAB
  0
TABLE
  2
APPID
  5
70
330
0
100
AcDbSymbolTable
 70
     4
  0
APPID
  5
71
330
70
100
AcDbSymbolTableRecord
100
AcDbRegAppTableRecord
  2
ACAD
 70
     0
  0
APPID
  5
1904
330
70
100
AcDbSymbolTableRecord
100
AcDbRegAppTableRecord
  2
ACAD_MLEADERVER
 70
     0
  0
APPID
  5
1D1E
330
70
100
AcDbSymbolTableRecord
100
AcDbRegAppTableRecord
  2
ACAD_DSTYLE_DIMRADIAL_EXTENSION
 70
     0
  0
APPID
  5
1DC9
330
70
100
AcDbSymbolTableRecord
100
AcDbRegAppTableRecord
  2
ACAD_EXEMPT_FROM_CAD_STANDARDS
 70
     0
  0
ENDTAB
  0
TABLE
  2
DIMSTYLE
  5
72
330
0
100
AcDbSymbolTable
 70
     1
  0
DIMSTYLE
105
73
330
72
100
AcDbSymbolTableRecord
100
AcDbDimStyleTableRecord
  2
STANDARD
 70
     0
  3

  4

  5

  6

  7

 40
2.0
 41
1.8
 42
0.625
 43
3.75
 44
0.8
 45
0.0
 46
0.0
 47
0.0
 48
0.0
140
1.8
141
2.5
142
0.0
143
0.0394
144
1.0
145
0.0
146
1.0
147
0.75
 71
     0
 72
     0
 73
     0
 74
     0
 75
     0
 76
     0
 77
     1
 78
     8
170
     0
171
     4
172
     1
173
     0
174
     0
175
     0
176
     0
177
     0
178
     0
270
     8
271
     2
272
     2
273
     8
274
     4
340
16
275
     0
280
     0
281
     0
282
     0
283
     1
284
     0
285
     0
286
     0
287
     3
288
     0
  0
ENDTAB
  0
TABLE
  2
BLOCK_RECORD
  5
1
330
0
100
AcDbSymbolTable
 70
    56
  0
BLOCK_RECORD
  5
2
102
{ACAD_XDICTIONARY
360
1E7A
102
}
330
1
100
AcDbSymbolTableRecord
100
AcDbBlockTableRecord
  2
*MODEL_SPACE
  0
BLOCK_RECORD
  5
1E53
102
{ACAD_XDICTIONARY
360
1E7C
102
}
330
1
100
AcDbSymbolTableRecord
100
AcDbBlockTableRecord
  2
*PAPER_SPACE
  0
ENDTAB
  0
ENDSEC
  0
SECTION
  2
BLOCKS
  0
BLOCK
  5
5D
330
2
100
AcDbEntity
  8
0
100
AcDbBlockBegin
  2
*MODEL_SPACE
 70
     0
 10
0.0
 20
0.0
 30
0.0
  3
*MODEL_SPACE
  1

  0
ENDBLK
  5
5F
330
2
100
AcDbEntity
  8
0
100
AcDbBlockEnd
  0
BLOCK
  5
1E55
330
1E53
100
AcDbEntity
 67
     1
  8
0
100
AcDbBlockBegin
  2
*PAPER_SPACE
 70
     0
 10
0.0
 20
0.0
 30
0.0
  3
*PAPER_SPACE
  1

  0
ENDBLK
  5
1E56
330
1E53
100
AcDbEntity
 67
     1
  8
0
100
AcDbBlockEnd
  0
ENDSEC
  0
SECTION
  2
ENTITIES
  0
LINE
  5
F4E
330
2
100
AcDbEntity
  8
CENTER
100
AcDbLine
 10
409.8669039910975
 20
283.7721173917516
 30
0.0
 11
569.8669039911003
 21
283.772117391751
 31
0.0
  0
LINE
  5
F4F
330
2
100
AcDbEntity
  8
CENTER
100
AcDbLine
 10
454.8669039910976
 20
328.7721173917517
 30
0.0
 11
454.8669039910976
 21
238.7721173917516
 31
0.0
  0
LINE
  5
F50
330
2
100
AcDbEntity
  8
CENTER
100
AcDbLine
 10
417.0327144775867
 20
475.8495876798095
 30
0.0
 11
569.8669039911005
 21
475.8495876798094
 31
0.0
  0
LINE
  5
F51
330
2
100
AcDbEntity
  8
CENTER
100
AcDbLine
 10
454.8669039910971
 20
520.8495876798126
 30
0.0
 11
454.8669039910971
 21
415.8495876798129
 31
0.0
  0
LINE
  5
F52
330
2
100
AcDbEntity
  8
0
100
AcDbLine
 10
485.5310935030732
 20
494.8495876798104
 30
0.0
 11
485.6969039910973
 21
475.8495876798181
 31
0.0
  0
ARC
  5
F53
330
2
100
AcDbEntity
  8
0
100
AcDbCircle
 10
488.6533838873011
 20
480.8495876798093
 30
0.0
 40
3.0
100
AcDbArc
 50
180.4999999999981
 51
270.0
  0
LINE
  5
F54
330
2
100
AcDbEntity
  8
0
100
AcDbLine
 10
423.8669039895624
 20
494.8495876798104
 30
0.0
 11
424.3207011146625
 21
442.8495876820361
 31
0.0
  0
LINE
  5
F55
330
2
100
AcDbEntity
  8
0
100
AcDbLine
 10
424.3207011146625
 20
442.8495876820361
 30
0.0
 11
485.2389173542499
 21
442.849587682036
 31
0.0
  0
LINE
  5
F56
330
2
100
AcDbEntity
  8
0
100
AcDbLine
 10
475.8669039895623
 20
442.849587682036
 30
0.0
 11
433.8669039895624
 21
442.849587682036
 31
0.0
  0
LINE
  5
F57
330
2
100
AcDbEntity
  8
0
100
AcDbLine
 10
479.8669039895623
 20
439.8495876820359
 30
0.0
 11
429.8669039895623
 21
439.8495876820359
 31
0.0
  0
LINE
  5
F58
330
2
100
AcDbEntity
  8
0
100
AcDbLine
 10
429.8669039895623
 20
442.849587682036
 30
0.0
 11
429.8669039895623
 21
439.8495876820359
 31
0.0
  0
LINE
  5
F59
330
2
100
AcDbEntity
  8
0
100
AcDbLine
 10
479.8669039895623
 20
442.8495876820361
 30
0.0
 11
479.8669039895623
 21
439.8495876820359
 31
0.0
  0
LINE
  5
F5A
330
2
100
AcDbEntity
  8
0
100
AcDbLine
 10
423.8669039895624
 20
494.8495876798104
 30
0.0
 11
485.5310935030732
 21
494.84958767981
 31
0.0
  0
LINE
  5
F5B
330
2
100
AcDbEntity
  8
0
100
AcDbLine
 10
485.5310935030732
 20
494.8495876798104
 30
0.0
 11
486.031093503072
 21
494.3495876798113
 31
0.0
  0
LINE
  5
F5C
330
2
100
AcDbEntity
  8
0
100
AcDbLine
 10
497.2742248880751
 20
494.3495876794425
 30
0.0
 11
486.0312674234337
 21
494.3495876794425
 31
0.0
  0
LINE
  5
F5D
330
2
100
AcDbEntity
  8
0
100
AcDbLine
 10
500.3159030829904
 20
498.9019415782766
 30
0.0
 11
499.7122559518195
 21
475.8495876798092
 31
0.0
  0
ARC
  5
F5E
330
2
100
AcDbEntity
  8
0
100
AcDbCircle
 10
502.3152177329413
 20
498.849587681661
 30
0.0
 40
2.0
100
AcDbArc
 50
90.0
 51
178.5000000000005
  0
LINE
  5
F5F
330
2
100
AcDbEntity
  8
0
100
AcDbLine
 10
519.8669039910985
 20
506.8495876820359
 30
0.0
 11
519.8669039911021
 21
444.8495876820368
 31
0.0
  0
LINE
  5
F60
330
2
100
AcDbEntity
  8
0
100
AcDbLine
 10
485.4089173542504
 20
442.849587682036
 30
0.0
 11
485.696903991097
 21
475.8495876798092
 31
0.0
  0
ARC
  5
F61
330
2
100
AcDbEntity
  8
0
100
AcDbCircle
 10
488.6533838873346
 20
470.8495876798091
 30
0.0
 40
3.0
100
AcDbArc
 50
90.0
 51
179.500000000396
  0
ARC
  5
F62
330
2
100
AcDbEntity
  8
0
100
AcDbCircle
 10
488.4963002672261
 20
452.849587679809
 30
0.0
 40
3.0
100
AcDbArc
 50
90.0
 51
179.500000000396
  0
ARC
  5
F63
330
2
100
AcDbEntity
  8
0
100
AcDbCircle
 10
488.4613927961136
 20
448.8495876824107
 30
0.0
 40
3.0
100
AcDbArc
 50
90.0
 51
179.500000000396
  0
CIRCLE
  5
F64
330
2
100
AcDbEntity
  8
0
100
AcDbCircle
 10
454.8669039910976
 20
283.7721173917516
 30
0.0
 40
17.5
  0
CIRCLE
  5
F65
330
2
100
AcDbEntity
  8
CENTER
100
AcDbCircle
 10
454.8669039910976
 20
283.7721173917516
 30
0.0
 40
38.0
  0
CIRCLE
  5
F66
330
2
100
AcDbEntity
  8
0
100
AcDbCircle
 10
454.8669039910976
 20
283.7721173917516
 30
0.0
 40
25.0
  0
LINE
  5
F67
330
2
100
AcDbEntity
  8
CENTER
100
AcDbLine
 10
488.5237582405896
 20
317.4289716412441
 30
0.0
 11
421.2100497416051
 21
250.1152631422594
 31
0.0
  0
LINE
  5
F68
330
2
100
AcDbEntity
  8
CENTER
100
AcDbLine
 10
421.2100497416056
 20
317.4289716412445
 30
0.0
 11
488.5237582405893
 21
250.1152631422588
 31
0.0
  0
LINE
  5
F69
330
2
100
AcDbEntity
  8
CENTER
100
AcDbLine
 10
421.4968463060078
 20
256.9020597066631
 30
0.0
 11
434.4968463060078
 21
256.9020597066631
 31
0.0
  0
CIRCLE
  5
F6A
330
2
100
AcDbEntity
  8
0
100
AcDbCircle
 10
427.9968463060088
 20
256.9020597066626
 30
0.0
 40
2.1
  0
CIRCLE
  5
F6B
330
2
100
AcDbEntity
  8
HOJO
100
AcDbCircle
 10
427.9968463060088
 20
256.9020597066626
 30
0.0
 40
2.5
  0
ARC
  5
F6C
330
2
100
AcDbEntity
  8
0
100
AcDbCircle
 10
426.8669039910975
 20
255.7721173917514
 30
0.0
 40
3.0
100
AcDbArc
 50
180.0
 51
270.0
  0
LINE
  5
F6D
330
2
100
AcDbEntity
  8
CENTER
100
AcDbLine
 10
427.9968463060079
 20
263.4020597066631
 30
0.0
 11
427.9968463060079
 21
250.4020597066631
 31
0.0
  0
LINE
  5
F6E
330
2
100
AcDbEntity
  8
CENTER
100
AcDbLine
 10
481.7369616761864
 20
250.4020597066626
 30
0.0
 11
481.7369616761864
 21
263.4020597066626
 31
0.0
  0
ARC
  5
F6F
330
2
100
AcDbEntity
  8
0
100
AcDbCircle
 10
482.8669039910976
 20
255.7721173917519
 30
0.0
 40
3.0
100
AcDbArc
 50
270.0
 51
0.0000000068134097
  0
CIRCLE
  5
F70
330
2
100
AcDbEntity
  8
0
100
AcDbCircle
 10
481.7369616761864
 20
256.9020597066629
 30
0.0
 40
2.1
  0
CIRCLE
  5
F71
330
2
100
AcDbEntity
  8
HOJO
100
AcDbCircle
 10
481.7369616761864
 20
256.9020597066629
 30
0.0
 40
2.5
  0
LINE
  5
F72
330
2
100
AcDbEntity
  8
CENTER
100
AcDbLine
 10
475.2369616761864
 20
256.9020597066626
 30
0.0
 11
488.2369616761864
 21
256.9020597066626
 31
0.0
  0
LINE
  5
F73
330
2
100
AcDbEntity
  8
CENTER
100
AcDbLine
 10
434.4968463060088
 20
310.6421750768407
 30
0.0
 11
421.4968463060087
 21
310.6421750768407
 31
0.0
  0
CIRCLE
  5
F74
330
2
100
AcDbEntity
  8
0
100
AcDbCircle
 10
427.9968463060088
 20
310.6421750768402
 30
0.0
 40
2.1
  0
CIRCLE
  5
F75
330
2
100
AcDbEntity
  8
HOJO
100
AcDbCircle
 10
427.9968463060088
 20
310.6421750768402
 30
0.0
 40
2.5
  0
ARC
  5
F76
330
2
100
AcDbEntity
  8
0
100
AcDbCircle
 10
426.8669039910975
 20
311.7721173917516
 30
0.0
 40
3.0
100
AcDbArc
 50
90.0
 51
180.0
  0
LINE
  5
F77
330
2
100
AcDbEntity
  8
CENTER
100
AcDbLine
 10
427.9968463060088
 20
317.1421750768407
 30
0.0
 11
427.9968463060088
 21
304.1421750768407
 31
0.0
  0
LINE
  5
F78
330
2
100
AcDbEntity
  8
CENTER
100
AcDbLine
 10
488.2369616761864
 20
310.6421750768402
 30
0.0
 11
475.2369616761864
 21
310.6421750768402
 31
0.0
  0
LINE
  5
F79
330
2
100
AcDbEntity
  8
CENTER
100
AcDbLine
 10
481.7369616761864
 20
304.1421750768407
 30
0.0
 11
481.7369616761864
 21
317.1421750768402
 31
0.0
  0
ARC
  5
F7A
330
2
100
AcDbEntity
  8
0
100
AcDbCircle
 10
482.8669039910976
 20
311.7721173917514
 30
0.0
 40
3.0
100
AcDbArc
 50
359.9999999931214
 51
90.0
  0
CIRCLE
  5
F7B
330
2
100
AcDbEntity
  8
HOJO
100
AcDbCircle
 10
481.7369616761864
 20
310.6421750768404
 30
0.0
 40
2.5
  0
CIRCLE
  5
F7C
330
2
100
AcDbEntity
  8
0
100
AcDbCircle
 10
481.7369616761864
 20
310.6421750768404
 30
0.0
 40
2.1
  0
ARC
  5
F7D
330
2
100
AcDbEntity
  8
0
100
AcDbCircle
 10
404.8345015817342
 20
301.8841834174425
 30
0.0
 40
20.0
100
AcDbArc
 50
353.8840100189425
 51
15.99284774401804
  0
ARC
  5
F7E
330
2
100
AcDbEntity
  8
0
100
AcDbCircle
 10
428.8669039910967
 20
308.7721173917503
 30
0.0
 40
5.0
100
AcDbArc
 50
180.0
 51
195.992847744018
  0
LINE
  5
F7F
330
2
100
AcDbEntity
  8
0
100
AcDbLine
 10
423.8669039910966
 20
308.7721173917505
 30
0.0
 11
423.8669039910966
 21
311.7721173917505
 31
0.0
  0
LINE
  5
F80
330
2
100
AcDbEntity
  8
0
100
AcDbLine
 10
423.8669039910957
 20
308.7721173917492
 30
0.0
 11
423.8669039910957
 21
311.7721173917491
 31
0.0
  0
LINE
  5
F81
330
2
100
AcDbEntity
  8
0
100
AcDbLine
 10
423.8669039910985
 20
308.7721173917519
 30
0.0
 11
423.8669039910985
 21
311.7721173917519
 31
0.0
  0
LINE
  5
F82
330
2
100
AcDbEntity
  8
0
100
AcDbLine
 10
423.8669039910966
 20
308.7721173917505
 30
0.0
 11
423.8669039910966
 21
311.7721173917505
 31
0.0
  0
ARC
  5
F83
330
2
100
AcDbEntity
  8
0
100
AcDbCircle
 10
404.8345015817342
 20
265.6600513660583
 30
0.0
 40
20.0
100
AcDbArc
 50
344.0071522559819
 51
6.115989981057472
  0
LINE
  5
F84
330
2
100
AcDbEntity
  8
0
100
AcDbLine
 10
423.8669039910957
 20
258.7721173917519
 30
0.0
 11
423.8669039910957
 21
255.7721173917519
 31
0.0
  0
ARC
  5
F85
330
2
100
AcDbEntity
  8
0
100
AcDbCircle
 10
428.8669039910967
 20
258.7721173917505
 30
0.0
 40
5.0
100
AcDbArc
 50
164.0071522559819
 51
180.0
  0
LINE
  5
F86
330
2
100
AcDbEntity
  8
0
100
AcDbLine
 10
429.8669039910967
 20
252.7721173917505
 30
0.0
 11
426.8669039910967
 21
252.7721173917505
 31
0.0
  0
LINE
  5
F87
330
2
100
AcDbEntity
  8
0
100
AcDbLine
 10
429.8669039910985
 20
252.7721173917487
 30
0.0
 11
426.8669039910985
 21
252.7721173917489
 31
0.0
  0
LINE
  5
F88
330
2
100
AcDbEntity
  8
0
100
AcDbLine
 10
429.8669039910967
 20
252.7721173917505
 30
0.0
 11
426.8669039910967
 21
252.7721173917505
 31
0.0
  0
LINE
  5
F89
330
2
100
AcDbEntity
  8
0
100
AcDbLine
 10
429.8669039910958
 20
252.7721173917519
 30
0.0
 11
426.8669039910958
 21
252.7721173917519
 31
0.0
  0
ARC
  5
F8A
330
2
100
AcDbEntity
  8
0
100
AcDbCircle
 10
436.7548379654055
 20
233.7397149823871
 30
0.0
 40
20.0
100
AcDbArc
 50
83.88401001893184
 51
105.9928477439961
  0
ARC
  5
F8B
330
2
100
AcDbEntity
  8
0
100
AcDbCircle
 10
429.8669039910967
 20
257.7721173917505
 30
0.0
 40
5.0
100
AcDbArc
 50
270.0
 51
285.992847743996
  0
ARC
  5
F8C
330
2
100
AcDbEntity
  8
0
100
AcDbCircle
 10
472.9789700167896
 20
233.7397149823871
 30
0.0
 40
20.0
100
AcDbArc
 50
74.00715225600388
 51
96.11598998106819
  0
LINE
  5
F8D
330
2
100
AcDbEntity
  8
0
100
AcDbLine
 10
479.8669039910958
 20
252.7721173917489
 30
0.0
 11
482.8669039910957
 21
252.7721173917489
 31
0.0
  0
ARC
  5
F8E
330
2
100
AcDbEntity
  8
0
100
AcDbCircle
 10
479.8669039910967
 20
257.7721173917505
 30
0.0
 40
5.0
100
AcDbArc
 50
254.0071522560039
 51
270.0
  0
ARC
  5
F8F
330
2
100
AcDbEntity
  8
0
100
AcDbCircle
 10
472.9789700167896
 20
333.8045198011139
 30
0.0
 40
20.0
100
AcDbArc
 50
263.8840100189318
 51
285.992847743996
  0
LINE
  5
F90
330
2
100
AcDbEntity
  8
0
100
AcDbLine
 10
479.8669039910976
 20
314.7721173917505
 30
0.0
 11
482.8669039910967
 21
314.7721173917503
 31
0.0
  0
LINE
  5
F91
330
2
100
AcDbEntity
  8
0
100
AcDbLine
 10
479.8669039910985
 20
314.7721173917489
 30
0.0
 11
482.8669039910985
 21
314.7721173917487
 31
0.0
  0
LINE
  5
F92
330
2
100
AcDbEntity
  8
0
100
AcDbLine
 10
479.8669039910958
 20
314.7721173917519
 30
0.0
 11
482.8669039910957
 21
314.7721173917519
 31
0.0
  0
LINE
  5
F93
330
2
100
AcDbEntity
  8
0
100
AcDbLine
 10
479.8669039910967
 20
314.7721173917505
 30
0.0
 11
482.8669039910967
 21
314.7721173917505
 31
0.0
  0
ARC
  5
F94
330
2
100
AcDbEntity
  8
0
100
AcDbCircle
 10
479.8669039910967
 20
309.7721173917505
 30
0.0
 40
5.0
100
AcDbArc
 50
90.0
 51
105.9928477439961
  0
LINE
  5
F95
330
2
100
AcDbEntity
  8
0
100
AcDbLine
 10
429.8669039910985
 20
314.7721173917519
 30
0.0
 11
426.8669039910985
 21
314.7721173917519
 31
0.0
  0
LINE
  5
F96
330
2
100
AcDbEntity
  8
0
100
AcDbLine
 10
429.8669039910967
 20
314.7721173917505
 30
0.0
 11
426.8669039910967
 21
314.7721173917505
 31
0.0
  0
ARC
  5
F97
330
2
100
AcDbEntity
  8
0
100
AcDbCircle
 10
436.7548379654055
 20
333.8045198011139
 30
0.0
 40
20.0
100
AcDbArc
 50
254.0071522560039
 51
276.1159899810681
  0
ARC
  5
F98
330
2
100
AcDbEntity
  8
0
100
AcDbCircle
 10
429.8669039910967
 20
309.7721173917505
 30
0.0
 40
5.0
100
AcDbArc
 50
74.00715225600388
 51
90.0
  0
ARC
  5
F99
330
2
100
AcDbEntity
  8
0
100
AcDbCircle
 10
573.8669039910966
 20
283.7721173917501
 30
0.0
 40
150.0
100
AcDbArc
 50
173.8840100189425
 51
186.1159899810574
  0
ARC
  5
F9A
330
2
100
AcDbEntity
  8
0
100
AcDbCircle
 10
454.8669039910985
 20
164.7721173917519
 30
0.0
 40
150.0
100
AcDbArc
 50
83.88401001893184
 51
96.11598998106819
  0
ARC
  5
F9B
330
2
100
AcDbEntity
  8
0
100
AcDbCircle
 10
454.8669039910985
 20
402.7721173917519
 30
0.0
 40
150.0
100
AcDbArc
 50
263.8840100189318
 51
276.1159899810681
  0
LINE
  5
F9C
330
2
100
AcDbEntity
  8
0
100
AcDbLine
 10
485.8669039910966
 20
255.7721173917514
 30
0.0
 11
485.8669039911013
 21
311.7721173917514
 31
0.0
  0
LINE
  5
F9D
330
2
100
AcDbEntity
  8
0
100
AcDbLine
 10
519.8669039911003
 20
315.2721173917514
 30
0.0
 11
519.8669039911003
 21
252.2721173917523
 31
0.0
  0
ARC
  5
F9E
330
2
100
AcDbEntity
  8
0
100
AcDbCircle
 10
513.8669039911021
 20
312.7721173917514
 30
0.0
 40
2.0
100
AcDbArc
 50
90.0
 51
180.0
  0
LINE
  5
F9F
330
2
100
AcDbEntity
  8
0
100
AcDbLine
 10
511.8669039911021
 20
313.2721173917514
 30
0.0
 11
511.8669039911021
 21
254.2721173917519
 31
0.0
  0
LINE
  5
FA0
330
2
100
AcDbEntity
  8
0
100
AcDbLine
 10
519.8669039911039
 20
252.7721173917523
 30
0.0
 11
513.8669039911021
 21
252.7721173917519
 31
0.0
  0
ARC
  5
FA1
330
2
100
AcDbEntity
  8
0
100
AcDbCircle
 10
513.8669039911021
 20
254.7721173917519
 30
0.0
 40
2.0
100
AcDbArc
 50
180.0
 51
270.0
  0
LINE
  5
FA2
330
2
100
AcDbEntity
  8
0
100
AcDbLine
 10
519.8669039911003
 20
314.7721173917514
 30
0.0
 11
513.8669039911021
 21
314.7721173917514
 31
0.0
  0
ARC
  5
FA3
330
2
100
AcDbEntity
  8
0
100
AcDbCircle
 10
502.3152177329413
 20
452.8495876779575
 30
0.0
 40
2.0
100
AcDbArc
 50
181.4999999999798
 51
270.0
  0
LINE
  5
FA4
330
2
100
AcDbEntity
  8
0
100
AcDbLine
 10
500.3159030829904
 20
452.797233781342
 30
0.0
 11
499.7122559518277
 21
475.8495876798092
 31
0.0
  0
LINE
  5
FA5
330
2
100
AcDbEntity
  8
0
100
AcDbLine
 10
488.4963002672261
 20
455.849587679809
 30
0.0
 11
497.3135037704389
 21
455.8495876798093
 31
0.0
  0
ARC
  5
FA6
330
2
100
AcDbEntity
  8
0
100
AcDbCircle
 10
497.3135037704389
 20
452.8495876798093
 30
0.0
 40
3.0
100
AcDbArc
 50
1.500000000002716
 51
90.0
  0
LINE
  5
FA7
330
2
100
AcDbEntity
  8
0
100
AcDbLine
 10
488.8669039910994
 20
285.7721173917514
 30
0.0
 11
497.3669039911003
 21
285.7721173917514
 31
0.0
  0
LINE
  5
FA8
330
2
100
AcDbEntity
  8
0
100
AcDbLine
 10
488.6533838873011
 20
477.8495876798093
 30
0.0
 11
496.8421571821929
 21
477.8495876798093
 31
0.0
  0
LINE
  5
FA9
330
2
100
AcDbEntity
  8
0
100
AcDbLine
 10
488.8669039910976
 20
303.7721173917514
 30
0.0
 11
497.3669039911003
 21
303.7721173917514
 31
0.0
  0
ARC
  5
FAA
330
2
100
AcDbEntity
  8
0
100
AcDbCircle
 10
488.8669039910976
 20
306.7721173917514
 30
0.0
 40
3.0
100
AcDbArc
 50
180.0
 51
270.0
  0
ARC
  5
FAB
330
2
100
AcDbEntity
  8
0
100
AcDbCircle
 10
497.3669039911003
 20
306.7721173917514
 30
0.0
 40
3.0
100
AcDbArc
 50
270.0
 51
359.9999999999967
  0
LINE
  5
FAC
330
2
100
AcDbEntity
  8
0
100
AcDbLine
 10
500.3669039911003
 20
306.7721173910307
 30
0.0
 11
500.3669039911003
 21
260.7721173924647
 31
0.0
  0
LINE
  5
FAD
330
2
100
AcDbEntity
  8
0
100
AcDbLine
 10
488.8669039910976
 20
263.7721173917514
 30
0.0
 11
497.3669039911003
 21
263.7721173917514
 31
0.0
  0
ARC
  5
FAE
330
2
100
AcDbEntity
  8
0
100
AcDbCircle
 10
497.3669039911003
 20
260.7721173917514
 30
0.0
 40
3.0
100
AcDbArc
 50
0.0
 51
90.0
  0
ARC
  5
FAF
330
2
100
AcDbEntity
  8
0
100
AcDbCircle
 10
488.8669039910976
 20
260.7721173917514
 30
0.0
 40
3.0
100
AcDbArc
 50
90.0
 51
179.9999999999967
  0
ARC
  5
FB0
330
2
100
AcDbEntity
  8
0
100
AcDbCircle
 10
502.3669039911003
 20
260.7721173924647
 30
0.0
 40
2.0
100
AcDbArc
 50
180.0
 51
270.0
  0
LINE
  5
FB1
330
2
100
AcDbEntity
  8
0
100
AcDbLine
 10
500.3669039911003
 20
260.7721173917514
 30
0.0
 11
500.3669039911003
 21
260.7721173924647
 31
0.0
  0
ARC
  5
FB2
330
2
100
AcDbEntity
  8
0
100
AcDbCircle
 10
502.3669039911003
 20
306.7721173910307
 30
0.0
 40
2.0
100
AcDbArc
 50
90.0
 51
180.0
  0
LINE
  5
FB3
330
2
100
AcDbEntity
  8
0
100
AcDbLine
 10
502.3669039911003
 20
308.7721173910306
 30
0.0
 11
508.8669039911021
 21
308.7721173910306
 31
0.0
  0
ARC
  5
FB4
330
2
100
AcDbEntity
  8
0
100
AcDbCircle
 10
508.8669039911021
 20
311.7721173910307
 30
0.0
 40
3.0
100
AcDbArc
 50
270.0
 51
0.0
  0
ARC
  5
FB5
330
2
100
AcDbEntity
  8
0
100
AcDbCircle
 10
508.8669039911021
 20
255.7721173924645
 30
0.0
 40
3.0
100
AcDbArc
 50
0.0
 51
90.0
  0
LINE
  5
FB6
330
2
100
AcDbEntity
  8
0
100
AcDbLine
 10
502.3669039911003
 20
258.7721173924647
 30
0.0
 11
508.8669039911021
 21
258.7721173924645
 31
0.0
  0
ARC
  5
FB7
330
2
100
AcDbEntity
  8
0
100
AcDbCircle
 10
497.2742248880751
 20
497.3495876794425
 30
0.0
 40
3.0
100
AcDbArc
 50
270.0
 51
358.4999999999972
  0
LINE
  5
FB8
330
2
100
AcDbEntity
  8
0
100
AcDbLine
 10
488.4613927961136
 20
451.8495876824107
 30
0.0
 11
499.3152177270042
 21
451.8495876824107
 31
0.0
  0
LINE
  5
FB9
330
2
100
AcDbEntity
  8
0
100
AcDbLine
 10
488.6533838873346
 20
473.8495876798093
 30
0.0
 11
496.8421571821993
 21
473.8495876798093
 31
0.0
  0
ARC
  5
FBA
330
2
100
AcDbEntity
  8
0
100
AcDbCircle
 10
488.8669039910994
 20
288.7721173917514
 30
0.0
 40
3.0
100
AcDbArc
 50
179.9999999999934
 51
270.0
  0
ARC
  5
FBB
330
2
100
AcDbEntity
  8
0
100
AcDbCircle
 10
497.3669039911003
 20
288.7721173917514
 30
0.0
 40
3.0
100
AcDbArc
 50
270.0
 51
0.0
  0
LINE
  5
FBC
330
2
100
AcDbEntity
  8
0
100
AcDbLine
 10
488.8669039910994
 20
281.7721173917514
 30
0.0
 11
497.3669039911003
 21
281.7721173917514
 31
0.0
  0
ARC
  5
FBD
330
2
100
AcDbEntity
  8
0
100
AcDbCircle
 10
497.3669039911003
 20
278.7721173917514
 30
0.0
 40
3.0
100
AcDbArc
 50
0.0
 51
90.0
  0
ARC
  5
FBE
330
2
100
AcDbEntity
  8
0
100
AcDbCircle
 10
488.8669039910994
 20
278.7721173917514
 30
0.0
 40
3.0
100
AcDbArc
 50
90.0
 51
180.0000000000032
  0
ARC
  5
FBF
330
2
100
AcDbEntity
  8
0
100
AcDbCircle
 10
499.3152177270042
 20
448.8495876824107
 30
0.0
 40
3.0
100
AcDbArc
 50
53.13010226912336
 51
90.0
  0
LINE
  5
FC0
330
2
100
AcDbEntity
  8
0
100
AcDbLine
 10
434.7982815407033
 20
432.8495876798093
 30
0.0
 11
474.9355264414828
 21
432.8495876798091
 31
0.0
  0
LINE
  5
FC1
330
2
100
AcDbEntity
  8
0
100
AcDbLine
 10
477.0439452731154
 20
437.9193866732141
 30
0.0
 11
476.9343080955207
 21
434.7797886864044
 31
0.0
  0
ARC
  5
FC2
330
2
100
AcDbEntity
  8
0
100
AcDbCircle
 10
479.0427269271533
 20
437.8495876798092
 30
0.0
 40
2.0
100
AcDbArc
 50
90.0
 51
178.0000000000028
  0
ARC
  5
FC3
330
2
100
AcDbEntity
  8
0
100
AcDbCircle
 10
474.9355264414828
 20
434.8495876798093
 30
0.0
 40
2.0
100
AcDbArc
 50
270.0
 51
358.0000000000028
  0
LINE
  5
FC4
330
2
100
AcDbEntity
  8
0
100
AcDbLine
 10
432.6898627090742
 20
437.9193866732378
 30
0.0
 11
432.7994998866654
 21
434.779788686428
 31
0.0
  0
ARC
  5
FC5
330
2
100
AcDbEntity
  8
0
100
AcDbCircle
 10
430.6910810550363
 20
437.849587679835
 30
0.0
 40
2.0
100
AcDbArc
 50
1.999999999938485
 51
89.99999999994789
  0
ARC
  5
FC6
330
2
100
AcDbEntity
  8
0
100
AcDbCircle
 10
434.7982815407033
 20
434.8495876798309
 30
0.0
 40
2.0
100
AcDbArc
 50
181.9999999999384
 51
269.9999999999478
  0
LINE
  5
FC7
330
2
100
AcDbEntity
  8
0
100
AcDbLine
 10
513.8152177329414
 20
506.8495876798093
 30
0.0
 11
519.8669039910985
 21
506.8495876798093
 31
0.0
  0
LINE
  5
FC8
330
2
100
AcDbEntity
  8
0
100
AcDbLine
 10
513.8152177329414
 20
444.8495876798093
 30
0.0
 11
519.8669039911021
 21
444.8495876820368
 31
0.0
  0
LINE
  5
FC9
330
2
100
AcDbEntity
  8
0
100
AcDbLine
 10
511.8159030829904
 20
446.7972337831938
 30
0.0
 11
511.0551404224791
 21
475.8495876798092
 31
0.0
  0
ARC
  5
FCA
330
2
100
AcDbEntity
  8
0
100
AcDbCircle
 10
513.8152177329414
 20
446.8495876798093
 30
0.0
 40
2.0
100
AcDbArc
 50
181.4999999999897
 51
270.0
  0
ARC
  5
FCB
330
2
100
AcDbEntity
  8
0
100
AcDbCircle
 10
513.8152177329414
 20
504.8495876798092
 30
0.0
 40
2.0
100
AcDbArc
 50
90.0
 51
178.5000000000102
  0
LINE
  5
FCC
330
2
100
AcDbEntity
  8
0
100
AcDbLine
 10
502.3152177329432
 20
500.8495876798092
 30
0.0
 11
508.7873178489192
 21
500.8495876798092
 31
0.0
  0
LINE
  5
FCD
330
2
100
AcDbEntity
  8
0
100
AcDbLine
 10
502.3152177329432
 20
450.8495876798092
 30
0.0
 11
508.7873178489192
 21
450.8495876798092
 31
0.0
  0
ARC
  5
FCE
330
2
100
AcDbEntity
  8
0
100
AcDbCircle
 10
508.7873178489192
 20
503.8495876798092
 30
0.0
 40
3.0
100
AcDbArc
 50
270.0
 51
358.5000000000103
  0
ARC
  5
FCF
330
2
100
AcDbEntity
  8
0
100
AcDbCircle
 10
508.7873178489192
 20
447.8495876798093
 30
0.0
 40
3.0
100
AcDbArc
 50
1.499999999989693
 51
90.0
  0
LINE
  5
FD0
330
2
100
AcDbEntity
  8
0
100
AcDbLine
 10
511.8159030829904
 20
504.9019415764235
 30
0.0
 11
511.0551404224772
 21
475.8495876798092
 31
0.0
  0
LINE
  5
FD1
330
2
100
AcDbEntity
  8
0
100
AcDbLine
 10
479.866903991104
 20
475.8495876798092
 30
0.0
 11
479.866903991104
 21
444.3495686413414
 31
0.0
  0
LINE
  5
FD2
330
2
100
AcDbEntity
  8
0
100
AcDbLine
 10
438.8856692625506
 20
494.8495876798104
 30
0.0
 11
438.8856692625506
 21
444.3495686413414
 31
0.0
  0
LINE
  5
FD3
330
2
100
AcDbEntity
  8
0
100
AcDbLine
 10
429.8669039910967
 20
494.8495876798104
 30
0.0
 11
429.8669039910967
 21
444.3495686413414
 31
0.0
  0
LINE
  5
FD4
330
2
100
AcDbEntity
  8
0
100
AcDbLine
 10
426.8669039910967
 20
494.8495876798104
 30
0.0
 11
426.8669039910967
 21
444.3495686413414
 31
0.0
  0
LINE
  5
FD5
330
2
100
AcDbEntity
  8
0
100
AcDbLine
 10
482.6967300691778
 20
475.8495876798092
 30
0.0
 11
482.6967300691778
 21
444.3495686413414
 31
0.0
  0
LINE
  5
FD6
330
2
100
AcDbEntity
  8
0
100
AcDbLine
 10
470.8481387196264
 20
494.8495876798101
 30
0.0
 11
470.8481387196264
 21
444.3495686413414
 31
0.0
  0
LINE
  5
FD7
330
2
100
AcDbEntity
  8
0
100
AcDbLine
 10
479.8799969518816
 20
494.84958767981
 30
0.0
 11
480.3520290076432
 21
476.8234107315014
 31
0.0
  0
ARC
  5
FD8
330
2
100
AcDbEntity
  8
0
100
AcDbCircle
 10
481.3516863326188
 20
476.8495876798093
 30
0.0
 40
1.0
100
AcDbArc
 50
181.5000000000027
 51
270.0
  0
LINE
  5
FD9
330
2
100
AcDbEntity
  8
0
100
AcDbLine
 10
481.3516863326188
 20
475.8495876798092
 30
0.0
 11
485.696903991097
 21
475.8495876798092
 31
0.0
  0
LINE
  5
FDA
330
2
100
AcDbEntity
  8
0
100
AcDbLine
 10
511.0551404224772
 20
475.849587679844
 30
0.0
 11
519.8669039911003
 21
475.8495876798092
 31
0.0
  0
LINE
  5
FDB
330
2
100
AcDbEntity
  8
0
100
AcDbLine
 10
488.8669039910985
 20
307.7721173910384
 30
0.0
 11
499.3669039911075
 21
307.7721173910384
 31
0.0
  0
ARC
  5
FDC
330
2
100
AcDbEntity
  8
0
100
AcDbCircle
 10
488.8669039910985
 20
310.7721173910384
 30
0.0
 40
3.0
100
AcDbArc
 50
179.9999999999967
 51
270.0
  0
ARC
  5
FDD
330
2
100
AcDbEntity
  8
0
100
AcDbCircle
 10
499.3669039911075
 20
310.7721173910384
 30
0.0
 40
3.0
100
AcDbArc
 50
270.0
 51
306.8698976456766
  0
LINE
  5
FDE
330
2
100
AcDbEntity
  8
0
100
AcDbLine
 10
488.8669039910985
 20
259.7721173924649
 30
0.0
 11
499.3669039911075
 21
259.7721173924649
 31
0.0
  0
ARC
  5
FDF
330
2
100
AcDbEntity
  8
0
100
AcDbCircle
 10
488.8669039910985
 20
256.7721173924649
 30
0.0
 40
3.0
100
AcDbArc
 50
90.0
 51
180.0
  0
ARC
  5
FE0
330
2
100
AcDbEntity
  8
0
100
AcDbCircle
 10
499.3669039911075
 20
256.7721173924649
 30
0.0
 40
3.0
100
AcDbArc
 50
53.13010235426199
 51
90.0
  0
ARC
  5
FE1
330
2
100
AcDbEntity
  8
0
100
AcDbCircle
 10
496.8421571821929
 20
480.8495876798093
 30
0.0
 40
3.0
100
AcDbArc
 50
270.0
 51
358.4999999999972
  0
ARC
  5
FE2
330
2
100
AcDbEntity
  8
0
100
AcDbCircle
 10
496.8421571821993
 20
470.8495876798092
 30
0.0
 40
3.0
100
AcDbArc
 50
1.499999999983181
 51
90.0
  0
ARC
  5
FE3
330
2
100
AcDbEntity
  8
0
100
AcDbCircle
 10
513.8669039911021
 20
313.2721173917514
 30
0.0
 40
2.0
100
AcDbArc
 50
90.0
 51
180.0
  0
LINE
  5
FE4
330
2
100
AcDbEntity
  8
0
100
AcDbLine
 10
519.8669039911003
 20
315.2721173917514
 30
0.0
 11
513.8669039911021
 21
315.2721173917514
 31
0.0
  0
LINE
  5
FE5
330
2
100
AcDbEntity
  8
0
100
AcDbLine
 10
519.8669039911039
 20
252.2721173917523
 30
0.0
 11
513.8669039911021
 21
252.2721173917519
 31
0.0
  0
ARC
  5
FE6
330
2
100
AcDbEntity
  8
0
100
AcDbCircle
 10
513.8669039911021
 20
254.2721173917519
 30
0.0
 40
2.0
100
AcDbArc
 50
180.0
 51
270.0
  0
LINE
  5
FE7
330
2
100
AcDbEntity
  8
CENTER
100
AcDbLine
 10
181.7439137522485
 20
245.7721173917519
 30
0.0
 11
181.7439137522485
 21
321.7721173917519
 31
0.0
  0
LINE
  5
FE8
330
2
100
AcDbEntity
  8
CENTER
100
AcDbLine
 10
219.7439137522481
 20
283.7721173917519
 30
0.0
 11
66.74391375224809
 21
283.7721173917519
 31
0.0
  0
LINE
  5
FE9
330
2
100
AcDbEntity
  8
0
100
AcDbLine
 10
124.7439137522462
 20
254.2721173917519
 30
0.0
 11
124.7439137522462
 21
313.2721173917514
 31
0.0
  0
LINE
  5
FEA
330
2
100
AcDbEntity
  8
0
100
AcDbLine
 10
116.743913752248
 20
252.2721173917519
 30
0.0
 11
116.743913752248
 21
315.272117391751
 31
0.0
  0
LINE
  5
FEB
330
2
100
AcDbEntity
  8
0
100
AcDbLine
 10
136.243913752248
 20
276.1727753149664
 30
0.0
 11
136.243913752248
 21
291.3714594685373
 31
0.0
  0
ARC
  5
FEC
330
2
100
AcDbEntity
  8
0
100
AcDbCircle
 10
122.7439137522462
 20
312.7721173917514
 30
0.0
 40
2.0
100
AcDbArc
 50
0.0
 51
90.0
  0
LINE
  5
FED
330
2
100
AcDbEntity
  8
0
100
AcDbLine
 10
116.7439137522444
 20
314.772117391751
 30
0.0
 11
122.7439137522462
 21
314.7721173917514
 31
0.0
  0
ARC
  5
FEE
330
2
100
AcDbEntity
  8
0
100
AcDbCircle
 10
122.7439137522462
 20
254.7721173917519
 30
0.0
 40
2.0
100
AcDbArc
 50
270.0
 51
0.0
  0
LINE
  5
FEF
330
2
100
AcDbEntity
  8
0
100
AcDbLine
 10
116.743913752248
 20
252.7721173917519
 30
0.0
 11
122.7439137522462
 21
252.7721173917519
 31
0.0
  0
ARC
  5
FF0
330
2
100
AcDbEntity
  8
0
100
AcDbCircle
 10
209.7439137522481
 20
311.7721173917519
 30
0.0
 40
3.0
100
AcDbArc
 50
0.0
 51
90.0
  0
ARC
  5
FF1
330
2
100
AcDbEntity
  8
0
100
AcDbCircle
 10
209.7439137522481
 20
255.7721173917519
 30
0.0
 40
3.0
100
AcDbArc
 50
270.0
 51
0.0
  0
ARC
  5
FF2
330
2
100
AcDbEntity
  8
0
100
AcDbCircle
 10
62.74391375224809
 20
283.7721173917537
 30
0.0
 40
150.0
100
AcDbArc
 50
353.8840100189425
 51
6.115989981057472
  0
ARC
  5
FF3
330
2
100
AcDbEntity
  8
0
100
AcDbCircle
 10
231.7763161616114
 20
265.6600513660612
 30
0.0
 40
20.0
100
AcDbArc
 50
173.8840100189425
 51
195.9928477439902
  0
ARC
  5
FF4
330
2
100
AcDbEntity
  8
0
100
AcDbCircle
 10
207.743913752248
 20
258.7721173917535
 30
0.0
 40
5.0
100
AcDbArc
 50
0.0
 51
15.99284774399019
  0
LINE
  5
FF5
330
2
100
AcDbEntity
  8
0
100
AcDbLine
 10
212.743913752248
 20
258.7721173917532
 30
0.0
 11
212.743913752248
 21
255.7721173917534
 31
0.0
  0
LINE
  5
FF6
330
2
100
AcDbEntity
  8
0
100
AcDbLine
 10
212.7439137522499
 20
258.7721173917546
 30
0.0
 11
212.7439137522499
 21
255.7721173917548
 31
0.0
  0
LINE
  5
FF7
330
2
100
AcDbEntity
  8
0
100
AcDbLine
 10
212.7439137522462
 20
258.7721173917519
 30
0.0
 11
212.7439137522462
 21
255.7721173917519
 31
0.0
  0
LINE
  5
FF8
330
2
100
AcDbEntity
  8
0
100
AcDbLine
 10
212.743913752248
 20
258.7721173917532
 30
0.0
 11
212.743913752248
 21
255.7721173917532
 31
0.0
  0
ARC
  5
FF9
330
2
100
AcDbEntity
  8
0
100
AcDbCircle
 10
231.7763161616114
 20
301.8841834174455
 30
0.0
 40
20.0
100
AcDbArc
 50
164.0071522560098
 51
186.1159899810574
  0
LINE
  5
FFA
330
2
100
AcDbEntity
  8
0
100
AcDbLine
 10
212.7439137522499
 20
308.7721173917521
 30
0.0
 11
212.7439137522499
 21
311.7721173917519
 31
0.0
  0
ARC
  5
FFB
330
2
100
AcDbEntity
  8
0
100
AcDbCircle
 10
207.743913752248
 20
308.7721173917532
 30
0.0
 40
5.0
100
AcDbArc
 50
344.0071522560097
 51
0.0
  0
LINE
  5
FFC
330
2
100
AcDbEntity
  8
0
100
AcDbLine
 10
206.743913752248
 20
314.7721173917535
 30
0.0
 11
209.7439137522481
 21
314.7721173917533
 31
0.0
  0
LINE
  5
FFD
330
2
100
AcDbEntity
  8
0
100
AcDbLine
 10
206.7439137522471
 20
314.7721173917551
 30
0.0
 11
209.7439137522471
 21
314.7721173917549
 31
0.0
  0
LINE
  5
FFE
330
2
100
AcDbEntity
  8
0
100
AcDbLine
 10
206.743913752248
 20
314.7721173917533
 30
0.0
 11
209.7439137522481
 21
314.7721173917533
 31
0.0
  0
LINE
  5
FFF
330
2
100
AcDbEntity
  8
0
100
AcDbLine
 10
206.7439137522498
 20
314.7721173917519
 30
0.0
 11
209.7439137522499
 21
314.7721173917519
 31
0.0
  0
ARC
  5
1000
330
2
100
AcDbEntity
  8
0
100
AcDbCircle
 10
199.855979777941
 20
333.8045198011168
 30
0.0
 40
20.0
100
AcDbArc
 50
263.8840100189318
 51
285.992847743996
  0
ARC
  5
1001
330
2
100
AcDbEntity
  8
0
100
AcDbCircle
 10
206.743913752248
 20
309.7721173917532
 30
0.0
 40
5.0
100
AcDbArc
 50
90.0
 51
105.9928477439961
  0
ARC
  5
1002
330
2
100
AcDbEntity
  8
0
100
AcDbCircle
 10
163.6318477265561
 20
333.8045198011168
 30
0.0
 40
20.0
100
AcDbArc
 50
254.0071522560039
 51
276.1159899810156
  0
LINE
  5
1003
330
2
100
AcDbEntity
  8
0
100
AcDbLine
 10
156.7439137522499
 20
314.7721173917551
 30
0.0
 11
153.7439137522462
 21
314.7721173917551
 31
0.0
  0
ARC
  5
1004
330
2
100
AcDbEntity
  8
0
100
AcDbCircle
 10
156.743913752248
 20
309.7721173917534
 30
0.0
 40
5.0
100
AcDbArc
 50
74.00715225600388
 51
90.0
  0
ARC
  5
1005
330
2
100
AcDbEntity
  8
0
100
AcDbCircle
 10
163.6318477265561
 20
233.7397149823899
 30
0.0
 40
20.0
100
AcDbArc
 50
83.88401001893184
 51
105.9928477439961
  0
LINE
  5
1006
330
2
100
AcDbEntity
  8
0
100
AcDbLine
 10
156.743913752248
 20
252.7721173917535
 30
0.0
 11
153.743913752248
 21
252.7721173917535
 31
0.0
  0
LINE
  5
1007
330
2
100
AcDbEntity
  8
0
100
AcDbLine
 10
156.7439137522462
 20
252.7721173917551
 30
0.0
 11
153.7439137522462
 21
252.7721173917551
 31
0.0
  0
LINE
  5
1008
330
2
100
AcDbEntity
  8
0
100
AcDbLine
 10
156.7439137522499
 20
252.7721173917519
 30
0.0
 11
153.7439137522499
 21
252.7721173917519
 31
0.0
  0
LINE
  5
1009
330
2
100
AcDbEntity
  8
0
100
AcDbLine
 10
156.743913752248
 20
252.7721173917532
 30
0.0
 11
153.7439137522462
 21
252.7721173917537
 31
0.0
  0
ARC
  5
100A
330
2
100
AcDbEntity
  8
0
100
AcDbCircle
 10
156.743913752248
 20
257.7721173917534
 30
0.0
 40
5.0
100
AcDbArc
 50
270.0
 51
285.992847743996
  0
LINE
  5
100B
330
2
100
AcDbEntity
  8
0
100
AcDbLine
 10
206.7439137522471
 20
252.7721173917519
 30
0.0
 11
209.7439137522471
 21
252.7721173917519
 31
0.0
  0
LINE
  5
100C
330
2
100
AcDbEntity
  8
0
100
AcDbLine
 10
206.743913752248
 20
252.7721173917532
 30
0.0
 11
209.7439137522481
 21
252.7721173917535
 31
0.0
  0
ARC
  5
100D
330
2
100
AcDbEntity
  8
0
100
AcDbCircle
 10
199.855979777941
 20
233.7397149823899
 30
0.0
 40
20.0
100
AcDbArc
 50
74.00715225600388
 51
96.11598998101577
  0
ARC
  5
100E
330
2
100
AcDbEntity
  8
0
100
AcDbCircle
 10
206.743913752248
 20
257.7721173917532
 30
0.0
 40
5.0
100
AcDbArc
 50
254.0071522560039
 51
270.0
  0
ARC
  5
100F
330
2
100
AcDbEntity
  8
0
100
AcDbCircle
 10
181.7439137522462
 20
402.7721173917519
 30
0.0
 40
150.0
100
AcDbArc
 50
263.8840100189318
 51
276.1159899810156
  0
ARC
  5
1010
330
2
100
AcDbEntity
  8
0
100
AcDbCircle
 10
181.7439137522462
 20
164.7721173917519
 30
0.0
 40
150.0
100
AcDbArc
 50
83.88401001893184
 51
96.11598998101577
  0
LINE
  5
1011
330
2
100
AcDbEntity
  8
0
100
AcDbLine
 10
150.7439137522462
 20
311.772117391755
 30
0.0
 11
150.7439137522462
 21
255.7721173917537
 31
0.0
  0
ARC
  5
1012
330
2
100
AcDbEntity
  8
0
100
AcDbCircle
 10
153.7439137522462
 20
255.7721173917537
 30
0.0
 40
3.0
100
AcDbArc
 50
180.0
 51
270.0
  0
LINE
  5
1013
330
2
100
AcDbEntity
  8
0
100
AcDbLine
 10
136.243913752248
 20
276.1727753149664
 30
0.0
 11
150.7439137522471
 21
276.1727753149664
 31
0.0
  0
LINE
  5
1014
330
2
100
AcDbEntity
  8
0
100
AcDbLine
 10
136.243913752248
 20
291.3714594685373
 30
0.0
 11
150.7439137522471
 21
291.3714594685373
 31
0.0
  0
LINE
  5
1015
330
2
100
AcDbEntity
  8
0
100
AcDbLine
 10
150.2439137522481
 20
291.3714594685373
 30
0.0
 11
150.2439137522471
 21
276.1727753149664
 31
0.0
  0
LINE
  5
1016
330
2
100
AcDbEntity
  8
0
100
AcDbLine
 10
147.7439137522499
 20
263.7721173917516
 30
0.0
 11
139.2439137522471
 21
263.7721173917519
 31
0.0
  0
ARC
  5
1017
330
2
100
AcDbEntity
  8
0
100
AcDbCircle
 10
147.7439137522499
 20
260.7721173917517
 30
0.0
 40
3.0
100
AcDbArc
 50
0.0
 51
90.0
  0
ARC
  5
1018
330
2
100
AcDbEntity
  8
0
100
AcDbCircle
 10
139.2439137522471
 20
260.7721173917519
 30
0.0
 40
3.0
100
AcDbArc
 50
90.0
 51
180.0
  0
LINE
  5
1019
330
2
100
AcDbEntity
  8
0
100
AcDbLine
 10
136.243913752248
 20
260.7721173924724
 30
0.0
 11
136.243913752248
 21
306.7721173910384
 31
0.0
  0
LINE
  5
101A
330
2
100
AcDbEntity
  8
0
100
AcDbLine
 10
147.7439137522508
 20
303.7721173917519
 30
0.0
 11
139.243913752248
 21
303.7721173917519
 31
0.0
  0
ARC
  5
101B
330
2
100
AcDbEntity
  8
0
100
AcDbCircle
 10
139.243913752248
 20
306.7721173917519
 30
0.0
 40
3.0
100
AcDbArc
 50
180.0
 51
270.0
  0
ARC
  5
101C
330
2
100
AcDbEntity
  8
0
100
AcDbCircle
 10
147.7439137522508
 20
306.7721173917519
 30
0.0
 40
3.0
100
AcDbArc
 50
270.0
 51
359.9999999999934
  0
ARC
  5
101D
330
2
100
AcDbEntity
  8
0
100
AcDbCircle
 10
134.243913752248
 20
306.7721173910384
 30
0.0
 40
2.0
100
AcDbArc
 50
0.0
 51
90.0
  0
LINE
  5
101E
330
2
100
AcDbEntity
  8
0
100
AcDbLine
 10
136.243913752248
 20
306.7721173917519
 30
0.0
 11
136.243913752248
 21
306.7721173910384
 31
0.0
  0
ARC
  5
101F
330
2
100
AcDbEntity
  8
0
100
AcDbCircle
 10
134.243913752248
 20
260.7721173924724
 30
0.0
 40
2.0
100
AcDbArc
 50
270.0
 51
359.9999999917405
  0
LINE
  5
1020
330
2
100
AcDbEntity
  8
0
100
AcDbLine
 10
147.7439137522462
 20
259.7721173924654
 30
0.0
 11
137.243913752238
 21
259.7721173924654
 31
0.0
  0
LINE
  5
1021
330
2
100
AcDbEntity
  8
0
100
AcDbLine
 10
134.243913752248
 20
258.7721173924724
 30
0.0
 11
127.7439137522462
 21
258.7721173924726
 31
0.0
  0
ARC
  5
1022
330
2
100
AcDbEntity
  8
0
100
AcDbCircle
 10
127.7439137522462
 20
255.7721173924726
 30
0.0
 40
3.0
100
AcDbArc
 50
90.0
 51
180.0
  0
ARC
  5
1023
330
2
100
AcDbEntity
  8
0
100
AcDbCircle
 10
127.7439137522462
 20
311.7721173910386
 30
0.0
 40
3.0
100
AcDbArc
 50
180.0
 51
270.0
  0
LINE
  5
1024
330
2
100
AcDbEntity
  8
0
100
AcDbLine
 10
134.243913752248
 20
308.7721173910384
 30
0.0
 11
127.7439137522462
 21
308.7721173910386
 31
0.0
  0
ARC
  5
1025
330
2
100
AcDbEntity
  8
0
100
AcDbCircle
 10
147.7439137522462
 20
256.7721173924654
 30
0.0
 40
3.0
100
AcDbArc
 50
0.0
 51
90.0
  0
ARC
  5
1026
330
2
100
AcDbEntity
  8
0
100
AcDbCircle
 10
137.243913752238
 20
256.7721173924652
 30
0.0
 40
3.0
100
AcDbArc
 50
90.0
 51
126.8698976456764
  0
ARC
  5
1027
330
2
100
AcDbEntity
  8
0
100
AcDbCircle
 10
153.7439137522462
 20
311.772117391755
 30
0.0
 40
3.0
100
AcDbArc
 50
90.0
 51
180.0
  0
LINE
  5
1028
330
2
100
AcDbEntity
  8
0
100
AcDbLine
 10
147.7439137522462
 20
307.7721173910384
 30
0.0
 11
137.243913752238
 21
307.7721173910386
 31
0.0
  0
ARC
  5
1029
330
2
100
AcDbEntity
  8
0
100
AcDbCircle
 10
147.7439137522462
 20
310.7721173910384
 30
0.0
 40
3.0
100
AcDbArc
 50
270.0
 51
0.0
  0
ARC
  5
102A
330
2
100
AcDbEntity
  8
0
100
AcDbCircle
 10
137.243913752238
 20
310.7721173910386
 30
0.0
 40
3.0
100
AcDbArc
 50
233.1301023542622
 51
270.0
  0
ARC
  5
102B
330
2
100
AcDbEntity
  8
0
100
AcDbCircle
 10
122.7439137522462
 20
254.2721173917519
 30
0.0
 40
2.0
100
AcDbArc
 50
270.0
 51
0.0
  0
LINE
  5
102C
330
2
100
AcDbEntity
  8
0
100
AcDbLine
 10
116.743913752248
 20
252.2721173917519
 30
0.0
 11
122.7439137522462
 21
252.2721173917519
 31
0.0
  0
LINE
  5
102D
330
2
100
AcDbEntity
  8
0
100
AcDbLine
 10
116.7439137522444
 20
315.272117391751
 30
0.0
 11
122.7439137522462
 21
315.2721173917514
 31
0.0
  0
ARC
  5
102E
330
2
100
AcDbEntity
  8
0
100
AcDbCircle
 10
122.7439137522462
 20
313.2721173917514
 30
0.0
 40
2.0
100
AcDbArc
 50
0.0
 51
90.0
  0
LINE
  5
102F
330
2
100
AcDbEntity
  8
CENTER
100
AcDbLine
 10
215.4007680017402
 20
317.4289716412441
 30
0.0
 11
148.0870595027556
 21
250.1152631422597
 31
0.0
  0
LINE
  5
1030
330
2
100
AcDbEntity
  8
0
100
AcDbLine
 10
193.7708256868292
 20
258.2721173917519
 30
0.0
 11
169.7170018176668
 21
258.2721173917519
 31
0.0
  0
LINE
  5
1031
330
2
100
AcDbEntity
  8
0
100
AcDbLine
 10
193.7708256868292
 20
256.2721173917519
 30
0.0
 11
169.7170018176668
 21
256.2721173917519
 31
0.0
  0
LINE
  5
1032
330
2
100
AcDbEntity
  8
0
100
AcDbLine
 10
193.7708256868292
 20
311.2721173917519
 30
0.0
 11
169.7170018176668
 21
311.2721173917519
 31
0.0
  0
LINE
  5
1033
330
2
100
AcDbEntity
  8
0
100
AcDbLine
 10
193.7708256868292
 20
309.2721173917519
 30
0.0
 11
169.7170018176668
 21
309.2721173917516
 31
0.0
  0
CIRCLE
  5
1034
330
2
100
AcDbEntity
  8
0
100
AcDbCircle
 10
181.743913752248
 20
283.7721173917519
 30
0.0
 40
17.5
  0
CIRCLE
  5
1035
330
2
100
AcDbEntity
  8
0
100
AcDbCircle
 10
181.743913752248
 20
283.7721173917519
 30
0.0
 40
18.0774
  0
CIRCLE
  5
1036
330
2
100
AcDbEntity
  8
0
100
AcDbCircle
 10
181.743913752248
 20
283.7721173917519
 30
0.0
 40
25.0
  0
CIRCLE
  5
1037
330
2
100
AcDbEntity
  8
0
100
AcDbCircle
 10
181.743913752248
 20
283.7721173917519
 30
0.0
 40
23.0
  0
CIRCLE
  5
1038
330
2
100
AcDbEntity
  8
0
100
AcDbCircle
 10
181.743913752248
 20
283.7721173917519
 30
0.0
 40
22.42259999999999
  0
CIRCLE
  5
1039
330
2
100
AcDbEntity
  8
0
100
AcDbCircle
 10
181.743913752248
 20
283.7721173917519
 30
0.0
 40
25.5
  0
LINE
  5
103A
330
2
100
AcDbEntity
  8
0
100
AcDbLine
 10
207.2439137522481
 20
271.7452054571709
 30
0.0
 11
207.2439137522481
 21
295.7990293263329
 31
0.0
  0
LINE
  5
103B
330
2
100
AcDbEntity
  8
0
100
AcDbLine
 10
209.2439137522481
 20
271.7452054571706
 30
0.0
 11
209.2439137522481
 21
295.7990293263331
 31
0.0
  0
LINE
  5
103C
330
2
100
AcDbEntity
  8
CENTER
100
AcDbLine
 10
213.4939137522499
 20
309.7721173917514
 30
0.0
 11
201.9939137522499
 21
309.7721173917519
 31
0.0
  0
LINE
  5
103D
330
2
100
AcDbEntity
  8
0
100
AcDbLine
 10
198.720573155135
 20
309.2218648600576
 30
0.0
 11
207.1936612205538
 21
300.7487767946388
 31
0.0
  0
LINE
  5
103E
330
2
100
AcDbEntity
  8
0
100
AcDbLine
 10
197.3063595927626
 20
307.8076512976845
 30
0.0
 11
205.7794476581814
 21
299.3345632322655
 31
0.0
  0
LINE
  5
103F
330
2
100
AcDbEntity
  8
CENTER
100
AcDbLine
 10
207.7439137522499
 20
315.5221173917516
 30
0.0
 11
207.7439137522499
 21
304.0221173917517
 31
0.0
  0
ARC
  5
1040
330
2
100
AcDbEntity
  8
0
100
AcDbCircle
 10
202.243913752248
 20
295.7990293263329
 30
0.0
 40
5.0
100
AcDbArc
 50
0.0
 51
44.99999999999309
  0
LINE
  5
1041
330
2
100
AcDbEntity
  8
0
100
AcDbLine
 10
206.8633114148044
 20
297.7124464881585
 30
0.0
 11
208.7110704798271
 21
298.4778133528887
 31
0.0
  0
ARC
  5
1042
330
2
100
AcDbEntity
  8
0
100
AcDbCircle
 10
202.243913752248
 20
295.7990293263331
 30
0.0
 40
7.0
100
AcDbArc
 50
0.0
 51
44.99999999999309
  0
ARC
  5
1043
330
2
100
AcDbEntity
  8
0
100
AcDbCircle
 10
193.7708256868292
 20
304.2721173917519
 30
0.0
 40
7.0
100
AcDbArc
 50
44.99999999999309
 51
90.0
  0
ARC
  5
1044
330
2
100
AcDbEntity
  8
0
100
AcDbCircle
 10
193.7708256868292
 20
304.2721173917519
 30
0.0
 40
5.0
100
AcDbArc
 50
44.99999999999309
 51
90.0
  0
LINE
  5
1045
330
2
100
AcDbEntity
  8
0
100
AcDbLine
 10
195.6842428486554
 20
308.8915150543082
 30
0.0
 11
196.4496097133853
 21
310.7392741193307
 31
0.0
  0
LINE
  5
1046
330
2
100
AcDbEntity
  8
CENTER
100
AcDbLine
 10
213.4939137522481
 20
257.7721173917519
 30
0.0
 11
201.993913752248
 21
257.7721173917519
 31
0.0
  0
LINE
  5
1047
330
2
100
AcDbEntity
  8
CENTER
100
AcDbLine
 10
213.4171188330049
 20
264.2721173917521
 30
0.0
 11
203.0707086714912
 21
264.2721173917521
 31
0.0
  0
LINE
  5
1048
330
2
100
AcDbEntity
  8
0
100
AcDbLine
 10
198.720573155135
 20
258.3223699234461
 30
0.0
 11
207.1936612205538
 21
266.7954579888647
 31
0.0
  0
LINE
  5
1049
330
2
100
AcDbEntity
  8
0
100
AcDbLine
 10
197.3063595927626
 20
259.736583485819
 30
0.0
 11
205.7794476581814
 21
268.2096715512382
 31
0.0
  0
LINE
  5
104A
330
2
100
AcDbEntity
  8
CENTER
100
AcDbLine
 10
208.243913752248
 20
261.1575411240092
 30
0.0
 11
208.243913752248
 21
269.4453224725092
 31
0.0
  0
LINE
  5
104B
330
2
100
AcDbEntity
  8
CENTER
100
AcDbLine
 10
207.743913752248
 20
252.0221173917519
 30
0.0
 11
207.743913752248
 21
263.5221173917519
 31
0.0
  0
ARC
  5
104C
330
2
100
AcDbEntity
  8
0
100
AcDbCircle
 10
202.243913752248
 20
271.7452054571709
 30
0.0
 40
5.0
100
AcDbArc
 50
315.0000000000071
 51
0.0
  0
LINE
  5
104D
330
2
100
AcDbEntity
  8
0
100
AcDbLine
 10
206.8633114148044
 20
269.831788295345
 30
0.0
 11
208.7110704798271
 21
269.066421430615
 31
0.0
  0
CIRCLE
  5
104E
330
2
100
AcDbEntity
  8
0
100
AcDbCircle
 10
208.243913752248
 20
264.2721173917521
 30
0.0
 40
1.6
  0
ARC
  5
104F
330
2
100
AcDbEntity
  8
0
100
AcDbCircle
 10
202.243913752248
 20
271.7452054571706
 30
0.0
 40
7.0
100
AcDbArc
 50
315.0000000000071
 51
0.0
  0
CIRCLE
  5
1050
330
2
100
AcDbEntity
  8
HOJO
100
AcDbCircle
 10
208.243913752248
 20
264.2721173917521
 30
0.0
 40
2.0
  0
ARC
  5
1051
330
2
100
AcDbEntity
  8
0
100
AcDbCircle
 10
193.7708256868292
 20
263.2721173917519
 30
0.0
 40
5.0
100
AcDbArc
 50
270.0
 51
315.0000000000071
  0
ARC
  5
1052
330
2
100
AcDbEntity
  8
0
100
AcDbCircle
 10
193.7708256868292
 20
263.2721173917519
 30
0.0
 40
7.0
100
AcDbArc
 50
270.0
 51
315.0000000000071
  0
LINE
  5
1053
330
2
100
AcDbEntity
  8
0
100
AcDbLine
 10
195.6842428486554
 20
258.6527197291955
 30
0.0
 11
196.4496097133853
 21
256.804960664173
 31
0.0
  0
LINE
  5
1054
330
2
100
AcDbEntity
  8
0
100
AcDbLine
 10
151.0839137522482
 20
255.7721173917519
 30
0.0
 11
151.0839137522482
 21
311.7721173917519
 31
0.0
  0
LINE
  5
1055
330
2
100
AcDbEntity
  8
0
100
AcDbLine
 10
154.243913752248
 20
271.7452054571706
 30
0.0
 11
154.243913752248
 21
295.7990293263331
 31
0.0
  0
LINE
  5
1056
330
2
100
AcDbEntity
  8
0
100
AcDbLine
 10
156.243913752248
 20
271.7452054571711
 30
0.0
 11
156.243913752248
 21
295.7990293263327
 31
0.0
  0
LINE
  5
1057
330
2
100
AcDbEntity
  8
0
100
AcDbLine
 10
164.7672543493611
 20
309.2218648600576
 30
0.0
 11
156.2941662839423
 21
300.7487767946388
 31
0.0
  0
LINE
  5
1058
330
2
100
AcDbEntity
  8
0
100
AcDbLine
 10
166.1814679117344
 20
307.8076512976843
 30
0.0
 11
157.7083798463156
 21
299.3345632322655
 31
0.0
  0
LINE
  5
1059
330
2
100
AcDbEntity
  8
CENTER
100
AcDbLine
 10
149.9939137522471
 20
309.7721173917512
 30
0.0
 11
161.4939137522471
 21
309.7721173917519
 31
0.0
  0
LINE
  5
105A
330
2
100
AcDbEntity
  8
0
100
AcDbLine
 10
167.8035846558416
 20
308.8915150543082
 30
0.0
 11
167.0382177911117
 21
310.7392741193307
 31
0.0
  0
ARC
  5
105B
330
2
100
AcDbEntity
  8
0
100
AcDbCircle
 10
169.7170018176668
 20
304.2721173917519
 30
0.0
 40
5.0
100
AcDbArc
 50
90.0
 51
135.0000000000069
  0
ARC
  5
105C
330
2
100
AcDbEntity
  8
0
100
AcDbCircle
 10
169.7170018176668
 20
304.2721173917517
 30
0.0
 40
7.0
100
AcDbArc
 50
90.0
 51
135.0000000000069
  0
LINE
  5
105D
330
2
100
AcDbEntity
  8
CENTER
100
AcDbLine
 10
155.243913752248
 20
308.4453224725087
 30
0.0
 11
155.243913752248
 21
298.0989123109946
 31
0.0
  0
LINE
  5
105E
330
2
100
AcDbEntity
  8
0
100
AcDbLine
 10
156.743913752248
 20
314.7721173917519
 30
0.0
 11
154.0839137522482
 21
314.7721173917519
 31
0.0
  0
ARC
  5
105F
330
2
100
AcDbEntity
  8
0
100
AcDbCircle
 10
154.0839137522482
 20
311.7721173917519
 30
0.0
 40
3.0
100
AcDbArc
 50
90.0
 51
180.0
  0
ARC
  5
1060
330
2
100
AcDbEntity
  8
0
100
AcDbCircle
 10
161.243913752248
 20
295.7990293263331
 30
0.0
 40
7.0
100
AcDbArc
 50
135.0000000000069
 51
180.0
  0
CIRCLE
  5
1061
330
2
100
AcDbEntity
  8
0
100
AcDbCircle
 10
155.243913752248
 20
303.2721173917516
 30
0.0
 40
1.6
  0
CIRCLE
  5
1062
330
2
100
AcDbEntity
  8
HOJO
100
AcDbCircle
 10
155.243913752248
 20
303.2721173917519
 30
0.0
 40
2.0
  0
LINE
  5
1063
330
2
100
AcDbEntity
  8
CENTER
100
AcDbLine
 10
150.0707086714912
 20
303.2721173917519
 30
0.0
 11
160.4171188330049
 21
303.2721173917519
 31
0.0
  0
ARC
  5
1064
330
2
100
AcDbEntity
  8
0
100
AcDbCircle
 10
161.243913752248
 20
295.7990293263327
 30
0.0
 40
5.0
100
AcDbArc
 50
135.0000000000069
 51
180.0
  0
LINE
  5
1065
330
2
100
AcDbEntity
  8
0
100
AcDbLine
 10
156.6245160896917
 20
297.7124464881585
 30
0.0
 11
154.7767570246699
 21
298.4778133528887
 31
0.0
  0
LINE
  5
1066
330
2
100
AcDbEntity
  8
0
100
AcDbLine
 10
166.1814679117344
 20
259.7365834858192
 30
0.0
 11
157.7083798463156
 21
268.2096715512382
 31
0.0
  0
LINE
  5
1067
330
2
100
AcDbEntity
  8
0
100
AcDbLine
 10
164.7672543493611
 20
258.3223699234461
 30
0.0
 11
156.2941662839423
 21
266.7954579888649
 31
0.0
  0
LINE
  5
1068
330
2
100
AcDbEntity
  8
CENTER
100
AcDbLine
 10
149.993913752248
 20
257.7721173917519
 30
0.0
 11
161.493913752248
 21
257.7721173917519
 31
0.0
  0
LINE
  5
1069
330
2
100
AcDbEntity
  8
0
100
AcDbLine
 10
167.8035846558416
 20
258.6527197291955
 30
0.0
 11
167.0382177911117
 21
256.804960664173
 31
0.0
  0
ARC
  5
106A
330
2
100
AcDbEntity
  8
0
100
AcDbCircle
 10
169.7170018176668
 20
263.2721173917519
 30
0.0
 40
7.0
100
AcDbArc
 50
224.9999999999928
 51
270.0
  0
ARC
  5
106B
330
2
100
AcDbEntity
  8
0
100
AcDbCircle
 10
169.7170018176668
 20
263.2721173917519
 30
0.0
 40
5.0
100
AcDbArc
 50
224.9999999999928
 51
270.0
  0
ARC
  5
106C
330
2
100
AcDbEntity
  8
0
100
AcDbCircle
 10
161.243913752248
 20
271.7452054571706
 30
0.0
 40
7.0
100
AcDbArc
 50
180.0
 51
224.9999999999928
  0
ARC
  5
106D
330
2
100
AcDbEntity
  8
0
100
AcDbCircle
 10
161.243913752248
 20
271.7452054571709
 30
0.0
 40
5.0
100
AcDbArc
 50
180.0
 51
224.9999999999928
  0
LINE
  5
106E
330
2
100
AcDbEntity
  8
0
100
AcDbLine
 10
156.6245160896917
 20
269.831788295345
 30
0.0
 11
154.7767570246699
 21
269.066421430615
 31
0.0
  0
LINE
  5
106F
330
2
100
AcDbEntity
  8
0
100
AcDbLine
 10
156.743913752248
 20
252.7721173917521
 30
0.0
 11
154.0839137522482
 21
252.7721173917521
 31
0.0
  0
ARC
  5
1070
330
2
100
AcDbEntity
  8
0
100
AcDbCircle
 10
154.0839137522482
 20
255.7721173917519
 30
0.0
 40
3.0
100
AcDbArc
 50
180.0
 51
270.0
  0
LINE
  5
1071
330
2
100
AcDbEntity
  8
CENTER
100
AcDbLine
 10
155.743913752248
 20
252.0221173917519
 30
0.0
 11
155.743913752248
 21
263.5221173917519
 31
0.0
  0
LINE
  5
1072
330
2
100
AcDbEntity
  8
CENTER
100
AcDbLine
 10
155.7439137522462
 20
315.5221173917516
 30
0.0
 11
155.7439137522471
 21
304.0221173917517
 31
0.0
  0
LINE
  5
1073
330
2
100
AcDbEntity
  8
CENTER
100
AcDbLine
 10
148.0870595027524
 20
317.4289716412463
 30
0.0
 11
215.4007680017405
 21
250.1152631422599
 31
0.0
  0
LINE
  5
1074
330
2
100
AcDbEntity
  8
CENTER
100
AcDbLine
 10
248.6763378440839
 20
283.7721173917478
 30
0.0
 11
369.6763378440837
 21
283.7721173917478
 31
0.0
  0
LINE
  5
1075
330
2
100
AcDbEntity
  8
CENTER
100
AcDbLine
 10
309.6763378440876
 20
245.2721173917478
 30
0.0
 11
309.6763378440876
 21
322.272117391748
 31
0.0
  0
LINE
  5
1076
330
2
100
AcDbEntity
  8
0
100
AcDbLine
 10
345.6763378440912
 20
308.7721173917412
 30
0.0
 11
345.6763378440912
 21
258.7721173917412
 31
0.0
  0
LINE
  5
1077
330
2
100
AcDbEntity
  8
0
100
AcDbLine
 10
342.6763378440912
 20
258.7721173917412
 30
0.0
 11
345.6763378440912
 21
258.7721173917412
 31
0.0
  0
LINE
  5
1078
330
2
100
AcDbEntity
  8
0
100
AcDbLine
 10
342.6763378440912
 20
308.7721173917412
 30
0.0
 11
345.6763378440912
 21
308.7721173917412
 31
0.0
  0
LINE
  5
1079
330
2
100
AcDbEntity
  8
HIDS
  6
SEKKEI_H
100
AcDbLine
 10
278.6763378440876
 20
255.7241204881298
 30
0.0
 11
278.6763378440876
 21
260.7721173917478
 31
0.0
  0
LINE
  5
107A
330
2
100
AcDbEntity
  8
HIDS
  6
SEKKEI_H
100
AcDbLine
 10
278.6763378440876
 20
306.7721173917482
 30
0.0
 11
278.6763378440876
 21
311.8201142953658
 31
0.0
  0
LINE
  5
107B
330
2
100
AcDbEntity
  8
0
100
AcDbLine
 10
342.6763378440875
 20
253.2259145168689
 30
0.0
 11
342.6763378440875
 21
314.3183197681644
 31
0.0
  0
LINE
  5
107C
330
2
100
AcDbEntity
  8
0
100
AcDbLine
 10
281.6279570399322
 20
314.8197241529624
 30
0.0
 11
309.6763378440876
 21
315.272117391748
 31
0.0
  0
ARC
  5
107D
330
2
100
AcDbEntity
  8
0
100
AcDbCircle
 10
281.6763378440875
 20
311.8201142953658
 30
0.0
 40
3.0
100
AcDbArc
 50
90.92404535281902
 51
132.7771281045319
  0
ARC
  5
107E
330
2
100
AcDbEntity
  8
HIDS
  6
SEKKEI_H
100
AcDbCircle
 10
281.6763378440875
 20
311.8201142953658
 30
0.0
 40
3.0
100
AcDbArc
 50
132.7771281045319
 51
180.0
  0
LINE
  5
107F
330
2
100
AcDbEntity
  8
0
100
AcDbLine
 10
337.7247186482429
 20
314.8197241529624
 30
0.0
 11
309.6763378440876
 21
315.272117391748
 31
0.0
  0
ARC
  5
1080
330
2
100
AcDbEntity
  8
0
100
AcDbCircle
 10
337.6763378440875
 20
311.8201142953658
 30
0.0
 40
3.0
100
AcDbArc
 50
57.25704406250955
 51
89.07595464718097
  0
LINE
  5
1081
330
2
100
AcDbEntity
  8
0
100
AcDbLine
 10
281.6279570399322
 20
252.7245106305331
 30
0.0
 11
309.6763378440876
 21
252.2721173917476
 31
0.0
  0
LINE
  5
1082
330
2
100
AcDbEntity
  8
0
100
AcDbLine
 10
337.7247186482429
 20
252.7245106305331
 30
0.0
 11
309.6763378440876
 21
252.2721173917476
 31
0.0
  0
ARC
  5
1083
330
2
100
AcDbEntity
  8
HIDS
  6
SEKKEI_H
100
AcDbCircle
 10
281.6763378440875
 20
255.7241204881298
 30
0.0
 40
3.0
100
AcDbArc
 50
180.0
 51
227.2228718954035
  0
ARC
  5
1084
330
2
100
AcDbEntity
  8
0
100
AcDbCircle
 10
281.6763378440875
 20
255.7241204881298
 30
0.0
 40
3.0
100
AcDbArc
 50
227.2228718954035
 51
269.0759546471809
  0
ARC
  5
1085
330
2
100
AcDbEntity
  8
0
100
AcDbCircle
 10
337.6763378440875
 20
255.7241204881295
 30
0.0
 40
3.0
100
AcDbArc
 50
270.9240453527669
 51
302.7429559374902
  0
LINE
  5
1086
330
2
100
AcDbEntity
  8
0
100
AcDbLine
 10
352.6763378440894
 20
263.7034949413589
 30
0.0
 11
352.6763378440894
 21
303.8407398421393
 31
0.0
  0
LINE
  5
1087
330
2
100
AcDbEntity
  8
0
100
AcDbLine
 10
347.6065388506842
 20
305.9491586737711
 30
0.0
 11
350.7461368374945
 21
305.8395214961772
 31
0.0
  0
ARC
  5
1088
330
2
100
AcDbEntity
  8
0
100
AcDbCircle
 10
347.6763378440894
 20
307.947940327809
 30
0.0
 40
2.0
100
AcDbArc
 50
180.0
 51
267.9999999999963
  0
ARC
  5
1089
330
2
100
AcDbEntity
  8
0
100
AcDbCircle
 10
350.6763378440894
 20
303.8407398421393
 30
0.0
 40
2.0
100
AcDbArc
 50
0.0
 51
87.99999999999636
  0
LINE
  5
108A
330
2
100
AcDbEntity
  8
0
100
AcDbLine
 10
347.6065388506606
 20
261.5950761097308
 30
0.0
 11
350.7461368374709
 21
261.704713287322
 31
0.0
  0
ARC
  5
108B
330
2
100
AcDbEntity
  8
0
100
AcDbCircle
 10
347.6763378440639
 20
259.596294455693
 30
0.0
 40
2.0
100
AcDbArc
 50
91.99999999995149
 51
179.9999999999479
  0
ARC
  5
108C
330
2
100
AcDbEntity
  8
0
100
AcDbCircle
 10
350.6763378440684
 20
263.7034949413589
 30
0.0
 40
2.0
100
AcDbArc
 50
271.9999999999515
 51
359.9999999999478
  0
LINE
  5
108D
330
2
100
AcDbEntity
  8
0
100
AcDbLine
 10
290.6763378440839
 20
252.7764808256459
 30
0.0
 11
290.6763378440839
 21
314.7677539578779
 31
0.0
  0
LINE
  5
108E
330
2
100
AcDbEntity
  8
0
100
AcDbLine
 10
290.6763378440839
 20
252.7721173917473
 30
0.0
 11
342.6763378440875
 21
253.2259145168689
 31
0.0
  0
LINE
  5
108F
330
2
100
AcDbEntity
  8
0
100
AcDbLine
 10
290.6762997664238
 20
314.7721172256018
 30
0.0
 11
342.6763378440875
 21
314.3183197681644
 31
0.0
  0
LINE
  5
1090
330
2
100
AcDbEntity
  8
0
100
AcDbLine
 10
341.6763378440875
 20
311.7721173917519
 30
0.0
 11
290.6763378440839
 21
311.7721173917519
 31
0.0
  0
LINE
  5
1091
330
2
100
AcDbEntity
  8
0
100
AcDbLine
 10
341.6763378440875
 20
308.7721173917492
 30
0.0
 11
290.6763378440839
 21
308.7721173917492
 31
0.0
  0
LINE
  5
1092
330
2
100
AcDbEntity
  8
0
100
AcDbLine
 10
341.6763378440875
 20
299.7533521203038
 30
0.0
 11
290.6763378440839
 21
299.7533521203038
 31
0.0
  0
LINE
  5
1093
330
2
100
AcDbEntity
  8
0
100
AcDbLine
 10
341.6763378440875
 20
255.7721173917437
 30
0.0
 11
290.6763378440839
 21
255.7721173917437
 31
0.0
  0
LINE
  5
1094
330
2
100
AcDbEntity
  8
0
100
AcDbLine
 10
341.6763378440875
 20
258.7721173917464
 30
0.0
 11
290.6763378440839
 21
258.7721173917464
 31
0.0
  0
LINE
  5
1095
330
2
100
AcDbEntity
  8
0
100
AcDbLine
 10
341.6763378440875
 20
267.7908826631917
 30
0.0
 11
290.6763378440839
 21
267.7908826631917
 31
0.0
  0
LINE
  5
1096
330
2
100
AcDbEntity
  8
0
100
AcDbLine
 10
273.6763378440839
 20
261.3494676609366
 30
0.0
 11
273.6763378440839
 21
306.1947671225589
 31
0.0
  0
LINE
  5
1097
330
2
100
AcDbEntity
  8
0
100
AcDbLine
 10
281.6763378440794
 20
305.5221173917514
 30
0.0
 11
281.6763378440839
 21
262.0221173917442
 31
0.0
  0
LINE
  5
1098
330
2
100
AcDbEntity
  8
HIDS
  6
SEKKEI_H
100
AcDbLine
 10
282.1763378440839
 20
258.2721173917482
 30
0.0
 11
281.6763378440839
 21
258.7721173917482
 31
0.0
  0
LINE
  5
1099
330
2
100
AcDbEntity
  8
HIDS
  6
SEKKEI_H
100
AcDbLine
 10
278.3763378440837
 20
260.7721173917478
 30
0.0
 11
281.6763378440839
 21
260.7721173917482
 31
0.0
  0
LINE
  5
109A
330
2
100
AcDbEntity
  8
0
100
AcDbLine
 10
274.6763378440839
 20
260.7721173917473
 30
0.0
 11
273.6763378440839
 21
261.3494676609369
 31
0.0
  0
LINE
  5
109B
330
2
100
AcDbEntity
  8
HIDS
  6
SEKKEI_H
100
AcDbLine
 10
278.1763378440839
 20
260.9721173917476
 30
0.0
 11
278.3763378440837
 21
260.7721173917478
 31
0.0
  0
LINE
  5
109C
330
2
100
AcDbEntity
  8
0
100
AcDbLine
 10
274.6763378440839
 20
260.7721173917473
 30
0.0
 11
275.9763378440841
 21
260.7721173917473
 31
0.0
  0
LINE
  5
109D
330
2
100
AcDbEntity
  8
0
100
AcDbLine
 10
276.1763378440839
 20
260.9721173917476
 30
0.0
 11
276.1763378440839
 21
306.5721173917484
 31
0.0
  0
LINE
  5
109E
330
2
100
AcDbEntity
  8
0
100
AcDbLine
 10
276.3763378440837
 20
261.4721173917474
 30
0.0
 11
277.876337844081
 21
261.4721173917476
 31
0.0
  0
LINE
  5
109F
330
2
100
AcDbEntity
  8
0
100
AcDbLine
 10
278.1763378440812
 20
262.0221173917442
 30
0.0
 11
278.1763378440812
 21
305.5221173917514
 31
0.0
  0
LINE
  5
10A0
330
2
100
AcDbEntity
  8
0
100
AcDbLine
 10
290.6762997664238
 20
314.7721172256018
 30
0.0
 11
285.1765091895679
 21
314.7241212803608
 31
0.0
  0
LINE
  5
10A1
330
2
100
AcDbEntity
  8
HIDS
  6
SEKKEI_H
100
AcDbLine
 10
278.3763378440837
 20
306.7721173917482
 30
0.0
 11
281.6763378440839
 21
306.7721173917478
 31
0.0
  0
LINE
  5
10A2
330
2
100
AcDbEntity
  8
0
100
AcDbLine
 10
276.3763378440837
 20
306.0721173917484
 30
0.0
 11
277.876337844081
 21
306.0721173917482
 31
0.0
  0
LINE
  5
10A3
330
2
100
AcDbEntity
  8
HIDS
  6
SEKKEI_H
100
AcDbLine
 10
278.1763378440839
 20
306.572117391748
 30
0.0
 11
278.3763378440837
 21
306.7721173917482
 31
0.0
  0
LINE
  5
10A4
330
2
100
AcDbEntity
  8
0
100
AcDbLine
 10
274.6763378440839
 20
306.7721173917487
 30
0.0
 11
273.6763378440839
 21
306.1947671225591
 31
0.0
  0
LINE
  5
10A5
330
2
100
AcDbEntity
  8
0
100
AcDbLine
 10
274.6763378440839
 20
306.7721173917487
 30
0.0
 11
275.9763378440841
 21
306.7721173917482
 31
0.0
  0
LINE
  5
10A6
330
2
100
AcDbEntity
  8
HIDS
  6
SEKKEI_H
100
AcDbLine
 10
283.5905514064508
 20
310.6863309541134
 30
0.0
 11
281.6763378440784
 21
308.7721173917419
 31
0.0
  0
LINE
  5
10A7
330
2
100
AcDbEntity
  8
0
100
AcDbLine
 10
284.1763378440457
 20
253.5221173917441
 30
0.0
 11
284.1763378440784
 21
314.0221173917514
 31
0.0
  0
ARC
  5
10A8
330
2
100
AcDbEntity
  8
0
100
AcDbCircle
 10
285.1763378440793
 20
313.7240817066656
 30
0.0
 40
1.0
100
AcDbArc
 50
90.50000000001761
 51
179.9999999999674
  0
LINE
  5
10A9
330
2
100
AcDbEntity
  8
0
100
AcDbLine
 10
290.6763378440839
 20
314.7721173917478
 30
0.0
 11
290.6763378440839
 21
252.7721173917473
 31
0.0
  0
ARC
  5
10AA
330
2
100
AcDbEntity
  8
HIDS
  6
SEKKEI_H
100
AcDbCircle
 10
282.1763378440784
 20
312.1005445164867
 30
0.0
 40
2.0
100
AcDbArc
 50
315.0000000000071
 51
359.9999999999674
  0
ARC
  5
10AB
330
2
100
AcDbEntity
  8
0
100
AcDbCircle
 10
275.9763378440841
 20
306.5721173917484
 30
0.0
 40
0.2
100
AcDbArc
 50
0.0
 51
90.0
  0
ARC
  5
10AC
330
2
100
AcDbEntity
  8
0
100
AcDbCircle
 10
276.3763378440837
 20
306.2721173917485
 30
0.0
 40
0.2
100
AcDbArc
 50
180.0
 51
270.0
  0
ARC
  5
10AD
330
2
100
AcDbEntity
  8
HIDS
  6
SEKKEI_H
100
AcDbCircle
 10
277.9763378440841
 20
306.2721173917482
 30
0.0
 40
0.2
100
AcDbArc
 50
270.0
 51
0.0
  0
ARC
  5
10AE
330
2
100
AcDbEntity
  8
0
100
AcDbCircle
 10
275.9763378440841
 20
260.9721173917476
 30
0.0
 40
0.2
100
AcDbArc
 50
270.0
 51
0.0
  0
ARC
  5
10AF
330
2
100
AcDbEntity
  8
0
100
AcDbCircle
 10
276.3763378440837
 20
261.2721173917473
 30
0.0
 40
0.2
100
AcDbArc
 50
90.0
 51
180.0
  0
ARC
  5
10B0
330
2
100
AcDbEntity
  8
HIDS
  6
SEKKEI_H
100
AcDbCircle
 10
277.9763378440841
 20
261.2721173917476
 30
0.0
 40
0.2
100
AcDbArc
 50
0.0
 51
90.0
  0
LINE
  5
10B1
330
2
100
AcDbEntity
  8
0
100
AcDbLine
 10
290.6763378440839
 20
252.7721173917473
 30
0.0
 11
285.1676113085479
 21
252.8201913199184
 31
0.0
  0
ARC
  5
10B2
330
2
100
AcDbEntity
  8
0
100
AcDbCircle
 10
285.1763378440457
 20
253.8201532429828
 30
0.0
 40
1.0
100
AcDbArc
 50
179.9999999999674
 51
269.4999999999824
  0
LINE
  5
10B3
330
2
100
AcDbEntity
  8
HIDS
  6
SEKKEI_H
100
AcDbLine
 10
283.5905514064508
 20
256.8579038293822
 30
0.0
 11
281.6763378440839
 21
258.7721173917478
 31
0.0
  0
ARC
  5
10B4
330
2
100
AcDbEntity
  8
HIDS
  6
SEKKEI_H
100
AcDbCircle
 10
282.1763378440784
 20
255.4436902670088
 30
0.0
 40
2.0
100
AcDbArc
 50
0.0000000000390827
 51
44.99999999999309
  0
LINE
  5
10B5
330
2
100
AcDbEntity
  8
0
100
AcDbLine
 10
278.3763378440837
 20
305.5221173917514
 30
0.0
 11
278.3763378440837
 21
262.0221173917442
 31
0.0
  0
LINE
  5
10B6
330
2
100
AcDbEntity
  8
0
100
AcDbLine
 10
274.6763378440839
 20
260.7721173917473
 30
0.0
 11
274.6763378440839
 21
306.7721173917487
 31
0.0
  0
LINE
  5
10B7
330
2
100
AcDbEntity
  8
0
100
AcDbLine
 10
290.6763378440839
 20
311.7721173917519
 30
0.0
 11
285.1763378440812
 21
311.7721173917519
 31
0.0
  0
LINE
  5
10B8
330
2
100
AcDbEntity
  8
0
100
AcDbLine
 10
290.6763378440839
 20
308.7721173917492
 30
0.0
 11
285.1763378440812
 21
308.7721173917492
 31
0.0
  0
LINE
  5
10B9
330
2
100
AcDbEntity
  8
0
100
AcDbLine
 10
290.6763378440839
 20
299.7533521203038
 30
0.0
 11
285.1763378440812
 21
299.7533521203038
 31
0.0
  0
LINE
  5
10BA
330
2
100
AcDbEntity
  8
0
100
AcDbLine
 10
290.6763378440839
 20
255.7721173917437
 30
0.0
 11
285.1763378440812
 21
255.7721173917437
 31
0.0
  0
LINE
  5
10BB
330
2
100
AcDbEntity
  8
0
100
AcDbLine
 10
290.6763378440839
 20
258.7721173917464
 30
0.0
 11
285.1763378440812
 21
258.7721173917464
 31
0.0
  0
LINE
  5
10BC
330
2
100
AcDbEntity
  8
0
100
AcDbLine
 10
290.6763378440839
 20
267.7908826631917
 30
0.0
 11
285.1763378440812
 21
267.7908826631917
 31
0.0
  0
LINE
  5
10BD
330
2
100
AcDbEntity
  8
0
100
AcDbLine
 10
157.743913752249
 20
308.6174168533724
 30
0.0
 11
155.743913752249
 21
307.4627163149933
 31
0.0
  0
CIRCLE
  5
10BE
330
2
100
AcDbEntity
  8
0
100
AcDbCircle
 10
155.743913752249
 20
309.7721173917514
 30
0.0
 40
4.250000000000085
  0
CIRCLE
  5
10BF
330
2
100
AcDbEntity
  8
0
100
AcDbCircle
 10
155.743913752249
 20
309.7721173917514
 30
0.0
 40
3.730384757729268
  0
LINE
  5
10C0
330
2
100
AcDbEntity
  8
0
100
AcDbLine
 10
155.743913752248
 20
312.08151846851
 30
0.0
 11
157.743913752249
 21
310.9268179301309
 31
0.0
  0
LINE
  5
10C1
330
2
100
AcDbEntity
  8
0
100
AcDbLine
 10
153.743913752249
 20
310.9268179301309
 30
0.0
 11
153.743913752249
 21
308.6174168533724
 31
0.0
  0
LINE
  5
10C2
330
2
100
AcDbEntity
  8
0
100
AcDbLine
 10
153.743913752249
 20
308.6174168533724
 30
0.0
 11
155.743913752248
 21
307.4627163149933
 31
0.0
  0
LINE
  5
10C3
330
2
100
AcDbEntity
  8
0
100
AcDbLine
 10
155.743913752248
 20
312.08151846851
 30
0.0
 11
153.743913752249
 21
310.9268179301309
 31
0.0
  0
LINE
  5
10C4
330
2
100
AcDbEntity
  8
0
100
AcDbLine
 10
157.743913752249
 20
310.9268179301309
 30
0.0
 11
157.743913752249
 21
308.6174168533724
 31
0.0
  0
LINE
  5
10C5
330
2
100
AcDbEntity
  8
0
100
AcDbLine
 10
209.7439137522481
 20
308.6174168533724
 30
0.0
 11
207.743913752248
 21
307.4627163149933
 31
0.0
  0
CIRCLE
  5
10C6
330
2
100
AcDbEntity
  8
0
100
AcDbCircle
 10
207.743913752248
 20
309.7721173917514
 30
0.0
 40
4.250000000000085
  0
CIRCLE
  5
10C7
330
2
100
AcDbEntity
  8
0
100
AcDbCircle
 10
207.743913752248
 20
309.7721173917514
 30
0.0
 40
3.730384757729268
  0
LINE
  5
10C8
330
2
100
AcDbEntity
  8
0
100
AcDbLine
 10
207.743913752248
 20
312.08151846851
 30
0.0
 11
209.7439137522481
 21
310.9268179301309
 31
0.0
  0
LINE
  5
10C9
330
2
100
AcDbEntity
  8
0
100
AcDbLine
 10
205.743913752248
 20
310.9268179301309
 30
0.0
 11
205.743913752248
 21
308.6174168533724
 31
0.0
  0
LINE
  5
10CA
330
2
100
AcDbEntity
  8
0
100
AcDbLine
 10
205.743913752248
 20
308.6174168533724
 30
0.0
 11
207.743913752248
 21
307.4627163149933
 31
0.0
  0
LINE
  5
10CB
330
2
100
AcDbEntity
  8
0
100
AcDbLine
 10
207.743913752248
 20
312.08151846851
 30
0.0
 11
205.743913752248
 21
310.9268179301309
 31
0.0
  0
LINE
  5
10CC
330
2
100
AcDbEntity
  8
0
100
AcDbLine
 10
209.7439137522481
 20
310.9268179301309
 30
0.0
 11
209.7439137522481
 21
308.6174168533724
 31
0.0
  0
LINE
  5
10CD
330
2
100
AcDbEntity
  8
0
100
AcDbLine
 10
157.743913752249
 20
258.9268179301314
 30
0.0
 11
155.743913752249
 21
260.0815184685105
 31
0.0
  0
CIRCLE
  5
10CE
330
2
100
AcDbEntity
  8
0
100
AcDbCircle
 10
155.743913752249
 20
257.7721173917523
 30
0.0
 40
4.250000000000085
  0
CIRCLE
  5
10CF
330
2
100
AcDbEntity
  8
0
100
AcDbCircle
 10
155.743913752249
 20
257.7721173917523
 30
0.0
 40
3.730384757729268
  0
LINE
  5
10D0
330
2
100
AcDbEntity
  8
0
100
AcDbLine
 10
155.743913752248
 20
255.4627163149937
 30
0.0
 11
157.743913752249
 21
256.6174168533728
 31
0.0
  0
LINE
  5
10D1
330
2
100
AcDbEntity
  8
0
100
AcDbLine
 10
153.743913752249
 20
256.6174168533728
 30
0.0
 11
153.743913752249
 21
258.9268179301314
 31
0.0
  0
LINE
  5
10D2
330
2
100
AcDbEntity
  8
0
100
AcDbLine
 10
153.743913752249
 20
258.9268179301314
 30
0.0
 11
155.743913752248
 21
260.0815184685105
 31
0.0
  0
LINE
  5
10D3
330
2
100
AcDbEntity
  8
0
100
AcDbLine
 10
155.743913752248
 20
255.4627163149937
 30
0.0
 11
153.743913752249
 21
256.6174168533728
 31
0.0
  0
LINE
  5
10D4
330
2
100
AcDbEntity
  8
0
100
AcDbLine
 10
157.743913752249
 20
256.6174168533728
 30
0.0
 11
157.743913752249
 21
258.9268179301314
 31
0.0
  0
LINE
  5
10D5
330
2
100
AcDbEntity
  8
0
100
AcDbLine
 10
209.7439137522481
 20
258.9268179301314
 30
0.0
 11
207.743913752248
 21
260.0815184685105
 31
0.0
  0
CIRCLE
  5
10D6
330
2
100
AcDbEntity
  8
0
100
AcDbCircle
 10
207.743913752248
 20
257.7721173917523
 30
0.0
 40
4.250000000000085
  0
CIRCLE
  5
10D7
330
2
100
AcDbEntity
  8
0
100
AcDbCircle
 10
207.743913752248
 20
257.7721173917523
 30
0.0
 40
3.730384757729268
  0
LINE
  5
10D8
330
2
100
AcDbEntity
  8
0
100
AcDbLine
 10
207.743913752248
 20
255.4627163149937
 30
0.0
 11
209.7439137522481
 21
256.6174168533728
 31
0.0
  0
LINE
  5
10D9
330
2
100
AcDbEntity
  8
0
100
AcDbLine
 10
205.743913752248
 20
256.6174168533728
 30
0.0
 11
205.743913752248
 21
258.9268179301314
 31
0.0
  0
LINE
  5
10DA
330
2
100
AcDbEntity
  8
0
100
AcDbLine
 10
205.743913752248
 20
258.9268179301314
 30
0.0
 11
207.743913752248
 21
260.0815184685105
 31
0.0
  0
LINE
  5
10DB
330
2
100
AcDbEntity
  8
0
100
AcDbLine
 10
207.743913752248
 20
255.4627163149937
 30
0.0
 11
205.743913752248
 21
256.6174168533728
 31
0.0
  0
LINE
  5
10DC
330
2
100
AcDbEntity
  8
0
100
AcDbLine
 10
209.7439137522481
 20
256.6174168533728
 30
0.0
 11
209.7439137522481
 21
258.9268179301314
 31
0.0
  0
LINE
  5
10DD
330
2
100
AcDbEntity
  8
CENTER
  6
CENS
100
AcDbLine
 10
295.8742923207685
 20
309.7721173917514
 30
0.0
 11
274.876337844081
 21
309.7721173917514
 31
0.0
  0
LINE
  5
10DE
330
2
100
AcDbEntity
  8
0
100
AcDbLine
 10
278.1763378440812
 20
314.0221173917514
 30
0.0
 11
284.1763378440784
 21
314.0221173917514
 31
0.0
  0
LINE
  5
10DF
330
2
100
AcDbEntity
  8
0
100
AcDbLine
 10
278.1763378440812
 20
305.5221173917514
 30
0.0
 11
284.1763378440812
 21
305.5221173917514
 31
0.0
  0
LINE
  5
10E0
330
2
100
AcDbEntity
  8
0
100
AcDbLine
 10
282.876337844081
 20
305.5221173917514
 30
0.0
 11
282.876337844081
 21
314.0221173917514
 31
0.0
  0
LINE
  5
10E1
330
2
100
AcDbEntity
  8
0
100
AcDbLine
 10
278.1763378440812
 20
305.5221173917514
 30
0.0
 11
278.1763378440812
 21
314.0221173917514
 31
0.0
  0
LINE
  5
10E2
330
2
100
AcDbEntity
  8
0
100
AcDbLine
 10
278.1763378440812
 20
305.5221173917514
 30
0.0
 11
277.876337844081
 21
306.0417326340219
 31
0.0
  0
LINE
  5
10E3
330
2
100
AcDbEntity
  8
0
100
AcDbLine
 10
278.1763378440812
 20
314.0221173917514
 30
0.0
 11
277.876337844081
 21
313.5025021494805
 31
0.0
  0
LINE
  5
10E4
330
2
100
AcDbEntity
  8
0
100
AcDbLine
 10
277.876337844081
 20
306.0417326340219
 30
0.0
 11
277.876337844081
 21
313.5025021494805
 31
0.0
  0
LINE
  5
10E5
330
2
100
AcDbEntity
  8
HIDS
  6
SEKKEI_H
100
AcDbLine
 10
281.6763378440784
 20
308.7721173917419
 30
0.0
 11
281.6763378440794
 21
305.5221173917514
 31
0.0
  0
LINE
  5
10E6
330
2
100
AcDbEntity
  8
HIDS
  6
SEKKEI_H
100
AcDbLine
 10
278.3763378440837
 20
306.7721173917482
 30
0.0
 11
278.3763378440837
 21
305.5221173917514
 31
0.0
  0
LINE
  5
10E7
330
2
100
AcDbEntity
  8
HIDS
  6
SEKKEI_H
100
AcDbLine
 10
277.876337844081
 20
306.0721173917482
 30
0.0
 11
277.9763378440841
 21
306.0721173917479
 31
0.0
  0
LINE
  5
10E8
330
2
100
AcDbEntity
  8
CENTER
  6
CENS
100
AcDbLine
 10
295.8742923207685
 20
257.7721173917442
 30
0.0
 11
274.876337844081
 21
257.7721173917442
 31
0.0
  0
LINE
  5
10E9
330
2
100
AcDbEntity
  8
0
100
AcDbLine
 10
278.1763378440812
 20
253.5221173917441
 30
0.0
 11
284.1763378440457
 21
253.5221173917441
 31
0.0
  0
LINE
  5
10EA
330
2
100
AcDbEntity
  8
0
100
AcDbLine
 10
278.1763378440812
 20
262.0221173917442
 30
0.0
 11
284.1763378440812
 21
262.0221173917442
 31
0.0
  0
LINE
  5
10EB
330
2
100
AcDbEntity
  8
0
100
AcDbLine
 10
282.876337844081
 20
262.0221173917442
 30
0.0
 11
282.876337844081
 21
253.5221173917441
 31
0.0
  0
LINE
  5
10EC
330
2
100
AcDbEntity
  8
0
100
AcDbLine
 10
278.1763378440812
 20
262.0221173917442
 30
0.0
 11
278.1763378440812
 21
253.5221173917441
 31
0.0
  0
LINE
  5
10ED
330
2
100
AcDbEntity
  8
0
100
AcDbLine
 10
278.1763378440812
 20
262.0221173917442
 30
0.0
 11
277.876337844081
 21
261.5025021494737
 31
0.0
  0
LINE
  5
10EE
330
2
100
AcDbEntity
  8
0
100
AcDbLine
 10
278.1763378440812
 20
253.5221173917441
 30
0.0
 11
277.876337844081
 21
254.0417326340151
 31
0.0
  0
LINE
  5
10EF
330
2
100
AcDbEntity
  8
0
100
AcDbLine
 10
277.876337844081
 20
261.5025021494737
 30
0.0
 11
277.876337844081
 21
254.0417326340151
 31
0.0
  0
LINE
  5
10F0
330
2
100
AcDbEntity
  8
HIDS
  6
SEKKEI_H
100
AcDbLine
 10
281.6763378440839
 20
262.0221173917442
 30
0.0
 11
281.6763378440839
 21
258.7721173917482
 31
0.0
  0
LINE
  5
10F1
330
2
100
AcDbEntity
  8
HIDS
  6
SEKKEI_H
100
AcDbLine
 10
277.876337844081
 20
261.4721173917476
 30
0.0
 11
277.9763378440841
 21
261.4721173917476
 31
0.0
  0
LINE
  5
10F2
330
2
100
AcDbEntity
  8
0
100
AcDbLine
 10
423.8712674249947
 20
494.8495876798101
 30
0.0
 11
485.5310935030732
 21
494.8495876798101
 31
0.0
  0
LINE
  5
10F3
330
2
100
AcDbEntity
  8
0
100
AcDbLine
 10
432.4442542602858
 20
511.8495876798109
 30
0.0
 11
477.2895537219085
 21
511.8495876798109
 31
0.0
  0
LINE
  5
10F4
330
2
100
AcDbEntity
  8
0
100
AcDbLine
 10
476.6169039911003
 20
503.8495876798154
 30
0.0
 11
433.116903991093
 21
503.8495876798107
 31
0.0
  0
LINE
  5
10F5
330
2
100
AcDbEntity
  8
HIDS
  6
SEKKEI_H
100
AcDbLine
 10
429.3669039910976
 20
503.3495876798101
 30
0.0
 11
429.8669039910976
 21
503.8495876798101
 31
0.0
  0
LINE
  5
10F6
330
2
100
AcDbEntity
  8
HIDS
  6
SEKKEI_H
100
AcDbLine
 10
431.8669039910966
 20
507.1495876798106
 30
0.0
 11
431.8669039910976
 21
503.8495876798104
 31
0.0
  0
LINE
  5
10F7
330
2
100
AcDbEntity
  8
0
100
AcDbLine
 10
431.8669039910966
 20
510.8495876798104
 30
0.0
 11
432.4442542602866
 21
511.8495876798109
 31
0.0
  0
LINE
  5
10F8
330
2
100
AcDbEntity
  8
HIDS
  6
SEKKEI_H
100
AcDbLine
 10
432.0669039910974
 20
507.3495876798106
 30
0.0
 11
431.8669039910966
 21
507.1495876798106
 31
0.0
  0
LINE
  5
10F9
330
2
100
AcDbEntity
  8
0
100
AcDbLine
 10
431.8669039910966
 20
510.8495876798109
 30
0.0
 11
431.8669039910966
 21
509.5495876798104
 31
0.0
  0
LINE
  5
10FA
330
2
100
AcDbEntity
  8
0
100
AcDbLine
 10
432.0669039910974
 20
509.3495876798106
 30
0.0
 11
477.6669039910977
 21
509.3495876798106
 31
0.0
  0
LINE
  5
10FB
330
2
100
AcDbEntity
  8
0
100
AcDbLine
 10
432.5669039910965
 20
509.1495876798108
 30
0.0
 11
432.5669039910974
 21
507.6495876798135
 31
0.0
  0
LINE
  5
10FC
330
2
100
AcDbEntity
  8
0
100
AcDbLine
 10
433.116903991093
 20
507.3495876798133
 30
0.0
 11
476.6169039911003
 21
507.3495876798133
 31
0.0
  0
LINE
  5
10FD
330
2
100
AcDbEntity
  8
HIDS
  6
SEKKEI_H
100
AcDbLine
 10
477.8669039910976
 20
507.1495876798106
 30
0.0
 11
477.8669039910966
 21
503.8495876798104
 31
0.0
  0
LINE
  5
10FE
330
2
100
AcDbEntity
  8
0
100
AcDbLine
 10
477.1669039910977
 20
509.1495876798106
 30
0.0
 11
477.1669039910977
 21
507.6495876798135
 31
0.0
  0
LINE
  5
10FF
330
2
100
AcDbEntity
  8
HIDS
  6
SEKKEI_H
100
AcDbLine
 10
477.6669039910977
 20
507.3495876798106
 30
0.0
 11
477.8669039910976
 21
507.1495876798106
 31
0.0
  0
LINE
  5
1100
330
2
100
AcDbEntity
  8
0
100
AcDbLine
 10
477.8669039910985
 20
510.8495876798104
 30
0.0
 11
477.2895537219085
 21
511.8495876798109
 31
0.0
  0
LINE
  5
1101
330
2
100
AcDbEntity
  8
0
100
AcDbLine
 10
477.8669039910985
 20
510.8495876798109
 30
0.0
 11
477.8669039910976
 21
509.5495876798104
 31
0.0
  0
LINE
  5
1102
330
2
100
AcDbEntity
  8
HIDS
  6
SEKKEI_H
100
AcDbLine
 10
481.7811175534627
 20
501.9353741174437
 30
0.0
 11
479.8669039910912
 21
503.8495876798158
 31
0.0
  0
LINE
  5
1103
330
2
100
AcDbEntity
  8
0
100
AcDbLine
 10
424.616903991093
 20
501.3495876798486
 30
0.0
 11
485.1169039911003
 21
501.3495876798154
 31
0.0
  0
ARC
  5
1104
330
2
100
AcDbEntity
  8
0
100
AcDbCircle
 10
484.4788681398616
 20
500.3495876798156
 30
0.0
 40
1.0
100
AcDbArc
 50
0.500000000001317
 51
89.99999999994789
  0
ARC
  5
1105
330
2
100
AcDbEntity
  8
0
100
AcDbCircle
 10
424.9149398438659
 20
500.3495876798481
 30
0.0
 40
1.0
100
AcDbArc
 50
89.99999999994789
 51
179.4999999999987
  0
LINE
  5
1106
330
2
100
AcDbEntity
  8
0
100
AcDbLine
 10
485.5310935030732
 20
494.8495876798101
 30
0.0
 11
423.8669039910966
 21
494.8495876798101
 31
0.0
  0
ARC
  5
1107
330
2
100
AcDbEntity
  8
HIDS
  6
SEKKEI_H
100
AcDbCircle
 10
483.195331115836
 20
503.3495876798165
 30
0.0
 40
2.0
100
AcDbArc
 50
224.9999999999905
 51
269.9999999999478
  0
ARC
  5
1108
330
2
100
AcDbEntity
  8
0
100
AcDbCircle
 10
477.6669039910977
 20
509.5495876798107
 30
0.0
 40
0.2
100
AcDbArc
 50
270.0
 51
359.9999999999869
  0
ARC
  5
1109
330
2
100
AcDbEntity
  8
0
100
AcDbCircle
 10
477.3669039910976
 20
509.1495876798106
 30
0.0
 40
0.2
100
AcDbArc
 50
90.0
 51
179.9999999999869
  0
ARC
  5
110A
330
2
100
AcDbEntity
  8
HIDS
  6
SEKKEI_H
100
AcDbCircle
 10
477.3669039910976
 20
507.5495876798107
 30
0.0
 40
0.2
100
AcDbArc
 50
179.9999999999869
 51
270.0
  0
ARC
  5
110B
330
2
100
AcDbEntity
  8
0
100
AcDbCircle
 10
432.0669039910974
 20
509.5495876798107
 30
0.0
 40
0.2
100
AcDbArc
 50
180.000000000013
 51
270.0
  0
ARC
  5
110C
330
2
100
AcDbEntity
  8
0
100
AcDbCircle
 10
432.3669039910966
 20
509.1495876798106
 30
0.0
 40
0.2
100
AcDbArc
 50
0.0
 51
90.0
  0
ARC
  5
110D
330
2
100
AcDbEntity
  8
HIDS
  6
SEKKEI_H
100
AcDbCircle
 10
432.3669039910966
 20
507.5495876798107
 30
0.0
 40
0.2
100
AcDbArc
 50
270.0
 51
0.0000000000130276
  0
LINE
  5
110E
330
2
100
AcDbEntity
  8
0
100
AcDbLine
 10
423.866903992631
 20
494.8495876798036
 30
0.0
 11
423.9148999378723
 21
500.3493782566596
 31
0.0
  0
LINE
  5
110F
330
2
100
AcDbEntity
  8
HIDS
  6
SEKKEI_H
100
AcDbLine
 10
427.9526904287315
 20
501.9353741174437
 30
0.0
 11
429.8669039910967
 21
503.8495876798101
 31
0.0
  0
ARC
  5
1110
330
2
100
AcDbEntity
  8
HIDS
  6
SEKKEI_H
100
AcDbCircle
 10
426.5384768663582
 20
503.3495876798165
 30
0.0
 40
2.0
100
AcDbArc
 50
270.0000000000521
 51
315.0000000000094
  0
LINE
  5
1111
330
2
100
AcDbEntity
  8
0
100
AcDbLine
 10
476.6169039911003
 20
507.1495876798106
 30
0.0
 11
433.116903991093
 21
507.1495876798106
 31
0.0
  0
LINE
  5
1112
330
2
100
AcDbEntity
  8
0
100
AcDbLine
 10
431.8669039910966
 20
510.8495876798104
 30
0.0
 11
477.8669039910985
 21
510.8495876798104
 31
0.0
  0
LINE
  5
1113
330
2
100
AcDbEntity
  8
0
100
AcDbLine
 10
482.8669039911012
 20
494.8495876798101
 30
0.0
 11
482.8669039911012
 21
500.3495876798136
 31
0.0
  0
LINE
  5
1114
330
2
100
AcDbEntity
  8
0
100
AcDbLine
 10
479.8669039910985
 20
494.8495876798101
 30
0.0
 11
479.8669039910985
 21
500.3495876798136
 31
0.0
  0
LINE
  5
1115
330
2
100
AcDbEntity
  8
0
100
AcDbLine
 10
470.8481387196536
 20
494.8495876798101
 30
0.0
 11
470.8481387196536
 21
500.3495876798136
 31
0.0
  0
LINE
  5
1116
330
2
100
AcDbEntity
  8
0
100
AcDbLine
 10
426.866903991093
 20
494.8495876798101
 30
0.0
 11
426.866903991093
 21
500.3495876798136
 31
0.0
  0
LINE
  5
1117
330
2
100
AcDbEntity
  8
0
100
AcDbLine
 10
429.8669039910958
 20
494.8495876798101
 30
0.0
 11
429.8669039910958
 21
500.3495876798136
 31
0.0
  0
LINE
  5
1118
330
2
100
AcDbEntity
  8
0
100
AcDbLine
 10
438.8856692625416
 20
494.8495876798101
 30
0.0
 11
438.8856692625416
 21
500.3495876798136
 31
0.0
  0
LINE
  5
1119
330
2
100
AcDbEntity
  8
0
100
AcDbLine
 10
485.1169039911003
 20
507.3495876798133
 30
0.0
 11
485.1169039911003
 21
501.3495876798154
 31
0.0
  0
LINE
  5
111A
330
2
100
AcDbEntity
  8
0
100
AcDbLine
 10
476.6169039911003
 20
507.3495876798133
 30
0.0
 11
476.6169039911003
 21
501.3495876798136
 31
0.0
  0
LINE
  5
111B
330
2
100
AcDbEntity
  8
0
100
AcDbLine
 10
476.6169039911003
 20
502.6495876798136
 30
0.0
 11
485.1169039911003
 21
502.6495876798136
 31
0.0
  0
LINE
  5
111C
330
2
100
AcDbEntity
  8
0
100
AcDbLine
 10
476.6169039911003
 20
507.3495876798133
 30
0.0
 11
485.1169039911003
 21
507.3495876798133
 31
0.0
  0
LINE
  5
111D
330
2
100
AcDbEntity
  8
0
100
AcDbLine
 10
476.6169039911003
 20
507.3495876798133
 30
0.0
 11
477.1365192333708
 21
507.6495876798135
 31
0.0
  0
LINE
  5
111E
330
2
100
AcDbEntity
  8
0
100
AcDbLine
 10
485.1169039911003
 20
507.3495876798133
 30
0.0
 11
484.5972887488299
 21
507.6495876798135
 31
0.0
  0
LINE
  5
111F
330
2
100
AcDbEntity
  8
0
100
AcDbLine
 10
477.1365192333708
 20
507.6495876798135
 30
0.0
 11
484.5972887488299
 21
507.6495876798135
 31
0.0
  0
LINE
  5
1120
330
2
100
AcDbEntity
  8
HIDS
  6
SEKKEI_H
100
AcDbLine
 10
479.8669039910912
 20
503.8495876798158
 30
0.0
 11
476.6169039911003
 21
503.8495876798154
 31
0.0
  0
LINE
  5
1121
330
2
100
AcDbEntity
  8
HIDS
  6
SEKKEI_H
100
AcDbLine
 10
477.8669039910976
 20
507.1495876798106
 30
0.0
 11
476.6169039911003
 21
507.1495876798106
 31
0.0
  0
LINE
  5
1122
330
2
100
AcDbEntity
  8
HIDS
  6
SEKKEI_H
100
AcDbLine
 10
477.1669039910977
 20
507.6495876798135
 30
0.0
 11
477.1669039910977
 21
507.5495876798107
 31
0.0
  0
LINE
  5
1123
330
2
100
AcDbEntity
  8
0
100
AcDbLine
 10
424.616903991093
 20
507.3495876798133
 30
0.0
 11
424.616903991093
 21
501.3495876798486
 31
0.0
  0
LINE
  5
1124
330
2
100
AcDbEntity
  8
0
100
AcDbLine
 10
433.116903991093
 20
507.3495876798133
 30
0.0
 11
433.116903991093
 21
501.3495876798136
 31
0.0
  0
LINE
  5
1125
330
2
100
AcDbEntity
  8
0
100
AcDbLine
 10
433.116903991093
 20
502.6495876798136
 30
0.0
 11
424.616903991093
 21
502.6495876798136
 31
0.0
  0
LINE
  5
1126
330
2
100
AcDbEntity
  8
0
100
AcDbLine
 10
433.116903991093
 20
507.3495876798133
 30
0.0
 11
424.616903991093
 21
507.3495876798133
 31
0.0
  0
LINE
  5
1127
330
2
100
AcDbEntity
  8
0
100
AcDbLine
 10
433.116903991093
 20
507.3495876798133
 30
0.0
 11
432.5972887488226
 21
507.6495876798135
 31
0.0
  0
LINE
  5
1128
330
2
100
AcDbEntity
  8
0
100
AcDbLine
 10
424.616903991093
 20
507.3495876798133
 30
0.0
 11
425.1365192333643
 21
507.6495876798135
 31
0.0
  0
LINE
  5
1129
330
2
100
AcDbEntity
  8
0
100
AcDbLine
 10
432.5972887488226
 20
507.6495876798135
 30
0.0
 11
425.1365192333643
 21
507.6495876798135
 31
0.0
  0
LINE
  5
112A
330
2
100
AcDbEntity
  8
HIDS
  6
SEKKEI_H
100
AcDbLine
 10
433.116903991093
 20
503.8495876798107
 30
0.0
 11
429.8669039910976
 21
503.8495876798101
 31
0.0
  0
LINE
  5
112B
330
2
100
AcDbEntity
  8
HIDS
  6
SEKKEI_H
100
AcDbLine
 10
432.5669039910974
 20
507.6495876798135
 30
0.0
 11
432.5669039910974
 21
507.5495876798107
 31
0.0
  0
LINE
  5
112C
330
2
100
AcDbEntity
  8
CENTER
  6
CENS
100
AcDbLine
 10
480.8669039911003
 20
489.6516332031281
 30
0.0
 11
480.8669039911003
 21
510.649587679816
 31
0.0
  0
LINE
  5
112D
330
2
100
AcDbEntity
  8
CENTER
  6
CENS
100
AcDbLine
 10
428.8669039910931
 20
489.6516332031281
 30
0.0
 11
428.8669039910931
 21
510.649587679816
 31
0.0
  0
LINE
  5
112E
330
2
100
AcDbEntity
  8
0
100
AcDbLine
 10
485.4788300629259
 20
500.3583142153138
 30
0.0
 11
485.5269039910965
 21
494.84958767981
 31
0.0
  0
LINE
  5
112F
330
2
100
AcDbEntity
  8
CENTER
100
AcDbLine
 10
284.6763378440839
 20
123.5056328791438
 30
0.0
 11
389.6763378440839
 21
123.5056328791441
 31
0.0
  0
LINE
  5
1130
330
2
100
AcDbEntity
  8
CENTER
100
AcDbLine
 10
329.6763378440875
 20
85.00563287914401
 30
0.0
 11
329.6763378440875
 21
162.0056328791443
 31
0.0
  0
LINE
  5
1131
330
2
100
AcDbEntity
  8
0
100
AcDbLine
 10
365.6763378440912
 20
148.5056328791375
 30
0.0
 11
365.6763378440912
 21
142.8767309535949
 31
0.0
  0
LINE
  5
1132
330
2
100
AcDbEntity
  8
0
100
AcDbLine
 10
365.6763378440912
 20
104.1345348046932
 30
0.0
 11
365.6763378440912
 21
98.50563287913752
 31
0.0
  0
LINE
  5
1133
330
2
100
AcDbEntity
  8
0
100
AcDbLine
 10
362.6763378440912
 20
98.50563287913752
 30
0.0
 11
365.6763378440912
 21
98.50563287913752
 31
0.0
  0
LINE
  5
1134
330
2
100
AcDbEntity
  8
0
100
AcDbLine
 10
362.6763378440912
 20
148.5056328791375
 30
0.0
 11
365.6763378440912
 21
148.5056328791375
 31
0.0
  0
LINE
  5
1135
330
2
100
AcDbEntity
  8
0
100
AcDbLine
 10
362.6763378440875
 20
92.95943000426523
 30
0.0
 11
362.6763378440875
 21
104.7598995286701
 31
0.0
  0
LINE
  5
1136
330
2
100
AcDbEntity
  8
0
100
AcDbLine
 10
362.6763378440875
 20
142.251366229618
 30
0.0
 11
362.6763378440875
 21
154.0518357540052
 31
0.0
  0
LINE
  5
1137
330
2
100
AcDbEntity
  8
0
100
AcDbLine
 10
372.6763378440894
 20
103.4370104287552
 30
0.0
 11
372.6763378440894
 21
114.0056370937607
 31
0.0
  0
LINE
  5
1138
330
2
100
AcDbEntity
  8
0
100
AcDbLine
 10
372.6763378440894
 20
133.0056370937609
 30
0.0
 11
372.6763378440894
 21
143.5742553295356
 31
0.0
  0
LINE
  5
1139
330
2
100
AcDbEntity
  8
0
100
AcDbLine
 10
367.6065388506842
 20
145.6826741611674
 30
0.0
 11
370.7461368374945
 21
145.5730369835735
 31
0.0
  0
ARC
  5
113A
330
2
100
AcDbEntity
  8
0
100
AcDbCircle
 10
367.6763378440893
 20
147.6814558152053
 30
0.0
 40
2.0
100
AcDbArc
 50
180.0
 51
267.9999999999963
  0
ARC
  5
113B
330
2
100
AcDbEntity
  8
0
100
AcDbCircle
 10
370.6763378440894
 20
143.5742553295356
 30
0.0
 40
2.0
100
AcDbArc
 50
0.0
 51
87.99999999999636
  0
LINE
  5
113C
330
2
100
AcDbEntity
  8
0
100
AcDbLine
 10
367.6065388506606
 20
101.3285915971271
 30
0.0
 11
370.7461368374708
 21
101.4382287747183
 31
0.0
  0
ARC
  5
113D
330
2
100
AcDbEntity
  8
0
100
AcDbCircle
 10
367.6763378440639
 20
99.32980994308929
 30
0.0
 40
2.0
100
AcDbArc
 50
91.99999999995149
 51
179.9999999999479
  0
ARC
  5
113E
330
2
100
AcDbEntity
  8
0
100
AcDbCircle
 10
370.6763378440685
 20
103.4370104287552
 30
0.0
 40
2.0
100
AcDbArc
 50
271.9999999999515
 51
359.9999999999478
  0
LINE
  5
113F
330
2
100
AcDbEntity
  8
0
100
AcDbLine
 10
310.6763378440839
 20
92.50563287914378
 30
0.0
 11
362.6763378440875
 21
92.95943000426523
 31
0.0
  0
LINE
  5
1140
330
2
100
AcDbEntity
  8
0
100
AcDbLine
 10
310.6763378440839
 20
154.5056328791441
 30
0.0
 11
362.6763378440875
 21
154.0518357540052
 31
0.0
  0
LINE
  5
1141
330
2
100
AcDbEntity
  8
0
100
AcDbLine
 10
361.6763378440875
 20
151.5056328791482
 30
0.0
 11
310.6763378440839
 21
151.5056328791482
 31
0.0
  0
LINE
  5
1142
330
2
100
AcDbEntity
  8
0
100
AcDbLine
 10
361.6763378440875
 20
148.5056328791454
 30
0.0
 11
310.6763378440839
 21
148.5056328791454
 31
0.0
  0
LINE
  5
1143
330
2
100
AcDbEntity
  8
0
100
AcDbLine
 10
361.4055187445212
 20
139.4868676077001
 30
0.0
 11
310.6763378440839
 21
139.4868676077001
 31
0.0
  0
LINE
  5
1144
330
2
100
AcDbEntity
  8
0
100
AcDbLine
 10
361.6763378440875
 20
95.50563287914002
 30
0.0
 11
310.6763378440839
 21
95.50563287914014
 31
0.0
  0
LINE
  5
1145
330
2
100
AcDbEntity
  8
0
100
AcDbLine
 10
361.6763378440875
 20
98.50563287914276
 30
0.0
 11
310.6763378440839
 21
98.50563287914276
 31
0.0
  0
LINE
  5
1146
330
2
100
AcDbEntity
  8
0
100
AcDbLine
 10
361.4055187445212
 20
107.524398150588
 30
0.0
 11
310.6763378440839
 21
107.524398150588
 31
0.0
  0
LINE
  5
1147
330
2
100
AcDbEntity
  8
0
100
AcDbLine
 10
293.6763378440839
 20
101.0829831483329
 30
0.0
 11
293.6763378440839
 21
114.0056370937609
 31
0.0
  0
LINE
  5
1148
330
2
100
AcDbEntity
  8
0
100
AcDbLine
 10
293.6763378440839
 20
133.0056370937609
 30
0.0
 11
293.6763378440839
 21
145.9282826099552
 31
0.0
  0
LINE
  5
1149
330
2
100
AcDbEntity
  8
0
100
AcDbLine
 10
301.6763378440793
 20
145.2556328791477
 30
0.0
 11
301.6763378440793
 21
142.0154202410599
 31
0.0
  0
LINE
  5
114A
330
2
100
AcDbEntity
  8
0
100
AcDbLine
 10
301.6763378440839
 20
104.9958455172323
 30
0.0
 11
301.6763378440839
 21
101.7556328791404
 31
0.0
  0
LINE
  5
114B
330
2
100
AcDbEntity
  8
HIDS
  6
SEKKEI_H
100
AcDbLine
 10
302.1763378440839
 20
98.00563287914457
 30
0.0
 11
301.6763378440839
 21
98.50563287914457
 31
0.0
  0
LINE
  5
114C
330
2
100
AcDbEntity
  8
HIDS
  6
SEKKEI_H
100
AcDbLine
 10
298.3763378440837
 20
100.5056328791441
 30
0.0
 11
301.6763378440839
 21
100.5056328791445
 31
0.0
  0
LINE
  5
114D
330
2
100
AcDbEntity
  8
0
100
AcDbLine
 10
294.6763378440839
 20
100.5056328791436
 30
0.0
 11
293.6763378440839
 21
101.0829831483331
 31
0.0
  0
LINE
  5
114E
330
2
100
AcDbEntity
  8
HIDS
  6
SEKKEI_H
100
AcDbLine
 10
298.1763378440839
 20
100.7056328791439
 30
0.0
 11
298.3763378440837
 21
100.5056328791441
 31
0.0
  0
LINE
  5
114F
330
2
100
AcDbEntity
  8
0
100
AcDbLine
 10
294.6763378440839
 20
100.5056328791436
 30
0.0
 11
295.9763378440841
 21
100.5056328791436
 31
0.0
  0
LINE
  5
1150
330
2
100
AcDbEntity
  8
0
100
AcDbLine
 10
296.1763378440839
 20
100.7056328791439
 30
0.0
 11
296.1763378440839
 21
103.6388656082763
 31
0.0
  0
LINE
  5
1151
330
2
100
AcDbEntity
  8
0
100
AcDbLine
 10
296.1763378440839
 20
143.3724001500116
 30
0.0
 11
296.1763378440839
 21
146.3056328791447
 31
0.0
  0
LINE
  5
1152
330
2
100
AcDbEntity
  8
0
100
AcDbLine
 10
296.3763378440837
 20
101.2056328791437
 30
0.0
 11
297.876337844081
 21
101.2056328791439
 31
0.0
  0
LINE
  5
1153
330
2
100
AcDbEntity
  8
0
100
AcDbLine
 10
298.1763378440812
 20
101.7556328791404
 30
0.0
 11
298.1763378440812
 21
103.8202051692706
 31
0.0
  0
LINE
  5
1154
330
2
100
AcDbEntity
  8
0
100
AcDbLine
 10
298.1763378440812
 20
143.1910605890175
 30
0.0
 11
298.1763378440812
 21
145.2556328791477
 31
0.0
  0
LINE
  5
1155
330
2
100
AcDbEntity
  8
0
100
AcDbLine
 10
310.6763378440848
 20
154.5056328791445
 30
0.0
 11
305.1763378440812
 21
154.5056328791445
 31
0.0
  0
LINE
  5
1156
330
2
100
AcDbEntity
  8
0
100
AcDbLine
 10
294.6763378440839
 20
141.0056328791441
 30
0.0
 11
301.6763378440839
 21
141.0056328791441
 31
0.0
  0
LINE
  5
1157
330
2
100
AcDbEntity
  8
0
100
AcDbLine
 10
294.6763378440839
 20
141.0056328791441
 30
0.0
 11
293.6763378440839
 21
141.5829831483336
 31
0.0
  0
LINE
  5
1158
330
2
100
AcDbEntity
  8
HIDS
  6
SEKKEI_H
100
AcDbLine
 10
298.3763378440837
 20
146.5056328791445
 30
0.0
 11
301.6763378440839
 21
146.5056328791441
 31
0.0
  0
LINE
  5
1159
330
2
100
AcDbEntity
  8
0
100
AcDbLine
 10
296.3763378440837
 20
145.8056328791447
 30
0.0
 11
297.876337844081
 21
145.8056328791445
 31
0.0
  0
LINE
  5
115A
330
2
100
AcDbEntity
  8
HIDS
  6
SEKKEI_H
100
AcDbLine
 10
298.1763378440839
 20
146.3056328791443
 30
0.0
 11
298.3763378440837
 21
146.5056328791445
 31
0.0
  0
LINE
  5
115B
330
2
100
AcDbEntity
  8
0
100
AcDbLine
 10
294.6763378440839
 20
146.505632879145
 30
0.0
 11
293.6763378440839
 21
145.9282826099554
 31
0.0
  0
LINE
  5
115C
330
2
100
AcDbEntity
  8
0
100
AcDbLine
 10
294.6763378440839
 20
146.505632879145
 30
0.0
 11
295.9763378440841
 21
146.5056328791445
 31
0.0
  0
ARC
  5
115D
330
2
100
AcDbEntity
  8
0
100
AcDbCircle
 10
305.1763378440812
 20
153.5056328791441
 30
0.0
 40
1.0
100
AcDbArc
 50
90.0
 51
179.9999999999674
  0
LINE
  5
115E
330
2
100
AcDbEntity
  8
HIDS
  6
SEKKEI_H
100
AcDbLine
 10
303.5905514064509
 20
150.4198464415097
 30
0.0
 11
301.6763378440785
 21
148.5056328791382
 31
0.0
  0
LINE
  5
115F
330
2
100
AcDbEntity
  8
0
100
AcDbLine
 10
304.1763378440457
 20
93.25563287914048
 30
0.0
 11
304.1763378440566
 21
113.3867999916388
 31
0.0
  0
LINE
  5
1160
330
2
100
AcDbEntity
  8
0
100
AcDbLine
 10
304.1763378440675
 20
133.624465766638
 30
0.0
 11
304.1763378440784
 21
153.5056328791448
 31
0.0
  0
LINE
  5
1161
330
2
100
AcDbEntity
  8
0
100
AcDbLine
 10
310.6763378440839
 20
154.5056328791441
 30
0.0
 11
310.6763378440839
 21
132.5859667650973
 31
0.0
  0
LINE
  5
1162
330
2
100
AcDbEntity
  8
0
100
AcDbLine
 10
310.6763378440839
 20
114.4252989931911
 30
0.0
 11
310.6763378440839
 21
92.50563287914378
 31
0.0
  0
ARC
  5
1163
330
2
100
AcDbEntity
  8
HIDS
  6
SEKKEI_H
100
AcDbCircle
 10
302.1763378440784
 20
151.834060003883
 30
0.0
 40
2.0
100
AcDbArc
 50
315.0000000000071
 51
359.9999999999674
  0
ARC
  5
1164
330
2
100
AcDbEntity
  8
0
100
AcDbCircle
 10
295.9763378440841
 20
146.3056328791447
 30
0.0
 40
0.2
100
AcDbArc
 50
0.0
 51
90.0
  0
ARC
  5
1165
330
2
100
AcDbEntity
  8
0
100
AcDbCircle
 10
296.3763378440837
 20
146.0056328791448
 30
0.0
 40
0.2
100
AcDbArc
 50
180.0
 51
270.0
  0
ARC
  5
1166
330
2
100
AcDbEntity
  8
HIDS
  6
SEKKEI_H
100
AcDbCircle
 10
297.9763378440841
 20
146.0056328791445
 30
0.0
 40
0.2
100
AcDbArc
 50
270.0
 51
0.0
  0
ARC
  5
1167
330
2
100
AcDbEntity
  8
0
100
AcDbCircle
 10
295.9763378440841
 20
100.7056328791439
 30
0.0
 40
0.2
100
AcDbArc
 50
270.0
 51
0.0
  0
ARC
  5
1168
330
2
100
AcDbEntity
  8
0
100
AcDbCircle
 10
296.3763378440837
 20
101.0056328791436
 30
0.0
 40
0.2
100
AcDbArc
 50
90.0
 51
180.0
  0
ARC
  5
1169
330
2
100
AcDbEntity
  8
HIDS
  6
SEKKEI_H
100
AcDbCircle
 10
297.9763378440841
 20
101.0056328791438
 30
0.0
 40
0.2
100
AcDbArc
 50
0.0
 51
90.0
  0
LINE
  5
116A
330
2
100
AcDbEntity
  8
0
100
AcDbLine
 10
310.6763378440839
 20
92.50563287914378
 30
0.0
 11
305.1676113085479
 21
92.55370680731477
 31
0.0
  0
ARC
  5
116B
330
2
100
AcDbEntity
  8
0
100
AcDbCircle
 10
305.1763378440457
 20
93.55366873037889
 30
0.0
 40
1.0
100
AcDbArc
 50
179.9999999999674
 51
269.4999999999824
  0
LINE
  5
116C
330
2
100
AcDbEntity
  8
HIDS
  6
SEKKEI_H
100
AcDbLine
 10
303.5905514064509
 20
96.59141931677851
 30
0.0
 11
301.6763378440839
 21
98.50563287914411
 31
0.0
  0
ARC
  5
116D
330
2
100
AcDbEntity
  8
HIDS
  6
SEKKEI_H
100
AcDbCircle
 10
302.1763378440784
 20
95.17720575440506
 30
0.0
 40
2.0
100
AcDbArc
 50
0.0000000000390827
 51
44.99999999999309
  0
LINE
  5
116E
330
2
100
AcDbEntity
  8
0
100
AcDbLine
 10
298.3763378440837
 20
145.2556328791477
 30
0.0
 11
298.3763378440837
 21
143.196955589591
 31
0.0
  0
LINE
  5
116F
330
2
100
AcDbEntity
  8
0
100
AcDbLine
 10
298.3763378440837
 20
103.8143101686969
 30
0.0
 11
298.3763378440837
 21
101.7556328791404
 31
0.0
  0
LINE
  5
1170
330
2
100
AcDbEntity
  8
0
100
AcDbLine
 10
294.6763378440839
 20
100.5056328791436
 30
0.0
 11
294.6763378440839
 21
103.0626295030756
 31
0.0
  0
LINE
  5
1171
330
2
100
AcDbEntity
  8
0
100
AcDbLine
 10
294.6763378440839
 20
143.9486362552127
 30
0.0
 11
294.6763378440839
 21
146.505632879145
 31
0.0
  0
LINE
  5
1172
330
2
100
AcDbEntity
  8
0
100
AcDbLine
 10
310.6763378440839
 20
151.5056328791482
 30
0.0
 11
305.1763378440812
 21
151.5056328791482
 31
0.0
  0
LINE
  5
1173
330
2
100
AcDbEntity
  8
0
100
AcDbLine
 10
310.6763378440839
 20
148.5056328791454
 30
0.0
 11
305.1763378440812
 21
148.5056328791454
 31
0.0
  0
LINE
  5
1174
330
2
100
AcDbEntity
  8
0
100
AcDbLine
 10
310.6763378440839
 20
139.4868676077001
 30
0.0
 11
305.1763378440812
 21
139.4868676077001
 31
0.0
  0
LINE
  5
1175
330
2
100
AcDbEntity
  8
0
100
AcDbLine
 10
310.6763378440839
 20
95.50563287914014
 30
0.0
 11
305.1763378440812
 21
95.50563287914014
 31
0.0
  0
LINE
  5
1176
330
2
100
AcDbEntity
  8
0
100
AcDbLine
 10
310.6763378440839
 20
98.50563287914276
 30
0.0
 11
305.1763378440812
 21
98.50563287914276
 31
0.0
  0
LINE
  5
1177
330
2
100
AcDbEntity
  8
0
100
AcDbLine
 10
310.6763378440839
 20
107.524398150588
 30
0.0
 11
305.1763378440812
 21
107.524398150588
 31
0.0
  0
LINE
  5
1178
330
2
100
AcDbEntity
  8
CENTER
  6
CENS
100
AcDbLine
 10
315.8742923207685
 20
149.5056328791477
 30
0.0
 11
294.876337844081
 21
149.5056328791477
 31
0.0
  0
LINE
  5
1179
330
2
100
AcDbEntity
  8
0
100
AcDbLine
 10
298.1763378440812
 20
153.7556328791477
 30
0.0
 11
304.1763378440812
 21
153.7556328791477
 31
0.0
  0
LINE
  5
117A
330
2
100
AcDbEntity
  8
0
100
AcDbLine
 10
298.1763378440812
 20
145.2556328791477
 30
0.0
 11
304.1763378440812
 21
145.2556328791477
 31
0.0
  0
LINE
  5
117B
330
2
100
AcDbEntity
  8
0
100
AcDbLine
 10
302.876337844081
 20
145.2556328791477
 30
0.0
 11
302.876337844081
 21
153.7556328791477
 31
0.0
  0
LINE
  5
117C
330
2
100
AcDbEntity
  8
0
100
AcDbLine
 10
298.1763378440812
 20
145.2556328791477
 30
0.0
 11
298.1763378440812
 21
153.7556328791477
 31
0.0
  0
LINE
  5
117D
330
2
100
AcDbEntity
  8
0
100
AcDbLine
 10
298.1763378440812
 20
145.2556328791477
 30
0.0
 11
297.876337844081
 21
145.7752481214181
 31
0.0
  0
LINE
  5
117E
330
2
100
AcDbEntity
  8
0
100
AcDbLine
 10
298.1763378440812
 20
153.7556328791477
 30
0.0
 11
297.876337844081
 21
153.2360176368768
 31
0.0
  0
LINE
  5
117F
330
2
100
AcDbEntity
  8
0
100
AcDbLine
 10
297.876337844081
 20
145.7752481214181
 30
0.0
 11
297.876337844081
 21
153.2360176368768
 31
0.0
  0
LINE
  5
1180
330
2
100
AcDbEntity
  8
HIDS
  6
SEKKEI_H
100
AcDbLine
 10
301.6763378440785
 20
148.5056328791382
 30
0.0
 11
301.6763378440793
 21
145.2556328791477
 31
0.0
  0
LINE
  5
1181
330
2
100
AcDbEntity
  8
HIDS
  6
SEKKEI_H
100
AcDbLine
 10
298.3763378440837
 20
146.5056328791445
 30
0.0
 11
298.3763378440837
 21
145.2556328791477
 31
0.0
  0
LINE
  5
1182
330
2
100
AcDbEntity
  8
HIDS
  6
SEKKEI_H
100
AcDbLine
 10
297.876337844081
 20
145.8056328791445
 30
0.0
 11
297.9763378440841
 21
145.8056328791442
 31
0.0
  0
LINE
  5
1183
330
2
100
AcDbEntity
  8
CENTER
  6
CENS
100
AcDbLine
 10
315.8742923207685
 20
97.50563287914047
 30
0.0
 11
294.876337844081
 21
97.50563287914047
 31
0.0
  0
LINE
  5
1184
330
2
100
AcDbEntity
  8
0
100
AcDbLine
 10
298.1763378440812
 20
93.25563287914048
 30
0.0
 11
304.1763378440457
 21
93.25563287914048
 31
0.0
  0
LINE
  5
1185
330
2
100
AcDbEntity
  8
0
100
AcDbLine
 10
298.1763378440812
 20
101.7556328791404
 30
0.0
 11
304.1763378440812
 21
101.7556328791404
 31
0.0
  0
LINE
  5
1186
330
2
100
AcDbEntity
  8
0
100
AcDbLine
 10
302.876337844081
 20
101.7556328791404
 30
0.0
 11
302.876337844081
 21
93.25563287914048
 31
0.0
  0
LINE
  5
1187
330
2
100
AcDbEntity
  8
0
100
AcDbLine
 10
298.1763378440812
 20
101.7556328791404
 30
0.0
 11
298.1763378440812
 21
93.25563287914048
 31
0.0
  0
LINE
  5
1188
330
2
100
AcDbEntity
  8
0
100
AcDbLine
 10
298.1763378440812
 20
101.7556328791404
 30
0.0
 11
297.876337844081
 21
101.23601763687
 31
0.0
  0
LINE
  5
1189
330
2
100
AcDbEntity
  8
0
100
AcDbLine
 10
298.1763378440812
 20
93.25563287914048
 30
0.0
 11
297.876337844081
 21
93.77524812141137
 31
0.0
  0
LINE
  5
118A
330
2
100
AcDbEntity
  8
0
100
AcDbLine
 10
297.876337844081
 20
101.23601763687
 30
0.0
 11
297.876337844081
 21
93.77524812141137
 31
0.0
  0
LINE
  5
118B
330
2
100
AcDbEntity
  8
HIDS
  6
SEKKEI_H
100
AcDbLine
 10
301.6763378440839
 20
101.7556328791404
 30
0.0
 11
301.6763378440839
 21
98.50563287914457
 31
0.0
  0
LINE
  5
118C
330
2
100
AcDbEntity
  8
HIDS
  6
SEKKEI_H
100
AcDbLine
 10
297.876337844081
 20
101.2056328791439
 30
0.0
 11
297.9763378440841
 21
101.2056328791439
 31
0.0
  0
LINE
  5
118D
330
2
100
AcDbEntity
  8
0
100
AcDbLine
 10
359.6763378440839
 20
129.7556370937605
 30
0.0
 11
311.6763378440839
 21
129.7556370937605
 31
0.0
  0
LINE
  5
118E
330
2
100
AcDbEntity
  8
0
100
AcDbLine
 10
382.6763378440839
 20
131.3056370937611
 30
0.0
 11
291.6763378440839
 21
131.3056370937609
 31
0.0
  0
LINE
  5
118F
330
2
100
AcDbEntity
  8
0
100
AcDbLine
 10
368.6763378440839
 20
129.5056370937607
 30
0.0
 11
359.6763378440839
 21
129.5056370937607
 31
0.0
  0
LINE
  5
1190
330
2
100
AcDbEntity
  8
0
100
AcDbLine
 10
382.6763378440839
 20
133.0056370937609
 30
0.0
 11
362.6763378440839
 21
133.0056370937609
 31
0.0
  0
LINE
  5
1191
330
2
100
AcDbEntity
  8
0
100
AcDbLine
 10
382.6763378440839
 20
114.0056370937607
 30
0.0
 11
362.6763378440839
 21
114.0056370937607
 31
0.0
  0
LINE
  5
1192
330
2
100
AcDbEntity
  8
0
100
AcDbLine
 10
369.8263378440835
 20
117.2556370937607
 30
0.0
 11
369.8263378440835
 21
129.7556370937605
 31
0.0
  0
LINE
  5
1193
330
2
100
AcDbEntity
  8
0
100
AcDbLine
 10
368.6763378440839
 20
117.2556370937607
 30
0.0
 11
368.6763378440839
 21
129.7556370937605
 31
0.0
  0
LINE
  5
1194
330
2
100
AcDbEntity
  8
0
100
AcDbLine
 10
380.6763378440839
 20
117.50563709376
 30
0.0
 11
380.6763378440839
 21
129.5056370937605
 31
0.0
  0
LINE
  5
1195
330
2
100
AcDbEntity
  8
0
100
AcDbLine
 10
374.1763378440839
 20
117.0056370937605
 30
0.0
 11
374.1763378440839
 21
130.0056370937609
 31
0.0
  0
LINE
  5
1196
330
2
100
AcDbEntity
  8
0
100
AcDbLine
 10
378.1763378440839
 20
117.0056370937603
 30
0.0
 11
378.1763378440839
 21
130.0056370937612
 31
0.0
  0
LINE
  5
1197
330
2
100
AcDbEntity
  8
0
100
AcDbLine
 10
382.6763378440839
 20
114.0056370937609
 30
0.0
 11
382.6763378440839
 21
133.0056370937609
 31
0.0
  0
LINE
  5
1198
330
2
100
AcDbEntity
  8
0
100
AcDbLine
 10
380.6763378440839
 20
117.50563709376
 30
0.0
 11
378.1763378440839
 21
117.5056370937602
 31
0.0
  0
LINE
  5
1199
330
2
100
AcDbEntity
  8
0
100
AcDbLine
 10
380.6763378440839
 20
117.50563709376
 30
0.0
 11
378.1763378440839
 21
117.5056370937602
 31
0.0
  0
LINE
  5
119A
330
2
100
AcDbEntity
  8
0
100
AcDbLine
 10
382.6763378440839
 20
116.3509365553816
 30
0.0
 11
380.6763378440839
 21
117.5056370937609
 31
0.0
  0
LINE
  5
119B
330
2
100
AcDbEntity
  8
0
100
AcDbLine
 10
374.1763378440839
 20
117.5056370937605
 30
0.0
 11
369.8263378440835
 21
117.5056370937607
 31
0.0
  0
LINE
  5
119C
330
2
100
AcDbEntity
  8
0
100
AcDbLine
 10
378.1763378440839
 20
117.0056370937603
 30
0.0
 11
374.1763378440839
 21
117.0056370937605
 31
0.0
  0
LINE
  5
119D
330
2
100
AcDbEntity
  8
0
100
AcDbLine
 10
368.6763378440839
 20
117.5056370937609
 30
0.0
 11
359.6763378440839
 21
117.5056370937612
 31
0.0
  0
LINE
  5
119E
330
2
100
AcDbEntity
  8
0
100
AcDbLine
 10
369.8263378440835
 20
117.2556370937607
 30
0.0
 11
368.6763378440839
 21
117.2556370937607
 31
0.0
  0
LINE
  5
119F
330
2
100
AcDbEntity
  8
0
100
AcDbLine
 10
380.6763378440839
 20
129.5056370937605
 30
0.0
 11
378.1763378440839
 21
129.5056370937607
 31
0.0
  0
LINE
  5
11A0
330
2
100
AcDbEntity
  8
0
100
AcDbLine
 10
380.6763378440839
 20
129.5056370937605
 30
0.0
 11
378.1763378440839
 21
129.5056370937605
 31
0.0
  0
LINE
  5
11A1
330
2
100
AcDbEntity
  8
0
100
AcDbLine
 10
382.6763378440839
 20
130.6603376321398
 30
0.0
 11
380.6763378440839
 21
129.5056370937605
 31
0.0
  0
LINE
  5
11A2
330
2
100
AcDbEntity
  8
0
100
AcDbLine
 10
374.9763378440841
 20
133.0056370937607
 30
0.0
 11
374.9763378440841
 21
131.3056370937611
 31
0.0
  0
LINE
  5
11A3
330
2
100
AcDbEntity
  8
HOJO
100
AcDbLine
 10
374.6763378440839
 20
133.0056370937607
 30
0.0
 11
374.6763378440839
 21
131.3056370937611
 31
0.0
  0
LINE
  5
11A4
330
2
100
AcDbEntity
  8
0
100
AcDbLine
 10
377.3763378440837
 20
133.0056370937607
 30
0.0
 11
377.3763378440846
 21
131.3056370937611
 31
0.0
  0
LINE
  5
11A5
330
2
100
AcDbEntity
  8
HOJO
100
AcDbLine
 10
377.6763378440839
 20
133.0056370937607
 30
0.0
 11
377.6763378440839
 21
131.3056370937611
 31
0.0
  0
LINE
  5
11A6
330
2
100
AcDbEntity
  8
0
100
AcDbLine
 10
374.1763378440839
 20
129.5056370937607
 30
0.0
 11
369.8263378440835
 21
129.5056370937607
 31
0.0
  0
LINE
  5
11A7
330
2
100
AcDbEntity
  8
0
100
AcDbLine
 10
378.1763378440839
 20
130.0056370937612
 30
0.0
 11
374.1763378440839
 21
130.0056370937609
 31
0.0
  0
LINE
  5
11A8
330
2
100
AcDbEntity
  8
0
100
AcDbLine
 10
369.8263378440835
 20
129.7556370937605
 30
0.0
 11
368.6763378440839
 21
129.7556370937607
 31
0.0
  0
LINE
  5
11A9
330
2
100
AcDbEntity
  8
0
100
AcDbLine
 10
362.6763378440839
 20
114.0056370937607
 30
0.0
 11
362.6763378440839
 21
104.7598995286724
 31
0.0
  0
LINE
  5
11AA
330
2
100
AcDbEntity
  8
0
100
AcDbLine
 10
362.6763378440839
 20
113.5056370937607
 30
0.0
 11
359.4042277778555
 21
113.5056370937607
 31
0.0
  0
LINE
  5
11AB
330
2
100
AcDbEntity
  8
0
100
AcDbLine
 10
362.6763378440839
 20
133.5056370937609
 30
0.0
 11
359.404235510052
 21
133.5056370937609
 31
0.0
  0
LINE
  5
11AC
330
2
100
AcDbEntity
  8
0
100
AcDbLine
 10
362.6763378440839
 20
133.5056370937609
 30
0.0
 11
362.6763378440839
 21
133.0056370937609
 31
0.0
  0
LINE
  5
11AD
330
2
100
AcDbEntity
  8
0
100
AcDbLine
 10
291.6763378440839
 20
133.0056370937609
 30
0.0
 11
304.9333415041175
 21
133.0056370937609
 31
0.0
  0
LINE
  5
11AE
330
2
100
AcDbEntity
  8
0
100
AcDbLine
 10
298.5263378440843
 20
129.5056370937605
 30
0.0
 11
293.6763378440839
 21
129.5056370937605
 31
0.0
  0
LINE
  5
11AF
330
2
100
AcDbEntity
  8
0
100
AcDbLine
 10
291.6763378440839
 20
114.0056370937609
 30
0.0
 11
304.9333542232072
 21
114.0056370937607
 31
0.0
  0
LINE
  5
11B0
330
2
100
AcDbEntity
  8
0
100
AcDbLine
 10
298.5263378440843
 20
117.5056370937646
 30
0.0
 11
293.6763378440839
 21
117.5056370937648
 31
0.0
  0
LINE
  5
11B1
330
2
100
AcDbEntity
  8
0
100
AcDbLine
 10
299.6763378440839
 20
129.7556370937605
 30
0.0
 11
299.6763378440839
 21
117.2556370937643
 31
0.0
  0
LINE
  5
11B2
330
2
100
AcDbEntity
  8
0
100
AcDbLine
 10
298.5263378440843
 20
129.7556370937605
 30
0.0
 11
298.5263378440843
 21
117.2556370937646
 31
0.0
  0
LINE
  5
11B3
330
2
100
AcDbEntity
  8
0
100
AcDbLine
 10
311.6763378440893
 20
117.5056370937641
 30
0.0
 11
299.6763378440839
 21
117.5056370937644
 31
0.0
  0
LINE
  5
11B4
330
2
100
AcDbEntity
  8
0
100
AcDbLine
 10
299.6763378440839
 20
117.2556370937643
 30
0.0
 11
298.5263378440843
 21
117.2556370937646
 31
0.0
  0
LINE
  5
11B5
330
2
100
AcDbEntity
  8
0
100
AcDbLine
 10
311.6763378440839
 20
129.5056370937605
 30
0.0
 11
299.6763378440839
 21
129.5056370937605
 31
0.0
  0
LINE
  5
11B6
330
2
100
AcDbEntity
  8
0
100
AcDbLine
 10
311.6763378440839
 20
129.7556370937605
 30
0.0
 11
311.6763378440893
 21
117.2556286645274
 31
0.0
  0
LINE
  5
11B7
330
2
100
AcDbEntity
  8
0
100
AcDbLine
 10
299.6763378440839
 20
129.7556370937605
 30
0.0
 11
298.5263378440843
 21
129.7556370937605
 31
0.0
  0
LINE
  5
11B8
330
2
100
AcDbEntity
  8
0
100
AcDbLine
 10
293.6763378440839
 20
129.5056370937605
 30
0.0
 11
293.6763378440839
 21
117.5056370937648
 31
0.0
  0
LINE
  5
11B9
330
2
100
AcDbEntity
  8
0
100
AcDbLine
 10
291.6763378440839
 20
133.0056370937609
 30
0.0
 11
291.6763378440839
 21
114.0056370937607
 31
0.0
  0
LINE
  5
11BA
330
2
100
AcDbEntity
  8
0
100
AcDbLine
 10
293.6763378440839
 20
117.5056370937648
 30
0.0
 11
291.6763378440839
 21
116.3509365553855
 31
0.0
  0
LINE
  5
11BB
330
2
100
AcDbEntity
  8
0
100
AcDbLine
 10
293.6763378440848
 20
129.5056370937571
 30
0.0
 11
291.6763378440848
 21
130.6603376321364
 31
0.0
  0
LINE
  5
11BC
330
2
100
AcDbEntity
  8
0
100
AcDbLine
 10
359.6763378440839
 20
129.7556370937605
 30
0.0
 11
359.6763378440839
 21
117.2556286645274
 31
0.0
  0
LINE
  5
11BD
330
2
100
AcDbEntity
  8
0
100
AcDbLine
 10
359.6763378440839
 20
117.2556286645274
 30
0.0
 11
311.6763378440893
 21
117.2556286645274
 31
0.0
  0
LINE
  5
11BE
330
2
100
AcDbEntity
  8
0
100
AcDbLine
 10
371.6763378440893
 20
141.0056328791443
 30
0.0
 11
371.6763378440893
 21
133.0056370937609
 31
0.0
  0
LINE
  5
11BF
330
2
100
AcDbEntity
  8
0
100
AcDbLine
 10
364.6763378440894
 20
141.0056328791443
 30
0.0
 11
364.6763378440894
 21
133.0056370937609
 31
0.0
  0
LINE
  5
11C0
330
2
100
AcDbEntity
  8
0
100
AcDbLine
 10
371.6763378440893
 20
114.0056370937607
 30
0.0
 11
371.6763378440893
 21
106.0056328791443
 31
0.0
  0
LINE
  5
11C1
330
2
100
AcDbEntity
  8
0
100
AcDbLine
 10
362.6763378440894
 20
106.0056328791443
 30
0.0
 11
371.6763378440893
 21
106.0056328791443
 31
0.0
  0
LINE
  5
11C2
330
2
100
AcDbEntity
  8
0
100
AcDbLine
 10
371.6763378440893
 20
106.0056328791443
 30
0.0
 11
372.6763378440894
 21
105.4282826099548
 31
0.0
  0
LINE
  5
11C3
330
2
100
AcDbEntity
  8
0
100
AcDbLine
 10
362.6763378440894
 20
141.0056328791443
 30
0.0
 11
371.6763378440893
 21
141.0056328791443
 31
0.0
  0
LINE
  5
11C4
330
2
100
AcDbEntity
  8
0
100
AcDbLine
 10
371.6763378440893
 20
141.0056328791443
 30
0.0
 11
372.6763378440894
 21
141.5829831483341
 31
0.0
  0
SPLINE
  5
11C5
330
2
100
AcDbEntity
  8
HOJO
100
AcDbSpline
210
0.0
220
0.0
230
1.0
 70
     8
 71
     3
 72
    30
 73
    26
 74
     0
 42
0.0000000001
 43
0.0000000001
 40
1.073701665119103
 40
1.073701665119103
 40
1.073701665119103
 40
1.073701665119103
 40
2.18150891874031
 40
3.841179975812767
 40
6.934876563096535
 40
11.04909901775557
 40
16.09897812345541
 40
18.38468990949584
 40
20.32701975216962
 40
26.5117454990493
 40
30.46491644453404
 40
35.83302429770391
 40
42.45273464572102
 40
47.20758177775013
 40
52.22079021395813
 40
57.21977993322538
 40
60.62363657950815
 40
66.61159553569167
 40
72.16084371902148
 40
75.98229293129505
 40
79.52171565640792
 40
82.70276676995699
 40
87.04688362939927
 40
92.17949855136799
 40
93.21086260406284
 40
93.21086260406284
 40
93.21086260406284
 40
93.21086260406284
 10
293.6763378440839
 20
144.1627844768818
 30
0.0
 10
294.0774810383148
 20
144.0956123545914
 30
0.0
 10
295.0820306445277
 20
143.898560408747
 30
0.0
 10
296.8365450377362
 20
142.9062741935475
 30
0.0
 10
299.8797480862797
 20
143.635689779743
 30
0.0
 10
303.3367741044997
 20
141.0045376144319
 30
0.0
 10
302.6559601985038
 20
136.6020322662043
 30
0.0
 10
303.7501254045666
 20
133.7338456690338
 30
0.0
 10
307.4804591678159
 20
131.2746772349476
 30
0.0
 10
312.1767724185167
 20
133.5879087694727
 30
0.0
 10
317.1135905120056
 20
131.8020211764681
 30
0.0
 10
322.4787954705891
 20
133.2358477931018
 30
0.0
 10
328.0661873087267
 20
131.4606475255132
 30
0.0
 10
333.4035485911729
 20
133.8809240097751
 30
0.0
 10
338.267338271273
 20
131.5332437234931
 30
0.0
 10
342.6910982265119
 20
133.558745309558
 30
0.0
 10
347.4535505447531
 20
131.9751373647985
 30
0.0
 10
352.300394591831
 20
133.7530970336798
 30
0.0
 10
357.8912934958218
 20
131.2418458870989
 30
0.0
 10
360.9467052970915
 20
135.3498190310099
 30
0.0
 10
361.2707847123804
 20
138.6524694135267
 30
0.0
 10
361.8791271220545
 20
142.8908525467803
 30
0.0
 10
367.0421890714717
 20
142.8572457603548
 30
0.0
 10
370.3011421661278
 20
142.9867149675624
 30
0.0
 10
372.3339147435237
 20
143.0253157897266
 30
0.0
 10
372.6763378440894
 20
143.031066049424
 30
0.0
  0
LINE
  5
11C6
330
2
100
AcDbEntity
  8
0
100
AcDbLine
 10
362.6763378440875
 20
142.251366229618
 30
0.0
 11
362.6763378440839
 21
133.5056370937609
 31
0.0
  0
LINE
  5
11C7
330
2
100
AcDbEntity
  8
0
100
AcDbLine
 10
301.6763378440839
 20
141.4139821536519
 30
0.0
 11
301.6763378440839
 21
133.0056370937609
 31
0.0
  0
LINE
  5
11C8
330
2
100
AcDbEntity
  8
0
100
AcDbLine
 10
294.6763378440839
 20
141.0056328791441
 30
0.0
 11
294.6763378440839
 21
133.0056370937609
 31
0.0
  0
LINE
  5
11C9
330
2
100
AcDbEntity
  8
0
100
AcDbLine
 10
301.6763378440839
 20
141.4139821536519
 30
0.0
 11
302.1507620638433
 21
141.4264053890611
 31
0.0
  0
LINE
  5
11CA
330
2
100
AcDbEntity
  8
0
100
AcDbLine
 10
294.6763378440839
 20
106.0056328791441
 30
0.0
 11
301.6763378440839
 21
106.0056328791441
 31
0.0
  0
LINE
  5
11CB
330
2
100
AcDbEntity
  8
0
100
AcDbLine
 10
301.6763378440839
 20
105.5972836046362
 30
0.0
 11
301.6763378440839
 21
114.0056286645272
 31
0.0
  0
LINE
  5
11CC
330
2
100
AcDbEntity
  8
0
100
AcDbLine
 10
301.6763378440839
 20
105.5972836046362
 30
0.0
 11
302.1507620638433
 21
105.584860369227
 31
0.0
  0
LINE
  5
11CD
330
2
100
AcDbEntity
  8
0
100
AcDbLine
 10
294.6763378440839
 20
106.0056328791441
 30
0.0
 11
293.6763378440839
 21
105.4282826099545
 31
0.0
  0
LINE
  5
11CE
330
2
100
AcDbEntity
  8
0
100
AcDbLine
 10
294.6763378440839
 20
106.0056328791441
 30
0.0
 11
294.6763378440839
 21
114.0056370937609
 31
0.0
  0
LINE
  5
11CF
330
2
100
AcDbEntity
  8
0
100
AcDbLine
 10
371.6763378440893
 20
141.0056328791443
 30
0.0
 11
364.6763378440894
 21
133.0056370937609
 31
0.0
  0
LINE
  5
11D0
330
2
100
AcDbEntity
  8
0
100
AcDbLine
 10
364.6763378440894
 20
141.0056328791443
 30
0.0
 11
371.6763378440893
 21
133.0056370937609
 31
0.0
  0
LINE
  5
11D1
330
2
100
AcDbEntity
  8
0
100
AcDbLine
 10
371.6763378440893
 20
114.0056286645277
 30
0.0
 11
364.6763378440894
 21
106.0056328791443
 31
0.0
  0
LINE
  5
11D2
330
2
100
AcDbEntity
  8
0
100
AcDbLine
 10
364.6763378440894
 20
114.0056286645277
 30
0.0
 11
371.6763378440893
 21
106.0056328791443
 31
0.0
  0
LINE
  5
11D3
330
2
100
AcDbEntity
  8
0
100
AcDbLine
 10
364.6763378440894
 20
114.0056286645277
 30
0.0
 11
364.6763378440894
 21
106.0056328791443
 31
0.0
  0
LINE
  5
11D4
330
2
100
AcDbEntity
  8
0
100
AcDbLine
 10
294.6763378440839
 20
141.0056328791441
 30
0.0
 11
301.6763378440839
 21
133.0056370937609
 31
0.0
  0
LINE
  5
11D5
330
2
100
AcDbEntity
  8
0
100
AcDbLine
 10
294.6763378440839
 20
133.0056370937609
 30
0.0
 11
301.6763378440839
 21
141.0056328791441
 31
0.0
  0
LINE
  5
11D6
330
2
100
AcDbEntity
  8
0
100
AcDbLine
 10
301.6763378440839
 20
114.0056286645272
 30
0.0
 11
294.6763378440839
 21
106.0056328791441
 31
0.0
  0
LINE
  5
11D7
330
2
100
AcDbEntity
  8
0
100
AcDbLine
 10
294.6763378440839
 20
114.0056370937609
 30
0.0
 11
301.6763378440839
 21
106.0056328791441
 31
0.0
  0
LINE
  5
11D8
330
2
100
AcDbEntity
  8
CENTER
100
AcDbLine
 10
376.1763378440839
 20
127.97052587747
 30
0.0
 11
376.1763378440839
 21
135.757753056844
 31
0.0
  0
LINE
  5
11D9
330
2
100
AcDbEntity
  8
0
100
AcDbLine
 10
362.6763378440839
 20
293.2721216063646
 30
0.0
 11
352.6763378440894
 21
293.2721216063646
 31
0.0
  0
LINE
  5
11DA
330
2
100
AcDbEntity
  8
0
100
AcDbLine
 10
362.6763378440839
 20
274.2721216063644
 30
0.0
 11
352.6763378440894
 21
274.2721216063644
 31
0.0
  0
LINE
  5
11DB
330
2
100
AcDbEntity
  8
0
100
AcDbLine
 10
362.6763378440839
 20
274.2721216063646
 30
0.0
 11
362.6763378440839
 21
293.2721216063646
 31
0.0
  0
LINE
  5
11DC
330
2
100
AcDbEntity
  8
0
100
AcDbLine
 10
271.6763378440839
 20
293.2721216063646
 30
0.0
 11
273.6763378440839
 21
293.2721216063649
 31
0.0
  0
LINE
  5
11DD
330
2
100
AcDbEntity
  8
0
100
AcDbLine
 10
271.6763378440839
 20
274.2721216063646
 30
0.0
 11
273.6763378440839
 21
274.2721216063646
 31
0.0
  0
LINE
  5
11DE
330
2
100
AcDbEntity
  8
0
100
AcDbLine
 10
271.6763378440839
 20
293.2721216063646
 30
0.0
 11
271.6763378440839
 21
274.2721216063644
 31
0.0
  0
CIRCLE
  5
11DF
330
2
100
AcDbEntity
  8
HOJO
100
AcDbCircle
 10
356.1763378440839
 20
283.7721173917478
 30
0.0
 40
1.499999999999772
  0
CIRCLE
  5
11E0
330
2
100
AcDbEntity
  8
0
100
AcDbCircle
 10
356.1763378440839
 20
283.7721173917478
 30
0.0
 40
1.199999999999818
  0
LINE
  5
11E1
330
2
100
AcDbEntity
  8
CENTER
100
AcDbLine
 10
356.1763378440839
 20
287.7246368987242
 30
0.0
 11
356.1763378440839
 21
279.8195978847716
 31
0.0
  0
ARC
  5
11E2
330
2
100
AcDbEntity
  8
0
100
AcDbCircle
 10
454.8669039910967
 20
283.7721173917512
 30
0.0
 40
6.0
100
AcDbArc
 50
109.4712206344723
 51
70.52877936552764
  0
LINE
  5
11E3
330
2
100
AcDbEntity
  8
0
100
AcDbLine
 10
456.8669039910966
 20
291.5721173917511
 30
0.0
 11
452.8669039910966
 21
291.5721173917511
 31
0.0
  0
LINE
  5
11E4
330
2
100
AcDbEntity
  8
0
100
AcDbLine
 10
456.8669039910966
 20
289.4289716412436
 30
0.0
 11
456.8669039910966
 21
291.5721173917511
 31
0.0
  0
LINE
  5
11E5
330
2
100
AcDbEntity
  8
0
100
AcDbLine
 10
452.8669039910966
 20
289.4289716412436
 30
0.0
 11
452.8669039910966
 21
291.5721173917511
 31
0.0
  0
CIRCLE
  5
11E6
330
2
100
AcDbEntity
  8
0
100
AcDbCircle
 10
454.8669039910976
 20
283.7721173917514
 30
0.0
 40
9.500004214613113
  0
ARC
  5
11E7
330
2
100
AcDbEntity
  8
0
100
AcDbCircle
 10
181.743913752248
 20
283.7721173917514
 30
0.0
 40
6.0
100
AcDbArc
 50
109.4712206344723
 51
70.52877936552764
  0
LINE
  5
11E8
330
2
100
AcDbEntity
  8
0
100
AcDbLine
 10
183.7439137522481
 20
291.5721173917516
 30
0.0
 11
179.7439137522481
 21
291.5721173917516
 31
0.0
  0
LINE
  5
11E9
330
2
100
AcDbEntity
  8
0
100
AcDbLine
 10
183.7439137522481
 20
289.4289716412438
 30
0.0
 11
183.7439137522481
 21
291.5721173917516
 31
0.0
  0
LINE
  5
11EA
330
2
100
AcDbEntity
  8
0
100
AcDbLine
 10
179.7439137522481
 20
289.4289716412438
 30
0.0
 11
179.7439137522481
 21
291.5721173917516
 31
0.0
  0
CIRCLE
  5
11EB
330
2
100
AcDbEntity
  8
0
100
AcDbCircle
 10
181.743913752248
 20
283.7721173917519
 30
0.0
 40
9.500004214613113
  0
LINE
  5
11EC
330
2
100
AcDbEntity
  8
0
100
AcDbLine
 10
464.3669082057142
 20
422.8495876798129
 30
0.0
 11
464.3669082057142
 21
432.849587679807
 31
0.0
  0
LINE
  5
11ED
330
2
100
AcDbEntity
  8
0
100
AcDbLine
 10
445.3669082057133
 20
422.8495876798129
 30
0.0
 11
445.3669082057133
 21
432.849587679807
 31
0.0
  0
LINE
  5
11EE
330
2
100
AcDbEntity
  8
0
100
AcDbLine
 10
445.3669082057142
 20
422.8495876798129
 30
0.0
 11
464.3669082057142
 21
422.8495876798129
 31
0.0
  0
LINE
  5
11EF
330
2
100
AcDbEntity
  8
0
100
AcDbLine
 10
464.3669082057142
 20
513.8495876798126
 30
0.0
 11
464.3669082057142
 21
511.8495876798132
 31
0.0
  0
LINE
  5
11F0
330
2
100
AcDbEntity
  8
0
100
AcDbLine
 10
445.3669082057142
 20
513.8495876798126
 30
0.0
 11
445.3669082057142
 21
511.8495876798132
 31
0.0
  0
LINE
  5
11F1
330
2
100
AcDbEntity
  8
0
100
AcDbLine
 10
464.3669082057142
 20
513.8495876798129
 30
0.0
 11
445.3669082057133
 21
513.8495876798126
 31
0.0
  0
CIRCLE
  5
11F2
330
2
100
AcDbEntity
  8
HOJO
100
AcDbCircle
 10
454.8669039910967
 20
429.3495876798127
 30
0.0
 40
1.499999999999772
  0
CIRCLE
  5
11F3
330
2
100
AcDbEntity
  8
0
100
AcDbCircle
 10
454.8669039910967
 20
429.3495876798127
 30
0.0
 40
1.199999999999818
  0
LINE
  5
11F4
330
2
100
AcDbEntity
  8
CENTER
100
AcDbLine
 10
458.8194234980731
 20
429.3495876798129
 30
0.0
 11
450.9143844841212
 21
429.3495876798129
 31
0.0
  0
SPLINE
  5
11F5
330
2
100
AcDbEntity
  8
HOJO
100
AcDbSpline
210
0.0
220
0.0
230
1.0
 70
     8
 71
     3
 72
    30
 73
    26
 74
     0
 42
0.0000000001
 43
0.0000000001
 40
1.073701665119103
 40
1.073701665119103
 40
1.073701665119103
 40
1.073701665119103
 40
2.18150891874031
 40
3.841179975812767
 40
6.934876563096535
 40
11.04909901775557
 40
16.09897812345541
 40
18.38468990949584
 40
20.32701975216962
 40
26.5117454990493
 40
30.46491644453404
 40
35.83302429770391
 40
42.45273464572102
 40
47.20758177775013
 40
52.22079021395813
 40
57.21977993322538
 40
60.62363657950815
 40
66.61159553569167
 40
72.16084371902148
 40
75.98229293129505
 40
79.52171565640792
 40
82.70276676995699
 40
87.04688362939927
 40
92.17949855136799
 40
93.21086260406284
 40
93.21086260406284
 40
93.21086260406284
 40
93.21086260406284
 10
293.6763378440839
 20
102.8484812814061
 30
0.0
 10
294.0774810383148
 20
102.9156534036965
 30
0.0
 10
295.0820306445277
 20
103.1127053495409
 30
0.0
 10
296.8365450377362
 20
104.1049915647407
 30
0.0
 10
299.8797480862797
 20
103.3755759785449
 30
0.0
 10
303.3367741044997
 20
106.0067281438562
 30
0.0
 10
302.6559601985038
 20
110.4092334920836
 30
0.0
 10
303.7501254045666
 20
113.2774200892543
 30
0.0
 10
307.4804591678159
 20
115.7365885233405
 30
0.0
 10
312.1767724185167
 20
113.4233569888154
 30
0.0
 10
317.1135905120056
 20
115.20924458182
 30
0.0
 10
322.4787954705891
 20
113.7754179651861
 30
0.0
 10
328.0661873087267
 20
115.5506182327747
 30
0.0
 10
333.4035485911729
 20
113.1303417485128
 30
0.0
 10
338.267338271273
 20
115.4780220347948
 30
0.0
 10
342.6910982265119
 20
113.45252044873
 30
0.0
 10
347.4535505447531
 20
115.0361283934894
 30
0.0
 10
352.300394591831
 20
113.2581687246082
 30
0.0
 10
357.8912934958218
 20
115.7694198711893
 30
0.0
 10
360.9467052970915
 20
111.661446727278
 30
0.0
 10
361.2707847123804
 20
108.3587963447612
 30
0.0
 10
361.8791271220545
 20
104.1204132115076
 30
0.0
 10
367.0421890714717
 20
104.1540199979334
 30
0.0
 10
370.3011421661278
 20
104.0245507907255
 30
0.0
 10
372.3339147435237
 20
103.9859499685615
 30
0.0
 10
372.6763378440894
 20
103.9801997088639
 30
0.0
  0
CIRCLE
  5
11F6
330
2
100
AcDbEntity
  8
0
100
AcDbCircle
 10
454.8669039910967
 20
283.7721173917516
 30
0.0
 40
18.0774
  0
LINE
  5
11F7
330
2
100
AcDbEntity
  8
PHAS
  6
SEKKEI_P_S
100
AcDbLine
 10
255.6763378440839
 20
272.2360068472204
 30
0.0
 11
255.6763378440839
 21
295.3082129362751
 31
0.0
  0
LINE
  5
11F8
330
2
100
AcDbEntity
  8
PHAS
  6
SEKKEI_P_S
100
AcDbLine
 10
259.8080596005713
 20
267.3119746690311
 30
0.0
 11
270.5499338440834
 21
265.4178083917477
 31
0.0
  0
ARC
  5
11F9
330
2
100
AcDbEntity
  8
PHAS
  6
SEKKEI_P_S
100
AcDbCircle
 10
260.6763378440839
 20
272.2360068472204
 30
0.0
 40
5.0
100
AcDbArc
 50
180.0
 51
259.9995653374257
  0
LINE
  5
11FA
330
2
100
AcDbEntity
  8
PHAS
  6
SEKKEI_P_S
100
AcDbLine
 10
271.3763348440854
 20
305.6530073917479
 30
0.0
 11
271.3763348440836
 21
261.8912123917478
 31
0.0
  0
ARC
  5
11FB
330
2
100
AcDbEntity
  8
PHAS
  6
SEKKEI_P_S
100
AcDbCircle
 10
270.3763348440836
 20
264.4330063917478
 30
0.0
 40
1.0
100
AcDbArc
 50
0.0
 51
79.99999999999483
  0
LINE
  5
11FC
330
2
100
AcDbEntity
  8
PHAS
  6
SEKKEI_P_S
100
AcDbLine
 10
281.1763378440821
 20
257.7721173917478
 30
0.0
 11
281.1763378440839
 21
309.7721173917478
 31
0.0
  0
ARC
  5
11FD
330
2
100
AcDbEntity
  8
PHAS
  6
SEKKEI_P_S
100
AcDbCircle
 10
260.6763378440839
 20
295.3082129362751
 30
0.0
 40
5.0
100
AcDbArc
 50
100.0004346625742
 51
180.0
  0
LINE
  5
11FE
330
2
100
AcDbEntity
  8
PHAS
  6
SEKKEI_P_S
100
AcDbLine
 10
259.8080596005713
 20
300.2322451144644
 30
0.0
 11
270.5499338440834
 21
302.1264113917478
 31
0.0
  0
ARC
  5
11FF
330
2
100
AcDbEntity
  8
PHAS
  6
SEKKEI_P_S
100
AcDbCircle
 10
274.3763348440836
 20
305.6530073917477
 30
0.0
 40
3.0
100
AcDbArc
 50
103.0417940599507
 51
179.9999999999967
  0
ARC
  5
1200
330
2
100
AcDbEntity
  8
PHAS
  6
SEKKEI_P_S
100
AcDbCircle
 10
270.3763348440836
 20
303.1112133917477
 30
0.0
 40
1.0
100
AcDbArc
 50
280.0000000000051
 51
0.0
  0
LINE
  5
1201
330
2
100
AcDbEntity
  8
PHAS
  6
SEKKEI_P_S
100
AcDbLine
 10
278.6763378440839
 20
309.7284773917479
 30
0.0
 11
273.699349615724
 21
308.5756245409111
 31
0.0
  0
LINE
  5
1202
330
2
100
AcDbEntity
  8
PHAS
  6
SEKKEI_P_S
100
AcDbLine
 10
278.6763378440839
 20
309.7284773917479
 30
0.0
 11
281.1763378440839
 21
309.7721173917478
 31
0.0
  0
ARC
  5
1203
330
2
100
AcDbEntity
  8
PHAS
  6
SEKKEI_P_S
100
AcDbCircle
 10
274.3763348440836
 20
261.8912273917479
 30
0.0
 40
3.0
100
AcDbArc
 50
180.0
 51
256.9582059400491
  0
LINE
  5
1204
330
2
100
AcDbEntity
  8
PHAS
  6
SEKKEI_P_S
100
AcDbLine
 10
278.6763378440839
 20
257.8157573917477
 30
0.0
 11
273.699349615724
 21
258.9686102425844
 31
0.0
  0
LINE
  5
1205
330
2
100
AcDbEntity
  8
PHAS
  6
SEKKEI_P_S
100
AcDbLine
 10
278.6763378440839
 20
257.8157573917477
 30
0.0
 11
281.1763378440821
 21
257.7721173917478
 31
0.0
  0
ARC
  5
1206
330
2
100
AcDbEntity
  8
0
100
AcDbCircle
 10
454.8669039910976
 20
283.7721173917514
 30
0.0
 40
7.154704752992188
100
AcDbArc
 50
106.2325341514329
 51
73.76746584856705
  0
ARC
  5
1207
330
2
100
AcDbEntity
  8
0
100
AcDbCircle
 10
181.743913752248
 20
283.7721173917514
 30
0.0
 40
7.154704752992188
100
AcDbArc
 50
106.2325341514329
 51
73.76746584856705
  0
CIRCLE
  5
1208
330
2
100
AcDbEntity
  8
0
100
AcDbCircle
 10
454.8669039910967
 20
283.7721173917516
 30
0.0
 40
22.0
  0
LINE
  5
123F
330
2
100
AcDbEntity
  8
CENTER
100
AcDbLine
 10
743.026799811676
 20
283.772117391741
 30
0.0
 11
638.0267998116762
 21
283.7721173917412
 31
0.0
  0
LINE
  5
1240
330
2
100
AcDbEntity
  8
CENTER
100
AcDbLine
 10
698.0267998116723
 20
322.2721173917414
 30
0.0
 11
698.0267998116726
 21
245.2721173917408
 31
0.0
  0
LINE
  5
1241
330
2
100
AcDbEntity
  8
0
100
AcDbLine
 10
662.0267998116698
 20
258.7721173917477
 30
0.0
 11
662.0267998116698
 21
308.7721173917477
 31
0.0
  0
LINE
  5
1242
330
2
100
AcDbEntity
  8
0
100
AcDbLine
 10
665.0267998116698
 20
308.7721173917477
 30
0.0
 11
662.0267998116698
 21
308.7721173917477
 31
0.0
  0
LINE
  5
1243
330
2
100
AcDbEntity
  8
0
100
AcDbLine
 10
665.0267998116698
 20
258.7721173917477
 30
0.0
 11
662.0267998116698
 21
258.7721173917477
 31
0.0
  0
LINE
  5
1244
330
2
100
AcDbEntity
  8
0
100
AcDbLine
 10
665.0267998116726
 20
314.3139568327216
 30
0.0
 11
665.0267998116726
 21
253.2302779507499
 31
0.0
  0
LINE
  5
1245
330
2
100
AcDbEntity
  8
0
100
AcDbLine
 10
726.0751806158289
 20
252.7245106305264
 30
0.0
 11
698.0267998116726
 21
252.2721173917409
 31
0.0
  0
ARC
  5
1246
330
2
100
AcDbEntity
  8
0
100
AcDbCircle
 10
726.0267998116725
 20
255.724120488123
 30
0.0
 40
3.0
100
AcDbArc
 50
270.9240453527669
 51
315.6481997560372
  0
LINE
  5
1247
330
2
100
AcDbEntity
  8
0
100
AcDbLine
 10
669.9784190075172
 20
252.7245106305264
 30
0.0
 11
698.0267998116726
 21
252.2721173917409
 31
0.0
  0
ARC
  5
1248
330
2
100
AcDbEntity
  8
0
100
AcDbCircle
 10
670.0267998116726
 20
255.724120488123
 30
0.0
 40
3.0
100
AcDbArc
 50
224.3518002528182
 51
269.0759546471809
  0
LINE
  5
1249
330
2
100
AcDbEntity
  8
0
100
AcDbLine
 10
726.0751806158289
 20
314.8197241529557
 30
0.0
 11
698.0267998116726
 21
315.2721173917413
 31
0.0
  0
LINE
  5
124A
330
2
100
AcDbEntity
  8
0
100
AcDbLine
 10
669.9784190075172
 20
314.8197241529557
 30
0.0
 11
678.7074133967689
 21
314.9605143850432
 31
0.0
  0
ARC
  5
124B
330
2
100
AcDbEntity
  8
0
100
AcDbCircle
 10
726.0267998116735
 20
311.8201142953591
 30
0.0
 40
3.0
100
AcDbArc
 50
44.3518002395819
 51
89.07595464718097
  0
ARC
  5
124C
330
2
100
AcDbEntity
  8
0
100
AcDbCircle
 10
670.0267998116726
 20
311.8201142953593
 30
0.0
 40
3.0
100
AcDbArc
 50
90.9240453527669
 51
135.6481997511572
  0
LINE
  5
124D
330
2
100
AcDbEntity
  8
0
100
AcDbLine
 10
655.0267998116708
 20
303.8407398421299
 30
0.0
 11
655.0267998116708
 21
263.7034949413495
 31
0.0
  0
LINE
  5
124E
330
2
100
AcDbEntity
  8
0
100
AcDbLine
 10
660.0965988050759
 20
261.5950761097177
 30
0.0
 11
656.9570008182656
 21
261.7047132873116
 31
0.0
  0
ARC
  5
124F
330
2
100
AcDbEntity
  8
0
100
AcDbCircle
 10
660.0267998116708
 20
259.5962944556799
 30
0.0
 40
2.0
100
AcDbArc
 50
0.0
 51
87.99999999999636
  0
ARC
  5
1250
330
2
100
AcDbEntity
  8
0
100
AcDbCircle
 10
657.0267998116707
 20
263.7034949413495
 30
0.0
 40
2.0
100
AcDbArc
 50
180.0
 51
267.9999999999963
  0
LINE
  5
1251
330
2
100
AcDbEntity
  8
0
100
AcDbLine
 10
660.0965988050996
 20
305.949158673758
 30
0.0
 11
656.9570008182893
 21
305.8395214961669
 31
0.0
  0
ARC
  5
1252
330
2
100
AcDbEntity
  8
0
100
AcDbCircle
 10
660.0267998116962
 20
307.9479403277959
 30
0.0
 40
2.0
100
AcDbArc
 50
271.9999999999515
 51
359.9999999999478
  0
ARC
  5
1253
330
2
100
AcDbEntity
  8
0
100
AcDbCircle
 10
657.0267998116917
 20
303.8407398421299
 30
0.0
 40
2.0
100
AcDbArc
 50
91.99999999995149
 51
179.9999999999479
  0
LINE
  5
1254
330
2
100
AcDbEntity
  8
0
100
AcDbLine
 10
668.4041866070822
 20
314.3434308407635
 30
0.0
 11
665.0267998116726
 21
314.3139568327216
 31
0.0
  0
LINE
  5
1255
330
2
100
AcDbEntity
  8
0
100
AcDbLine
 10
668.4041866070831
 20
253.2008039427068
 30
0.0
 11
665.0267998116726
 21
253.2302779507499
 31
0.0
  0
LINE
  5
1256
330
2
100
AcDbEntity
  8
0
100
AcDbLine
 10
734.0267998116772
 20
306.1947671225522
 30
0.0
 11
734.0267998116772
 21
261.3494676609299
 31
0.0
  0
LINE
  5
1257
330
2
100
AcDbEntity
  8
0
100
AcDbLine
 10
729.3267998116764
 20
306.7721173917413
 30
0.0
 11
729.1558320697295
 21
306.7721173917414
 31
0.0
  0
LINE
  5
1258
330
2
100
AcDbEntity
  8
0
100
AcDbLine
 10
733.0267998116762
 20
306.7721173917417
 30
0.0
 11
734.0267998116772
 21
306.1947671225522
 31
0.0
  0
LINE
  5
1259
330
2
100
AcDbEntity
  8
0
100
AcDbLine
 10
729.5267998116771
 20
306.572117391741
 30
0.0
 11
729.3267998116764
 21
306.7721173917413
 31
0.0
  0
LINE
  5
125A
330
2
100
AcDbEntity
  8
0
100
AcDbLine
 10
733.0267998116771
 20
306.7721173917417
 30
0.0
 11
731.726799811676
 21
306.7721173917413
 31
0.0
  0
LINE
  5
125B
330
2
100
AcDbEntity
  8
0
100
AcDbLine
 10
731.5267998116771
 20
306.5721173917415
 30
0.0
 11
731.5267998116771
 21
260.9721173917404
 31
0.0
  0
LINE
  5
125C
330
2
100
AcDbEntity
  8
0
100
AcDbLine
 10
731.3267998116764
 20
306.0721173917415
 30
0.0
 11
729.726799811676
 21
306.0721173917412
 31
0.0
  0
LINE
  5
125D
330
2
100
AcDbEntity
  8
0
100
AcDbLine
 10
729.5267998116771
 20
306.572117391741
 30
0.0
 11
729.5267998116771
 21
260.9721173917407
 31
0.0
  0
LINE
  5
125E
330
2
100
AcDbEntity
  8
0
100
AcDbLine
 10
729.3267998116764
 20
260.7721173917409
 30
0.0
 11
729.1558320697297
 21
260.7721173917409
 31
0.0
  0
LINE
  5
125F
330
2
100
AcDbEntity
  8
0
100
AcDbLine
 10
731.3267998116764
 20
261.4721173917404
 30
0.0
 11
729.726799811676
 21
261.4721173917406
 31
0.0
  0
LINE
  5
1260
330
2
100
AcDbEntity
  8
0
100
AcDbLine
 10
729.5267998116771
 20
260.9721173917407
 30
0.0
 11
729.3267998116764
 21
260.7721173917409
 31
0.0
  0
LINE
  5
1261
330
2
100
AcDbEntity
  8
0
100
AcDbLine
 10
733.0267998116762
 20
260.7721173917404
 30
0.0
 11
734.0267998116772
 21
261.3494676609299
 31
0.0
  0
LINE
  5
1262
330
2
100
AcDbEntity
  8
0
100
AcDbLine
 10
733.0267998116771
 20
260.7721173917404
 30
0.0
 11
731.726799811676
 21
260.7721173917404
 31
0.0
  0
ARC
  5
1263
330
2
100
AcDbEntity
  8
0
100
AcDbCircle
 10
731.726799811676
 20
260.9721173917404
 30
0.0
 40
0.2
100
AcDbArc
 50
180.0
 51
270.0
  0
ARC
  5
1264
330
2
100
AcDbEntity
  8
0
100
AcDbCircle
 10
731.3267998116764
 20
261.2721173917404
 30
0.0
 40
0.2
100
AcDbArc
 50
0.0
 51
90.0
  0
ARC
  5
1265
330
2
100
AcDbEntity
  8
0
100
AcDbCircle
 10
729.726799811676
 20
261.2721173917408
 30
0.0
 40
0.2
100
AcDbArc
 50
90.0
 51
180.0
  0
ARC
  5
1266
330
2
100
AcDbEntity
  8
0
100
AcDbCircle
 10
731.726799811676
 20
306.5721173917415
 30
0.0
 40
0.2
100
AcDbArc
 50
90.0
 51
180.0
  0
ARC
  5
1267
330
2
100
AcDbEntity
  8
0
100
AcDbCircle
 10
731.3267998116764
 20
306.2721173917415
 30
0.0
 40
0.2
100
AcDbArc
 50
270.0
 51
0.0
  0
ARC
  5
1268
330
2
100
AcDbEntity
  8
0
100
AcDbCircle
 10
729.726799811676
 20
306.2721173917413
 30
0.0
 40
0.2
100
AcDbArc
 50
180.0
 51
270.0
  0
LINE
  5
1269
330
2
100
AcDbEntity
  8
0
100
AcDbLine
 10
733.0267998116762
 20
306.7721173917417
 30
0.0
 11
733.0267998116762
 21
260.7721173917404
 31
0.0
  0
LINE
  5
126A
330
2
100
AcDbEntity
  8
0
100
AcDbLine
 10
729.3267998116764
 20
260.7721173917409
 30
0.0
 11
729.3267998116764
 21
271.3721173924755
 31
0.0
  0
LINE
  5
126B
330
2
100
AcDbEntity
  8
0
100
AcDbLine
 10
729.526799811679
 20
253.5221173917374
 30
0.0
 11
728.0642448694618
 21
253.5221173917372
 31
0.0
  0
LINE
  5
126C
330
2
100
AcDbEntity
  8
0
100
AcDbLine
 10
729.526799811679
 20
262.0221173917375
 30
0.0
 11
729.526799811679
 21
253.5221173917374
 31
0.0
  0
LINE
  5
126D
330
2
100
AcDbEntity
  8
0
100
AcDbLine
 10
729.526799811679
 20
253.5221173917374
 30
0.0
 11
729.82679981168
 21
254.0417326340083
 31
0.0
  0
LINE
  5
126E
330
2
100
AcDbEntity
  8
0
100
AcDbLine
 10
729.82679981168
 20
261.4721173917406
 30
0.0
 11
729.82679981168
 21
254.0417326340083
 31
0.0
  0
LINE
  5
126F
330
2
100
AcDbEntity
  8
0
100
AcDbLine
 10
729.526799811679
 20
314.0221173917447
 30
0.0
 11
728.0642448694618
 21
314.0221173917445
 31
0.0
  0
LINE
  5
1270
330
2
100
AcDbEntity
  8
0
100
AcDbLine
 10
729.526799811679
 20
305.5221173917447
 30
0.0
 11
729.526799811679
 21
314.0221173917447
 31
0.0
  0
LINE
  5
1271
330
2
100
AcDbEntity
  8
0
100
AcDbLine
 10
729.526799811679
 20
314.0221173917447
 30
0.0
 11
729.82679981168
 21
313.5025021494738
 31
0.0
  0
LINE
  5
1272
330
2
100
AcDbEntity
  8
0
100
AcDbLine
 10
729.8267998116791
 20
306.0721173917415
 30
0.0
 11
729.82679981168
 21
313.5025021494738
 31
0.0
  0
LINE
  5
1273
330
2
100
AcDbEntity
  8
0
100
AcDbLine
 10
645.0267998116762
 20
293.2721216063579
 30
0.0
 11
655.0267998116708
 21
293.2721216063579
 31
0.0
  0
LINE
  5
1274
330
2
100
AcDbEntity
  8
0
100
AcDbLine
 10
645.0267998116762
 20
274.2721216063579
 30
0.0
 11
655.0267998116708
 21
274.2721216063579
 31
0.0
  0
LINE
  5
1275
330
2
100
AcDbEntity
  8
0
100
AcDbLine
 10
645.0267998116762
 20
274.2721216063579
 30
0.0
 11
645.0267998116762
 21
293.2721216063579
 31
0.0
  0
LINE
  5
1276
330
2
100
AcDbEntity
  8
0
100
AcDbLine
 10
736.0267998116762
 20
293.2721216063579
 30
0.0
 11
734.0267998116762
 21
293.2721216063579
 31
0.0
  0
LINE
  5
1277
330
2
100
AcDbEntity
  8
0
100
AcDbLine
 10
736.0267998116762
 20
274.2721216063579
 30
0.0
 11
734.0267998116762
 21
274.2721216063579
 31
0.0
  0
LINE
  5
1278
330
2
100
AcDbEntity
  8
0
100
AcDbLine
 10
736.0267998116762
 20
293.2721216063579
 30
0.0
 11
736.0267998116762
 21
274.2721216063579
 31
0.0
  0
LINE
  5
127A
330
2
100
AcDbEntity
  8
0
100
AcDbLine
 10
527.8669039911012
 20
499.2195876798091
 30
0.0
 11
527.8669039911003
 21
452.4795876798093
 31
0.0
  0
LINE
  5
127B
330
2
100
AcDbEntity
  8
0
100
AcDbLine
 10
552.8669039911003
 20
478.8495876798092
 30
0.0
 11
552.8669039911003
 21
501.8495876798093
 31
0.0
  0
ARC
  5
127C
330
2
100
AcDbEntity
  8
0
100
AcDbCircle
 10
556.8669039910998
 20
501.8495876798093
 30
0.0
 40
4.0
100
AcDbArc
 50
90.0
 51
180.0
  0
LINE
  5
127D
330
2
100
AcDbEntity
  8
0
100
AcDbLine
 10
562.8669039911003
 20
505.8495876798093
 30
0.0
 11
532.3725987233285
 21
505.8495876798093
 31
0.0
  0
LINE
  5
127E
330
2
100
AcDbEntity
  8
0
100
AcDbLine
 10
526.8669039911012
 20
506.8495876798093
 30
0.0
 11
519.8669039911003
 21
506.8495876798093
 31
0.0
  0
ARC
  5
127F
330
2
100
AcDbEntity
  8
0
100
AcDbCircle
 10
529.5126553021657
 20
508.8495876798092
 30
0.0
 40
3.0
100
AcDbArc
 50
228.5903778907302
 51
241.2428429585938
  0
ARC
  5
1280
330
2
100
AcDbEntity
  8
0
100
AcDbCircle
 10
526.8669039911012
 20
505.8495876798093
 30
0.0
 40
1.0
100
AcDbArc
 50
21.71561728325768
 51
90.0
  0
ARC
  5
1281
330
2
100
AcDbEntity
  8
0
100
AcDbCircle
 10
556.8669039911003
 20
449.8495876798092
 30
0.0
 40
4.0
100
AcDbArc
 50
180.0
 51
270.0
  0
ARC
  5
1282
330
2
100
AcDbEntity
  8
0
100
AcDbCircle
 10
549.8669039911003
 20
452.8495876798093
 30
0.0
 40
3.0
100
AcDbArc
 50
0.0
 51
90.0
  0
ARC
  5
1283
330
2
100
AcDbEntity
  8
0
100
AcDbCircle
 10
549.8669039911003
 20
478.8495876798092
 30
0.0
 40
3.0
100
AcDbArc
 50
270.0
 51
0.0
  0
LINE
  5
1284
330
2
100
AcDbEntity
  8
0
100
AcDbLine
 10
538.8669039910999
 20
458.8495876798092
 30
0.0
 11
538.8669039911003
 21
472.8495876798093
 31
0.0
  0
LINE
  5
1285
330
2
100
AcDbEntity
  8
0
100
AcDbLine
 10
549.8669039911003
 20
475.8495876798092
 30
0.0
 11
541.8669039911003
 21
475.8495876798092
 31
0.0
  0
ARC
  5
1286
330
2
100
AcDbEntity
  8
0
100
AcDbCircle
 10
541.8669039911003
 20
472.8495876798093
 30
0.0
 40
3.0
100
AcDbArc
 50
90.0
 51
180.0
  0
LINE
  5
1287
330
2
100
AcDbEntity
  8
0
100
AcDbLine
 10
549.8669039911003
 20
455.8495876798093
 30
0.0
 11
541.8669039910999
 21
455.8495876798093
 31
0.0
  0
LINE
  5
1288
330
2
100
AcDbEntity
  8
0
100
AcDbLine
 10
552.8669039911003
 20
449.8495876798092
 30
0.0
 11
552.8669039911003
 21
452.8495876798093
 31
0.0
  0
ARC
  5
1289
330
2
100
AcDbEntity
  8
0
100
AcDbCircle
 10
541.8669039910999
 20
458.8495876798092
 30
0.0
 40
3.0
100
AcDbArc
 50
180.0
 51
270.0
  0
LINE
  5
128A
330
2
100
AcDbEntity
  8
0
100
AcDbLine
 10
562.8669039911003
 20
445.8495876798092
 30
0.0
 11
532.372598723329
 21
445.8495876798092
 31
0.0
  0
LINE
  5
128B
330
2
100
AcDbEntity
  8
0
100
AcDbLine
 10
526.8669039910998
 20
444.8495876798093
 30
0.0
 11
519.8669039911003
 21
444.8495876798093
 31
0.0
  0
ARC
  5
128C
330
2
100
AcDbEntity
  8
0
100
AcDbCircle
 10
529.5126553021648
 20
442.8495876798093
 30
0.0
 40
3.0
100
AcDbArc
 50
118.7571570414059
 51
131.4096221092842
  0
ARC
  5
128D
330
2
100
AcDbEntity
  8
0
100
AcDbCircle
 10
526.8669039910998
 20
445.8495876798092
 30
0.0
 40
1.0
100
AcDbArc
 50
270.0
 51
338.2843827167423
  0
LINE
  5
128E
330
2
100
AcDbEntity
  8
0
100
AcDbLine
 10
562.8669039911003
 20
445.8495876798092
 30
0.0
 11
562.8669039911003
 21
505.8495876798093
 31
0.0
  0
LINE
  5
128F
330
2
100
AcDbEntity
  8
0
100
AcDbLine
 10
553.2720329362671
 20
306.9819391158617
 30
0.0
 11
553.3219542107842
 21
309.8419270175004
 31
0.0
  0
LINE
  5
1290
330
2
100
AcDbEntity
  8
0
100
AcDbLine
 10
527.7382686126632
 20
291.1416332870963
 30
0.0
 11
527.3429474103652
 21
313.7895697981889
 31
0.0
  0
LINE
  5
1291
330
2
100
AcDbEntity
  8
0
100
AcDbLine
 10
519.8669039911003
 20
283.7721173917512
 30
0.0
 11
520.3269433442862
 21
283.7721173917513
 31
0.0
  0
ARC
  5
1292
330
2
100
AcDbEntity
  8
0
100
AcDbCircle
 10
535.7833393664025
 20
309.0108838525253
 30
0.0
 40
3.0
100
AcDbArc
 50
270.000000000013
 51
359.0000000000242
  0
LINE
  5
1293
330
2
100
AcDbEntity
  8
0
100
AcDbLine
 10
550.254626119465
 20
306.0108838525257
 30
0.0
 11
535.7833393664025
 21
306.0108838525257
 31
0.0
  0
LINE
  5
1294
330
2
100
AcDbEntity
  8
0
100
AcDbLine
 10
532.3725987233285
 20
253.7721173917512
 30
0.0
 11
562.8669039911003
 21
253.7721173917512
 31
0.0
  0
LINE
  5
1295
330
2
100
AcDbEntity
  8
0
100
AcDbLine
 10
552.8669039911003
 20
283.7721173917512
 30
0.0
 11
553.3219542107847
 21
257.7023077660019
 31
0.0
  0
ARC
  5
1296
330
2
100
AcDbEntity
  8
0
100
AcDbCircle
 10
557.3213449914098
 20
257.7721173917512
 30
0.0
 40
4.0
100
AcDbArc
 50
181.0000000000017
 51
270.0
  0
ARC
  5
1297
330
2
100
AcDbEntity
  8
0
100
AcDbCircle
 10
540.8322985173311
 20
311.7721173917512
 30
0.0
 40
2.0
100
AcDbArc
 50
90.0
 51
179.0000000000242
  0
LINE
  5
1298
330
2
100
AcDbEntity
  8
0
100
AcDbLine
 10
538.8326031270187
 20
311.8070222046258
 30
0.0
 11
538.7828824518721
 21
308.9585266332138
 31
0.0
  0
LINE
  5
1299
330
2
100
AcDbEntity
  8
0
100
AcDbLine
 10
527.866903991108
 20
283.7721173917512
 30
0.0
 11
527.3429474103661
 21
253.7546649853139
 31
0.0
  0
ARC
  5
129A
330
2
100
AcDbEntity
  8
0
100
AcDbCircle
 10
528.9888510262738
 20
250.7721173917512
 30
0.0
 40
3.0
100
AcDbArc
 50
118.7571570414059
 51
131.4096221092698
  0
ARC
  5
129B
330
2
100
AcDbEntity
  8
0
100
AcDbCircle
 10
526.3430997152097
 20
253.7721173917512
 30
0.0
 40
1.0
100
AcDbArc
 50
270.0
 51
358.9999999999852
  0
LINE
  5
129C
330
2
100
AcDbEntity
  8
0
100
AcDbLine
 10
519.8669039911003
 20
252.7721173917512
 30
0.0
 11
526.3430997152097
 21
252.7721173917512
 31
0.0
  0
LINE
  5
129D
330
2
100
AcDbEntity
  8
0
100
AcDbLine
 10
532.3725987233285
 20
313.7721173917512
 30
0.0
 11
562.8669039911003
 21
313.7721173917512
 31
0.0
  0
LINE
  5
129E
330
2
100
AcDbEntity
  8
CENTER
  6
CENS
100
AcDbLine
 10
548.8669039911003
 20
322.7721173917544
 30
0.0
 11
548.8669039911003
 21
300.289707674001
 31
0.0
  0
ARC
  5
129F
330
2
100
AcDbEntity
  8
0
100
AcDbCircle
 10
557.3213449914094
 20
309.7721173917512
 30
0.0
 40
4.0
100
AcDbArc
 50
90.0
 51
178.9999999999982
  0
ARC
  5
12A0
330
2
100
AcDbEntity
  8
0
100
AcDbCircle
 10
528.9888510262723
 20
316.7721173917512
 30
0.0
 40
3.0
100
AcDbArc
 50
228.5903778907486
 51
241.2428429585938
  0
ARC
  5
12A1
330
2
100
AcDbEntity
  8
0
100
AcDbCircle
 10
526.3430997152084
 20
313.7721173917512
 30
0.0
 40
1.0
100
AcDbArc
 50
1.000000000014801
 51
90.0
  0
LINE
  5
12A2
330
2
100
AcDbEntity
  8
0
100
AcDbLine
 10
519.8669039911003
 20
314.7721173917512
 30
0.0
 11
526.3430997152084
 21
314.7721173917512
 31
0.0
  0
LINE
  5
12A3
330
2
100
AcDbEntity
  8
0
100
AcDbLine
 10
562.8669039911003
 20
313.7721173917512
 30
0.0
 11
562.8669039911003
 21
253.7721173917512
 31
0.0
  0
LINE
  5
12A4
330
2
100
AcDbEntity
  8
0
100
AcDbLine
 10
528.4589791237287
 20
314.1421173917511
 30
0.0
 11
527.4589791237287
 21
314.1421173917511
 31
0.0
  0
LINE
  5
12A5
330
2
100
AcDbEntity
  8
0
100
AcDbLine
 10
527.4589791237287
 20
314.1421173917511
 30
0.0
 11
527.4589791237287
 21
307.1421173917511
 31
0.0
  0
LINE
  5
12A6
330
2
100
AcDbEntity
  8
0
100
AcDbLine
 10
527.4589791237287
 20
307.1421173917511
 30
0.0
 11
528.4589791237287
 21
307.1421173917511
 31
0.0
  0
LINE
  5
12A7
330
2
100
AcDbEntity
  8
0
100
AcDbLine
 10
528.4589791237287
 20
307.1421173917511
 30
0.0
 11
528.4589791237287
 21
314.1421173917511
 31
0.0
  0
LINE
  5
12A8
330
2
100
AcDbEntity
  8
0
100
AcDbLine
 10
532.4589791237287
 20
313.6225021494806
 30
0.0
 11
532.4589791237287
 21
307.6617326340215
 31
0.0
  0
LINE
  5
12A9
330
2
100
AcDbEntity
  8
0
100
AcDbLine
 10
532.1589791237285
 20
307.1421173917511
 30
0.0
 11
532.1589791237285
 21
314.1421173917511
 31
0.0
  0
LINE
  5
12AA
330
2
100
AcDbEntity
  8
0
100
AcDbLine
 10
532.1589791237285
 20
307.1421173917511
 30
0.0
 11
528.4589791237287
 21
307.1421173917511
 31
0.0
  0
LINE
  5
12AB
330
2
100
AcDbEntity
  8
0
100
AcDbLine
 10
532.1589791237285
 20
307.1421173917511
 30
0.0
 11
532.4589791237287
 21
307.6617326340215
 31
0.0
  0
LINE
  5
12AC
330
2
100
AcDbEntity
  8
0
100
AcDbLine
 10
532.4589791237287
 20
313.6225021494806
 30
0.0
 11
532.1589791237285
 21
314.1421173917511
 31
0.0
  0
LINE
  5
12AD
330
2
100
AcDbEntity
  8
0
100
AcDbLine
 10
528.4589791237287
 20
314.1421173917511
 30
0.0
 11
532.1589791237285
 21
314.1421173917511
 31
0.0
  0
LINE
  5
12AE
330
2
100
AcDbEntity
  8
CENTER
  6
CENS
100
AcDbLine
 10
537.3978863964786
 20
310.6421173917516
 30
0.0
 11
514.3979293068562
 21
310.6421173917516
 31
0.0
  0
LINE
  5
12AF
330
2
100
AcDbEntity
  8
CENTER
  6
CENS
100
AcDbLine
 10
537.3978863964786
 20
256.9021173917509
 30
0.0
 11
514.3979293068562
 21
256.9021173917509
 31
0.0
  0
LINE
  5
12B0
330
2
100
AcDbEntity
  8
CENTER
  6
CENS
100
AcDbLine
 10
537.3978863964786
 20
448.9795876798094
 30
0.0
 11
514.3979293068562
 21
448.9795876798094
 31
0.0
  0
LINE
  5
12B1
330
2
100
AcDbEntity
  8
0
100
AcDbLine
 10
528.4589791237287
 20
445.4795876798094
 30
0.0
 11
527.4589791237287
 21
445.4795876798094
 31
0.0
  0
LINE
  5
12B2
330
2
100
AcDbEntity
  8
0
100
AcDbLine
 10
527.4589791237287
 20
452.4795876798093
 30
0.0
 11
528.4589791237287
 21
452.4795876798093
 31
0.0
  0
LINE
  5
12B3
330
2
100
AcDbEntity
  8
0
100
AcDbLine
 10
528.4589791237287
 20
452.4795876798093
 30
0.0
 11
528.4589791237287
 21
445.4795876798094
 31
0.0
  0
LINE
  5
12B4
330
2
100
AcDbEntity
  8
0
100
AcDbLine
 10
532.4589791237287
 20
445.9992029220803
 30
0.0
 11
532.4589791237287
 21
451.9599724375389
 31
0.0
  0
LINE
  5
12B5
330
2
100
AcDbEntity
  8
0
100
AcDbLine
 10
532.1589791237285
 20
452.4795876798093
 30
0.0
 11
532.1589791237285
 21
445.4795876798094
 31
0.0
  0
LINE
  5
12B6
330
2
100
AcDbEntity
  8
0
100
AcDbLine
 10
532.1589791237285
 20
452.4795876798093
 30
0.0
 11
528.4589791237287
 21
452.4795876798093
 31
0.0
  0
LINE
  5
12B7
330
2
100
AcDbEntity
  8
0
100
AcDbLine
 10
532.1589791237285
 20
452.4795876798093
 30
0.0
 11
532.4589791237287
 21
451.9599724375389
 31
0.0
  0
LINE
  5
12B8
330
2
100
AcDbEntity
  8
0
100
AcDbLine
 10
532.4589791237287
 20
445.9992029220803
 30
0.0
 11
532.1589791237285
 21
445.4795876798094
 31
0.0
  0
LINE
  5
12B9
330
2
100
AcDbEntity
  8
0
100
AcDbLine
 10
528.4589791237287
 20
445.4795876798094
 30
0.0
 11
532.1589791237285
 21
445.4795876798094
 31
0.0
  0
LINE
  5
12BA
330
2
100
AcDbEntity
  8
0
100
AcDbLine
 10
527.4589791237287
 20
445.4795876798094
 30
0.0
 11
527.4589791237287
 21
452.4795876798093
 31
0.0
  0
LINE
  5
12BB
330
2
100
AcDbEntity
  8
0
100
AcDbLine
 10
527.4589791237287
 20
452.4795876798093
 30
0.0
 11
527.4589791237287
 21
445.4795876798094
 31
0.0
  0
LINE
  5
12BC
330
2
100
AcDbEntity
  8
CENTER
  6
CENS
100
AcDbLine
 10
537.3978863964786
 20
502.7195876798096
 30
0.0
 11
514.3979293068562
 21
502.7195876798096
 31
0.0
  0
LINE
  5
12BD
330
2
100
AcDbEntity
  8
0
100
AcDbLine
 10
528.4589791237287
 20
506.2195876798091
 30
0.0
 11
527.4589791237287
 21
506.2195876798091
 31
0.0
  0
LINE
  5
12BE
330
2
100
AcDbEntity
  8
0
100
AcDbLine
 10
527.4589791237287
 20
499.2195876798091
 30
0.0
 11
528.4589791237287
 21
499.2195876798091
 31
0.0
  0
LINE
  5
12BF
330
2
100
AcDbEntity
  8
0
100
AcDbLine
 10
528.4589791237287
 20
499.2195876798091
 30
0.0
 11
528.4589791237287
 21
506.2195876798091
 31
0.0
  0
LINE
  5
12C0
330
2
100
AcDbEntity
  8
0
100
AcDbLine
 10
532.4589791237287
 20
505.6999724375387
 30
0.0
 11
532.4589791237287
 21
499.7392029220801
 31
0.0
  0
LINE
  5
12C1
330
2
100
AcDbEntity
  8
0
100
AcDbLine
 10
532.1589791237285
 20
499.2195876798091
 30
0.0
 11
532.1589791237285
 21
506.2195876798091
 31
0.0
  0
LINE
  5
12C2
330
2
100
AcDbEntity
  8
0
100
AcDbLine
 10
532.1589791237285
 20
499.2195876798091
 30
0.0
 11
528.4589791237287
 21
499.2195876798091
 31
0.0
  0
LINE
  5
12C3
330
2
100
AcDbEntity
  8
0
100
AcDbLine
 10
532.1589791237285
 20
499.2195876798091
 30
0.0
 11
532.4589791237287
 21
499.7392029220801
 31
0.0
  0
LINE
  5
12C4
330
2
100
AcDbEntity
  8
0
100
AcDbLine
 10
532.4589791237287
 20
505.6999724375387
 30
0.0
 11
532.1589791237285
 21
506.2195876798091
 31
0.0
  0
LINE
  5
12C5
330
2
100
AcDbEntity
  8
0
100
AcDbLine
 10
528.4589791237287
 20
506.2195876798091
 30
0.0
 11
532.1589791237285
 21
506.2195876798091
 31
0.0
  0
LINE
  5
12C6
330
2
100
AcDbEntity
  8
0
100
AcDbLine
 10
527.4589791237287
 20
506.2195876798091
 30
0.0
 11
527.4589791237287
 21
499.2195876798091
 31
0.0
  0
LINE
  5
12C7
330
2
100
AcDbEntity
  8
0
100
AcDbLine
 10
527.4589791237287
 20
499.2195876798091
 30
0.0
 11
527.4589791237287
 21
506.2195876798091
 31
0.0
  0
LINE
  5
12C8
330
2
100
AcDbEntity
  8
0
100
AcDbLine
 10
528.4589791237287
 20
253.4021173917513
 30
0.0
 11
527.4589791237287
 21
253.4021173917513
 31
0.0
  0
LINE
  5
12C9
330
2
100
AcDbEntity
  8
0
100
AcDbLine
 10
527.4589791237287
 20
253.4021173917513
 30
0.0
 11
527.4589791237287
 21
260.4021173917513
 31
0.0
  0
LINE
  5
12CA
330
2
100
AcDbEntity
  8
0
100
AcDbLine
 10
527.4589791237287
 20
260.4021173917513
 30
0.0
 11
528.4589791237287
 21
260.4021173917513
 31
0.0
  0
LINE
  5
12CB
330
2
100
AcDbEntity
  8
0
100
AcDbLine
 10
528.4589791237287
 20
260.4021173917513
 30
0.0
 11
528.4589791237287
 21
253.4021173917513
 31
0.0
  0
LINE
  5
12CC
330
2
100
AcDbEntity
  8
0
100
AcDbLine
 10
532.4589791237287
 20
253.9217326340217
 30
0.0
 11
532.4589791237287
 21
259.8825021494809
 31
0.0
  0
LINE
  5
12CD
330
2
100
AcDbEntity
  8
0
100
AcDbLine
 10
532.1589791237285
 20
260.4021173917513
 30
0.0
 11
532.1589791237285
 21
253.4021173917513
 31
0.0
  0
LINE
  5
12CE
330
2
100
AcDbEntity
  8
0
100
AcDbLine
 10
532.1589791237285
 20
260.4021173917513
 30
0.0
 11
528.4589791237287
 21
260.4021173917513
 31
0.0
  0
LINE
  5
12CF
330
2
100
AcDbEntity
  8
0
100
AcDbLine
 10
532.1589791237285
 20
260.4021173917513
 30
0.0
 11
532.4589791237287
 21
259.8825021494809
 31
0.0
  0
LINE
  5
12D0
330
2
100
AcDbEntity
  8
0
100
AcDbLine
 10
532.4589791237287
 20
253.9217326340217
 30
0.0
 11
532.1589791237285
 21
253.4021173917513
 31
0.0
  0
LINE
  5
12D1
330
2
100
AcDbEntity
  8
0
100
AcDbLine
 10
528.4589791237287
 20
253.4021173917513
 30
0.0
 11
532.1589791237285
 21
253.4021173917513
 31
0.0
  0
LINE
  5
12D2
330
2
100
AcDbEntity
  8
0
100
AcDbLine
 10
553.3668933820497
 20
289.2721173917517
 30
0.0
 11
543.3668933820492
 21
289.2721173917517
 31
0.0
  0
LINE
  5
12D3
330
2
100
AcDbEntity
  8
0
100
AcDbLine
 10
553.3668933820497
 20
289.2721173917512
 30
0.0
 11
553.3668933820497
 21
283.7721173917512
 31
0.0
  0
LINE
  5
12D4
330
2
100
AcDbEntity
  8
0
100
AcDbLine
 10
555.3668933820497
 20
290.4268179301307
 30
0.0
 11
553.3668933820497
 21
289.2721173917512
 31
0.0
  0
LINE
  5
12D5
330
2
100
AcDbEntity
  8
0
100
AcDbLine
 10
526.3668933820501
 20
289.5221173917512
 30
0.0
 11
526.3668933820501
 21
283.7721173917512
 31
0.0
  0
LINE
  5
12D6
330
2
100
AcDbEntity
  8
0
100
AcDbLine
 10
553.3668933820497
 20
289.2721173917512
 30
0.0
 11
543.3668933820497
 21
289.2721173917512
 31
0.0
  0
LINE
  5
12D7
330
2
100
AcDbEntity
  8
0
100
AcDbLine
 10
548.2791075607226
 20
298.5221173917512
 30
0.0
 11
555.3668933820497
 21
298.5221173917512
 31
0.0
  0
LINE
  5
12D8
330
2
100
AcDbEntity
  8
0
100
AcDbLine
 10
555.3668933820497
 20
298.5221173917512
 30
0.0
 11
555.3668933820497
 21
283.7721173917512
 31
0.0
  0
LINE
  5
12D9
330
2
100
AcDbEntity
  8
0
100
AcDbLine
 10
541.3668933820497
 20
294.0567985784742
 30
0.0
 11
541.3668933820497
 21
283.7721173917512
 31
0.0
  0
LINE
  5
12DA
330
2
100
AcDbEntity
  8
0
100
AcDbLine
 10
543.3668933820497
 20
294.5821987259065
 30
0.0
 11
543.3668933820497
 21
283.7721173917512
 31
0.0
  0
LINE
  5
12DB
330
2
100
AcDbEntity
  8
0
100
AcDbLine
 10
534.3668933820501
 20
289.5221173917512
 30
0.0
 11
526.3668933820501
 21
289.5221173917512
 31
0.0
  0
LINE
  5
12DC
330
2
100
AcDbEntity
  8
0
100
AcDbLine
 10
534.3668933820501
 20
283.7721173917512
 30
0.0
 11
534.3668933820501
 21
289.5221173917512
 31
0.0
  0
LINE
  5
12DD
330
2
100
AcDbEntity
  8
0
100
AcDbLine
 10
541.3668933820497
 20
289.2721173917512
 30
0.0
 11
534.3668933820501
 21
289.2721173917512
 31
0.0
  0
LINE
  5
12DE
330
2
100
AcDbEntity
  8
0
100
AcDbLine
 10
523.480142036102
 20
283.7721173917512
 30
0.0
 11
526.3668933820501
 21
288.7721173917512
 31
0.0
  0
LINE
  5
12DF
330
2
100
AcDbEntity
  8
0
100
AcDbLine
 10
555.8669039911003
 20
308.7721173917512
 30
0.0
 11
555.8669039911007
 21
283.7721173917512
 31
0.0
  0
LINE
  5
12E0
330
2
100
AcDbEntity
  8
0
100
AcDbLine
 10
562.8669039911003
 20
308.7721173917512
 30
0.0
 11
555.8669039911003
 21
308.7721173917512
 31
0.0
  0
SPLINE
  5
12E1
330
2
100
AcDbEntity
  8
HOJO
100
AcDbSpline
210
0.0
220
0.0
230
1.0
 70
     8
 71
     3
 72
    20
 73
    16
 74
     0
 42
0.0000000001
 43
0.0000000001
 40
0.0
 40
0.0
 40
0.0
 40
0.0
 40
5.311626210389601
 40
7.954639692924123
 40
10.24579206730457
 40
14.18281221953265
 40
18.83794314114633
 40
26.54246833222011
 40
31.19712602527561
 40
34.95638115537181
 40
42.12378530287149
 40
45.78553747213095
 40
50.20353689726185
 40
53.26513166942802
 40
54.23175360515262
 40
54.23175360515262
 40
54.23175360515262
 40
54.23175360515262
 10
562.8669039911003
 20
310.4595661137673
 30
0.0
 10
561.1539248252118
 20
310.3515240635411
 30
0.0
 10
558.5885839058007
 20
310.1897213411371
 30
0.0
 10
554.8168300187237
 20
309.9375886689691
 30
0.0
 10
553.4976888025896
 20
307.0051471840025
 30
0.0
 10
551.0624794342991
 20
304.3506383607069
 30
0.0
 10
549.2244310911489
 20
299.1993429275431
 30
0.0
 10
545.0995946816717
 20
294.4895955759175
 30
0.0
 10
539.6219471786655
 20
293.852264141498
 30
0.0
 10
534.7085616690999
 20
292.1659451947903
 30
0.0
 10
529.8745623223415
 20
291.5459581028163
 30
0.0
 10
524.8368355577029
 20
290.590734085155
 30
0.0
 10
521.7656849363331
 20
288.0565222424043
 30
0.0
 10
520.7657106416075
 20
285.3782817215147
 30
0.0
 10
520.4096711163749
 20
284.0832686914437
 30
0.0
 10
520.3269433442862
 20
283.7721173917512
 30
0.0
  0
LINE
  5
12E2
330
2
100
AcDbEntity
  8
0
100
AcDbLine
 10
553.8669039911003
 20
317.7721173917512
 30
0.0
 11
543.8669039911003
 21
317.7721173917512
 31
0.0
  0
ARC
  5
12E3
330
2
100
AcDbEntity
  8
0
100
AcDbCircle
 10
543.8669039911003
 20
313.7721173917512
 30
0.0
 40
4.0
100
AcDbArc
 50
90.0
 51
180.0
  0
ARC
  5
12E4
330
2
100
AcDbEntity
  8
0
100
AcDbCircle
 10
553.8669039911003
 20
313.7721173917512
 30
0.0
 40
4.000000000000028
100
AcDbArc
 50
0.0
 51
90.0
  0
CIRCLE
  5
12E5
330
2
100
AcDbEntity
  8
0
100
AcDbCircle
 10
548.8669039911003
 20
465.3495876798093
 30
0.0
 40
9.0
  0
LINE
  5
12E6
330
2
100
AcDbEntity
  8
CENTER
  6
CENS
100
AcDbLine
 10
548.8669039911003
 20
453.8090767756858
 30
0.0
 11
548.8669039911003
 21
476.8900985839336
 31
0.0
  0
LINE
  5
12E7
330
2
100
AcDbEntity
  8
CENTER
  6
CENS
100
AcDbLine
 10
560.4074148952243
 20
465.3495876798097
 30
0.0
 11
537.3263930869764
 21
465.3495876798097
 31
0.0
  0
LINE
  5
12E8
330
2
100
AcDbEntity
  8
0
100
AcDbLine
 10
83.74391375224901
 20
283.7721173917519
 30
0.0
 11
83.28886353256416
 21
309.8419270175011
 31
0.0
  0
LINE
  5
12E9
330
2
100
AcDbEntity
  8
0
100
AcDbLine
 10
108.7439137522403
 20
283.7721173917519
 30
0.0
 11
109.2678703329831
 21
313.7895697981897
 31
0.0
  0
LINE
  5
12EA
330
2
100
AcDbEntity
  8
0
100
AcDbLine
 10
116.743913752248
 20
283.7721173917519
 30
0.0
 11
73.74391375224809
 21
283.7721173917519
 31
0.0
  0
ARC
  5
12EB
330
2
100
AcDbEntity
  8
0
100
AcDbCircle
 10
100.8274783769459
 20
258.5333509309778
 30
0.0
 40
3.0
100
AcDbArc
 50
90.00000000001303
 51
179.0000000000242
  0
LINE
  5
12EC
330
2
100
AcDbEntity
  8
0
100
AcDbLine
 10
86.35619162388342
 20
261.5333509309774
 30
0.0
 11
100.8274783769459
 21
261.5333509309774
 31
0.0
  0
LINE
  5
12ED
330
2
100
AcDbEntity
  8
0
100
AcDbLine
 10
104.2382190200194
 20
253.7721173917519
 30
0.0
 11
73.74391375224809
 21
253.7721173917519
 31
0.0
  0
LINE
  5
12EE
330
2
100
AcDbEntity
  8
0
100
AcDbLine
 10
83.74391375224808
 20
283.7721173917519
 30
0.0
 11
83.2888635325637
 21
257.7023077660026
 31
0.0
  0
ARC
  5
12EF
330
2
100
AcDbEntity
  8
0
100
AcDbCircle
 10
79.28947275193855
 20
257.7721173917519
 30
0.0
 40
4.0
100
AcDbArc
 50
270.0
 51
358.9999999999982
  0
ARC
  5
12F0
330
2
100
AcDbEntity
  8
0
100
AcDbCircle
 10
95.77851922601736
 20
255.7721173917519
 30
0.0
 40
2.0
100
AcDbArc
 50
270.0
 51
359.0000000000242
  0
LINE
  5
12F1
330
2
100
AcDbEntity
  8
0
100
AcDbLine
 10
97.77821461632971
 20
255.7372125788773
 30
0.0
 11
97.82793529147625
 21
258.5857081502893
 31
0.0
  0
LINE
  5
12F2
330
2
100
AcDbEntity
  8
0
100
AcDbLine
 10
108.7439137522399
 20
283.7721173917519
 30
0.0
 11
109.2678703329822
 21
253.7546649853146
 31
0.0
  0
ARC
  5
12F3
330
2
100
AcDbEntity
  8
0
100
AcDbCircle
 10
107.6219667170742
 20
250.7721173917519
 30
0.0
 40
3.0
100
AcDbArc
 50
48.59037789073019
 51
61.24284295859403
  0
ARC
  5
12F4
330
2
100
AcDbEntity
  8
0
100
AcDbCircle
 10
110.2677180281386
 20
253.7721173917519
 30
0.0
 40
1.0
100
AcDbArc
 50
181.0000000000148
 51
270.0
  0
LINE
  5
12F5
330
2
100
AcDbEntity
  8
0
100
AcDbLine
 10
116.743913752248
 20
252.7721173917519
 30
0.0
 11
110.2677180281386
 21
252.7721173917519
 31
0.0
  0
LINE
  5
12F6
330
2
100
AcDbEntity
  8
0
100
AcDbLine
 10
104.2382190200198
 20
313.7721173917519
 30
0.0
 11
73.74391375224809
 21
313.7721173917519
 31
0.0
  0
LINE
  5
12F7
330
2
100
AcDbEntity
  8
CENTER
  6
CENS
100
AcDbLine
 10
87.74391375224809
 20
322.7721173917551
 30
0.0
 11
87.74391375224809
 21
300.2897076740016
 31
0.0
  0
ARC
  5
12F8
330
2
100
AcDbEntity
  8
0
100
AcDbCircle
 10
79.28947275193855
 20
309.7721173917519
 30
0.0
 40
4.0
100
AcDbArc
 50
1.000000000001775
 51
90.0
  0
ARC
  5
12F9
330
2
100
AcDbEntity
  8
0
100
AcDbCircle
 10
107.6219667170755
 20
316.7721173917519
 30
0.0
 40
3.0
100
AcDbArc
 50
298.7571570414061
 51
311.4096221092513
  0
ARC
  5
12FA
330
2
100
AcDbEntity
  8
0
100
AcDbCircle
 10
110.2677180281395
 20
313.7721173917519
 30
0.0
 40
1.0
100
AcDbArc
 50
90.0
 51
178.9999999999851
  0
LINE
  5
12FB
330
2
100
AcDbEntity
  8
0
100
AcDbLine
 10
116.743913752248
 20
314.7721173917519
 30
0.0
 11
110.2677180281395
 21
314.7721173917519
 31
0.0
  0
LINE
  5
12FC
330
2
100
AcDbEntity
  8
0
100
AcDbLine
 10
73.74391375224809
 20
313.7721173917519
 30
0.0
 11
73.74391375224809
 21
253.7721173917519
 31
0.0
  0
LINE
  5
12FD
330
2
100
AcDbEntity
  8
0
100
AcDbLine
 10
108.1518386196196
 20
314.1421173917517
 30
0.0
 11
109.1518386196196
 21
314.1421173917517
 31
0.0
  0
LINE
  5
12FE
330
2
100
AcDbEntity
  8
0
100
AcDbLine
 10
109.1518386196196
 20
314.1421173917517
 30
0.0
 11
109.1518386196196
 21
307.1421173917518
 31
0.0
  0
LINE
  5
12FF
330
2
100
AcDbEntity
  8
0
100
AcDbLine
 10
109.1518386196196
 20
307.1421173917518
 30
0.0
 11
108.1518386196196
 21
307.1421173917518
 31
0.0
  0
LINE
  5
1300
330
2
100
AcDbEntity
  8
0
100
AcDbLine
 10
108.1518386196196
 20
307.1421173917518
 30
0.0
 11
108.1518386196196
 21
314.1421173917517
 31
0.0
  0
LINE
  5
1301
330
2
100
AcDbEntity
  8
0
100
AcDbLine
 10
104.1518386196196
 20
313.6225021494813
 30
0.0
 11
104.1518386196196
 21
307.6617326340222
 31
0.0
  0
LINE
  5
1302
330
2
100
AcDbEntity
  8
0
100
AcDbLine
 10
104.4518386196193
 20
307.1421173917518
 30
0.0
 11
104.4518386196193
 21
314.1421173917517
 31
0.0
  0
LINE
  5
1303
330
2
100
AcDbEntity
  8
0
100
AcDbLine
 10
104.4518386196193
 20
307.1421173917518
 30
0.0
 11
108.1518386196196
 21
307.1421173917518
 31
0.0
  0
LINE
  5
1304
330
2
100
AcDbEntity
  8
0
100
AcDbLine
 10
104.4518386196193
 20
307.1421173917518
 30
0.0
 11
104.1518386196196
 21
307.6617326340222
 31
0.0
  0
LINE
  5
1305
330
2
100
AcDbEntity
  8
0
100
AcDbLine
 10
104.1518386196196
 20
313.6225021494813
 30
0.0
 11
104.4518386196193
 21
314.1421173917517
 31
0.0
  0
LINE
  5
1306
330
2
100
AcDbEntity
  8
0
100
AcDbLine
 10
108.1518386196196
 20
314.1421173917517
 30
0.0
 11
104.4518386196193
 21
314.1421173917517
 31
0.0
  0
LINE
  5
1307
330
2
100
AcDbEntity
  8
CENTER
  6
CENS
100
AcDbLine
 10
99.21293134686971
 20
310.6421173917522
 30
0.0
 11
122.2128884364922
 21
310.6421173917522
 31
0.0
  0
LINE
  5
1308
330
2
100
AcDbEntity
  8
CENTER
  6
CENS
100
AcDbLine
 10
99.21293134686971
 20
256.9021173917515
 30
0.0
 11
122.2128884364922
 21
256.9021173917515
 31
0.0
  0
LINE
  5
1309
330
2
100
AcDbEntity
  8
0
100
AcDbLine
 10
108.1518386196196
 20
253.402117391752
 30
0.0
 11
109.1518386196196
 21
253.402117391752
 31
0.0
  0
LINE
  5
130A
330
2
100
AcDbEntity
  8
0
100
AcDbLine
 10
109.1518386196196
 20
253.402117391752
 30
0.0
 11
109.1518386196196
 21
260.402117391752
 31
0.0
  0
LINE
  5
130B
330
2
100
AcDbEntity
  8
0
100
AcDbLine
 10
109.1518386196196
 20
260.402117391752
 30
0.0
 11
108.1518386196196
 21
260.402117391752
 31
0.0
  0
LINE
  5
130C
330
2
100
AcDbEntity
  8
0
100
AcDbLine
 10
108.1518386196196
 20
260.402117391752
 30
0.0
 11
108.1518386196196
 21
253.402117391752
 31
0.0
  0
LINE
  5
130D
330
2
100
AcDbEntity
  8
0
100
AcDbLine
 10
104.1518386196196
 20
253.9217326340224
 30
0.0
 11
104.1518386196196
 21
259.8825021494815
 31
0.0
  0
LINE
  5
130E
330
2
100
AcDbEntity
  8
0
100
AcDbLine
 10
104.4518386196193
 20
260.402117391752
 30
0.0
 11
104.4518386196193
 21
253.402117391752
 31
0.0
  0
LINE
  5
130F
330
2
100
AcDbEntity
  8
0
100
AcDbLine
 10
104.4518386196193
 20
260.402117391752
 30
0.0
 11
108.1518386196196
 21
260.402117391752
 31
0.0
  0
LINE
  5
1310
330
2
100
AcDbEntity
  8
0
100
AcDbLine
 10
104.4518386196193
 20
260.402117391752
 30
0.0
 11
104.1518386196196
 21
259.8825021494815
 31
0.0
  0
LINE
  5
1311
330
2
100
AcDbEntity
  8
0
100
AcDbLine
 10
104.1518386196196
 20
253.9217326340224
 30
0.0
 11
104.4518386196193
 21
253.402117391752
 31
0.0
  0
LINE
  5
1312
330
2
100
AcDbEntity
  8
0
100
AcDbLine
 10
108.1518386196196
 20
253.402117391752
 30
0.0
 11
104.4518386196193
 21
253.402117391752
 31
0.0
  0
LINE
  5
1313
330
2
100
AcDbEntity
  8
0
100
AcDbLine
 10
82.74391375224809
 20
317.7721173917519
 30
0.0
 11
92.74391375224809
 21
317.7721173917519
 31
0.0
  0
ARC
  5
1314
330
2
100
AcDbEntity
  8
0
100
AcDbCircle
 10
92.74391375224809
 20
313.7721173917519
 30
0.0
 40
4.0
100
AcDbArc
 50
0.0
 51
90.0
  0
ARC
  5
1315
330
2
100
AcDbEntity
  8
0
100
AcDbCircle
 10
82.74391375224809
 20
313.7721173917519
 30
0.0
 40
4.000000000000028
100
AcDbArc
 50
90.0
 51
180.0
  0
LINE
  5
1316
330
2
100
AcDbEntity
  8
0
100
AcDbLine
 10
555.8669039911003
 20
306.2721173917507
 30
0.0
 11
552.7662373194823
 21
306.2721173917512
 31
0.0
  0
CIRCLE
  5
1317
330
2
100
AcDbEntity
  8
HIDS
100
AcDbCircle
 10
698.0267998116651
 20
283.7721173917379
 30
0.0
 40
30.0
  0
LINE
  5
1318
330
2
100
AcDbEntity
  8
0
100
AcDbLine
 10
668.0995643740702
 20
258.7575730023981
 30
0.0
 11
668.0267998116655
 21
283.7721173917379
 31
0.0
  0
LINE
  5
1319
330
2
100
AcDbEntity
  8
0
100
AcDbLine
 10
727.9540352492609
 20
258.7575730023977
 30
0.0
 11
728.0267998116656
 21
283.7721173917379
 31
0.0
  0
LINE
  5
131A
330
2
100
AcDbEntity
  8
0
100
AcDbLine
 10
729.0744065728886
 20
255.723736587583
 30
0.0
 11
729.5267998116637
 21
283.7721173917411
 31
0.0
  0
LINE
  5
131B
330
2
100
AcDbEntity
  8
0
100
AcDbLine
 10
666.9791930504416
 20
255.723736587583
 30
0.0
 11
666.5267998116664
 21
283.7721173917411
 31
0.0
  0
CIRCLE
  5
131C
330
2
100
AcDbEntity
  8
0
100
AcDbCircle
 10
698.0267998116651
 20
283.7721173917379
 30
0.0
 40
25.00000000345432
  0
LINE
  5
131D
330
2
100
AcDbEntity
  8
0
100
AcDbLine
 10
673.0995432200993
 20
253.7721173917379
 30
0.0
 11
722.9540564032317
 21
253.7721173917379
 31
0.0
  0
LINE
  5
131E
330
2
100
AcDbEntity
  8
0
100
AcDbLine
 10
669.9788029080382
 20
252.7721173917379
 30
0.0
 11
726.0747967152919
 21
252.7721173917379
 31
0.0
  0
ARC
  5
131F
330
2
100
AcDbEntity
  8
0
100
AcDbCircle
 10
673.0995432200993
 20
258.7721173917379
 30
0.0
 40
5.0
100
AcDbArc
 50
180.1666666600049
 51
270.0
  0
ARC
  5
1320
330
2
100
AcDbEntity
  8
0
100
AcDbCircle
 10
669.9788029080382
 20
255.7721173917379
 30
0.0
 40
3.0
100
AcDbArc
 50
180.9240453527669
 51
270.0
  0
ARC
  5
1321
330
2
100
AcDbEntity
  8
0
100
AcDbCircle
 10
722.9540564032317
 20
258.7721173917379
 30
0.0
 40
5.0
100
AcDbArc
 50
270.0
 51
359.833333339995
  0
ARC
  5
1322
330
2
100
AcDbEntity
  8
0
100
AcDbCircle
 10
726.0747967152919
 20
255.7721173917379
 30
0.0
 40
3.0
100
AcDbArc
 50
270.0
 51
359.0759546472331
  0
LINE
  5
1323
330
2
100
AcDbEntity
  8
HIDS
100
AcDbLine
 10
718.0611006757467
 20
255.7372125788633
 30
0.0
 11
718.1402292119323
 21
260.2704833808228
 31
0.0
  0
ARC
  5
1324
330
2
100
AcDbEntity
  8
HIDS
100
AcDbCircle
 10
716.0614052854339
 20
255.7721173917379
 30
0.0
 40
2.0
100
AcDbArc
 50
270.0
 51
358.9999999999852
  0
ARC
  5
1325
330
2
100
AcDbEntity
  8
HIDS
100
AcDbCircle
 10
721.1397722974015
 20
260.2181261615109
 30
0.0
 40
3.0
100
AcDbArc
 50
134.458551434695
 51
178.9999999999982
  0
LINE
  5
1326
330
2
100
AcDbEntity
  8
0
100
AcDbLine
 10
673.0995432200993
 20
313.7721173917379
 30
0.0
 11
722.9540564032317
 21
313.7721173917379
 31
0.0
  0
LINE
  5
1327
330
2
100
AcDbEntity
  8
0
100
AcDbLine
 10
669.9788029080382
 20
314.7721173917379
 30
0.0
 11
678.6538164654589
 21
314.7721173917379
 31
0.0
  0
LINE
  5
1328
330
2
100
AcDbEntity
  8
0
100
AcDbLine
 10
696.3997831578754
 20
314.7721173917379
 30
0.0
 11
726.0747967152919
 21
314.7721173917379
 31
0.0
  0
LINE
  5
1329
330
2
100
AcDbEntity
  8
0
100
AcDbLine
 10
668.0995643740702
 20
308.7866617810777
 30
0.0
 11
668.0267998116655
 21
283.7721173917379
 31
0.0
  0
LINE
  5
132A
330
2
100
AcDbEntity
  8
0
100
AcDbLine
 10
666.9791930504416
 20
311.8204981958928
 30
0.0
 11
666.5267998116664
 21
283.7721173917411
 31
0.0
  0
LINE
  5
132B
330
2
100
AcDbEntity
  8
HIDS
100
AcDbLine
 10
681.776799811666
 20
313.7721173917379
 30
0.0
 11
682.0243679303425
 21
299.5889493717413
 31
0.0
  0
LINE
  5
132C
330
2
100
AcDbEntity
  8
0
100
AcDbLine
 10
666.5267998116651
 20
283.7721173917379
 30
0.0
 11
668.0267998116651
 21
283.7721173916974
 31
0.0
  0
ARC
  5
132D
330
2
100
AcDbEntity
  8
0
100
AcDbCircle
 10
673.0995432200993
 20
308.7721173917379
 30
0.0
 40
5.0
100
AcDbArc
 50
90.0
 51
179.833333339995
  0
ARC
  5
132E
330
2
100
AcDbEntity
  8
0
100
AcDbCircle
 10
669.9788029080382
 20
311.7721173917379
 30
0.0
 40
3.0
100
AcDbArc
 50
90.0
 51
179.075954647233
  0
LINE
  5
132F
330
2
100
AcDbEntity
  8
HIDS
100
AcDbLine
 10
693.2767998116651
 20
313.7721173917379
 30
0.0
 11
693.13649818782
 21
305.7342427448983
 31
0.0
  0
LINE
  5
1330
330
2
100
AcDbEntity
  8
0
100
AcDbLine
 10
727.9540352492609
 20
308.7866617810782
 30
0.0
 11
728.0267998116656
 21
283.7721173917379
 31
0.0
  0
LINE
  5
1331
330
2
100
AcDbEntity
  8
0
100
AcDbLine
 10
729.0744065728886
 20
311.8204981958928
 30
0.0
 11
729.5267998116637
 21
283.7721173917411
 31
0.0
  0
LINE
  5
1332
330
2
100
AcDbEntity
  8
0
100
AcDbLine
 10
728.026799811665
 20
283.7721173917247
 30
0.0
 11
729.5267998116651
 21
283.7721173917379
 31
0.0
  0
ARC
  5
1333
330
2
100
AcDbEntity
  8
0
100
AcDbCircle
 10
722.9540564032317
 20
308.7721173917379
 30
0.0
 40
5.0
100
AcDbArc
 50
0.1666666599919691
 51
90.0
  0
ARC
  5
1334
330
2
100
AcDbEntity
  8
0
100
AcDbCircle
 10
726.0747967152919
 20
311.7721173917379
 30
0.0
 40
3.0
100
AcDbArc
 50
0.9240453527669025
 51
90.0
  0
LINE
  5
1335
330
2
100
AcDbEntity
  8
CENTER
100
AcDbLine
 10
673.2780624701359
 20
312.0208547332671
 30
0.0
 11
673.2780624701359
 21
305.0208547332672
 31
0.0
  0
LINE
  5
1336
330
2
100
AcDbEntity
  8
CENTER
100
AcDbLine
 10
676.7780624701359
 20
308.5208547332671
 30
0.0
 11
669.7780624701358
 21
308.5208547332671
 31
0.0
  0
LINE
  5
1337
330
2
100
AcDbEntity
  8
CENTER
100
AcDbLine
 10
669.7780624701363
 20
259.0233800502086
 30
0.0
 11
676.7780624701363
 21
259.0233800502086
 31
0.0
  0
LINE
  5
1338
330
2
100
AcDbEntity
  8
CENTER
100
AcDbLine
 10
673.2780624701363
 20
262.5233800502086
 30
0.0
 11
673.2780624701363
 21
255.5233800502086
 31
0.0
  0
LINE
  5
1339
330
2
100
AcDbEntity
  8
CENTER
100
AcDbLine
 10
722.7755371531944
 20
255.5233800502091
 30
0.0
 11
722.7755371531944
 21
262.5233800502091
 31
0.0
  0
LINE
  5
133A
330
2
100
AcDbEntity
  8
CENTER
100
AcDbLine
 10
719.2755371531943
 20
259.0233800502091
 30
0.0
 11
726.2755371531944
 21
259.0233800502091
 31
0.0
  0
LINE
  5
133B
330
2
100
AcDbEntity
  8
CENTER
100
AcDbLine
 10
726.2755371531944
 20
308.5208547332671
 30
0.0
 11
719.2755371531943
 21
308.5208547332671
 31
0.0
  0
LINE
  5
133C
330
2
100
AcDbEntity
  8
CENTER
100
AcDbLine
 10
722.7755371531944
 20
305.0208547332672
 30
0.0
 11
722.7755371531944
 21
312.0208547332671
 31
0.0
  0
CIRCLE
  5
133D
330
2
100
AcDbEntity
  8
CENTER
100
AcDbCircle
 10
698.0267998116651
 20
283.7721173917379
 30
0.0
 40
35.00000000000006
  0
LINE
  5
133F
330
2
100
AcDbEntity
  8
0
100
AcDbLine
 10
683.2958799490111
 20
283.0221173917411
 30
0.0
 11
687.5267998116673
 21
283.0221173917411
 31
0.0
  0
LINE
  5
1340
330
2
100
AcDbEntity
  8
0
100
AcDbLine
 10
683.2958799490111
 20
284.5221173917411
 30
0.0
 11
687.5267998116673
 21
284.5221173917411
 31
0.0
  0
LINE
  5
1341
330
2
100
AcDbEntity
  8
0
100
AcDbLine
 10
712.0267998116673
 20
284.5221173917411
 30
0.0
 11
712.0267998116673
 21
283.0221173917411
 31
0.0
  0
LINE
  5
1342
330
2
100
AcDbEntity
  8
0
100
AcDbLine
 10
703.4754234910906
 20
284.5221173917411
 30
0.0
 11
712.0267998116673
 21
284.5221173917411
 31
0.0
  0
LINE
  5
1343
330
2
100
AcDbEntity
  8
0
100
AcDbLine
 10
712.0267998116673
 20
283.0221173917411
 30
0.0
 11
703.4754234910906
 21
283.0221173917411
 31
0.0
  0
LINE
  5
1344
330
2
100
AcDbEntity
  8
HIDS
100
AcDbLine
 10
691.5267998116669
 20
297.0126800686065
 30
0.0
 11
691.5267998116669
 21
288.7721173917411
 31
0.0
  0
LINE
  5
1345
330
2
100
AcDbEntity
  8
HIDS
100
AcDbLine
 10
689.1934664783339
 20
274.2387840584078
 30
0.0
 11
689.1934664783339
 21
271.9596357633017
 31
0.0
  0
LINE
  5
1346
330
2
100
AcDbEntity
  8
HIDS
100
AcDbLine
 10
689.5267998116669
 20
283.0221173917411
 30
0.0
 11
689.5267998116669
 21
271.7175539404997
 31
0.0
  0
LINE
  5
1347
330
2
100
AcDbEntity
  8
HIDS
100
AcDbLine
 10
685.0267998116669
 20
288.7721173917411
 30
0.0
 11
685.0267998116669
 21
284.5221173917411
 31
0.0
  0
LINE
  5
1348
330
2
100
AcDbEntity
  8
HIDS
100
AcDbLine
 10
690.0267998116669
 20
288.7721173917411
 30
0.0
 11
690.0267998116669
 21
284.5221173917411
 31
0.0
  0
LINE
  5
1349
330
2
100
AcDbEntity
  8
HIDS
100
AcDbLine
 10
684.1501107252893
 20
288.7721173917411
 30
0.0
 11
691.5267998116669
 21
288.7721173917411
 31
0.0
  0
LINE
  5
134A
330
2
100
AcDbEntity
  8
CENTER
  6
CENS
100
AcDbLine
 10
687.5267998116673
 20
322.7721173917411
 30
0.0
 11
687.5267998116673
 21
268.6204147521456
 31
0.0
  0
LINE
  5
134B
330
2
100
AcDbEntity
  8
HIDS
100
AcDbLine
 10
685.5267998116674
 20
288.7721173917411
 30
0.0
 11
685.5267998116674
 21
284.5221173917411
 31
0.0
  0
LINE
  5
134C
330
2
100
AcDbEntity
  8
HIDS
100
AcDbLine
 10
685.8601331450008
 20
287.1054507250746
 30
0.0
 11
685.8601331450008
 21
284.5221173917411
 31
0.0
  0
LINE
  5
134D
330
2
100
AcDbEntity
  8
HIDS
100
AcDbLine
 10
689.1934664783339
 20
287.1054507250746
 30
0.0
 11
689.1934664783339
 21
284.5221173917411
 31
0.0
  0
LINE
  5
134E
330
2
100
AcDbEntity
  8
HIDS
100
AcDbLine
 10
689.5267998116674
 20
288.7721173917411
 30
0.0
 11
689.5267998116674
 21
284.5221173917411
 31
0.0
  0
LINE
  5
134F
330
2
100
AcDbEntity
  8
HIDS
100
AcDbLine
 10
689.5267998116674
 20
274.5721173917408
 30
0.0
 11
686.4975977577524
 21
274.5721173917408
 31
0.0
  0
LINE
  5
1350
330
2
100
AcDbEntity
  8
HIDS
100
AcDbLine
 10
688.7267998116676
 20
273.7721173917411
 30
0.0
 11
687.1841755905665
 21
273.7721173917411
 31
0.0
  0
LINE
  5
1351
330
2
100
AcDbEntity
  8
0
100
AcDbLine
 10
686.3267998116671
 20
273.7721173917411
 30
0.0
 11
687.1841755905665
 21
273.7721173917411
 31
0.0
  0
LINE
  5
1352
330
2
100
AcDbEntity
  8
0
100
AcDbLine
 10
685.5267998116674
 20
274.5721173917408
 30
0.0
 11
686.3267998116671
 21
273.7721173917411
 31
0.0
  0
LINE
  5
1353
330
2
100
AcDbEntity
  8
0
100
AcDbLine
 10
685.5267998116674
 20
274.5721173917408
 30
0.0
 11
686.4975977577524
 21
274.5721173917408
 31
0.0
  0
LINE
  5
1354
330
2
100
AcDbEntity
  8
HIDS
100
AcDbLine
 10
689.5267998116674
 20
274.5721173917408
 30
0.0
 11
688.7267998116676
 21
273.7721173917411
 31
0.0
  0
LINE
  5
1355
330
2
100
AcDbEntity
  8
0
100
AcDbLine
 10
684.0267998116673
 20
288.7721173917411
 30
0.0
 11
684.1501107252893
 21
288.7721173917411
 31
0.0
  0
LINE
  5
1356
330
2
100
AcDbEntity
  8
HIDS
100
AcDbLine
 10
689.5267998116674
 20
287.1054507250746
 30
0.0
 11
685.5267998116674
 21
287.1054507250746
 31
0.0
  0
LINE
  5
1357
330
2
100
AcDbEntity
  8
0
100
AcDbLine
 10
684.0267998116673
 20
292.4721173917414
 30
0.0
 11
686.1157755064278
 21
292.4721173917414
 31
0.0
  0
LINE
  5
1358
330
2
100
AcDbEntity
  8
HIDS
100
AcDbLine
 10
690.5071845693965
 20
292.7721173917411
 30
0.0
 11
686.3408039191472
 21
292.7721173917411
 31
0.0
  0
LINE
  5
1359
330
2
100
AcDbEntity
  8
0
100
AcDbLine
 10
684.0267998116673
 20
292.4721173917414
 30
0.0
 11
684.0267998116673
 21
288.7721173917411
 31
0.0
  0
LINE
  5
135A
330
2
100
AcDbEntity
  8
HIDS
100
AcDbLine
 10
685.5267998116674
 20
288.7721173917411
 30
0.0
 11
685.8601331450008
 21
287.1054507250746
 31
0.0
  0
LINE
  5
135B
330
2
100
AcDbEntity
  8
0
100
AcDbLine
 10
684.0267998116673
 20
292.4721173917414
 30
0.0
 11
684.5464150539383
 21
292.7721173917411
 31
0.0
  0
LINE
  5
135C
330
2
100
AcDbEntity
  8
HIDS
100
AcDbLine
 10
691.0267998116673
 20
288.7721173917411
 30
0.0
 11
691.0267998116673
 21
292.4721173917414
 31
0.0
  0
LINE
  5
135D
330
2
100
AcDbEntity
  8
HIDS
100
AcDbLine
 10
689.5267998116674
 20
288.7721173917411
 30
0.0
 11
689.1934664783339
 21
287.1054507250746
 31
0.0
  0
LINE
  5
135E
330
2
100
AcDbEntity
  8
HIDS
100
AcDbLine
 10
690.5071845693965
 20
292.7721173917411
 30
0.0
 11
691.0267998116673
 21
292.4721173917414
 31
0.0
  0
LINE
  5
1360
330
2
100
AcDbEntity
  8
0
100
AcDbLine
 10
687.5267998116673
 20
284.5221173917411
 30
0.0
 11
692.5781761322441
 21
284.5221173917411
 31
0.0
  0
LINE
  5
1361
330
2
100
AcDbEntity
  8
0
100
AcDbLine
 10
687.5267998116673
 20
283.0221173917411
 30
0.0
 11
692.5781761322441
 21
283.0221173917411
 31
0.0
  0
LINE
  5
1363
330
2
100
AcDbEntity
  8
HIDS
100
AcDbLine
 10
686.1157755064278
 20
292.4721173917414
 30
0.0
 11
691.0267998116673
 21
292.4721173917414
 31
0.0
  0
LINE
  5
1364
330
2
100
AcDbEntity
  8
0
100
AcDbLine
 10
686.3408039191472
 20
292.7721173917411
 30
0.0
 11
684.5464150539383
 21
292.7721173917411
 31
0.0
  0
LINE
  5
1365
330
2
100
AcDbEntity
  8
HIDS
100
AcDbLine
 10
684.1501107252893
 20
288.7721173917411
 30
0.0
 11
691.0267998116673
 21
288.7721173917411
 31
0.0
  0
LINE
  5
1366
330
2
100
AcDbEntity
  8
0
100
AcDbLine
 10
689.5267998116674
 20
284.5221173917411
 30
0.0
 11
689.5267998116674
 21
283.0221173917411
 31
0.0
  0
LINE
  5
1367
330
2
100
AcDbEntity
  8
HOJO
100
AcDbLine
 10
689.1934664783339
 20
284.5221173917411
 30
0.0
 11
689.1934664783339
 21
283.0221173917411
 31
0.0
  0
LINE
  5
1368
330
2
100
AcDbEntity
  8
HOJO
100
AcDbLine
 10
685.8601331450008
 20
284.5221173917411
 30
0.0
 11
685.8601331450008
 21
283.0221173917411
 31
0.0
  0
LINE
  5
1369
330
2
100
AcDbEntity
  8
0
100
AcDbLine
 10
685.5267998116674
 20
284.5221173917411
 30
0.0
 11
685.5267998116674
 21
283.0221173917411
 31
0.0
  0
LINE
  5
136A
330
2
100
AcDbEntity
  8
HIDS
100
AcDbLine
 10
685.5267998116674
 20
283.0221173917411
 30
0.0
 11
685.5267998116674
 21
275.9418875100581
 31
0.0
  0
LINE
  5
136B
330
2
100
AcDbEntity
  8
HIDS
100
AcDbLine
 10
685.8601331450008
 20
283.0221173917411
 30
0.0
 11
685.8601331450008
 21
275.4333691510145
 31
0.0
  0
LINE
  5
136C
330
2
100
AcDbEntity
  8
HIDS
100
AcDbLine
 10
689.1934664783339
 20
283.0221173917411
 30
0.0
 11
689.1934664783339
 21
274.2387840584078
 31
0.0
  0
LINE
  5
136D
330
2
100
AcDbEntity
  8
HIDS
100
AcDbLine
 10
689.5267998116674
 20
283.0221173917411
 30
0.0
 11
689.5267998116674
 21
274.5721173917408
 31
0.0
  0
LINE
  5
136E
330
2
100
AcDbEntity
  8
HOJO
100
AcDbLine
 10
685.8601331450008
 20
275.4333691510145
 30
0.0
 11
685.8601331450008
 21
274.2387840584078
 31
0.0
  0
LINE
  5
136F
330
2
100
AcDbEntity
  8
0
100
AcDbLine
 10
685.5267998116674
 20
275.9418875100581
 30
0.0
 11
685.5267998116674
 21
274.5721173917408
 31
0.0
  0
CIRCLE
  5
1370
330
2
100
AcDbEntity
  8
0
100
AcDbCircle
 10
698.0267998116674
 20
283.7721173917411
 30
0.0
 40
5.499999999997157
  0
ARC
  5
1371
330
2
100
AcDbEntity
  8
0
100
AcDbCircle
 10
698.0267998116674
 20
283.7721173917411
 30
0.0
 40
6.654700538376232
100
AcDbArc
 50
6.471114411181717
 51
173.5288855888182
  0
ARC
  5
1372
330
2
100
AcDbEntity
  8
0
100
AcDbCircle
 10
698.0267998116674
 20
283.7721173917411
 30
0.0
 40
6.654700538376232
100
AcDbArc
 50
186.4711144111808
 51
353.5288855888182
  0
LINE
  5
1373
330
2
100
AcDbEntity
  8
0
100
AcDbLine
 10
682.5267998116673
 20
317.7721173917411
 30
0.0
 11
692.5267998116673
 21
317.7721173917411
 31
0.0
  0
ARC
  5
1374
330
2
100
AcDbEntity
  8
0
100
AcDbCircle
 10
692.5267998116673
 20
313.7721173917411
 30
0.0
 40
3.999999999999971
100
AcDbArc
 50
359.9999999999544
 51
90.0
  0
ARC
  5
1375
330
2
100
AcDbEntity
  8
0
100
AcDbCircle
 10
682.5267998116673
 20
313.7721173917411
 30
0.0
 40
4.000000000000056
100
AcDbArc
 50
90.0
 51
180.0000000000455
  0
ARC
  5
1376
330
2
100
AcDbEntity
  8
0
100
AcDbCircle
 10
724.8743111866255
 20
310.6647115457726
 30
0.0
 40
3.499999999999717
100
AcDbArc
 50
331.4660973942729
 51
117.7026032046078
  0
ARC
  5
1377
330
2
100
AcDbEntity
  8
0
100
AcDbCircle
 10
724.8743111866255
 20
310.6647115457726
 30
0.0
 40
2.980384757729353
100
AcDbArc
 50
347.9891694961356
 51
101.179531102749
  0
ARC
  5
1378
330
2
100
AcDbEntity
  8
0
100
AcDbCircle
 10
671.1342056576358
 20
310.6196287666993
 30
0.0
 40
3.499999999999717
100
AcDbArc
 50
63.62312482358027
 51
209.9169029323347
  0
ARC
  5
1379
330
2
100
AcDbEntity
  8
0
100
AcDbCircle
 10
671.1342056576358
 20
310.6196287666993
 30
0.0
 40
2.980384757729353
100
AcDbArc
 50
80.12981105457564
 51
193.4102167013287
  0
ARC
  5
137A
330
2
100
AcDbEntity
  8
0
100
AcDbCircle
 10
671.1792884367087
 20
256.8795232377096
 30
0.0
 40
3.499999999999717
100
AcDbArc
 50
151.4660973942784
 51
297.7026032046078
  0
ARC
  5
137B
330
2
100
AcDbEntity
  8
0
100
AcDbCircle
 10
671.1792884367087
 20
256.8795232377096
 30
0.0
 40
2.980384757729353
100
AcDbArc
 50
167.9891694961356
 51
281.179531102749
  0
ARC
  5
137C
330
2
100
AcDbEntity
  8
0
100
AcDbCircle
 10
724.9193939656984
 20
256.9246060167829
 30
0.0
 40
3.499999999999717
100
AcDbArc
 50
243.6231248237701
 51
29.9169029324278
  0
ARC
  5
137D
330
2
100
AcDbEntity
  8
0
100
AcDbCircle
 10
724.9193939656984
 20
256.9246060167829
 30
0.0
 40
2.980384757729353
100
AcDbArc
 50
260.1298110548003
 51
13.41021670139492
  0
LINE
  5
137E
330
2
100
AcDbEntity
  8
HIDS
100
AcDbLine
 10
677.992498947588
 20
311.8070222046189
 30
0.0
 11
677.9133704114023
 21
307.2737514026593
 31
0.0
  0
ARC
  5
137F
330
2
100
AcDbEntity
  8
HIDS
100
AcDbCircle
 10
679.9921943379009
 20
311.7721173917443
 30
0.0
 40
2.0
100
AcDbArc
 50
90.0
 51
178.9999999999721
  0
ARC
  5
1380
330
2
100
AcDbEntity
  8
HIDS
100
AcDbCircle
 10
674.9138273259331
 20
307.3261086219712
 30
0.0
 40
3.0
100
AcDbArc
 50
314.4585514346815
 51
359.0000000000242
  0
CIRCLE
  5
1381
330
2
100
AcDbEntity
  8
0
100
AcDbCircle
 10
673.2780624701359
 20
308.5208547332671
 30
0.0
 40
2.0
  0
CIRCLE
  5
1382
330
2
100
AcDbEntity
  8
HOJO
100
AcDbCircle
 10
673.2780624701359
 20
308.5208547332671
 30
0.0
 40
2.5
  0
CIRCLE
  5
1383
330
2
100
AcDbEntity
  8
0
100
AcDbCircle
 10
673.2780624701363
 20
259.0233800502086
 30
0.0
 40
2.0
  0
CIRCLE
  5
1384
330
2
100
AcDbEntity
  8
HOJO
100
AcDbCircle
 10
673.2780624701363
 20
259.0233800502086
 30
0.0
 40
2.5
  0
CIRCLE
  5
1385
330
2
100
AcDbEntity
  8
0
100
AcDbCircle
 10
722.7755371531944
 20
259.0233800502089
 30
0.0
 40
2.0
  0
CIRCLE
  5
1386
330
2
100
AcDbEntity
  8
HOJO
100
AcDbCircle
 10
722.7755371531944
 20
259.0233800502089
 30
0.0
 40
2.5
  0
CIRCLE
  5
1387
330
2
100
AcDbEntity
  8
0
100
AcDbCircle
 10
722.7755371531944
 20
308.5208547332671
 30
0.0
 40
2.0
  0
CIRCLE
  5
1388
330
2
100
AcDbEntity
  8
HOJO
100
AcDbCircle
 10
722.7755371531944
 20
308.5208547332671
 30
0.0
 40
2.5
  0
CIRCLE
  5
1389
330
2
100
AcDbEntity
  8
0
100
AcDbCircle
 10
698.0267998116674
 20
283.7721173917411
 30
0.0
 40
22.5
  0
LINE
  5
138A
330
2
100
AcDbEntity
  8
0
100
AcDbLine
 10
729.3267998116764
 20
296.1721173909874
 30
0.0
 11
729.3267998116764
 21
306.7721173917413
 31
0.0
  0
LINE
  5
138B
330
2
100
AcDbEntity
  8
0
100
AcDbLine
 10
696.2463864025985
 20
315.2434010464332
 30
0.0
 11
698.0267998116726
 21
315.2721173917413
 31
0.0
  0
LINE
  5
138F
330
2
100
AcDbEntity
  8
0
100
AcDbLine
 10
325.1763378440853
 20
317.772117391751
 30
0.0
 11
315.1763378440853
 21
317.772117391751
 31
0.0
  0
ARC
  5
1390
330
2
100
AcDbEntity
  8
0
100
AcDbCircle
 10
315.1763378440853
 20
313.772117391751
 30
0.0
 40
3.999999999999971
100
AcDbArc
 50
90.0
 51
158.4187099909541
  0
ARC
  5
1391
330
2
100
AcDbEntity
  8
0
100
AcDbCircle
 10
325.1763378440853
 20
313.772117391751
 30
0.0
 40
4.000000000000056
100
AcDbArc
 50
17.2834602733143
 51
90.0
  0
LINE
  5
1392
330
2
100
AcDbEntity
  8
CENTER
  6
CENS
100
AcDbLine
 10
320.1763378440876
 20
322.7721173917482
 30
0.0
 11
320.1763378440876
 21
300.289707673998
 31
0.0
  0
TEXT
  5
1395
330
2
100
AcDbEntity
  8
TITLE
100
AcDbText
 10
256.9934689122474
 20
466.1676947030695
 30
0.0
 40
5.0
  1
AFCZ12S-3~5M200S1
100
AcDbText
  0
TEXT
  5
1397
330
2
100
AcDbEntity
  8
TITLE
100
AcDbText
 10
256.9934689122474
 20
455.8378038240893
 30
0.0
 40
5.0
  1
AFCZ12S-3~5L200S1
100
AcDbText
  0
CIRCLE
  5
1D1F
330
2
100
AcDbEntity
  8
0
100
AcDbCircle
 10
698.0267998116659
 20
283.7721173917411
 30
0.0
 40
14.75
  0
ENDSEC
  0
SECTION
  2
OBJECTS
  0
DICTIONARY
  5
7
330
0
100
AcDbDictionary
  3
ACAD_COLOR
350
1CF5
  3
ACAD_GROUP
350
75
  3
ACAD_LAYOUT
350
61
  3
ACAD_MATERIAL
350
1CCB
  3
ACAD_MLEADERSTYLE
350
1D1A
  3
ACAD_MLINESTYLE
350
76
  3
ACAD_PLOTSETTINGS
350
77
  3
ACAD_PLOTSTYLENAME
350
6
  3
ACAD_SCALELIST
350
1CF8
  3
ACAD_TABLESTYLE
350
1CF6
  3
ACAD_VISUALSTYLE
350
1CE4
  3
ACADDIM
350
480
  3
ACDB_RECOMPOSE_DATA
350
1D34
  3
ACDBHEADERROUNDTRIPXREC
350
1E59
  3
ACDBVARIABLEDICTIONARY
350
102
  3
DWGPROPS
350
1E25
  0
DICTIONARY
  5
1D3D
330
6E
100
AcDbDictionary
280
     1
  3
ACAD_XREC_ROUNDTRIP
360
1E2C
  0
DICTIONARY
  5
AFE
330
66
100
AcDbDictionary
280
     1
  3
ACAD_LAYERSTATES
360
AFF
  0
DICTIONARY
  5
1D20
330
5E
100
AcDbDictionary
280
     1
  3
ACAD_XREC_ROUNDTRIP
360
1E28
  3
ADSK_XREC_LAYER_RECONCILED
360
1D21
  0
DICTIONARY
  5
1D22
330
3E
100
AcDbDictionary
280
     1
  3
ACAD_XREC_ROUNDTRIP
360
1E27
  3
ADSK_XREC_LAYER_RECONCILED
360
1D23
  0
DICTIONARY
  5
1D28
330
2B5
100
AcDbDictionary
280
     1
  3
ACAD_XREC_ROUNDTRIP
360
1E32
  3
ADSK_XREC_LAYER_RECONCILED
360
1D29
  0
DICTIONARY
  5
1D2A
330
2BA
100
AcDbDictionary
280
     1
  3
ACAD_XREC_ROUNDTRIP
360
1E33
  3
ADSK_XREC_LAYER_RECONCILED
360
1D2B
  0
DICTIONARY
  5
1D2E
330
3FA
100
AcDbDictionary
280
     1
  3
ACAD_XREC_ROUNDTRIP
360
1E35
  3
ADSK_XREC_LAYER_RECONCILED
360
1D2F
  0
DICTIONARY
  5
1D30
330
478
100
AcDbDictionary
280
     1
  3
ACAD_XREC_ROUNDTRIP
360
1E36
  3
ADSK_XREC_LAYER_RECONCILED
360
1D31
  0
DICTIONARY
  5
1E7A
330
2
100
AcDbDictionary
280
     1
  3
ACAD_LAYOUTSELFREF
360
1E7B
  0
DICTIONARY
  5
1E7C
330
1E53
100
AcDbDictionary
280
     1
  3
ACAD_LAYOUTSELFREF
360
1E7D
  0
DICTIONARY
  5
1CF5
102
{ACAD_REACTORS
330
7
102
}
330
7
100
AcDbDictionary
  0
DICTIONARY
  5
75
102
{ACAD_REACTORS
330
7
102
}
330
7
100
AcDbDictionary
  0
DICTIONARY
  5
61
102
{ACAD_REACTORS
330
7
102
}
330
7
100
AcDbDictionary
  0
DICTIONARY
  5
1CCB
102
{ACAD_REACTORS
330
7
102
}
330
7
100
AcDbDictionary
  3
BYBLOCK
350
1CD4
  3
BYLAYER
350
1CCC
  3
GLOBAL
350
1CDC
  0
DICTIONARY
  5
1D1A
102
{ACAD_REACTORS
330
7
102
}
330
7
100
AcDbDictionary
  3
STANDARD
350
1D1B
  0
DICTIONARY
  5
76
102
{ACAD_REACTORS
330
7
102
}
330
7
100
AcDbDictionary
  3
STANDARD
350
78
  0
DICTIONARY
  5
77
102
{ACAD_REACTORS
330
7
102
}
330
7
100
AcDbDictionary
  0
ACDBDICTIONARYWDFLT
  5
6
102
{ACAD_REACTORS
330
7
102
}
330
7
100
AcDbDictionary
281
     1
  3
Normal
350
5
100
AcDbDictionaryWithDefault
340
5
  0
DICTIONARY
  5
1CF8
102
{ACAD_REACTORS
330
7
102
}
330
7
100
AcDbDictionary
  3
A0
350
1CF9
  3
A1
350
1CFA
  3
A2
350
1CFB
  3
A3
350
1CFC
  3
A4
350
1CFD
  3
A5
350
1CFE
  3
A6
350
1CFF
  3
A7
350
1D00
  3
A8
350
1D01
  3
A9
350
1D02
  3
B0
350
1D03
  3
B1
350
1D04
  3
B2
350
1D05
  3
B3
350
1D06
  3
B4
350
1D07
  3
B5
350
1D08
  3
B6
350
1D09
  3
B7
350
1D0A
  3
B8
350
1D0B
  3
B9
350
1D0C
  3
C0
350
1D0D
  3
C1
350
1D0E
  3
C2
350
1D0F
  3
C3
350
1D10
  3
C4
350
1D11
  3
C5
350
1D12
  3
C6
350
1D13
  3
C7
350
1D14
  3
C8
350
1D15
  3
C9
350
1D16
  3
D0
350
1D17
  3
D1
350
1D18
  3
D2
350
1D19
  0
DICTIONARY
  5
1CF6
102
{ACAD_REACTORS
330
7
102
}
330
7
100
AcDbDictionary
  3
STANDARD
350
1CF7
  0
DICTIONARY
  5
1CE4
102
{ACAD_REACTORS
330
7
102
}
330
7
100
AcDbDictionary
  3
2DWIREFRAME
350
1CEA
  3
3D_HIDDEN
350
1CEC
  3
3DWIREFRAME
350
1CEB
  3
BASIC
350
1CE9
  3
BRIGHTEN
350
1CF0
  3
COLORCHANGE
350
1CF4
  3
CONCEPTUAL
350
1CED
  3
DIM
350
1CEF
  3
FACEPATTERN
350
1CF3
  3
FLAT
350
1CE5
  3
FLATWITHEDGES
350
1CE6
  3
GOURAUD
350
1CE7
  3
GOURAUDWITHEDGES
350
1CE8
  3
LINEPATTERN
350
1CF2
  3
REALISTIC
350
1CEE
  3
THICKEN
350
1CF1
  0
XRECORD
  5
480
102
{ACAD_REACTORS
330
7
102
}
330
7
100
AcDbXrecord
 90
   990106
  3

 60
     0
 61
     0
 62
     1
 63
     3
 64
     1
 65
     0
 66
     0
 67
     3
 68
     1
 69
     0
 70
     0
 71
     0
 72
     0
 40
0.0
170
     2
340
0
  0
XRECORD
  5
1D34
102
{ACAD_REACTORS
330
7
102
}
330
7
100
AcDbXrecord
 90
        1
330
1CF7
  0
DICTIONARY
  5
1E59
102
{ACAD_REACTORS
330
7
102
}
330
7
100
AcDbDictionary
  3
CEPSNTYPE
350
1E63
  3
DIMSTYLEDATA
350
1E67
  3
FINGERPRINTGUID
350
1E64
  3
HYPERLINKBASE
350
1E5C
  3
INSUNITS
350
1E62
  3
LAYOUTDICT
350
1E5E
  3
LWETCUNION
350
1E61
  3
PLOTSETDICT
350
1E5F
  3
PLOTSTYLNAMDICT
350
1E60
  3
PSVPSCALE
350
1E66
  3
PUCSBASE
350
1E6A
  3
PUCSORGBACK
350
1E70
  3
PUCSORGBOTTOM
350
1E6C
  3
PUCSORGFRONT
350
1E6F
  3
PUCSORGLEFT
350
1E6D
  3
PUCSORGRIGHT
350
1E6E
  3
PUCSORGTOP
350
1E6B
  3
PUCSORTHOREF
350
1E68
  3
PUCSORTHOVIEW
350
1E69
  3
STYLESHEET
350
1E5D
  3
TSTACKALIGN
350
1E5A
  3
TSTACKSIZE
350
1E5B
  3
UCSBASE
350
1E73
  3
UCSORGBACK
350
1E79
  3
UCSORGBOTTOM
350
1E75
  3
UCSORGFRONT
350
1E78
  3
UCSORGLEFT
350
1E76
  3
UCSORGRIGHT
350
1E77
  3
UCSORGTOP
350
1E74
  3
UCSORTHOREF
350
1E71
  3
UCSORTHOVIEW
350
1E72
  3
VERSIONGUID
350
1E65
  0
DICTIONARY
  5
102
102
{ACAD_REACTORS
330
7
102
}
330
7
100
AcDbDictionary
  3
CANNOSCALE
350
1D55
  3
CMLEADERSTYLE
350
1D54
  3
CTABLESTYLE
350
1D53
  3
DIMASSOC
350
103
  3
INDEXCTL
350
1D56
  3
SORTENTS
350
549
  0
XRECORD
  5
1E25
102
{ACAD_REACTORS
330
7
102
}
330
7
100
AcDbXrecord
  1
DWGPROPS COOKIE
  2

  3

  4

  6

  7

  8
ymorima
  9

300
=
301
=
302
=
303
=
304
=
305
=
306
=
307
=
308
=
309
=
 40
0.0179332986111111
 41
2454410.382890984
 42
2454425.673443101
  1

 90
        0
  0
XRECORD
  5
1E2C
102
{ACAD_REACTORS
330
1D3D
102
}
330
1D3D
100
AcDbXrecord
102
VTR_0.000_0.000_1.000_1.000_VISUALSTYLE
340
1CEA
102
VTR_0.000_0.000_1.000_1.000_GRIDDISPLAY
 70
     3
102
VTR_0.000_0.000_1.000_1.000_GRIDMAJOR
 70
     5
102
VTR_0.000_0.000_1.000_1.000_DEFAULTLIGHTING
280
     1
102
VTR_0.000_0.000_1.000_1.000_DEFAULTLIGHTINGTYPE
 70
     1
102
VTR_0.000_0.000_1.000_1.000_BRIGHTNESS
141
0.0
102
VTR_0.000_0.000_1.000_1.000_CONTRAST
142
0.0
  0
DICTIONARY
  5
AFF
102
{ACAD_REACTORS
330
AFE
102
}
330
AFE
100
AcDbDictionary
  0
XRECORD
  5
1E28
102
{ACAD_REACTORS
330
1D20
102
}
330
1D20
100
AcDbXrecord
102
MATERIAL
340
1CDC
  0
XRECORD
  5
1D21
102
{ACAD_REACTORS
330
1D20
102
}
330
1D20
100
AcDbXrecord
290
     1
  0
XRECORD
  5
1E27
102
{ACAD_REACTORS
330
1D22
102
}
330
1D22
100
AcDbXrecord
102
MATERIAL
340
1CDC
  0
XRECORD
  5
1D23
102
{ACAD_REACTORS
330
1D22
102
}
330
1D22
100
AcDbXrecord
290
     1
  0
XRECORD
  5
1E32
102
{ACAD_REACTORS
330
1D28
102
}
330
1D28
100
AcDbXrecord
102
MATERIAL
340
1CDC
  0
XRECORD
  5
1D29
102
{ACAD_REACTORS
330
1D28
102
}
330
1D28
100
AcDbXrecord
290
     1
  0
XRECORD
  5
1E33
102
{ACAD_REACTORS
330
1D2A
102
}
330
1D2A
100
AcDbXrecord
102
MATERIAL
340
1CDC
  0
XRECORD
  5
1D2B
102
{ACAD_REACTORS
330
1D2A
102
}
330
1D2A
100
AcDbXrecord
290
     1
  0
XRECORD
  5
1E35
102
{ACAD_REACTORS
330
1D2E
102
}
330
1D2E
100
AcDbXrecord
102
MATERIAL
340
1CDC
  0
XRECORD
  5
1D2F
102
{ACAD_REACTORS
330
1D2E
102
}
330
1D2E
100
AcDbXrecord
290
     1
  0
XRECORD
  5
1E36
102
{ACAD_REACTORS
330
1D30
102
}
330
1D30
100
AcDbXrecord
102
MATERIAL
340
1CDC
  0
XRECORD
  5
1D31
102
{ACAD_REACTORS
330
1D30
102
}
330
1D30
100
AcDbXrecord
290
     1
  0
XRECORD
  5
1E7B
102
{ACAD_REACTORS
330
1E7A
102
}
330
1E7A
100
AcDbXrecord
340
2
  0
XRECORD
  5
1E7D
102
{ACAD_REACTORS
330
1E7C
102
}
330
1E7C
100
AcDbXrecord
340
1E53
  0
ACAD_PROXY_OBJECT
  5
1CD4
102
{ACAD_XDICTIONARY
360
1CD5
102
}
102
{ACAD_REACTORS
330
1CCB
102
}
330
1CCB
100
AcDbProxyObject
 90
      499
 91
      510
 93
     1340
310
42109E509B1BD8DAC02004014080404555555555555953FAA155555555555654FEA9AA400014080404555555555555953FAA155555555555654FEA9AA400000000000000E03F4080404555555555555953FAA155555555555654FEA9AA4014080404555555555555953FAA155555555555654FEA9AA4010201011555555555
310
55654FEA8555555555555953FAA6A9005020101155555555555654FEA8555555555555953FAA6A9000
 94
        0
1001
ACAD
1000
AcadProxyRoundTripData
1071
      504
1071
   655383
1070
     0
  0
ACAD_PROXY_OBJECT
  5
1CCC
102
{ACAD_XDICTIONARY
360
1CCD
102
}
102
{ACAD_REACTORS
330
1CCB
102
}
330
1CCB
100
AcDbProxyObject
 90
      499
 91
      510
 93
     1340
310
42109E53185E595C802004014080404555555555555953FAA155555555555654FEA9AA400014080404555555555555953FAA155555555555654FEA9AA400000000000000E03F4080404555555555555953FAA155555555555654FEA9AA4014080404555555555555953FAA155555555555654FEA9AA4010201011555555555
310
55654FEA8555555555555953FAA6A9005020101155555555555654FEA8555555555555953FAA6A9000
 94
        0
1001
ACAD
1000
AcadProxyRoundTripData
1071
      504
1071
   655383
1070
     0
  0
ACAD_PROXY_OBJECT
  5
1CDC
102
{ACAD_XDICTIONARY
360
1CDD
102
}
102
{ACAD_REACTORS
330
1CCB
102
}
330
1CCB
100
AcDbProxyObject
 90
      499
 91
      510
 93
     1332
310
41D1DB1BD8985B002004014080404555555555555953FAA155555555555654FEA9AA400014080404555555555555953FAA155555555555654FEA9AA400000000000000E03F4080404555555555555953FAA155555555555654FEA9AA4014080404555555555555953FAA155555555555654FEA9AA401020101155555555555
310
654FEA8555555555555953FAA6A9005020101155555555555654FEA8555555555555953FAA6A9000
 94
        0
1001
ACAD
1000
AcadProxyRoundTripData
1071
      504
1071
   655383
1070
     0
  0
ACAD_PROXY_OBJECT
  5
1D1B
102
{ACAD_REACTORS
330
1D1A
102
}
330
1D1A
100
AcDbProxyObject
 90
      499
 91
      510
 93
      618
310
40901902A4063FBFFFFFE056BD1B81E855B9FC0AD7A3703D0AD73F4254DD185B99185C990000AD7A3703D0AC73F90141901A02B5E8DC0F42B1CFC02B5E8DC0F42B1CFE5764000000000000300FC6
340
6A
340
0
340
16
340
0
 94
        0
1001
ACAD_MLEADERVER
1070
     2
1001
ACAD
1000
AcadProxyRoundTripData
1071
      508
1071
   655383
1070
     0
  0
MLINESTYLE
  5
78
102
{ACAD_REACTORS
330
76
102
}
330
76
100
AcDbMlineStyle
  2
STANDARD
 70
     0
  3

 62
     0
 51
90.0
 52
90.0
 71
     2
 49
0.5
 62
   256
  6
BYLAYER
 49
-0.5
 62
   256
  6
BYLAYER
  0
ACDBPLACEHOLDER
  5
5
102
{ACAD_REACTORS
330
6
102
}
330
6
100
AcDbPlaceHolder
280
     0
  0
ACAD_PROXY_OBJECT
  5
1CF9
102
{ACAD_REACTORS
330
1CF8
102
}
330
1CF8
100
AcDbProxyObject
 90
      499
 91
      510
 93
       49
310
904313A3100598
 94
        0
1001
ACAD
1000
AcadProxyRoundTripData
1071
      507
1071
   655383
1070
     0
  0
ACAD_PROXY_OBJECT
  5
1CFA
102
{ACAD_REACTORS
330
1CF8
102
}
330
1CF8
100
AcDbProxyObject
 90
      499
 91
      510
 93
      113
310
904313A3200400000000000000406B
 94
        0
1001
ACAD
1000
AcadProxyRoundTripData
1071
      507
1071
   655383
1070
     0
  0
ACAD_PROXY_OBJECT
  5
1CFB
102
{ACAD_REACTORS
330
1CF8
102
}
330
1CF8
100
AcDbProxyObject
 90
      499
 91
      510
 93
      113
310
904313A3400400000000000010406B
 94
        0
1001
ACAD
1000
AcadProxyRoundTripData
1071
      507
1071
   655383
1070
     0
  0
ACAD_PROXY_OBJECT
  5
1CFC
102
{ACAD_REACTORS
330
1CF8
102
}
330
1CF8
100
AcDbProxyObject
 90
      499
 91
      510
 93
      113
310
904313A3500400000000000014406B
 94
        0
1001
ACAD
1000
AcadProxyRoundTripData
1071
      507
1071
   655383
1070
     0
  0
ACAD_PROXY_OBJECT
  5
1CFD
102
{ACAD_REACTORS
330
1CF8
102
}
330
1CF8
100
AcDbProxyObject
 90
      499
 91
      510
 93
      113
310
904313A3800400000000000020406B
 94
        0
1001
ACAD
1000
AcadProxyRoundTripData
1071
      507
1071
   655383
1070
     0
  0
ACAD_PROXY_OBJECT
  5
1CFE
102
{ACAD_REACTORS
330
1CF8
102
}
330
1CF8
100
AcDbProxyObject
 90
      499
 91
      510
 93
      121
310
905313A3130004000000000000244051
 94
        0
1001
ACAD
1000
AcadProxyRoundTripData
1071
      507
1071
   655383
1070
     0
  0
ACAD_PROXY_OBJECT
  5
1CFF
102
{ACAD_REACTORS
330
1CF8
102
}
330
1CF8
100
AcDbProxyObject
 90
      499
 91
      510
 93
      121
310
905313A3136004000000000000304051
 94
        0
1001
ACAD
1000
AcadProxyRoundTripData
1071
      507
1071
   655383
1070
     0
  0
ACAD_PROXY_OBJECT
  5
1D00
102
{ACAD_REACTORS
330
1CF8
102
}
330
1CF8
100
AcDbProxyObject
 90
      499
 91
      510
 93
      121
310
905313A3230004000000000000344051
 94
        0
1001
ACAD
1000
AcadProxyRoundTripData
1071
      507
1071
   655383
1070
     0
  0
ACAD_PROXY_OBJECT
  5
1D01
102
{ACAD_REACTORS
330
1CF8
102
}
330
1CF8
100
AcDbProxyObject
 90
      499
 91
      510
 93
      121
310
905313A33300040000000000003E4051
 94
        0
1001
ACAD
1000
AcadProxyRoundTripData
1071
      507
1071
   655383
1070
     0
  0
ACAD_PROXY_OBJECT
  5
1D02
102
{ACAD_REACTORS
330
1CF8
102
}
330
1CF8
100
AcDbProxyObject
 90
      499
 91
      510
 93
      121
310
905313A3430004000000000000444051
 94
        0
1001
ACAD
1000
AcadProxyRoundTripData
1071
      507
1071
   655383
1070
     0
  0
ACAD_PROXY_OBJECT
  5
1D03
102
{ACAD_REACTORS
330
1CF8
102
}
330
1CF8
100
AcDbProxyObject
 90
      499
 91
      510
 93
      121
310
905313A3530004000000000000494051
 94
        0
1001
ACAD
1000
AcadProxyRoundTripData
1071
      507
1071
   655383
1070
     0
  0
ACAD_PROXY_OBJECT
  5
1D04
102
{ACAD_REACTORS
330
1CF8
102
}
330
1CF8
100
AcDbProxyObject
 90
      499
 91
      510
 93
      129
310
906313A313030004000000000000594038
 94
        0
1001
ACAD
1000
AcadProxyRoundTripData
1071
      507
1071
   655383
1070
     0
  0
ACAD_PROXY_OBJECT
  5
1D05
102
{ACAD_REACTORS
330
1CF8
102
}
330
1CF8
100
AcDbProxyObject
 90
      499
 91
      510
 93
      113
310
904323A31000000000000000010159
 94
        0
1001
ACAD
1000
AcadProxyRoundTripData
1071
      507
1071
   655383
1070
     0
  0
ACAD_PROXY_OBJECT
  5
1D06
102
{ACAD_REACTORS
330
1CF8
102
}
330
1CF8
100
AcDbProxyObject
 90
      499
 91
      510
 93
      113
310
904343A31000000000000000410159
 94
        0
1001
ACAD
1000
AcadProxyRoundTripData
1071
      507
1071
   655383
1070
     0
  0
ACAD_PROXY_OBJECT
  5
1D07
102
{ACAD_REACTORS
330
1CF8
102
}
330
1CF8
100
AcDbProxyObject
 90
      499
 91
      510
 93
      113
310
904383A31000000000000000810159
 94
        0
1001
ACAD
1000
AcadProxyRoundTripData
1071
      507
1071
   655383
1070
     0
  0
ACAD_PROXY_OBJECT
  5
1D08
102
{ACAD_REACTORS
330
1CF8
102
}
330
1CF8
100
AcDbProxyObject
 90
      499
 91
      510
 93
      121
310
90531303A31000000000000000910140
 94
        0
1001
ACAD
1000
AcadProxyRoundTripData
1071
      507
1071
   655383
1070
     0
  0
ACAD_PROXY_OBJECT
  5
1D09
102
{ACAD_REACTORS
330
1CF8
102
}
330
1CF8
100
AcDbProxyObject
 90
      499
 91
      510
 93
      129
310
9063130303A31000000000000001650138
 94
        0
1001
ACAD
1000
AcadProxyRoundTripData
1071
      507
1071
   655383
1070
     0
  0
ACAD_PROXY_OBJECT
  5
1D0A
102
{ACAD_REACTORS
330
1CF8
102
}
330
1CF8
100
AcDbProxyObject
 90
      499
 91
      510
 93
      265
310
90F312F31323822203D2031272D302200000000000000200FC00000000000028402B
 94
        0
1001
ACAD
1000
AcadProxyRoundTripData
1071
      507
1071
   655383
1070
     0
  0
ACAD_PROXY_OBJECT
  5
1D0B
102
{ACAD_REACTORS
330
1CF8
102
}
330
1CF8
100
AcDbProxyObject
 90
      499
 91
      510
 93
      257
310
90E312F363422203D2031272D302200000000000000240FC000000000000284040
 94
        0
1001
ACAD
1000
AcadProxyRoundTripData
1071
      507
1071
   655383
1070
     0
  0
ACAD_PROXY_OBJECT
  5
1D0C
102
{ACAD_REACTORS
330
1CF8
102
}
330
1CF8
100
AcDbProxyObject
 90
      499
 91
      510
 93
      257
310
90E312F333222203D2031272D302200000000000000280FC000000000000284040
 94
        0
1001
ACAD
1000
AcadProxyRoundTripData
1071
      507
1071
   655383
1070
     0
  0
ACAD_PROXY_OBJECT
  5
1D0D
102
{ACAD_REACTORS
330
1CF8
102
}
330
1CF8
100
AcDbProxyObject
 90
      499
 91
      510
 93
      257
310
90E312F313622203D2031272D3022000000000000002C0FC000000000000284040
 94
        0
1001
ACAD
1000
AcadProxyRoundTripData
1071
      507
1071
   655383
1070
     0
  0
ACAD_PROXY_OBJECT
  5
1D0E
102
{ACAD_REACTORS
330
1CF8
102
}
330
1CF8
100
AcDbProxyObject
 90
      499
 91
      510
 93
      257
310
90E332F333222203D2031272D3022000000000000002E0FC000000000000284040
 94
        0
1001
ACAD
1000
AcadProxyRoundTripData
1071
      507
1071
   655383
1070
     0
  0
ACAD_PROXY_OBJECT
  5
1D0F
102
{ACAD_REACTORS
330
1CF8
102
}
330
1CF8
100
AcDbProxyObject
 90
      499
 91
      510
 93
      249
310
90D312F3822203D2031272D302200000000000000300FC000000000000284040
 94
        0
1001
ACAD
1000
AcadProxyRoundTripData
1071
      507
1071
   655383
1070
     0
  0
ACAD_PROXY_OBJECT
  5
1D10
102
{ACAD_REACTORS
330
1CF8
102
}
330
1CF8
100
AcDbProxyObject
 90
      499
 91
      510
 93
      257
310
90E332F313622203D2031272D302200000000000000320FC000000000000284040
 94
        0
1001
ACAD
1000
AcadProxyRoundTripData
1071
      507
1071
   655383
1070
     0
  0
ACAD_PROXY_OBJECT
  5
1D11
102
{ACAD_REACTORS
330
1CF8
102
}
330
1CF8
100
AcDbProxyObject
 90
      499
 91
      510
 93
      249
310
90D312F3422203D2031272D302200000000000000340FC000000000000284040
 94
        0
1001
ACAD
1000
AcadProxyRoundTripData
1071
      507
1071
   655383
1070
     0
  0
ACAD_PROXY_OBJECT
  5
1D12
102
{ACAD_REACTORS
330
1CF8
102
}
330
1CF8
100
AcDbProxyObject
 90
      499
 91
      510
 93
      249
310
90D332F3822203D2031272D302200000000000000360FC000000000000284040
 94
        0
1001
ACAD
1000
AcadProxyRoundTripData
1071
      507
1071
   655383
1070
     0
  0
ACAD_PROXY_OBJECT
  5
1D13
102
{ACAD_REACTORS
330
1CF8
102
}
330
1CF8
100
AcDbProxyObject
 90
      499
 91
      510
 93
      249
310
90D312F3222203D2031272D302200000000000000380FC000000000000284040
 94
        0
1001
ACAD
1000
AcadProxyRoundTripData
1071
      507
1071
   655383
1070
     0
  0
ACAD_PROXY_OBJECT
  5
1D14
102
{ACAD_REACTORS
330
1CF8
102
}
330
1CF8
100
AcDbProxyObject
 90
      499
 91
      510
 93
      249
310
90D332F3422203D2031272D3022000000000000003A0FC000000000000284040
 94
        0
1001
ACAD
1000
AcadProxyRoundTripData
1071
      507
1071
   655383
1070
     0
  0
ACAD_PROXY_OBJECT
  5
1D15
102
{ACAD_REACTORS
330
1CF8
102
}
330
1CF8
100
AcDbProxyObject
 90
      499
 91
      510
 93
      169
310
90B3122203D2031272D3022004000000000000284020
 94
        0
1001
ACAD
1000
AcadProxyRoundTripData
1071
      507
1071
   655383
1070
     0
  0
ACAD_PROXY_OBJECT
  5
1D16
102
{ACAD_REACTORS
330
1CF8
102
}
330
1CF8
100
AcDbProxyObject
 90
      499
 91
      510
 93
      265
310
90F312D312F3222203D2031272D3022000000000000003E0FC00000000000028402B
 94
        0
1001
ACAD
1000
AcadProxyRoundTripData
1071
      507
1071
   655383
1070
     0
  0
ACAD_PROXY_OBJECT
  5
1D17
102
{ACAD_REACTORS
330
1CF8
102
}
330
1CF8
100
AcDbProxyObject
 90
      499
 91
      510
 93
      233
310
90B3322203D2031272D30220000000000000002100000000000000284000
 94
        0
1001
ACAD
1000
AcadProxyRoundTripData
1071
      507
1071
   655383
1070
     0
  0
ACAD_PROXY_OBJECT
  5
1D18
102
{ACAD_REACTORS
330
1CF8
102
}
330
1CF8
100
AcDbProxyObject
 90
      499
 91
      510
 93
      233
310
90B3622203D2031272D30220000000000000006100000000000000284000
 94
        0
1001
ACAD
1000
AcadProxyRoundTripData
1071
      507
1071
   655383
1070
     0
  0
ACAD_PROXY_OBJECT
  5
1D19
102
{ACAD_REACTORS
330
1CF8
102
}
330
1CF8
100
AcDbProxyObject
 90
      499
 91
      510
 93
      257
310
90E31272D3022203D2031272D3022000000000000000A100000000000000284040
 94
        0
1001
ACAD
1000
AcadProxyRoundTripData
1071
      507
1071
   655383
1070
     0
  0
ACAD_PROXY_OBJECT
  5
1CF7
102
{ACAD_XDICTIONARY
360
1D32
102
}
102
{ACAD_REACTORS
330
1CF6
102
}
330
1CF6
100
AcDbProxyObject
 90
      499
 91
      510
 93
     1849
310
4254DD185B99185C990028B81E85EB51B8AE3F2E07A17AD46E2B8FC02B5E8DC0F42B1CFD028000000C1008070000C3001FDFF8000000C1003FBFF000000182007F7FE00000030400FEFFC00000060801FDFF8000000C1003FBFF00000018200000000000000681FA0B0000001820100E000186003FBFF000000182007F7FE0
310
0000030400FEFFC00000060801FDFF8000000C1003FBFF000000182007F7FE000000304000AD7A3703D0AC73F4160000003040201C00030C007F7FE00000030400FEFFC00000060801FDFF8000000C1003FBFF000000182007F7FE00000030400FEFFC000000608000
340
16
340
16
340
16
 94
        0
1001
ACAD
1000
AcadProxyRoundTripData
1071
      506
1071
   655383
1070
     0
  0
ACAD_PROXY_OBJECT
  5
1CEA
102
{ACAD_REACTORS
330
1CE4
102
}
330
1CE4
100
AcDbProxyObject
 90
      499
 91
      510
 93
      444
310
430C9915DA5C99599C985B59401049028333333333333E3BF0000000000000FB0107901411070040501600405405064090741402480A0340
 94
        0
1001
ACAD
1000
AcDbSavedByObjectVersion
1070
     0
1000
AcadProxyRoundTripData
1071
      505
1071
   655383
1070
     0
  0
ACAD_PROXY_OBJECT
  5
1CEC
102
{ACAD_REACTORS
330
1CE4
102
}
330
1CE4
100
AcDbProxyObject
 90
      499
 91
      510
 93
      508
310
428CD108121A5919195B8010640502408333333333333E3BF0000000000000FB01079024090700405020000000000001110200405405064090740C02480A0340
 94
        0
1001
ACAD
1000
AcDbSavedByObjectVersion
1070
     0
1000
AcadProxyRoundTripData
1071
      505
1071
   655383
1070
     0
  0
ACAD_PROXY_OBJECT
  5
1CEB
102
{ACAD_REACTORS
330
1CE4
102
}
330
1CE4
100
AcDbProxyObject
 90
      499
 91
      510
 93
      444
310
430CD915DA5C99599C985B59401059028333333333333E3BF0000000000000FB0107901411070040501600405405064090741402480A0340
 94
        0
1001
ACAD
1000
AcDbSavedByObjectVersion
1070
     0
1000
AcadProxyRoundTripData
1071
      505
1071
   655383
1070
     0
  0
ACAD_PROXY_OBJECT
  5
1CE9
102
{ACAD_REACTORS
330
1CE4
102
}
330
1CE4
100
AcDbProxyObject
 90
      499
 91
      510
 93
      396
310
4190985CDA58C0107406404333333333333E3BF0000000000000FB0107A41107004050150841D405064090741402480A0356
 94
        0
1001
ACAD
1000
AcDbSavedByObjectVersion
1070
     0
1000
AcadProxyRoundTripData
1071
      505
1071
   655383
1070
     0
  0
ACAD_PROXY_OBJECT
  5
1CF0
102
{ACAD_REACTORS
330
1CE4
102
}
330
1CE4
100
AcDbProxyObject
 90
      499
 91
      510
 93
      436
310
42509C9A59DA1D195B8010C409028333333333333E3BF0000000000000FB010790141107004050150841D405064090741402480A029956
 94
        0
1001
ACAD
1000
AcDbSavedByObjectVersion
1070
     0
1000
AcadProxyRoundTripData
1071
      505
1071
   655383
1070
     0
  0
ACAD_PROXY_OBJECT
  5
1CF4
102
{ACAD_REACTORS
330
1CE4
102
}
330
1CE4
100
AcDbProxyObject
 90
      499
 91
      510
 93
      460
310
4310DBDB1BDC90DA185B99D9401104090240C333333333333E3BF0000000000000FB0108901411070040501508421405064090741402480A0354
 94
        0
1001
ACAD
1000
AcDbSavedByObjectVersion
1070
     0
1000
AcadProxyRoundTripData
1071
      505
1071
   655383
1070
     0
  0
ACAD_PROXY_OBJECT
  5
1CED
102
{ACAD_REACTORS
330
1CE4
102
}
330
1CE4
100
AcDbProxyObject
 90
      499
 91
      510
 93
      508
310
42D0DBDB98D95C1D1D585B0010940D028333333333333E3BF0000000000000FB0107902409070040501000000000000111010841D405064090740C02480A0340
 94
        0
1001
ACAD
1000
AcDbSavedByObjectVersion
1070
     0
1000
AcadProxyRoundTripData
1071
      505
1071
   655383
1070
     0
  0
ACAD_PROXY_OBJECT
  5
1CEF
102
{ACAD_REACTORS
330
1CE4
102
}
330
1CE4
100
AcDbProxyObject
 90
      499
 91
      510
 93
      420
310
41111A5B4010B409028333333333333E3BF0000000000000FB010790141107004050150841D405064090741402480A02677FFFFFDB
 94
        0
1001
ACAD
1000
AcDbSavedByObjectVersion
1070
     0
1000
AcadProxyRoundTripData
1071
      505
1071
   655383
1070
     0
  0
ACAD_PROXY_OBJECT
  5
1CF3
102
{ACAD_REACTORS
330
1CE4
102
}
330
1CE4
100
AcDbProxyObject
 90
      499
 91
      510
 93
      452
310
43119858D95C185D1D195C9B8010F409028333333333333E3BF0000000000000FB010790141107004050150841D405064090741402480A0350
 94
        0
1001
ACAD
1000
AcDbSavedByObjectVersion
1070
     0
1000
AcadProxyRoundTripData
1071
      505
1071
   655383
1070
     0
  0
ACAD_PROXY_OBJECT
  5
1CE5
102
{ACAD_REACTORS
330
1CE4
102
}
330
1CE4
100
AcDbProxyObject
 90
      499
 91
      510
 93
      396
310
41519B185D00240901404333333333333E3BF0000000000000F9010740A41107004050150841D405064090741402480A1B55
 94
        0
1001
ACAD
1000
AcDbSavedByObjectVersion
1070
     0
1000
AcadProxyRoundTripData
1071
      505
1071
   655383
1070
     0
  0
ACAD_PROXY_OBJECT
  5
1CE6
102
{ACAD_REACTORS
330
1CE4
102
}
330
1CE4
100
AcDbProxyObject
 90
      499
 91
      510
 93
      484
310
43919B185D15DA5D1A115919D95CC010140901404333333333333E3BF0000000000000F9010740901411070040501600405405064090741402480A1B50
 94
        0
1001
ACAD
1000
AcDbSavedByObjectVersion
1070
     0
1000
AcadProxyRoundTripData
1071
      505
1071
   655383
1070
     0
  0
ACAD_PROXY_OBJECT
  5
1CE7
102
{ACAD_REACTORS
330
1CE4
102
}
330
1CE4
100
AcDbProxyObject
 90
      499
 91
      510
 93
      420
310
4211DBDD5C985D590010240902404333333333333E3BF0000000000000F9010740A411070040501641D405064090741402480A1B50
 94
        0
1001
ACAD
1000
AcDbSavedByObjectVersion
1070
     0
1000
AcadProxyRoundTripData
1071
      505
1071
   655383
1070
     0
  0
ACAD_PROXY_OBJECT
  5
1CE8
102
{ACAD_REACTORS
330
1CE4
102
}
330
1CE4
100
AcDbProxyObject
 90
      499
 91
      510
 93
      508
310
4451DBDD5C985D5915DA5D1A115919D95CC010340902404333333333333E3BF0000000000000F9010740901411070040501600405405064090741402480A1B50
 94
        0
1001
ACAD
1000
AcDbSavedByObjectVersion
1070
     0
1000
AcadProxyRoundTripData
1071
      505
1071
   655383
1070
     0
  0
ACAD_PROXY_OBJECT
  5
1CF2
102
{ACAD_REACTORS
330
1CE4
102
}
330
1CE4
100
AcDbProxyObject
 90
      499
 91
      510
 93
      452
310
43131A5B995C185D1D195C9B8010E409028333333333333E3BF0000000000000FB010790141107004050750841D405064090741402483A0350
 94
        0
1001
ACAD
1000
AcDbSavedByObjectVersion
1070
     0
1000
AcadProxyRoundTripData
1071
      505
1071
   655383
1070
     0
  0
ACAD_PROXY_OBJECT
  5
1CEE
102
{ACAD_REACTORS
330
1CE4
102
}
330
1CE4
100
AcDbProxyObject
 90
      499
 91
      510
 93
      428
310
429499585B1A5CDD1A58C0108409028333333333333E3BF0000000000000FB01079019070040501508421405064090741402480A1B45
 94
        0
1001
ACAD
1000
AcDbSavedByObjectVersion
1070
     0
1000
AcadProxyRoundTripData
1071
      505
1071
   655383
1070
     0
  0
ACAD_PROXY_OBJECT
  5
1CF1
102
{ACAD_REACTORS
330
1CE4
102
}
330
1CE4
100
AcDbProxyObject
 90
      499
 91
      510
 93
      420
310
42151A1A58DAD95B8010D409028333333333333E3BF0000000000000FB010790141107004050150C41D405064090741402480A0352
 94
        0
1001
ACAD
1000
AcDbSavedByObjectVersion
1070
     0
1000
AcadProxyRoundTripData
1071
      505
1071
   655383
1070
     0
  0
XRECORD
  5
1E63
102
{ACAD_REACTORS
330
1E59
102
}
330
1E59
100
AcDbXrecord
 90
        0
  0
XRECORD
  5
1E67
102
{ACAD_REACTORS
330
1E59
102
}
330
1E59
100
AcDbXrecord
1000
DSTYLE
1002
{
1070
   179
 70
     2
1070
   277
 70
     6
1002
}
  0
XRECORD
  5
1E64
102
{ACAD_REACTORS
330
1E59
102
}
330
1E59
100
AcDbXrecord
  1
{6385560B-F4B1-4644-A7C2-A3E32AC3D232}
  0
XRECORD
  5
1E5C
102
{ACAD_REACTORS
330
1E59
102
}
330
1E59
100
AcDbXrecord
  1

  0
XRECORD
  5
1E62
102
{ACAD_REACTORS
330
1E59
102
}
330
1E59
100
AcDbXrecord
 90
        0
  0
XRECORD
  5
1E5E
102
{ACAD_REACTORS
330
1E59
102
}
330
1E59
100
AcDbXrecord
340
61
  0
XRECORD
  5
1E61
102
{ACAD_REACTORS
330
1E59
102
}
330
1E59
100
AcDbXrecord
 90
    10781
  0
XRECORD
  5
1E5F
102
{ACAD_REACTORS
330
1E59
102
}
330
1E59
100
AcDbXrecord
340
77
  0
XRECORD
  5
1E60
102
{ACAD_REACTORS
330
1E59
102
}
330
1E59
100
AcDbXrecord
340
6
  0
XRECORD
  5
1E66
102
{ACAD_REACTORS
330
1E59
102
}
330
1E59
100
AcDbXrecord
 40
0.0
  0
XRECORD
  5
1E6A
102
{ACAD_REACTORS
330
1E59
102
}
330
1E59
100
AcDbXrecord
340
0
  0
XRECORD
  5
1E70
102
{ACAD_REACTORS
330
1E59
102
}
330
1E59
100
AcDbXrecord
 10
0.0
 20
0.0
 30
0.0
  0
XRECORD
  5
1E6C
102
{ACAD_REACTORS
330
1E59
102
}
330
1E59
100
AcDbXrecord
 10
0.0
 20
0.0
 30
0.0
  0
XRECORD
  5
1E6F
102
{ACAD_REACTORS
330
1E59
102
}
330
1E59
100
AcDbXrecord
 10
0.0
 20
0.0
 30
0.0
  0
XRECORD
  5
1E6D
102
{ACAD_REACTORS
330
1E59
102
}
330
1E59
100
AcDbXrecord
 10
0.0
 20
0.0
 30
0.0
  0
XRECORD
  5
1E6E
102
{ACAD_REACTORS
330
1E59
102
}
330
1E59
100
AcDbXrecord
 10
0.0
 20
0.0
 30
0.0
  0
XRECORD
  5
1E6B
102
{ACAD_REACTORS
330
1E59
102
}
330
1E59
100
AcDbXrecord
 10
0.0
 20
0.0
 30
0.0
  0
XRECORD
  5
1E68
102
{ACAD_REACTORS
330
1E59
102
}
330
1E59
100
AcDbXrecord
340
0
  0
XRECORD
  5
1E69
102
{ACAD_REACTORS
330
1E59
102
}
330
1E59
100
AcDbXrecord
 70
     0
  0
XRECORD
  5
1E5D
102
{ACAD_REACTORS
330
1E59
102
}
330
1E59
100
AcDbXrecord
  1
Sekkei.ctb
  0
XRECORD
  5
1E5A
102
{ACAD_REACTORS
330
1E59
102
}
330
1E59
100
AcDbXrecord
 90
        1
  0
XRECORD
  5
1E5B
102
{ACAD_REACTORS
330
1E59
102
}
330
1E59
100
AcDbXrecord
 90
       70
  0
XRECORD
  5
1E73
102
{ACAD_REACTORS
330
1E59
102
}
330
1E59
100
AcDbXrecord
340
0
  0
XRECORD
  5
1E79
102
{ACAD_REACTORS
330
1E59
102
}
330
1E59
100
AcDbXrecord
 10
0.0
 20
0.0
 30
0.0
  0
XRECORD
  5
1E75
102
{ACAD_REACTORS
330
1E59
102
}
330
1E59
100
AcDbXrecord
 10
0.0
 20
0.0
 30
0.0
  0
XRECORD
  5
1E78
102
{ACAD_REACTORS
330
1E59
102
}
330
1E59
100
AcDbXrecord
 10
0.0
 20
0.0
 30
0.0
  0
XRECORD
  5
1E76
102
{ACAD_REACTORS
330
1E59
102
}
330
1E59
100
AcDbXrecord
 10
0.0
 20
0.0
 30
0.0
  0
XRECORD
  5
1E77
102
{ACAD_REACTORS
330
1E59
102
}
330
1E59
100
AcDbXrecord
 10
0.0
 20
0.0
 30
0.0
  0
XRECORD
  5
1E74
102
{ACAD_REACTORS
330
1E59
102
}
330
1E59
100
AcDbXrecord
 10
0.0
 20
0.0
 30
0.0
  0
XRECORD
  5
1E71
102
{ACAD_REACTORS
330
1E59
102
}
330
1E59
100
AcDbXrecord
340
0
  0
XRECORD
  5
1E72
102
{ACAD_REACTORS
330
1E59
102
}
330
1E59
100
AcDbXrecord
 70
     0
  0
XRECORD
  5
1E65
102
{ACAD_REACTORS
330
1E59
102
}
330
1E59
100
AcDbXrecord
  1
{FFAEFC8F-A18B-47B9-959C-3DB1B5BAC6B5}
  0
DICTIONARYVAR
  5
1D55
102
{ACAD_REACTORS
330
102
102
}
330
102
100
DictionaryVariables
280
     0
  1
1:1
  0
DICTIONARYVAR
  5
1D54
102
{ACAD_REACTORS
330
102
102
}
330
102
100
DictionaryVariables
280
     0
  1
STANDARD
  0
DICTIONARYVAR
  5
1D53
102
{ACAD_REACTORS
330
102
102
}
330
102
100
DictionaryVariables
280
     0
  1
STANDARD
  0
DICTIONARYVAR
  5
103
102
{ACAD_REACTORS
330
102
102
}
330
102
100
DictionaryVariables
280
     0
  1
1
  0
DICTIONARYVAR
  5
1D56
102
{ACAD_REACTORS
330
102
102
}
330
102
100
DictionaryVariables
280
     0
  1
0
  0
DICTIONARYVAR
  5
549
102
{ACAD_REACTORS
330
102
102
}
330
102
100
DictionaryVariables
280
     0
  1
96
  0
DICTIONARY
  5
1CD5
330
1CD4
100
AcDbDictionary
280
     1
  3
ACAD_XREC_ROUNDTRIP
360
1E3E
  3
BUMPTILE
360
1CD7
  3
DIFFUSETILE
360
1CD6
  3
OPACITYTILE
360
1CDA
  3
REFLECTIONTILE
360
1CD9
  3
REFRACTIONTILE
360
1CDB
  3
SPECULARTILE
360
1CD8
  0
DICTIONARY
  5
1CCD
330
1CCC
100
AcDbDictionary
280
     1
  3
ACAD_XREC_ROUNDTRIP
360
1E3D
  3
BUMPTILE
360
1CCF
  3
DIFFUSETILE
360
1CCE
  3
OPACITYTILE
360
1CD2
  3
REFLECTIONTILE
360
1CD1
  3
REFRACTIONTILE
360
1CD3
  3
SPECULARTILE
360
1CD0
  0
DICTIONARY
  5
1CDD
330
1CDC
100
AcDbDictionary
280
     1
  3
ACAD_XREC_ROUNDTRIP
360
1E3F
  3
BUMPTILE
360
1CDF
  3
DIFFUSETILE
360
1CDE
  3
OPACITYTILE
360
1CE2
  3
REFLECTIONTILE
360
1CE1
  3
REFRACTIONTILE
360
1CE3
  3
SPECULARTILE
360
1CE0
  0
DICTIONARY
  5
1D32
330
1CF7
100
AcDbDictionary
280
     1
  3
ACAD_ROUNDTRIP_2008_TABLES
360
1E24
  3
ACAD_XREC_ROUNDTRIP
360
1E40
  0
XRECORD
  5
1E3E
102
{ACAD_REACTORS
330
1CD5
102
}
330
1CD5
100
AcDbXrecord
102
MATERIAL
148
0.0
149
0.0
149
0.0
 93
        0
 94
      127
282
     0
 72
     0
 77
     0
171
     0
175
     0
179
     0
273
     0
  0
XRECORD
  5
1CD7
102
{ACAD_REACTORS
330
1CD5
102
}
330
1CD5
100
AcDbXrecord
270
     1
271
     1
  0
XRECORD
  5
1CD6
102
{ACAD_REACTORS
330
1CD5
102
}
330
1CD5
100
AcDbXrecord
270
     1
271
     1
  0
XRECORD
  5
1CDA
102
{ACAD_REACTORS
330
1CD5
102
}
330
1CD5
100
AcDbXrecord
270
     1
271
     1
  0
XRECORD
  5
1CD9
102
{ACAD_REACTORS
330
1CD5
102
}
330
1CD5
100
AcDbXrecord
270
     1
271
     1
  0
XRECORD
  5
1CDB
102
{ACAD_REACTORS
330
1CD5
102
}
330
1CD5
100
AcDbXrecord
270
     1
271
     1
  0
XRECORD
  5
1CD8
102
{ACAD_REACTORS
330
1CD5
102
}
330
1CD5
100
AcDbXrecord
270
     1
271
     1
  0
XRECORD
  5
1E3D
102
{ACAD_REACTORS
330
1CCD
102
}
330
1CCD
100
AcDbXrecord
102
MATERIAL
148
0.0
149
0.0
149
0.0
 93
        0
 94
      127
282
     0
 72
     0
 77
     0
171
     0
175
     0
179
     0
273
     0
  0
XRECORD
  5
1CCF
102
{ACAD_REACTORS
330
1CCD
102
}
330
1CCD
100
AcDbXrecord
270
     1
271
     1
  0
XRECORD
  5
1CCE
102
{ACAD_REACTORS
330
1CCD
102
}
330
1CCD
100
AcDbXrecord
270
     1
271
     1
  0
XRECORD
  5
1CD2
102
{ACAD_REACTORS
330
1CCD
102
}
330
1CCD
100
AcDbXrecord
270
     1
271
     1
  0
XRECORD
  5
1CD1
102
{ACAD_REACTORS
330
1CCD
102
}
330
1CCD
100
AcDbXrecord
270
     1
271
     1
  0
XRECORD
  5
1CD3
102
{ACAD_REACTORS
330
1CCD
102
}
330
1CCD
100
AcDbXrecord
270
     1
271
     1
  0
XRECORD
  5
1CD0
102
{ACAD_REACTORS
330
1CCD
102
}
330
1CCD
100
AcDbXrecord
270
     1
271
     1
  0
XRECORD
  5
1E3F
102
{ACAD_REACTORS
330
1CDD
102
}
330
1CDD
100
AcDbXrecord
102
MATERIAL
148
0.0
149
0.0
149
0.0
 93
        0
 94
      127
282
     0
 72
     0
 77
     0
171
     0
175
     0
179
     0
273
     0
  0
XRECORD
  5
1CDF
102
{ACAD_REACTORS
330
1CDD
102
}
330
1CDD
100
AcDbXrecord
270
     1
271
     1
  0
XRECORD
  5
1CDE
102
{ACAD_REACTORS
330
1CDD
102
}
330
1CDD
100
AcDbXrecord
270
     1
271
     1
  0
XRECORD
  5
1CE2
102
{ACAD_REACTORS
330
1CDD
102
}
330
1CDD
100
AcDbXrecord
270
     1
271
     1
  0
XRECORD
  5
1CE1
102
{ACAD_REACTORS
330
1CDD
102
}
330
1CDD
100
AcDbXrecord
270
     1
271
     1
  0
XRECORD
  5
1CE3
102
{ACAD_REACTORS
330
1CDD
102
}
330
1CDD
100
AcDbXrecord
270
     1
271
     1
  0
XRECORD
  5
1CE0
102
{ACAD_REACTORS
330
1CDD
102
}
330
1CDD
100
AcDbXrecord
270
     1
271
     1
  0
ACAD_PROXY_OBJECT
  5
1E24
102
{ACAD_REACTORS
330
1D32
102
}
330
1D32
100
AcDbProxyObject
 90
      499
 91
      510
 93
     1044
310
40D054060020000020000003200101A000080002A5058000000C100000000000000340FE901405075F5449544C450041501A8000000C800406800020000A9416000000304000AD7A3703D0AC73FA409014217D2115051115480105406A0000003200101A000080002A5028000000C10002B5E8DC0F42B1CFE903409065F444
310
15441003
340
16
340
16
340
16
 94
        0
1001
ACAD
1000
AcadProxyRoundTripData
1071
      509
1071
   655383
1070
     0
  0
XRECORD
  5
1E40
102
{ACAD_REACTORS
330
1D32
102
}
330
1D32
100
AcDbXrecord
102
ACAD_ROUNDTRIP_PRE2007_TABLESTYLE
 90
      512
 91
        0
  1

 92
      512
 93
        0
  2

 94
      512
 95
        0
  3

  0
ENDSEC
  0
EOF
