  0
SECTION
  2
HEADER
  9
$ACADVER
  1
AC1014
  9
$ACADMAINTVER
 70
     9
  9
$DWGCODEPAGE
  3
ANSI_932
  9
$INSBASE
 10
0.0
 20
0.0
 30
0.0
  9
$EXTMIN
 10
46.92106129605884
 20
55.35977820705676
 30
0.0
  9
$EXTMAX
 10
723.2039473554867
 20
491.2037330077252
 30
0.0
  9
$LIMMIN
 10
0.0
 20
0.0
  9
$LIMMAX
 10
297.0
 20
210.0
  9
$ORTHOMODE
 70
     1
  9
$REGENMODE
 70
     1
  9
$FILLMODE
 70
     1
  9
$QTEXTMODE
 70
     0
  9
$MIRRTEXT
 70
     0
  9
$DRAGMODE
 70
     2
  9
$LTSCALE
 40
2.0
  9
$OSMODE
 70
    37
  9
$ATTMODE
 70
     1
  9
$TEXTSIZE
 40
2.0
  9
$TRACEWID
 40
1.0
  9
$TEXTSTYLE
  7
STANDARD
  9
$CLAYER
  8
0
  9
$CELTYPE
  6
BYLAYER
  9
$CECOLOR
 62
   256
  9
$CELTSCALE
 40
1.0
  9
$DELOBJ
 70
     1
  9
$DISPSILH
 70
     0
  9
$DIMSCALE
 40
2.0
  9
$DIMASZ
 40
1.8
  9
$DIMEXO
 40
0.625
  9
$DIMDLI
 40
3.75
  9
$DIMRND
 40
0.0
  9
$DIMDLE
 40
0.0
  9
$DIMEXE
 40
0.8
  9
$DIMTP
 40
0.0
  9
$DIMTM
 40
0.0
  9
$DIMTXT
 40
1.8
  9
$DIMCEN
 40
2.5
  9
$DIMTSZ
 40
0.0
  9
$DIMTOL
 70
     0
  9
$DIMLIM
 70
     0
  9
$DIMTIH
 70
     0
  9
$DIMTOH
 70
     0
  9
$DIMSE1
 70
     0
  9
$DIMSE2
 70
     0
  9
$DIMTAD
 70
     1
  9
$DIMZIN
 70
     8
  9
$DIMBLK
  1

  9
$DIMASO
 70
     1
  9
$DIMSHO
 70
     1
  9
$DIMPOST
  1

  9
$DIMAPOST
  1

  9
$DIMALT
 70
     0
  9
$DIMALTD
 70
     4
  9
$DIMALTF
 40
0.0394
  9
$DIMLFAC
 40
1.0
  9
$DIMTOFL
 70
     1
  9
$DIMTVP
 40
0.0
  9
$DIMTIX
 70
     0
  9
$DIMSOXD
 70
     0
  9
$DIMSAH
 70
     0
  9
$DIMBLK1
  1

  9
$DIMBLK2
  1

  9
$DIMSTYLE
  2
STANDARD
  9
$DIMCLRD
 70
     0
  9
$DIMCLRE
 70
     0
  9
$DIMCLRT
 70
     0
  9
$DIMTFAC
 40
1.0
  9
$DIMGAP
 40
0.75
  9
$DIMJUST
 70
     0
  9
$DIMSD1
 70
     0
  9
$DIMSD2
 70
     0
  9
$DIMTOLJ
 70
     1
  9
$DIMTZIN
 70
     0
  9
$DIMALTZ
 70
     0
  9
$DIMALTTZ
 70
     0
  9
$DIMFIT
 70
     3
  9
$DIMUPT
 70
     0
  9
$DIMUNIT
 70
     8
  9
$DIMDEC
 70
     2
  9
$DIMTDEC
 70
     2
  9
$DIMALTU
 70
     8
  9
$DIMALTTD
 70
     4
  9
$DIMTXSTY
  7
STANDARD
  9
$DIMAUNIT
 70
     0
  9
$LUNITS
 70
     2
  9
$LUPREC
 70
     3
  9
$SKETCHINC
 40
1.0
  9
$FILLETRAD
 40
10.0
  9
$AUNITS
 70
     0
  9
$AUPREC
 70
     2
  9
$MENU
  1
.
  9
$ELEVATION
 40
0.0
  9
$PELEVATION
 40
0.0
  9
$THICKNESS
 40
0.0
  9
$LIMCHECK
 70
     0
  9
$BLIPMODE
 70
     0
  9
$CHAMFERA
 40
0.0
  9
$CHAMFERB
 40
0.0
  9
$CHAMFERC
 40
20.0
  9
$CHAMFERD
 40
0.0
  9
$SKPOLY
 70
     0
  9
$TDCREATE
 40
2454410.386307870
  9
$TDUPDATE
 40
2454425.682574687
  9
$TDINDWG
 40
0.0177455787
  9
$TDUSRTIMER
 40
0.0177455787
  9
$USRTIMER
 70
     1
  9
$ANGBASE
 50
0.0
  9
$ANGDIR
 70
     0
  9
$PDMODE
 70
     0
  9
$PDSIZE
 40
-10.0
  9
$PLINEWID
 40
0.0
  9
$COORDS
 70
     0
  9
$SPLFRAME
 70
     0
  9
$SPLINETYPE
 70
     6
  9
$SPLINESEGS
 70
     8
  9
$ATTDIA
 70
     0
  9
$ATTREQ
 70
     1
  9
$HANDLING
 70
-16383
  9
$HANDSEED
  5
1ED4
  9
$SURFTAB1
 70
     6
  9
$SURFTAB2
 70
     6
  9
$SURFTYPE
 70
     6
  9
$SURFU
 70
     6
  9
$SURFV
 70
     6
  9
$UCSNAME
  2

  9
$UCSORG
 10
0.0
 20
0.0
 30
0.0
  9
$UCSXDIR
 10
1.0
 20
0.0
 30
0.0
  9
$UCSYDIR
 10
0.0
 20
1.0
 30
0.0
  9
$PUCSNAME
  2

  9
$PUCSORG
 10
0.0
 20
0.0
 30
0.0
  9
$PUCSXDIR
 10
1.0
 20
0.0
 30
0.0
  9
$PUCSYDIR
 10
0.0
 20
1.0
 30
0.0
  9
$USERI1
 70
     0
  9
$USERI2
 70
     0
  9
$USERI3
 70
     0
  9
$USERI4
 70
     0
  9
$USERI5
 70
     0
  9
$USERR1
 40
0.0
  9
$USERR2
 40
0.0
  9
$USERR3
 40
0.0
  9
$USERR4
 40
0.0
  9
$USERR5
 40
0.0
  9
$WORLDVIEW
 70
     1
  9
$SHADEDGE
 70
     3
  9
$SHADEDIF
 70
    70
  9
$TILEMODE
 70
     1
  9
$MAXACTVP
 70
    48
  9
$PINSBASE
 10
0.0
 20
0.0
 30
0.0
  9
$PLIMCHECK
 70
     0
  9
$PEXTMIN
 10
0.0
 20
0.0
 30
0.0
  9
$PEXTMAX
 10
0.0
 20
0.0
 30
0.0
  9
$PLIMMIN
 10
0.0
 20
0.0
  9
$PLIMMAX
 10
12.0
 20
9.0
  9
$UNITMODE
 70
     0
  9
$VISRETAIN
 70
     1
  9
$PLINEGEN
 70
     0
  9
$PSLTSCALE
 70
     1
  9
$TREEDEPTH
 70
  3020
  9
$PICKSTYLE
 70
     1
  9
$CMLSTYLE
  2
STANDARD
  9
$CMLJUST
 70
     0
  9
$CMLSCALE
 40
1.0
  9
$PROXYGRAPHICS
 70
     1
  9
$MEASUREMENT
 70
     0
  0
ENDSEC
  0
SECTION
  2
CLASSES
  0
CLASS
  1
DICTIONARYVAR
  2
AcDbDictionaryVar
  3
AutoCAD 2000
 90
        0
280
     0
281
     0
  0
CLASS
  1
ACDBDICTIONARYWDFLT
  2
AcDbDictionaryWithDefault
  3
AutoCAD 2000
 90
        0
280
     0
281
     0
  0
CLASS
  1
ACDBPLACEHOLDER
  2
AcDbPlaceHolder
  3
AutoCAD 2000
 90
        0
280
     0
281
     0
  0
CLASS
  1
LAYOUT
  2
AcDbLayout
  3
AutoCAD 2000
 90
        0
280
     0
281
     0
  0
CLASS
  1
MATERIAL
  2
AcDbMaterial
  3
ObjectDBX Classes
 90
     1153
280
     0
281
     0
  0
CLASS
  1
VISUALSTYLE
  2
AcDbVisualStyle
  3
ObjectDBX Classes
 90
     4095
280
     0
281
     0
  0
CLASS
  1
TABLESTYLE
  2
AcDbTableStyle
  3
ObjectDBX Classes
 90
     4095
280
     0
281
     0
  0
CLASS
  1
SCALE
  2
AcDbScale
  3
ObjectDBX Classes
 90
     1153
280
     0
281
     0
  0
CLASS
  1
MLEADERSTYLE
  2
AcDbMLeaderStyle
  3
ACDB_MLEADERSTYLE_CLASS
 90
     4095
280
     0
281
     0
  0
CLASS
  1
CELLSTYLEMAP
  2
AcDbCellStyleMap
  3
ObjectDBX Classes
 90
     1152
280
     0
281
     0
  0
CLASS
  1
ACAD_PROXY_OBJECT_WRAPPER
  2
AcDbProxyObjectWrapper
  3
AutoCAD 2000
 90
        0
280
     0
281
     0
  0
CLASS
  1
LONG_TRANSACTION
  2
AcDbLongTransaction
  3
AutoCAD 2000
 90
        0
280
     0
281
     0
  0
CLASS
  1
LWPOLYLINE
  2
AcDbPolyline
  3
AutoCAD 2000
 90
        0
280
     0
281
     1
  0
CLASS
  1
HATCH
  2
AcDbHatch
  3
AutoCAD 2000
 90
        0
280
     0
281
     1
  0
CLASS
  1
XRECORD
  2
AcDbXrecord
  3
AutoCAD 2000
 90
        0
280
     0
281
     0
  0
ENDSEC
  0
SECTION
  2
TABLES
  0
TABLE
  2
VPORT
  5
6E
102
{ACAD_XDICTIONARY
360
1D98
102
}
330
0
100
AcDbSymbolTable
 70
     2
  0
VPORT
  5
1EAE
330
6E
100
AcDbSymbolTableRecord
100
AcDbViewportTableRecord
  2
*ACTIVE
 70
     0
 10
0.0
 20
0.0
 11
1.0
 21
1.0
 12
397.9312920263534
 22
262.9839737389378
 13
0.0
 23
0.0
 14
10.0
 24
10.0
 15
10.0
 25
10.0
 16
0.0
 26
0.0
 36
1.0
 17
0.0
 27
0.0
 37
0.0
 40
459.5487234969978
 41
1.753504672897196
 42
50.0
 43
0.0
 44
0.0
 50
0.0
 51
0.0
 71
     0
 72
   100
 73
     1
 74
     3
 75
     0
 76
     0
 77
     0
 78
     0
  0
ENDTAB
  0
TABLE
  2
LTYPE
  5
69
330
0
100
AcDbSymbolTable
 70
     8
  0
LTYPE
  5
6A
330
69
100
AcDbSymbolTableRecord
100
AcDbLinetypeTableRecord
  2
BYBLOCK
 70
     0
  3

 72
    65
 73
     0
 40
0.0
  0
LTYPE
  5
6B
330
69
100
AcDbSymbolTableRecord
100
AcDbLinetypeTableRecord
  2
BYLAYER
 70
     0
  3

 72
    65
 73
     0
 40
0.0
  0
LTYPE
  5
8
330
69
100
AcDbSymbolTableRecord
100
AcDbLinetypeTableRecord
  2
CONTINUOUS
 70
     0
  3
Solid line
 72
    65
 73
     0
 40
0.0
  0
LTYPE
  5
27C
330
69
100
AcDbSymbolTableRecord
100
AcDbLinetypeTableRecord
  2
SEKKEI_A2_
 70
     0
  3
center(A2)  ____ _ ____ _ ____ _ ____ _ ____ _ 
 72
    65
 73
     4
 40
14.28749999999999
 49
9.525
 74
     0
 49
-1.587499999999999
 74
     0
 49
1.587499999999999
 74
     0
 49
-1.587499999999999
 74
     0
  0
LTYPE
  5
48F
330
69
100
AcDbSymbolTableRecord
100
AcDbLinetypeTableRecord
  2
SEKKEI_H
 70
     0
  3
Hidden-S _ _ _ _ _ _ _ _ _ _ _ _ _ _ _ _ _
 72
    65
 73
     2
 40
2.381249999999999
 49
1.587499999999999
 74
     0
 49
-0.79375
 74
     0
  0
LTYPE
  5
494
330
69
100
AcDbSymbolTableRecord
100
AcDbLinetypeTableRecord
  2
SEKKEI_P_S
 70
     0
  3
Phantom_S   __ _ _ __ _ _ __ _ _ ___
 72
    65
 73
     6
 40
7.5
 49
3.75
 74
     0
 49
-0.75
 74
     0
 49
0.75
 74
     0
 49
-0.75
 74
     0
 49
0.75
 74
     0
 49
-0.75
 74
     0
  0
LTYPE
  5
7EF
330
69
100
AcDbSymbolTableRecord
100
AcDbLinetypeTableRecord
  2
PHANTOM3
 70
     0
  3
Phantom  ___ _ _ ___ _ _ ___ _ _ ___ _ _
 72
    65
 73
     6
 40
9.0
 49
4.0
 74
     0
 49
-1.0
 74
     0
 49
1.0
 74
     0
 49
-1.0
 74
     0
 49
1.0
 74
     0
 49
-1.0
 74
     0
  0
LTYPE
  5
7F0
330
69
100
AcDbSymbolTableRecord
100
AcDbLinetypeTableRecord
  2
HIDDEN3
 70
     0
  3
Hidden (.3x) _ _ _ _ _ _ _ _ _ _ _ _ _ _ _ _ _
 72
    65
 73
     2
 40
2.857499999999999
 49
1.905
 74
     0
 49
-0.9525
 74
     0
  0
LTYPE
  5
AFD
330
69
100
AcDbSymbolTableRecord
100
AcDbLinetypeTableRecord
  2
CENS
 70
     0
  3
(一点鎖線１)---- - ---- - ---- - ---- - ---- - 
 72
    65
 73
     4
 40
7.0
 49
4.0
 74
     0
 49
-1.0
 74
     0
 49
1.0
 74
     0
 49
-1.0
 74
     0
  0
ENDTAB
  0
TABLE
  2
LAYER
  5
66
102
{ACAD_XDICTIONARY
360
AFE
102
}
330
0
100
AcDbSymbolTable
 70
    10
  0
LAYER
  5
5E
102
{ACAD_XDICTIONARY
360
1D56
102
}
330
66
100
AcDbSymbolTableRecord
100
AcDbLayerTableRecord
  2
0
 70
     0
 62
     7
  6
CONTINUOUS
  0
LAYER
  5
3E
102
{ACAD_XDICTIONARY
360
1D58
102
}
330
66
100
AcDbSymbolTableRecord
100
AcDbLayerTableRecord
  2
CENTER
 70
     0
 62
     3
  6
SEKKEI_A2_
  0
LAYER
  5
2B5
102
{ACAD_XDICTIONARY
360
1D5E
102
}
330
66
100
AcDbSymbolTableRecord
100
AcDbLayerTableRecord
  2
HIDS
 70
     0
 62
     1
  6
HIDDEN3
  0
LAYER
  5
2BA
102
{ACAD_XDICTIONARY
360
1D60
102
}
330
66
100
AcDbSymbolTableRecord
100
AcDbLayerTableRecord
  2
HOJO
 70
     0
 62
     4
  6
CONTINUOUS
  0
LAYER
  5
3FA
102
{ACAD_XDICTIONARY
360
1D64
102
}
330
66
100
AcDbSymbolTableRecord
100
AcDbLayerTableRecord
  2
TITLE
 70
     0
 62
     4
  6
CONTINUOUS
  0
LAYER
  5
478
102
{ACAD_XDICTIONARY
360
1D66
102
}
330
66
100
AcDbSymbolTableRecord
100
AcDbLayerTableRecord
  2
PHAS
 70
     0
 62
     2
  6
PHANTOM3
  0
ENDTAB
  0
TABLE
  2
STYLE
  5
67
330
0
100
AcDbSymbolTable
 70
     2
  0
STYLE
  5
16
330
67
100
AcDbSymbolTableRecord
100
AcDbTextStyleTableRecord
  2
STANDARD
 70
     0
 40
0.0
 41
1.0
 50
0.0
 71
     0
 42
2.0
  3
simplex.shx
  4
extfont.shx
  0
ENDTAB
  0
TABLE
  2
VIEW
  5
6C
330
0
100
AcDbSymbolTable
 70
     0
  0
ENDTAB
  0
TABLE
  2
UCS
  5
6D
330
0
100
AcDbSymbolTable
 70
     0
  0
ENDTAB
  0
TABLE
  2
APPID
  5
70
330
0
100
AcDbSymbolTable
 70
     4
  0
APPID
  5
71
330
70
100
AcDbSymbolTableRecord
100
AcDbRegAppTableRecord
  2
ACAD
 70
     0
  0
APPID
  5
1D51
330
70
100
AcDbSymbolTableRecord
100
AcDbRegAppTableRecord
  2
ACAD_MLEADERVER
 70
     0
  0
APPID
  5
1D54
330
70
100
AcDbSymbolTableRecord
100
AcDbRegAppTableRecord
  2
ACAD_DSTYLE_DIMRADIAL_EXTENSION
 70
     0
  0
APPID
  5
1E1F
330
70
100
AcDbSymbolTableRecord
100
AcDbRegAppTableRecord
  2
ACAD_EXEMPT_FROM_CAD_STANDARDS
 70
     0
  0
ENDTAB
  0
TABLE
  2
DIMSTYLE
  5
72
330
0
100
AcDbSymbolTable
 70
     1
  0
DIMSTYLE
105
73
330
72
100
AcDbSymbolTableRecord
100
AcDbDimStyleTableRecord
  2
STANDARD
 70
     0
  3

  4

  5

  6

  7

 40
2.0
 41
1.8
 42
0.625
 43
3.75
 44
0.8
 45
0.0
 46
0.0
 47
0.0
 48
0.0
140
1.8
141
2.5
142
0.0
143
0.0394
144
1.0
145
0.0
146
1.0
147
0.75
 71
     0
 72
     0
 73
     0
 74
     0
 75
     0
 76
     0
 77
     1
 78
     8
170
     0
171
     4
172
     1
173
     0
174
     0
175
     0
176
     0
177
     0
178
     0
270
     8
271
     2
272
     2
273
     8
274
     4
340
16
275
     0
280
     0
281
     0
282
     0
283
     1
284
     0
285
     0
286
     0
287
     3
288
     0
  0
ENDTAB
  0
TABLE
  2
BLOCK_RECORD
  5
1
330
0
100
AcDbSymbolTable
 70
    56
  0
BLOCK_RECORD
  5
2
102
{ACAD_XDICTIONARY
360
1ED0
102
}
330
1
100
AcDbSymbolTableRecord
100
AcDbBlockTableRecord
  2
*MODEL_SPACE
  0
BLOCK_RECORD
  5
1EA9
102
{ACAD_XDICTIONARY
360
1ED2
102
}
330
1
100
AcDbSymbolTableRecord
100
AcDbBlockTableRecord
  2
*PAPER_SPACE
  0
ENDTAB
  0
ENDSEC
  0
SECTION
  2
BLOCKS
  0
BLOCK
  5
5D
330
2
100
AcDbEntity
  8
0
100
AcDbBlockBegin
  2
*MODEL_SPACE
 70
     0
 10
0.0
 20
0.0
 30
0.0
  3
*MODEL_SPACE
  1

  0
ENDBLK
  5
5F
330
2
100
AcDbEntity
  8
0
100
AcDbBlockEnd
  0
BLOCK
  5
1EAB
330
1EA9
100
AcDbEntity
 67
     1
  8
0
100
AcDbBlockBegin
  2
*PAPER_SPACE
 70
     0
 10
0.0
 20
0.0
 30
0.0
  3
*PAPER_SPACE
  1

  0
ENDBLK
  5
1EAC
330
1EA9
100
AcDbEntity
 67
     1
  8
0
100
AcDbBlockEnd
  0
ENDSEC
  0
SECTION
  2
ENTITIES
  0
LINE
  5
F53
330
2
100
AcDbEntity
  8
CENTER
100
AcDbLine
 10
390.0440515349076
 20
254.1262627196642
 30
0.0
 11
550.0440515349104
 21
254.1262627196635
 31
0.0
  0
LINE
  5
F54
330
2
100
AcDbEntity
  8
CENTER
100
AcDbLine
 10
435.0440515349077
 20
299.1262627196642
 30
0.0
 11
435.0440515349077
 21
209.1262627196642
 31
0.0
  0
LINE
  5
F55
330
2
100
AcDbEntity
  8
CENTER
100
AcDbLine
 10
397.2098620213968
 20
446.2037330077221
 30
0.0
 11
550.0440515349099
 21
446.2037330077218
 31
0.0
  0
LINE
  5
F56
330
2
100
AcDbEntity
  8
CENTER
100
AcDbLine
 10
435.0440515349072
 20
491.2037330077252
 30
0.0
 11
435.0440515349072
 21
386.2037330077254
 31
0.0
  0
LINE
  5
F57
330
2
100
AcDbEntity
  8
0
100
AcDbLine
 10
465.7082410468832
 20
465.2037330077229
 30
0.0
 11
465.8740515349071
 21
446.2037330077307
 31
0.0
  0
ARC
  5
F58
330
2
100
AcDbEntity
  8
0
100
AcDbCircle
 10
468.8305314311109
 20
451.2037330077218
 30
0.0
 40
3.0
100
AcDbArc
 50
180.4999999999981
 51
270.0
  0
LINE
  5
F59
330
2
100
AcDbEntity
  8
0
100
AcDbLine
 10
404.0440515333724
 20
465.2037330077229
 30
0.0
 11
404.4978486584726
 21
413.2037330099487
 31
0.0
  0
LINE
  5
F5A
330
2
100
AcDbEntity
  8
0
100
AcDbLine
 10
404.4978486584726
 20
413.2037330099487
 30
0.0
 11
465.41606489806
 21
413.2037330099485
 31
0.0
  0
LINE
  5
F5B
330
2
100
AcDbEntity
  8
0
100
AcDbLine
 10
456.0440515333724
 20
413.2037330099485
 30
0.0
 11
414.0440515333724
 21
413.2037330099485
 31
0.0
  0
LINE
  5
F5C
330
2
100
AcDbEntity
  8
0
100
AcDbLine
 10
460.0440515333724
 20
410.2037330099484
 30
0.0
 11
410.0440515333724
 21
410.2037330099484
 31
0.0
  0
LINE
  5
F5D
330
2
100
AcDbEntity
  8
0
100
AcDbLine
 10
410.0440515333724
 20
413.2037330099485
 30
0.0
 11
410.0440515333724
 21
410.2037330099484
 31
0.0
  0
LINE
  5
F5E
330
2
100
AcDbEntity
  8
0
100
AcDbLine
 10
460.0440515333724
 20
413.2037330099487
 30
0.0
 11
460.0440515333724
 21
410.2037330099484
 31
0.0
  0
LINE
  5
F5F
330
2
100
AcDbEntity
  8
0
100
AcDbLine
 10
404.0440515333724
 20
465.2037330077229
 30
0.0
 11
465.7082410468832
 21
465.2037330077225
 31
0.0
  0
LINE
  5
F60
330
2
100
AcDbEntity
  8
0
100
AcDbLine
 10
465.7082410468832
 20
465.2037330077229
 30
0.0
 11
466.2082410468818
 21
464.7037330077238
 31
0.0
  0
LINE
  5
F61
330
2
100
AcDbEntity
  8
0
100
AcDbLine
 10
477.4513724318852
 20
464.703733007355
 30
0.0
 11
466.2084149672436
 21
464.703733007355
 31
0.0
  0
LINE
  5
F62
330
2
100
AcDbEntity
  8
0
100
AcDbLine
 10
480.4930506268004
 20
469.2560869061892
 30
0.0
 11
479.8894034956296
 21
446.2037330077218
 31
0.0
  0
ARC
  5
F63
330
2
100
AcDbEntity
  8
0
100
AcDbCircle
 10
482.4923652767514
 20
469.2037330095735
 30
0.0
 40
2.0
100
AcDbArc
 50
90.0
 51
178.5000000000005
  0
LINE
  5
F64
330
2
100
AcDbEntity
  8
0
100
AcDbLine
 10
500.0440515349086
 20
477.2037330099485
 30
0.0
 11
500.0440515349122
 21
415.2037330099494
 31
0.0
  0
LINE
  5
F65
330
2
100
AcDbEntity
  8
0
100
AcDbLine
 10
465.5860648980604
 20
413.2037330099485
 30
0.0
 11
465.8740515349071
 21
446.2037330077218
 31
0.0
  0
ARC
  5
F66
330
2
100
AcDbEntity
  8
0
100
AcDbCircle
 10
468.8305314311445
 20
441.2037330077215
 30
0.0
 40
3.0
100
AcDbArc
 50
90.0
 51
179.500000000396
  0
ARC
  5
F67
330
2
100
AcDbEntity
  8
0
100
AcDbCircle
 10
468.6734478110365
 20
423.2037330077216
 30
0.0
 40
3.0
100
AcDbArc
 50
90.0
 51
179.500000000396
  0
ARC
  5
F68
330
2
100
AcDbEntity
  8
0
100
AcDbCircle
 10
468.6385403399234
 20
419.2037330103231
 30
0.0
 40
3.0
100
AcDbArc
 50
90.0
 51
179.500000000396
  0
CIRCLE
  5
F69
330
2
100
AcDbEntity
  8
0
100
AcDbCircle
 10
435.0440515349077
 20
254.1262627196642
 30
0.0
 40
17.5
  0
CIRCLE
  5
F6A
330
2
100
AcDbEntity
  8
CENTER
100
AcDbCircle
 10
435.0440515349077
 20
254.1262627196642
 30
0.0
 40
38.0
  0
CIRCLE
  5
F6B
330
2
100
AcDbEntity
  8
0
100
AcDbCircle
 10
435.0440515349077
 20
254.1262627196642
 30
0.0
 40
25.0
  0
LINE
  5
F6C
330
2
100
AcDbEntity
  8
CENTER
100
AcDbLine
 10
468.7009057843996
 20
287.7831169691566
 30
0.0
 11
401.3871972854152
 21
220.469408470172
 31
0.0
  0
LINE
  5
F6D
330
2
100
AcDbEntity
  8
CENTER
100
AcDbLine
 10
401.3871972854157
 20
287.7831169691571
 30
0.0
 11
468.7009057843996
 21
220.4694084701713
 31
0.0
  0
LINE
  5
F6E
330
2
100
AcDbEntity
  8
CENTER
100
AcDbLine
 10
401.6739938498179
 20
227.2562050345756
 30
0.0
 11
414.6739938498179
 21
227.2562050345756
 31
0.0
  0
CIRCLE
  5
F6F
330
2
100
AcDbEntity
  8
0
100
AcDbCircle
 10
408.1739938498189
 20
227.2562050345752
 30
0.0
 40
2.1
  0
CIRCLE
  5
F70
330
2
100
AcDbEntity
  8
HOJO
100
AcDbCircle
 10
408.1739938498189
 20
227.2562050345752
 30
0.0
 40
2.5
  0
ARC
  5
F71
330
2
100
AcDbEntity
  8
0
100
AcDbCircle
 10
407.0440515349076
 20
226.1262627196639
 30
0.0
 40
3.0
100
AcDbArc
 50
180.0
 51
270.0
  0
LINE
  5
F72
330
2
100
AcDbEntity
  8
CENTER
100
AcDbLine
 10
408.1739938498179
 20
233.7562050345756
 30
0.0
 11
408.1739938498179
 21
220.7562050345756
 31
0.0
  0
LINE
  5
F73
330
2
100
AcDbEntity
  8
CENTER
100
AcDbLine
 10
461.9141092199964
 20
220.7562050345752
 30
0.0
 11
461.9141092199964
 21
233.7562050345752
 31
0.0
  0
ARC
  5
F74
330
2
100
AcDbEntity
  8
0
100
AcDbCircle
 10
463.0440515349077
 20
226.1262627196644
 30
0.0
 40
3.0
100
AcDbArc
 50
270.0
 51
0.0000000068134097
  0
CIRCLE
  5
F75
330
2
100
AcDbEntity
  8
0
100
AcDbCircle
 10
461.9141092199964
 20
227.2562050345754
 30
0.0
 40
2.1
  0
CIRCLE
  5
F76
330
2
100
AcDbEntity
  8
HOJO
100
AcDbCircle
 10
461.9141092199964
 20
227.2562050345754
 30
0.0
 40
2.5
  0
LINE
  5
F77
330
2
100
AcDbEntity
  8
CENTER
100
AcDbLine
 10
455.4141092199964
 20
227.2562050345752
 30
0.0
 11
468.4141092199964
 21
227.2562050345752
 31
0.0
  0
LINE
  5
F78
330
2
100
AcDbEntity
  8
CENTER
100
AcDbLine
 10
414.6739938498188
 20
280.9963204047532
 30
0.0
 11
401.6739938498188
 21
280.9963204047532
 31
0.0
  0
CIRCLE
  5
F79
330
2
100
AcDbEntity
  8
0
100
AcDbCircle
 10
408.1739938498189
 20
280.9963204047527
 30
0.0
 40
2.1
  0
CIRCLE
  5
F7A
330
2
100
AcDbEntity
  8
HOJO
100
AcDbCircle
 10
408.1739938498189
 20
280.9963204047527
 30
0.0
 40
2.5
  0
ARC
  5
F7B
330
2
100
AcDbEntity
  8
0
100
AcDbCircle
 10
407.0440515349076
 20
282.1262627196642
 30
0.0
 40
3.0
100
AcDbArc
 50
90.0
 51
180.0
  0
LINE
  5
F7C
330
2
100
AcDbEntity
  8
CENTER
100
AcDbLine
 10
408.1739938498189
 20
287.4963204047532
 30
0.0
 11
408.1739938498189
 21
274.4963204047532
 31
0.0
  0
LINE
  5
F7D
330
2
100
AcDbEntity
  8
CENTER
100
AcDbLine
 10
468.4141092199964
 20
280.9963204047527
 30
0.0
 11
455.4141092199964
 21
280.9963204047527
 31
0.0
  0
LINE
  5
F7E
330
2
100
AcDbEntity
  8
CENTER
100
AcDbLine
 10
461.9141092199964
 20
274.4963204047532
 30
0.0
 11
461.9141092199964
 21
287.4963204047528
 31
0.0
  0
ARC
  5
F7F
330
2
100
AcDbEntity
  8
0
100
AcDbCircle
 10
463.0440515349077
 20
282.1262627196639
 30
0.0
 40
3.0
100
AcDbArc
 50
359.9999999931214
 51
90.0
  0
CIRCLE
  5
F80
330
2
100
AcDbEntity
  8
HOJO
100
AcDbCircle
 10
461.9141092199964
 20
280.996320404753
 30
0.0
 40
2.5
  0
CIRCLE
  5
F81
330
2
100
AcDbEntity
  8
0
100
AcDbCircle
 10
461.9141092199964
 20
280.996320404753
 30
0.0
 40
2.1
  0
ARC
  5
F82
330
2
100
AcDbEntity
  8
0
100
AcDbCircle
 10
385.0116491255442
 20
272.238328745355
 30
0.0
 40
20.0
100
AcDbArc
 50
353.8840100189425
 51
15.99284774401804
  0
ARC
  5
F83
330
2
100
AcDbEntity
  8
0
100
AcDbCircle
 10
409.0440515349067
 20
279.1262627196628
 30
0.0
 40
5.0
100
AcDbArc
 50
180.0
 51
195.992847744018
  0
LINE
  5
F84
330
2
100
AcDbEntity
  8
0
100
AcDbLine
 10
404.0440515349067
 20
279.126262719663
 30
0.0
 11
404.0440515349067
 21
282.1262627196631
 31
0.0
  0
LINE
  5
F85
330
2
100
AcDbEntity
  8
0
100
AcDbLine
 10
404.0440515349058
 20
279.1262627196617
 30
0.0
 11
404.0440515349058
 21
282.1262627196617
 31
0.0
  0
LINE
  5
F86
330
2
100
AcDbEntity
  8
0
100
AcDbLine
 10
404.0440515349086
 20
279.1262627196644
 30
0.0
 11
404.0440515349086
 21
282.1262627196644
 31
0.0
  0
LINE
  5
F87
330
2
100
AcDbEntity
  8
0
100
AcDbLine
 10
404.0440515349067
 20
279.126262719663
 30
0.0
 11
404.0440515349067
 21
282.1262627196631
 31
0.0
  0
ARC
  5
F88
330
2
100
AcDbEntity
  8
0
100
AcDbCircle
 10
385.0116491255442
 20
236.0141966939708
 30
0.0
 40
20.0
100
AcDbArc
 50
344.0071522559819
 51
6.115989981057472
  0
LINE
  5
F89
330
2
100
AcDbEntity
  8
0
100
AcDbLine
 10
404.0440515349058
 20
229.1262627196644
 30
0.0
 11
404.0440515349058
 21
226.1262627196644
 31
0.0
  0
ARC
  5
F8A
330
2
100
AcDbEntity
  8
0
100
AcDbCircle
 10
409.0440515349067
 20
229.126262719663
 30
0.0
 40
5.0
100
AcDbArc
 50
164.0071522559819
 51
180.0
  0
LINE
  5
F8B
330
2
100
AcDbEntity
  8
0
100
AcDbLine
 10
410.0440515349068
 20
223.1262627196631
 30
0.0
 11
407.0440515349067
 21
223.1262627196631
 31
0.0
  0
LINE
  5
F8C
330
2
100
AcDbEntity
  8
0
100
AcDbLine
 10
410.0440515349085
 20
223.1262627196612
 30
0.0
 11
407.0440515349085
 21
223.1262627196615
 31
0.0
  0
LINE
  5
F8D
330
2
100
AcDbEntity
  8
0
100
AcDbLine
 10
410.0440515349068
 20
223.1262627196631
 30
0.0
 11
407.0440515349067
 21
223.1262627196631
 31
0.0
  0
LINE
  5
F8E
330
2
100
AcDbEntity
  8
0
100
AcDbLine
 10
410.0440515349058
 20
223.1262627196644
 30
0.0
 11
407.0440515349059
 21
223.1262627196644
 31
0.0
  0
ARC
  5
F8F
330
2
100
AcDbEntity
  8
0
100
AcDbCircle
 10
416.9319855092156
 20
204.0938603102997
 30
0.0
 40
20.0
100
AcDbArc
 50
83.88401001893184
 51
105.9928477439961
  0
ARC
  5
F90
330
2
100
AcDbEntity
  8
0
100
AcDbCircle
 10
410.0440515349068
 20
228.126262719663
 30
0.0
 40
5.0
100
AcDbArc
 50
270.0
 51
285.992847743996
  0
ARC
  5
F91
330
2
100
AcDbEntity
  8
0
100
AcDbCircle
 10
453.1561175605997
 20
204.0938603102997
 30
0.0
 40
20.0
100
AcDbArc
 50
74.00715225600388
 51
96.11598998106819
  0
LINE
  5
F92
330
2
100
AcDbEntity
  8
0
100
AcDbLine
 10
460.0440515349058
 20
223.1262627196615
 30
0.0
 11
463.0440515349058
 21
223.1262627196615
 31
0.0
  0
ARC
  5
F93
330
2
100
AcDbEntity
  8
0
100
AcDbCircle
 10
460.0440515349068
 20
228.126262719663
 30
0.0
 40
5.0
100
AcDbArc
 50
254.0071522560039
 51
270.0
  0
ARC
  5
F94
330
2
100
AcDbEntity
  8
0
100
AcDbCircle
 10
453.1561175605997
 20
304.1586651290264
 30
0.0
 40
20.0
100
AcDbArc
 50
263.8840100189318
 51
285.992847743996
  0
LINE
  5
F95
330
2
100
AcDbEntity
  8
0
100
AcDbLine
 10
460.0440515349077
 20
285.126262719663
 30
0.0
 11
463.0440515349067
 21
285.1262627196628
 31
0.0
  0
LINE
  5
F96
330
2
100
AcDbEntity
  8
0
100
AcDbLine
 10
460.0440515349085
 20
285.1262627196614
 30
0.0
 11
463.0440515349086
 21
285.1262627196612
 31
0.0
  0
LINE
  5
F97
330
2
100
AcDbEntity
  8
0
100
AcDbLine
 10
460.0440515349058
 20
285.1262627196644
 30
0.0
 11
463.0440515349058
 21
285.1262627196644
 31
0.0
  0
LINE
  5
F98
330
2
100
AcDbEntity
  8
0
100
AcDbLine
 10
460.0440515349068
 20
285.126262719663
 30
0.0
 11
463.0440515349067
 21
285.126262719663
 31
0.0
  0
ARC
  5
F99
330
2
100
AcDbEntity
  8
0
100
AcDbCircle
 10
460.0440515349068
 20
280.126262719663
 30
0.0
 40
5.0
100
AcDbArc
 50
90.0
 51
105.9928477439961
  0
LINE
  5
F9A
330
2
100
AcDbEntity
  8
0
100
AcDbLine
 10
410.0440515349085
 20
285.1262627196644
 30
0.0
 11
407.0440515349085
 21
285.1262627196644
 31
0.0
  0
LINE
  5
F9B
330
2
100
AcDbEntity
  8
0
100
AcDbLine
 10
410.0440515349068
 20
285.126262719663
 30
0.0
 11
407.0440515349067
 21
285.126262719663
 31
0.0
  0
ARC
  5
F9C
330
2
100
AcDbEntity
  8
0
100
AcDbCircle
 10
416.9319855092156
 20
304.1586651290264
 30
0.0
 40
20.0
100
AcDbArc
 50
254.0071522560039
 51
276.1159899810681
  0
ARC
  5
F9D
330
2
100
AcDbEntity
  8
0
100
AcDbCircle
 10
410.0440515349068
 20
280.126262719663
 30
0.0
 40
5.0
100
AcDbArc
 50
74.00715225600388
 51
90.0
  0
ARC
  5
F9E
330
2
100
AcDbEntity
  8
0
100
AcDbCircle
 10
554.0440515349067
 20
254.1262627196626
 30
0.0
 40
150.0
100
AcDbArc
 50
173.8840100189425
 51
186.1159899810574
  0
ARC
  5
F9F
330
2
100
AcDbEntity
  8
0
100
AcDbCircle
 10
435.0440515349085
 20
135.1262627196644
 30
0.0
 40
150.0
100
AcDbArc
 50
83.88401001893184
 51
96.11598998106819
  0
ARC
  5
FA0
330
2
100
AcDbEntity
  8
0
100
AcDbCircle
 10
435.0440515349085
 20
373.1262627196644
 30
0.0
 40
150.0
100
AcDbArc
 50
263.8840100189318
 51
276.1159899810681
  0
LINE
  5
FA1
330
2
100
AcDbEntity
  8
0
100
AcDbLine
 10
466.0440515349067
 20
226.1262627196639
 30
0.0
 11
466.0440515349113
 21
282.1262627196639
 31
0.0
  0
LINE
  5
FA2
330
2
100
AcDbEntity
  8
0
100
AcDbLine
 10
500.0440515349104
 20
285.626262719664
 30
0.0
 11
500.0440515349104
 21
222.6262627196649
 31
0.0
  0
ARC
  5
FA3
330
2
100
AcDbEntity
  8
0
100
AcDbCircle
 10
494.0440515349122
 20
283.126262719664
 30
0.0
 40
2.0
100
AcDbArc
 50
90.0
 51
180.0
  0
LINE
  5
FA4
330
2
100
AcDbEntity
  8
0
100
AcDbLine
 10
492.0440515349122
 20
283.626262719664
 30
0.0
 11
492.0440515349122
 21
224.6262627196644
 31
0.0
  0
LINE
  5
FA5
330
2
100
AcDbEntity
  8
0
100
AcDbLine
 10
500.044051534914
 20
223.1262627196648
 30
0.0
 11
494.0440515349122
 21
223.1262627196644
 31
0.0
  0
ARC
  5
FA6
330
2
100
AcDbEntity
  8
0
100
AcDbCircle
 10
494.0440515349122
 20
225.1262627196644
 30
0.0
 40
2.0
100
AcDbArc
 50
180.0
 51
270.0
  0
LINE
  5
FA7
330
2
100
AcDbEntity
  8
0
100
AcDbLine
 10
500.0440515349104
 20
285.126262719664
 30
0.0
 11
494.0440515349122
 21
285.126262719664
 31
0.0
  0
ARC
  5
FA8
330
2
100
AcDbEntity
  8
0
100
AcDbCircle
 10
482.4923652767514
 20
423.2037330058701
 30
0.0
 40
2.0
100
AcDbArc
 50
181.4999999999798
 51
270.0
  0
LINE
  5
FA9
330
2
100
AcDbEntity
  8
0
100
AcDbLine
 10
480.4930506268004
 20
423.1513791092544
 30
0.0
 11
479.8894034956378
 21
446.2037330077218
 31
0.0
  0
LINE
  5
FAA
330
2
100
AcDbEntity
  8
0
100
AcDbLine
 10
468.6734478110365
 20
426.2037330077216
 30
0.0
 11
477.4906513142489
 21
426.2037330077218
 31
0.0
  0
ARC
  5
FAB
330
2
100
AcDbEntity
  8
0
100
AcDbCircle
 10
477.4906513142489
 20
423.2037330077218
 30
0.0
 40
3.0
100
AcDbArc
 50
1.500000000002716
 51
90.0
  0
LINE
  5
FAC
330
2
100
AcDbEntity
  8
0
100
AcDbLine
 10
469.0440515349094
 20
256.126262719664
 30
0.0
 11
477.5440515349104
 21
256.126262719664
 31
0.0
  0
LINE
  5
FAD
330
2
100
AcDbEntity
  8
0
100
AcDbLine
 10
468.8305314311109
 20
448.2037330077218
 30
0.0
 11
477.019304726003
 21
448.2037330077218
 31
0.0
  0
LINE
  5
FAE
330
2
100
AcDbEntity
  8
0
100
AcDbLine
 10
469.0440515349076
 20
274.1262627196639
 30
0.0
 11
477.5440515349104
 21
274.1262627196639
 31
0.0
  0
ARC
  5
FAF
330
2
100
AcDbEntity
  8
0
100
AcDbCircle
 10
469.0440515349076
 20
277.126262719664
 30
0.0
 40
3.0
100
AcDbArc
 50
180.0
 51
270.0
  0
ARC
  5
FB0
330
2
100
AcDbEntity
  8
0
100
AcDbCircle
 10
477.5440515349104
 20
277.126262719664
 30
0.0
 40
3.0
100
AcDbArc
 50
270.0
 51
359.9999999999967
  0
LINE
  5
FB1
330
2
100
AcDbEntity
  8
0
100
AcDbLine
 10
480.5440515349103
 20
277.1262627189432
 30
0.0
 11
480.5440515349103
 21
231.1262627203772
 31
0.0
  0
LINE
  5
FB2
330
2
100
AcDbEntity
  8
0
100
AcDbLine
 10
469.0440515349076
 20
234.1262627196639
 30
0.0
 11
477.5440515349104
 21
234.1262627196639
 31
0.0
  0
ARC
  5
FB3
330
2
100
AcDbEntity
  8
0
100
AcDbCircle
 10
477.5440515349104
 20
231.126262719664
 30
0.0
 40
3.0
100
AcDbArc
 50
0.0
 51
90.0
  0
ARC
  5
FB4
330
2
100
AcDbEntity
  8
0
100
AcDbCircle
 10
469.0440515349076
 20
231.126262719664
 30
0.0
 40
3.0
100
AcDbArc
 50
90.0
 51
179.9999999999967
  0
ARC
  5
FB5
330
2
100
AcDbEntity
  8
0
100
AcDbCircle
 10
482.5440515349104
 20
231.1262627203772
 30
0.0
 40
2.0
100
AcDbArc
 50
180.0
 51
270.0
  0
LINE
  5
FB6
330
2
100
AcDbEntity
  8
0
100
AcDbLine
 10
480.5440515349103
 20
231.126262719664
 30
0.0
 11
480.5440515349103
 21
231.1262627203772
 31
0.0
  0
ARC
  5
FB7
330
2
100
AcDbEntity
  8
0
100
AcDbCircle
 10
482.5440515349104
 20
277.1262627189432
 30
0.0
 40
2.0
100
AcDbArc
 50
90.0
 51
180.0
  0
LINE
  5
FB8
330
2
100
AcDbEntity
  8
0
100
AcDbLine
 10
482.5440515349104
 20
279.1262627189432
 30
0.0
 11
489.0440515349122
 21
279.1262627189432
 31
0.0
  0
ARC
  5
FB9
330
2
100
AcDbEntity
  8
0
100
AcDbCircle
 10
489.0440515349122
 20
282.1262627189432
 30
0.0
 40
3.0
100
AcDbArc
 50
270.0
 51
0.0
  0
ARC
  5
FBA
330
2
100
AcDbEntity
  8
0
100
AcDbCircle
 10
489.0440515349122
 20
226.126262720377
 30
0.0
 40
3.0
100
AcDbArc
 50
0.0
 51
90.0
  0
LINE
  5
FBB
330
2
100
AcDbEntity
  8
0
100
AcDbLine
 10
482.5440515349104
 20
229.1262627203772
 30
0.0
 11
489.0440515349122
 21
229.126262720377
 31
0.0
  0
ARC
  5
FBC
330
2
100
AcDbEntity
  8
0
100
AcDbCircle
 10
477.4513724318852
 20
467.7037330073551
 30
0.0
 40
3.0
100
AcDbArc
 50
270.0
 51
358.4999999999972
  0
LINE
  5
FBD
330
2
100
AcDbEntity
  8
0
100
AcDbLine
 10
468.6385403399234
 20
422.2037330103232
 30
0.0
 11
479.4923652708142
 21
422.2037330103232
 31
0.0
  0
LINE
  5
FBE
330
2
100
AcDbEntity
  8
0
100
AcDbLine
 10
468.8305314311445
 20
444.2037330077218
 30
0.0
 11
477.0193047260094
 21
444.2037330077218
 31
0.0
  0
ARC
  5
FBF
330
2
100
AcDbEntity
  8
0
100
AcDbCircle
 10
469.0440515349094
 20
259.1262627196639
 30
0.0
 40
3.0
100
AcDbArc
 50
179.9999999999934
 51
270.0
  0
ARC
  5
FC0
330
2
100
AcDbEntity
  8
0
100
AcDbCircle
 10
477.5440515349104
 20
259.1262627196639
 30
0.0
 40
3.0
100
AcDbArc
 50
270.0
 51
0.0
  0
LINE
  5
FC1
330
2
100
AcDbEntity
  8
0
100
AcDbLine
 10
469.0440515349094
 20
252.126262719664
 30
0.0
 11
477.5440515349104
 21
252.126262719664
 31
0.0
  0
ARC
  5
FC2
330
2
100
AcDbEntity
  8
0
100
AcDbCircle
 10
477.5440515349104
 20
249.1262627196639
 30
0.0
 40
3.0
100
AcDbArc
 50
0.0
 51
90.0
  0
ARC
  5
FC3
330
2
100
AcDbEntity
  8
0
100
AcDbCircle
 10
469.0440515349094
 20
249.1262627196639
 30
0.0
 40
3.0
100
AcDbArc
 50
90.0
 51
180.0000000000032
  0
ARC
  5
FC4
330
2
100
AcDbEntity
  8
0
100
AcDbCircle
 10
479.4923652708142
 20
419.2037330103231
 30
0.0
 40
3.0
100
AcDbArc
 50
53.13010226912336
 51
90.0
  0
LINE
  5
FC5
330
2
100
AcDbEntity
  8
0
100
AcDbLine
 10
414.9754290845134
 20
403.2037330077218
 30
0.0
 11
455.1126739852929
 21
403.2037330077216
 31
0.0
  0
LINE
  5
FC6
330
2
100
AcDbEntity
  8
0
100
AcDbLine
 10
457.2210928169255
 20
408.2735320011267
 30
0.0
 11
457.1114556393307
 21
405.1339340143169
 31
0.0
  0
ARC
  5
FC7
330
2
100
AcDbEntity
  8
0
100
AcDbCircle
 10
459.2198744709634
 20
408.2037330077218
 30
0.0
 40
2.0
100
AcDbArc
 50
90.0
 51
178.0000000000028
  0
ARC
  5
FC8
330
2
100
AcDbEntity
  8
0
100
AcDbCircle
 10
455.1126739852929
 20
405.2037330077218
 30
0.0
 40
2.0
100
AcDbArc
 50
270.0
 51
358.0000000000028
  0
LINE
  5
FC9
330
2
100
AcDbEntity
  8
0
100
AcDbLine
 10
412.8670102528843
 20
408.2735320011503
 30
0.0
 11
412.9766474304755
 21
405.1339340143405
 31
0.0
  0
ARC
  5
FCA
330
2
100
AcDbEntity
  8
0
100
AcDbCircle
 10
410.8682285988464
 20
408.2037330077475
 30
0.0
 40
2.0
100
AcDbArc
 50
1.999999999938485
 51
89.99999999994789
  0
ARC
  5
FCB
330
2
100
AcDbEntity
  8
0
100
AcDbCircle
 10
414.9754290845134
 20
405.2037330077434
 30
0.0
 40
2.0
100
AcDbArc
 50
181.9999999999384
 51
269.9999999999478
  0
LINE
  5
FCC
330
2
100
AcDbEntity
  8
0
100
AcDbLine
 10
493.9923652767514
 20
477.2037330077218
 30
0.0
 11
500.0440515349086
 21
477.2037330077218
 31
0.0
  0
LINE
  5
FCD
330
2
100
AcDbEntity
  8
0
100
AcDbLine
 10
493.9923652767514
 20
415.2037330077218
 30
0.0
 11
500.0440515349122
 21
415.2037330099494
 31
0.0
  0
LINE
  5
FCE
330
2
100
AcDbEntity
  8
0
100
AcDbLine
 10
491.9930506268005
 20
417.1513791111064
 30
0.0
 11
491.2322879662891
 21
446.2037330077218
 31
0.0
  0
ARC
  5
FCF
330
2
100
AcDbEntity
  8
0
100
AcDbCircle
 10
493.9923652767514
 20
417.2037330077218
 30
0.0
 40
2.0
100
AcDbArc
 50
181.4999999999897
 51
270.0
  0
ARC
  5
FD0
330
2
100
AcDbEntity
  8
0
100
AcDbCircle
 10
493.9923652767514
 20
475.2037330077218
 30
0.0
 40
2.0
100
AcDbArc
 50
90.0
 51
178.5000000000102
  0
LINE
  5
FD1
330
2
100
AcDbEntity
  8
0
100
AcDbLine
 10
482.4923652767532
 20
471.2037330077218
 30
0.0
 11
488.9644653927292
 21
471.2037330077218
 31
0.0
  0
LINE
  5
FD2
330
2
100
AcDbEntity
  8
0
100
AcDbLine
 10
482.4923652767532
 20
421.2037330077218
 30
0.0
 11
488.9644653927292
 21
421.2037330077218
 31
0.0
  0
ARC
  5
FD3
330
2
100
AcDbEntity
  8
0
100
AcDbCircle
 10
488.9644653927292
 20
474.2037330077218
 30
0.0
 40
3.0
100
AcDbArc
 50
270.0
 51
358.5000000000103
  0
ARC
  5
FD4
330
2
100
AcDbEntity
  8
0
100
AcDbCircle
 10
488.9644653927292
 20
418.2037330077218
 30
0.0
 40
3.0
100
AcDbArc
 50
1.499999999989693
 51
90.0
  0
LINE
  5
FD5
330
2
100
AcDbEntity
  8
0
100
AcDbLine
 10
491.9930506268005
 20
475.256086904336
 30
0.0
 11
491.2322879662873
 21
446.2037330077218
 31
0.0
  0
LINE
  5
FD6
330
2
100
AcDbEntity
  8
0
100
AcDbLine
 10
460.0440515349141
 20
446.2037330077218
 30
0.0
 11
460.0440515349141
 21
414.703713969254
 31
0.0
  0
LINE
  5
FD7
330
2
100
AcDbEntity
  8
0
100
AcDbLine
 10
419.0628168063607
 20
465.2037330077229
 30
0.0
 11
419.0628168063607
 21
414.703713969254
 31
0.0
  0
LINE
  5
FD8
330
2
100
AcDbEntity
  8
0
100
AcDbLine
 10
410.0440515349068
 20
465.2037330077229
 30
0.0
 11
410.0440515349068
 21
414.703713969254
 31
0.0
  0
LINE
  5
FD9
330
2
100
AcDbEntity
  8
0
100
AcDbLine
 10
407.0440515349067
 20
465.2037330077229
 30
0.0
 11
407.0440515349067
 21
414.703713969254
 31
0.0
  0
LINE
  5
FDA
330
2
100
AcDbEntity
  8
0
100
AcDbLine
 10
462.8738776129879
 20
446.2037330077218
 30
0.0
 11
462.8738776129879
 21
414.703713969254
 31
0.0
  0
LINE
  5
FDB
330
2
100
AcDbEntity
  8
0
100
AcDbLine
 10
451.0252862634364
 20
465.2037330077227
 30
0.0
 11
451.0252862634364
 21
414.703713969254
 31
0.0
  0
LINE
  5
FDC
330
2
100
AcDbEntity
  8
0
100
AcDbLine
 10
460.0571444956917
 20
465.2037330077225
 30
0.0
 11
460.5291765514533
 21
447.1775560594139
 31
0.0
  0
ARC
  5
FDD
330
2
100
AcDbEntity
  8
0
100
AcDbCircle
 10
461.5288338764288
 20
447.2037330077218
 30
0.0
 40
1.0
100
AcDbArc
 50
181.5000000000027
 51
270.0
  0
LINE
  5
FDE
330
2
100
AcDbEntity
  8
0
100
AcDbLine
 10
461.5288338764288
 20
446.2037330077218
 30
0.0
 11
465.8740515349071
 21
446.2037330077218
 31
0.0
  0
LINE
  5
FDF
330
2
100
AcDbEntity
  8
0
100
AcDbLine
 10
491.2322879662873
 20
446.2037330077566
 30
0.0
 11
500.0440515349104
 21
446.2037330077218
 31
0.0
  0
LINE
  5
FE0
330
2
100
AcDbEntity
  8
0
100
AcDbLine
 10
469.0440515349085
 20
278.1262627189509
 30
0.0
 11
479.5440515349176
 21
278.1262627189509
 31
0.0
  0
ARC
  5
FE1
330
2
100
AcDbEntity
  8
0
100
AcDbCircle
 10
469.0440515349085
 20
281.1262627189509
 30
0.0
 40
3.0
100
AcDbArc
 50
179.9999999999967
 51
270.0
  0
ARC
  5
FE2
330
2
100
AcDbEntity
  8
0
100
AcDbCircle
 10
479.5440515349176
 20
281.1262627189509
 30
0.0
 40
3.0
100
AcDbArc
 50
270.0
 51
306.8698976456766
  0
LINE
  5
FE3
330
2
100
AcDbEntity
  8
0
100
AcDbLine
 10
469.0440515349085
 20
230.1262627203775
 30
0.0
 11
479.5440515349176
 21
230.1262627203775
 31
0.0
  0
ARC
  5
FE4
330
2
100
AcDbEntity
  8
0
100
AcDbCircle
 10
469.0440515349085
 20
227.1262627203774
 30
0.0
 40
3.0
100
AcDbArc
 50
90.0
 51
180.0
  0
ARC
  5
FE5
330
2
100
AcDbEntity
  8
0
100
AcDbCircle
 10
479.5440515349176
 20
227.1262627203774
 30
0.0
 40
3.0
100
AcDbArc
 50
53.13010235426199
 51
90.0
  0
ARC
  5
FE6
330
2
100
AcDbEntity
  8
0
100
AcDbCircle
 10
477.019304726003
 20
451.2037330077218
 30
0.0
 40
3.0
100
AcDbArc
 50
270.0
 51
358.4999999999972
  0
ARC
  5
FE7
330
2
100
AcDbEntity
  8
0
100
AcDbCircle
 10
477.0193047260094
 20
441.2037330077218
 30
0.0
 40
3.0
100
AcDbArc
 50
1.499999999983181
 51
90.0
  0
ARC
  5
FE8
330
2
100
AcDbEntity
  8
0
100
AcDbCircle
 10
494.0440515349122
 20
283.626262719664
 30
0.0
 40
2.0
100
AcDbArc
 50
90.0
 51
180.0
  0
LINE
  5
FE9
330
2
100
AcDbEntity
  8
0
100
AcDbLine
 10
500.0440515349104
 20
285.626262719664
 30
0.0
 11
494.0440515349122
 21
285.626262719664
 31
0.0
  0
LINE
  5
FEA
330
2
100
AcDbEntity
  8
0
100
AcDbLine
 10
500.044051534914
 20
222.6262627196649
 30
0.0
 11
494.0440515349122
 21
222.6262627196644
 31
0.0
  0
ARC
  5
FEB
330
2
100
AcDbEntity
  8
0
100
AcDbCircle
 10
494.0440515349122
 20
224.6262627196644
 30
0.0
 40
2.0
100
AcDbArc
 50
180.0
 51
270.0
  0
LINE
  5
FEC
330
2
100
AcDbEntity
  8
CENTER
100
AcDbLine
 10
161.9210612960593
 20
216.1262627196646
 30
0.0
 11
161.9210612960593
 21
292.1262627196646
 31
0.0
  0
LINE
  5
FED
330
2
100
AcDbEntity
  8
CENTER
100
AcDbLine
 10
199.921061296059
 20
254.1262627196646
 30
0.0
 11
46.92106129605884
 21
254.1262627196646
 31
0.0
  0
LINE
  5
FEE
330
2
100
AcDbEntity
  8
0
100
AcDbLine
 10
104.9210612960572
 20
224.6262627196646
 30
0.0
 11
104.9210612960572
 21
283.6262627196642
 31
0.0
  0
LINE
  5
FEF
330
2
100
AcDbEntity
  8
0
100
AcDbLine
 10
96.92106129605907
 20
222.6262627196646
 30
0.0
 11
96.92106129605907
 21
285.6262627196637
 31
0.0
  0
LINE
  5
FF0
330
2
100
AcDbEntity
  8
0
100
AcDbLine
 10
116.421061296059
 20
246.5269206428792
 30
0.0
 11
116.421061296059
 21
261.7256047964501
 31
0.0
  0
ARC
  5
FF1
330
2
100
AcDbEntity
  8
0
100
AcDbCircle
 10
102.9210612960572
 20
283.1262627196642
 30
0.0
 40
2.0
100
AcDbArc
 50
0.0
 51
90.0
  0
LINE
  5
FF2
330
2
100
AcDbEntity
  8
0
100
AcDbLine
 10
96.92106129605543
 20
285.1262627196637
 30
0.0
 11
102.9210612960572
 21
285.1262627196642
 31
0.0
  0
ARC
  5
FF3
330
2
100
AcDbEntity
  8
0
100
AcDbCircle
 10
102.9210612960572
 20
225.1262627196646
 30
0.0
 40
2.0
100
AcDbArc
 50
270.0
 51
0.0
  0
LINE
  5
FF4
330
2
100
AcDbEntity
  8
0
100
AcDbLine
 10
96.92106129605907
 20
223.1262627196646
 30
0.0
 11
102.9210612960572
 21
223.1262627196646
 31
0.0
  0
ARC
  5
FF5
330
2
100
AcDbEntity
  8
0
100
AcDbCircle
 10
189.921061296059
 20
282.1262627196647
 30
0.0
 40
3.0
100
AcDbArc
 50
0.0
 51
90.0
  0
ARC
  5
FF6
330
2
100
AcDbEntity
  8
0
100
AcDbCircle
 10
189.921061296059
 20
226.1262627196646
 30
0.0
 40
3.0
100
AcDbArc
 50
270.0
 51
0.0
  0
ARC
  5
FF7
330
2
100
AcDbEntity
  8
0
100
AcDbCircle
 10
42.92106129605906
 20
254.1262627196664
 30
0.0
 40
150.0
100
AcDbArc
 50
353.8840100189425
 51
6.115989981057472
  0
ARC
  5
FF8
330
2
100
AcDbEntity
  8
0
100
AcDbCircle
 10
211.9534637054224
 20
236.014196693974
 30
0.0
 40
20.0
100
AcDbArc
 50
173.8840100189425
 51
195.9928477439901
  0
ARC
  5
FF9
330
2
100
AcDbEntity
  8
0
100
AcDbCircle
 10
187.921061296059
 20
229.1262627196662
 30
0.0
 40
5.0
100
AcDbArc
 50
0.0
 51
15.99284774399019
  0
LINE
  5
FFA
330
2
100
AcDbEntity
  8
0
100
AcDbLine
 10
192.921061296059
 20
229.126262719666
 30
0.0
 11
192.921061296059
 21
226.1262627196662
 31
0.0
  0
LINE
  5
FFB
330
2
100
AcDbEntity
  8
0
100
AcDbLine
 10
192.9210612960608
 20
229.1262627196674
 30
0.0
 11
192.9210612960608
 21
226.1262627196676
 31
0.0
  0
LINE
  5
FFC
330
2
100
AcDbEntity
  8
0
100
AcDbLine
 10
192.9210612960572
 20
229.1262627196646
 30
0.0
 11
192.9210612960572
 21
226.1262627196646
 31
0.0
  0
LINE
  5
FFD
330
2
100
AcDbEntity
  8
0
100
AcDbLine
 10
192.921061296059
 20
229.126262719666
 30
0.0
 11
192.921061296059
 21
226.126262719666
 31
0.0
  0
ARC
  5
FFE
330
2
100
AcDbEntity
  8
0
100
AcDbCircle
 10
211.9534637054224
 20
272.2383287453582
 30
0.0
 40
20.0
100
AcDbArc
 50
164.0071522560098
 51
186.1159899810574
  0
LINE
  5
FFF
330
2
100
AcDbEntity
  8
0
100
AcDbLine
 10
192.9210612960608
 20
279.1262627196648
 30
0.0
 11
192.9210612960608
 21
282.1262627196647
 31
0.0
  0
ARC
  5
1000
330
2
100
AcDbEntity
  8
0
100
AcDbCircle
 10
187.921061296059
 20
279.126262719666
 30
0.0
 40
5.0
100
AcDbArc
 50
344.0071522560097
 51
0.0
  0
LINE
  5
1001
330
2
100
AcDbEntity
  8
0
100
AcDbLine
 10
186.921061296059
 20
285.1262627196662
 30
0.0
 11
189.921061296059
 21
285.126262719666
 31
0.0
  0
LINE
  5
1002
330
2
100
AcDbEntity
  8
0
100
AcDbLine
 10
186.9210612960581
 20
285.1262627196678
 30
0.0
 11
189.9210612960581
 21
285.1262627196676
 31
0.0
  0
LINE
  5
1003
330
2
100
AcDbEntity
  8
0
100
AcDbLine
 10
186.921061296059
 20
285.126262719666
 30
0.0
 11
189.921061296059
 21
285.126262719666
 31
0.0
  0
LINE
  5
1004
330
2
100
AcDbEntity
  8
0
100
AcDbLine
 10
186.9210612960609
 20
285.1262627196646
 30
0.0
 11
189.9210612960608
 21
285.1262627196646
 31
0.0
  0
ARC
  5
1005
330
2
100
AcDbEntity
  8
0
100
AcDbCircle
 10
180.0331273217519
 20
304.1586651290296
 30
0.0
 40
20.0
100
AcDbArc
 50
263.8840100189318
 51
285.992847743996
  0
ARC
  5
1006
330
2
100
AcDbEntity
  8
0
100
AcDbCircle
 10
186.921061296059
 20
280.126262719666
 30
0.0
 40
5.0
100
AcDbArc
 50
90.0
 51
105.9928477439961
  0
ARC
  5
1007
330
2
100
AcDbEntity
  8
0
100
AcDbCircle
 10
143.808995270367
 20
304.1586651290296
 30
0.0
 40
20.0
100
AcDbArc
 50
254.0071522560039
 51
276.1159899810156
  0
LINE
  5
1008
330
2
100
AcDbEntity
  8
0
100
AcDbLine
 10
136.9210612960608
 20
285.1262627196678
 30
0.0
 11
133.9210612960572
 21
285.1262627196678
 31
0.0
  0
ARC
  5
1009
330
2
100
AcDbEntity
  8
0
100
AcDbCircle
 10
136.921061296059
 20
280.1262627196662
 30
0.0
 40
5.0
100
AcDbArc
 50
74.00715225600388
 51
90.0
  0
ARC
  5
100A
330
2
100
AcDbEntity
  8
0
100
AcDbCircle
 10
143.808995270367
 20
204.0938603103026
 30
0.0
 40
20.0
100
AcDbArc
 50
83.88401001893184
 51
105.9928477439961
  0
LINE
  5
100B
330
2
100
AcDbEntity
  8
0
100
AcDbLine
 10
136.921061296059
 20
223.1262627196662
 30
0.0
 11
133.921061296059
 21
223.1262627196662
 31
0.0
  0
LINE
  5
100C
330
2
100
AcDbEntity
  8
0
100
AcDbLine
 10
136.9210612960572
 20
223.1262627196678
 30
0.0
 11
133.9210612960572
 21
223.1262627196678
 31
0.0
  0
LINE
  5
100D
330
2
100
AcDbEntity
  8
0
100
AcDbLine
 10
136.9210612960608
 20
223.1262627196646
 30
0.0
 11
133.9210612960608
 21
223.1262627196646
 31
0.0
  0
LINE
  5
100E
330
2
100
AcDbEntity
  8
0
100
AcDbLine
 10
136.921061296059
 20
223.126262719666
 30
0.0
 11
133.9210612960572
 21
223.1262627196664
 31
0.0
  0
ARC
  5
100F
330
2
100
AcDbEntity
  8
0
100
AcDbCircle
 10
136.921061296059
 20
228.1262627196662
 30
0.0
 40
5.0
100
AcDbArc
 50
270.0
 51
285.992847743996
  0
LINE
  5
1010
330
2
100
AcDbEntity
  8
0
100
AcDbLine
 10
186.9210612960581
 20
223.1262627196646
 30
0.0
 11
189.9210612960581
 21
223.1262627196646
 31
0.0
  0
LINE
  5
1011
330
2
100
AcDbEntity
  8
0
100
AcDbLine
 10
186.921061296059
 20
223.126262719666
 30
0.0
 11
189.921061296059
 21
223.1262627196662
 31
0.0
  0
ARC
  5
1012
330
2
100
AcDbEntity
  8
0
100
AcDbCircle
 10
180.0331273217519
 20
204.0938603103026
 30
0.0
 40
20.0
100
AcDbArc
 50
74.00715225600388
 51
96.11598998101577
  0
ARC
  5
1013
330
2
100
AcDbEntity
  8
0
100
AcDbCircle
 10
186.921061296059
 20
228.126262719666
 30
0.0
 40
5.0
100
AcDbArc
 50
254.0071522560039
 51
270.0
  0
ARC
  5
1014
330
2
100
AcDbEntity
  8
0
100
AcDbCircle
 10
161.9210612960572
 20
373.1262627196646
 30
0.0
 40
150.0
100
AcDbArc
 50
263.8840100189318
 51
276.1159899810156
  0
ARC
  5
1015
330
2
100
AcDbEntity
  8
0
100
AcDbCircle
 10
161.9210612960572
 20
135.1262627196646
 30
0.0
 40
150.0
100
AcDbArc
 50
83.88401001893184
 51
96.11598998101577
  0
LINE
  5
1016
330
2
100
AcDbEntity
  8
0
100
AcDbLine
 10
130.9210612960572
 20
282.1262627196678
 30
0.0
 11
130.9210612960572
 21
226.1262627196665
 31
0.0
  0
ARC
  5
1017
330
2
100
AcDbEntity
  8
0
100
AcDbCircle
 10
133.9210612960572
 20
226.1262627196665
 30
0.0
 40
3.0
100
AcDbArc
 50
180.0
 51
270.0
  0
LINE
  5
1018
330
2
100
AcDbEntity
  8
0
100
AcDbLine
 10
116.421061296059
 20
246.5269206428792
 30
0.0
 11
130.9210612960581
 21
246.5269206428792
 31
0.0
  0
LINE
  5
1019
330
2
100
AcDbEntity
  8
0
100
AcDbLine
 10
116.421061296059
 20
261.7256047964501
 30
0.0
 11
130.9210612960581
 21
261.7256047964501
 31
0.0
  0
LINE
  5
101A
330
2
100
AcDbEntity
  8
0
100
AcDbLine
 10
130.421061296059
 20
261.7256047964501
 30
0.0
 11
130.4210612960581
 21
246.5269206428792
 31
0.0
  0
LINE
  5
101B
330
2
100
AcDbEntity
  8
0
100
AcDbLine
 10
127.9210612960608
 20
234.1262627196644
 30
0.0
 11
119.4210612960581
 21
234.1262627196647
 31
0.0
  0
ARC
  5
101C
330
2
100
AcDbEntity
  8
0
100
AcDbCircle
 10
127.9210612960608
 20
231.1262627196644
 30
0.0
 40
3.0
100
AcDbArc
 50
0.0
 51
90.0
  0
ARC
  5
101D
330
2
100
AcDbEntity
  8
0
100
AcDbCircle
 10
119.4210612960581
 20
231.1262627196646
 30
0.0
 40
3.0
100
AcDbArc
 50
90.0
 51
180.0
  0
LINE
  5
101E
330
2
100
AcDbEntity
  8
0
100
AcDbLine
 10
116.421061296059
 20
231.1262627203852
 30
0.0
 11
116.421061296059
 21
277.1262627189511
 31
0.0
  0
LINE
  5
101F
330
2
100
AcDbEntity
  8
0
100
AcDbLine
 10
127.9210612960617
 20
274.1262627196646
 30
0.0
 11
119.421061296059
 21
274.1262627196646
 31
0.0
  0
ARC
  5
1020
330
2
100
AcDbEntity
  8
0
100
AcDbCircle
 10
119.421061296059
 20
277.1262627196646
 30
0.0
 40
3.0
100
AcDbArc
 50
180.0
 51
270.0
  0
ARC
  5
1021
330
2
100
AcDbEntity
  8
0
100
AcDbCircle
 10
127.9210612960617
 20
277.1262627196646
 30
0.0
 40
3.0
100
AcDbArc
 50
270.0
 51
359.9999999999934
  0
ARC
  5
1022
330
2
100
AcDbEntity
  8
0
100
AcDbCircle
 10
114.421061296059
 20
277.1262627189511
 30
0.0
 40
2.0
100
AcDbArc
 50
0.0
 51
90.0
  0
LINE
  5
1023
330
2
100
AcDbEntity
  8
0
100
AcDbLine
 10
116.421061296059
 20
277.1262627196646
 30
0.0
 11
116.421061296059
 21
277.1262627189511
 31
0.0
  0
ARC
  5
1024
330
2
100
AcDbEntity
  8
0
100
AcDbCircle
 10
114.421061296059
 20
231.1262627203852
 30
0.0
 40
2.0
100
AcDbArc
 50
270.0
 51
359.9999999917405
  0
LINE
  5
1025
330
2
100
AcDbEntity
  8
0
100
AcDbLine
 10
127.9210612960572
 20
230.1262627203781
 30
0.0
 11
117.421061296049
 21
230.1262627203781
 31
0.0
  0
LINE
  5
1026
330
2
100
AcDbEntity
  8
0
100
AcDbLine
 10
114.421061296059
 20
229.1262627203852
 30
0.0
 11
107.9210612960572
 21
229.1262627203854
 31
0.0
  0
ARC
  5
1027
330
2
100
AcDbEntity
  8
0
100
AcDbCircle
 10
107.9210612960572
 20
226.1262627203854
 30
0.0
 40
3.0
100
AcDbArc
 50
90.0
 51
180.0
  0
ARC
  5
1028
330
2
100
AcDbEntity
  8
0
100
AcDbCircle
 10
107.9210612960572
 20
282.1262627189513
 30
0.0
 40
3.0
100
AcDbArc
 50
180.0
 51
270.0
  0
LINE
  5
1029
330
2
100
AcDbEntity
  8
0
100
AcDbLine
 10
114.421061296059
 20
279.1262627189512
 30
0.0
 11
107.9210612960572
 21
279.1262627189514
 31
0.0
  0
ARC
  5
102A
330
2
100
AcDbEntity
  8
0
100
AcDbCircle
 10
127.9210612960572
 20
227.1262627203781
 30
0.0
 40
3.0
100
AcDbArc
 50
0.0
 51
90.0
  0
ARC
  5
102B
330
2
100
AcDbEntity
  8
0
100
AcDbCircle
 10
117.421061296049
 20
227.1262627203779
 30
0.0
 40
3.0
100
AcDbArc
 50
90.0
 51
126.8698976456764
  0
ARC
  5
102C
330
2
100
AcDbEntity
  8
0
100
AcDbCircle
 10
133.9210612960572
 20
282.1262627196678
 30
0.0
 40
3.0
100
AcDbArc
 50
90.0
 51
180.0
  0
LINE
  5
102D
330
2
100
AcDbEntity
  8
0
100
AcDbLine
 10
127.9210612960572
 20
278.1262627189511
 30
0.0
 11
117.421061296049
 21
278.1262627189514
 31
0.0
  0
ARC
  5
102E
330
2
100
AcDbEntity
  8
0
100
AcDbCircle
 10
127.9210612960572
 20
281.1262627189512
 30
0.0
 40
3.0
100
AcDbArc
 50
270.0
 51
0.0
  0
ARC
  5
102F
330
2
100
AcDbEntity
  8
0
100
AcDbCircle
 10
117.421061296049
 20
281.1262627189514
 30
0.0
 40
3.0
100
AcDbArc
 50
233.1301023542622
 51
270.0
  0
ARC
  5
1030
330
2
100
AcDbEntity
  8
0
100
AcDbCircle
 10
102.9210612960572
 20
224.6262627196646
 30
0.0
 40
2.0
100
AcDbArc
 50
270.0
 51
0.0
  0
LINE
  5
1031
330
2
100
AcDbEntity
  8
0
100
AcDbLine
 10
96.92106129605907
 20
222.6262627196646
 30
0.0
 11
102.9210612960572
 21
222.6262627196646
 31
0.0
  0
LINE
  5
1032
330
2
100
AcDbEntity
  8
0
100
AcDbLine
 10
96.92106129605543
 20
285.6262627196637
 30
0.0
 11
102.9210612960572
 21
285.6262627196642
 31
0.0
  0
ARC
  5
1033
330
2
100
AcDbEntity
  8
0
100
AcDbCircle
 10
102.9210612960572
 20
283.6262627196642
 30
0.0
 40
2.0
100
AcDbArc
 50
0.0
 51
90.0
  0
LINE
  5
1034
330
2
100
AcDbEntity
  8
CENTER
100
AcDbLine
 10
195.5779155455512
 20
287.7831169691568
 30
0.0
 11
128.2642070465666
 21
220.4694084701724
 31
0.0
  0
LINE
  5
1035
330
2
100
AcDbEntity
  8
0
100
AcDbLine
 10
173.9479732306402
 20
228.6262627196646
 30
0.0
 11
149.8941493614778
 21
228.6262627196646
 31
0.0
  0
LINE
  5
1036
330
2
100
AcDbEntity
  8
0
100
AcDbLine
 10
173.9479732306402
 20
226.6262627196646
 30
0.0
 11
149.8941493614778
 21
226.6262627196646
 31
0.0
  0
LINE
  5
1037
330
2
100
AcDbEntity
  8
0
100
AcDbLine
 10
173.9479732306402
 20
281.6262627196646
 30
0.0
 11
149.8941493614778
 21
281.6262627196646
 31
0.0
  0
LINE
  5
1038
330
2
100
AcDbEntity
  8
0
100
AcDbLine
 10
173.9479732306402
 20
279.6262627196646
 30
0.0
 11
149.8941493614778
 21
279.6262627196644
 31
0.0
  0
CIRCLE
  5
1039
330
2
100
AcDbEntity
  8
0
100
AcDbCircle
 10
161.921061296059
 20
254.1262627196646
 30
0.0
 40
17.5
  0
CIRCLE
  5
103A
330
2
100
AcDbEntity
  8
0
100
AcDbCircle
 10
161.921061296059
 20
254.1262627196646
 30
0.0
 40
18.0774
  0
CIRCLE
  5
103B
330
2
100
AcDbEntity
  8
0
100
AcDbCircle
 10
161.921061296059
 20
254.1262627196646
 30
0.0
 40
25.0
  0
CIRCLE
  5
103C
330
2
100
AcDbEntity
  8
0
100
AcDbCircle
 10
161.921061296059
 20
254.1262627196646
 30
0.0
 40
23.0
  0
CIRCLE
  5
103D
330
2
100
AcDbEntity
  8
0
100
AcDbCircle
 10
161.921061296059
 20
254.1262627196646
 30
0.0
 40
22.42259999999999
  0
CIRCLE
  5
103E
330
2
100
AcDbEntity
  8
0
100
AcDbCircle
 10
161.921061296059
 20
254.1262627196646
 30
0.0
 40
25.5
  0
LINE
  5
103F
330
2
100
AcDbEntity
  8
0
100
AcDbLine
 10
187.421061296059
 20
242.0993507850837
 30
0.0
 11
187.421061296059
 21
266.1531746542456
 31
0.0
  0
LINE
  5
1040
330
2
100
AcDbEntity
  8
0
100
AcDbLine
 10
189.421061296059
 20
242.0993507850834
 30
0.0
 11
189.421061296059
 21
266.1531746542459
 31
0.0
  0
LINE
  5
1041
330
2
100
AcDbEntity
  8
CENTER
100
AcDbLine
 10
193.6710612960608
 20
280.1262627196642
 30
0.0
 11
182.1710612960608
 21
280.1262627196646
 31
0.0
  0
LINE
  5
1042
330
2
100
AcDbEntity
  8
0
100
AcDbLine
 10
178.897720698946
 20
279.5760101879704
 30
0.0
 11
187.3708087643648
 21
271.1029221225516
 31
0.0
  0
LINE
  5
1043
330
2
100
AcDbEntity
  8
0
100
AcDbLine
 10
177.4835071365736
 20
278.1617966255973
 30
0.0
 11
185.9565952019924
 21
269.6887085601783
 31
0.0
  0
LINE
  5
1044
330
2
100
AcDbEntity
  8
CENTER
100
AcDbLine
 10
187.9210612960608
 20
285.8762627196644
 30
0.0
 11
187.9210612960608
 21
274.3762627196644
 31
0.0
  0
ARC
  5
1045
330
2
100
AcDbEntity
  8
0
100
AcDbCircle
 10
182.421061296059
 20
266.1531746542456
 30
0.0
 40
5.0
100
AcDbArc
 50
0.0
 51
44.99999999999309
  0
LINE
  5
1046
330
2
100
AcDbEntity
  8
0
100
AcDbLine
 10
187.0404589586154
 20
268.0665918160713
 30
0.0
 11
188.8882180236381
 21
268.8319586808014
 31
0.0
  0
ARC
  5
1047
330
2
100
AcDbEntity
  8
0
100
AcDbCircle
 10
182.421061296059
 20
266.1531746542459
 30
0.0
 40
7.0
100
AcDbArc
 50
0.0
 51
44.99999999999309
  0
ARC
  5
1048
330
2
100
AcDbEntity
  8
0
100
AcDbCircle
 10
173.9479732306402
 20
274.6262627196646
 30
0.0
 40
7.0
100
AcDbArc
 50
44.99999999999309
 51
90.0
  0
ARC
  5
1049
330
2
100
AcDbEntity
  8
0
100
AcDbCircle
 10
173.9479732306402
 20
274.6262627196646
 30
0.0
 40
5.0
100
AcDbArc
 50
44.99999999999309
 51
90.0
  0
LINE
  5
104A
330
2
100
AcDbEntity
  8
0
100
AcDbLine
 10
175.8613903924664
 20
279.245660382221
 30
0.0
 11
176.6267572571963
 21
281.0934194472435
 31
0.0
  0
LINE
  5
104B
330
2
100
AcDbEntity
  8
CENTER
100
AcDbLine
 10
193.671061296059
 20
228.1262627196646
 30
0.0
 11
182.171061296059
 21
228.1262627196646
 31
0.0
  0
LINE
  5
104C
330
2
100
AcDbEntity
  8
CENTER
100
AcDbLine
 10
193.5942663768159
 20
234.6262627196649
 30
0.0
 11
183.2478562153022
 21
234.6262627196649
 31
0.0
  0
LINE
  5
104D
330
2
100
AcDbEntity
  8
0
100
AcDbLine
 10
178.897720698946
 20
228.6765152513589
 30
0.0
 11
187.3708087643648
 21
237.1496033167774
 31
0.0
  0
LINE
  5
104E
330
2
100
AcDbEntity
  8
0
100
AcDbLine
 10
177.4835071365736
 20
230.0907288137318
 30
0.0
 11
185.9565952019924
 21
238.563816879151
 31
0.0
  0
LINE
  5
104F
330
2
100
AcDbEntity
  8
CENTER
100
AcDbLine
 10
188.421061296059
 20
231.5116864519219
 30
0.0
 11
188.421061296059
 21
239.7994678004219
 31
0.0
  0
LINE
  5
1050
330
2
100
AcDbEntity
  8
CENTER
100
AcDbLine
 10
187.921061296059
 20
222.3762627196646
 30
0.0
 11
187.921061296059
 21
233.8762627196647
 31
0.0
  0
ARC
  5
1051
330
2
100
AcDbEntity
  8
0
100
AcDbCircle
 10
182.421061296059
 20
242.0993507850837
 30
0.0
 40
5.0
100
AcDbArc
 50
315.0000000000069
 51
0.0
  0
LINE
  5
1052
330
2
100
AcDbEntity
  8
0
100
AcDbLine
 10
187.0404589586154
 20
240.1859336232577
 30
0.0
 11
188.8882180236381
 21
239.4205667585278
 31
0.0
  0
CIRCLE
  5
1053
330
2
100
AcDbEntity
  8
0
100
AcDbCircle
 10
188.421061296059
 20
234.6262627196649
 30
0.0
 40
1.6
  0
ARC
  5
1054
330
2
100
AcDbEntity
  8
0
100
AcDbCircle
 10
182.421061296059
 20
242.0993507850834
 30
0.0
 40
7.0
100
AcDbArc
 50
315.0000000000069
 51
0.0
  0
CIRCLE
  5
1055
330
2
100
AcDbEntity
  8
HOJO
100
AcDbCircle
 10
188.421061296059
 20
234.6262627196649
 30
0.0
 40
2.0
  0
ARC
  5
1056
330
2
100
AcDbEntity
  8
0
100
AcDbCircle
 10
173.9479732306402
 20
233.6262627196646
 30
0.0
 40
5.0
100
AcDbArc
 50
270.0
 51
315.0000000000069
  0
ARC
  5
1057
330
2
100
AcDbEntity
  8
0
100
AcDbCircle
 10
173.9479732306402
 20
233.6262627196646
 30
0.0
 40
7.0
100
AcDbArc
 50
270.0
 51
315.0000000000069
  0
LINE
  5
1058
330
2
100
AcDbEntity
  8
0
100
AcDbLine
 10
175.8613903924664
 20
229.0068650571082
 30
0.0
 11
176.6267572571963
 21
227.1591059920857
 31
0.0
  0
LINE
  5
1059
330
2
100
AcDbEntity
  8
0
100
AcDbLine
 10
131.2610612960592
 20
226.1262627196646
 30
0.0
 11
131.2610612960592
 21
282.1262627196647
 31
0.0
  0
LINE
  5
105A
330
2
100
AcDbEntity
  8
0
100
AcDbLine
 10
134.421061296059
 20
242.0993507850834
 30
0.0
 11
134.421061296059
 21
266.1531746542459
 31
0.0
  0
LINE
  5
105B
330
2
100
AcDbEntity
  8
0
100
AcDbLine
 10
136.421061296059
 20
242.0993507850839
 30
0.0
 11
136.421061296059
 21
266.1531746542454
 31
0.0
  0
LINE
  5
105C
330
2
100
AcDbEntity
  8
0
100
AcDbLine
 10
144.944401893172
 20
279.5760101879704
 30
0.0
 11
136.4713138277533
 21
271.1029221225516
 31
0.0
  0
LINE
  5
105D
330
2
100
AcDbEntity
  8
0
100
AcDbLine
 10
146.3586154555454
 20
278.1617966255971
 30
0.0
 11
137.8855273901266
 21
269.6887085601783
 31
0.0
  0
LINE
  5
105E
330
2
100
AcDbEntity
  8
CENTER
100
AcDbLine
 10
130.1710612960581
 20
280.1262627196639
 30
0.0
 11
141.6710612960581
 21
280.1262627196646
 31
0.0
  0
LINE
  5
105F
330
2
100
AcDbEntity
  8
0
100
AcDbLine
 10
147.9807321996526
 20
279.245660382221
 30
0.0
 11
147.2153653349226
 21
281.0934194472435
 31
0.0
  0
ARC
  5
1060
330
2
100
AcDbEntity
  8
0
100
AcDbCircle
 10
149.8941493614778
 20
274.6262627196646
 30
0.0
 40
5.0
100
AcDbArc
 50
90.0
 51
135.0000000000069
  0
ARC
  5
1061
330
2
100
AcDbEntity
  8
0
100
AcDbCircle
 10
149.8941493614778
 20
274.6262627196644
 30
0.0
 40
7.0
100
AcDbArc
 50
90.0
 51
135.0000000000069
  0
LINE
  5
1062
330
2
100
AcDbEntity
  8
CENTER
100
AcDbLine
 10
135.421061296059
 20
278.7994678004214
 30
0.0
 11
135.421061296059
 21
268.4530576389074
 31
0.0
  0
LINE
  5
1063
330
2
100
AcDbEntity
  8
0
100
AcDbLine
 10
136.921061296059
 20
285.1262627196646
 30
0.0
 11
134.2610612960592
 21
285.1262627196646
 31
0.0
  0
ARC
  5
1064
330
2
100
AcDbEntity
  8
0
100
AcDbCircle
 10
134.2610612960592
 20
282.1262627196647
 30
0.0
 40
3.0
100
AcDbArc
 50
90.0
 51
180.0
  0
ARC
  5
1065
330
2
100
AcDbEntity
  8
0
100
AcDbCircle
 10
141.421061296059
 20
266.1531746542459
 30
0.0
 40
7.0
100
AcDbArc
 50
135.0000000000069
 51
180.0
  0
CIRCLE
  5
1066
330
2
100
AcDbEntity
  8
0
100
AcDbCircle
 10
135.421061296059
 20
273.6262627196644
 30
0.0
 40
1.6
  0
CIRCLE
  5
1067
330
2
100
AcDbEntity
  8
HOJO
100
AcDbCircle
 10
135.421061296059
 20
273.6262627196647
 30
0.0
 40
2.0
  0
LINE
  5
1068
330
2
100
AcDbEntity
  8
CENTER
100
AcDbLine
 10
130.2478562153022
 20
273.6262627196647
 30
0.0
 11
140.5942663768158
 21
273.6262627196647
 31
0.0
  0
ARC
  5
1069
330
2
100
AcDbEntity
  8
0
100
AcDbCircle
 10
141.421061296059
 20
266.1531746542454
 30
0.0
 40
5.0
100
AcDbArc
 50
135.0000000000069
 51
180.0
  0
LINE
  5
106A
330
2
100
AcDbEntity
  8
0
100
AcDbLine
 10
136.8016636335027
 20
268.0665918160713
 30
0.0
 11
134.9539045684808
 21
268.8319586808014
 31
0.0
  0
LINE
  5
106B
330
2
100
AcDbEntity
  8
0
100
AcDbLine
 10
146.3586154555454
 20
230.090728813732
 30
0.0
 11
137.8855273901266
 21
238.563816879151
 31
0.0
  0
LINE
  5
106C
330
2
100
AcDbEntity
  8
0
100
AcDbLine
 10
144.944401893172
 20
228.6765152513589
 30
0.0
 11
136.4713138277533
 21
237.1496033167777
 31
0.0
  0
LINE
  5
106D
330
2
100
AcDbEntity
  8
CENTER
100
AcDbLine
 10
130.171061296059
 20
228.1262627196646
 30
0.0
 11
141.671061296059
 21
228.1262627196646
 31
0.0
  0
LINE
  5
106E
330
2
100
AcDbEntity
  8
0
100
AcDbLine
 10
147.9807321996526
 20
229.0068650571082
 30
0.0
 11
147.2153653349226
 21
227.1591059920857
 31
0.0
  0
ARC
  5
106F
330
2
100
AcDbEntity
  8
0
100
AcDbCircle
 10
149.8941493614778
 20
233.6262627196646
 30
0.0
 40
7.0
100
AcDbArc
 50
224.999999999993
 51
270.0
  0
ARC
  5
1070
330
2
100
AcDbEntity
  8
0
100
AcDbCircle
 10
149.8941493614778
 20
233.6262627196646
 30
0.0
 40
5.0
100
AcDbArc
 50
224.999999999993
 51
270.0
  0
ARC
  5
1071
330
2
100
AcDbEntity
  8
0
100
AcDbCircle
 10
141.421061296059
 20
242.0993507850834
 30
0.0
 40
7.0
100
AcDbArc
 50
180.0
 51
224.999999999993
  0
ARC
  5
1072
330
2
100
AcDbEntity
  8
0
100
AcDbCircle
 10
141.421061296059
 20
242.0993507850837
 30
0.0
 40
5.0
100
AcDbArc
 50
180.0
 51
224.999999999993
  0
LINE
  5
1073
330
2
100
AcDbEntity
  8
0
100
AcDbLine
 10
136.8016636335027
 20
240.1859336232577
 30
0.0
 11
134.9539045684808
 21
239.4205667585278
 31
0.0
  0
LINE
  5
1074
330
2
100
AcDbEntity
  8
0
100
AcDbLine
 10
136.921061296059
 20
223.1262627196648
 30
0.0
 11
134.2610612960592
 21
223.1262627196648
 31
0.0
  0
ARC
  5
1075
330
2
100
AcDbEntity
  8
0
100
AcDbCircle
 10
134.2610612960592
 20
226.1262627196646
 30
0.0
 40
3.0
100
AcDbArc
 50
180.0
 51
270.0
  0
LINE
  5
1076
330
2
100
AcDbEntity
  8
CENTER
100
AcDbLine
 10
135.921061296059
 20
222.3762627196646
 30
0.0
 11
135.921061296059
 21
233.8762627196647
 31
0.0
  0
LINE
  5
1077
330
2
100
AcDbEntity
  8
CENTER
100
AcDbLine
 10
135.9210612960572
 20
285.8762627196644
 30
0.0
 11
135.9210612960581
 21
274.3762627196644
 31
0.0
  0
LINE
  5
1078
330
2
100
AcDbEntity
  8
CENTER
100
AcDbLine
 10
128.2642070465636
 20
287.7831169691591
 30
0.0
 11
195.5779155455515
 21
220.4694084701727
 31
0.0
  0
LINE
  5
1079
330
2
100
AcDbEntity
  8
CENTER
100
AcDbLine
 10
228.8534853878949
 20
254.1262627196605
 30
0.0
 11
349.8534853878944
 21
254.1262627196605
 31
0.0
  0
LINE
  5
107A
330
2
100
AcDbEntity
  8
CENTER
100
AcDbLine
 10
289.8534853878985
 20
215.6262627196606
 30
0.0
 11
289.8534853878985
 21
292.6262627196608
 31
0.0
  0
LINE
  5
107B
330
2
100
AcDbEntity
  8
0
100
AcDbLine
 10
325.8534853879022
 20
279.126262719654
 30
0.0
 11
325.8534853879022
 21
229.126262719654
 31
0.0
  0
LINE
  5
107C
330
2
100
AcDbEntity
  8
0
100
AcDbLine
 10
322.8534853879021
 20
229.126262719654
 30
0.0
 11
325.8534853879022
 21
229.126262719654
 31
0.0
  0
LINE
  5
107D
330
2
100
AcDbEntity
  8
0
100
AcDbLine
 10
322.8534853879021
 20
279.126262719654
 30
0.0
 11
325.8534853879022
 21
279.126262719654
 31
0.0
  0
LINE
  5
107E
330
2
100
AcDbEntity
  8
HIDS
  6
SEKKEI_H
100
AcDbLine
 10
258.8534853878985
 20
226.0782658160426
 30
0.0
 11
258.8534853878985
 21
231.1262627196605
 31
0.0
  0
LINE
  5
107F
330
2
100
AcDbEntity
  8
HIDS
  6
SEKKEI_H
100
AcDbLine
 10
258.8534853878985
 20
277.126262719661
 30
0.0
 11
258.8534853878985
 21
282.1742596232786
 31
0.0
  0
LINE
  5
1080
330
2
100
AcDbEntity
  8
0
100
AcDbLine
 10
322.8534853878985
 20
223.5800598447817
 30
0.0
 11
322.8534853878985
 21
284.6724650960772
 31
0.0
  0
LINE
  5
1081
330
2
100
AcDbEntity
  8
0
100
AcDbLine
 10
261.8051045837431
 20
285.1738694808752
 30
0.0
 11
289.8534853878985
 21
285.6262627196608
 31
0.0
  0
ARC
  5
1082
330
2
100
AcDbEntity
  8
0
100
AcDbCircle
 10
261.8534853878985
 20
282.1742596232786
 30
0.0
 40
3.0
100
AcDbArc
 50
90.92404535281902
 51
132.7771281045319
  0
ARC
  5
1083
330
2
100
AcDbEntity
  8
HIDS
  6
SEKKEI_H
100
AcDbCircle
 10
261.8534853878985
 20
282.1742596232786
 30
0.0
 40
3.0
100
AcDbArc
 50
132.7771281045319
 51
180.0
  0
LINE
  5
1084
330
2
100
AcDbEntity
  8
0
100
AcDbLine
 10
317.9018661920539
 20
285.1738694808752
 30
0.0
 11
289.8534853878985
 21
285.6262627196608
 31
0.0
  0
ARC
  5
1085
330
2
100
AcDbEntity
  8
0
100
AcDbCircle
 10
317.8534853878985
 20
282.1742596232786
 30
0.0
 40
3.0
100
AcDbArc
 50
57.25704406250955
 51
89.07595464718097
  0
LINE
  5
1086
330
2
100
AcDbEntity
  8
0
100
AcDbLine
 10
261.8051045837431
 20
223.0786559584459
 30
0.0
 11
289.8534853878985
 21
222.6262627196603
 31
0.0
  0
LINE
  5
1087
330
2
100
AcDbEntity
  8
0
100
AcDbLine
 10
317.9018661920539
 20
223.0786559584459
 30
0.0
 11
289.8534853878985
 21
222.6262627196603
 31
0.0
  0
ARC
  5
1088
330
2
100
AcDbEntity
  8
HIDS
  6
SEKKEI_H
100
AcDbCircle
 10
261.8534853878985
 20
226.0782658160426
 30
0.0
 40
3.0
100
AcDbArc
 50
180.0
 51
227.2228718954035
  0
ARC
  5
1089
330
2
100
AcDbEntity
  8
0
100
AcDbCircle
 10
261.8534853878985
 20
226.0782658160426
 30
0.0
 40
3.0
100
AcDbArc
 50
227.2228718954035
 51
269.0759546471809
  0
ARC
  5
108A
330
2
100
AcDbEntity
  8
0
100
AcDbCircle
 10
317.8534853878985
 20
226.0782658160423
 30
0.0
 40
3.0
100
AcDbArc
 50
270.9240453527669
 51
302.7429559374902
  0
LINE
  5
108B
330
2
100
AcDbEntity
  8
0
100
AcDbLine
 10
332.8534853879003
 20
234.0576402692717
 30
0.0
 11
332.8534853879003
 21
274.1948851700521
 31
0.0
  0
LINE
  5
108C
330
2
100
AcDbEntity
  8
0
100
AcDbLine
 10
327.7836863944952
 20
276.3033040016839
 30
0.0
 11
330.9232843813055
 21
276.19366682409
 31
0.0
  0
ARC
  5
108D
330
2
100
AcDbEntity
  8
0
100
AcDbCircle
 10
327.8534853879004
 20
278.3020856557218
 30
0.0
 40
2.0
100
AcDbArc
 50
180.0
 51
267.9999999999963
  0
ARC
  5
108E
330
2
100
AcDbEntity
  8
0
100
AcDbCircle
 10
330.8534853879003
 20
274.1948851700521
 30
0.0
 40
2.0
100
AcDbArc
 50
0.0
 51
87.99999999999636
  0
LINE
  5
108F
330
2
100
AcDbEntity
  8
0
100
AcDbLine
 10
327.7836863944715
 20
231.9492214376436
 30
0.0
 11
330.9232843812818
 21
232.0588586152347
 31
0.0
  0
ARC
  5
1090
330
2
100
AcDbEntity
  8
0
100
AcDbCircle
 10
327.8534853878749
 20
229.9504397836057
 30
0.0
 40
2.0
100
AcDbArc
 50
91.99999999995149
 51
179.9999999999479
  0
ARC
  5
1091
330
2
100
AcDbEntity
  8
0
100
AcDbCircle
 10
330.8534853878794
 20
234.0576402692717
 30
0.0
 40
2.0
100
AcDbArc
 50
271.9999999999515
 51
359.9999999999478
  0
LINE
  5
1092
330
2
100
AcDbEntity
  8
0
100
AcDbLine
 10
270.8534853878949
 20
223.1306261535586
 30
0.0
 11
270.8534853878949
 21
285.1218992857906
 31
0.0
  0
LINE
  5
1093
330
2
100
AcDbEntity
  8
0
100
AcDbLine
 10
270.8534853878949
 20
223.1262627196601
 30
0.0
 11
322.8534853878985
 21
223.5800598447817
 31
0.0
  0
LINE
  5
1094
330
2
100
AcDbEntity
  8
0
100
AcDbLine
 10
270.8534473102348
 20
285.1262625535145
 30
0.0
 11
322.8534853878985
 21
284.6724650960772
 31
0.0
  0
LINE
  5
1095
330
2
100
AcDbEntity
  8
0
100
AcDbLine
 10
321.8534853878985
 20
282.1262627196647
 30
0.0
 11
270.8534853878949
 21
282.1262627196647
 31
0.0
  0
LINE
  5
1096
330
2
100
AcDbEntity
  8
0
100
AcDbLine
 10
321.8534853878985
 20
279.1262627196619
 30
0.0
 11
270.8534853878949
 21
279.1262627196619
 31
0.0
  0
LINE
  5
1097
330
2
100
AcDbEntity
  8
0
100
AcDbLine
 10
321.8534853878985
 20
270.1074974482166
 30
0.0
 11
270.8534853878949
 21
270.1074974482166
 31
0.0
  0
LINE
  5
1098
330
2
100
AcDbEntity
  8
0
100
AcDbLine
 10
321.8534853878985
 20
226.1262627196564
 30
0.0
 11
270.8534853878949
 21
226.1262627196564
 31
0.0
  0
LINE
  5
1099
330
2
100
AcDbEntity
  8
0
100
AcDbLine
 10
321.8534853878985
 20
229.1262627196592
 30
0.0
 11
270.8534853878949
 21
229.1262627196592
 31
0.0
  0
LINE
  5
109A
330
2
100
AcDbEntity
  8
0
100
AcDbLine
 10
321.8534853878985
 20
238.1450279911045
 30
0.0
 11
270.8534853878949
 21
238.1450279911045
 31
0.0
  0
LINE
  5
109B
330
2
100
AcDbEntity
  8
0
100
AcDbLine
 10
253.8534853878949
 20
231.7036129888494
 30
0.0
 11
253.8534853878949
 21
276.5489124504717
 31
0.0
  0
LINE
  5
109C
330
2
100
AcDbEntity
  8
0
100
AcDbLine
 10
261.8534853878903
 20
275.8762627196642
 30
0.0
 11
261.8534853878949
 21
232.3762627196569
 31
0.0
  0
LINE
  5
109D
330
2
100
AcDbEntity
  8
HIDS
  6
SEKKEI_H
100
AcDbLine
 10
262.3534853878949
 20
228.626262719661
 30
0.0
 11
261.8534853878949
 21
229.126262719661
 31
0.0
  0
LINE
  5
109E
330
2
100
AcDbEntity
  8
HIDS
  6
SEKKEI_H
100
AcDbLine
 10
258.5534853878947
 20
231.1262627196605
 30
0.0
 11
261.8534853878949
 21
231.126262719661
 31
0.0
  0
LINE
  5
109F
330
2
100
AcDbEntity
  8
0
100
AcDbLine
 10
254.8534853878949
 20
231.1262627196601
 30
0.0
 11
253.8534853878949
 21
231.7036129888496
 31
0.0
  0
LINE
  5
10A0
330
2
100
AcDbEntity
  8
HIDS
  6
SEKKEI_H
100
AcDbLine
 10
258.3534853878949
 20
231.3262627196603
 30
0.0
 11
258.5534853878947
 21
231.1262627196605
 31
0.0
  0
LINE
  5
10A1
330
2
100
AcDbEntity
  8
0
100
AcDbLine
 10
254.8534853878949
 20
231.1262627196601
 30
0.0
 11
256.1534853878951
 21
231.1262627196601
 31
0.0
  0
LINE
  5
10A2
330
2
100
AcDbEntity
  8
0
100
AcDbLine
 10
256.3534853878949
 20
231.3262627196603
 30
0.0
 11
256.3534853878949
 21
276.9262627196612
 31
0.0
  0
LINE
  5
10A3
330
2
100
AcDbEntity
  8
0
100
AcDbLine
 10
256.5534853878947
 20
231.8262627196602
 30
0.0
 11
258.053485387892
 21
231.8262627196604
 31
0.0
  0
LINE
  5
10A4
330
2
100
AcDbEntity
  8
0
100
AcDbLine
 10
258.3534853878922
 20
232.3762627196569
 30
0.0
 11
258.3534853878922
 21
275.8762627196642
 31
0.0
  0
LINE
  5
10A5
330
2
100
AcDbEntity
  8
0
100
AcDbLine
 10
270.8534473102348
 20
285.1262625535145
 30
0.0
 11
265.3536567333789
 21
285.0782666082736
 31
0.0
  0
LINE
  5
10A6
330
2
100
AcDbEntity
  8
HIDS
  6
SEKKEI_H
100
AcDbLine
 10
258.5534853878947
 20
277.126262719661
 30
0.0
 11
261.8534853878949
 21
277.1262627196605
 31
0.0
  0
LINE
  5
10A7
330
2
100
AcDbEntity
  8
0
100
AcDbLine
 10
256.5534853878947
 20
276.4262627196612
 30
0.0
 11
258.053485387892
 21
276.426262719661
 31
0.0
  0
LINE
  5
10A8
330
2
100
AcDbEntity
  8
HIDS
  6
SEKKEI_H
100
AcDbLine
 10
258.3534853878949
 20
276.9262627196607
 30
0.0
 11
258.5534853878947
 21
277.126262719661
 31
0.0
  0
LINE
  5
10A9
330
2
100
AcDbEntity
  8
0
100
AcDbLine
 10
254.8534853878949
 20
277.1262627196615
 30
0.0
 11
253.8534853878949
 21
276.5489124504719
 31
0.0
  0
LINE
  5
10AA
330
2
100
AcDbEntity
  8
0
100
AcDbLine
 10
254.8534853878949
 20
277.1262627196615
 30
0.0
 11
256.1534853878951
 21
277.126262719661
 31
0.0
  0
LINE
  5
10AB
330
2
100
AcDbEntity
  8
HIDS
  6
SEKKEI_H
100
AcDbLine
 10
263.7676989502618
 20
281.0404762820261
 30
0.0
 11
261.8534853878894
 21
279.1262627196546
 31
0.0
  0
LINE
  5
10AC
330
2
100
AcDbEntity
  8
0
100
AcDbLine
 10
264.3534853878567
 20
223.8762627196569
 30
0.0
 11
264.3534853878894
 21
284.3762627196642
 31
0.0
  0
ARC
  5
10AD
330
2
100
AcDbEntity
  8
0
100
AcDbCircle
 10
265.3534853878903
 20
284.0782270345784
 30
0.0
 40
1.0
100
AcDbArc
 50
90.50000000001761
 51
179.9999999999674
  0
LINE
  5
10AE
330
2
100
AcDbEntity
  8
0
100
AcDbLine
 10
270.8534853878949
 20
285.1262627196605
 30
0.0
 11
270.8534853878949
 21
223.1262627196601
 31
0.0
  0
ARC
  5
10AF
330
2
100
AcDbEntity
  8
HIDS
  6
SEKKEI_H
100
AcDbCircle
 10
262.3534853878894
 20
282.4546898443995
 30
0.0
 40
2.0
100
AcDbArc
 50
315.0000000000069
 51
359.9999999999674
  0
ARC
  5
10B0
330
2
100
AcDbEntity
  8
0
100
AcDbCircle
 10
256.1534853878951
 20
276.9262627196612
 30
0.0
 40
0.2
100
AcDbArc
 50
0.0
 51
90.0
  0
ARC
  5
10B1
330
2
100
AcDbEntity
  8
0
100
AcDbCircle
 10
256.5534853878947
 20
276.6262627196612
 30
0.0
 40
0.2
100
AcDbArc
 50
180.0
 51
270.0
  0
ARC
  5
10B2
330
2
100
AcDbEntity
  8
HIDS
  6
SEKKEI_H
100
AcDbCircle
 10
258.1534853878951
 20
276.626262719661
 30
0.0
 40
0.2
100
AcDbArc
 50
270.0
 51
0.0
  0
ARC
  5
10B3
330
2
100
AcDbEntity
  8
0
100
AcDbCircle
 10
256.1534853878951
 20
231.3262627196603
 30
0.0
 40
0.2
100
AcDbArc
 50
270.0
 51
0.0
  0
ARC
  5
10B4
330
2
100
AcDbEntity
  8
0
100
AcDbCircle
 10
256.5534853878947
 20
231.6262627196601
 30
0.0
 40
0.2
100
AcDbArc
 50
90.0
 51
180.0
  0
ARC
  5
10B5
330
2
100
AcDbEntity
  8
HIDS
  6
SEKKEI_H
100
AcDbCircle
 10
258.1534853878951
 20
231.6262627196603
 30
0.0
 40
0.2
100
AcDbArc
 50
0.0
 51
90.0
  0
LINE
  5
10B6
330
2
100
AcDbEntity
  8
0
100
AcDbLine
 10
270.8534853878949
 20
223.1262627196601
 30
0.0
 11
265.3447588523589
 21
223.1743366478312
 31
0.0
  0
ARC
  5
10B7
330
2
100
AcDbEntity
  8
0
100
AcDbCircle
 10
265.3534853878567
 20
224.1742985708956
 30
0.0
 40
1.0
100
AcDbArc
 50
179.9999999999674
 51
269.4999999999824
  0
LINE
  5
10B8
330
2
100
AcDbEntity
  8
HIDS
  6
SEKKEI_H
100
AcDbLine
 10
263.7676989502618
 20
227.212049157295
 30
0.0
 11
261.8534853878949
 21
229.1262627196605
 31
0.0
  0
ARC
  5
10B9
330
2
100
AcDbEntity
  8
HIDS
  6
SEKKEI_H
100
AcDbCircle
 10
262.3534853878894
 20
225.7978355949216
 30
0.0
 40
2.0
100
AcDbArc
 50
0.0000000000390827
 51
44.99999999999309
  0
LINE
  5
10BA
330
2
100
AcDbEntity
  8
0
100
AcDbLine
 10
258.5534853878947
 20
275.8762627196642
 30
0.0
 11
258.5534853878947
 21
232.3762627196569
 31
0.0
  0
LINE
  5
10BB
330
2
100
AcDbEntity
  8
0
100
AcDbLine
 10
254.8534853878949
 20
231.1262627196601
 30
0.0
 11
254.8534853878949
 21
277.1262627196615
 31
0.0
  0
LINE
  5
10BC
330
2
100
AcDbEntity
  8
0
100
AcDbLine
 10
270.8534853878949
 20
282.1262627196647
 30
0.0
 11
265.3534853878921
 21
282.1262627196647
 31
0.0
  0
LINE
  5
10BD
330
2
100
AcDbEntity
  8
0
100
AcDbLine
 10
270.8534853878949
 20
279.1262627196619
 30
0.0
 11
265.3534853878921
 21
279.1262627196619
 31
0.0
  0
LINE
  5
10BE
330
2
100
AcDbEntity
  8
0
100
AcDbLine
 10
270.8534853878949
 20
270.1074974482166
 30
0.0
 11
265.3534853878921
 21
270.1074974482166
 31
0.0
  0
LINE
  5
10BF
330
2
100
AcDbEntity
  8
0
100
AcDbLine
 10
270.8534853878949
 20
226.1262627196564
 30
0.0
 11
265.3534853878921
 21
226.1262627196564
 31
0.0
  0
LINE
  5
10C0
330
2
100
AcDbEntity
  8
0
100
AcDbLine
 10
270.8534853878949
 20
229.1262627196592
 30
0.0
 11
265.3534853878921
 21
229.1262627196592
 31
0.0
  0
LINE
  5
10C1
330
2
100
AcDbEntity
  8
0
100
AcDbLine
 10
270.8534853878949
 20
238.1450279911045
 30
0.0
 11
265.3534853878921
 21
238.1450279911045
 31
0.0
  0
LINE
  5
10C2
330
2
100
AcDbEntity
  8
0
100
AcDbLine
 10
137.9210612960599
 20
278.9715621812851
 30
0.0
 11
135.9210612960599
 21
277.816861642906
 31
0.0
  0
CIRCLE
  5
10C3
330
2
100
AcDbEntity
  8
0
100
AcDbCircle
 10
135.9210612960599
 20
280.1262627196642
 30
0.0
 40
4.250000000000085
  0
CIRCLE
  5
10C4
330
2
100
AcDbEntity
  8
0
100
AcDbCircle
 10
135.9210612960599
 20
280.1262627196642
 30
0.0
 40
3.730384757729268
  0
LINE
  5
10C5
330
2
100
AcDbEntity
  8
0
100
AcDbLine
 10
135.921061296059
 20
282.4356637964228
 30
0.0
 11
137.9210612960599
 21
281.2809632580437
 31
0.0
  0
LINE
  5
10C6
330
2
100
AcDbEntity
  8
0
100
AcDbLine
 10
133.9210612960599
 20
281.2809632580437
 30
0.0
 11
133.9210612960599
 21
278.9715621812851
 31
0.0
  0
LINE
  5
10C7
330
2
100
AcDbEntity
  8
0
100
AcDbLine
 10
133.9210612960599
 20
278.9715621812851
 30
0.0
 11
135.921061296059
 21
277.816861642906
 31
0.0
  0
LINE
  5
10C8
330
2
100
AcDbEntity
  8
0
100
AcDbLine
 10
135.921061296059
 20
282.4356637964228
 30
0.0
 11
133.9210612960599
 21
281.2809632580437
 31
0.0
  0
LINE
  5
10C9
330
2
100
AcDbEntity
  8
0
100
AcDbLine
 10
137.9210612960599
 20
281.2809632580437
 30
0.0
 11
137.9210612960599
 21
278.9715621812851
 31
0.0
  0
LINE
  5
10CA
330
2
100
AcDbEntity
  8
0
100
AcDbLine
 10
189.921061296059
 20
278.9715621812851
 30
0.0
 11
187.921061296059
 21
277.816861642906
 31
0.0
  0
CIRCLE
  5
10CB
330
2
100
AcDbEntity
  8
0
100
AcDbCircle
 10
187.921061296059
 20
280.1262627196642
 30
0.0
 40
4.250000000000085
  0
CIRCLE
  5
10CC
330
2
100
AcDbEntity
  8
0
100
AcDbCircle
 10
187.921061296059
 20
280.1262627196642
 30
0.0
 40
3.730384757729268
  0
LINE
  5
10CD
330
2
100
AcDbEntity
  8
0
100
AcDbLine
 10
187.921061296059
 20
282.4356637964228
 30
0.0
 11
189.921061296059
 21
281.2809632580437
 31
0.0
  0
LINE
  5
10CE
330
2
100
AcDbEntity
  8
0
100
AcDbLine
 10
185.921061296059
 20
281.2809632580437
 30
0.0
 11
185.921061296059
 21
278.9715621812851
 31
0.0
  0
LINE
  5
10CF
330
2
100
AcDbEntity
  8
0
100
AcDbLine
 10
185.921061296059
 20
278.9715621812851
 30
0.0
 11
187.921061296059
 21
277.816861642906
 31
0.0
  0
LINE
  5
10D0
330
2
100
AcDbEntity
  8
0
100
AcDbLine
 10
187.921061296059
 20
282.4356637964228
 30
0.0
 11
185.921061296059
 21
281.2809632580437
 31
0.0
  0
LINE
  5
10D1
330
2
100
AcDbEntity
  8
0
100
AcDbLine
 10
189.921061296059
 20
281.2809632580437
 30
0.0
 11
189.921061296059
 21
278.9715621812851
 31
0.0
  0
LINE
  5
10D2
330
2
100
AcDbEntity
  8
0
100
AcDbLine
 10
137.9210612960599
 20
229.2809632580442
 30
0.0
 11
135.9210612960599
 21
230.4356637964232
 31
0.0
  0
CIRCLE
  5
10D3
330
2
100
AcDbEntity
  8
0
100
AcDbCircle
 10
135.9210612960599
 20
228.1262627196651
 30
0.0
 40
4.250000000000085
  0
CIRCLE
  5
10D4
330
2
100
AcDbEntity
  8
0
100
AcDbCircle
 10
135.9210612960599
 20
228.1262627196651
 30
0.0
 40
3.730384757729268
  0
LINE
  5
10D5
330
2
100
AcDbEntity
  8
0
100
AcDbLine
 10
135.921061296059
 20
225.8168616429065
 30
0.0
 11
137.9210612960599
 21
226.9715621812856
 31
0.0
  0
LINE
  5
10D6
330
2
100
AcDbEntity
  8
0
100
AcDbLine
 10
133.9210612960599
 20
226.9715621812856
 30
0.0
 11
133.9210612960599
 21
229.2809632580442
 31
0.0
  0
LINE
  5
10D7
330
2
100
AcDbEntity
  8
0
100
AcDbLine
 10
133.9210612960599
 20
229.2809632580442
 30
0.0
 11
135.921061296059
 21
230.4356637964232
 31
0.0
  0
LINE
  5
10D8
330
2
100
AcDbEntity
  8
0
100
AcDbLine
 10
135.921061296059
 20
225.8168616429065
 30
0.0
 11
133.9210612960599
 21
226.9715621812856
 31
0.0
  0
LINE
  5
10D9
330
2
100
AcDbEntity
  8
0
100
AcDbLine
 10
137.9210612960599
 20
226.9715621812856
 30
0.0
 11
137.9210612960599
 21
229.2809632580442
 31
0.0
  0
LINE
  5
10DA
330
2
100
AcDbEntity
  8
0
100
AcDbLine
 10
189.921061296059
 20
229.2809632580442
 30
0.0
 11
187.921061296059
 21
230.4356637964232
 31
0.0
  0
CIRCLE
  5
10DB
330
2
100
AcDbEntity
  8
0
100
AcDbCircle
 10
187.921061296059
 20
228.1262627196651
 30
0.0
 40
4.250000000000085
  0
CIRCLE
  5
10DC
330
2
100
AcDbEntity
  8
0
100
AcDbCircle
 10
187.921061296059
 20
228.1262627196651
 30
0.0
 40
3.730384757729268
  0
LINE
  5
10DD
330
2
100
AcDbEntity
  8
0
100
AcDbLine
 10
187.921061296059
 20
225.8168616429065
 30
0.0
 11
189.921061296059
 21
226.9715621812856
 31
0.0
  0
LINE
  5
10DE
330
2
100
AcDbEntity
  8
0
100
AcDbLine
 10
185.921061296059
 20
226.9715621812856
 30
0.0
 11
185.921061296059
 21
229.2809632580442
 31
0.0
  0
LINE
  5
10DF
330
2
100
AcDbEntity
  8
0
100
AcDbLine
 10
185.921061296059
 20
229.2809632580442
 30
0.0
 11
187.921061296059
 21
230.4356637964232
 31
0.0
  0
LINE
  5
10E0
330
2
100
AcDbEntity
  8
0
100
AcDbLine
 10
187.921061296059
 20
225.8168616429065
 30
0.0
 11
185.921061296059
 21
226.9715621812856
 31
0.0
  0
LINE
  5
10E1
330
2
100
AcDbEntity
  8
0
100
AcDbLine
 10
189.921061296059
 20
226.9715621812856
 30
0.0
 11
189.921061296059
 21
229.2809632580442
 31
0.0
  0
LINE
  5
10E2
330
2
100
AcDbEntity
  8
CENTER
  6
CENS
100
AcDbLine
 10
276.0514398645795
 20
280.1262627196642
 30
0.0
 11
255.053485387892
 21
280.1262627196642
 31
0.0
  0
LINE
  5
10E3
330
2
100
AcDbEntity
  8
0
100
AcDbLine
 10
258.3534853878922
 20
284.3762627196642
 30
0.0
 11
264.3534853878894
 21
284.3762627196642
 31
0.0
  0
LINE
  5
10E4
330
2
100
AcDbEntity
  8
0
100
AcDbLine
 10
258.3534853878922
 20
275.8762627196642
 30
0.0
 11
264.3534853878922
 21
275.8762627196642
 31
0.0
  0
LINE
  5
10E5
330
2
100
AcDbEntity
  8
0
100
AcDbLine
 10
263.0534853878919
 20
275.8762627196642
 30
0.0
 11
263.0534853878919
 21
284.3762627196642
 31
0.0
  0
LINE
  5
10E6
330
2
100
AcDbEntity
  8
0
100
AcDbLine
 10
258.3534853878922
 20
275.8762627196642
 30
0.0
 11
258.3534853878922
 21
284.3762627196642
 31
0.0
  0
LINE
  5
10E7
330
2
100
AcDbEntity
  8
0
100
AcDbLine
 10
258.3534853878922
 20
275.8762627196642
 30
0.0
 11
258.053485387892
 21
276.3958779619346
 31
0.0
  0
LINE
  5
10E8
330
2
100
AcDbEntity
  8
0
100
AcDbLine
 10
258.3534853878922
 20
284.3762627196642
 30
0.0
 11
258.053485387892
 21
283.8566474773933
 31
0.0
  0
LINE
  5
10E9
330
2
100
AcDbEntity
  8
0
100
AcDbLine
 10
258.053485387892
 20
276.3958779619346
 30
0.0
 11
258.053485387892
 21
283.8566474773933
 31
0.0
  0
LINE
  5
10EA
330
2
100
AcDbEntity
  8
HIDS
  6
SEKKEI_H
100
AcDbLine
 10
261.8534853878894
 20
279.1262627196546
 30
0.0
 11
261.8534853878903
 21
275.8762627196642
 31
0.0
  0
LINE
  5
10EB
330
2
100
AcDbEntity
  8
HIDS
  6
SEKKEI_H
100
AcDbLine
 10
258.5534853878947
 20
277.126262719661
 30
0.0
 11
258.5534853878947
 21
275.8762627196642
 31
0.0
  0
LINE
  5
10EC
330
2
100
AcDbEntity
  8
HIDS
  6
SEKKEI_H
100
AcDbLine
 10
258.053485387892
 20
276.426262719661
 30
0.0
 11
258.1534853878951
 21
276.4262627196607
 31
0.0
  0
LINE
  5
10ED
330
2
100
AcDbEntity
  8
CENTER
  6
CENS
100
AcDbLine
 10
276.0514398645795
 20
228.1262627196569
 30
0.0
 11
255.053485387892
 21
228.1262627196569
 31
0.0
  0
LINE
  5
10EE
330
2
100
AcDbEntity
  8
0
100
AcDbLine
 10
258.3534853878922
 20
223.8762627196569
 30
0.0
 11
264.3534853878567
 21
223.8762627196569
 31
0.0
  0
LINE
  5
10EF
330
2
100
AcDbEntity
  8
0
100
AcDbLine
 10
258.3534853878922
 20
232.3762627196569
 30
0.0
 11
264.3534853878922
 21
232.3762627196569
 31
0.0
  0
LINE
  5
10F0
330
2
100
AcDbEntity
  8
0
100
AcDbLine
 10
263.0534853878919
 20
232.3762627196569
 30
0.0
 11
263.0534853878919
 21
223.8762627196569
 31
0.0
  0
LINE
  5
10F1
330
2
100
AcDbEntity
  8
0
100
AcDbLine
 10
258.3534853878922
 20
232.3762627196569
 30
0.0
 11
258.3534853878922
 21
223.8762627196569
 31
0.0
  0
LINE
  5
10F2
330
2
100
AcDbEntity
  8
0
100
AcDbLine
 10
258.3534853878922
 20
232.3762627196569
 30
0.0
 11
258.053485387892
 21
231.8566474773865
 31
0.0
  0
LINE
  5
10F3
330
2
100
AcDbEntity
  8
0
100
AcDbLine
 10
258.3534853878922
 20
223.8762627196569
 30
0.0
 11
258.053485387892
 21
224.3958779619278
 31
0.0
  0
LINE
  5
10F4
330
2
100
AcDbEntity
  8
0
100
AcDbLine
 10
258.053485387892
 20
231.8566474773865
 30
0.0
 11
258.053485387892
 21
224.3958779619278
 31
0.0
  0
LINE
  5
10F5
330
2
100
AcDbEntity
  8
HIDS
  6
SEKKEI_H
100
AcDbLine
 10
261.8534853878949
 20
232.3762627196569
 30
0.0
 11
261.8534853878949
 21
229.126262719661
 31
0.0
  0
LINE
  5
10F6
330
2
100
AcDbEntity
  8
HIDS
  6
SEKKEI_H
100
AcDbLine
 10
258.053485387892
 20
231.8262627196604
 30
0.0
 11
258.1534853878951
 21
231.8262627196604
 31
0.0
  0
LINE
  5
10F7
330
2
100
AcDbEntity
  8
0
100
AcDbLine
 10
404.0484149688048
 20
465.2037330077227
 30
0.0
 11
465.7082410468832
 21
465.2037330077227
 31
0.0
  0
LINE
  5
10F8
330
2
100
AcDbEntity
  8
0
100
AcDbLine
 10
412.6214018040958
 20
482.2037330077234
 30
0.0
 11
457.4667012657186
 21
482.2037330077234
 31
0.0
  0
LINE
  5
10F9
330
2
100
AcDbEntity
  8
0
100
AcDbLine
 10
456.7940515349103
 20
474.203733007728
 30
0.0
 11
413.2940515349031
 21
474.2037330077232
 31
0.0
  0
LINE
  5
10FA
330
2
100
AcDbEntity
  8
HIDS
  6
SEKKEI_H
100
AcDbLine
 10
409.5440515349077
 20
473.7037330077227
 30
0.0
 11
410.0440515349077
 21
474.2037330077227
 31
0.0
  0
LINE
  5
10FB
330
2
100
AcDbEntity
  8
HIDS
  6
SEKKEI_H
100
AcDbLine
 10
412.0440515349067
 20
477.5037330077231
 30
0.0
 11
412.0440515349076
 21
474.203733007723
 31
0.0
  0
LINE
  5
10FC
330
2
100
AcDbEntity
  8
0
100
AcDbLine
 10
412.0440515349067
 20
481.2037330077229
 30
0.0
 11
412.6214018040967
 21
482.2037330077234
 31
0.0
  0
LINE
  5
10FD
330
2
100
AcDbEntity
  8
HIDS
  6
SEKKEI_H
100
AcDbLine
 10
412.2440515349074
 20
477.7037330077232
 30
0.0
 11
412.0440515349067
 21
477.5037330077231
 31
0.0
  0
LINE
  5
10FE
330
2
100
AcDbEntity
  8
0
100
AcDbLine
 10
412.0440515349067
 20
481.2037330077234
 30
0.0
 11
412.0440515349067
 21
479.903733007723
 31
0.0
  0
LINE
  5
10FF
330
2
100
AcDbEntity
  8
0
100
AcDbLine
 10
412.2440515349074
 20
479.7037330077231
 30
0.0
 11
457.8440515349078
 21
479.7037330077231
 31
0.0
  0
LINE
  5
1100
330
2
100
AcDbEntity
  8
0
100
AcDbLine
 10
412.7440515349065
 20
479.5037330077233
 30
0.0
 11
412.7440515349075
 21
478.0037330077261
 31
0.0
  0
LINE
  5
1101
330
2
100
AcDbEntity
  8
0
100
AcDbLine
 10
413.2940515349031
 20
477.7037330077259
 30
0.0
 11
456.7940515349103
 21
477.7037330077259
 31
0.0
  0
LINE
  5
1102
330
2
100
AcDbEntity
  8
HIDS
  6
SEKKEI_H
100
AcDbLine
 10
458.0440515349076
 20
477.5037330077231
 30
0.0
 11
458.0440515349067
 21
474.203733007723
 31
0.0
  0
LINE
  5
1103
330
2
100
AcDbEntity
  8
0
100
AcDbLine
 10
457.3440515349078
 20
479.5037330077231
 30
0.0
 11
457.3440515349078
 21
478.0037330077261
 31
0.0
  0
LINE
  5
1104
330
2
100
AcDbEntity
  8
HIDS
  6
SEKKEI_H
100
AcDbLine
 10
457.8440515349078
 20
477.7037330077232
 30
0.0
 11
458.0440515349076
 21
477.5037330077231
 31
0.0
  0
LINE
  5
1105
330
2
100
AcDbEntity
  8
0
100
AcDbLine
 10
458.0440515349086
 20
481.2037330077229
 30
0.0
 11
457.4667012657186
 21
482.2037330077234
 31
0.0
  0
LINE
  5
1106
330
2
100
AcDbEntity
  8
0
100
AcDbLine
 10
458.0440515349086
 20
481.2037330077234
 30
0.0
 11
458.0440515349076
 21
479.903733007723
 31
0.0
  0
LINE
  5
1107
330
2
100
AcDbEntity
  8
HIDS
  6
SEKKEI_H
100
AcDbLine
 10
461.9582650972728
 20
472.2895194453562
 30
0.0
 11
460.0440515349013
 21
474.2037330077284
 31
0.0
  0
LINE
  5
1108
330
2
100
AcDbEntity
  8
0
100
AcDbLine
 10
404.7940515349031
 20
471.7037330077611
 30
0.0
 11
465.2940515349103
 21
471.7037330077279
 31
0.0
  0
ARC
  5
1109
330
2
100
AcDbEntity
  8
0
100
AcDbCircle
 10
464.6560156836716
 20
470.7037330077282
 30
0.0
 40
1.0
100
AcDbArc
 50
0.500000000001317
 51
89.99999999994789
  0
ARC
  5
110A
330
2
100
AcDbEntity
  8
0
100
AcDbCircle
 10
405.092087387676
 20
470.7037330077607
 30
0.0
 40
1.0
100
AcDbArc
 50
89.99999999994789
 51
179.4999999999987
  0
LINE
  5
110B
330
2
100
AcDbEntity
  8
0
100
AcDbLine
 10
465.7082410468832
 20
465.2037330077227
 30
0.0
 11
404.0440515349067
 21
465.2037330077227
 31
0.0
  0
ARC
  5
110C
330
2
100
AcDbEntity
  8
HIDS
  6
SEKKEI_H
100
AcDbCircle
 10
463.3724786596461
 20
473.7037330077291
 30
0.0
 40
2.0
100
AcDbArc
 50
224.9999999999908
 51
269.9999999999478
  0
ARC
  5
110D
330
2
100
AcDbEntity
  8
0
100
AcDbCircle
 10
457.8440515349078
 20
479.9037330077232
 30
0.0
 40
0.2
100
AcDbArc
 50
270.0
 51
359.9999999999869
  0
ARC
  5
110E
330
2
100
AcDbEntity
  8
0
100
AcDbCircle
 10
457.5440515349076
 20
479.5037330077231
 30
0.0
 40
0.2
100
AcDbArc
 50
90.0
 51
179.9999999999869
  0
ARC
  5
110F
330
2
100
AcDbEntity
  8
HIDS
  6
SEKKEI_H
100
AcDbCircle
 10
457.5440515349076
 20
477.9037330077232
 30
0.0
 40
0.2
100
AcDbArc
 50
179.9999999999869
 51
270.0
  0
ARC
  5
1110
330
2
100
AcDbEntity
  8
0
100
AcDbCircle
 10
412.2440515349074
 20
479.9037330077232
 30
0.0
 40
0.2
100
AcDbArc
 50
180.000000000013
 51
270.0
  0
ARC
  5
1111
330
2
100
AcDbEntity
  8
0
100
AcDbCircle
 10
412.5440515349067
 20
479.5037330077231
 30
0.0
 40
0.2
100
AcDbArc
 50
0.0
 51
90.0
  0
ARC
  5
1112
330
2
100
AcDbEntity
  8
HIDS
  6
SEKKEI_H
100
AcDbCircle
 10
412.5440515349067
 20
477.9037330077232
 30
0.0
 40
0.2
100
AcDbArc
 50
270.0
 51
0.0000000000130276
  0
LINE
  5
1113
330
2
100
AcDbEntity
  8
0
100
AcDbLine
 10
404.044051536441
 20
465.2037330077162
 30
0.0
 11
404.0920474816824
 21
470.7035235845721
 31
0.0
  0
LINE
  5
1114
330
2
100
AcDbEntity
  8
HIDS
  6
SEKKEI_H
100
AcDbLine
 10
408.1298379725415
 20
472.2895194453562
 30
0.0
 11
410.0440515349068
 21
474.2037330077227
 31
0.0
  0
ARC
  5
1115
330
2
100
AcDbEntity
  8
HIDS
  6
SEKKEI_H
100
AcDbCircle
 10
406.7156244101682
 20
473.7037330077291
 30
0.0
 40
2.0
100
AcDbArc
 50
270.0000000000521
 51
315.0000000000092
  0
LINE
  5
1116
330
2
100
AcDbEntity
  8
0
100
AcDbLine
 10
456.7940515349103
 20
477.5037330077231
 30
0.0
 11
413.2940515349031
 21
477.5037330077231
 31
0.0
  0
LINE
  5
1117
330
2
100
AcDbEntity
  8
0
100
AcDbLine
 10
412.0440515349067
 20
481.2037330077229
 30
0.0
 11
458.0440515349086
 21
481.2037330077229
 31
0.0
  0
LINE
  5
1118
330
2
100
AcDbEntity
  8
0
100
AcDbLine
 10
463.0440515349113
 20
465.2037330077227
 30
0.0
 11
463.0440515349113
 21
470.7037330077262
 31
0.0
  0
LINE
  5
1119
330
2
100
AcDbEntity
  8
0
100
AcDbLine
 10
460.0440515349085
 20
465.2037330077227
 30
0.0
 11
460.0440515349085
 21
470.7037330077262
 31
0.0
  0
LINE
  5
111A
330
2
100
AcDbEntity
  8
0
100
AcDbLine
 10
451.0252862634636
 20
465.2037330077227
 30
0.0
 11
451.0252862634636
 21
470.7037330077262
 31
0.0
  0
LINE
  5
111B
330
2
100
AcDbEntity
  8
0
100
AcDbLine
 10
407.0440515349031
 20
465.2037330077227
 30
0.0
 11
407.0440515349031
 21
470.7037330077262
 31
0.0
  0
LINE
  5
111C
330
2
100
AcDbEntity
  8
0
100
AcDbLine
 10
410.0440515349058
 20
465.2037330077227
 30
0.0
 11
410.0440515349058
 21
470.7037330077262
 31
0.0
  0
LINE
  5
111D
330
2
100
AcDbEntity
  8
0
100
AcDbLine
 10
419.0628168063516
 20
465.2037330077227
 30
0.0
 11
419.0628168063516
 21
470.7037330077262
 31
0.0
  0
LINE
  5
111E
330
2
100
AcDbEntity
  8
0
100
AcDbLine
 10
465.2940515349103
 20
477.7037330077259
 30
0.0
 11
465.2940515349103
 21
471.7037330077279
 31
0.0
  0
LINE
  5
111F
330
2
100
AcDbEntity
  8
0
100
AcDbLine
 10
456.7940515349103
 20
477.7037330077259
 30
0.0
 11
456.7940515349103
 21
471.7037330077261
 31
0.0
  0
LINE
  5
1120
330
2
100
AcDbEntity
  8
0
100
AcDbLine
 10
456.7940515349103
 20
473.003733007726
 30
0.0
 11
465.2940515349103
 21
473.003733007726
 31
0.0
  0
LINE
  5
1121
330
2
100
AcDbEntity
  8
0
100
AcDbLine
 10
456.7940515349103
 20
477.7037330077259
 30
0.0
 11
465.2940515349103
 21
477.7037330077259
 31
0.0
  0
LINE
  5
1122
330
2
100
AcDbEntity
  8
0
100
AcDbLine
 10
456.7940515349103
 20
477.7037330077259
 30
0.0
 11
457.3136667771808
 21
478.0037330077261
 31
0.0
  0
LINE
  5
1123
330
2
100
AcDbEntity
  8
0
100
AcDbLine
 10
465.2940515349103
 20
477.7037330077259
 30
0.0
 11
464.7744362926399
 21
478.0037330077261
 31
0.0
  0
LINE
  5
1124
330
2
100
AcDbEntity
  8
0
100
AcDbLine
 10
457.3136667771808
 20
478.0037330077261
 30
0.0
 11
464.7744362926399
 21
478.0037330077261
 31
0.0
  0
LINE
  5
1125
330
2
100
AcDbEntity
  8
HIDS
  6
SEKKEI_H
100
AcDbLine
 10
460.0440515349013
 20
474.2037330077284
 30
0.0
 11
456.7940515349103
 21
474.203733007728
 31
0.0
  0
LINE
  5
1126
330
2
100
AcDbEntity
  8
HIDS
  6
SEKKEI_H
100
AcDbLine
 10
458.0440515349076
 20
477.5037330077231
 30
0.0
 11
456.7940515349103
 21
477.5037330077231
 31
0.0
  0
LINE
  5
1127
330
2
100
AcDbEntity
  8
HIDS
  6
SEKKEI_H
100
AcDbLine
 10
457.3440515349078
 20
478.0037330077261
 30
0.0
 11
457.3440515349078
 21
477.9037330077232
 31
0.0
  0
LINE
  5
1128
330
2
100
AcDbEntity
  8
0
100
AcDbLine
 10
404.7940515349031
 20
477.7037330077259
 30
0.0
 11
404.7940515349031
 21
471.7037330077611
 31
0.0
  0
LINE
  5
1129
330
2
100
AcDbEntity
  8
0
100
AcDbLine
 10
413.2940515349031
 20
477.7037330077259
 30
0.0
 11
413.2940515349031
 21
471.7037330077261
 31
0.0
  0
LINE
  5
112A
330
2
100
AcDbEntity
  8
0
100
AcDbLine
 10
413.2940515349031
 20
473.003733007726
 30
0.0
 11
404.7940515349031
 21
473.003733007726
 31
0.0
  0
LINE
  5
112B
330
2
100
AcDbEntity
  8
0
100
AcDbLine
 10
413.2940515349031
 20
477.7037330077259
 30
0.0
 11
404.7940515349031
 21
477.7037330077259
 31
0.0
  0
LINE
  5
112C
330
2
100
AcDbEntity
  8
0
100
AcDbLine
 10
413.2940515349031
 20
477.7037330077259
 30
0.0
 11
412.7744362926327
 21
478.0037330077261
 31
0.0
  0
LINE
  5
112D
330
2
100
AcDbEntity
  8
0
100
AcDbLine
 10
404.7940515349031
 20
477.7037330077259
 30
0.0
 11
405.3136667771744
 21
478.0037330077261
 31
0.0
  0
LINE
  5
112E
330
2
100
AcDbEntity
  8
0
100
AcDbLine
 10
412.7744362926327
 20
478.0037330077261
 30
0.0
 11
405.3136667771744
 21
478.0037330077261
 31
0.0
  0
LINE
  5
112F
330
2
100
AcDbEntity
  8
HIDS
  6
SEKKEI_H
100
AcDbLine
 10
413.2940515349031
 20
474.2037330077232
 30
0.0
 11
410.0440515349077
 21
474.2037330077227
 31
0.0
  0
LINE
  5
1130
330
2
100
AcDbEntity
  8
HIDS
  6
SEKKEI_H
100
AcDbLine
 10
412.7440515349075
 20
478.0037330077261
 30
0.0
 11
412.7440515349075
 21
477.9037330077232
 31
0.0
  0
LINE
  5
1131
330
2
100
AcDbEntity
  8
CENTER
  6
CENS
100
AcDbLine
 10
461.0440515349104
 20
460.0057785310406
 30
0.0
 11
461.0440515349104
 21
481.0037330077285
 31
0.0
  0
LINE
  5
1132
330
2
100
AcDbEntity
  8
CENTER
  6
CENS
100
AcDbLine
 10
409.0440515349031
 20
460.0057785310406
 30
0.0
 11
409.0440515349031
 21
481.0037330077285
 31
0.0
  0
LINE
  5
1133
330
2
100
AcDbEntity
  8
0
100
AcDbLine
 10
465.655977606736
 20
470.7124595432264
 30
0.0
 11
465.7040515349065
 21
465.2037330077225
 31
0.0
  0
LINE
  5
1134
330
2
100
AcDbEntity
  8
CENTER
100
AcDbLine
 10
264.8534853878949
 20
93.85977820705665
 30
0.0
 11
369.8534853878949
 21
93.85977820705688
 31
0.0
  0
LINE
  5
1135
330
2
100
AcDbEntity
  8
CENTER
100
AcDbLine
 10
309.8534853878985
 20
55.35977820705676
 30
0.0
 11
309.8534853878985
 21
132.3597782070571
 31
0.0
  0
LINE
  5
1136
330
2
100
AcDbEntity
  8
0
100
AcDbLine
 10
345.8534853879021
 20
118.8597782070502
 30
0.0
 11
345.8534853879021
 21
113.2308762815077
 31
0.0
  0
LINE
  5
1137
330
2
100
AcDbEntity
  8
0
100
AcDbLine
 10
345.8534853879021
 20
74.48868013260602
 30
0.0
 11
345.8534853879021
 21
68.85977820705028
 31
0.0
  0
LINE
  5
1138
330
2
100
AcDbEntity
  8
0
100
AcDbLine
 10
342.8534853879022
 20
68.85977820705028
 30
0.0
 11
345.8534853879021
 21
68.85977820705028
 31
0.0
  0
LINE
  5
1139
330
2
100
AcDbEntity
  8
0
100
AcDbLine
 10
342.8534853879022
 20
118.8597782070502
 30
0.0
 11
345.8534853879021
 21
118.8597782070502
 31
0.0
  0
LINE
  5
113A
330
2
100
AcDbEntity
  8
0
100
AcDbLine
 10
342.8534853878985
 20
63.31357533217801
 30
0.0
 11
342.8534853878985
 21
75.11404485658289
 31
0.0
  0
LINE
  5
113B
330
2
100
AcDbEntity
  8
0
100
AcDbLine
 10
342.8534853878985
 20
112.6055115575308
 30
0.0
 11
342.8534853878985
 21
124.405981081918
 31
0.0
  0
LINE
  5
113C
330
2
100
AcDbEntity
  8
0
100
AcDbLine
 10
352.8534853879004
 20
73.79115575666805
 30
0.0
 11
352.8534853879004
 21
84.35978242167351
 31
0.0
  0
LINE
  5
113D
330
2
100
AcDbEntity
  8
0
100
AcDbLine
 10
352.8534853879004
 20
103.3597824216737
 30
0.0
 11
352.8534853879004
 21
113.9284006574484
 31
0.0
  0
LINE
  5
113E
330
2
100
AcDbEntity
  8
0
100
AcDbLine
 10
347.7836863944952
 20
116.0368194890802
 30
0.0
 11
350.9232843813055
 21
115.9271823114863
 31
0.0
  0
ARC
  5
113F
330
2
100
AcDbEntity
  8
0
100
AcDbCircle
 10
347.8534853879003
 20
118.035601143118
 30
0.0
 40
2.0
100
AcDbArc
 50
180.0
 51
267.9999999999963
  0
ARC
  5
1140
330
2
100
AcDbEntity
  8
0
100
AcDbCircle
 10
350.8534853879003
 20
113.9284006574484
 30
0.0
 40
2.0
100
AcDbArc
 50
0.0
 51
87.99999999999636
  0
LINE
  5
1141
330
2
100
AcDbEntity
  8
0
100
AcDbLine
 10
347.7836863944716
 20
71.68273692503993
 30
0.0
 11
350.9232843812818
 21
71.79237410263107
 31
0.0
  0
ARC
  5
1142
330
2
100
AcDbEntity
  8
0
100
AcDbCircle
 10
347.8534853878749
 20
69.68395527100205
 30
0.0
 40
2.0
100
AcDbArc
 50
91.99999999995149
 51
179.9999999999479
  0
ARC
  5
1143
330
2
100
AcDbEntity
  8
0
100
AcDbCircle
 10
350.8534853878794
 20
73.79115575666805
 30
0.0
 40
2.0
100
AcDbArc
 50
271.9999999999515
 51
359.9999999999478
  0
LINE
  5
1144
330
2
100
AcDbEntity
  8
0
100
AcDbLine
 10
290.8534853878949
 20
62.85977820705653
 30
0.0
 11
342.8534853878985
 21
63.31357533217801
 31
0.0
  0
LINE
  5
1145
330
2
100
AcDbEntity
  8
0
100
AcDbLine
 10
290.8534853878949
 20
124.8597782070568
 30
0.0
 11
342.8534853878985
 21
124.405981081918
 31
0.0
  0
LINE
  5
1146
330
2
100
AcDbEntity
  8
0
100
AcDbLine
 10
341.8534853878985
 20
121.8597782070609
 30
0.0
 11
290.8534853878949
 21
121.8597782070609
 31
0.0
  0
LINE
  5
1147
330
2
100
AcDbEntity
  8
0
100
AcDbLine
 10
341.8534853878985
 20
118.8597782070582
 30
0.0
 11
290.8534853878949
 21
118.8597782070582
 31
0.0
  0
LINE
  5
1148
330
2
100
AcDbEntity
  8
0
100
AcDbLine
 10
341.5826662883322
 20
109.8410129356129
 30
0.0
 11
290.8534853878949
 21
109.8410129356129
 31
0.0
  0
LINE
  5
1149
330
2
100
AcDbEntity
  8
0
100
AcDbLine
 10
341.8534853878985
 20
65.85977820705278
 30
0.0
 11
290.8534853878949
 21
65.8597782070529
 31
0.0
  0
LINE
  5
114A
330
2
100
AcDbEntity
  8
0
100
AcDbLine
 10
341.8534853878985
 20
68.85977820705551
 30
0.0
 11
290.8534853878949
 21
68.85977820705551
 31
0.0
  0
LINE
  5
114B
330
2
100
AcDbEntity
  8
0
100
AcDbLine
 10
341.5826662883322
 20
77.87854347850083
 30
0.0
 11
290.8534853878949
 21
77.87854347850083
 31
0.0
  0
LINE
  5
114C
330
2
100
AcDbEntity
  8
0
100
AcDbLine
 10
273.8534853878949
 20
71.43712847624573
 30
0.0
 11
273.8534853878949
 21
84.35978242167374
 31
0.0
  0
LINE
  5
114D
330
2
100
AcDbEntity
  8
0
100
AcDbLine
 10
273.8534853878949
 20
103.3597824216737
 30
0.0
 11
273.8534853878949
 21
116.282427937868
 31
0.0
  0
LINE
  5
114E
330
2
100
AcDbEntity
  8
0
100
AcDbLine
 10
281.8534853878903
 20
115.6097782070605
 30
0.0
 11
281.8534853878903
 21
112.3695655689727
 31
0.0
  0
LINE
  5
114F
330
2
100
AcDbEntity
  8
0
100
AcDbLine
 10
281.8534853878949
 20
75.3499908451451
 30
0.0
 11
281.8534853878949
 21
72.10977820705323
 31
0.0
  0
LINE
  5
1150
330
2
100
AcDbEntity
  8
HIDS
  6
SEKKEI_H
100
AcDbLine
 10
282.3534853878949
 20
68.35977820705733
 30
0.0
 11
281.8534853878949
 21
68.85977820705733
 31
0.0
  0
LINE
  5
1151
330
2
100
AcDbEntity
  8
HIDS
  6
SEKKEI_H
100
AcDbLine
 10
278.5534853878947
 20
70.85977820705688
 30
0.0
 11
281.8534853878949
 21
70.85977820705733
 31
0.0
  0
LINE
  5
1152
330
2
100
AcDbEntity
  8
0
100
AcDbLine
 10
274.8534853878949
 20
70.85977820705642
 30
0.0
 11
273.8534853878949
 21
71.43712847624596
 31
0.0
  0
LINE
  5
1153
330
2
100
AcDbEntity
  8
HIDS
  6
SEKKEI_H
100
AcDbLine
 10
278.3534853878949
 20
71.05977820705669
 30
0.0
 11
278.5534853878947
 21
70.85977820705688
 31
0.0
  0
LINE
  5
1154
330
2
100
AcDbEntity
  8
0
100
AcDbLine
 10
274.8534853878949
 20
70.85977820705642
 30
0.0
 11
276.1534853878951
 21
70.85977820705642
 31
0.0
  0
LINE
  5
1155
330
2
100
AcDbEntity
  8
0
100
AcDbLine
 10
276.3534853878949
 20
71.05977820705669
 30
0.0
 11
276.3534853878949
 21
73.99301093618913
 31
0.0
  0
LINE
  5
1156
330
2
100
AcDbEntity
  8
0
100
AcDbLine
 10
276.3534853878949
 20
113.7265454779244
 30
0.0
 11
276.3534853878949
 21
116.6597782070575
 31
0.0
  0
LINE
  5
1157
330
2
100
AcDbEntity
  8
0
100
AcDbLine
 10
276.5534853878947
 20
71.55977820705647
 30
0.0
 11
278.053485387892
 21
71.55977820705669
 31
0.0
  0
LINE
  5
1158
330
2
100
AcDbEntity
  8
0
100
AcDbLine
 10
278.3534853878922
 20
72.10977820705323
 30
0.0
 11
278.3534853878922
 21
74.17435049718341
 31
0.0
  0
LINE
  5
1159
330
2
100
AcDbEntity
  8
0
100
AcDbLine
 10
278.3534853878922
 20
113.5452059169303
 30
0.0
 11
278.3534853878922
 21
115.6097782070605
 31
0.0
  0
LINE
  5
115A
330
2
100
AcDbEntity
  8
0
100
AcDbLine
 10
290.8534853878958
 20
124.8597782070573
 30
0.0
 11
285.3534853878922
 21
124.8597782070573
 31
0.0
  0
LINE
  5
115B
330
2
100
AcDbEntity
  8
0
100
AcDbLine
 10
274.8534853878949
 20
111.3597782070568
 30
0.0
 11
281.8534853878949
 21
111.3597782070568
 31
0.0
  0
LINE
  5
115C
330
2
100
AcDbEntity
  8
0
100
AcDbLine
 10
274.8534853878949
 20
111.3597782070568
 30
0.0
 11
273.8534853878949
 21
111.9371284762464
 31
0.0
  0
LINE
  5
115D
330
2
100
AcDbEntity
  8
HIDS
  6
SEKKEI_H
100
AcDbLine
 10
278.5534853878947
 20
116.8597782070573
 30
0.0
 11
281.8534853878949
 21
116.8597782070568
 31
0.0
  0
LINE
  5
115E
330
2
100
AcDbEntity
  8
0
100
AcDbLine
 10
276.5534853878947
 20
116.1597782070575
 30
0.0
 11
278.053485387892
 21
116.1597782070572
 31
0.0
  0
LINE
  5
115F
330
2
100
AcDbEntity
  8
HIDS
  6
SEKKEI_H
100
AcDbLine
 10
278.3534853878949
 20
116.659778207057
 30
0.0
 11
278.5534853878947
 21
116.8597782070573
 31
0.0
  0
LINE
  5
1160
330
2
100
AcDbEntity
  8
0
100
AcDbLine
 10
274.8534853878949
 20
116.8597782070577
 30
0.0
 11
273.8534853878949
 21
116.2824279378682
 31
0.0
  0
LINE
  5
1161
330
2
100
AcDbEntity
  8
0
100
AcDbLine
 10
274.8534853878949
 20
116.8597782070577
 30
0.0
 11
276.1534853878951
 21
116.8597782070573
 31
0.0
  0
ARC
  5
1162
330
2
100
AcDbEntity
  8
0
100
AcDbCircle
 10
285.3534853878922
 20
123.8597782070568
 30
0.0
 40
1.0
100
AcDbArc
 50
90.0
 51
179.9999999999674
  0
LINE
  5
1163
330
2
100
AcDbEntity
  8
HIDS
  6
SEKKEI_H
100
AcDbLine
 10
283.7676989502618
 20
120.7739917694224
 30
0.0
 11
281.8534853878894
 21
118.8597782070509
 31
0.0
  0
LINE
  5
1164
330
2
100
AcDbEntity
  8
0
100
AcDbLine
 10
284.3534853878567
 20
63.60977820705324
 30
0.0
 11
284.3534853878676
 21
83.7409453195516
 31
0.0
  0
LINE
  5
1165
330
2
100
AcDbEntity
  8
0
100
AcDbLine
 10
284.3534853878785
 20
103.9786110945507
 30
0.0
 11
284.3534853878894
 21
123.8597782070575
 31
0.0
  0
LINE
  5
1166
330
2
100
AcDbEntity
  8
0
100
AcDbLine
 10
290.8534853878949
 20
124.8597782070568
 30
0.0
 11
290.8534853878949
 21
102.9401120930101
 31
0.0
  0
LINE
  5
1167
330
2
100
AcDbEntity
  8
0
100
AcDbLine
 10
290.8534853878949
 20
84.77944432110389
 30
0.0
 11
290.8534853878949
 21
62.85977820705653
 31
0.0
  0
ARC
  5
1168
330
2
100
AcDbEntity
  8
HIDS
  6
SEKKEI_H
100
AcDbCircle
 10
282.3534853878894
 20
122.1882053317958
 30
0.0
 40
2.0
100
AcDbArc
 50
315.0000000000069
 51
359.9999999999674
  0
ARC
  5
1169
330
2
100
AcDbEntity
  8
0
100
AcDbCircle
 10
276.1534853878951
 20
116.6597782070575
 30
0.0
 40
0.2
100
AcDbArc
 50
0.0
 51
90.0
  0
ARC
  5
116A
330
2
100
AcDbEntity
  8
0
100
AcDbCircle
 10
276.5534853878947
 20
116.3597782070575
 30
0.0
 40
0.2
100
AcDbArc
 50
180.0
 51
270.0
  0
ARC
  5
116B
330
2
100
AcDbEntity
  8
HIDS
  6
SEKKEI_H
100
AcDbCircle
 10
278.1534853878951
 20
116.3597782070573
 30
0.0
 40
0.2
100
AcDbArc
 50
270.0
 51
0.0
  0
ARC
  5
116C
330
2
100
AcDbEntity
  8
0
100
AcDbCircle
 10
276.1534853878951
 20
71.05977820705669
 30
0.0
 40
0.2
100
AcDbArc
 50
270.0
 51
0.0
  0
ARC
  5
116D
330
2
100
AcDbEntity
  8
0
100
AcDbCircle
 10
276.5534853878947
 20
71.35977820705642
 30
0.0
 40
0.2
100
AcDbArc
 50
90.0
 51
180.0
  0
ARC
  5
116E
330
2
100
AcDbEntity
  8
HIDS
  6
SEKKEI_H
100
AcDbCircle
 10
278.1534853878951
 20
71.35977820705665
 30
0.0
 40
0.2
100
AcDbArc
 50
0.0
 51
90.0
  0
LINE
  5
116F
330
2
100
AcDbEntity
  8
0
100
AcDbLine
 10
290.8534853878949
 20
62.85977820705653
 30
0.0
 11
285.3447588523589
 21
62.90785213522752
 31
0.0
  0
ARC
  5
1170
330
2
100
AcDbEntity
  8
0
100
AcDbCircle
 10
285.3534853878567
 20
63.90781405829165
 30
0.0
 40
1.0
100
AcDbArc
 50
179.9999999999674
 51
269.4999999999824
  0
LINE
  5
1171
330
2
100
AcDbEntity
  8
HIDS
  6
SEKKEI_H
100
AcDbLine
 10
283.7676989502618
 20
66.94556464469127
 30
0.0
 11
281.8534853878949
 21
68.85977820705687
 31
0.0
  0
ARC
  5
1172
330
2
100
AcDbEntity
  8
HIDS
  6
SEKKEI_H
100
AcDbCircle
 10
282.3534853878894
 20
65.53135108231782
 30
0.0
 40
2.0
100
AcDbArc
 50
0.0000000000390827
 51
44.99999999999309
  0
LINE
  5
1173
330
2
100
AcDbEntity
  8
0
100
AcDbLine
 10
278.5534853878947
 20
115.6097782070605
 30
0.0
 11
278.5534853878947
 21
113.5511009175037
 31
0.0
  0
LINE
  5
1174
330
2
100
AcDbEntity
  8
0
100
AcDbLine
 10
278.5534853878947
 20
74.16845549660973
 30
0.0
 11
278.5534853878947
 21
72.10977820705323
 31
0.0
  0
LINE
  5
1175
330
2
100
AcDbEntity
  8
0
100
AcDbLine
 10
274.8534853878949
 20
70.85977820705642
 30
0.0
 11
274.8534853878949
 21
73.41677483098846
 31
0.0
  0
LINE
  5
1176
330
2
100
AcDbEntity
  8
0
100
AcDbLine
 10
274.8534853878949
 20
114.3027815831255
 30
0.0
 11
274.8534853878949
 21
116.8597782070577
 31
0.0
  0
LINE
  5
1177
330
2
100
AcDbEntity
  8
0
100
AcDbLine
 10
290.8534853878949
 20
121.8597782070609
 30
0.0
 11
285.3534853878922
 21
121.8597782070609
 31
0.0
  0
LINE
  5
1178
330
2
100
AcDbEntity
  8
0
100
AcDbLine
 10
290.8534853878949
 20
118.8597782070582
 30
0.0
 11
285.3534853878922
 21
118.8597782070582
 31
0.0
  0
LINE
  5
1179
330
2
100
AcDbEntity
  8
0
100
AcDbLine
 10
290.8534853878949
 20
109.8410129356129
 30
0.0
 11
285.3534853878922
 21
109.8410129356129
 31
0.0
  0
LINE
  5
117A
330
2
100
AcDbEntity
  8
0
100
AcDbLine
 10
290.8534853878949
 20
65.8597782070529
 30
0.0
 11
285.3534853878922
 21
65.8597782070529
 31
0.0
  0
LINE
  5
117B
330
2
100
AcDbEntity
  8
0
100
AcDbLine
 10
290.8534853878949
 20
68.85977820705551
 30
0.0
 11
285.3534853878922
 21
68.85977820705551
 31
0.0
  0
LINE
  5
117C
330
2
100
AcDbEntity
  8
0
100
AcDbLine
 10
290.8534853878949
 20
77.87854347850083
 30
0.0
 11
285.3534853878922
 21
77.87854347850083
 31
0.0
  0
LINE
  5
117D
330
2
100
AcDbEntity
  8
CENTER
  6
CENS
100
AcDbLine
 10
296.0514398645794
 20
119.8597782070605
 30
0.0
 11
275.053485387892
 21
119.8597782070605
 31
0.0
  0
LINE
  5
117E
330
2
100
AcDbEntity
  8
0
100
AcDbLine
 10
278.3534853878922
 20
124.1097782070605
 30
0.0
 11
284.3534853878921
 21
124.1097782070605
 31
0.0
  0
LINE
  5
117F
330
2
100
AcDbEntity
  8
0
100
AcDbLine
 10
278.3534853878922
 20
115.6097782070605
 30
0.0
 11
284.3534853878921
 21
115.6097782070605
 31
0.0
  0
LINE
  5
1180
330
2
100
AcDbEntity
  8
0
100
AcDbLine
 10
283.053485387892
 20
115.6097782070605
 30
0.0
 11
283.053485387892
 21
124.1097782070605
 31
0.0
  0
LINE
  5
1181
330
2
100
AcDbEntity
  8
0
100
AcDbLine
 10
278.3534853878922
 20
115.6097782070605
 30
0.0
 11
278.3534853878922
 21
124.1097782070605
 31
0.0
  0
LINE
  5
1182
330
2
100
AcDbEntity
  8
0
100
AcDbLine
 10
278.3534853878922
 20
115.6097782070605
 30
0.0
 11
278.053485387892
 21
116.1293934493309
 31
0.0
  0
LINE
  5
1183
330
2
100
AcDbEntity
  8
0
100
AcDbLine
 10
278.3534853878922
 20
124.1097782070605
 30
0.0
 11
278.053485387892
 21
123.5901629647896
 31
0.0
  0
LINE
  5
1184
330
2
100
AcDbEntity
  8
0
100
AcDbLine
 10
278.053485387892
 20
116.1293934493309
 30
0.0
 11
278.053485387892
 21
123.5901629647896
 31
0.0
  0
LINE
  5
1185
330
2
100
AcDbEntity
  8
HIDS
  6
SEKKEI_H
100
AcDbLine
 10
281.8534853878894
 20
118.8597782070509
 30
0.0
 11
281.8534853878903
 21
115.6097782070605
 31
0.0
  0
LINE
  5
1186
330
2
100
AcDbEntity
  8
HIDS
  6
SEKKEI_H
100
AcDbLine
 10
278.5534853878947
 20
116.8597782070573
 30
0.0
 11
278.5534853878947
 21
115.6097782070605
 31
0.0
  0
LINE
  5
1187
330
2
100
AcDbEntity
  8
HIDS
  6
SEKKEI_H
100
AcDbLine
 10
278.053485387892
 20
116.1597782070572
 30
0.0
 11
278.1534853878951
 21
116.159778207057
 31
0.0
  0
LINE
  5
1188
330
2
100
AcDbEntity
  8
CENTER
  6
CENS
100
AcDbLine
 10
296.0514398645794
 20
67.85977820705324
 30
0.0
 11
275.053485387892
 21
67.85977820705324
 31
0.0
  0
LINE
  5
1189
330
2
100
AcDbEntity
  8
0
100
AcDbLine
 10
278.3534853878922
 20
63.60977820705324
 30
0.0
 11
284.3534853878567
 21
63.60977820705324
 31
0.0
  0
LINE
  5
118A
330
2
100
AcDbEntity
  8
0
100
AcDbLine
 10
278.3534853878922
 20
72.10977820705323
 30
0.0
 11
284.3534853878921
 21
72.10977820705323
 31
0.0
  0
LINE
  5
118B
330
2
100
AcDbEntity
  8
0
100
AcDbLine
 10
283.053485387892
 20
72.10977820705323
 30
0.0
 11
283.053485387892
 21
63.60977820705324
 31
0.0
  0
LINE
  5
118C
330
2
100
AcDbEntity
  8
0
100
AcDbLine
 10
278.3534853878922
 20
72.10977820705323
 30
0.0
 11
278.3534853878922
 21
63.60977820705324
 31
0.0
  0
LINE
  5
118D
330
2
100
AcDbEntity
  8
0
100
AcDbLine
 10
278.3534853878922
 20
72.10977820705323
 30
0.0
 11
278.053485387892
 21
71.59016296478279
 31
0.0
  0
LINE
  5
118E
330
2
100
AcDbEntity
  8
0
100
AcDbLine
 10
278.3534853878922
 20
63.60977820705324
 30
0.0
 11
278.053485387892
 21
64.12939344932414
 31
0.0
  0
LINE
  5
118F
330
2
100
AcDbEntity
  8
0
100
AcDbLine
 10
278.053485387892
 20
71.59016296478279
 30
0.0
 11
278.053485387892
 21
64.12939344932414
 31
0.0
  0
LINE
  5
1190
330
2
100
AcDbEntity
  8
HIDS
  6
SEKKEI_H
100
AcDbLine
 10
281.8534853878949
 20
72.10977820705323
 30
0.0
 11
281.8534853878949
 21
68.85977820705733
 31
0.0
  0
LINE
  5
1191
330
2
100
AcDbEntity
  8
HIDS
  6
SEKKEI_H
100
AcDbLine
 10
278.053485387892
 20
71.55977820705669
 30
0.0
 11
278.1534853878951
 21
71.55977820705669
 31
0.0
  0
LINE
  5
1192
330
2
100
AcDbEntity
  8
0
100
AcDbLine
 10
339.8534853878949
 20
100.1097824216732
 30
0.0
 11
291.8534853878949
 21
100.1097824216732
 31
0.0
  0
LINE
  5
1193
330
2
100
AcDbEntity
  8
0
100
AcDbLine
 10
362.8534853878949
 20
101.6597824216739
 30
0.0
 11
271.8534853878949
 21
101.6597824216737
 31
0.0
  0
LINE
  5
1194
330
2
100
AcDbEntity
  8
0
100
AcDbLine
 10
348.8534853878949
 20
99.85978242167352
 30
0.0
 11
339.8534853878949
 21
99.85978242167352
 31
0.0
  0
LINE
  5
1195
330
2
100
AcDbEntity
  8
0
100
AcDbLine
 10
362.8534853878949
 20
103.3597824216737
 30
0.0
 11
342.8534853878949
 21
103.3597824216737
 31
0.0
  0
LINE
  5
1196
330
2
100
AcDbEntity
  8
0
100
AcDbLine
 10
362.8534853878949
 20
84.35978242167351
 30
0.0
 11
342.8534853878949
 21
84.35978242167351
 31
0.0
  0
LINE
  5
1197
330
2
100
AcDbEntity
  8
0
100
AcDbLine
 10
350.0034853878945
 20
87.60978242167352
 30
0.0
 11
350.0034853878945
 21
100.1097824216732
 31
0.0
  0
LINE
  5
1198
330
2
100
AcDbEntity
  8
0
100
AcDbLine
 10
348.8534853878949
 20
87.60978242167352
 30
0.0
 11
348.8534853878949
 21
100.1097824216732
 31
0.0
  0
LINE
  5
1199
330
2
100
AcDbEntity
  8
0
100
AcDbLine
 10
360.8534853878949
 20
87.85978242167283
 30
0.0
 11
360.8534853878949
 21
99.85978242167329
 31
0.0
  0
LINE
  5
119A
330
2
100
AcDbEntity
  8
0
100
AcDbLine
 10
354.3534853878949
 20
87.35978242167329
 30
0.0
 11
354.3534853878949
 21
100.3597824216737
 31
0.0
  0
LINE
  5
119B
330
2
100
AcDbEntity
  8
0
100
AcDbLine
 10
358.3534853878949
 20
87.35978242167306
 30
0.0
 11
358.3534853878949
 21
100.3597824216739
 31
0.0
  0
LINE
  5
119C
330
2
100
AcDbEntity
  8
0
100
AcDbLine
 10
362.8534853878949
 20
84.35978242167374
 30
0.0
 11
362.8534853878949
 21
103.3597824216737
 31
0.0
  0
LINE
  5
119D
330
2
100
AcDbEntity
  8
0
100
AcDbLine
 10
360.8534853878949
 20
87.85978242167283
 30
0.0
 11
358.3534853878949
 21
87.85978242167306
 31
0.0
  0
LINE
  5
119E
330
2
100
AcDbEntity
  8
0
100
AcDbLine
 10
360.8534853878949
 20
87.85978242167283
 30
0.0
 11
358.3534853878949
 21
87.85978242167306
 31
0.0
  0
LINE
  5
119F
330
2
100
AcDbEntity
  8
0
100
AcDbLine
 10
362.8534853878949
 20
86.70508188329444
 30
0.0
 11
360.8534853878949
 21
87.85978242167374
 31
0.0
  0
LINE
  5
11A0
330
2
100
AcDbEntity
  8
0
100
AcDbLine
 10
354.3534853878949
 20
87.85978242167329
 30
0.0
 11
350.0034853878945
 21
87.85978242167351
 31
0.0
  0
LINE
  5
11A1
330
2
100
AcDbEntity
  8
0
100
AcDbLine
 10
358.3534853878949
 20
87.35978242167306
 30
0.0
 11
354.3534853878949
 21
87.35978242167329
 31
0.0
  0
LINE
  5
11A2
330
2
100
AcDbEntity
  8
0
100
AcDbLine
 10
348.8534853878949
 20
87.85978242167374
 30
0.0
 11
339.8534853878949
 21
87.85978242167397
 31
0.0
  0
LINE
  5
11A3
330
2
100
AcDbEntity
  8
0
100
AcDbLine
 10
350.0034853878945
 20
87.60978242167352
 30
0.0
 11
348.8534853878949
 21
87.60978242167352
 31
0.0
  0
LINE
  5
11A4
330
2
100
AcDbEntity
  8
0
100
AcDbLine
 10
360.8534853878949
 20
99.85978242167329
 30
0.0
 11
358.3534853878949
 21
99.85978242167352
 31
0.0
  0
LINE
  5
11A5
330
2
100
AcDbEntity
  8
0
100
AcDbLine
 10
360.8534853878949
 20
99.85978242167329
 30
0.0
 11
358.3534853878949
 21
99.85978242167329
 31
0.0
  0
LINE
  5
11A6
330
2
100
AcDbEntity
  8
0
100
AcDbLine
 10
362.8534853878949
 20
101.0144829600525
 30
0.0
 11
360.8534853878949
 21
99.85978242167329
 31
0.0
  0
LINE
  5
11A7
330
2
100
AcDbEntity
  8
0
100
AcDbLine
 10
355.1534853878951
 20
103.3597824216735
 30
0.0
 11
355.1534853878951
 21
101.6597824216739
 31
0.0
  0
LINE
  5
11A8
330
2
100
AcDbEntity
  8
HOJO
100
AcDbLine
 10
354.8534853878949
 20
103.3597824216735
 30
0.0
 11
354.8534853878949
 21
101.6597824216739
 31
0.0
  0
LINE
  5
11A9
330
2
100
AcDbEntity
  8
0
100
AcDbLine
 10
357.5534853878947
 20
103.3597824216735
 30
0.0
 11
357.5534853878956
 21
101.6597824216739
 31
0.0
  0
LINE
  5
11AA
330
2
100
AcDbEntity
  8
HOJO
100
AcDbLine
 10
357.8534853878949
 20
103.3597824216735
 30
0.0
 11
357.8534853878949
 21
101.6597824216739
 31
0.0
  0
LINE
  5
11AB
330
2
100
AcDbEntity
  8
0
100
AcDbLine
 10
354.3534853878949
 20
99.85978242167352
 30
0.0
 11
350.0034853878945
 21
99.85978242167352
 31
0.0
  0
LINE
  5
11AC
330
2
100
AcDbEntity
  8
0
100
AcDbLine
 10
358.3534853878949
 20
100.3597824216739
 30
0.0
 11
354.3534853878949
 21
100.3597824216737
 31
0.0
  0
LINE
  5
11AD
330
2
100
AcDbEntity
  8
0
100
AcDbLine
 10
350.0034853878945
 20
100.1097824216732
 30
0.0
 11
348.8534853878949
 21
100.1097824216735
 31
0.0
  0
LINE
  5
11AE
330
2
100
AcDbEntity
  8
0
100
AcDbLine
 10
342.8534853878949
 20
84.35978242167351
 30
0.0
 11
342.8534853878949
 21
75.11404485658516
 31
0.0
  0
LINE
  5
11AF
330
2
100
AcDbEntity
  8
0
100
AcDbLine
 10
342.8534853878949
 20
83.85978242167352
 30
0.0
 11
339.5813753216665
 21
83.85978242167352
 31
0.0
  0
LINE
  5
11B0
330
2
100
AcDbEntity
  8
0
100
AcDbLine
 10
342.8534853878949
 20
103.8597824216737
 30
0.0
 11
339.581383053863
 21
103.8597824216737
 31
0.0
  0
LINE
  5
11B1
330
2
100
AcDbEntity
  8
0
100
AcDbLine
 10
342.8534853878949
 20
103.8597824216737
 30
0.0
 11
342.8534853878949
 21
103.3597824216737
 31
0.0
  0
LINE
  5
11B2
330
2
100
AcDbEntity
  8
0
100
AcDbLine
 10
271.8534853878949
 20
103.3597824216737
 30
0.0
 11
285.1104890479285
 21
103.3597824216737
 31
0.0
  0
LINE
  5
11B3
330
2
100
AcDbEntity
  8
0
100
AcDbLine
 10
278.7034853878953
 20
99.85978242167329
 30
0.0
 11
273.8534853878949
 21
99.85978242167329
 31
0.0
  0
LINE
  5
11B4
330
2
100
AcDbEntity
  8
0
100
AcDbLine
 10
271.8534853878949
 20
84.35978242167374
 30
0.0
 11
285.1105017670182
 21
84.35978242167351
 31
0.0
  0
LINE
  5
11B5
330
2
100
AcDbEntity
  8
0
100
AcDbLine
 10
278.7034853878953
 20
87.85978242167738
 30
0.0
 11
273.8534853878949
 21
87.85978242167761
 31
0.0
  0
LINE
  5
11B6
330
2
100
AcDbEntity
  8
0
100
AcDbLine
 10
279.8534853878949
 20
100.1097824216732
 30
0.0
 11
279.8534853878949
 21
87.60978242167714
 31
0.0
  0
LINE
  5
11B7
330
2
100
AcDbEntity
  8
0
100
AcDbLine
 10
278.7034853878953
 20
100.1097824216732
 30
0.0
 11
278.7034853878953
 21
87.60978242167738
 31
0.0
  0
LINE
  5
11B8
330
2
100
AcDbEntity
  8
0
100
AcDbLine
 10
291.8534853879003
 20
87.85978242167692
 30
0.0
 11
279.8534853878949
 21
87.85978242167715
 31
0.0
  0
LINE
  5
11B9
330
2
100
AcDbEntity
  8
0
100
AcDbLine
 10
279.8534853878949
 20
87.60978242167714
 30
0.0
 11
278.7034853878953
 21
87.60978242167738
 31
0.0
  0
LINE
  5
11BA
330
2
100
AcDbEntity
  8
0
100
AcDbLine
 10
291.8534853878949
 20
99.85978242167329
 30
0.0
 11
279.8534853878949
 21
99.85978242167329
 31
0.0
  0
LINE
  5
11BB
330
2
100
AcDbEntity
  8
0
100
AcDbLine
 10
291.8534853878949
 20
100.1097824216732
 30
0.0
 11
291.8534853879003
 21
87.60977399244024
 31
0.0
  0
LINE
  5
11BC
330
2
100
AcDbEntity
  8
0
100
AcDbLine
 10
279.8534853878949
 20
100.1097824216732
 30
0.0
 11
278.7034853878953
 21
100.1097824216732
 31
0.0
  0
LINE
  5
11BD
330
2
100
AcDbEntity
  8
0
100
AcDbLine
 10
273.8534853878949
 20
99.85978242167329
 30
0.0
 11
273.8534853878949
 21
87.85978242167761
 31
0.0
  0
LINE
  5
11BE
330
2
100
AcDbEntity
  8
0
100
AcDbLine
 10
271.8534853878949
 20
103.3597824216737
 30
0.0
 11
271.8534853878949
 21
84.35978242167351
 31
0.0
  0
LINE
  5
11BF
330
2
100
AcDbEntity
  8
0
100
AcDbLine
 10
273.8534853878949
 20
87.85978242167761
 30
0.0
 11
271.8534853878949
 21
86.70508188329831
 31
0.0
  0
LINE
  5
11C0
330
2
100
AcDbEntity
  8
0
100
AcDbLine
 10
273.8534853878958
 20
99.85978242166988
 30
0.0
 11
271.8534853878958
 21
101.0144829600491
 31
0.0
  0
LINE
  5
11C1
330
2
100
AcDbEntity
  8
0
100
AcDbLine
 10
339.8534853878949
 20
100.1097824216732
 30
0.0
 11
339.8534853878949
 21
87.60977399244024
 31
0.0
  0
LINE
  5
11C2
330
2
100
AcDbEntity
  8
0
100
AcDbLine
 10
339.8534853878949
 20
87.60977399244024
 30
0.0
 11
291.8534853879003
 21
87.60977399244024
 31
0.0
  0
LINE
  5
11C3
330
2
100
AcDbEntity
  8
0
100
AcDbLine
 10
351.8534853879003
 20
111.3597782070571
 30
0.0
 11
351.8534853879003
 21
103.3597824216737
 31
0.0
  0
LINE
  5
11C4
330
2
100
AcDbEntity
  8
0
100
AcDbLine
 10
344.8534853879003
 20
111.3597782070571
 30
0.0
 11
344.8534853879003
 21
103.3597824216737
 31
0.0
  0
LINE
  5
11C5
330
2
100
AcDbEntity
  8
0
100
AcDbLine
 10
351.8534853879003
 20
84.35978242167351
 30
0.0
 11
351.8534853879003
 21
76.3597782070571
 31
0.0
  0
LINE
  5
11C6
330
2
100
AcDbEntity
  8
0
100
AcDbLine
 10
342.8534853879003
 20
76.3597782070571
 30
0.0
 11
351.8534853879003
 21
76.3597782070571
 31
0.0
  0
LINE
  5
11C7
330
2
100
AcDbEntity
  8
0
100
AcDbLine
 10
351.8534853879003
 20
76.3597782070571
 30
0.0
 11
352.8534853879004
 21
75.78242793786756
 31
0.0
  0
LINE
  5
11C8
330
2
100
AcDbEntity
  8
0
100
AcDbLine
 10
342.8534853879003
 20
111.3597782070571
 30
0.0
 11
351.8534853879003
 21
111.3597782070571
 31
0.0
  0
LINE
  5
11C9
330
2
100
AcDbEntity
  8
0
100
AcDbLine
 10
351.8534853879003
 20
111.3597782070571
 30
0.0
 11
352.8534853879004
 21
111.9371284762468
 31
0.0
  0
SPLINE
  5
11CA
330
2
100
AcDbEntity
  8
HOJO
100
AcDbSpline
210
0.0
220
0.0
230
1.0
 70
     8
 71
     3
 72
    30
 73
    26
 74
     0
 42
0.0000000001
 43
0.0000000001
 40
1.073701665119103
 40
1.073701665119103
 40
1.073701665119103
 40
1.073701665119103
 40
2.18150891874031
 40
3.841179975812767
 40
6.934876563096535
 40
11.04909901775557
 40
16.09897812345541
 40
18.38468990949584
 40
20.32701975216962
 40
26.5117454990493
 40
30.46491644453404
 40
35.83302429770391
 40
42.45273464572102
 40
47.20758177775013
 40
52.22079021395813
 40
57.21977993322538
 40
60.62363657950815
 40
66.61159553569167
 40
72.16084371902148
 40
75.98229293129505
 40
79.52171565640792
 40
82.70276676995699
 40
87.04688362939927
 40
92.17949855136799
 40
93.21086260406284
 40
93.21086260406284
 40
93.21086260406284
 40
93.21086260406284
 10
273.8534853878949
 20
114.5169298047946
 30
0.0
 10
274.2546285821257
 20
114.4497576825041
 30
0.0
 10
275.2591781883387
 20
114.2527057366598
 30
0.0
 10
277.0136925815471
 20
113.2604195214602
 30
0.0
 10
280.0568956300907
 20
113.9898351076557
 30
0.0
 10
283.5139216483106
 20
111.3586829423447
 30
0.0
 10
282.8331077423148
 20
106.9561775941171
 30
0.0
 10
283.9272729483776
 20
104.0879909969466
 30
0.0
 10
287.6576067116269
 20
101.6288225628604
 30
0.0
 10
292.3539199623277
 20
103.9420540973855
 30
0.0
 10
297.2907380558166
 20
102.1561665043809
 30
0.0
 10
302.6559430144001
 20
103.5899931210146
 30
0.0
 10
308.2433348525377
 20
101.814792853426
 30
0.0
 10
313.5806961349838
 20
104.2350693376878
 30
0.0
 10
318.444485815084
 20
101.8873890514059
 30
0.0
 10
322.8682457703229
 20
103.9128906374707
 30
0.0
 10
327.6306980885641
 20
102.3292826927112
 30
0.0
 10
332.477542135642
 20
104.1072423615925
 30
0.0
 10
338.0684410396328
 20
101.5959912150116
 30
0.0
 10
341.1238528409024
 20
105.7039643589227
 30
0.0
 10
341.4479322561914
 20
109.0066147414394
 30
0.0
 10
342.0562746658655
 20
113.244997874693
 30
0.0
 10
347.2193366152827
 20
113.2113910882675
 30
0.0
 10
350.4782897099388
 20
113.3408602954752
 30
0.0
 10
352.5110622873347
 20
113.3794611176394
 30
0.0
 10
352.8534853879004
 20
113.3852113773368
 30
0.0
  0
LINE
  5
11CB
330
2
100
AcDbEntity
  8
0
100
AcDbLine
 10
342.8534853878985
 20
112.6055115575308
 30
0.0
 11
342.8534853878949
 21
103.8597824216737
 31
0.0
  0
LINE
  5
11CC
330
2
100
AcDbEntity
  8
0
100
AcDbLine
 10
281.8534853878949
 20
111.7681274815647
 30
0.0
 11
281.8534853878949
 21
103.3597824216737
 31
0.0
  0
LINE
  5
11CD
330
2
100
AcDbEntity
  8
0
100
AcDbLine
 10
274.8534853878949
 20
111.3597782070568
 30
0.0
 11
274.8534853878949
 21
103.3597824216737
 31
0.0
  0
LINE
  5
11CE
330
2
100
AcDbEntity
  8
0
100
AcDbLine
 10
281.8534853878949
 20
111.7681274815647
 30
0.0
 11
282.3279096076543
 21
111.7805507169739
 31
0.0
  0
LINE
  5
11CF
330
2
100
AcDbEntity
  8
0
100
AcDbLine
 10
274.8534853878949
 20
76.35977820705687
 30
0.0
 11
281.8534853878949
 21
76.35977820705687
 31
0.0
  0
LINE
  5
11D0
330
2
100
AcDbEntity
  8
0
100
AcDbLine
 10
281.8534853878949
 20
75.95142893254905
 30
0.0
 11
281.8534853878949
 21
84.35977399244
 31
0.0
  0
LINE
  5
11D1
330
2
100
AcDbEntity
  8
0
100
AcDbLine
 10
281.8534853878949
 20
75.95142893254905
 30
0.0
 11
282.3279096076543
 21
75.93900569713986
 31
0.0
  0
LINE
  5
11D2
330
2
100
AcDbEntity
  8
0
100
AcDbLine
 10
274.8534853878949
 20
76.35977820705687
 30
0.0
 11
273.8534853878949
 21
75.78242793786734
 31
0.0
  0
LINE
  5
11D3
330
2
100
AcDbEntity
  8
0
100
AcDbLine
 10
274.8534853878949
 20
76.35977820705687
 30
0.0
 11
274.8534853878949
 21
84.35978242167374
 31
0.0
  0
LINE
  5
11D4
330
2
100
AcDbEntity
  8
0
100
AcDbLine
 10
351.8534853879003
 20
111.3597782070571
 30
0.0
 11
344.8534853879003
 21
103.3597824216737
 31
0.0
  0
LINE
  5
11D5
330
2
100
AcDbEntity
  8
0
100
AcDbLine
 10
344.8534853879003
 20
111.3597782070571
 30
0.0
 11
351.8534853879003
 21
103.3597824216737
 31
0.0
  0
LINE
  5
11D6
330
2
100
AcDbEntity
  8
0
100
AcDbLine
 10
351.8534853879003
 20
84.35977399244046
 30
0.0
 11
344.8534853879003
 21
76.3597782070571
 31
0.0
  0
LINE
  5
11D7
330
2
100
AcDbEntity
  8
0
100
AcDbLine
 10
344.8534853879003
 20
84.35977399244046
 30
0.0
 11
351.8534853879003
 21
76.3597782070571
 31
0.0
  0
LINE
  5
11D8
330
2
100
AcDbEntity
  8
0
100
AcDbLine
 10
344.8534853879003
 20
84.35977399244046
 30
0.0
 11
344.8534853879003
 21
76.3597782070571
 31
0.0
  0
LINE
  5
11D9
330
2
100
AcDbEntity
  8
0
100
AcDbLine
 10
274.8534853878949
 20
111.3597782070568
 30
0.0
 11
281.8534853878949
 21
103.3597824216737
 31
0.0
  0
LINE
  5
11DA
330
2
100
AcDbEntity
  8
0
100
AcDbLine
 10
274.8534853878949
 20
103.3597824216737
 30
0.0
 11
281.8534853878949
 21
111.3597782070568
 31
0.0
  0
LINE
  5
11DB
330
2
100
AcDbEntity
  8
0
100
AcDbLine
 10
281.8534853878949
 20
84.35977399244
 30
0.0
 11
274.8534853878949
 21
76.35977820705687
 31
0.0
  0
LINE
  5
11DC
330
2
100
AcDbEntity
  8
0
100
AcDbLine
 10
274.8534853878949
 20
84.35978242167374
 30
0.0
 11
281.8534853878949
 21
76.35977820705687
 31
0.0
  0
LINE
  5
11DD
330
2
100
AcDbEntity
  8
CENTER
100
AcDbLine
 10
356.3534853878949
 20
98.3246712053828
 30
0.0
 11
356.3534853878949
 21
106.1118983847567
 31
0.0
  0
LINE
  5
11DE
330
2
100
AcDbEntity
  8
0
100
AcDbLine
 10
342.8534853878949
 20
263.6262669342774
 30
0.0
 11
332.8534853879003
 21
263.6262669342774
 31
0.0
  0
LINE
  5
11DF
330
2
100
AcDbEntity
  8
0
100
AcDbLine
 10
342.8534853878949
 20
244.6262669342772
 30
0.0
 11
332.8534853879003
 21
244.6262669342772
 31
0.0
  0
LINE
  5
11E0
330
2
100
AcDbEntity
  8
0
100
AcDbLine
 10
342.8534853878949
 20
244.6262669342774
 30
0.0
 11
342.8534853878949
 21
263.6262669342774
 31
0.0
  0
LINE
  5
11E1
330
2
100
AcDbEntity
  8
0
100
AcDbLine
 10
251.8534853878949
 20
263.6262669342774
 30
0.0
 11
253.8534853878949
 21
263.6262669342776
 31
0.0
  0
LINE
  5
11E2
330
2
100
AcDbEntity
  8
0
100
AcDbLine
 10
251.8534853878949
 20
244.6262669342774
 30
0.0
 11
253.8534853878949
 21
244.6262669342774
 31
0.0
  0
LINE
  5
11E3
330
2
100
AcDbEntity
  8
0
100
AcDbLine
 10
251.8534853878949
 20
263.6262669342774
 30
0.0
 11
251.8534853878949
 21
244.6262669342772
 31
0.0
  0
CIRCLE
  5
11E4
330
2
100
AcDbEntity
  8
HOJO
100
AcDbCircle
 10
336.3534853878949
 20
254.1262627196605
 30
0.0
 40
1.499999999999772
  0
CIRCLE
  5
11E5
330
2
100
AcDbEntity
  8
0
100
AcDbCircle
 10
336.3534853878949
 20
254.1262627196605
 30
0.0
 40
1.199999999999818
  0
LINE
  5
11E6
330
2
100
AcDbEntity
  8
CENTER
100
AcDbLine
 10
336.3534853878949
 20
258.0787822266369
 30
0.0
 11
336.3534853878949
 21
250.1737432126844
 31
0.0
  0
ARC
  5
11E7
330
2
100
AcDbEntity
  8
0
100
AcDbCircle
 10
435.0440515349068
 20
254.1262627196637
 30
0.0
 40
6.0
100
AcDbArc
 50
109.4712206344723
 51
70.52877936552764
  0
LINE
  5
11E8
330
2
100
AcDbEntity
  8
0
100
AcDbLine
 10
437.0440515349067
 20
261.9262627196637
 30
0.0
 11
433.0440515349067
 21
261.9262627196637
 31
0.0
  0
LINE
  5
11E9
330
2
100
AcDbEntity
  8
0
100
AcDbLine
 10
437.0440515349067
 20
259.7831169691561
 30
0.0
 11
437.0440515349067
 21
261.9262627196637
 31
0.0
  0
LINE
  5
11EA
330
2
100
AcDbEntity
  8
0
100
AcDbLine
 10
433.0440515349067
 20
259.7831169691561
 30
0.0
 11
433.0440515349067
 21
261.9262627196637
 31
0.0
  0
CIRCLE
  5
11EB
330
2
100
AcDbEntity
  8
0
100
AcDbCircle
 10
435.0440515349077
 20
254.126262719664
 30
0.0
 40
9.500004214613113
  0
ARC
  5
11EC
330
2
100
AcDbEntity
  8
0
100
AcDbCircle
 10
161.921061296059
 20
254.1262627196642
 30
0.0
 40
6.0
100
AcDbArc
 50
109.4712206344723
 51
70.52877936552764
  0
LINE
  5
11ED
330
2
100
AcDbEntity
  8
0
100
AcDbLine
 10
163.921061296059
 20
261.9262627196643
 30
0.0
 11
159.921061296059
 21
261.9262627196643
 31
0.0
  0
LINE
  5
11EE
330
2
100
AcDbEntity
  8
0
100
AcDbLine
 10
163.921061296059
 20
259.7831169691566
 30
0.0
 11
163.921061296059
 21
261.9262627196643
 31
0.0
  0
LINE
  5
11EF
330
2
100
AcDbEntity
  8
0
100
AcDbLine
 10
159.921061296059
 20
259.7831169691566
 30
0.0
 11
159.921061296059
 21
261.9262627196643
 31
0.0
  0
CIRCLE
  5
11F0
330
2
100
AcDbEntity
  8
0
100
AcDbCircle
 10
161.921061296059
 20
254.1262627196646
 30
0.0
 40
9.500004214613113
  0
LINE
  5
11F1
330
2
100
AcDbEntity
  8
0
100
AcDbLine
 10
444.5440557495243
 20
393.2037330077254
 30
0.0
 11
444.5440557495243
 21
403.2037330077195
 31
0.0
  0
LINE
  5
11F2
330
2
100
AcDbEntity
  8
0
100
AcDbLine
 10
425.5440557495234
 20
393.2037330077254
 30
0.0
 11
425.5440557495234
 21
403.2037330077195
 31
0.0
  0
LINE
  5
11F3
330
2
100
AcDbEntity
  8
0
100
AcDbLine
 10
425.5440557495242
 20
393.2037330077254
 30
0.0
 11
444.5440557495243
 21
393.2037330077254
 31
0.0
  0
LINE
  5
11F4
330
2
100
AcDbEntity
  8
0
100
AcDbLine
 10
444.5440557495243
 20
484.2037330077253
 30
0.0
 11
444.5440557495243
 21
482.2037330077256
 31
0.0
  0
LINE
  5
11F5
330
2
100
AcDbEntity
  8
0
100
AcDbLine
 10
425.5440557495242
 20
484.2037330077253
 30
0.0
 11
425.5440557495242
 21
482.2037330077256
 31
0.0
  0
LINE
  5
11F6
330
2
100
AcDbEntity
  8
0
100
AcDbLine
 10
444.5440557495243
 20
484.2037330077254
 30
0.0
 11
425.5440557495234
 21
484.2037330077253
 31
0.0
  0
CIRCLE
  5
11F7
330
2
100
AcDbEntity
  8
HOJO
100
AcDbCircle
 10
435.0440515349068
 20
399.7037330077252
 30
0.0
 40
1.499999999999772
  0
CIRCLE
  5
11F8
330
2
100
AcDbEntity
  8
0
100
AcDbCircle
 10
435.0440515349068
 20
399.7037330077252
 30
0.0
 40
1.199999999999818
  0
LINE
  5
11F9
330
2
100
AcDbEntity
  8
CENTER
100
AcDbLine
 10
438.9965710418831
 20
399.7037330077255
 30
0.0
 11
431.0915320279312
 21
399.7037330077255
 31
0.0
  0
SPLINE
  5
11FA
330
2
100
AcDbEntity
  8
HOJO
100
AcDbSpline
210
0.0
220
0.0
230
1.0
 70
     8
 71
     3
 72
    30
 73
    26
 74
     0
 42
0.0000000001
 43
0.0000000001
 40
1.073701665119103
 40
1.073701665119103
 40
1.073701665119103
 40
1.073701665119103
 40
2.18150891874031
 40
3.841179975812767
 40
6.934876563096535
 40
11.04909901775557
 40
16.09897812345541
 40
18.38468990949584
 40
20.32701975216962
 40
26.5117454990493
 40
30.46491644453404
 40
35.83302429770391
 40
42.45273464572102
 40
47.20758177775013
 40
52.22079021395813
 40
57.21977993322538
 40
60.62363657950815
 40
66.61159553569167
 40
72.16084371902148
 40
75.98229293129505
 40
79.52171565640792
 40
82.70276676995699
 40
87.04688362939927
 40
92.17949855136799
 40
93.21086260406284
 40
93.21086260406284
 40
93.21086260406284
 40
93.21086260406284
 10
273.8534853878949
 20
73.20262660931888
 30
0.0
 10
274.2546285821257
 20
73.26979873160934
 30
0.0
 10
275.2591781883387
 20
73.46685067745369
 30
0.0
 10
277.0136925815471
 20
74.45913689265347
 30
0.0
 10
280.0568956300907
 20
73.72972130645774
 30
0.0
 10
283.5139216483106
 20
76.36087347176903
 30
0.0
 10
282.8331077423148
 20
80.76337881999638
 30
0.0
 10
283.9272729483776
 20
83.6315654171671
 30
0.0
 10
287.6576067116269
 20
86.09073385125332
 30
0.0
 10
292.3539199623277
 20
83.7775023167282
 30
0.0
 10
297.2907380558166
 20
85.56338990973285
 30
0.0
 10
302.6559430144001
 20
84.1295632930989
 30
0.0
 10
308.2433348525377
 20
85.90476356068752
 30
0.0
 10
313.5806961349838
 20
83.48448707642564
 30
0.0
 10
318.444485815084
 20
85.8321673627076
 30
0.0
 10
322.8682457703229
 20
83.80666577664277
 30
0.0
 10
327.6306980885641
 20
85.39027372140225
 30
0.0
 10
332.477542135642
 20
83.61231405252096
 30
0.0
 10
338.0684410396328
 20
86.12356519910207
 30
0.0
 10
341.1238528409024
 20
82.01559205519078
 30
0.0
 10
341.4479322561914
 20
78.71294167267405
 30
0.0
 10
342.0562746658655
 20
74.47455853942045
 30
0.0
 10
347.2193366152827
 20
74.50816532584616
 30
0.0
 10
350.4782897099388
 20
74.37869611863829
 30
0.0
 10
352.5110622873347
 20
74.34009529647432
 30
0.0
 10
352.8534853879004
 20
74.33434503677671
 30
0.0
  0
CIRCLE
  5
11FB
330
2
100
AcDbEntity
  8
0
100
AcDbCircle
 10
435.0440515349068
 20
254.1262627196642
 30
0.0
 40
18.0774
  0
LINE
  5
11FC
330
2
100
AcDbEntity
  8
PHAS
  6
SEKKEI_P_S
100
AcDbLine
 10
235.8534853878949
 20
242.5901521751331
 30
0.0
 11
235.8534853878949
 21
265.6623582641879
 31
0.0
  0
LINE
  5
11FD
330
2
100
AcDbEntity
  8
PHAS
  6
SEKKEI_P_S
100
AcDbLine
 10
239.9852071443823
 20
237.6661199969439
 30
0.0
 11
250.7270813878943
 21
235.7719537196605
 31
0.0
  0
ARC
  5
11FE
330
2
100
AcDbEntity
  8
PHAS
  6
SEKKEI_P_S
100
AcDbCircle
 10
240.8534853878949
 20
242.5901521751331
 30
0.0
 40
5.0
100
AcDbArc
 50
180.0
 51
259.9995653374257
  0
LINE
  5
11FF
330
2
100
AcDbEntity
  8
PHAS
  6
SEKKEI_P_S
100
AcDbLine
 10
251.5534823878964
 20
276.0071527196607
 30
0.0
 11
251.5534823878946
 21
232.2453577196605
 31
0.0
  0
ARC
  5
1200
330
2
100
AcDbEntity
  8
PHAS
  6
SEKKEI_P_S
100
AcDbCircle
 10
250.5534823878946
 20
234.7871517196606
 30
0.0
 40
1.0
100
AcDbArc
 50
0.0
 51
79.99999999999483
  0
LINE
  5
1201
330
2
100
AcDbEntity
  8
PHAS
  6
SEKKEI_P_S
100
AcDbLine
 10
261.3534853878931
 20
228.1262627196606
 30
0.0
 11
261.3534853878949
 21
280.1262627196606
 31
0.0
  0
ARC
  5
1202
330
2
100
AcDbEntity
  8
PHAS
  6
SEKKEI_P_S
100
AcDbCircle
 10
240.8534853878949
 20
265.6623582641879
 30
0.0
 40
5.0
100
AcDbArc
 50
100.0004346625742
 51
180.0
  0
LINE
  5
1203
330
2
100
AcDbEntity
  8
PHAS
  6
SEKKEI_P_S
100
AcDbLine
 10
239.9852071443823
 20
270.5863904423771
 30
0.0
 11
250.7270813878943
 21
272.4805567196605
 31
0.0
  0
ARC
  5
1204
330
2
100
AcDbEntity
  8
PHAS
  6
SEKKEI_P_S
100
AcDbCircle
 10
254.5534823878946
 20
276.0071527196604
 30
0.0
 40
3.0
100
AcDbArc
 50
103.0417940599507
 51
179.9999999999967
  0
ARC
  5
1205
330
2
100
AcDbEntity
  8
PHAS
  6
SEKKEI_P_S
100
AcDbCircle
 10
250.5534823878946
 20
273.4653587196605
 30
0.0
 40
1.0
100
AcDbArc
 50
280.0000000000051
 51
0.0
  0
LINE
  5
1206
330
2
100
AcDbEntity
  8
PHAS
  6
SEKKEI_P_S
100
AcDbLine
 10
258.8534853878949
 20
280.0826227196607
 30
0.0
 11
253.8764971595349
 21
278.9297698688239
 31
0.0
  0
LINE
  5
1207
330
2
100
AcDbEntity
  8
PHAS
  6
SEKKEI_P_S
100
AcDbLine
 10
258.8534853878949
 20
280.0826227196607
 30
0.0
 11
261.3534853878949
 21
280.1262627196606
 31
0.0
  0
ARC
  5
1208
330
2
100
AcDbEntity
  8
PHAS
  6
SEKKEI_P_S
100
AcDbCircle
 10
254.5534823878946
 20
232.2453727196606
 30
0.0
 40
3.0
100
AcDbArc
 50
180.0
 51
256.9582059400491
  0
LINE
  5
1209
330
2
100
AcDbEntity
  8
PHAS
  6
SEKKEI_P_S
100
AcDbLine
 10
258.8534853878949
 20
228.1699027196604
 30
0.0
 11
253.8764971595349
 21
229.3227555704972
 31
0.0
  0
LINE
  5
120A
330
2
100
AcDbEntity
  8
PHAS
  6
SEKKEI_P_S
100
AcDbLine
 10
258.8534853878949
 20
228.1699027196604
 30
0.0
 11
261.3534853878931
 21
228.1262627196606
 31
0.0
  0
ARC
  5
120B
330
2
100
AcDbEntity
  8
0
100
AcDbCircle
 10
435.0440515349077
 20
254.126262719664
 30
0.0
 40
7.154704752992188
100
AcDbArc
 50
106.2325341514329
 51
73.76746584856705
  0
ARC
  5
120C
330
2
100
AcDbEntity
  8
0
100
AcDbCircle
 10
161.921061296059
 20
254.1262627196642
 30
0.0
 40
7.154704752992188
100
AcDbArc
 50
106.2325341514329
 51
73.76746584856705
  0
CIRCLE
  5
120D
330
2
100
AcDbEntity
  8
0
100
AcDbCircle
 10
435.0440515349068
 20
254.1262627196642
 30
0.0
 40
22.0
  0
LINE
  5
123A
330
2
100
AcDbEntity
  8
CENTER
100
AcDbLine
 10
723.2039473554867
 20
254.1262627196536
 30
0.0
 11
618.2039473554872
 21
254.1262627196538
 31
0.0
  0
LINE
  5
123B
330
2
100
AcDbEntity
  8
CENTER
100
AcDbLine
 10
678.2039473554831
 20
292.6262627196541
 30
0.0
 11
678.2039473554836
 21
215.6262627196535
 31
0.0
  0
LINE
  5
123C
330
2
100
AcDbEntity
  8
0
100
AcDbLine
 10
642.2039473554808
 20
229.1262627196603
 30
0.0
 11
642.2039473554808
 21
279.1262627196603
 31
0.0
  0
LINE
  5
123D
330
2
100
AcDbEntity
  8
0
100
AcDbLine
 10
645.2039473554808
 20
279.1262627196603
 30
0.0
 11
642.2039473554808
 21
279.1262627196603
 31
0.0
  0
LINE
  5
123E
330
2
100
AcDbEntity
  8
0
100
AcDbLine
 10
645.2039473554808
 20
229.1262627196603
 30
0.0
 11
642.2039473554808
 21
229.1262627196603
 31
0.0
  0
LINE
  5
123F
330
2
100
AcDbEntity
  8
0
100
AcDbLine
 10
645.2039473554836
 20
284.6681021606343
 30
0.0
 11
645.2039473554836
 21
223.5844232786625
 31
0.0
  0
LINE
  5
1240
330
2
100
AcDbEntity
  8
0
100
AcDbLine
 10
706.2523281596399
 20
223.0786559584391
 30
0.0
 11
678.2039473554836
 21
222.6262627196535
 31
0.0
  0
ARC
  5
1241
330
2
100
AcDbEntity
  8
0
100
AcDbCircle
 10
706.2039473554835
 20
226.0782658160357
 30
0.0
 40
3.0
100
AcDbArc
 50
270.9240453527669
 51
315.6481997521223
  0
LINE
  5
1242
330
2
100
AcDbEntity
  8
0
100
AcDbLine
 10
650.1555665513282
 20
223.0786559584391
 30
0.0
 11
678.2039473554836
 21
222.6262627196535
 31
0.0
  0
ARC
  5
1243
330
2
100
AcDbEntity
  8
0
100
AcDbCircle
 10
650.2039473554836
 20
226.0782658160357
 30
0.0
 40
3.0
100
AcDbArc
 50
224.3518002510997
 51
269.0759546471809
  0
LINE
  5
1244
330
2
100
AcDbEntity
  8
0
100
AcDbLine
 10
706.2523281596399
 20
285.1738694808684
 30
0.0
 11
678.2039473554836
 21
285.626262719654
 31
0.0
  0
LINE
  5
1245
330
2
100
AcDbEntity
  8
0
100
AcDbLine
 10
650.1555665513282
 20
285.1738694808684
 30
0.0
 11
658.8845609405852
 21
285.314659712956
 31
0.0
  0
ARC
  5
1246
330
2
100
AcDbEntity
  8
0
100
AcDbCircle
 10
706.2039473554845
 20
282.1742596232717
 30
0.0
 40
3.0
100
AcDbArc
 50
44.35180024130003
 51
89.07595464718097
  0
ARC
  5
1247
330
2
100
AcDbEntity
  8
0
100
AcDbCircle
 10
650.2039473554836
 20
282.174259623272
 30
0.0
 40
3.0
100
AcDbArc
 50
90.9240453527669
 51
135.6481997550725
  0
LINE
  5
1248
330
2
100
AcDbEntity
  8
0
100
AcDbLine
 10
635.2039473554818
 20
274.1948851700426
 30
0.0
 11
635.2039473554818
 21
234.0576402692622
 31
0.0
  0
LINE
  5
1249
330
2
100
AcDbEntity
  8
0
100
AcDbLine
 10
640.2737463488868
 20
231.9492214376304
 30
0.0
 11
637.1341483620766
 21
232.0588586152243
 31
0.0
  0
ARC
  5
124A
330
2
100
AcDbEntity
  8
0
100
AcDbCircle
 10
640.2039473554817
 20
229.9504397835925
 30
0.0
 40
2.0
100
AcDbArc
 50
0.0
 51
87.99999999999636
  0
ARC
  5
124B
330
2
100
AcDbEntity
  8
0
100
AcDbCircle
 10
637.2039473554817
 20
234.0576402692622
 30
0.0
 40
2.0
100
AcDbArc
 50
180.0
 51
267.9999999999963
  0
LINE
  5
124C
330
2
100
AcDbEntity
  8
0
100
AcDbLine
 10
640.2737463489105
 20
276.3033040016707
 30
0.0
 11
637.1341483621002
 21
276.1936668240795
 31
0.0
  0
ARC
  5
124D
330
2
100
AcDbEntity
  8
0
100
AcDbCircle
 10
640.2039473555072
 20
278.3020856557086
 30
0.0
 40
2.0
100
AcDbArc
 50
271.9999999999515
 51
359.9999999999478
  0
ARC
  5
124E
330
2
100
AcDbEntity
  8
0
100
AcDbCircle
 10
637.2039473555027
 20
274.1948851700426
 30
0.0
 40
2.0
100
AcDbArc
 50
91.99999999995149
 51
179.9999999999479
  0
LINE
  5
124F
330
2
100
AcDbEntity
  8
0
100
AcDbLine
 10
648.5813341508932
 20
284.6975761686762
 30
0.0
 11
645.2039473554836
 21
284.6681021606343
 31
0.0
  0
LINE
  5
1250
330
2
100
AcDbEntity
  8
0
100
AcDbLine
 10
648.5813341508941
 20
223.5549492706194
 30
0.0
 11
645.2039473554836
 21
223.5844232786625
 31
0.0
  0
LINE
  5
1251
330
2
100
AcDbEntity
  8
0
100
AcDbLine
 10
714.2039473554881
 20
276.5489124504649
 30
0.0
 11
714.2039473554881
 21
231.7036129888426
 31
0.0
  0
LINE
  5
1252
330
2
100
AcDbEntity
  8
0
100
AcDbLine
 10
709.5039473554874
 20
277.126262719654
 30
0.0
 11
709.3329796135451
 21
277.126262719654
 31
0.0
  0
LINE
  5
1253
330
2
100
AcDbEntity
  8
0
100
AcDbLine
 10
713.2039473554872
 20
277.1262627196544
 30
0.0
 11
714.2039473554881
 21
276.5489124504649
 31
0.0
  0
LINE
  5
1254
330
2
100
AcDbEntity
  8
0
100
AcDbLine
 10
709.7039473554881
 20
276.9262627196537
 30
0.0
 11
709.5039473554874
 21
277.126262719654
 31
0.0
  0
LINE
  5
1255
330
2
100
AcDbEntity
  8
0
100
AcDbLine
 10
713.2039473554881
 20
277.1262627196544
 30
0.0
 11
711.903947355487
 21
277.126262719654
 31
0.0
  0
LINE
  5
1256
330
2
100
AcDbEntity
  8
0
100
AcDbLine
 10
711.7039473554881
 20
276.9262627196541
 30
0.0
 11
711.7039473554881
 21
231.3262627196531
 31
0.0
  0
LINE
  5
1257
330
2
100
AcDbEntity
  8
0
100
AcDbLine
 10
711.5039473554873
 20
276.4262627196541
 30
0.0
 11
709.903947355487
 21
276.4262627196539
 31
0.0
  0
LINE
  5
1258
330
2
100
AcDbEntity
  8
0
100
AcDbLine
 10
709.7039473554881
 20
276.9262627196537
 30
0.0
 11
709.7039473554881
 21
231.3262627196533
 31
0.0
  0
LINE
  5
1259
330
2
100
AcDbEntity
  8
0
100
AcDbLine
 10
709.5039473554874
 20
231.1262627196535
 30
0.0
 11
709.3329796135452
 21
231.1262627196535
 31
0.0
  0
LINE
  5
125A
330
2
100
AcDbEntity
  8
0
100
AcDbLine
 10
711.5039473554873
 20
231.8262627196531
 30
0.0
 11
709.903947355487
 21
231.8262627196533
 31
0.0
  0
LINE
  5
125B
330
2
100
AcDbEntity
  8
0
100
AcDbLine
 10
709.7039473554881
 20
231.3262627196533
 30
0.0
 11
709.5039473554874
 21
231.1262627196535
 31
0.0
  0
LINE
  5
125C
330
2
100
AcDbEntity
  8
0
100
AcDbLine
 10
713.2039473554872
 20
231.126262719653
 30
0.0
 11
714.2039473554881
 21
231.7036129888426
 31
0.0
  0
LINE
  5
125D
330
2
100
AcDbEntity
  8
0
100
AcDbLine
 10
713.2039473554881
 20
231.126262719653
 30
0.0
 11
711.903947355487
 21
231.126262719653
 31
0.0
  0
ARC
  5
125E
330
2
100
AcDbEntity
  8
0
100
AcDbCircle
 10
711.903947355487
 20
231.3262627196531
 30
0.0
 40
0.2
100
AcDbArc
 50
180.0
 51
270.0
  0
ARC
  5
125F
330
2
100
AcDbEntity
  8
0
100
AcDbCircle
 10
711.5039473554873
 20
231.626262719653
 30
0.0
 40
0.2
100
AcDbArc
 50
0.0
 51
90.0
  0
ARC
  5
1260
330
2
100
AcDbEntity
  8
0
100
AcDbCircle
 10
709.903947355487
 20
231.6262627196535
 30
0.0
 40
0.2
100
AcDbArc
 50
90.0
 51
180.0
  0
ARC
  5
1261
330
2
100
AcDbEntity
  8
0
100
AcDbCircle
 10
711.903947355487
 20
276.9262627196541
 30
0.0
 40
0.2
100
AcDbArc
 50
90.0
 51
180.0
  0
ARC
  5
1262
330
2
100
AcDbEntity
  8
0
100
AcDbCircle
 10
711.5039473554873
 20
276.6262627196542
 30
0.0
 40
0.2
100
AcDbArc
 50
270.0
 51
0.0
  0
ARC
  5
1263
330
2
100
AcDbEntity
  8
0
100
AcDbCircle
 10
709.903947355487
 20
276.6262627196539
 30
0.0
 40
0.2
100
AcDbArc
 50
180.0
 51
270.0
  0
LINE
  5
1264
330
2
100
AcDbEntity
  8
0
100
AcDbLine
 10
713.2039473554872
 20
277.1262627196544
 30
0.0
 11
713.2039473554872
 21
231.126262719653
 31
0.0
  0
LINE
  5
1265
330
2
100
AcDbEntity
  8
0
100
AcDbLine
 10
709.5039473554874
 20
231.1262627196535
 30
0.0
 11
709.5039473554874
 21
277.126262719654
 31
0.0
  0
LINE
  5
1266
330
2
100
AcDbEntity
  8
0
100
AcDbLine
 10
709.7039473554899
 20
223.8762627196501
 30
0.0
 11
708.2413924132728
 21
223.8762627196499
 31
0.0
  0
LINE
  5
1267
330
2
100
AcDbEntity
  8
0
100
AcDbLine
 10
709.7039473554899
 20
232.3762627196501
 30
0.0
 11
709.7039473554899
 21
223.8762627196501
 31
0.0
  0
LINE
  5
1268
330
2
100
AcDbEntity
  8
0
100
AcDbLine
 10
709.7039473554899
 20
223.8762627196501
 30
0.0
 11
710.003947355491
 21
224.395877961921
 31
0.0
  0
LINE
  5
1269
330
2
100
AcDbEntity
  8
0
100
AcDbLine
 10
710.003947355491
 20
231.8262627196533
 30
0.0
 11
710.003947355491
 21
224.395877961921
 31
0.0
  0
LINE
  5
126A
330
2
100
AcDbEntity
  8
0
100
AcDbLine
 10
709.7039473554899
 20
284.3762627196574
 30
0.0
 11
708.2413924132728
 21
284.3762627196571
 31
0.0
  0
LINE
  5
126B
330
2
100
AcDbEntity
  8
0
100
AcDbLine
 10
709.7039473554899
 20
275.8762627196574
 30
0.0
 11
709.7039473554899
 21
284.3762627196574
 31
0.0
  0
LINE
  5
126C
330
2
100
AcDbEntity
  8
0
100
AcDbLine
 10
709.7039473554899
 20
284.3762627196574
 30
0.0
 11
710.003947355491
 21
283.8566474773865
 31
0.0
  0
LINE
  5
126D
330
2
100
AcDbEntity
  8
0
100
AcDbLine
 10
710.0039473554901
 20
276.4262627196541
 30
0.0
 11
710.003947355491
 21
283.8566474773865
 31
0.0
  0
LINE
  5
126E
330
2
100
AcDbEntity
  8
0
100
AcDbLine
 10
625.2039473554872
 20
263.6262669342706
 30
0.0
 11
635.2039473554818
 21
263.6262669342706
 31
0.0
  0
LINE
  5
126F
330
2
100
AcDbEntity
  8
0
100
AcDbLine
 10
625.2039473554872
 20
244.6262669342706
 30
0.0
 11
635.2039473554818
 21
244.6262669342706
 31
0.0
  0
LINE
  5
1270
330
2
100
AcDbEntity
  8
0
100
AcDbLine
 10
625.2039473554872
 20
244.6262669342706
 30
0.0
 11
625.2039473554872
 21
263.6262669342706
 31
0.0
  0
LINE
  5
1271
330
2
100
AcDbEntity
  8
0
100
AcDbLine
 10
716.2039473554872
 20
263.6262669342706
 30
0.0
 11
714.2039473554872
 21
263.6262669342706
 31
0.0
  0
LINE
  5
1272
330
2
100
AcDbEntity
  8
0
100
AcDbLine
 10
716.2039473554872
 20
244.6262669342706
 30
0.0
 11
714.2039473554872
 21
244.6262669342706
 31
0.0
  0
LINE
  5
1273
330
2
100
AcDbEntity
  8
0
100
AcDbLine
 10
716.2039473554872
 20
263.6262669342706
 30
0.0
 11
716.2039473554872
 21
244.6262669342706
 31
0.0
  0
CIRCLE
  5
1275
330
2
100
AcDbEntity
  8
HIDS
100
AcDbCircle
 10
678.2039473554808
 20
254.1262627196487
 30
0.0
 40
30.0
  0
LINE
  5
1276
330
2
100
AcDbEntity
  8
0
100
AcDbLine
 10
648.276711917886
 20
229.1117183303089
 30
0.0
 11
648.2039473554813
 21
254.1262627196487
 31
0.0
  0
LINE
  5
1277
330
2
100
AcDbEntity
  8
0
100
AcDbLine
 10
708.1311827930766
 20
229.1117183303085
 30
0.0
 11
708.2039473554813
 21
254.1262627196487
 31
0.0
  0
LINE
  5
1278
330
2
100
AcDbEntity
  8
0
100
AcDbLine
 10
709.2515541167044
 20
226.0778819154938
 30
0.0
 11
709.7039473554795
 21
254.1262627196519
 31
0.0
  0
LINE
  5
1279
330
2
100
AcDbEntity
  8
0
100
AcDbLine
 10
647.1563405942573
 20
226.0778819154938
 30
0.0
 11
646.7039473554822
 21
254.1262627196519
 31
0.0
  0
CIRCLE
  5
127A
330
2
100
AcDbEntity
  8
0
100
AcDbCircle
 10
678.2039473554808
 20
254.1262627196487
 30
0.0
 40
25.00000000345432
  0
LINE
  5
127B
330
2
100
AcDbEntity
  8
0
100
AcDbLine
 10
653.2766907639151
 20
224.1262627196487
 30
0.0
 11
703.1312039470475
 21
224.1262627196487
 31
0.0
  0
LINE
  5
127C
330
2
100
AcDbEntity
  8
0
100
AcDbLine
 10
650.155950451854
 20
223.1262627196487
 30
0.0
 11
706.2519442591077
 21
223.1262627196487
 31
0.0
  0
ARC
  5
127D
330
2
100
AcDbEntity
  8
0
100
AcDbCircle
 10
653.2766907639151
 20
229.1262627196487
 30
0.0
 40
5.0
100
AcDbArc
 50
180.1666666600049
 51
270.0
  0
ARC
  5
127E
330
2
100
AcDbEntity
  8
0
100
AcDbCircle
 10
650.155950451854
 20
226.1262627196487
 30
0.0
 40
3.0
100
AcDbArc
 50
180.9240453527669
 51
270.0
  0
ARC
  5
127F
330
2
100
AcDbEntity
  8
0
100
AcDbCircle
 10
703.1312039470475
 20
229.1262627196487
 30
0.0
 40
5.0
100
AcDbArc
 50
270.0
 51
359.833333339995
  0
ARC
  5
1280
330
2
100
AcDbEntity
  8
0
100
AcDbCircle
 10
706.2519442591077
 20
226.1262627196487
 30
0.0
 40
3.0
100
AcDbArc
 50
270.0
 51
359.0759546472331
  0
LINE
  5
1281
330
2
100
AcDbEntity
  8
HIDS
100
AcDbLine
 10
698.2382482195625
 20
226.0913579067741
 30
0.0
 11
698.3173767557481
 21
230.6246287087337
 31
0.0
  0
ARC
  5
1282
330
2
100
AcDbEntity
  8
HIDS
100
AcDbCircle
 10
696.2385528292497
 20
226.1262627196487
 30
0.0
 40
2.0
100
AcDbArc
 50
270.0
 51
358.9999999999852
  0
ARC
  5
1283
330
2
100
AcDbEntity
  8
HIDS
100
AcDbCircle
 10
701.3169198412173
 20
230.5722714894217
 30
0.0
 40
3.0
100
AcDbArc
 50
134.458551434695
 51
178.9999999999982
  0
LINE
  5
1284
330
2
100
AcDbEntity
  8
0
100
AcDbLine
 10
653.2766907639151
 20
284.1262627196487
 30
0.0
 11
703.1312039470475
 21
284.1262627196487
 31
0.0
  0
LINE
  5
1285
330
2
100
AcDbEntity
  8
0
100
AcDbLine
 10
650.155950451854
 20
285.1262627196487
 30
0.0
 11
658.8309640092746
 21
285.1262627196487
 31
0.0
  0
LINE
  5
1286
330
2
100
AcDbEntity
  8
0
100
AcDbLine
 10
676.5769307016911
 20
285.1262627196487
 30
0.0
 11
706.2519442591077
 21
285.1262627196487
 31
0.0
  0
LINE
  5
1287
330
2
100
AcDbEntity
  8
0
100
AcDbLine
 10
648.276711917886
 20
279.1408071089885
 30
0.0
 11
648.2039473554813
 21
254.1262627196487
 31
0.0
  0
LINE
  5
1288
330
2
100
AcDbEntity
  8
0
100
AcDbLine
 10
647.1563405942573
 20
282.1746435238036
 30
0.0
 11
646.7039473554822
 21
254.1262627196519
 31
0.0
  0
LINE
  5
1289
330
2
100
AcDbEntity
  8
HIDS
100
AcDbLine
 10
661.9539473554818
 20
284.1262627196487
 30
0.0
 11
662.2015154741583
 21
269.9430946996528
 31
0.0
  0
LINE
  5
128A
330
2
100
AcDbEntity
  8
0
100
AcDbLine
 10
646.7039473554808
 20
254.1262627196487
 30
0.0
 11
648.2039473554809
 21
254.1262627196082
 31
0.0
  0
ARC
  5
128B
330
2
100
AcDbEntity
  8
0
100
AcDbCircle
 10
653.2766907639151
 20
279.1262627196487
 30
0.0
 40
5.0
100
AcDbArc
 50
90.0
 51
179.833333339995
  0
ARC
  5
128C
330
2
100
AcDbEntity
  8
0
100
AcDbCircle
 10
650.155950451854
 20
282.1262627196487
 30
0.0
 40
3.0
100
AcDbArc
 50
90.0
 51
179.075954647233
  0
LINE
  5
128D
330
2
100
AcDbEntity
  8
HIDS
100
AcDbLine
 10
673.4539473554808
 20
284.1262627196487
 30
0.0
 11
673.3136457316358
 21
276.0883880728119
 31
0.0
  0
LINE
  5
128E
330
2
100
AcDbEntity
  8
0
100
AcDbLine
 10
708.1311827930766
 20
279.140807108989
 30
0.0
 11
708.2039473554813
 21
254.1262627196487
 31
0.0
  0
LINE
  5
128F
330
2
100
AcDbEntity
  8
0
100
AcDbLine
 10
709.2515541167044
 20
282.1746435238036
 30
0.0
 11
709.7039473554795
 21
254.1262627196519
 31
0.0
  0
LINE
  5
1290
330
2
100
AcDbEntity
  8
0
100
AcDbLine
 10
708.2039473554808
 20
254.1262627196355
 30
0.0
 11
709.7039473554808
 21
254.1262627196487
 31
0.0
  0
ARC
  5
1291
330
2
100
AcDbEntity
  8
0
100
AcDbCircle
 10
703.1312039470475
 20
279.1262627196487
 30
0.0
 40
5.0
100
AcDbArc
 50
0.1666666599919691
 51
90.0
  0
ARC
  5
1292
330
2
100
AcDbEntity
  8
0
100
AcDbCircle
 10
706.2519442591077
 20
282.1262627196487
 30
0.0
 40
3.0
100
AcDbArc
 50
0.9240453527669025
 51
90.0
  0
LINE
  5
1293
330
2
100
AcDbEntity
  8
CENTER
100
AcDbLine
 10
653.4552100139515
 20
282.375000061178
 30
0.0
 11
653.4552100139515
 21
275.375000061178
 31
0.0
  0
LINE
  5
1294
330
2
100
AcDbEntity
  8
CENTER
100
AcDbLine
 10
656.9552100139516
 20
278.875000061178
 30
0.0
 11
649.9552100139516
 21
278.875000061178
 31
0.0
  0
LINE
  5
1295
330
2
100
AcDbEntity
  8
CENTER
100
AcDbLine
 10
649.9552100139521
 20
229.3775253781195
 30
0.0
 11
656.955210013952
 21
229.3775253781195
 31
0.0
  0
LINE
  5
1296
330
2
100
AcDbEntity
  8
CENTER
100
AcDbLine
 10
653.4552100139521
 20
232.8775253781194
 30
0.0
 11
653.4552100139521
 21
225.8775253781195
 31
0.0
  0
LINE
  5
1297
330
2
100
AcDbEntity
  8
CENTER
100
AcDbLine
 10
702.95268469701
 20
225.8775253781199
 30
0.0
 11
702.95268469701
 21
232.8775253781199
 31
0.0
  0
LINE
  5
1298
330
2
100
AcDbEntity
  8
CENTER
100
AcDbLine
 10
699.4526846970101
 20
229.3775253781199
 30
0.0
 11
706.4526846970101
 21
229.3775253781199
 31
0.0
  0
LINE
  5
1299
330
2
100
AcDbEntity
  8
CENTER
100
AcDbLine
 10
706.4526846970101
 20
278.875000061178
 30
0.0
 11
699.4526846970101
 21
278.875000061178
 31
0.0
  0
LINE
  5
129A
330
2
100
AcDbEntity
  8
CENTER
100
AcDbLine
 10
702.95268469701
 20
275.375000061178
 30
0.0
 11
702.95268469701
 21
282.375000061178
 31
0.0
  0
CIRCLE
  5
129B
330
2
100
AcDbEntity
  8
CENTER
100
AcDbCircle
 10
678.2039473554808
 20
254.1262627196487
 30
0.0
 40
35.00000000000006
  0
LINE
  5
129D
330
2
100
AcDbEntity
  8
0
100
AcDbLine
 10
663.4730274928268
 20
253.3762627196519
 30
0.0
 11
667.7039473554831
 21
253.3762627196519
 31
0.0
  0
LINE
  5
129E
330
2
100
AcDbEntity
  8
0
100
AcDbLine
 10
663.4730274928268
 20
254.8762627196519
 30
0.0
 11
667.7039473554831
 21
254.8762627196519
 31
0.0
  0
LINE
  5
129F
330
2
100
AcDbEntity
  8
0
100
AcDbLine
 10
692.2039473554831
 20
254.8762627196519
 30
0.0
 11
692.2039473554831
 21
253.3762627196519
 31
0.0
  0
LINE
  5
12A0
330
2
100
AcDbEntity
  8
0
100
AcDbLine
 10
685.1636528090206
 20
254.8762627196519
 30
0.0
 11
692.2039473554831
 21
254.8762627196519
 31
0.0
  0
LINE
  5
12A1
330
2
100
AcDbEntity
  8
0
100
AcDbLine
 10
692.2039473554831
 20
253.3762627196519
 30
0.0
 11
685.1636528090197
 21
253.3762627196519
 31
0.0
  0
LINE
  5
12A2
330
2
100
AcDbEntity
  8
HIDS
100
AcDbLine
 10
671.7039473554827
 20
267.3668253965174
 30
0.0
 11
671.7039473554827
 21
259.1262627196519
 31
0.0
  0
LINE
  5
12A3
330
2
100
AcDbEntity
  8
HIDS
100
AcDbLine
 10
669.3706140221496
 20
244.5929293863186
 30
0.0
 11
669.3706140221496
 21
242.3137810912125
 31
0.0
  0
LINE
  5
12A4
330
2
100
AcDbEntity
  8
HIDS
100
AcDbLine
 10
669.7039473554826
 20
253.3762627196519
 30
0.0
 11
669.7039473554826
 21
242.0716992684105
 31
0.0
  0
LINE
  5
12A5
330
2
100
AcDbEntity
  8
HIDS
100
AcDbLine
 10
665.2039473554826
 20
259.1262627196519
 30
0.0
 11
665.2039473554826
 21
254.8762627196519
 31
0.0
  0
LINE
  5
12A6
330
2
100
AcDbEntity
  8
HIDS
100
AcDbLine
 10
670.2039473554826
 20
259.1262627196519
 30
0.0
 11
670.2039473554826
 21
254.8762627196519
 31
0.0
  0
LINE
  5
12A7
330
2
100
AcDbEntity
  8
HIDS
100
AcDbLine
 10
664.327258269105
 20
259.1262627196519
 30
0.0
 11
671.7039473554827
 21
259.1262627196519
 31
0.0
  0
LINE
  5
12A8
330
2
100
AcDbEntity
  8
CENTER
  6
CENS
100
AcDbLine
 10
667.7039473554831
 20
293.1262627196519
 30
0.0
 11
667.7039473554831
 21
238.9745600800565
 31
0.0
  0
LINE
  5
12A9
330
2
100
AcDbEntity
  8
HIDS
100
AcDbLine
 10
665.7039473554831
 20
259.1262627196519
 30
0.0
 11
665.7039473554831
 21
254.8762627196519
 31
0.0
  0
LINE
  5
12AA
330
2
100
AcDbEntity
  8
HIDS
100
AcDbLine
 10
666.0372806888166
 20
257.4595960529854
 30
0.0
 11
666.0372806888166
 21
254.8762627196519
 31
0.0
  0
LINE
  5
12AB
330
2
100
AcDbEntity
  8
HIDS
100
AcDbLine
 10
669.3706140221496
 20
257.4595960529854
 30
0.0
 11
669.3706140221496
 21
254.8762627196519
 31
0.0
  0
LINE
  5
12AC
330
2
100
AcDbEntity
  8
HIDS
100
AcDbLine
 10
669.7039473554831
 20
259.1262627196519
 30
0.0
 11
669.7039473554831
 21
254.8762627196519
 31
0.0
  0
LINE
  5
12AD
330
2
100
AcDbEntity
  8
HIDS
100
AcDbLine
 10
669.7039473554831
 20
244.9262627196516
 30
0.0
 11
666.674745301568
 21
244.9262627196516
 31
0.0
  0
LINE
  5
12AE
330
2
100
AcDbEntity
  8
HIDS
100
AcDbLine
 10
668.9039473554834
 20
244.1262627196519
 30
0.0
 11
667.3613231343823
 21
244.1262627196519
 31
0.0
  0
LINE
  5
12AF
330
2
100
AcDbEntity
  8
0
100
AcDbLine
 10
666.5039473554828
 20
244.1262627196519
 30
0.0
 11
667.3613231343823
 21
244.1262627196519
 31
0.0
  0
LINE
  5
12B0
330
2
100
AcDbEntity
  8
0
100
AcDbLine
 10
665.7039473554831
 20
244.9262627196516
 30
0.0
 11
666.5039473554828
 21
244.1262627196519
 31
0.0
  0
LINE
  5
12B1
330
2
100
AcDbEntity
  8
0
100
AcDbLine
 10
665.7039473554831
 20
244.9262627196516
 30
0.0
 11
666.674745301568
 21
244.9262627196516
 31
0.0
  0
LINE
  5
12B2
330
2
100
AcDbEntity
  8
HIDS
100
AcDbLine
 10
669.7039473554831
 20
244.9262627196516
 30
0.0
 11
668.9039473554834
 21
244.1262627196519
 31
0.0
  0
LINE
  5
12B3
330
2
100
AcDbEntity
  8
0
100
AcDbLine
 10
664.2039473554831
 20
259.1262627196519
 30
0.0
 11
664.327258269105
 21
259.1262627196519
 31
0.0
  0
LINE
  5
12B4
330
2
100
AcDbEntity
  8
HIDS
100
AcDbLine
 10
669.7039473554831
 20
257.4595960529854
 30
0.0
 11
665.7039473554831
 21
257.4595960529854
 31
0.0
  0
LINE
  5
12B5
330
2
100
AcDbEntity
  8
0
100
AcDbLine
 10
664.2039473554831
 20
262.8262627196522
 30
0.0
 11
666.2929230502435
 21
262.8262627196522
 31
0.0
  0
LINE
  5
12B6
330
2
100
AcDbEntity
  8
HIDS
100
AcDbLine
 10
670.6843321132122
 20
263.1262627196519
 30
0.0
 11
666.5179514629629
 21
263.1262627196519
 31
0.0
  0
LINE
  5
12B7
330
2
100
AcDbEntity
  8
0
100
AcDbLine
 10
664.2039473554831
 20
262.8262627196522
 30
0.0
 11
664.2039473554831
 21
259.1262627196519
 31
0.0
  0
LINE
  5
12B8
330
2
100
AcDbEntity
  8
HIDS
100
AcDbLine
 10
665.7039473554831
 20
259.1262627196519
 30
0.0
 11
666.0372806888166
 21
257.4595960529854
 31
0.0
  0
LINE
  5
12B9
330
2
100
AcDbEntity
  8
0
100
AcDbLine
 10
664.2039473554831
 20
262.8262627196522
 30
0.0
 11
664.723562597754
 21
263.1262627196519
 31
0.0
  0
LINE
  5
12BA
330
2
100
AcDbEntity
  8
HIDS
100
AcDbLine
 10
671.2039473554831
 20
259.1262627196519
 30
0.0
 11
671.2039473554831
 21
262.8262627196522
 31
0.0
  0
LINE
  5
12BB
330
2
100
AcDbEntity
  8
HIDS
100
AcDbLine
 10
669.7039473554831
 20
259.1262627196519
 30
0.0
 11
669.3706140221496
 21
257.4595960529854
 31
0.0
  0
LINE
  5
12BC
330
2
100
AcDbEntity
  8
HIDS
100
AcDbLine
 10
670.6843321132122
 20
263.1262627196519
 30
0.0
 11
671.2039473554831
 21
262.8262627196522
 31
0.0
  0
LINE
  5
12BE
330
2
100
AcDbEntity
  8
0
100
AcDbLine
 10
667.7039473554831
 20
254.8762627196519
 30
0.0
 11
671.2442419019502
 21
254.8762627196519
 31
0.0
  0
LINE
  5
12BF
330
2
100
AcDbEntity
  8
0
100
AcDbLine
 10
667.7039473554831
 20
253.3762627196519
 30
0.0
 11
671.244241901951
 21
253.3762627196519
 31
0.0
  0
LINE
  5
12C1
330
2
100
AcDbEntity
  8
HIDS
100
AcDbLine
 10
666.2929230502435
 20
262.8262627196522
 30
0.0
 11
671.2039473554831
 21
262.8262627196522
 31
0.0
  0
LINE
  5
12C2
330
2
100
AcDbEntity
  8
0
100
AcDbLine
 10
666.5179514629629
 20
263.1262627196519
 30
0.0
 11
664.723562597754
 21
263.1262627196519
 31
0.0
  0
LINE
  5
12C3
330
2
100
AcDbEntity
  8
HIDS
100
AcDbLine
 10
664.327258269105
 20
259.1262627196519
 30
0.0
 11
671.2039473554831
 21
259.1262627196519
 31
0.0
  0
LINE
  5
12C4
330
2
100
AcDbEntity
  8
0
100
AcDbLine
 10
669.7039473554831
 20
254.8762627196519
 30
0.0
 11
669.7039473554831
 21
253.3762627196519
 31
0.0
  0
LINE
  5
12C5
330
2
100
AcDbEntity
  8
HOJO
100
AcDbLine
 10
669.3706140221496
 20
254.8762627196519
 30
0.0
 11
669.3706140221496
 21
253.3762627196519
 31
0.0
  0
LINE
  5
12C6
330
2
100
AcDbEntity
  8
HOJO
100
AcDbLine
 10
666.0372806888166
 20
254.8762627196519
 30
0.0
 11
666.0372806888166
 21
253.3762627196519
 31
0.0
  0
LINE
  5
12C7
330
2
100
AcDbEntity
  8
0
100
AcDbLine
 10
665.7039473554831
 20
254.8762627196519
 30
0.0
 11
665.7039473554831
 21
253.3762627196519
 31
0.0
  0
LINE
  5
12C8
330
2
100
AcDbEntity
  8
HIDS
100
AcDbLine
 10
665.7039473554831
 20
253.3762627196519
 30
0.0
 11
665.7039473554831
 21
246.2960328379689
 31
0.0
  0
LINE
  5
12C9
330
2
100
AcDbEntity
  8
HIDS
100
AcDbLine
 10
666.0372806888166
 20
253.3762627196519
 30
0.0
 11
666.0372806888166
 21
245.7875144789253
 31
0.0
  0
LINE
  5
12CA
330
2
100
AcDbEntity
  8
HIDS
100
AcDbLine
 10
669.3706140221496
 20
253.3762627196519
 30
0.0
 11
669.3706140221496
 21
244.5929293863186
 31
0.0
  0
LINE
  5
12CB
330
2
100
AcDbEntity
  8
HIDS
100
AcDbLine
 10
669.7039473554831
 20
253.3762627196519
 30
0.0
 11
669.7039473554831
 21
244.9262627196516
 31
0.0
  0
LINE
  5
12CC
330
2
100
AcDbEntity
  8
HOJO
100
AcDbLine
 10
666.0372806888166
 20
245.7875144789253
 30
0.0
 11
666.0372806888166
 21
244.5929293863186
 31
0.0
  0
LINE
  5
12CD
330
2
100
AcDbEntity
  8
0
100
AcDbLine
 10
665.7039473554831
 20
246.2960328379689
 30
0.0
 11
665.7039473554831
 21
244.9262627196516
 31
0.0
  0
LINE
  5
12CE
330
2
100
AcDbEntity
  8
0
100
AcDbLine
 10
662.7039473554831
 20
288.1262627196519
 30
0.0
 11
672.7039473554831
 21
288.1262627196519
 31
0.0
  0
ARC
  5
12CF
330
2
100
AcDbEntity
  8
0
100
AcDbCircle
 10
672.7039473554831
 20
284.1262627196519
 30
0.0
 40
3.999999999999971
100
AcDbArc
 50
359.9999999999544
 51
90.0
  0
ARC
  5
12D0
330
2
100
AcDbEntity
  8
0
100
AcDbCircle
 10
662.7039473554831
 20
284.1262627196519
 30
0.0
 40
4.000000000000056
100
AcDbArc
 50
90.0
 51
180.0000000000455
  0
ARC
  5
12D1
330
2
100
AcDbEntity
  8
0
100
AcDbCircle
 10
705.0514587304413
 20
281.0188568736834
 30
0.0
 40
3.499999999999717
100
AcDbArc
 50
331.4660973942729
 51
117.7026032046078
  0
ARC
  5
12D2
330
2
100
AcDbEntity
  8
0
100
AcDbCircle
 10
705.0514587304413
 20
281.0188568736834
 30
0.0
 40
2.980384757729353
100
AcDbArc
 50
347.9891694961356
 51
101.179531102749
  0
ARC
  5
12D3
330
2
100
AcDbEntity
  8
0
100
AcDbCircle
 10
651.3113532014516
 20
280.9737740946101
 30
0.0
 40
3.499999999999717
100
AcDbArc
 50
63.62312482358027
 51
209.9169029323347
  0
ARC
  5
12D4
330
2
100
AcDbEntity
  8
0
100
AcDbCircle
 10
651.3113532014516
 20
280.9737740946101
 30
0.0
 40
2.980384757729353
100
AcDbArc
 50
80.12981105457564
 51
193.4102167013254
  0
ARC
  5
12D5
330
2
100
AcDbEntity
  8
0
100
AcDbCircle
 10
651.3564359805244
 20
227.2336685656204
 30
0.0
 40
3.499999999999717
100
AcDbArc
 50
151.4660973942784
 51
297.7026032046078
  0
ARC
  5
12D6
330
2
100
AcDbEntity
  8
0
100
AcDbCircle
 10
651.3564359805244
 20
227.2336685656204
 30
0.0
 40
2.980384757729353
100
AcDbArc
 50
167.9891694961356
 51
281.179531102749
  0
ARC
  5
12D7
330
2
100
AcDbEntity
  8
0
100
AcDbCircle
 10
705.0965415095141
 20
227.2787513446937
 30
0.0
 40
3.499999999999717
100
AcDbArc
 50
243.6231248237701
 51
29.91690293243033
  0
ARC
  5
12D8
330
2
100
AcDbEntity
  8
0
100
AcDbCircle
 10
705.0965415095141
 20
227.2787513446937
 30
0.0
 40
2.980384757729353
100
AcDbArc
 50
260.1298110548003
 51
13.41021670139492
  0
LINE
  5
12D9
330
2
100
AcDbEntity
  8
HIDS
100
AcDbLine
 10
658.1696464914037
 20
282.1611675325297
 30
0.0
 11
658.0905179552181
 21
277.6278967305701
 31
0.0
  0
ARC
  5
12DA
330
2
100
AcDbEntity
  8
HIDS
100
AcDbCircle
 10
660.1693418817165
 20
282.1262627196551
 30
0.0
 40
2.0
100
AcDbArc
 50
90.0
 51
178.9999999999721
  0
ARC
  5
12DB
330
2
100
AcDbEntity
  8
HIDS
100
AcDbCircle
 10
655.0909748697489
 20
277.6802539498821
 30
0.0
 40
3.0
100
AcDbArc
 50
314.4585514346812
 51
359.0000000000242
  0
CIRCLE
  5
12DC
330
2
100
AcDbEntity
  8
0
100
AcDbCircle
 10
653.4552100139515
 20
278.875000061178
 30
0.0
 40
2.0
  0
CIRCLE
  5
12DD
330
2
100
AcDbEntity
  8
HOJO
100
AcDbCircle
 10
653.4552100139515
 20
278.875000061178
 30
0.0
 40
2.5
  0
CIRCLE
  5
12DE
330
2
100
AcDbEntity
  8
0
100
AcDbCircle
 10
653.4552100139521
 20
229.3775253781195
 30
0.0
 40
2.0
  0
CIRCLE
  5
12DF
330
2
100
AcDbEntity
  8
HOJO
100
AcDbCircle
 10
653.4552100139521
 20
229.3775253781195
 30
0.0
 40
2.5
  0
CIRCLE
  5
12E0
330
2
100
AcDbEntity
  8
0
100
AcDbCircle
 10
702.95268469701
 20
229.3775253781197
 30
0.0
 40
2.0
  0
CIRCLE
  5
12E1
330
2
100
AcDbEntity
  8
HOJO
100
AcDbCircle
 10
702.95268469701
 20
229.3775253781197
 30
0.0
 40
2.5
  0
CIRCLE
  5
12E2
330
2
100
AcDbEntity
  8
0
100
AcDbCircle
 10
702.95268469701
 20
278.875000061178
 30
0.0
 40
2.0
  0
CIRCLE
  5
12E3
330
2
100
AcDbEntity
  8
HOJO
100
AcDbCircle
 10
702.95268469701
 20
278.875000061178
 30
0.0
 40
2.5
  0
CIRCLE
  5
12E4
330
2
100
AcDbEntity
  8
0
100
AcDbCircle
 10
678.2039473554854
 20
254.1262627196551
 30
0.0
 40
6.999999999997157
  0
ARC
  5
12E5
330
2
100
AcDbEntity
  8
0
100
AcDbCircle
 10
678.2039473554854
 20
254.1262627196551
 30
0.0
 40
8.154700538376232
100
AcDbArc
 50
5.277035934803723
 51
174.7229640651962
  0
ARC
  5
12E6
330
2
100
AcDbEntity
  8
0
100
AcDbCircle
 10
678.2039473554854
 20
254.1262627196487
 30
0.0
 40
8.154700538376232
100
AcDbArc
 50
185.2770359348037
 51
354.7229640651962
  0
CIRCLE
  5
12E7
330
2
100
AcDbEntity
  8
0
100
AcDbCircle
 10
678.2039473554854
 20
254.1262627196551
 30
0.0
 40
22.5
  0
LINE
  5
12E8
330
2
100
AcDbEntity
  8
0
100
AcDbLine
 10
676.4235339464138
 20
285.5975463743458
 30
0.0
 11
678.2039473554836
 21
285.626262719654
 31
0.0
  0
LINE
  5
12EE
330
2
100
AcDbEntity
  8
0
100
AcDbLine
 10
533.4491804800771
 20
277.3360844437742
 30
0.0
 11
533.4991017545943
 21
280.196072345413
 31
0.0
  0
LINE
  5
12EF
330
2
100
AcDbEntity
  8
0
100
AcDbLine
 10
507.901454158476
 20
262.2956609445568
 30
0.0
 11
507.5200949541753
 21
284.1437151261015
 31
0.0
  0
LINE
  5
12F0
330
2
100
AcDbEntity
  8
0
100
AcDbLine
 10
500.0440515349104
 20
254.1262627196637
 30
0.0
 11
500.5040908880963
 21
254.1262627196637
 31
0.0
  0
ARC
  5
12F1
330
2
100
AcDbEntity
  8
0
100
AcDbCircle
 10
515.9604869102126
 20
279.3650291804378
 30
0.0
 40
3.0
100
AcDbArc
 50
270.000000000013
 51
359.0000000000242
  0
LINE
  5
12F2
330
2
100
AcDbEntity
  8
0
100
AcDbLine
 10
530.431773663275
 20
276.3650291804383
 30
0.0
 11
515.9604869102126
 21
276.3650291804383
 31
0.0
  0
LINE
  5
12F3
330
2
100
AcDbEntity
  8
0
100
AcDbLine
 10
512.5497462671386
 20
224.1262627196637
 30
0.0
 11
543.0440515349103
 21
224.1262627196642
 31
0.0
  0
LINE
  5
12F4
330
2
100
AcDbEntity
  8
0
100
AcDbLine
 10
533.0440515349104
 20
254.1262627196637
 30
0.0
 11
533.4991017545948
 21
228.0564530939145
 31
0.0
  0
ARC
  5
12F5
330
2
100
AcDbEntity
  8
0
100
AcDbCircle
 10
537.4984925352199
 20
228.1262627196637
 30
0.0
 40
4.0
100
AcDbArc
 50
181.0000000000017
 51
270.0
  0
ARC
  5
12F6
330
2
100
AcDbEntity
  8
0
100
AcDbCircle
 10
521.0094460611411
 20
282.1262627196637
 30
0.0
 40
2.0
100
AcDbArc
 50
90.0
 51
179.0000000000242
  0
LINE
  5
12F7
330
2
100
AcDbEntity
  8
0
100
AcDbLine
 10
519.0097506708288
 20
282.1611675325379
 30
0.0
 11
518.9600299956822
 21
279.3126719611259
 31
0.0
  0
LINE
  5
12F8
330
2
100
AcDbEntity
  8
0
100
AcDbLine
 10
508.0440515349181
 20
254.1262627196637
 30
0.0
 11
507.5200949541762
 21
224.1088103132264
 31
0.0
  0
ARC
  5
12F9
330
2
100
AcDbEntity
  8
0
100
AcDbCircle
 10
509.1659985700838
 20
221.1262627196637
 30
0.0
 40
3.0
100
AcDbArc
 50
118.7571570414059
 51
131.4096221092698
  0
ARC
  5
12FA
330
2
100
AcDbEntity
  8
0
100
AcDbCircle
 10
506.5202472590198
 20
224.1262627196642
 30
0.0
 40
1.0
100
AcDbArc
 50
270.0
 51
358.9999999999852
  0
LINE
  5
12FB
330
2
100
AcDbEntity
  8
0
100
AcDbLine
 10
500.0440515349104
 20
223.1262627196642
 30
0.0
 11
506.5202472590198
 21
223.1262627196642
 31
0.0
  0
LINE
  5
12FC
330
2
100
AcDbEntity
  8
0
100
AcDbLine
 10
512.5497462671386
 20
284.1262627196642
 30
0.0
 11
543.0440515349103
 21
284.1262627196637
 31
0.0
  0
LINE
  5
12FD
330
2
100
AcDbEntity
  8
CENTER
  6
CENS
100
AcDbLine
 10
529.0440515349104
 20
293.1262627196669
 30
0.0
 11
529.0440515349104
 21
270.6438530019103
 31
0.0
  0
ARC
  5
12FE
330
2
100
AcDbEntity
  8
0
100
AcDbCircle
 10
537.4984925352195
 20
280.1262627196642
 30
0.0
 40
4.0
100
AcDbArc
 50
90.0
 51
178.9999999999982
  0
ARC
  5
12FF
330
2
100
AcDbEntity
  8
0
100
AcDbCircle
 10
509.1659985700824
 20
287.1262627196642
 30
0.0
 40
3.0
100
AcDbArc
 50
228.5903778907486
 51
241.2428429585938
  0
ARC
  5
1300
330
2
100
AcDbEntity
  8
0
100
AcDbCircle
 10
506.5202472590184
 20
284.1262627196637
 30
0.0
 40
1.0
100
AcDbArc
 50
1.000000000014801
 51
90.0
  0
LINE
  5
1301
330
2
100
AcDbEntity
  8
0
100
AcDbLine
 10
500.0440515349104
 20
285.1262627196637
 30
0.0
 11
506.5202472590184
 21
285.1262627196637
 31
0.0
  0
LINE
  5
1302
330
2
100
AcDbEntity
  8
0
100
AcDbLine
 10
543.0440515349103
 20
284.1262627196637
 30
0.0
 11
543.0440515349103
 21
224.1262627196642
 31
0.0
  0
LINE
  5
1303
330
2
100
AcDbEntity
  8
0
100
AcDbLine
 10
500.0440515349104
 20
282.1746435238182
 30
0.0
 11
506.5717679637267
 21
282.1746435238182
 31
0.0
  0
LINE
  5
1304
330
2
100
AcDbEntity
  8
0
100
AcDbLine
 10
500.0440515349104
 20
279.5172223089056
 30
0.0
 11
506.6181534235755
 21
279.5172223089056
 31
0.0
  0
LINE
  5
1305
330
2
100
AcDbEntity
  8
0
100
AcDbLine
 10
508.6361266675388
 20
284.4962627196636
 30
0.0
 11
507.6361266675388
 21
284.4962627196636
 31
0.0
  0
LINE
  5
1306
330
2
100
AcDbEntity
  8
0
100
AcDbLine
 10
507.6361266675388
 20
284.4962627196636
 30
0.0
 11
507.6361266675388
 21
277.4962627196636
 31
0.0
  0
LINE
  5
1307
330
2
100
AcDbEntity
  8
0
100
AcDbLine
 10
507.6361266675388
 20
277.4962627196636
 30
0.0
 11
508.6361266675388
 21
277.4962627196636
 31
0.0
  0
LINE
  5
1308
330
2
100
AcDbEntity
  8
0
100
AcDbLine
 10
508.6361266675388
 20
277.4962627196636
 30
0.0
 11
508.6361266675388
 21
284.4962627196636
 31
0.0
  0
LINE
  5
1309
330
2
100
AcDbEntity
  8
0
100
AcDbLine
 10
512.6361266675388
 20
283.9766474773932
 30
0.0
 11
512.6361266675388
 21
278.0158779619345
 31
0.0
  0
LINE
  5
130A
330
2
100
AcDbEntity
  8
0
100
AcDbLine
 10
512.3361266675386
 20
277.4962627196636
 30
0.0
 11
512.3361266675386
 21
284.4962627196636
 31
0.0
  0
LINE
  5
130B
330
2
100
AcDbEntity
  8
0
100
AcDbLine
 10
512.3361266675386
 20
277.4962627196636
 30
0.0
 11
508.6361266675388
 21
277.4962627196636
 31
0.0
  0
LINE
  5
130C
330
2
100
AcDbEntity
  8
0
100
AcDbLine
 10
512.3361266675386
 20
277.4962627196636
 30
0.0
 11
512.6361266675388
 21
278.0158779619345
 31
0.0
  0
LINE
  5
130D
330
2
100
AcDbEntity
  8
0
100
AcDbLine
 10
512.6361266675388
 20
283.9766474773932
 30
0.0
 11
512.3361266675386
 21
284.4962627196636
 31
0.0
  0
LINE
  5
130E
330
2
100
AcDbEntity
  8
0
100
AcDbLine
 10
508.6361266675388
 20
284.4962627196636
 30
0.0
 11
512.3361266675386
 21
284.4962627196636
 31
0.0
  0
LINE
  5
130F
330
2
100
AcDbEntity
  8
CENTER
  6
CENS
100
AcDbLine
 10
517.5750339402887
 20
280.9962627196641
 30
0.0
 11
494.5750768506663
 21
280.9962627196641
 31
0.0
  0
LINE
  5
1310
330
2
100
AcDbEntity
  8
CENTER
  6
CENS
100
AcDbLine
 10
517.5750339402887
 20
227.2562627196636
 30
0.0
 11
494.5750768506663
 21
227.2562627196636
 31
0.0
  0
LINE
  5
1311
330
2
100
AcDbEntity
  8
0
100
AcDbLine
 10
508.6361266675388
 20
223.7562627196638
 30
0.0
 11
507.6361266675388
 21
223.7562627196638
 31
0.0
  0
LINE
  5
1312
330
2
100
AcDbEntity
  8
0
100
AcDbLine
 10
507.6361266675388
 20
223.7562627196638
 30
0.0
 11
507.6361266675388
 21
230.7562627196638
 31
0.0
  0
LINE
  5
1313
330
2
100
AcDbEntity
  8
0
100
AcDbLine
 10
507.6361266675388
 20
230.7562627196638
 30
0.0
 11
508.6361266675388
 21
230.7562627196638
 31
0.0
  0
LINE
  5
1314
330
2
100
AcDbEntity
  8
0
100
AcDbLine
 10
508.6361266675388
 20
230.7562627196638
 30
0.0
 11
508.6361266675388
 21
223.7562627196638
 31
0.0
  0
LINE
  5
1315
330
2
100
AcDbEntity
  8
0
100
AcDbLine
 10
512.6361266675388
 20
224.2758779619347
 30
0.0
 11
512.6361266675388
 21
230.2366474773934
 31
0.0
  0
LINE
  5
1316
330
2
100
AcDbEntity
  8
0
100
AcDbLine
 10
512.3361266675386
 20
230.7562627196638
 30
0.0
 11
512.3361266675386
 21
223.7562627196638
 31
0.0
  0
LINE
  5
1317
330
2
100
AcDbEntity
  8
0
100
AcDbLine
 10
512.3361266675386
 20
230.7562627196638
 30
0.0
 11
508.6361266675388
 21
230.7562627196638
 31
0.0
  0
LINE
  5
1318
330
2
100
AcDbEntity
  8
0
100
AcDbLine
 10
512.3361266675386
 20
230.7562627196638
 30
0.0
 11
512.6361266675388
 21
230.2366474773934
 31
0.0
  0
LINE
  5
1319
330
2
100
AcDbEntity
  8
0
100
AcDbLine
 10
512.6361266675388
 20
224.2758779619347
 30
0.0
 11
512.3361266675386
 21
223.7562627196638
 31
0.0
  0
LINE
  5
131A
330
2
100
AcDbEntity
  8
0
100
AcDbLine
 10
508.6361266675388
 20
223.7562627196638
 30
0.0
 11
512.3361266675386
 21
223.7562627196638
 31
0.0
  0
LINE
  5
131B
330
2
100
AcDbEntity
  8
0
100
AcDbLine
 10
500.0440515349104
 20
226.0778819155095
 30
0.0
 11
506.5717679637267
 21
226.0778819155095
 31
0.0
  0
LINE
  5
131C
330
2
100
AcDbEntity
  8
0
100
AcDbLine
 10
500.0440515349104
 20
228.7353031304218
 30
0.0
 11
506.6181534235755
 21
228.7353031304218
 31
0.0
  0
LINE
  5
131D
330
2
100
AcDbEntity
  8
0
100
AcDbLine
 10
533.5440409258597
 20
261.1262627196642
 30
0.0
 11
523.5440409258593
 21
261.1262627196642
 31
0.0
  0
LINE
  5
131E
330
2
100
AcDbEntity
  8
0
100
AcDbLine
 10
533.5440409258597
 20
261.1262627196639
 30
0.0
 11
533.5440409258597
 21
254.126262719664
 31
0.0
  0
LINE
  5
131F
330
2
100
AcDbEntity
  8
0
100
AcDbLine
 10
535.5440409258598
 20
262.2809632580433
 30
0.0
 11
533.5440409258597
 21
261.1262627196639
 31
0.0
  0
LINE
  5
1320
330
2
100
AcDbEntity
  8
0
100
AcDbLine
 10
506.5440409258602
 20
261.3762627196639
 30
0.0
 11
506.5440409258602
 21
254.1262627196637
 31
0.0
  0
LINE
  5
1321
330
2
100
AcDbEntity
  8
0
100
AcDbLine
 10
533.5440409258597
 20
261.1262627196642
 30
0.0
 11
523.5440409258598
 21
261.1262627196642
 31
0.0
  0
LINE
  5
1322
330
2
100
AcDbEntity
  8
0
100
AcDbLine
 10
528.4562551045326
 20
268.8762627196642
 30
0.0
 11
535.5440409258598
 21
268.8762627196642
 31
0.0
  0
LINE
  5
1323
330
2
100
AcDbEntity
  8
0
100
AcDbLine
 10
535.5440409258598
 20
268.8762627196642
 30
0.0
 11
535.5440409258598
 21
254.1262627196637
 31
0.0
  0
LINE
  5
1324
330
2
100
AcDbEntity
  8
0
100
AcDbLine
 10
521.5440409258597
 20
264.4109439063872
 30
0.0
 11
521.5440409258597
 21
254.1262627196637
 31
0.0
  0
LINE
  5
1325
330
2
100
AcDbEntity
  8
0
100
AcDbLine
 10
523.5440409258598
 20
264.936344053819
 30
0.0
 11
523.5440409258598
 21
254.1262627196637
 31
0.0
  0
LINE
  5
1326
330
2
100
AcDbEntity
  8
0
100
AcDbLine
 10
514.5440409258602
 20
261.3762627196639
 30
0.0
 11
506.5440409258602
 21
261.3762627196639
 31
0.0
  0
LINE
  5
1327
330
2
100
AcDbEntity
  8
0
100
AcDbLine
 10
514.5440409258602
 20
254.1262627196637
 30
0.0
 11
514.5440409258602
 21
261.3762627196639
 31
0.0
  0
LINE
  5
1328
330
2
100
AcDbEntity
  8
0
100
AcDbLine
 10
521.5440409258597
 20
261.1262627196637
 30
0.0
 11
514.5440409258602
 21
261.1262627196637
 31
0.0
  0
LINE
  5
1329
330
2
100
AcDbEntity
  8
0
100
AcDbLine
 10
502.7912641761275
 20
254.1262627196637
 30
0.0
 11
506.5440409258602
 21
260.6262627196637
 31
0.0
  0
LINE
  5
132A
330
2
100
AcDbEntity
  8
0
100
AcDbLine
 10
536.0440515349104
 20
279.1262627196637
 30
0.0
 11
536.0440515349108
 21
254.1262627196637
 31
0.0
  0
LINE
  5
132B
330
2
100
AcDbEntity
  8
0
100
AcDbLine
 10
543.0440515349103
 20
279.1262627196637
 30
0.0
 11
536.0440515349104
 21
279.1262627196637
 31
0.0
  0
LINE
  5
132C
330
2
100
AcDbEntity
  8
0
100
AcDbLine
 10
500.0440515349104
 20
270.1074974482152
 30
0.0
 11
507.0440515349099
 21
270.1074974482152
 31
0.0
  0
LINE
  5
132D
330
2
100
AcDbEntity
  8
0
100
AcDbLine
 10
500.0440515349104
 20
238.1450279911122
 30
0.0
 11
507.0440515349099
 21
238.1450279911122
 31
0.0
  0
SPLINE
  5
132E
330
2
100
AcDbEntity
  8
HOJO
100
AcDbSpline
210
0.0
220
0.0
230
1.0
 70
     8
 71
     3
 72
    20
 73
    16
 74
     0
 42
0.0000000001
 43
0.0000000001
 40
0.0
 40
0.0
 40
0.0
 40
0.0
 40
5.311626210389601
 40
7.954639692924123
 40
10.24579206730457
 40
14.18281221953265
 40
18.83794314114633
 40
26.54246833222011
 40
31.19712602527561
 40
34.95638115537181
 40
42.12378530287149
 40
45.78553747213095
 40
50.20353689726185
 40
53.26513166942802
 40
54.23175360515262
 40
54.23175360515262
 40
54.23175360515262
 40
54.23175360515262
 10
543.0440515349103
 20
280.8137114416799
 30
0.0
 10
541.3310723690218
 20
280.7056693914536
 30
0.0
 10
538.7657314496108
 20
280.5438666690497
 30
0.0
 10
534.9939775625338
 20
280.291733996882
 30
0.0
 10
533.6748363463997
 20
277.359292511915
 30
0.0
 10
531.2396269781092
 20
274.7047836886194
 30
0.0
 10
529.401578634959
 20
269.5534882554556
 30
0.0
 10
525.2767422254818
 20
264.8437409038303
 30
0.0
 10
519.7990947224756
 20
264.2064094694109
 30
0.0
 10
514.88570921291
 20
262.5200905227033
 30
0.0
 10
510.0517098661515
 20
262.7585014667983
 30
0.0
 10
504.5511958013761
 20
261.7058491317456
 30
0.0
 10
501.9428324801432
 20
258.4106675703168
 30
0.0
 10
500.9428581854175
 20
255.7324270494274
 30
0.0
 10
500.586818660185
 20
254.4374140193564
 30
0.0
 10
500.5040908880963
 20
254.1262627196637
 30
0.0
  0
LINE
  5
132F
330
2
100
AcDbEntity
  8
0
100
AcDbLine
 10
534.0440515349103
 20
288.1262627196637
 30
0.0
 11
524.0440515349104
 21
288.1262627196637
 31
0.0
  0
ARC
  5
1330
330
2
100
AcDbEntity
  8
0
100
AcDbCircle
 10
524.0440515349104
 20
284.1262627196637
 30
0.0
 40
4.0
100
AcDbArc
 50
90.0
 51
180.0
  0
ARC
  5
1331
330
2
100
AcDbEntity
  8
0
100
AcDbCircle
 10
534.0440515349103
 20
284.1262627196637
 30
0.0
 40
4.000000000000028
100
AcDbArc
 50
0.0
 51
90.0
  0
LINE
  5
1332
330
2
100
AcDbEntity
  8
0
100
AcDbLine
 10
536.0440515349104
 20
276.6262627196633
 30
0.0
 11
532.9433848632923
 21
276.6262627196637
 31
0.0
  0
LINE
  5
1333
330
2
100
AcDbEntity
  8
0
100
AcDbLine
 10
508.0440515349113
 20
469.5737330077217
 30
0.0
 11
508.0440515349104
 21
422.8337330077219
 31
0.0
  0
LINE
  5
1334
330
2
100
AcDbEntity
  8
0
100
AcDbLine
 10
533.0440515349104
 20
449.2037330077218
 30
0.0
 11
533.0440515349104
 21
472.2037330077218
 31
0.0
  0
ARC
  5
1335
330
2
100
AcDbEntity
  8
0
100
AcDbCircle
 10
537.0440515349099
 20
472.2037330077218
 30
0.0
 40
4.0
100
AcDbArc
 50
90.0
 51
180.0
  0
LINE
  5
1336
330
2
100
AcDbEntity
  8
0
100
AcDbLine
 10
543.0440515349103
 20
476.2037330077218
 30
0.0
 11
512.5497462671386
 21
476.2037330077218
 31
0.0
  0
LINE
  5
1337
330
2
100
AcDbEntity
  8
0
100
AcDbLine
 10
507.0440515349113
 20
477.2037330077218
 30
0.0
 11
500.0440515349104
 21
477.2037330077218
 31
0.0
  0
ARC
  5
1338
330
2
100
AcDbEntity
  8
0
100
AcDbCircle
 10
509.6898028459758
 20
479.2037330077218
 30
0.0
 40
3.0
100
AcDbArc
 50
228.5903778907302
 51
241.2428429585938
  0
ARC
  5
1339
330
2
100
AcDbEntity
  8
0
100
AcDbCircle
 10
507.0440515349113
 20
476.2037330077218
 30
0.0
 40
1.0
100
AcDbArc
 50
21.71561728325768
 51
90.0
  0
ARC
  5
133A
330
2
100
AcDbEntity
  8
0
100
AcDbCircle
 10
537.0440515349104
 20
420.2037330077218
 30
0.0
 40
4.0
100
AcDbArc
 50
180.0
 51
270.0
  0
ARC
  5
133B
330
2
100
AcDbEntity
  8
0
100
AcDbCircle
 10
530.0440515349103
 20
423.2037330077218
 30
0.0
 40
3.0
100
AcDbArc
 50
0.0
 51
90.0
  0
ARC
  5
133C
330
2
100
AcDbEntity
  8
0
100
AcDbCircle
 10
530.0440515349103
 20
449.2037330077218
 30
0.0
 40
3.0
100
AcDbArc
 50
270.0
 51
0.0
  0
LINE
  5
133D
330
2
100
AcDbEntity
  8
0
100
AcDbLine
 10
519.04405153491
 20
429.2037330077218
 30
0.0
 11
519.0440515349104
 21
443.2037330077218
 31
0.0
  0
LINE
  5
133E
330
2
100
AcDbEntity
  8
0
100
AcDbLine
 10
530.0440515349103
 20
446.2037330077218
 30
0.0
 11
522.0440515349103
 21
446.2037330077218
 31
0.0
  0
ARC
  5
133F
330
2
100
AcDbEntity
  8
0
100
AcDbCircle
 10
522.0440515349103
 20
443.2037330077218
 30
0.0
 40
3.0
100
AcDbArc
 50
90.0
 51
180.0
  0
LINE
  5
1340
330
2
100
AcDbEntity
  8
0
100
AcDbLine
 10
530.0440515349103
 20
426.2037330077218
 30
0.0
 11
522.0440515349099
 21
426.2037330077218
 31
0.0
  0
LINE
  5
1341
330
2
100
AcDbEntity
  8
0
100
AcDbLine
 10
533.0440515349104
 20
420.2037330077218
 30
0.0
 11
533.0440515349104
 21
423.2037330077218
 31
0.0
  0
ARC
  5
1342
330
2
100
AcDbEntity
  8
0
100
AcDbCircle
 10
522.0440515349099
 20
429.2037330077218
 30
0.0
 40
3.0
100
AcDbArc
 50
180.0
 51
270.0
  0
LINE
  5
1343
330
2
100
AcDbEntity
  8
0
100
AcDbLine
 10
543.0440515349103
 20
416.2037330077218
 30
0.0
 11
512.5497462671391
 21
416.2037330077218
 31
0.0
  0
LINE
  5
1344
330
2
100
AcDbEntity
  8
0
100
AcDbLine
 10
507.0440515349099
 20
415.2037330077218
 30
0.0
 11
500.0440515349104
 21
415.2037330077218
 31
0.0
  0
ARC
  5
1345
330
2
100
AcDbEntity
  8
0
100
AcDbCircle
 10
509.6898028459748
 20
413.2037330077218
 30
0.0
 40
3.0
100
AcDbArc
 50
118.7571570414059
 51
131.4096221092842
  0
ARC
  5
1346
330
2
100
AcDbEntity
  8
0
100
AcDbCircle
 10
507.0440515349099
 20
416.2037330077218
 30
0.0
 40
1.0
100
AcDbArc
 50
270.0
 51
338.2843827167423
  0
LINE
  5
1347
330
2
100
AcDbEntity
  8
0
100
AcDbLine
 10
543.0440515349103
 20
416.2037330077218
 30
0.0
 11
543.0440515349103
 21
476.2037330077218
 31
0.0
  0
LINE
  5
1348
330
2
100
AcDbEntity
  8
CENTER
  6
CENS
100
AcDbLine
 10
517.5750339402887
 20
419.3337330077219
 30
0.0
 11
494.5750768506663
 21
419.3337330077219
 31
0.0
  0
LINE
  5
1349
330
2
100
AcDbEntity
  8
0
100
AcDbLine
 10
508.6361266675388
 20
415.8337330077219
 30
0.0
 11
507.6361266675388
 21
415.8337330077219
 31
0.0
  0
LINE
  5
134A
330
2
100
AcDbEntity
  8
0
100
AcDbLine
 10
507.6361266675388
 20
422.8337330077219
 30
0.0
 11
508.6361266675388
 21
422.8337330077219
 31
0.0
  0
LINE
  5
134B
330
2
100
AcDbEntity
  8
0
100
AcDbLine
 10
508.6361266675388
 20
422.8337330077219
 30
0.0
 11
508.6361266675388
 21
415.8337330077219
 31
0.0
  0
LINE
  5
134C
330
2
100
AcDbEntity
  8
0
100
AcDbLine
 10
512.6361266675388
 20
416.3533482499928
 30
0.0
 11
512.6361266675388
 21
422.3141177654515
 31
0.0
  0
LINE
  5
134D
330
2
100
AcDbEntity
  8
0
100
AcDbLine
 10
512.3361266675386
 20
422.8337330077219
 30
0.0
 11
512.3361266675386
 21
415.8337330077219
 31
0.0
  0
LINE
  5
134E
330
2
100
AcDbEntity
  8
0
100
AcDbLine
 10
512.3361266675386
 20
422.8337330077219
 30
0.0
 11
508.6361266675388
 21
422.8337330077219
 31
0.0
  0
LINE
  5
134F
330
2
100
AcDbEntity
  8
0
100
AcDbLine
 10
512.3361266675386
 20
422.8337330077219
 30
0.0
 11
512.6361266675388
 21
422.3141177654515
 31
0.0
  0
LINE
  5
1350
330
2
100
AcDbEntity
  8
0
100
AcDbLine
 10
512.6361266675388
 20
416.3533482499928
 30
0.0
 11
512.3361266675386
 21
415.8337330077219
 31
0.0
  0
LINE
  5
1351
330
2
100
AcDbEntity
  8
0
100
AcDbLine
 10
508.6361266675388
 20
415.8337330077219
 30
0.0
 11
512.3361266675386
 21
415.8337330077219
 31
0.0
  0
LINE
  5
1352
330
2
100
AcDbEntity
  8
0
100
AcDbLine
 10
507.6361266675388
 20
415.8337330077219
 30
0.0
 11
507.6361266675388
 21
422.8337330077219
 31
0.0
  0
LINE
  5
1353
330
2
100
AcDbEntity
  8
0
100
AcDbLine
 10
507.6361266675388
 20
422.8337330077219
 30
0.0
 11
507.6361266675388
 21
415.8337330077219
 31
0.0
  0
LINE
  5
1354
330
2
100
AcDbEntity
  8
CENTER
  6
CENS
100
AcDbLine
 10
517.5750339402887
 20
473.0737330077221
 30
0.0
 11
494.5750768506663
 21
473.0737330077221
 31
0.0
  0
LINE
  5
1355
330
2
100
AcDbEntity
  8
0
100
AcDbLine
 10
508.6361266675388
 20
476.5737330077217
 30
0.0
 11
507.6361266675388
 21
476.5737330077217
 31
0.0
  0
LINE
  5
1356
330
2
100
AcDbEntity
  8
0
100
AcDbLine
 10
507.6361266675388
 20
469.5737330077217
 30
0.0
 11
508.6361266675388
 21
469.5737330077217
 31
0.0
  0
LINE
  5
1357
330
2
100
AcDbEntity
  8
0
100
AcDbLine
 10
508.6361266675388
 20
469.5737330077217
 30
0.0
 11
508.6361266675388
 21
476.5737330077217
 31
0.0
  0
LINE
  5
1358
330
2
100
AcDbEntity
  8
0
100
AcDbLine
 10
512.6361266675388
 20
476.0541177654513
 30
0.0
 11
512.6361266675388
 21
470.0933482499926
 31
0.0
  0
LINE
  5
1359
330
2
100
AcDbEntity
  8
0
100
AcDbLine
 10
512.3361266675386
 20
469.5737330077217
 30
0.0
 11
512.3361266675386
 21
476.5737330077217
 31
0.0
  0
LINE
  5
135A
330
2
100
AcDbEntity
  8
0
100
AcDbLine
 10
512.3361266675386
 20
469.5737330077217
 30
0.0
 11
508.6361266675388
 21
469.5737330077217
 31
0.0
  0
LINE
  5
135B
330
2
100
AcDbEntity
  8
0
100
AcDbLine
 10
512.3361266675386
 20
469.5737330077217
 30
0.0
 11
512.6361266675388
 21
470.0933482499926
 31
0.0
  0
LINE
  5
135C
330
2
100
AcDbEntity
  8
0
100
AcDbLine
 10
512.6361266675388
 20
476.0541177654513
 30
0.0
 11
512.3361266675386
 21
476.5737330077217
 31
0.0
  0
LINE
  5
135D
330
2
100
AcDbEntity
  8
0
100
AcDbLine
 10
508.6361266675388
 20
476.5737330077217
 30
0.0
 11
512.3361266675386
 21
476.5737330077217
 31
0.0
  0
LINE
  5
135E
330
2
100
AcDbEntity
  8
0
100
AcDbLine
 10
507.6361266675388
 20
476.5737330077217
 30
0.0
 11
507.6361266675388
 21
469.5737330077217
 31
0.0
  0
LINE
  5
135F
330
2
100
AcDbEntity
  8
0
100
AcDbLine
 10
507.6361266675388
 20
469.5737330077217
 30
0.0
 11
507.6361266675388
 21
476.5737330077217
 31
0.0
  0
CIRCLE
  5
1360
330
2
100
AcDbEntity
  8
0
100
AcDbCircle
 10
529.0440515349104
 20
435.7037330077218
 30
0.0
 40
9.0
  0
LINE
  5
1361
330
2
100
AcDbEntity
  8
CENTER
  6
CENS
100
AcDbLine
 10
529.0440515349104
 20
424.1632221035983
 30
0.0
 11
529.0440515349104
 21
447.2442439118462
 31
0.0
  0
LINE
  5
1362
330
2
100
AcDbEntity
  8
CENTER
  6
CENS
100
AcDbLine
 10
540.5845624390344
 20
435.7037330077223
 30
0.0
 11
517.5035406307864
 21
435.7037330077223
 31
0.0
  0
LINE
  5
1363
330
2
100
AcDbEntity
  8
0
100
AcDbLine
 10
63.92106129605997
 20
254.1262627196646
 30
0.0
 11
63.46601107637514
 21
280.1960723454139
 31
0.0
  0
LINE
  5
1364
330
2
100
AcDbEntity
  8
0
100
AcDbLine
 10
88.92106129605133
 20
254.1262627196646
 30
0.0
 11
89.44501787679417
 21
284.1437151261024
 31
0.0
  0
LINE
  5
1365
330
2
100
AcDbEntity
  8
0
100
AcDbLine
 10
96.92106129605907
 20
254.1262627196646
 30
0.0
 11
53.92106129605906
 21
254.1262627196646
 31
0.0
  0
ARC
  5
1366
330
2
100
AcDbEntity
  8
0
100
AcDbCircle
 10
81.0046259207569
 20
228.8874962588906
 30
0.0
 40
3.0
100
AcDbArc
 50
90.00000000001303
 51
179.0000000000242
  0
LINE
  5
1367
330
2
100
AcDbEntity
  8
0
100
AcDbLine
 10
66.5333391676944
 20
231.8874962588901
 30
0.0
 11
81.0046259207569
 21
231.8874962588901
 31
0.0
  0
LINE
  5
1368
330
2
100
AcDbEntity
  8
0
100
AcDbLine
 10
84.41536656383039
 20
224.1262627196646
 30
0.0
 11
53.92106129605906
 21
224.1262627196646
 31
0.0
  0
LINE
  5
1369
330
2
100
AcDbEntity
  8
0
100
AcDbLine
 10
63.92106129605906
 20
254.1262627196646
 30
0.0
 11
63.46601107637468
 21
228.0564530939154
 31
0.0
  0
ARC
  5
136A
330
2
100
AcDbEntity
  8
0
100
AcDbCircle
 10
59.46662029574952
 20
228.1262627196646
 30
0.0
 40
4.0
100
AcDbArc
 50
270.0
 51
358.9999999999982
  0
ARC
  5
136B
330
2
100
AcDbEntity
  8
0
100
AcDbCircle
 10
75.95566676982833
 20
226.1262627196646
 30
0.0
 40
2.0
100
AcDbArc
 50
270.0
 51
359.0000000000242
  0
LINE
  5
136C
330
2
100
AcDbEntity
  8
0
100
AcDbLine
 10
77.95536216014068
 20
226.09135790679
 30
0.0
 11
78.00508283528722
 21
228.9398534782021
 31
0.0
  0
LINE
  5
136D
330
2
100
AcDbEntity
  8
0
100
AcDbLine
 10
88.92106129605087
 20
254.1262627196646
 30
0.0
 11
89.44501787679326
 21
224.1088103132273
 31
0.0
  0
ARC
  5
136E
330
2
100
AcDbEntity
  8
0
100
AcDbCircle
 10
87.79911426088517
 20
221.1262627196646
 30
0.0
 40
3.0
100
AcDbArc
 50
48.59037789073019
 51
61.24284295859403
  0
ARC
  5
136F
330
2
100
AcDbEntity
  8
0
100
AcDbCircle
 10
90.44486557194966
 20
224.1262627196646
 30
0.0
 40
1.0
100
AcDbArc
 50
181.0000000000147
 51
270.0
  0
LINE
  5
1370
330
2
100
AcDbEntity
  8
0
100
AcDbLine
 10
96.92106129605907
 20
223.1262627196646
 30
0.0
 11
90.44486557194966
 21
223.1262627196646
 31
0.0
  0
LINE
  5
1371
330
2
100
AcDbEntity
  8
0
100
AcDbLine
 10
84.41536656383084
 20
284.1262627196647
 30
0.0
 11
53.92106129605906
 21
284.1262627196647
 31
0.0
  0
LINE
  5
1372
330
2
100
AcDbEntity
  8
CENTER
  6
CENS
100
AcDbLine
 10
67.92106129605906
 20
293.1262627196678
 30
0.0
 11
67.92106129605906
 21
270.6438530019144
 31
0.0
  0
ARC
  5
1373
330
2
100
AcDbEntity
  8
0
100
AcDbCircle
 10
59.46662029574952
 20
280.1262627196646
 30
0.0
 40
4.0
100
AcDbArc
 50
1.000000000001775
 51
90.0
  0
ARC
  5
1374
330
2
100
AcDbEntity
  8
0
100
AcDbCircle
 10
87.79911426088654
 20
287.1262627196646
 30
0.0
 40
3.0
100
AcDbArc
 50
298.7571570414061
 51
311.4096221092513
  0
ARC
  5
1375
330
2
100
AcDbEntity
  8
0
100
AcDbCircle
 10
90.44486557195057
 20
284.1262627196647
 30
0.0
 40
1.0
100
AcDbArc
 50
90.0
 51
178.9999999999851
  0
LINE
  5
1376
330
2
100
AcDbEntity
  8
0
100
AcDbLine
 10
96.92106129605907
 20
285.1262627196646
 30
0.0
 11
90.44486557195057
 21
285.1262627196646
 31
0.0
  0
LINE
  5
1377
330
2
100
AcDbEntity
  8
0
100
AcDbLine
 10
53.92106129605906
 20
284.1262627196647
 30
0.0
 11
53.92106129605906
 21
224.1262627196646
 31
0.0
  0
LINE
  5
1378
330
2
100
AcDbEntity
  8
0
100
AcDbLine
 10
88.32898616343062
 20
284.4962627196645
 30
0.0
 11
89.32898616343061
 21
284.4962627196645
 31
0.0
  0
LINE
  5
1379
330
2
100
AcDbEntity
  8
0
100
AcDbLine
 10
89.32898616343061
 20
284.4962627196645
 30
0.0
 11
89.32898616343061
 21
277.4962627196645
 31
0.0
  0
LINE
  5
137A
330
2
100
AcDbEntity
  8
0
100
AcDbLine
 10
89.32898616343061
 20
277.4962627196645
 30
0.0
 11
88.32898616343062
 21
277.4962627196645
 31
0.0
  0
LINE
  5
137B
330
2
100
AcDbEntity
  8
0
100
AcDbLine
 10
88.32898616343062
 20
277.4962627196645
 30
0.0
 11
88.32898616343062
 21
284.4962627196645
 31
0.0
  0
LINE
  5
137C
330
2
100
AcDbEntity
  8
0
100
AcDbLine
 10
84.32898616343061
 20
283.9766474773941
 30
0.0
 11
84.32898616343061
 21
278.015877961935
 31
0.0
  0
LINE
  5
137D
330
2
100
AcDbEntity
  8
0
100
AcDbLine
 10
84.62898616343034
 20
277.4962627196645
 30
0.0
 11
84.62898616343034
 21
284.4962627196645
 31
0.0
  0
LINE
  5
137E
330
2
100
AcDbEntity
  8
0
100
AcDbLine
 10
84.62898616343034
 20
277.4962627196645
 30
0.0
 11
88.32898616343062
 21
277.4962627196645
 31
0.0
  0
LINE
  5
137F
330
2
100
AcDbEntity
  8
0
100
AcDbLine
 10
84.62898616343034
 20
277.4962627196645
 30
0.0
 11
84.32898616343061
 21
278.015877961935
 31
0.0
  0
LINE
  5
1380
330
2
100
AcDbEntity
  8
0
100
AcDbLine
 10
84.32898616343061
 20
283.9766474773941
 30
0.0
 11
84.62898616343034
 21
284.4962627196645
 31
0.0
  0
LINE
  5
1381
330
2
100
AcDbEntity
  8
0
100
AcDbLine
 10
88.32898616343062
 20
284.4962627196645
 30
0.0
 11
84.62898616343034
 21
284.4962627196645
 31
0.0
  0
LINE
  5
1382
330
2
100
AcDbEntity
  8
CENTER
  6
CENS
100
AcDbLine
 10
79.39007889068069
 20
280.996262719665
 30
0.0
 11
102.3900359803032
 21
280.996262719665
 31
0.0
  0
LINE
  5
1383
330
2
100
AcDbEntity
  8
CENTER
  6
CENS
100
AcDbLine
 10
79.39007889068069
 20
227.2562627196643
 30
0.0
 11
102.3900359803032
 21
227.2562627196643
 31
0.0
  0
LINE
  5
1384
330
2
100
AcDbEntity
  8
0
100
AcDbLine
 10
88.32898616343062
 20
223.7562627196648
 30
0.0
 11
89.32898616343061
 21
223.7562627196648
 31
0.0
  0
LINE
  5
1385
330
2
100
AcDbEntity
  8
0
100
AcDbLine
 10
89.32898616343061
 20
223.7562627196648
 30
0.0
 11
89.32898616343061
 21
230.7562627196647
 31
0.0
  0
LINE
  5
1386
330
2
100
AcDbEntity
  8
0
100
AcDbLine
 10
89.32898616343061
 20
230.7562627196647
 30
0.0
 11
88.32898616343062
 21
230.7562627196647
 31
0.0
  0
LINE
  5
1387
330
2
100
AcDbEntity
  8
0
100
AcDbLine
 10
88.32898616343062
 20
230.7562627196647
 30
0.0
 11
88.32898616343062
 21
223.7562627196648
 31
0.0
  0
LINE
  5
1388
330
2
100
AcDbEntity
  8
0
100
AcDbLine
 10
84.32898616343061
 20
224.2758779619352
 30
0.0
 11
84.32898616343061
 21
230.2366474773943
 31
0.0
  0
LINE
  5
1389
330
2
100
AcDbEntity
  8
0
100
AcDbLine
 10
84.62898616343034
 20
230.7562627196647
 30
0.0
 11
84.62898616343034
 21
223.7562627196648
 31
0.0
  0
LINE
  5
138A
330
2
100
AcDbEntity
  8
0
100
AcDbLine
 10
84.62898616343034
 20
230.7562627196647
 30
0.0
 11
88.32898616343062
 21
230.7562627196647
 31
0.0
  0
LINE
  5
138B
330
2
100
AcDbEntity
  8
0
100
AcDbLine
 10
84.62898616343034
 20
230.7562627196647
 30
0.0
 11
84.32898616343061
 21
230.2366474773943
 31
0.0
  0
LINE
  5
138C
330
2
100
AcDbEntity
  8
0
100
AcDbLine
 10
84.32898616343061
 20
224.2758779619352
 30
0.0
 11
84.62898616343034
 21
223.7562627196648
 31
0.0
  0
LINE
  5
138D
330
2
100
AcDbEntity
  8
0
100
AcDbLine
 10
88.32898616343062
 20
223.7562627196648
 30
0.0
 11
84.62898616343034
 21
223.7562627196648
 31
0.0
  0
LINE
  5
138E
330
2
100
AcDbEntity
  8
0
100
AcDbLine
 10
62.92106129605906
 20
288.1262627196647
 30
0.0
 11
72.92106129605906
 21
288.1262627196647
 31
0.0
  0
ARC
  5
138F
330
2
100
AcDbEntity
  8
0
100
AcDbCircle
 10
72.92106129605906
 20
284.1262627196647
 30
0.0
 40
4.0
100
AcDbArc
 50
0.0
 51
90.0
  0
ARC
  5
1390
330
2
100
AcDbEntity
  8
0
100
AcDbCircle
 10
62.92106129605906
 20
284.1262627196647
 30
0.0
 40
4.000000000000028
100
AcDbArc
 50
90.0
 51
180.0
  0
LINE
  5
1399
330
2
100
AcDbEntity
  8
0
100
AcDbLine
 10
305.3534853878963
 20
288.1262627196637
 30
0.0
 11
295.3534853878963
 21
288.1262627196637
 31
0.0
  0
ARC
  5
139A
330
2
100
AcDbEntity
  8
0
100
AcDbCircle
 10
295.3534853878963
 20
284.1262627196637
 30
0.0
 40
3.999999999999971
100
AcDbArc
 50
90.0
 51
158.4187099909541
  0
ARC
  5
139B
330
2
100
AcDbEntity
  8
0
100
AcDbCircle
 10
305.3534853878963
 20
284.1262627196637
 30
0.0
 40
4.000000000000056
100
AcDbArc
 50
17.2834602733143
 51
90.0
  0
LINE
  5
139C
330
2
100
AcDbEntity
  8
CENTER
  6
CENS
100
AcDbLine
 10
300.3534853878985
 20
293.126262719661
 30
0.0
 11
300.3534853878985
 21
270.6438530019108
 31
0.0
  0
TEXT
  5
139F
330
2
100
AcDbEntity
  8
TITLE
100
AcDbText
 10
236.9227928533264
 20
443.7228618731157
 30
0.0
 40
5.0
  1
AFCZ12S-3~5M200S2
100
AcDbText
  0
TEXT
  5
13A1
330
2
100
AcDbEntity
  8
TITLE
100
AcDbText
 10
236.9227928533264
 20
433.3929709941354
 30
0.0
 40
5.0
  1
AFCZ12S-3~5L200S2
100
AcDbText
  0
CIRCLE
  5
1D55
330
2
100
AcDbEntity
  8
0
100
AcDbCircle
 10
678.2039473554854
 20
254.1262627196487
 30
0.0
 40
14.75
  0
ENDSEC
  0
SECTION
  2
OBJECTS
  0
DICTIONARY
  5
7
330
0
100
AcDbDictionary
  3
ACAD_COLOR
350
1D2A
  3
ACAD_GROUP
350
75
  3
ACAD_LAYOUT
350
61
  3
ACAD_MATERIAL
350
1D00
  3
ACAD_MLEADERSTYLE
350
1D4F
  3
ACAD_MLINESTYLE
350
76
  3
ACAD_PLOTSETTINGS
350
77
  3
ACAD_PLOTSTYLENAME
350
6
  3
ACAD_SCALELIST
350
1D2D
  3
ACAD_TABLESTYLE
350
1D2B
  3
ACAD_VISUALSTYLE
350
1D19
  3
ACADDIM
350
480
  3
ACDB_RECOMPOSE_DATA
350
1D8F
  3
ACDBHEADERROUNDTRIPXREC
350
1EAF
  3
ACDBVARIABLEDICTIONARY
350
102
  3
DWGPROPS
350
1E7B
  0
DICTIONARY
  5
1D98
330
6E
100
AcDbDictionary
280
     1
  3
ACAD_XREC_ROUNDTRIP
360
1E82
  0
DICTIONARY
  5
AFE
330
66
100
AcDbDictionary
280
     1
  3
ACAD_LAYERSTATES
360
AFF
  0
DICTIONARY
  5
1D56
330
5E
100
AcDbDictionary
280
     1
  3
ACAD_XREC_ROUNDTRIP
360
1E7E
  3
ADSK_XREC_LAYER_RECONCILED
360
1D57
  0
DICTIONARY
  5
1D58
330
3E
100
AcDbDictionary
280
     1
  3
ACAD_XREC_ROUNDTRIP
360
1E7D
  3
ADSK_XREC_LAYER_RECONCILED
360
1D59
  0
DICTIONARY
  5
1D5E
330
2B5
100
AcDbDictionary
280
     1
  3
ACAD_XREC_ROUNDTRIP
360
1E88
  3
ADSK_XREC_LAYER_RECONCILED
360
1D5F
  0
DICTIONARY
  5
1D60
330
2BA
100
AcDbDictionary
280
     1
  3
ACAD_XREC_ROUNDTRIP
360
1E89
  3
ADSK_XREC_LAYER_RECONCILED
360
1D61
  0
DICTIONARY
  5
1D64
330
3FA
100
AcDbDictionary
280
     1
  3
ACAD_XREC_ROUNDTRIP
360
1E8B
  3
ADSK_XREC_LAYER_RECONCILED
360
1D65
  0
DICTIONARY
  5
1D66
330
478
100
AcDbDictionary
280
     1
  3
ACAD_XREC_ROUNDTRIP
360
1E8C
  3
ADSK_XREC_LAYER_RECONCILED
360
1D67
  0
DICTIONARY
  5
1ED0
330
2
100
AcDbDictionary
280
     1
  3
ACAD_LAYOUTSELFREF
360
1ED1
  0
DICTIONARY
  5
1ED2
330
1EA9
100
AcDbDictionary
280
     1
  3
ACAD_LAYOUTSELFREF
360
1ED3
  0
DICTIONARY
  5
1D2A
102
{ACAD_REACTORS
330
7
102
}
330
7
100
AcDbDictionary
  0
DICTIONARY
  5
75
102
{ACAD_REACTORS
330
7
102
}
330
7
100
AcDbDictionary
  0
DICTIONARY
  5
61
102
{ACAD_REACTORS
330
7
102
}
330
7
100
AcDbDictionary
  0
DICTIONARY
  5
1D00
102
{ACAD_REACTORS
330
7
102
}
330
7
100
AcDbDictionary
  3
BYBLOCK
350
1D09
  3
BYLAYER
350
1D01
  3
GLOBAL
350
1D11
  0
DICTIONARY
  5
1D4F
102
{ACAD_REACTORS
330
7
102
}
330
7
100
AcDbDictionary
  3
STANDARD
350
1D50
  0
DICTIONARY
  5
76
102
{ACAD_REACTORS
330
7
102
}
330
7
100
AcDbDictionary
  3
STANDARD
350
78
  0
DICTIONARY
  5
77
102
{ACAD_REACTORS
330
7
102
}
330
7
100
AcDbDictionary
  0
ACDBDICTIONARYWDFLT
  5
6
102
{ACAD_REACTORS
330
7
102
}
330
7
100
AcDbDictionary
281
     1
  3
Normal
350
5
100
AcDbDictionaryWithDefault
340
5
  0
DICTIONARY
  5
1D2D
102
{ACAD_REACTORS
330
7
102
}
330
7
100
AcDbDictionary
  3
A0
350
1D2E
  3
A1
350
1D2F
  3
A2
350
1D30
  3
A3
350
1D31
  3
A4
350
1D32
  3
A5
350
1D33
  3
A6
350
1D34
  3
A7
350
1D35
  3
A8
350
1D36
  3
A9
350
1D37
  3
B0
350
1D38
  3
B1
350
1D39
  3
B2
350
1D3A
  3
B3
350
1D3B
  3
B4
350
1D3C
  3
B5
350
1D3D
  3
B6
350
1D3E
  3
B7
350
1D3F
  3
B8
350
1D40
  3
B9
350
1D41
  3
C0
350
1D42
  3
C1
350
1D43
  3
C2
350
1D44
  3
C3
350
1D45
  3
C4
350
1D46
  3
C5
350
1D47
  3
C6
350
1D48
  3
C7
350
1D49
  3
C8
350
1D4A
  3
C9
350
1D4B
  3
D0
350
1D4C
  3
D1
350
1D4D
  3
D2
350
1D4E
  0
DICTIONARY
  5
1D2B
102
{ACAD_REACTORS
330
7
102
}
330
7
100
AcDbDictionary
  3
STANDARD
350
1D2C
  0
DICTIONARY
  5
1D19
102
{ACAD_REACTORS
330
7
102
}
330
7
100
AcDbDictionary
  3
2DWIREFRAME
350
1D1F
  3
3D_HIDDEN
350
1D21
  3
3DWIREFRAME
350
1D20
  3
BASIC
350
1D1E
  3
BRIGHTEN
350
1D25
  3
COLORCHANGE
350
1D29
  3
CONCEPTUAL
350
1D22
  3
DIM
350
1D24
  3
FACEPATTERN
350
1D28
  3
FLAT
350
1D1A
  3
FLATWITHEDGES
350
1D1B
  3
GOURAUD
350
1D1C
  3
GOURAUDWITHEDGES
350
1D1D
  3
LINEPATTERN
350
1D27
  3
REALISTIC
350
1D23
  3
THICKEN
350
1D26
  0
XRECORD
  5
480
102
{ACAD_REACTORS
330
7
102
}
330
7
100
AcDbXrecord
 90
   990106
  3

 60
     0
 61
     0
 62
     1
 63
     3
 64
     1
 65
     0
 66
     0
 67
     3
 68
     1
 69
     0
 70
     0
 71
     0
 72
     0
 40
0.0
170
     2
340
0
  0
XRECORD
  5
1D8F
102
{ACAD_REACTORS
330
7
102
}
330
7
100
AcDbXrecord
 90
        1
330
1D2C
  0
DICTIONARY
  5
1EAF
102
{ACAD_REACTORS
330
7
102
}
330
7
100
AcDbDictionary
  3
CEPSNTYPE
350
1EB9
  3
DIMSTYLEDATA
350
1EBD
  3
FINGERPRINTGUID
350
1EBA
  3
HYPERLINKBASE
350
1EB2
  3
INSUNITS
350
1EB8
  3
LAYOUTDICT
350
1EB4
  3
LWETCUNION
350
1EB7
  3
PLOTSETDICT
350
1EB5
  3
PLOTSTYLNAMDICT
350
1EB6
  3
PSVPSCALE
350
1EBC
  3
PUCSBASE
350
1EC0
  3
PUCSORGBACK
350
1EC6
  3
PUCSORGBOTTOM
350
1EC2
  3
PUCSORGFRONT
350
1EC5
  3
PUCSORGLEFT
350
1EC3
  3
PUCSORGRIGHT
350
1EC4
  3
PUCSORGTOP
350
1EC1
  3
PUCSORTHOREF
350
1EBE
  3
PUCSORTHOVIEW
350
1EBF
  3
STYLESHEET
350
1EB3
  3
TSTACKALIGN
350
1EB0
  3
TSTACKSIZE
350
1EB1
  3
UCSBASE
350
1EC9
  3
UCSORGBACK
350
1ECF
  3
UCSORGBOTTOM
350
1ECB
  3
UCSORGFRONT
350
1ECE
  3
UCSORGLEFT
350
1ECC
  3
UCSORGRIGHT
350
1ECD
  3
UCSORGTOP
350
1ECA
  3
UCSORTHOREF
350
1EC7
  3
UCSORTHOVIEW
350
1EC8
  3
VERSIONGUID
350
1EBB
  0
DICTIONARY
  5
102
102
{ACAD_REACTORS
330
7
102
}
330
7
100
AcDbDictionary
  3
CANNOSCALE
350
1DB0
  3
CMLEADERSTYLE
350
1DAF
  3
CTABLESTYLE
350
1DAE
  3
DIMASSOC
350
103
  3
INDEXCTL
350
1DB1
  3
SORTENTS
350
549
  0
XRECORD
  5
1E7B
102
{ACAD_REACTORS
330
7
102
}
330
7
100
AcDbXrecord
  1
DWGPROPS COOKIE
  2

  3

  4

  6

  7

  8
ymorima
  9

300
=
301
=
302
=
303
=
304
=
305
=
306
=
307
=
308
=
309
=
 40
0.0175571412037037
 41
2454410.38630787
 42
2454425.67273618
  1

 90
        0
  0
XRECORD
  5
1E82
102
{ACAD_REACTORS
330
1D98
102
}
330
1D98
100
AcDbXrecord
102
VTR_0.000_0.000_1.000_1.000_VISUALSTYLE
340
1D1F
102
VTR_0.000_0.000_1.000_1.000_GRIDDISPLAY
 70
     3
102
VTR_0.000_0.000_1.000_1.000_GRIDMAJOR
 70
     5
102
VTR_0.000_0.000_1.000_1.000_DEFAULTLIGHTING
280
     1
102
VTR_0.000_0.000_1.000_1.000_DEFAULTLIGHTINGTYPE
 70
     1
102
VTR_0.000_0.000_1.000_1.000_BRIGHTNESS
141
0.0
102
VTR_0.000_0.000_1.000_1.000_CONTRAST
142
0.0
  0
DICTIONARY
  5
AFF
102
{ACAD_REACTORS
330
AFE
102
}
330
AFE
100
AcDbDictionary
  0
XRECORD
  5
1E7E
102
{ACAD_REACTORS
330
1D56
102
}
330
1D56
100
AcDbXrecord
102
MATERIAL
340
1D11
  0
XRECORD
  5
1D57
102
{ACAD_REACTORS
330
1D56
102
}
330
1D56
100
AcDbXrecord
290
     1
  0
XRECORD
  5
1E7D
102
{ACAD_REACTORS
330
1D58
102
}
330
1D58
100
AcDbXrecord
102
MATERIAL
340
1D11
  0
XRECORD
  5
1D59
102
{ACAD_REACTORS
330
1D58
102
}
330
1D58
100
AcDbXrecord
290
     1
  0
XRECORD
  5
1E88
102
{ACAD_REACTORS
330
1D5E
102
}
330
1D5E
100
AcDbXrecord
102
MATERIAL
340
1D11
  0
XRECORD
  5
1D5F
102
{ACAD_REACTORS
330
1D5E
102
}
330
1D5E
100
AcDbXrecord
290
     1
  0
XRECORD
  5
1E89
102
{ACAD_REACTORS
330
1D60
102
}
330
1D60
100
AcDbXrecord
102
MATERIAL
340
1D11
  0
XRECORD
  5
1D61
102
{ACAD_REACTORS
330
1D60
102
}
330
1D60
100
AcDbXrecord
290
     1
  0
XRECORD
  5
1E8B
102
{ACAD_REACTORS
330
1D64
102
}
330
1D64
100
AcDbXrecord
102
MATERIAL
340
1D11
  0
XRECORD
  5
1D65
102
{ACAD_REACTORS
330
1D64
102
}
330
1D64
100
AcDbXrecord
290
     1
  0
XRECORD
  5
1E8C
102
{ACAD_REACTORS
330
1D66
102
}
330
1D66
100
AcDbXrecord
102
MATERIAL
340
1D11
  0
XRECORD
  5
1D67
102
{ACAD_REACTORS
330
1D66
102
}
330
1D66
100
AcDbXrecord
290
     1
  0
XRECORD
  5
1ED1
102
{ACAD_REACTORS
330
1ED0
102
}
330
1ED0
100
AcDbXrecord
340
2
  0
XRECORD
  5
1ED3
102
{ACAD_REACTORS
330
1ED2
102
}
330
1ED2
100
AcDbXrecord
340
1EA9
  0
ACAD_PROXY_OBJECT
  5
1D09
102
{ACAD_XDICTIONARY
360
1D0A
102
}
102
{ACAD_REACTORS
330
1D00
102
}
330
1D00
100
AcDbProxyObject
 90
      499
 91
      510
 93
     1340
310
42109E509B1BD8DAC02004014080404555555555555953FAA155555555555654FEA9AA400014080404555555555555953FAA155555555555654FEA9AA400000000000000E03F4080404555555555555953FAA155555555555654FEA9AA4014080404555555555555953FAA155555555555654FEA9AA4010201011555555555
310
55654FEA8555555555555953FAA6A9005020101155555555555654FEA8555555555555953FAA6A9000
 94
        0
1001
ACAD
1000
AcadProxyRoundTripData
1071
      504
1071
   655383
1070
     0
  0
ACAD_PROXY_OBJECT
  5
1D01
102
{ACAD_XDICTIONARY
360
1D02
102
}
102
{ACAD_REACTORS
330
1D00
102
}
330
1D00
100
AcDbProxyObject
 90
      499
 91
      510
 93
     1340
310
42109E53185E595C802004014080404555555555555953FAA155555555555654FEA9AA400014080404555555555555953FAA155555555555654FEA9AA400000000000000E03F4080404555555555555953FAA155555555555654FEA9AA4014080404555555555555953FAA155555555555654FEA9AA4010201011555555555
310
55654FEA8555555555555953FAA6A9005020101155555555555654FEA8555555555555953FAA6A9000
 94
        0
1001
ACAD
1000
AcadProxyRoundTripData
1071
      504
1071
   655383
1070
     0
  0
ACAD_PROXY_OBJECT
  5
1D11
102
{ACAD_XDICTIONARY
360
1D12
102
}
102
{ACAD_REACTORS
330
1D00
102
}
330
1D00
100
AcDbProxyObject
 90
      499
 91
      510
 93
     1332
310
41D1DB1BD8985B002004014080404555555555555953FAA155555555555654FEA9AA400014080404555555555555953FAA155555555555654FEA9AA400000000000000E03F4080404555555555555953FAA155555555555654FEA9AA4014080404555555555555953FAA155555555555654FEA9AA401020101155555555555
310
654FEA8555555555555953FAA6A9005020101155555555555654FEA8555555555555953FAA6A9000
 94
        0
1001
ACAD
1000
AcadProxyRoundTripData
1071
      504
1071
   655383
1070
     0
  0
ACAD_PROXY_OBJECT
  5
1D50
102
{ACAD_REACTORS
330
1D4F
102
}
330
1D4F
100
AcDbProxyObject
 90
      499
 91
      510
 93
      618
310
40901902A4063FBFFFFFE056BD1B81E855B9FC0AD7A3703D0AD73F4254DD185B99185C990000AD7A3703D0AC73F90141901A02B5E8DC0F42B1CFC02B5E8DC0F42B1CFE5764000000000000300FC6
340
6A
340
0
340
16
340
0
 94
        0
1001
ACAD_MLEADERVER
1070
     2
1001
ACAD
1000
AcadProxyRoundTripData
1071
      508
1071
   655383
1070
     0
  0
MLINESTYLE
  5
78
102
{ACAD_REACTORS
330
76
102
}
330
76
100
AcDbMlineStyle
  2
STANDARD
 70
     0
  3

 62
     0
 51
90.0
 52
90.0
 71
     2
 49
0.5
 62
   256
  6
BYLAYER
 49
-0.5
 62
   256
  6
BYLAYER
  0
ACDBPLACEHOLDER
  5
5
102
{ACAD_REACTORS
330
6
102
}
330
6
100
AcDbPlaceHolder
280
     0
  0
ACAD_PROXY_OBJECT
  5
1D2E
102
{ACAD_REACTORS
330
1D2D
102
}
330
1D2D
100
AcDbProxyObject
 90
      499
 91
      510
 93
       49
310
904313A3100598
 94
        0
1001
ACAD
1000
AcadProxyRoundTripData
1071
      507
1071
   655383
1070
     0
  0
ACAD_PROXY_OBJECT
  5
1D2F
102
{ACAD_REACTORS
330
1D2D
102
}
330
1D2D
100
AcDbProxyObject
 90
      499
 91
      510
 93
      113
310
904313A3200400000000000000406B
 94
        0
1001
ACAD
1000
AcadProxyRoundTripData
1071
      507
1071
   655383
1070
     0
  0
ACAD_PROXY_OBJECT
  5
1D30
102
{ACAD_REACTORS
330
1D2D
102
}
330
1D2D
100
AcDbProxyObject
 90
      499
 91
      510
 93
      113
310
904313A3400400000000000010406B
 94
        0
1001
ACAD
1000
AcadProxyRoundTripData
1071
      507
1071
   655383
1070
     0
  0
ACAD_PROXY_OBJECT
  5
1D31
102
{ACAD_REACTORS
330
1D2D
102
}
330
1D2D
100
AcDbProxyObject
 90
      499
 91
      510
 93
      113
310
904313A3500400000000000014406B
 94
        0
1001
ACAD
1000
AcadProxyRoundTripData
1071
      507
1071
   655383
1070
     0
  0
ACAD_PROXY_OBJECT
  5
1D32
102
{ACAD_REACTORS
330
1D2D
102
}
330
1D2D
100
AcDbProxyObject
 90
      499
 91
      510
 93
      113
310
904313A3800400000000000020406B
 94
        0
1001
ACAD
1000
AcadProxyRoundTripData
1071
      507
1071
   655383
1070
     0
  0
ACAD_PROXY_OBJECT
  5
1D33
102
{ACAD_REACTORS
330
1D2D
102
}
330
1D2D
100
AcDbProxyObject
 90
      499
 91
      510
 93
      121
310
905313A3130004000000000000244051
 94
        0
1001
ACAD
1000
AcadProxyRoundTripData
1071
      507
1071
   655383
1070
     0
  0
ACAD_PROXY_OBJECT
  5
1D34
102
{ACAD_REACTORS
330
1D2D
102
}
330
1D2D
100
AcDbProxyObject
 90
      499
 91
      510
 93
      121
310
905313A3136004000000000000304051
 94
        0
1001
ACAD
1000
AcadProxyRoundTripData
1071
      507
1071
   655383
1070
     0
  0
ACAD_PROXY_OBJECT
  5
1D35
102
{ACAD_REACTORS
330
1D2D
102
}
330
1D2D
100
AcDbProxyObject
 90
      499
 91
      510
 93
      121
310
905313A3230004000000000000344051
 94
        0
1001
ACAD
1000
AcadProxyRoundTripData
1071
      507
1071
   655383
1070
     0
  0
ACAD_PROXY_OBJECT
  5
1D36
102
{ACAD_REACTORS
330
1D2D
102
}
330
1D2D
100
AcDbProxyObject
 90
      499
 91
      510
 93
      121
310
905313A33300040000000000003E4051
 94
        0
1001
ACAD
1000
AcadProxyRoundTripData
1071
      507
1071
   655383
1070
     0
  0
ACAD_PROXY_OBJECT
  5
1D37
102
{ACAD_REACTORS
330
1D2D
102
}
330
1D2D
100
AcDbProxyObject
 90
      499
 91
      510
 93
      121
310
905313A3430004000000000000444051
 94
        0
1001
ACAD
1000
AcadProxyRoundTripData
1071
      507
1071
   655383
1070
     0
  0
ACAD_PROXY_OBJECT
  5
1D38
102
{ACAD_REACTORS
330
1D2D
102
}
330
1D2D
100
AcDbProxyObject
 90
      499
 91
      510
 93
      121
310
905313A3530004000000000000494051
 94
        0
1001
ACAD
1000
AcadProxyRoundTripData
1071
      507
1071
   655383
1070
     0
  0
ACAD_PROXY_OBJECT
  5
1D39
102
{ACAD_REACTORS
330
1D2D
102
}
330
1D2D
100
AcDbProxyObject
 90
      499
 91
      510
 93
      129
310
906313A313030004000000000000594038
 94
        0
1001
ACAD
1000
AcadProxyRoundTripData
1071
      507
1071
   655383
1070
     0
  0
ACAD_PROXY_OBJECT
  5
1D3A
102
{ACAD_REACTORS
330
1D2D
102
}
330
1D2D
100
AcDbProxyObject
 90
      499
 91
      510
 93
      113
310
904323A31000000000000000010159
 94
        0
1001
ACAD
1000
AcadProxyRoundTripData
1071
      507
1071
   655383
1070
     0
  0
ACAD_PROXY_OBJECT
  5
1D3B
102
{ACAD_REACTORS
330
1D2D
102
}
330
1D2D
100
AcDbProxyObject
 90
      499
 91
      510
 93
      113
310
904343A31000000000000000410159
 94
        0
1001
ACAD
1000
AcadProxyRoundTripData
1071
      507
1071
   655383
1070
     0
  0
ACAD_PROXY_OBJECT
  5
1D3C
102
{ACAD_REACTORS
330
1D2D
102
}
330
1D2D
100
AcDbProxyObject
 90
      499
 91
      510
 93
      113
310
904383A31000000000000000810159
 94
        0
1001
ACAD
1000
AcadProxyRoundTripData
1071
      507
1071
   655383
1070
     0
  0
ACAD_PROXY_OBJECT
  5
1D3D
102
{ACAD_REACTORS
330
1D2D
102
}
330
1D2D
100
AcDbProxyObject
 90
      499
 91
      510
 93
      121
310
90531303A31000000000000000910140
 94
        0
1001
ACAD
1000
AcadProxyRoundTripData
1071
      507
1071
   655383
1070
     0
  0
ACAD_PROXY_OBJECT
  5
1D3E
102
{ACAD_REACTORS
330
1D2D
102
}
330
1D2D
100
AcDbProxyObject
 90
      499
 91
      510
 93
      129
310
9063130303A31000000000000001650138
 94
        0
1001
ACAD
1000
AcadProxyRoundTripData
1071
      507
1071
   655383
1070
     0
  0
ACAD_PROXY_OBJECT
  5
1D3F
102
{ACAD_REACTORS
330
1D2D
102
}
330
1D2D
100
AcDbProxyObject
 90
      499
 91
      510
 93
      265
310
90F312F31323822203D2031272D302200000000000000200FC00000000000028402B
 94
        0
1001
ACAD
1000
AcadProxyRoundTripData
1071
      507
1071
   655383
1070
     0
  0
ACAD_PROXY_OBJECT
  5
1D40
102
{ACAD_REACTORS
330
1D2D
102
}
330
1D2D
100
AcDbProxyObject
 90
      499
 91
      510
 93
      257
310
90E312F363422203D2031272D302200000000000000240FC000000000000284040
 94
        0
1001
ACAD
1000
AcadProxyRoundTripData
1071
      507
1071
   655383
1070
     0
  0
ACAD_PROXY_OBJECT
  5
1D41
102
{ACAD_REACTORS
330
1D2D
102
}
330
1D2D
100
AcDbProxyObject
 90
      499
 91
      510
 93
      257
310
90E312F333222203D2031272D302200000000000000280FC000000000000284040
 94
        0
1001
ACAD
1000
AcadProxyRoundTripData
1071
      507
1071
   655383
1070
     0
  0
ACAD_PROXY_OBJECT
  5
1D42
102
{ACAD_REACTORS
330
1D2D
102
}
330
1D2D
100
AcDbProxyObject
 90
      499
 91
      510
 93
      257
310
90E312F313622203D2031272D3022000000000000002C0FC000000000000284040
 94
        0
1001
ACAD
1000
AcadProxyRoundTripData
1071
      507
1071
   655383
1070
     0
  0
ACAD_PROXY_OBJECT
  5
1D43
102
{ACAD_REACTORS
330
1D2D
102
}
330
1D2D
100
AcDbProxyObject
 90
      499
 91
      510
 93
      257
310
90E332F333222203D2031272D3022000000000000002E0FC000000000000284040
 94
        0
1001
ACAD
1000
AcadProxyRoundTripData
1071
      507
1071
   655383
1070
     0
  0
ACAD_PROXY_OBJECT
  5
1D44
102
{ACAD_REACTORS
330
1D2D
102
}
330
1D2D
100
AcDbProxyObject
 90
      499
 91
      510
 93
      249
310
90D312F3822203D2031272D302200000000000000300FC000000000000284040
 94
        0
1001
ACAD
1000
AcadProxyRoundTripData
1071
      507
1071
   655383
1070
     0
  0
ACAD_PROXY_OBJECT
  5
1D45
102
{ACAD_REACTORS
330
1D2D
102
}
330
1D2D
100
AcDbProxyObject
 90
      499
 91
      510
 93
      257
310
90E332F313622203D2031272D302200000000000000320FC000000000000284040
 94
        0
1001
ACAD
1000
AcadProxyRoundTripData
1071
      507
1071
   655383
1070
     0
  0
ACAD_PROXY_OBJECT
  5
1D46
102
{ACAD_REACTORS
330
1D2D
102
}
330
1D2D
100
AcDbProxyObject
 90
      499
 91
      510
 93
      249
310
90D312F3422203D2031272D302200000000000000340FC000000000000284040
 94
        0
1001
ACAD
1000
AcadProxyRoundTripData
1071
      507
1071
   655383
1070
     0
  0
ACAD_PROXY_OBJECT
  5
1D47
102
{ACAD_REACTORS
330
1D2D
102
}
330
1D2D
100
AcDbProxyObject
 90
      499
 91
      510
 93
      249
310
90D332F3822203D2031272D302200000000000000360FC000000000000284040
 94
        0
1001
ACAD
1000
AcadProxyRoundTripData
1071
      507
1071
   655383
1070
     0
  0
ACAD_PROXY_OBJECT
  5
1D48
102
{ACAD_REACTORS
330
1D2D
102
}
330
1D2D
100
AcDbProxyObject
 90
      499
 91
      510
 93
      249
310
90D312F3222203D2031272D302200000000000000380FC000000000000284040
 94
        0
1001
ACAD
1000
AcadProxyRoundTripData
1071
      507
1071
   655383
1070
     0
  0
ACAD_PROXY_OBJECT
  5
1D49
102
{ACAD_REACTORS
330
1D2D
102
}
330
1D2D
100
AcDbProxyObject
 90
      499
 91
      510
 93
      249
310
90D332F3422203D2031272D3022000000000000003A0FC000000000000284040
 94
        0
1001
ACAD
1000
AcadProxyRoundTripData
1071
      507
1071
   655383
1070
     0
  0
ACAD_PROXY_OBJECT
  5
1D4A
102
{ACAD_REACTORS
330
1D2D
102
}
330
1D2D
100
AcDbProxyObject
 90
      499
 91
      510
 93
      169
310
90B3122203D2031272D3022004000000000000284020
 94
        0
1001
ACAD
1000
AcadProxyRoundTripData
1071
      507
1071
   655383
1070
     0
  0
ACAD_PROXY_OBJECT
  5
1D4B
102
{ACAD_REACTORS
330
1D2D
102
}
330
1D2D
100
AcDbProxyObject
 90
      499
 91
      510
 93
      265
310
90F312D312F3222203D2031272D3022000000000000003E0FC00000000000028402B
 94
        0
1001
ACAD
1000
AcadProxyRoundTripData
1071
      507
1071
   655383
1070
     0
  0
ACAD_PROXY_OBJECT
  5
1D4C
102
{ACAD_REACTORS
330
1D2D
102
}
330
1D2D
100
AcDbProxyObject
 90
      499
 91
      510
 93
      233
310
90B3322203D2031272D30220000000000000002100000000000000284000
 94
        0
1001
ACAD
1000
AcadProxyRoundTripData
1071
      507
1071
   655383
1070
     0
  0
ACAD_PROXY_OBJECT
  5
1D4D
102
{ACAD_REACTORS
330
1D2D
102
}
330
1D2D
100
AcDbProxyObject
 90
      499
 91
      510
 93
      233
310
90B3622203D2031272D30220000000000000006100000000000000284000
 94
        0
1001
ACAD
1000
AcadProxyRoundTripData
1071
      507
1071
   655383
1070
     0
  0
ACAD_PROXY_OBJECT
  5
1D4E
102
{ACAD_REACTORS
330
1D2D
102
}
330
1D2D
100
AcDbProxyObject
 90
      499
 91
      510
 93
      257
310
90E31272D3022203D2031272D3022000000000000000A100000000000000284040
 94
        0
1001
ACAD
1000
AcadProxyRoundTripData
1071
      507
1071
   655383
1070
     0
  0
ACAD_PROXY_OBJECT
  5
1D2C
102
{ACAD_XDICTIONARY
360
1D8D
102
}
102
{ACAD_REACTORS
330
1D2B
102
}
330
1D2B
100
AcDbProxyObject
 90
      499
 91
      510
 93
     1849
310
4254DD185B99185C990028B81E85EB51B8AE3F2E07A17AD46E2B8FC02B5E8DC0F42B1CFD028000000C1008070000C3001FDFF8000000C1003FBFF000000182007F7FE00000030400FEFFC00000060801FDFF8000000C1003FBFF00000018200000000000000681FA0B0000001820100E000186003FBFF000000182007F7FE0
310
0000030400FEFFC00000060801FDFF8000000C1003FBFF000000182007F7FE000000304000AD7A3703D0AC73F4160000003040201C00030C007F7FE00000030400FEFFC00000060801FDFF8000000C1003FBFF000000182007F7FE00000030400FEFFC000000608000
340
16
340
16
340
16
 94
        0
1001
ACAD
1000
AcadProxyRoundTripData
1071
      506
1071
   655383
1070
     0
  0
ACAD_PROXY_OBJECT
  5
1D1F
102
{ACAD_REACTORS
330
1D19
102
}
330
1D19
100
AcDbProxyObject
 90
      499
 91
      510
 93
      444
310
430C9915DA5C99599C985B59401049028333333333333E3BF0000000000000FB0107901411070040501600405405064090741402480A0340
 94
        0
1001
ACAD
1000
AcDbSavedByObjectVersion
1070
     0
1000
AcadProxyRoundTripData
1071
      505
1071
   655383
1070
     0
  0
ACAD_PROXY_OBJECT
  5
1D21
102
{ACAD_REACTORS
330
1D19
102
}
330
1D19
100
AcDbProxyObject
 90
      499
 91
      510
 93
      508
310
428CD108121A5919195B8010640502408333333333333E3BF0000000000000FB01079024090700405020000000000001110200405405064090740C02480A0340
 94
        0
1001
ACAD
1000
AcDbSavedByObjectVersion
1070
     0
1000
AcadProxyRoundTripData
1071
      505
1071
   655383
1070
     0
  0
ACAD_PROXY_OBJECT
  5
1D20
102
{ACAD_REACTORS
330
1D19
102
}
330
1D19
100
AcDbProxyObject
 90
      499
 91
      510
 93
      444
310
430CD915DA5C99599C985B59401059028333333333333E3BF0000000000000FB0107901411070040501600405405064090741402480A0340
 94
        0
1001
ACAD
1000
AcDbSavedByObjectVersion
1070
     0
1000
AcadProxyRoundTripData
1071
      505
1071
   655383
1070
     0
  0
ACAD_PROXY_OBJECT
  5
1D1E
102
{ACAD_REACTORS
330
1D19
102
}
330
1D19
100
AcDbProxyObject
 90
      499
 91
      510
 93
      396
310
4190985CDA58C0107406404333333333333E3BF0000000000000FB0107A41107004050150841D405064090741402480A0356
 94
        0
1001
ACAD
1000
AcDbSavedByObjectVersion
1070
     0
1000
AcadProxyRoundTripData
1071
      505
1071
   655383
1070
     0
  0
ACAD_PROXY_OBJECT
  5
1D25
102
{ACAD_REACTORS
330
1D19
102
}
330
1D19
100
AcDbProxyObject
 90
      499
 91
      510
 93
      436
310
42509C9A59DA1D195B8010C409028333333333333E3BF0000000000000FB010790141107004050150841D405064090741402480A029956
 94
        0
1001
ACAD
1000
AcDbSavedByObjectVersion
1070
     0
1000
AcadProxyRoundTripData
1071
      505
1071
   655383
1070
     0
  0
ACAD_PROXY_OBJECT
  5
1D29
102
{ACAD_REACTORS
330
1D19
102
}
330
1D19
100
AcDbProxyObject
 90
      499
 91
      510
 93
      460
310
4310DBDB1BDC90DA185B99D9401104090240C333333333333E3BF0000000000000FB0108901411070040501508421405064090741402480A0354
 94
        0
1001
ACAD
1000
AcDbSavedByObjectVersion
1070
     0
1000
AcadProxyRoundTripData
1071
      505
1071
   655383
1070
     0
  0
ACAD_PROXY_OBJECT
  5
1D22
102
{ACAD_REACTORS
330
1D19
102
}
330
1D19
100
AcDbProxyObject
 90
      499
 91
      510
 93
      508
310
42D0DBDB98D95C1D1D585B0010940D028333333333333E3BF0000000000000FB0107902409070040501000000000000111010841D405064090740C02480A0340
 94
        0
1001
ACAD
1000
AcDbSavedByObjectVersion
1070
     0
1000
AcadProxyRoundTripData
1071
      505
1071
   655383
1070
     0
  0
ACAD_PROXY_OBJECT
  5
1D24
102
{ACAD_REACTORS
330
1D19
102
}
330
1D19
100
AcDbProxyObject
 90
      499
 91
      510
 93
      420
310
41111A5B4010B409028333333333333E3BF0000000000000FB010790141107004050150841D405064090741402480A02677FFFFFDB
 94
        0
1001
ACAD
1000
AcDbSavedByObjectVersion
1070
     0
1000
AcadProxyRoundTripData
1071
      505
1071
   655383
1070
     0
  0
ACAD_PROXY_OBJECT
  5
1D28
102
{ACAD_REACTORS
330
1D19
102
}
330
1D19
100
AcDbProxyObject
 90
      499
 91
      510
 93
      452
310
43119858D95C185D1D195C9B8010F409028333333333333E3BF0000000000000FB010790141107004050150841D405064090741402480A0350
 94
        0
1001
ACAD
1000
AcDbSavedByObjectVersion
1070
     0
1000
AcadProxyRoundTripData
1071
      505
1071
   655383
1070
     0
  0
ACAD_PROXY_OBJECT
  5
1D1A
102
{ACAD_REACTORS
330
1D19
102
}
330
1D19
100
AcDbProxyObject
 90
      499
 91
      510
 93
      396
310
41519B185D00240901404333333333333E3BF0000000000000F9010740A41107004050150841D405064090741402480A1B55
 94
        0
1001
ACAD
1000
AcDbSavedByObjectVersion
1070
     0
1000
AcadProxyRoundTripData
1071
      505
1071
   655383
1070
     0
  0
ACAD_PROXY_OBJECT
  5
1D1B
102
{ACAD_REACTORS
330
1D19
102
}
330
1D19
100
AcDbProxyObject
 90
      499
 91
      510
 93
      484
310
43919B185D15DA5D1A115919D95CC010140901404333333333333E3BF0000000000000F9010740901411070040501600405405064090741402480A1B50
 94
        0
1001
ACAD
1000
AcDbSavedByObjectVersion
1070
     0
1000
AcadProxyRoundTripData
1071
      505
1071
   655383
1070
     0
  0
ACAD_PROXY_OBJECT
  5
1D1C
102
{ACAD_REACTORS
330
1D19
102
}
330
1D19
100
AcDbProxyObject
 90
      499
 91
      510
 93
      420
310
4211DBDD5C985D590010240902404333333333333E3BF0000000000000F9010740A411070040501641D405064090741402480A1B50
 94
        0
1001
ACAD
1000
AcDbSavedByObjectVersion
1070
     0
1000
AcadProxyRoundTripData
1071
      505
1071
   655383
1070
     0
  0
ACAD_PROXY_OBJECT
  5
1D1D
102
{ACAD_REACTORS
330
1D19
102
}
330
1D19
100
AcDbProxyObject
 90
      499
 91
      510
 93
      508
310
4451DBDD5C985D5915DA5D1A115919D95CC010340902404333333333333E3BF0000000000000F9010740901411070040501600405405064090741402480A1B50
 94
        0
1001
ACAD
1000
AcDbSavedByObjectVersion
1070
     0
1000
AcadProxyRoundTripData
1071
      505
1071
   655383
1070
     0
  0
ACAD_PROXY_OBJECT
  5
1D27
102
{ACAD_REACTORS
330
1D19
102
}
330
1D19
100
AcDbProxyObject
 90
      499
 91
      510
 93
      452
310
43131A5B995C185D1D195C9B8010E409028333333333333E3BF0000000000000FB010790141107004050750841D405064090741402483A0350
 94
        0
1001
ACAD
1000
AcDbSavedByObjectVersion
1070
     0
1000
AcadProxyRoundTripData
1071
      505
1071
   655383
1070
     0
  0
ACAD_PROXY_OBJECT
  5
1D23
102
{ACAD_REACTORS
330
1D19
102
}
330
1D19
100
AcDbProxyObject
 90
      499
 91
      510
 93
      428
310
429499585B1A5CDD1A58C0108409028333333333333E3BF0000000000000FB01079019070040501508421405064090741402480A1B45
 94
        0
1001
ACAD
1000
AcDbSavedByObjectVersion
1070
     0
1000
AcadProxyRoundTripData
1071
      505
1071
   655383
1070
     0
  0
ACAD_PROXY_OBJECT
  5
1D26
102
{ACAD_REACTORS
330
1D19
102
}
330
1D19
100
AcDbProxyObject
 90
      499
 91
      510
 93
      420
310
42151A1A58DAD95B8010D409028333333333333E3BF0000000000000FB010790141107004050150C41D405064090741402480A0352
 94
        0
1001
ACAD
1000
AcDbSavedByObjectVersion
1070
     0
1000
AcadProxyRoundTripData
1071
      505
1071
   655383
1070
     0
  0
XRECORD
  5
1EB9
102
{ACAD_REACTORS
330
1EAF
102
}
330
1EAF
100
AcDbXrecord
 90
        0
  0
XRECORD
  5
1EBD
102
{ACAD_REACTORS
330
1EAF
102
}
330
1EAF
100
AcDbXrecord
1000
DSTYLE
1002
{
1070
   179
 70
     2
1070
   277
 70
     6
1002
}
  0
XRECORD
  5
1EBA
102
{ACAD_REACTORS
330
1EAF
102
}
330
1EAF
100
AcDbXrecord
  1
{6385560B-F4B1-4644-A7C2-A3E32AC3D232}
  0
XRECORD
  5
1EB2
102
{ACAD_REACTORS
330
1EAF
102
}
330
1EAF
100
AcDbXrecord
  1

  0
XRECORD
  5
1EB8
102
{ACAD_REACTORS
330
1EAF
102
}
330
1EAF
100
AcDbXrecord
 90
        0
  0
XRECORD
  5
1EB4
102
{ACAD_REACTORS
330
1EAF
102
}
330
1EAF
100
AcDbXrecord
340
61
  0
XRECORD
  5
1EB7
102
{ACAD_REACTORS
330
1EAF
102
}
330
1EAF
100
AcDbXrecord
 90
    10781
  0
XRECORD
  5
1EB5
102
{ACAD_REACTORS
330
1EAF
102
}
330
1EAF
100
AcDbXrecord
340
77
  0
XRECORD
  5
1EB6
102
{ACAD_REACTORS
330
1EAF
102
}
330
1EAF
100
AcDbXrecord
340
6
  0
XRECORD
  5
1EBC
102
{ACAD_REACTORS
330
1EAF
102
}
330
1EAF
100
AcDbXrecord
 40
0.0
  0
XRECORD
  5
1EC0
102
{ACAD_REACTORS
330
1EAF
102
}
330
1EAF
100
AcDbXrecord
340
0
  0
XRECORD
  5
1EC6
102
{ACAD_REACTORS
330
1EAF
102
}
330
1EAF
100
AcDbXrecord
 10
0.0
 20
0.0
 30
0.0
  0
XRECORD
  5
1EC2
102
{ACAD_REACTORS
330
1EAF
102
}
330
1EAF
100
AcDbXrecord
 10
0.0
 20
0.0
 30
0.0
  0
XRECORD
  5
1EC5
102
{ACAD_REACTORS
330
1EAF
102
}
330
1EAF
100
AcDbXrecord
 10
0.0
 20
0.0
 30
0.0
  0
XRECORD
  5
1EC3
102
{ACAD_REACTORS
330
1EAF
102
}
330
1EAF
100
AcDbXrecord
 10
0.0
 20
0.0
 30
0.0
  0
XRECORD
  5
1EC4
102
{ACAD_REACTORS
330
1EAF
102
}
330
1EAF
100
AcDbXrecord
 10
0.0
 20
0.0
 30
0.0
  0
XRECORD
  5
1EC1
102
{ACAD_REACTORS
330
1EAF
102
}
330
1EAF
100
AcDbXrecord
 10
0.0
 20
0.0
 30
0.0
  0
XRECORD
  5
1EBE
102
{ACAD_REACTORS
330
1EAF
102
}
330
1EAF
100
AcDbXrecord
340
0
  0
XRECORD
  5
1EBF
102
{ACAD_REACTORS
330
1EAF
102
}
330
1EAF
100
AcDbXrecord
 70
     0
  0
XRECORD
  5
1EB3
102
{ACAD_REACTORS
330
1EAF
102
}
330
1EAF
100
AcDbXrecord
  1
Sekkei.ctb
  0
XRECORD
  5
1EB0
102
{ACAD_REACTORS
330
1EAF
102
}
330
1EAF
100
AcDbXrecord
 90
        1
  0
XRECORD
  5
1EB1
102
{ACAD_REACTORS
330
1EAF
102
}
330
1EAF
100
AcDbXrecord
 90
       70
  0
XRECORD
  5
1EC9
102
{ACAD_REACTORS
330
1EAF
102
}
330
1EAF
100
AcDbXrecord
340
0
  0
XRECORD
  5
1ECF
102
{ACAD_REACTORS
330
1EAF
102
}
330
1EAF
100
AcDbXrecord
 10
0.0
 20
0.0
 30
0.0
  0
XRECORD
  5
1ECB
102
{ACAD_REACTORS
330
1EAF
102
}
330
1EAF
100
AcDbXrecord
 10
0.0
 20
0.0
 30
0.0
  0
XRECORD
  5
1ECE
102
{ACAD_REACTORS
330
1EAF
102
}
330
1EAF
100
AcDbXrecord
 10
0.0
 20
0.0
 30
0.0
  0
XRECORD
  5
1ECC
102
{ACAD_REACTORS
330
1EAF
102
}
330
1EAF
100
AcDbXrecord
 10
0.0
 20
0.0
 30
0.0
  0
XRECORD
  5
1ECD
102
{ACAD_REACTORS
330
1EAF
102
}
330
1EAF
100
AcDbXrecord
 10
0.0
 20
0.0
 30
0.0
  0
XRECORD
  5
1ECA
102
{ACAD_REACTORS
330
1EAF
102
}
330
1EAF
100
AcDbXrecord
 10
0.0
 20
0.0
 30
0.0
  0
XRECORD
  5
1EC7
102
{ACAD_REACTORS
330
1EAF
102
}
330
1EAF
100
AcDbXrecord
340
0
  0
XRECORD
  5
1EC8
102
{ACAD_REACTORS
330
1EAF
102
}
330
1EAF
100
AcDbXrecord
 70
     0
  0
XRECORD
  5
1EBB
102
{ACAD_REACTORS
330
1EAF
102
}
330
1EAF
100
AcDbXrecord
  1
{00CBBE83-EBB7-416F-885C-55247C41FE3E}
  0
DICTIONARYVAR
  5
1DB0
102
{ACAD_REACTORS
330
102
102
}
330
102
100
DictionaryVariables
280
     0
  1
1:1
  0
DICTIONARYVAR
  5
1DAF
102
{ACAD_REACTORS
330
102
102
}
330
102
100
DictionaryVariables
280
     0
  1
STANDARD
  0
DICTIONARYVAR
  5
1DAE
102
{ACAD_REACTORS
330
102
102
}
330
102
100
DictionaryVariables
280
     0
  1
STANDARD
  0
DICTIONARYVAR
  5
103
102
{ACAD_REACTORS
330
102
102
}
330
102
100
DictionaryVariables
280
     0
  1
1
  0
DICTIONARYVAR
  5
1DB1
102
{ACAD_REACTORS
330
102
102
}
330
102
100
DictionaryVariables
280
     0
  1
0
  0
DICTIONARYVAR
  5
549
102
{ACAD_REACTORS
330
102
102
}
330
102
100
DictionaryVariables
280
     0
  1
96
  0
DICTIONARY
  5
1D0A
330
1D09
100
AcDbDictionary
280
     1
  3
ACAD_XREC_ROUNDTRIP
360
1E94
  3
BUMPTILE
360
1D0C
  3
DIFFUSETILE
360
1D0B
  3
OPACITYTILE
360
1D0F
  3
REFLECTIONTILE
360
1D0E
  3
REFRACTIONTILE
360
1D10
  3
SPECULARTILE
360
1D0D
  0
DICTIONARY
  5
1D02
330
1D01
100
AcDbDictionary
280
     1
  3
ACAD_XREC_ROUNDTRIP
360
1E93
  3
BUMPTILE
360
1D04
  3
DIFFUSETILE
360
1D03
  3
OPACITYTILE
360
1D07
  3
REFLECTIONTILE
360
1D06
  3
REFRACTIONTILE
360
1D08
  3
SPECULARTILE
360
1D05
  0
DICTIONARY
  5
1D12
330
1D11
100
AcDbDictionary
280
     1
  3
ACAD_XREC_ROUNDTRIP
360
1E95
  3
BUMPTILE
360
1D14
  3
DIFFUSETILE
360
1D13
  3
OPACITYTILE
360
1D17
  3
REFLECTIONTILE
360
1D16
  3
REFRACTIONTILE
360
1D18
  3
SPECULARTILE
360
1D15
  0
DICTIONARY
  5
1D8D
330
1D2C
100
AcDbDictionary
280
     1
  3
ACAD_ROUNDTRIP_2008_TABLES
360
1E7A
  3
ACAD_XREC_ROUNDTRIP
360
1E96
  0
XRECORD
  5
1E94
102
{ACAD_REACTORS
330
1D0A
102
}
330
1D0A
100
AcDbXrecord
102
MATERIAL
148
0.0
149
0.0
149
0.0
 93
        0
 94
      127
282
     0
 72
     0
 77
     0
171
     0
175
     0
179
     0
273
     0
  0
XRECORD
  5
1D0C
102
{ACAD_REACTORS
330
1D0A
102
}
330
1D0A
100
AcDbXrecord
270
     1
271
     1
  0
XRECORD
  5
1D0B
102
{ACAD_REACTORS
330
1D0A
102
}
330
1D0A
100
AcDbXrecord
270
     1
271
     1
  0
XRECORD
  5
1D0F
102
{ACAD_REACTORS
330
1D0A
102
}
330
1D0A
100
AcDbXrecord
270
     1
271
     1
  0
XRECORD
  5
1D0E
102
{ACAD_REACTORS
330
1D0A
102
}
330
1D0A
100
AcDbXrecord
270
     1
271
     1
  0
XRECORD
  5
1D10
102
{ACAD_REACTORS
330
1D0A
102
}
330
1D0A
100
AcDbXrecord
270
     1
271
     1
  0
XRECORD
  5
1D0D
102
{ACAD_REACTORS
330
1D0A
102
}
330
1D0A
100
AcDbXrecord
270
     1
271
     1
  0
XRECORD
  5
1E93
102
{ACAD_REACTORS
330
1D02
102
}
330
1D02
100
AcDbXrecord
102
MATERIAL
148
0.0
149
0.0
149
0.0
 93
        0
 94
      127
282
     0
 72
     0
 77
     0
171
     0
175
     0
179
     0
273
     0
  0
XRECORD
  5
1D04
102
{ACAD_REACTORS
330
1D02
102
}
330
1D02
100
AcDbXrecord
270
     1
271
     1
  0
XRECORD
  5
1D03
102
{ACAD_REACTORS
330
1D02
102
}
330
1D02
100
AcDbXrecord
270
     1
271
     1
  0
XRECORD
  5
1D07
102
{ACAD_REACTORS
330
1D02
102
}
330
1D02
100
AcDbXrecord
270
     1
271
     1
  0
XRECORD
  5
1D06
102
{ACAD_REACTORS
330
1D02
102
}
330
1D02
100
AcDbXrecord
270
     1
271
     1
  0
XRECORD
  5
1D08
102
{ACAD_REACTORS
330
1D02
102
}
330
1D02
100
AcDbXrecord
270
     1
271
     1
  0
XRECORD
  5
1D05
102
{ACAD_REACTORS
330
1D02
102
}
330
1D02
100
AcDbXrecord
270
     1
271
     1
  0
XRECORD
  5
1E95
102
{ACAD_REACTORS
330
1D12
102
}
330
1D12
100
AcDbXrecord
102
MATERIAL
148
0.0
149
0.0
149
0.0
 93
        0
 94
      127
282
     0
 72
     0
 77
     0
171
     0
175
     0
179
     0
273
     0
  0
XRECORD
  5
1D14
102
{ACAD_REACTORS
330
1D12
102
}
330
1D12
100
AcDbXrecord
270
     1
271
     1
  0
XRECORD
  5
1D13
102
{ACAD_REACTORS
330
1D12
102
}
330
1D12
100
AcDbXrecord
270
     1
271
     1
  0
XRECORD
  5
1D17
102
{ACAD_REACTORS
330
1D12
102
}
330
1D12
100
AcDbXrecord
270
     1
271
     1
  0
XRECORD
  5
1D16
102
{ACAD_REACTORS
330
1D12
102
}
330
1D12
100
AcDbXrecord
270
     1
271
     1
  0
XRECORD
  5
1D18
102
{ACAD_REACTORS
330
1D12
102
}
330
1D12
100
AcDbXrecord
270
     1
271
     1
  0
XRECORD
  5
1D15
102
{ACAD_REACTORS
330
1D12
102
}
330
1D12
100
AcDbXrecord
270
     1
271
     1
  0
ACAD_PROXY_OBJECT
  5
1E7A
102
{ACAD_REACTORS
330
1D8D
102
}
330
1D8D
100
AcDbProxyObject
 90
      499
 91
      510
 93
     1044
310
40D054060020000020000003200101A000080002A5058000000C100000000000000340FE901405075F5449544C450041501A8000000C800406800020000A9416000000304000AD7A3703D0AC73FA409014217D2115051115480105406A0000003200101A000080002A5028000000C10002B5E8DC0F42B1CFE903409065F444
310
15441003
340
16
340
16
340
16
 94
        0
1001
ACAD
1000
AcadProxyRoundTripData
1071
      509
1071
   655383
1070
     0
  0
XRECORD
  5
1E96
102
{ACAD_REACTORS
330
1D8D
102
}
330
1D8D
100
AcDbXrecord
102
ACAD_ROUNDTRIP_PRE2007_TABLESTYLE
 90
      512
 91
        0
  1

 92
      512
 93
        0
  2

 94
      512
 95
        0
  3

  0
ENDSEC
  0
EOF
