  0
SECTION
  2
HEADER
  9
$ACADVER
  1
AC1014
  9
$ACADMAINTVER
 70
     9
  9
$DWGCODEPAGE
  3
ANSI_932
  9
$INSBASE
 10
0.0
 20
0.0
 30
0.0
  9
$EXTMIN
 10
46.92106456163208
 20
55.53685087101314
 30
0.0
  9
$EXTMAX
 10
723.2039506210602
 20
491.3808056716816
 30
0.0
  9
$LIMMIN
 10
0.0
 20
0.0
  9
$LIMMAX
 10
297.0
 20
210.0
  9
$ORTHOMODE
 70
     1
  9
$REGENMODE
 70
     1
  9
$FILLMODE
 70
     1
  9
$QTEXTMODE
 70
     0
  9
$MIRRTEXT
 70
     0
  9
$DRAGMODE
 70
     2
  9
$LTSCALE
 40
2.0
  9
$OSMODE
 70
    37
  9
$ATTMODE
 70
     1
  9
$TEXTSIZE
 40
2.0
  9
$TRACEWID
 40
1.0
  9
$TEXTSTYLE
  7
STANDARD
  9
$CLAYER
  8
0
  9
$CELTYPE
  6
BYLAYER
  9
$CECOLOR
 62
   256
  9
$CELTSCALE
 40
1.0
  9
$DELOBJ
 70
     1
  9
$DISPSILH
 70
     0
  9
$DIMSCALE
 40
2.0
  9
$DIMASZ
 40
1.8
  9
$DIMEXO
 40
0.625
  9
$DIMDLI
 40
3.75
  9
$DIMRND
 40
0.0
  9
$DIMDLE
 40
0.0
  9
$DIMEXE
 40
0.8
  9
$DIMTP
 40
0.0
  9
$DIMTM
 40
0.0
  9
$DIMTXT
 40
1.8
  9
$DIMCEN
 40
2.5
  9
$DIMTSZ
 40
0.0
  9
$DIMTOL
 70
     0
  9
$DIMLIM
 70
     0
  9
$DIMTIH
 70
     0
  9
$DIMTOH
 70
     0
  9
$DIMSE1
 70
     0
  9
$DIMSE2
 70
     0
  9
$DIMTAD
 70
     1
  9
$DIMZIN
 70
     8
  9
$DIMBLK
  1

  9
$DIMASO
 70
     1
  9
$DIMSHO
 70
     1
  9
$DIMPOST
  1

  9
$DIMAPOST
  1

  9
$DIMALT
 70
     0
  9
$DIMALTD
 70
     4
  9
$DIMALTF
 40
0.0394
  9
$DIMLFAC
 40
1.0
  9
$DIMTOFL
 70
     1
  9
$DIMTVP
 40
0.0
  9
$DIMTIX
 70
     0
  9
$DIMSOXD
 70
     0
  9
$DIMSAH
 70
     0
  9
$DIMBLK1
  1

  9
$DIMBLK2
  1

  9
$DIMSTYLE
  2
STANDARD
  9
$DIMCLRD
 70
     0
  9
$DIMCLRE
 70
     0
  9
$DIMCLRT
 70
     0
  9
$DIMTFAC
 40
1.0
  9
$DIMGAP
 40
0.75
  9
$DIMJUST
 70
     0
  9
$DIMSD1
 70
     0
  9
$DIMSD2
 70
     0
  9
$DIMTOLJ
 70
     1
  9
$DIMTZIN
 70
     0
  9
$DIMALTZ
 70
     0
  9
$DIMALTTZ
 70
     0
  9
$DIMFIT
 70
     3
  9
$DIMUPT
 70
     0
  9
$DIMUNIT
 70
     8
  9
$DIMDEC
 70
     2
  9
$DIMTDEC
 70
     2
  9
$DIMALTU
 70
     8
  9
$DIMALTTD
 70
     4
  9
$DIMTXSTY
  7
STANDARD
  9
$DIMAUNIT
 70
     0
  9
$LUNITS
 70
     2
  9
$LUPREC
 70
     3
  9
$SKETCHINC
 40
1.0
  9
$FILLETRAD
 40
10.0
  9
$AUNITS
 70
     0
  9
$AUPREC
 70
     2
  9
$MENU
  1
.
  9
$ELEVATION
 40
0.0
  9
$PELEVATION
 40
0.0
  9
$THICKNESS
 40
0.0
  9
$LIMCHECK
 70
     0
  9
$BLIPMODE
 70
     0
  9
$CHAMFERA
 40
0.0
  9
$CHAMFERB
 40
0.0
  9
$CHAMFERC
 40
20.0
  9
$CHAMFERD
 40
0.0
  9
$SKPOLY
 70
     0
  9
$TDCREATE
 40
2454410.388680555
  9
$TDUPDATE
 40
2454425.683375648
  9
$TDINDWG
 40
0.0194606944
  9
$TDUSRTIMER
 40
0.0194606944
  9
$USRTIMER
 70
     1
  9
$ANGBASE
 50
0.0
  9
$ANGDIR
 70
     0
  9
$PDMODE
 70
     0
  9
$PDSIZE
 40
-10.0
  9
$PLINEWID
 40
0.0
  9
$COORDS
 70
     0
  9
$SPLFRAME
 70
     0
  9
$SPLINETYPE
 70
     6
  9
$SPLINESEGS
 70
     8
  9
$ATTDIA
 70
     0
  9
$ATTREQ
 70
     1
  9
$HANDLING
 70
-16383
  9
$HANDSEED
  5
1F33
  9
$SURFTAB1
 70
     6
  9
$SURFTAB2
 70
     6
  9
$SURFTYPE
 70
     6
  9
$SURFU
 70
     6
  9
$SURFV
 70
     6
  9
$UCSNAME
  2

  9
$UCSORG
 10
0.0
 20
0.0
 30
0.0
  9
$UCSXDIR
 10
1.0
 20
0.0
 30
0.0
  9
$UCSYDIR
 10
0.0
 20
1.0
 30
0.0
  9
$PUCSNAME
  2

  9
$PUCSORG
 10
0.0
 20
0.0
 30
0.0
  9
$PUCSXDIR
 10
1.0
 20
0.0
 30
0.0
  9
$PUCSYDIR
 10
0.0
 20
1.0
 30
0.0
  9
$USERI1
 70
     0
  9
$USERI2
 70
     0
  9
$USERI3
 70
     0
  9
$USERI4
 70
     0
  9
$USERI5
 70
     0
  9
$USERR1
 40
0.0
  9
$USERR2
 40
0.0
  9
$USERR3
 40
0.0
  9
$USERR4
 40
0.0
  9
$USERR5
 40
0.0
  9
$WORLDVIEW
 70
     1
  9
$SHADEDGE
 70
     3
  9
$SHADEDIF
 70
    70
  9
$TILEMODE
 70
     1
  9
$MAXACTVP
 70
    48
  9
$PINSBASE
 10
0.0
 20
0.0
 30
0.0
  9
$PLIMCHECK
 70
     0
  9
$PEXTMIN
 10
0.0
 20
0.0
 30
0.0
  9
$PEXTMAX
 10
0.0
 20
0.0
 30
0.0
  9
$PLIMMIN
 10
0.0
 20
0.0
  9
$PLIMMAX
 10
12.0
 20
9.0
  9
$UNITMODE
 70
     0
  9
$VISRETAIN
 70
     1
  9
$PLINEGEN
 70
     0
  9
$PSLTSCALE
 70
     1
  9
$TREEDEPTH
 70
  3020
  9
$PICKSTYLE
 70
     1
  9
$CMLSTYLE
  2
STANDARD
  9
$CMLJUST
 70
     0
  9
$CMLSCALE
 40
1.0
  9
$PROXYGRAPHICS
 70
     1
  9
$MEASUREMENT
 70
     0
  0
ENDSEC
  0
SECTION
  2
CLASSES
  0
CLASS
  1
DICTIONARYVAR
  2
AcDbDictionaryVar
  3
AutoCAD 2000
 90
        0
280
     0
281
     0
  0
CLASS
  1
ACDBDICTIONARYWDFLT
  2
AcDbDictionaryWithDefault
  3
AutoCAD 2000
 90
        0
280
     0
281
     0
  0
CLASS
  1
ACDBPLACEHOLDER
  2
AcDbPlaceHolder
  3
AutoCAD 2000
 90
        0
280
     0
281
     0
  0
CLASS
  1
LAYOUT
  2
AcDbLayout
  3
AutoCAD 2000
 90
        0
280
     0
281
     0
  0
CLASS
  1
MATERIAL
  2
AcDbMaterial
  3
ObjectDBX Classes
 90
     1153
280
     0
281
     0
  0
CLASS
  1
VISUALSTYLE
  2
AcDbVisualStyle
  3
ObjectDBX Classes
 90
     4095
280
     0
281
     0
  0
CLASS
  1
TABLESTYLE
  2
AcDbTableStyle
  3
ObjectDBX Classes
 90
     4095
280
     0
281
     0
  0
CLASS
  1
SCALE
  2
AcDbScale
  3
ObjectDBX Classes
 90
     1153
280
     0
281
     0
  0
CLASS
  1
MLEADERSTYLE
  2
AcDbMLeaderStyle
  3
ACDB_MLEADERSTYLE_CLASS
 90
     4095
280
     0
281
     0
  0
CLASS
  1
CELLSTYLEMAP
  2
AcDbCellStyleMap
  3
ObjectDBX Classes
 90
     1152
280
     0
281
     0
  0
CLASS
  1
ACAD_PROXY_OBJECT_WRAPPER
  2
AcDbProxyObjectWrapper
  3
AutoCAD 2000
 90
        0
280
     0
281
     0
  0
CLASS
  1
LONG_TRANSACTION
  2
AcDbLongTransaction
  3
AutoCAD 2000
 90
        0
280
     0
281
     0
  0
CLASS
  1
LWPOLYLINE
  2
AcDbPolyline
  3
AutoCAD 2000
 90
        0
280
     0
281
     1
  0
CLASS
  1
HATCH
  2
AcDbHatch
  3
AutoCAD 2000
 90
        0
280
     0
281
     1
  0
CLASS
  1
XRECORD
  2
AcDbXrecord
  3
AutoCAD 2000
 90
        0
280
     0
281
     0
  0
ENDSEC
  0
SECTION
  2
TABLES
  0
TABLE
  2
VPORT
  5
6E
102
{ACAD_XDICTIONARY
360
1D3F
102
}
330
0
100
AcDbSymbolTable
 70
     2
  0
VPORT
  5
1F0D
330
6E
100
AcDbSymbolTableRecord
100
AcDbViewportTableRecord
  2
*ACTIVE
 70
     0
 10
0.0
 20
0.0
 11
1.0
 21
1.0
 12
397.9373211817399
 22
263.1577729030134
 13
0.0
 23
0.0
 14
10.0
 24
10.0
 15
10.0
 25
10.0
 16
0.0
 26
0.0
 36
1.0
 17
0.0
 27
0.0
 37
0.0
 40
459.5522247861696
 41
1.753504672897196
 42
50.0
 43
0.0
 44
0.0
 50
0.0
 51
0.0
 71
     0
 72
   100
 73
     1
 74
     3
 75
     0
 76
     0
 77
     0
 78
     0
  0
ENDTAB
  0
TABLE
  2
LTYPE
  5
69
330
0
100
AcDbSymbolTable
 70
     8
  0
LTYPE
  5
6A
330
69
100
AcDbSymbolTableRecord
100
AcDbLinetypeTableRecord
  2
BYBLOCK
 70
     0
  3

 72
    65
 73
     0
 40
0.0
  0
LTYPE
  5
6B
330
69
100
AcDbSymbolTableRecord
100
AcDbLinetypeTableRecord
  2
BYLAYER
 70
     0
  3

 72
    65
 73
     0
 40
0.0
  0
LTYPE
  5
8
330
69
100
AcDbSymbolTableRecord
100
AcDbLinetypeTableRecord
  2
CONTINUOUS
 70
     0
  3
Solid line
 72
    65
 73
     0
 40
0.0
  0
LTYPE
  5
27C
330
69
100
AcDbSymbolTableRecord
100
AcDbLinetypeTableRecord
  2
SEKKEI_A2_
 70
     0
  3
center(A2)  ____ _ ____ _ ____ _ ____ _ ____ _ 
 72
    65
 73
     4
 40
14.28749999999999
 49
9.525
 74
     0
 49
-1.587499999999999
 74
     0
 49
1.587499999999999
 74
     0
 49
-1.587499999999999
 74
     0
  0
LTYPE
  5
48F
330
69
100
AcDbSymbolTableRecord
100
AcDbLinetypeTableRecord
  2
SEKKEI_H
 70
     0
  3
Hidden-S _ _ _ _ _ _ _ _ _ _ _ _ _ _ _ _ _
 72
    65
 73
     2
 40
2.381249999999999
 49
1.587499999999999
 74
     0
 49
-0.79375
 74
     0
  0
LTYPE
  5
494
330
69
100
AcDbSymbolTableRecord
100
AcDbLinetypeTableRecord
  2
SEKKEI_P_S
 70
     0
  3
Phantom_S   __ _ _ __ _ _ __ _ _ ___
 72
    65
 73
     6
 40
7.5
 49
3.75
 74
     0
 49
-0.75
 74
     0
 49
0.75
 74
     0
 49
-0.75
 74
     0
 49
0.75
 74
     0
 49
-0.75
 74
     0
  0
LTYPE
  5
7EF
330
69
100
AcDbSymbolTableRecord
100
AcDbLinetypeTableRecord
  2
PHANTOM3
 70
     0
  3
Phantom  ___ _ _ ___ _ _ ___ _ _ ___ _ _
 72
    65
 73
     6
 40
9.0
 49
4.0
 74
     0
 49
-1.0
 74
     0
 49
1.0
 74
     0
 49
-1.0
 74
     0
 49
1.0
 74
     0
 49
-1.0
 74
     0
  0
LTYPE
  5
7F0
330
69
100
AcDbSymbolTableRecord
100
AcDbLinetypeTableRecord
  2
HIDDEN3
 70
     0
  3
Hidden (.3x) _ _ _ _ _ _ _ _ _ _ _ _ _ _ _ _ _
 72
    65
 73
     2
 40
2.857499999999999
 49
1.905
 74
     0
 49
-0.9525
 74
     0
  0
LTYPE
  5
AFE
330
69
100
AcDbSymbolTableRecord
100
AcDbLinetypeTableRecord
  2
CENS
 70
     0
  3
(一点鎖線１)---- - ---- - ---- - ---- - ---- - 
 72
    65
 73
     4
 40
7.0
 49
4.0
 74
     0
 49
-1.0
 74
     0
 49
1.0
 74
     0
 49
-1.0
 74
     0
  0
ENDTAB
  0
TABLE
  2
LAYER
  5
66
102
{ACAD_XDICTIONARY
360
AFF
102
}
330
0
100
AcDbSymbolTable
 70
    10
  0
LAYER
  5
5E
102
{ACAD_XDICTIONARY
360
1D22
102
}
330
66
100
AcDbSymbolTableRecord
100
AcDbLayerTableRecord
  2
0
 70
     0
 62
     7
  6
CONTINUOUS
  0
LAYER
  5
3E
102
{ACAD_XDICTIONARY
360
1D24
102
}
330
66
100
AcDbSymbolTableRecord
100
AcDbLayerTableRecord
  2
CENTER
 70
     0
 62
     3
  6
SEKKEI_A2_
  0
LAYER
  5
2B5
102
{ACAD_XDICTIONARY
360
1D2A
102
}
330
66
100
AcDbSymbolTableRecord
100
AcDbLayerTableRecord
  2
HIDS
 70
     0
 62
     1
  6
HIDDEN3
  0
LAYER
  5
2BA
102
{ACAD_XDICTIONARY
360
1D2C
102
}
330
66
100
AcDbSymbolTableRecord
100
AcDbLayerTableRecord
  2
HOJO
 70
     0
 62
     4
  6
CONTINUOUS
  0
LAYER
  5
3FA
102
{ACAD_XDICTIONARY
360
1D30
102
}
330
66
100
AcDbSymbolTableRecord
100
AcDbLayerTableRecord
  2
TITLE
 70
     0
 62
     4
  6
CONTINUOUS
  0
LAYER
  5
478
102
{ACAD_XDICTIONARY
360
1D32
102
}
330
66
100
AcDbSymbolTableRecord
100
AcDbLayerTableRecord
  2
PHAS
 70
     0
 62
     2
  6
PHANTOM3
  0
ENDTAB
  0
TABLE
  2
STYLE
  5
67
330
0
100
AcDbSymbolTable
 70
     2
  0
STYLE
  5
16
330
67
100
AcDbSymbolTableRecord
100
AcDbTextStyleTableRecord
  2
STANDARD
 70
     0
 40
0.0
 41
1.0
 50
0.0
 71
     0
 42
2.0
  3
simplex.shx
  4
extfont.shx
  0
ENDTAB
  0
TABLE
  2
VIEW
  5
6C
330
0
100
AcDbSymbolTable
 70
     0
  0
ENDTAB
  0
TABLE
  2
UCS
  5
6D
330
0
100
AcDbSymbolTable
 70
     0
  0
ENDTAB
  0
TABLE
  2
APPID
  5
70
330
0
100
AcDbSymbolTable
 70
     4
  0
APPID
  5
71
330
70
100
AcDbSymbolTableRecord
100
AcDbRegAppTableRecord
  2
ACAD
 70
     0
  0
APPID
  5
1D1F
330
70
100
AcDbSymbolTableRecord
100
AcDbRegAppTableRecord
  2
ACAD_MLEADERVER
 70
     0
  0
APPID
  5
1D5C
330
70
100
AcDbSymbolTableRecord
100
AcDbRegAppTableRecord
  2
ACAD_DSTYLE_DIMRADIAL_EXTENSION
 70
     0
  0
APPID
  5
1E07
330
70
100
AcDbSymbolTableRecord
100
AcDbRegAppTableRecord
  2
ACAD_EXEMPT_FROM_CAD_STANDARDS
 70
     0
  0
ENDTAB
  0
TABLE
  2
DIMSTYLE
  5
72
330
0
100
AcDbSymbolTable
 70
     1
  0
DIMSTYLE
105
73
330
72
100
AcDbSymbolTableRecord
100
AcDbDimStyleTableRecord
  2
STANDARD
 70
     0
  3

  4

  5

  6

  7

 40
2.0
 41
1.8
 42
0.625
 43
3.75
 44
0.8
 45
0.0
 46
0.0
 47
0.0
 48
0.0
140
1.8
141
2.5
142
0.0
143
0.0394
144
1.0
145
0.0
146
1.0
147
0.75
 71
     0
 72
     0
 73
     0
 74
     0
 75
     0
 76
     0
 77
     1
 78
     8
170
     0
171
     4
172
     1
173
     0
174
     0
175
     0
176
     0
177
     0
178
     0
270
     8
271
     2
272
     2
273
     8
274
     4
340
16
275
     0
280
     0
281
     0
282
     0
283
     1
284
     0
285
     0
286
     0
287
     3
288
     0
  0
ENDTAB
  0
TABLE
  2
BLOCK_RECORD
  5
1
330
0
100
AcDbSymbolTable
 70
    56
  0
BLOCK_RECORD
  5
2
102
{ACAD_XDICTIONARY
360
1F2F
102
}
330
1
100
AcDbSymbolTableRecord
100
AcDbBlockTableRecord
  2
*MODEL_SPACE
  0
BLOCK_RECORD
  5
1F08
102
{ACAD_XDICTIONARY
360
1F31
102
}
330
1
100
AcDbSymbolTableRecord
100
AcDbBlockTableRecord
  2
*PAPER_SPACE
  0
ENDTAB
  0
ENDSEC
  0
SECTION
  2
BLOCKS
  0
BLOCK
  5
5D
330
2
100
AcDbEntity
  8
0
100
AcDbBlockBegin
  2
*MODEL_SPACE
 70
     0
 10
0.0
 20
0.0
 30
0.0
  3
*MODEL_SPACE
  1

  0
ENDBLK
  5
5F
330
2
100
AcDbEntity
  8
0
100
AcDbBlockEnd
  0
BLOCK
  5
1F0A
330
1F08
100
AcDbEntity
 67
     1
  8
0
100
AcDbBlockBegin
  2
*PAPER_SPACE
 70
     0
 10
0.0
 20
0.0
 30
0.0
  3
*PAPER_SPACE
  1

  0
ENDBLK
  5
1F0B
330
1F08
100
AcDbEntity
 67
     1
  8
0
100
AcDbBlockEnd
  0
ENDSEC
  0
SECTION
  2
ENTITIES
  0
LINE
  5
F4E
330
2
100
AcDbEntity
  8
CENTER
100
AcDbLine
 10
390.0440548004811
 20
254.3033353836205
 30
0.0
 11
550.0440548004839
 21
254.30333538362
 31
0.0
  0
LINE
  5
F4F
330
2
100
AcDbEntity
  8
CENTER
100
AcDbLine
 10
435.0440548004811
 20
299.3033353836206
 30
0.0
 11
435.0440548004811
 21
209.3033353836206
 31
0.0
  0
LINE
  5
F50
330
2
100
AcDbEntity
  8
CENTER
100
AcDbLine
 10
397.2098652869703
 20
446.3808056716784
 30
0.0
 11
550.0440548004839
 21
446.3808056716782
 31
0.0
  0
LINE
  5
F51
330
2
100
AcDbEntity
  8
CENTER
100
AcDbLine
 10
435.0440548004806
 20
491.3808056716816
 30
0.0
 11
435.0440548004806
 21
386.3808056716818
 31
0.0
  0
LINE
  5
F52
330
2
100
AcDbEntity
  8
0
100
AcDbLine
 10
465.7082443124567
 20
465.3808056716793
 30
0.0
 11
465.8740548004806
 21
446.380805671687
 31
0.0
  0
ARC
  5
F53
330
2
100
AcDbEntity
  8
0
100
AcDbCircle
 10
468.8305346966843
 20
451.3808056716782
 30
0.0
 40
3.0
100
AcDbArc
 50
180.4999999999981
 51
270.0
  0
LINE
  5
F54
330
2
100
AcDbEntity
  8
0
100
AcDbLine
 10
404.0440547989459
 20
465.3808056716793
 30
0.0
 11
404.4978519240461
 21
413.380805673905
 31
0.0
  0
LINE
  5
F55
330
2
100
AcDbEntity
  8
0
100
AcDbLine
 10
404.4978519240461
 20
413.380805673905
 30
0.0
 11
465.4160681636334
 21
413.3808056739049
 31
0.0
  0
LINE
  5
F56
330
2
100
AcDbEntity
  8
0
100
AcDbLine
 10
456.0440547989458
 20
413.3808056739049
 30
0.0
 11
414.0440547989459
 21
413.3808056739049
 31
0.0
  0
LINE
  5
F57
330
2
100
AcDbEntity
  8
0
100
AcDbLine
 10
460.0440547989459
 20
410.3808056739048
 30
0.0
 11
410.0440547989459
 21
410.3808056739048
 31
0.0
  0
LINE
  5
F58
330
2
100
AcDbEntity
  8
0
100
AcDbLine
 10
410.0440547989459
 20
413.3808056739049
 30
0.0
 11
410.0440547989459
 21
410.3808056739048
 31
0.0
  0
LINE
  5
F59
330
2
100
AcDbEntity
  8
0
100
AcDbLine
 10
460.0440547989459
 20
413.380805673905
 30
0.0
 11
460.0440547989459
 21
410.3808056739048
 31
0.0
  0
LINE
  5
F5A
330
2
100
AcDbEntity
  8
0
100
AcDbLine
 10
404.0440547989459
 20
465.3808056716793
 30
0.0
 11
465.7082443124567
 21
465.3808056716789
 31
0.0
  0
LINE
  5
F5B
330
2
100
AcDbEntity
  8
0
100
AcDbLine
 10
465.7082443124567
 20
465.3808056716793
 30
0.0
 11
466.2082443124553
 21
464.8808056716802
 31
0.0
  0
LINE
  5
F5C
330
2
100
AcDbEntity
  8
0
100
AcDbLine
 10
477.4513756974587
 20
464.8808056713114
 30
0.0
 11
466.208418232817
 21
464.8808056713114
 31
0.0
  0
LINE
  5
F5D
330
2
100
AcDbEntity
  8
0
100
AcDbLine
 10
480.493053892374
 20
469.4331595701455
 30
0.0
 11
479.8894067612031
 21
446.3808056716782
 31
0.0
  0
ARC
  5
F5E
330
2
100
AcDbEntity
  8
0
100
AcDbCircle
 10
482.4923685423249
 20
469.3808056735299
 30
0.0
 40
2.0
100
AcDbArc
 50
90.0
 51
178.5000000000005
  0
LINE
  5
F5F
330
2
100
AcDbEntity
  8
0
100
AcDbLine
 10
500.044054800482
 20
477.3808056739048
 30
0.0
 11
500.0440548004856
 21
415.3808056739057
 31
0.0
  0
LINE
  5
F60
330
2
100
AcDbEntity
  8
0
100
AcDbLine
 10
465.5860681636339
 20
413.3808056739049
 30
0.0
 11
465.8740548004806
 21
446.3808056716782
 31
0.0
  0
ARC
  5
F61
330
2
100
AcDbEntity
  8
0
100
AcDbCircle
 10
468.830534696718
 20
441.380805671678
 30
0.0
 40
3.0
100
AcDbArc
 50
90.0
 51
179.500000000396
  0
ARC
  5
F62
330
2
100
AcDbEntity
  8
0
100
AcDbCircle
 10
468.6734510766099
 20
423.380805671678
 30
0.0
 40
3.0
100
AcDbArc
 50
90.0
 51
179.500000000396
  0
ARC
  5
F63
330
2
100
AcDbEntity
  8
0
100
AcDbCircle
 10
468.6385436054969
 20
419.3808056742795
 30
0.0
 40
3.0
100
AcDbArc
 50
90.0
 51
179.500000000396
  0
CIRCLE
  5
F64
330
2
100
AcDbEntity
  8
0
100
AcDbCircle
 10
435.0440548004811
 20
254.3033353836205
 30
0.0
 40
17.5
  0
CIRCLE
  5
F65
330
2
100
AcDbEntity
  8
CENTER
100
AcDbCircle
 10
435.0440548004811
 20
254.3033353836205
 30
0.0
 40
38.0
  0
CIRCLE
  5
F66
330
2
100
AcDbEntity
  8
0
100
AcDbCircle
 10
435.0440548004811
 20
254.3033353836205
 30
0.0
 40
25.0
  0
LINE
  5
F67
330
2
100
AcDbEntity
  8
CENTER
100
AcDbLine
 10
468.7009090499731
 20
287.960189633113
 30
0.0
 11
401.3872005509886
 21
220.6464811341283
 31
0.0
  0
LINE
  5
F68
330
2
100
AcDbEntity
  8
CENTER
100
AcDbLine
 10
401.3872005509892
 20
287.9601896331134
 30
0.0
 11
468.7009090499731
 21
220.6464811341277
 31
0.0
  0
LINE
  5
F69
330
2
100
AcDbEntity
  8
CENTER
100
AcDbLine
 10
401.6739971153914
 20
227.433277698532
 30
0.0
 11
414.6739971153914
 21
227.433277698532
 31
0.0
  0
CIRCLE
  5
F6A
330
2
100
AcDbEntity
  8
0
100
AcDbCircle
 10
408.1739971153923
 20
227.4332776985315
 30
0.0
 40
2.1
  0
CIRCLE
  5
F6B
330
2
100
AcDbEntity
  8
HOJO
100
AcDbCircle
 10
408.1739971153923
 20
227.4332776985315
 30
0.0
 40
2.5
  0
ARC
  5
F6C
330
2
100
AcDbEntity
  8
0
100
AcDbCircle
 10
407.0440548004811
 20
226.3033353836203
 30
0.0
 40
3.0
100
AcDbArc
 50
180.0
 51
270.0
  0
LINE
  5
F6D
330
2
100
AcDbEntity
  8
CENTER
100
AcDbLine
 10
408.1739971153914
 20
233.933277698532
 30
0.0
 11
408.1739971153914
 21
220.933277698532
 31
0.0
  0
LINE
  5
F6E
330
2
100
AcDbEntity
  8
CENTER
100
AcDbLine
 10
461.9141124855699
 20
220.9332776985315
 30
0.0
 11
461.9141124855699
 21
233.9332776985315
 31
0.0
  0
ARC
  5
F6F
330
2
100
AcDbEntity
  8
0
100
AcDbCircle
 10
463.0440548004811
 20
226.3033353836208
 30
0.0
 40
3.0
100
AcDbArc
 50
270.0
 51
0.0000000068134097
  0
CIRCLE
  5
F70
330
2
100
AcDbEntity
  8
0
100
AcDbCircle
 10
461.9141124855699
 20
227.4332776985318
 30
0.0
 40
2.1
  0
CIRCLE
  5
F71
330
2
100
AcDbEntity
  8
HOJO
100
AcDbCircle
 10
461.9141124855699
 20
227.4332776985318
 30
0.0
 40
2.5
  0
LINE
  5
F72
330
2
100
AcDbEntity
  8
CENTER
100
AcDbLine
 10
455.4141124855699
 20
227.4332776985315
 30
0.0
 11
468.4141124855699
 21
227.4332776985315
 31
0.0
  0
LINE
  5
F73
330
2
100
AcDbEntity
  8
CENTER
100
AcDbLine
 10
414.6739971153923
 20
281.1733930687096
 30
0.0
 11
401.6739971153923
 21
281.1733930687096
 31
0.0
  0
CIRCLE
  5
F74
330
2
100
AcDbEntity
  8
0
100
AcDbCircle
 10
408.1739971153923
 20
281.1733930687091
 30
0.0
 40
2.1
  0
CIRCLE
  5
F75
330
2
100
AcDbEntity
  8
HOJO
100
AcDbCircle
 10
408.1739971153923
 20
281.1733930687091
 30
0.0
 40
2.5
  0
ARC
  5
F76
330
2
100
AcDbEntity
  8
0
100
AcDbCircle
 10
407.0440548004811
 20
282.3033353836206
 30
0.0
 40
3.0
100
AcDbArc
 50
90.0
 51
180.0
  0
LINE
  5
F77
330
2
100
AcDbEntity
  8
CENTER
100
AcDbLine
 10
408.1739971153923
 20
287.6733930687096
 30
0.0
 11
408.1739971153923
 21
274.6733930687096
 31
0.0
  0
LINE
  5
F78
330
2
100
AcDbEntity
  8
CENTER
100
AcDbLine
 10
468.4141124855699
 20
281.1733930687091
 30
0.0
 11
455.4141124855699
 21
281.1733930687091
 31
0.0
  0
LINE
  5
F79
330
2
100
AcDbEntity
  8
CENTER
100
AcDbLine
 10
461.9141124855699
 20
274.6733930687096
 30
0.0
 11
461.9141124855699
 21
287.6733930687091
 31
0.0
  0
ARC
  5
F7A
330
2
100
AcDbEntity
  8
0
100
AcDbCircle
 10
463.0440548004811
 20
282.3033353836203
 30
0.0
 40
3.0
100
AcDbArc
 50
359.9999999931214
 51
90.0
  0
CIRCLE
  5
F7B
330
2
100
AcDbEntity
  8
HOJO
100
AcDbCircle
 10
461.9141124855699
 20
281.1733930687093
 30
0.0
 40
2.5
  0
CIRCLE
  5
F7C
330
2
100
AcDbEntity
  8
0
100
AcDbCircle
 10
461.9141124855699
 20
281.1733930687093
 30
0.0
 40
2.1
  0
ARC
  5
F7D
330
2
100
AcDbEntity
  8
0
100
AcDbCircle
 10
385.0116523911177
 20
272.4154014093114
 30
0.0
 40
20.0
100
AcDbArc
 50
353.8840100189425
 51
15.99284774401804
  0
ARC
  5
F7E
330
2
100
AcDbEntity
  8
0
100
AcDbCircle
 10
409.0440548004802
 20
279.3033353836192
 30
0.0
 40
5.0
100
AcDbArc
 50
180.0
 51
195.992847744018
  0
LINE
  5
F7F
330
2
100
AcDbEntity
  8
0
100
AcDbLine
 10
404.0440548004802
 20
279.3033353836194
 30
0.0
 11
404.0440548004802
 21
282.3033353836194
 31
0.0
  0
LINE
  5
F80
330
2
100
AcDbEntity
  8
0
100
AcDbLine
 10
404.0440548004793
 20
279.3033353836181
 30
0.0
 11
404.0440548004793
 21
282.303335383618
 31
0.0
  0
LINE
  5
F81
330
2
100
AcDbEntity
  8
0
100
AcDbLine
 10
404.044054800482
 20
279.3033353836208
 30
0.0
 11
404.044054800482
 21
282.3033353836208
 31
0.0
  0
LINE
  5
F82
330
2
100
AcDbEntity
  8
0
100
AcDbLine
 10
404.0440548004802
 20
279.3033353836194
 30
0.0
 11
404.0440548004802
 21
282.3033353836194
 31
0.0
  0
ARC
  5
F83
330
2
100
AcDbEntity
  8
0
100
AcDbCircle
 10
385.0116523911177
 20
236.1912693579272
 30
0.0
 40
20.0
100
AcDbArc
 50
344.0071522559819
 51
6.115989981057472
  0
LINE
  5
F84
330
2
100
AcDbEntity
  8
0
100
AcDbLine
 10
404.0440548004793
 20
229.3033353836208
 30
0.0
 11
404.0440548004793
 21
226.3033353836208
 31
0.0
  0
ARC
  5
F85
330
2
100
AcDbEntity
  8
0
100
AcDbCircle
 10
409.0440548004802
 20
229.3033353836194
 30
0.0
 40
5.0
100
AcDbArc
 50
164.0071522559819
 51
180.0
  0
LINE
  5
F86
330
2
100
AcDbEntity
  8
0
100
AcDbLine
 10
410.0440548004802
 20
223.3033353836194
 30
0.0
 11
407.0440548004802
 21
223.3033353836194
 31
0.0
  0
LINE
  5
F87
330
2
100
AcDbEntity
  8
0
100
AcDbLine
 10
410.044054800482
 20
223.3033353836176
 30
0.0
 11
407.044054800482
 21
223.3033353836178
 31
0.0
  0
LINE
  5
F88
330
2
100
AcDbEntity
  8
0
100
AcDbLine
 10
410.0440548004802
 20
223.3033353836194
 30
0.0
 11
407.0440548004802
 21
223.3033353836194
 31
0.0
  0
LINE
  5
F89
330
2
100
AcDbEntity
  8
0
100
AcDbLine
 10
410.0440548004793
 20
223.3033353836208
 30
0.0
 11
407.0440548004793
 21
223.3033353836208
 31
0.0
  0
ARC
  5
F8A
330
2
100
AcDbEntity
  8
0
100
AcDbCircle
 10
416.9319887747891
 20
204.270932974256
 30
0.0
 40
20.0
100
AcDbArc
 50
83.88401001893184
 51
105.9928477439961
  0
ARC
  5
F8B
330
2
100
AcDbEntity
  8
0
100
AcDbCircle
 10
410.0440548004802
 20
228.3033353836194
 30
0.0
 40
5.0
100
AcDbArc
 50
270.0
 51
285.992847743996
  0
ARC
  5
F8C
330
2
100
AcDbEntity
  8
0
100
AcDbCircle
 10
453.1561208261731
 20
204.270932974256
 30
0.0
 40
20.0
100
AcDbArc
 50
74.00715225600388
 51
96.11598998106819
  0
LINE
  5
F8D
330
2
100
AcDbEntity
  8
0
100
AcDbLine
 10
460.0440548004793
 20
223.3033353836178
 30
0.0
 11
463.0440548004793
 21
223.3033353836178
 31
0.0
  0
ARC
  5
F8E
330
2
100
AcDbEntity
  8
0
100
AcDbCircle
 10
460.0440548004802
 20
228.3033353836194
 30
0.0
 40
5.0
100
AcDbArc
 50
254.0071522560039
 51
270.0
  0
ARC
  5
F8F
330
2
100
AcDbEntity
  8
0
100
AcDbCircle
 10
453.1561208261731
 20
304.3357377929828
 30
0.0
 40
20.0
100
AcDbArc
 50
263.8840100189318
 51
285.992847743996
  0
LINE
  5
F90
330
2
100
AcDbEntity
  8
0
100
AcDbLine
 10
460.0440548004811
 20
285.3033353836194
 30
0.0
 11
463.0440548004802
 21
285.3033353836192
 31
0.0
  0
LINE
  5
F91
330
2
100
AcDbEntity
  8
0
100
AcDbLine
 10
460.044054800482
 20
285.3033353836178
 30
0.0
 11
463.044054800482
 21
285.3033353836176
 31
0.0
  0
LINE
  5
F92
330
2
100
AcDbEntity
  8
0
100
AcDbLine
 10
460.0440548004793
 20
285.3033353836208
 30
0.0
 11
463.0440548004793
 21
285.3033353836208
 31
0.0
  0
LINE
  5
F93
330
2
100
AcDbEntity
  8
0
100
AcDbLine
 10
460.0440548004802
 20
285.3033353836194
 30
0.0
 11
463.0440548004802
 21
285.3033353836194
 31
0.0
  0
ARC
  5
F94
330
2
100
AcDbEntity
  8
0
100
AcDbCircle
 10
460.0440548004802
 20
280.3033353836194
 30
0.0
 40
5.0
100
AcDbArc
 50
90.0
 51
105.9928477439961
  0
LINE
  5
F95
330
2
100
AcDbEntity
  8
0
100
AcDbLine
 10
410.044054800482
 20
285.3033353836208
 30
0.0
 11
407.044054800482
 21
285.3033353836208
 31
0.0
  0
LINE
  5
F96
330
2
100
AcDbEntity
  8
0
100
AcDbLine
 10
410.0440548004802
 20
285.3033353836194
 30
0.0
 11
407.0440548004802
 21
285.3033353836194
 31
0.0
  0
ARC
  5
F97
330
2
100
AcDbEntity
  8
0
100
AcDbCircle
 10
416.9319887747891
 20
304.3357377929828
 30
0.0
 40
20.0
100
AcDbArc
 50
254.0071522560039
 51
276.1159899810681
  0
ARC
  5
F98
330
2
100
AcDbEntity
  8
0
100
AcDbCircle
 10
410.0440548004802
 20
280.3033353836194
 30
0.0
 40
5.0
100
AcDbArc
 50
74.00715225600388
 51
90.0
  0
ARC
  5
F99
330
2
100
AcDbEntity
  8
0
100
AcDbCircle
 10
554.0440548004802
 20
254.303335383619
 30
0.0
 40
150.0
100
AcDbArc
 50
173.8840100189425
 51
186.1159899810574
  0
ARC
  5
F9A
330
2
100
AcDbEntity
  8
0
100
AcDbCircle
 10
435.044054800482
 20
135.3033353836208
 30
0.0
 40
150.0
100
AcDbArc
 50
83.88401001893184
 51
96.11598998106819
  0
ARC
  5
F9B
330
2
100
AcDbEntity
  8
0
100
AcDbCircle
 10
435.044054800482
 20
373.3033353836208
 30
0.0
 40
150.0
100
AcDbArc
 50
263.8840100189318
 51
276.1159899810681
  0
LINE
  5
F9C
330
2
100
AcDbEntity
  8
0
100
AcDbLine
 10
466.0440548004802
 20
226.3033353836203
 30
0.0
 11
466.0440548004848
 21
282.3033353836203
 31
0.0
  0
LINE
  5
F9D
330
2
100
AcDbEntity
  8
0
100
AcDbLine
 10
500.0440548004839
 20
285.8033353836203
 30
0.0
 11
500.0440548004839
 21
222.8033353836213
 31
0.0
  0
ARC
  5
F9E
330
2
100
AcDbEntity
  8
0
100
AcDbCircle
 10
494.0440548004857
 20
283.3033353836203
 30
0.0
 40
2.0
100
AcDbArc
 50
90.0
 51
180.0
  0
LINE
  5
F9F
330
2
100
AcDbEntity
  8
0
100
AcDbLine
 10
492.0440548004856
 20
283.8033353836203
 30
0.0
 11
492.0440548004856
 21
224.8033353836208
 31
0.0
  0
LINE
  5
FA0
330
2
100
AcDbEntity
  8
0
100
AcDbLine
 10
500.0440548004875
 20
223.3033353836213
 30
0.0
 11
494.0440548004857
 21
223.3033353836208
 31
0.0
  0
ARC
  5
FA1
330
2
100
AcDbEntity
  8
0
100
AcDbCircle
 10
494.0440548004857
 20
225.3033353836208
 30
0.0
 40
2.0
100
AcDbArc
 50
180.0
 51
270.0
  0
LINE
  5
FA2
330
2
100
AcDbEntity
  8
0
100
AcDbLine
 10
500.0440548004839
 20
285.3033353836203
 30
0.0
 11
494.0440548004857
 21
285.3033353836203
 31
0.0
  0
ARC
  5
FA3
330
2
100
AcDbEntity
  8
0
100
AcDbCircle
 10
482.4923685423249
 20
423.3808056698264
 30
0.0
 40
2.0
100
AcDbArc
 50
181.4999999999798
 51
270.0
  0
LINE
  5
FA4
330
2
100
AcDbEntity
  8
0
100
AcDbLine
 10
480.493053892374
 20
423.3284517732109
 30
0.0
 11
479.8894067612113
 21
446.3808056716782
 31
0.0
  0
LINE
  5
FA5
330
2
100
AcDbEntity
  8
0
100
AcDbLine
 10
468.6734510766099
 20
426.3808056716779
 30
0.0
 11
477.4906545798224
 21
426.3808056716782
 31
0.0
  0
ARC
  5
FA6
330
2
100
AcDbEntity
  8
0
100
AcDbCircle
 10
477.4906545798224
 20
423.3808056716782
 30
0.0
 40
3.0
100
AcDbArc
 50
1.500000000002716
 51
90.0
  0
LINE
  5
FA7
330
2
100
AcDbEntity
  8
0
100
AcDbLine
 10
469.0440548004829
 20
256.3033353836203
 30
0.0
 11
477.5440548004838
 21
256.3033353836203
 31
0.0
  0
LINE
  5
FA8
330
2
100
AcDbEntity
  8
0
100
AcDbLine
 10
468.8305346966843
 20
448.3808056716782
 30
0.0
 11
477.0193079915765
 21
448.3808056716782
 31
0.0
  0
LINE
  5
FA9
330
2
100
AcDbEntity
  8
0
100
AcDbLine
 10
469.0440548004811
 20
274.3033353836203
 30
0.0
 11
477.5440548004838
 21
274.3033353836203
 31
0.0
  0
ARC
  5
FAA
330
2
100
AcDbEntity
  8
0
100
AcDbCircle
 10
469.0440548004811
 20
277.3033353836203
 30
0.0
 40
3.0
100
AcDbArc
 50
180.0
 51
270.0
  0
ARC
  5
FAB
330
2
100
AcDbEntity
  8
0
100
AcDbCircle
 10
477.5440548004838
 20
277.3033353836203
 30
0.0
 40
3.0
100
AcDbArc
 50
270.0
 51
359.9999999999967
  0
LINE
  5
FAC
330
2
100
AcDbEntity
  8
0
100
AcDbLine
 10
480.5440548004838
 20
277.3033353828996
 30
0.0
 11
480.5440548004838
 21
231.3033353843336
 31
0.0
  0
LINE
  5
FAD
330
2
100
AcDbEntity
  8
0
100
AcDbLine
 10
469.0440548004811
 20
234.3033353836204
 30
0.0
 11
477.5440548004838
 21
234.3033353836204
 31
0.0
  0
ARC
  5
FAE
330
2
100
AcDbEntity
  8
0
100
AcDbCircle
 10
477.5440548004838
 20
231.3033353836203
 30
0.0
 40
3.0
100
AcDbArc
 50
0.0
 51
90.0
  0
ARC
  5
FAF
330
2
100
AcDbEntity
  8
0
100
AcDbCircle
 10
469.0440548004811
 20
231.3033353836203
 30
0.0
 40
3.0
100
AcDbArc
 50
90.0
 51
179.9999999999967
  0
ARC
  5
FB0
330
2
100
AcDbEntity
  8
0
100
AcDbCircle
 10
482.5440548004839
 20
231.3033353843336
 30
0.0
 40
2.0
100
AcDbArc
 50
180.0
 51
270.0
  0
LINE
  5
FB1
330
2
100
AcDbEntity
  8
0
100
AcDbLine
 10
480.5440548004838
 20
231.3033353836203
 30
0.0
 11
480.5440548004838
 21
231.3033353843336
 31
0.0
  0
ARC
  5
FB2
330
2
100
AcDbEntity
  8
0
100
AcDbCircle
 10
482.5440548004839
 20
277.3033353828996
 30
0.0
 40
2.0
100
AcDbArc
 50
90.0
 51
180.0
  0
LINE
  5
FB3
330
2
100
AcDbEntity
  8
0
100
AcDbLine
 10
482.5440548004839
 20
279.3033353828996
 30
0.0
 11
489.0440548004857
 21
279.3033353828996
 31
0.0
  0
ARC
  5
FB4
330
2
100
AcDbEntity
  8
0
100
AcDbCircle
 10
489.0440548004857
 20
282.3033353828996
 30
0.0
 40
3.0
100
AcDbArc
 50
270.0
 51
0.0
  0
ARC
  5
FB5
330
2
100
AcDbEntity
  8
0
100
AcDbCircle
 10
489.0440548004857
 20
226.3033353843334
 30
0.0
 40
3.0
100
AcDbArc
 50
0.0
 51
90.0
  0
LINE
  5
FB6
330
2
100
AcDbEntity
  8
0
100
AcDbLine
 10
482.5440548004839
 20
229.3033353843336
 30
0.0
 11
489.0440548004857
 21
229.3033353843334
 31
0.0
  0
ARC
  5
FB7
330
2
100
AcDbEntity
  8
0
100
AcDbCircle
 10
477.4513756974587
 20
467.8808056713115
 30
0.0
 40
3.0
100
AcDbArc
 50
270.0
 51
358.4999999999972
  0
LINE
  5
FB8
330
2
100
AcDbEntity
  8
0
100
AcDbLine
 10
468.6385436054969
 20
422.3808056742796
 30
0.0
 11
479.4923685363877
 21
422.3808056742796
 31
0.0
  0
LINE
  5
FB9
330
2
100
AcDbEntity
  8
0
100
AcDbLine
 10
468.830534696718
 20
444.3808056716782
 30
0.0
 11
477.0193079915828
 21
444.3808056716782
 31
0.0
  0
ARC
  5
FBA
330
2
100
AcDbEntity
  8
0
100
AcDbCircle
 10
469.0440548004829
 20
259.3033353836204
 30
0.0
 40
3.0
100
AcDbArc
 50
179.9999999999934
 51
270.0
  0
ARC
  5
FBB
330
2
100
AcDbEntity
  8
0
100
AcDbCircle
 10
477.5440548004838
 20
259.3033353836204
 30
0.0
 40
3.0
100
AcDbArc
 50
270.0
 51
0.0
  0
LINE
  5
FBC
330
2
100
AcDbEntity
  8
0
100
AcDbLine
 10
469.0440548004829
 20
252.3033353836203
 30
0.0
 11
477.5440548004838
 21
252.3033353836203
 31
0.0
  0
ARC
  5
FBD
330
2
100
AcDbEntity
  8
0
100
AcDbCircle
 10
477.5440548004838
 20
249.3033353836203
 30
0.0
 40
3.0
100
AcDbArc
 50
0.0
 51
90.0
  0
ARC
  5
FBE
330
2
100
AcDbEntity
  8
0
100
AcDbCircle
 10
469.0440548004829
 20
249.3033353836203
 30
0.0
 40
3.0
100
AcDbArc
 50
90.0
 51
180.0000000000032
  0
ARC
  5
FBF
330
2
100
AcDbEntity
  8
0
100
AcDbCircle
 10
479.4923685363877
 20
419.3808056742795
 30
0.0
 40
3.0
100
AcDbArc
 50
53.13010226912336
 51
90.0
  0
LINE
  5
FC0
330
2
100
AcDbEntity
  8
0
100
AcDbLine
 10
414.9754323500868
 20
403.3808056716781
 30
0.0
 11
455.1126772508663
 21
403.380805671678
 31
0.0
  0
LINE
  5
FC1
330
2
100
AcDbEntity
  8
0
100
AcDbLine
 10
457.221096082499
 20
408.450604665083
 30
0.0
 11
457.1114589049042
 21
405.3110066782733
 31
0.0
  0
ARC
  5
FC2
330
2
100
AcDbEntity
  8
0
100
AcDbCircle
 10
459.2198777365369
 20
408.3808056716781
 30
0.0
 40
2.0
100
AcDbArc
 50
90.0
 51
178.0000000000028
  0
ARC
  5
FC3
330
2
100
AcDbEntity
  8
0
100
AcDbCircle
 10
455.1126772508663
 20
405.3808056716782
 30
0.0
 40
2.0
100
AcDbArc
 50
270.0
 51
358.0000000000028
  0
LINE
  5
FC4
330
2
100
AcDbEntity
  8
0
100
AcDbLine
 10
412.8670135184578
 20
408.4506046651068
 30
0.0
 11
412.9766506960489
 21
405.3110066782969
 31
0.0
  0
ARC
  5
FC5
330
2
100
AcDbEntity
  8
0
100
AcDbCircle
 10
410.8682318644199
 20
408.3808056717039
 30
0.0
 40
2.0
100
AcDbArc
 50
1.999999999938485
 51
89.99999999994789
  0
ARC
  5
FC6
330
2
100
AcDbEntity
  8
0
100
AcDbCircle
 10
414.9754323500868
 20
405.3808056716998
 30
0.0
 40
2.0
100
AcDbArc
 50
181.9999999999384
 51
269.9999999999478
  0
LINE
  5
FC7
330
2
100
AcDbEntity
  8
0
100
AcDbLine
 10
493.9923685423249
 20
477.3808056716782
 30
0.0
 11
500.044054800482
 21
477.3808056716782
 31
0.0
  0
LINE
  5
FC8
330
2
100
AcDbEntity
  8
0
100
AcDbLine
 10
493.9923685423249
 20
415.3808056716782
 30
0.0
 11
500.0440548004856
 21
415.3808056739057
 31
0.0
  0
LINE
  5
FC9
330
2
100
AcDbEntity
  8
0
100
AcDbLine
 10
491.9930538923739
 20
417.3284517750628
 30
0.0
 11
491.2322912318626
 21
446.3808056716782
 31
0.0
  0
ARC
  5
FCA
330
2
100
AcDbEntity
  8
0
100
AcDbCircle
 10
493.9923685423249
 20
417.3808056716782
 30
0.0
 40
2.0
100
AcDbArc
 50
181.4999999999897
 51
270.0
  0
ARC
  5
FCB
330
2
100
AcDbEntity
  8
0
100
AcDbCircle
 10
493.9923685423249
 20
475.3808056716782
 30
0.0
 40
2.0
100
AcDbArc
 50
90.0
 51
178.5000000000102
  0
LINE
  5
FCC
330
2
100
AcDbEntity
  8
0
100
AcDbLine
 10
482.4923685423267
 20
471.3808056716782
 30
0.0
 11
488.9644686583027
 21
471.3808056716782
 31
0.0
  0
LINE
  5
FCD
330
2
100
AcDbEntity
  8
0
100
AcDbLine
 10
482.4923685423267
 20
421.3808056716782
 30
0.0
 11
488.9644686583027
 21
421.3808056716782
 31
0.0
  0
ARC
  5
FCE
330
2
100
AcDbEntity
  8
0
100
AcDbCircle
 10
488.9644686583027
 20
474.3808056716781
 30
0.0
 40
3.0
100
AcDbArc
 50
270.0
 51
358.5000000000103
  0
ARC
  5
FCF
330
2
100
AcDbEntity
  8
0
100
AcDbCircle
 10
488.9644686583027
 20
418.3808056716782
 30
0.0
 40
3.0
100
AcDbArc
 50
1.499999999989693
 51
90.0
  0
LINE
  5
FD0
330
2
100
AcDbEntity
  8
0
100
AcDbLine
 10
491.9930538923739
 20
475.4331595682924
 30
0.0
 11
491.2322912318607
 21
446.3808056716782
 31
0.0
  0
LINE
  5
FD1
330
2
100
AcDbEntity
  8
0
100
AcDbLine
 10
460.0440548004875
 20
446.3808056716782
 30
0.0
 11
460.0440548004875
 21
414.8807866332104
 31
0.0
  0
LINE
  5
FD2
330
2
100
AcDbEntity
  8
0
100
AcDbLine
 10
419.0628200719341
 20
465.3808056716793
 30
0.0
 11
419.0628200719341
 21
414.8807866332104
 31
0.0
  0
LINE
  5
FD3
330
2
100
AcDbEntity
  8
0
100
AcDbLine
 10
410.0440548004802
 20
465.3808056716793
 30
0.0
 11
410.0440548004802
 21
414.8807866332104
 31
0.0
  0
LINE
  5
FD4
330
2
100
AcDbEntity
  8
0
100
AcDbLine
 10
407.0440548004802
 20
465.3808056716793
 30
0.0
 11
407.0440548004802
 21
414.8807866332104
 31
0.0
  0
LINE
  5
FD5
330
2
100
AcDbEntity
  8
0
100
AcDbLine
 10
462.8738808785613
 20
446.3808056716782
 30
0.0
 11
462.8738808785613
 21
414.8807866332104
 31
0.0
  0
LINE
  5
FD6
330
2
100
AcDbEntity
  8
0
100
AcDbLine
 10
451.0252895290099
 20
465.380805671679
 30
0.0
 11
451.0252895290099
 21
414.8807866332104
 31
0.0
  0
LINE
  5
FD7
330
2
100
AcDbEntity
  8
0
100
AcDbLine
 10
460.0571477612651
 20
465.3808056716789
 30
0.0
 11
460.5291798170268
 21
447.3546287233703
 31
0.0
  0
ARC
  5
FD8
330
2
100
AcDbEntity
  8
0
100
AcDbCircle
 10
461.5288371420023
 20
447.3808056716782
 30
0.0
 40
1.0
100
AcDbArc
 50
181.5000000000027
 51
270.0
  0
LINE
  5
FD9
330
2
100
AcDbEntity
  8
0
100
AcDbLine
 10
461.5288371420023
 20
446.3808056716782
 30
0.0
 11
465.8740548004806
 21
446.3808056716782
 31
0.0
  0
LINE
  5
FDA
330
2
100
AcDbEntity
  8
0
100
AcDbLine
 10
491.2322912318607
 20
446.3808056717129
 30
0.0
 11
500.0440548004839
 21
446.3808056716782
 31
0.0
  0
LINE
  5
FDB
330
2
100
AcDbEntity
  8
0
100
AcDbLine
 10
469.044054800482
 20
278.3033353829073
 30
0.0
 11
479.5440548004911
 21
278.3033353829073
 31
0.0
  0
ARC
  5
FDC
330
2
100
AcDbEntity
  8
0
100
AcDbCircle
 10
469.044054800482
 20
281.3033353829073
 30
0.0
 40
3.0
100
AcDbArc
 50
179.9999999999967
 51
270.0
  0
ARC
  5
FDD
330
2
100
AcDbEntity
  8
0
100
AcDbCircle
 10
479.5440548004911
 20
281.3033353829073
 30
0.0
 40
3.0
100
AcDbArc
 50
270.0
 51
306.8698976456764
  0
LINE
  5
FDE
330
2
100
AcDbEntity
  8
0
100
AcDbLine
 10
469.044054800482
 20
230.3033353843338
 30
0.0
 11
479.5440548004911
 21
230.3033353843338
 31
0.0
  0
ARC
  5
FDF
330
2
100
AcDbEntity
  8
0
100
AcDbCircle
 10
469.044054800482
 20
227.3033353843338
 30
0.0
 40
3.0
100
AcDbArc
 50
90.0
 51
180.0
  0
ARC
  5
FE0
330
2
100
AcDbEntity
  8
0
100
AcDbCircle
 10
479.5440548004911
 20
227.3033353843338
 30
0.0
 40
3.0
100
AcDbArc
 50
53.13010235426199
 51
90.0
  0
ARC
  5
FE1
330
2
100
AcDbEntity
  8
0
100
AcDbCircle
 10
477.0193079915765
 20
451.3808056716782
 30
0.0
 40
3.0
100
AcDbArc
 50
270.0
 51
358.4999999999972
  0
ARC
  5
FE2
330
2
100
AcDbEntity
  8
0
100
AcDbCircle
 10
477.0193079915828
 20
441.3808056716781
 30
0.0
 40
3.0
100
AcDbArc
 50
1.499999999983181
 51
90.0
  0
ARC
  5
FE3
330
2
100
AcDbEntity
  8
0
100
AcDbCircle
 10
494.0440548004857
 20
283.8033353836203
 30
0.0
 40
2.0
100
AcDbArc
 50
90.0
 51
180.0
  0
LINE
  5
FE4
330
2
100
AcDbEntity
  8
0
100
AcDbLine
 10
500.0440548004839
 20
285.8033353836203
 30
0.0
 11
494.0440548004857
 21
285.8033353836203
 31
0.0
  0
LINE
  5
FE5
330
2
100
AcDbEntity
  8
0
100
AcDbLine
 10
500.0440548004875
 20
222.8033353836213
 30
0.0
 11
494.0440548004857
 21
222.8033353836208
 31
0.0
  0
ARC
  5
FE6
330
2
100
AcDbEntity
  8
0
100
AcDbCircle
 10
494.0440548004857
 20
224.8033353836208
 30
0.0
 40
2.0
100
AcDbArc
 50
180.0
 51
270.0
  0
LINE
  5
FE7
330
2
100
AcDbEntity
  8
CENTER
100
AcDbLine
 10
161.9210645616329
 20
216.303335383621
 30
0.0
 11
161.9210645616329
 21
292.303335383621
 31
0.0
  0
LINE
  5
FE8
330
2
100
AcDbEntity
  8
CENTER
100
AcDbLine
 10
199.9210645616325
 20
254.303335383621
 30
0.0
 11
46.92106456163208
 21
254.303335383621
 31
0.0
  0
LINE
  5
FE9
330
2
100
AcDbEntity
  8
0
100
AcDbLine
 10
104.9210645616307
 20
224.803335383621
 30
0.0
 11
104.9210645616307
 21
283.8033353836205
 31
0.0
  0
LINE
  5
FEA
330
2
100
AcDbEntity
  8
0
100
AcDbLine
 10
96.92106456163253
 20
222.803335383621
 30
0.0
 11
96.92106456163253
 21
285.8033353836201
 31
0.0
  0
LINE
  5
FEB
330
2
100
AcDbEntity
  8
0
100
AcDbLine
 10
116.4210645616325
 20
246.7039933068356
 30
0.0
 11
116.4210645616325
 21
261.9026774604065
 31
0.0
  0
ARC
  5
FEC
330
2
100
AcDbEntity
  8
0
100
AcDbCircle
 10
102.9210645616307
 20
283.3033353836206
 30
0.0
 40
2.0
100
AcDbArc
 50
0.0
 51
90.0
  0
LINE
  5
FED
330
2
100
AcDbEntity
  8
0
100
AcDbLine
 10
96.92106456162889
 20
285.3033353836201
 30
0.0
 11
102.9210645616307
 21
285.3033353836206
 31
0.0
  0
ARC
  5
FEE
330
2
100
AcDbEntity
  8
0
100
AcDbCircle
 10
102.9210645616307
 20
225.303335383621
 30
0.0
 40
2.0
100
AcDbArc
 50
270.0
 51
0.0
  0
LINE
  5
FEF
330
2
100
AcDbEntity
  8
0
100
AcDbLine
 10
96.92106456163253
 20
223.303335383621
 30
0.0
 11
102.9210645616307
 21
223.303335383621
 31
0.0
  0
ARC
  5
FF0
330
2
100
AcDbEntity
  8
0
100
AcDbCircle
 10
189.9210645616325
 20
282.303335383621
 30
0.0
 40
3.0
100
AcDbArc
 50
0.0
 51
90.0
  0
ARC
  5
FF1
330
2
100
AcDbEntity
  8
0
100
AcDbCircle
 10
189.9210645616325
 20
226.303335383621
 30
0.0
 40
3.0
100
AcDbArc
 50
270.0
 51
0.0
  0
ARC
  5
FF2
330
2
100
AcDbEntity
  8
0
100
AcDbCircle
 10
42.92106456163253
 20
254.3033353836228
 30
0.0
 40
150.0
100
AcDbArc
 50
353.8840100189425
 51
6.115989981057472
  0
ARC
  5
FF3
330
2
100
AcDbEntity
  8
0
100
AcDbCircle
 10
211.9534669709959
 20
236.1912693579304
 30
0.0
 40
20.0
100
AcDbArc
 50
173.8840100189425
 51
195.9928477439901
  0
ARC
  5
FF4
330
2
100
AcDbEntity
  8
0
100
AcDbCircle
 10
187.9210645616325
 20
229.3033353836226
 30
0.0
 40
5.0
100
AcDbArc
 50
0.0
 51
15.99284774399019
  0
LINE
  5
FF5
330
2
100
AcDbEntity
  8
0
100
AcDbLine
 10
192.9210645616325
 20
229.3033353836224
 30
0.0
 11
192.9210645616325
 21
226.3033353836226
 31
0.0
  0
LINE
  5
FF6
330
2
100
AcDbEntity
  8
0
100
AcDbLine
 10
192.9210645616343
 20
229.3033353836237
 30
0.0
 11
192.9210645616343
 21
226.303335383624
 31
0.0
  0
LINE
  5
FF7
330
2
100
AcDbEntity
  8
0
100
AcDbLine
 10
192.9210645616307
 20
229.303335383621
 30
0.0
 11
192.9210645616307
 21
226.303335383621
 31
0.0
  0
LINE
  5
FF8
330
2
100
AcDbEntity
  8
0
100
AcDbLine
 10
192.9210645616325
 20
229.3033353836224
 30
0.0
 11
192.9210645616325
 21
226.3033353836224
 31
0.0
  0
ARC
  5
FF9
330
2
100
AcDbEntity
  8
0
100
AcDbCircle
 10
211.9534669709959
 20
272.4154014093146
 30
0.0
 40
20.0
100
AcDbArc
 50
164.0071522560098
 51
186.1159899810574
  0
LINE
  5
FFA
330
2
100
AcDbEntity
  8
0
100
AcDbLine
 10
192.9210645616343
 20
279.3033353836213
 30
0.0
 11
192.9210645616343
 21
282.303335383621
 31
0.0
  0
ARC
  5
FFB
330
2
100
AcDbEntity
  8
0
100
AcDbCircle
 10
187.9210645616325
 20
279.3033353836224
 30
0.0
 40
5.0
100
AcDbArc
 50
344.0071522560097
 51
0.0
  0
LINE
  5
FFC
330
2
100
AcDbEntity
  8
0
100
AcDbLine
 10
186.9210645616325
 20
285.3033353836226
 30
0.0
 11
189.9210645616325
 21
285.3033353836224
 31
0.0
  0
LINE
  5
FFD
330
2
100
AcDbEntity
  8
0
100
AcDbLine
 10
186.9210645616316
 20
285.3033353836242
 30
0.0
 11
189.9210645616316
 21
285.303335383624
 31
0.0
  0
LINE
  5
FFE
330
2
100
AcDbEntity
  8
0
100
AcDbLine
 10
186.9210645616325
 20
285.3033353836224
 30
0.0
 11
189.9210645616325
 21
285.3033353836224
 31
0.0
  0
LINE
  5
FFF
330
2
100
AcDbEntity
  8
0
100
AcDbLine
 10
186.9210645616343
 20
285.303335383621
 30
0.0
 11
189.9210645616343
 21
285.303335383621
 31
0.0
  0
ARC
  5
1000
330
2
100
AcDbEntity
  8
0
100
AcDbCircle
 10
180.0331305873254
 20
304.335737792986
 30
0.0
 40
20.0
100
AcDbArc
 50
263.8840100189318
 51
285.992847743996
  0
ARC
  5
1001
330
2
100
AcDbEntity
  8
0
100
AcDbCircle
 10
186.9210645616325
 20
280.3033353836224
 30
0.0
 40
5.0
100
AcDbArc
 50
90.0
 51
105.9928477439961
  0
ARC
  5
1002
330
2
100
AcDbEntity
  8
0
100
AcDbCircle
 10
143.8089985359405
 20
304.335737792986
 30
0.0
 40
20.0
100
AcDbArc
 50
254.0071522560039
 51
276.1159899810156
  0
LINE
  5
1003
330
2
100
AcDbEntity
  8
0
100
AcDbLine
 10
136.9210645616343
 20
285.3033353836242
 30
0.0
 11
133.9210645616307
 21
285.3033353836242
 31
0.0
  0
ARC
  5
1004
330
2
100
AcDbEntity
  8
0
100
AcDbCircle
 10
136.9210645616325
 20
280.3033353836226
 30
0.0
 40
5.0
100
AcDbArc
 50
74.00715225600388
 51
90.0
  0
ARC
  5
1005
330
2
100
AcDbEntity
  8
0
100
AcDbCircle
 10
143.8089985359405
 20
204.270932974259
 30
0.0
 40
20.0
100
AcDbArc
 50
83.88401001893184
 51
105.9928477439961
  0
LINE
  5
1006
330
2
100
AcDbEntity
  8
0
100
AcDbLine
 10
136.9210645616325
 20
223.3033353836226
 30
0.0
 11
133.9210645616325
 21
223.3033353836226
 31
0.0
  0
LINE
  5
1007
330
2
100
AcDbEntity
  8
0
100
AcDbLine
 10
136.9210645616307
 20
223.3033353836242
 30
0.0
 11
133.9210645616307
 21
223.3033353836242
 31
0.0
  0
LINE
  5
1008
330
2
100
AcDbEntity
  8
0
100
AcDbLine
 10
136.9210645616343
 20
223.303335383621
 30
0.0
 11
133.9210645616343
 21
223.303335383621
 31
0.0
  0
LINE
  5
1009
330
2
100
AcDbEntity
  8
0
100
AcDbLine
 10
136.9210645616325
 20
223.3033353836224
 30
0.0
 11
133.9210645616307
 21
223.3033353836229
 31
0.0
  0
ARC
  5
100A
330
2
100
AcDbEntity
  8
0
100
AcDbCircle
 10
136.9210645616325
 20
228.3033353836226
 30
0.0
 40
5.0
100
AcDbArc
 50
270.0
 51
285.992847743996
  0
LINE
  5
100B
330
2
100
AcDbEntity
  8
0
100
AcDbLine
 10
186.9210645616316
 20
223.303335383621
 30
0.0
 11
189.9210645616316
 21
223.303335383621
 31
0.0
  0
LINE
  5
100C
330
2
100
AcDbEntity
  8
0
100
AcDbLine
 10
186.9210645616325
 20
223.3033353836224
 30
0.0
 11
189.9210645616325
 21
223.3033353836226
 31
0.0
  0
ARC
  5
100D
330
2
100
AcDbEntity
  8
0
100
AcDbCircle
 10
180.0331305873254
 20
204.270932974259
 30
0.0
 40
20.0
100
AcDbArc
 50
74.00715225600388
 51
96.11598998101577
  0
ARC
  5
100E
330
2
100
AcDbEntity
  8
0
100
AcDbCircle
 10
186.9210645616325
 20
228.3033353836224
 30
0.0
 40
5.0
100
AcDbArc
 50
254.0071522560039
 51
270.0
  0
ARC
  5
100F
330
2
100
AcDbEntity
  8
0
100
AcDbCircle
 10
161.9210645616307
 20
373.303335383621
 30
0.0
 40
150.0
100
AcDbArc
 50
263.8840100189318
 51
276.1159899810156
  0
ARC
  5
1010
330
2
100
AcDbEntity
  8
0
100
AcDbCircle
 10
161.9210645616307
 20
135.303335383621
 30
0.0
 40
150.0
100
AcDbArc
 50
83.88401001893184
 51
96.11598998101577
  0
LINE
  5
1011
330
2
100
AcDbEntity
  8
0
100
AcDbLine
 10
130.9210645616307
 20
282.3033353836242
 30
0.0
 11
130.9210645616307
 21
226.3033353836228
 31
0.0
  0
ARC
  5
1012
330
2
100
AcDbEntity
  8
0
100
AcDbCircle
 10
133.9210645616307
 20
226.3033353836228
 30
0.0
 40
3.0
100
AcDbArc
 50
180.0
 51
270.0
  0
LINE
  5
1013
330
2
100
AcDbEntity
  8
0
100
AcDbLine
 10
116.4210645616325
 20
246.7039933068356
 30
0.0
 11
130.9210645616316
 21
246.7039933068356
 31
0.0
  0
LINE
  5
1014
330
2
100
AcDbEntity
  8
0
100
AcDbLine
 10
116.4210645616325
 20
261.9026774604065
 30
0.0
 11
130.9210645616316
 21
261.9026774604065
 31
0.0
  0
LINE
  5
1015
330
2
100
AcDbEntity
  8
0
100
AcDbLine
 10
130.4210645616325
 20
261.9026774604065
 30
0.0
 11
130.4210645616316
 21
246.7039933068356
 31
0.0
  0
LINE
  5
1016
330
2
100
AcDbEntity
  8
0
100
AcDbLine
 10
127.9210645616343
 20
234.3033353836208
 30
0.0
 11
119.4210645616316
 21
234.303335383621
 31
0.0
  0
ARC
  5
1017
330
2
100
AcDbEntity
  8
0
100
AcDbCircle
 10
127.9210645616343
 20
231.3033353836208
 30
0.0
 40
3.0
100
AcDbArc
 50
0.0
 51
90.0
  0
ARC
  5
1018
330
2
100
AcDbEntity
  8
0
100
AcDbCircle
 10
119.4210645616316
 20
231.303335383621
 30
0.0
 40
3.0
100
AcDbArc
 50
90.0
 51
180.0
  0
LINE
  5
1019
330
2
100
AcDbEntity
  8
0
100
AcDbLine
 10
116.4210645616325
 20
231.3033353843416
 30
0.0
 11
116.4210645616325
 21
277.3033353829075
 31
0.0
  0
LINE
  5
101A
330
2
100
AcDbEntity
  8
0
100
AcDbLine
 10
127.9210645616352
 20
274.303335383621
 30
0.0
 11
119.4210645616325
 21
274.303335383621
 31
0.0
  0
ARC
  5
101B
330
2
100
AcDbEntity
  8
0
100
AcDbCircle
 10
119.4210645616325
 20
277.303335383621
 30
0.0
 40
3.0
100
AcDbArc
 50
180.0
 51
270.0
  0
ARC
  5
101C
330
2
100
AcDbEntity
  8
0
100
AcDbCircle
 10
127.9210645616352
 20
277.303335383621
 30
0.0
 40
3.0
100
AcDbArc
 50
270.0
 51
359.9999999999934
  0
ARC
  5
101D
330
2
100
AcDbEntity
  8
0
100
AcDbCircle
 10
114.4210645616325
 20
277.3033353829075
 30
0.0
 40
2.0
100
AcDbArc
 50
0.0
 51
90.0
  0
LINE
  5
101E
330
2
100
AcDbEntity
  8
0
100
AcDbLine
 10
116.4210645616325
 20
277.303335383621
 30
0.0
 11
116.4210645616325
 21
277.3033353829075
 31
0.0
  0
ARC
  5
101F
330
2
100
AcDbEntity
  8
0
100
AcDbCircle
 10
114.4210645616325
 20
231.3033353843416
 30
0.0
 40
2.0
100
AcDbArc
 50
270.0
 51
359.9999999917405
  0
LINE
  5
1020
330
2
100
AcDbEntity
  8
0
100
AcDbLine
 10
127.9210645616307
 20
230.3033353843345
 30
0.0
 11
117.4210645616225
 21
230.3033353843345
 31
0.0
  0
LINE
  5
1021
330
2
100
AcDbEntity
  8
0
100
AcDbLine
 10
114.4210645616325
 20
229.3033353843416
 30
0.0
 11
107.9210645616307
 21
229.3033353843418
 31
0.0
  0
ARC
  5
1022
330
2
100
AcDbEntity
  8
0
100
AcDbCircle
 10
107.9210645616307
 20
226.3033353843418
 30
0.0
 40
3.0
100
AcDbArc
 50
90.0
 51
180.0
  0
ARC
  5
1023
330
2
100
AcDbEntity
  8
0
100
AcDbCircle
 10
107.9210645616307
 20
282.3033353829078
 30
0.0
 40
3.0
100
AcDbArc
 50
180.0
 51
270.0
  0
LINE
  5
1024
330
2
100
AcDbEntity
  8
0
100
AcDbLine
 10
114.4210645616325
 20
279.3033353829075
 30
0.0
 11
107.9210645616307
 21
279.3033353829077
 31
0.0
  0
ARC
  5
1025
330
2
100
AcDbEntity
  8
0
100
AcDbCircle
 10
127.9210645616307
 20
227.3033353843345
 30
0.0
 40
3.0
100
AcDbArc
 50
0.0
 51
90.0
  0
ARC
  5
1026
330
2
100
AcDbEntity
  8
0
100
AcDbCircle
 10
117.4210645616225
 20
227.3033353843343
 30
0.0
 40
3.0
100
AcDbArc
 50
90.0
 51
126.8698976456764
  0
ARC
  5
1027
330
2
100
AcDbEntity
  8
0
100
AcDbCircle
 10
133.9210645616307
 20
282.3033353836242
 30
0.0
 40
3.0
100
AcDbArc
 50
90.0
 51
180.0
  0
LINE
  5
1028
330
2
100
AcDbEntity
  8
0
100
AcDbLine
 10
127.9210645616307
 20
278.3033353829075
 30
0.0
 11
117.4210645616225
 21
278.3033353829078
 31
0.0
  0
ARC
  5
1029
330
2
100
AcDbEntity
  8
0
100
AcDbCircle
 10
127.9210645616307
 20
281.3033353829075
 30
0.0
 40
3.0
100
AcDbArc
 50
270.0
 51
0.0
  0
ARC
  5
102A
330
2
100
AcDbEntity
  8
0
100
AcDbCircle
 10
117.4210645616225
 20
281.3033353829077
 30
0.0
 40
3.0
100
AcDbArc
 50
233.130102354262
 51
270.0
  0
ARC
  5
102B
330
2
100
AcDbEntity
  8
0
100
AcDbCircle
 10
102.9210645616307
 20
224.803335383621
 30
0.0
 40
2.0
100
AcDbArc
 50
270.0
 51
0.0
  0
LINE
  5
102C
330
2
100
AcDbEntity
  8
0
100
AcDbLine
 10
96.92106456163253
 20
222.803335383621
 30
0.0
 11
102.9210645616307
 21
222.803335383621
 31
0.0
  0
LINE
  5
102D
330
2
100
AcDbEntity
  8
0
100
AcDbLine
 10
96.92106456162889
 20
285.8033353836201
 30
0.0
 11
102.9210645616307
 21
285.8033353836205
 31
0.0
  0
ARC
  5
102E
330
2
100
AcDbEntity
  8
0
100
AcDbCircle
 10
102.9210645616307
 20
283.8033353836205
 30
0.0
 40
2.0
100
AcDbArc
 50
0.0
 51
90.0
  0
LINE
  5
102F
330
2
100
AcDbEntity
  8
CENTER
100
AcDbLine
 10
195.5779188111245
 20
287.9601896331132
 30
0.0
 11
128.2642103121401
 21
220.6464811341288
 31
0.0
  0
LINE
  5
1030
330
2
100
AcDbEntity
  8
0
100
AcDbLine
 10
173.9479764962137
 20
228.803335383621
 30
0.0
 11
149.8941526270513
 21
228.803335383621
 31
0.0
  0
LINE
  5
1031
330
2
100
AcDbEntity
  8
0
100
AcDbLine
 10
173.9479764962137
 20
226.803335383621
 30
0.0
 11
149.8941526270513
 21
226.803335383621
 31
0.0
  0
LINE
  5
1032
330
2
100
AcDbEntity
  8
0
100
AcDbLine
 10
173.9479764962137
 20
281.803335383621
 30
0.0
 11
149.8941526270513
 21
281.803335383621
 31
0.0
  0
LINE
  5
1033
330
2
100
AcDbEntity
  8
0
100
AcDbLine
 10
173.9479764962137
 20
279.803335383621
 30
0.0
 11
149.8941526270513
 21
279.8033353836208
 31
0.0
  0
CIRCLE
  5
1034
330
2
100
AcDbEntity
  8
0
100
AcDbCircle
 10
161.9210645616325
 20
254.303335383621
 30
0.0
 40
17.5
  0
CIRCLE
  5
1035
330
2
100
AcDbEntity
  8
0
100
AcDbCircle
 10
161.9210645616325
 20
254.303335383621
 30
0.0
 40
18.0774
  0
CIRCLE
  5
1036
330
2
100
AcDbEntity
  8
0
100
AcDbCircle
 10
161.9210645616325
 20
254.303335383621
 30
0.0
 40
25.0
  0
CIRCLE
  5
1037
330
2
100
AcDbEntity
  8
0
100
AcDbCircle
 10
161.9210645616325
 20
254.303335383621
 30
0.0
 40
23.0
  0
CIRCLE
  5
1038
330
2
100
AcDbEntity
  8
0
100
AcDbCircle
 10
161.9210645616325
 20
254.303335383621
 30
0.0
 40
22.42259999999999
  0
CIRCLE
  5
1039
330
2
100
AcDbEntity
  8
0
100
AcDbCircle
 10
161.9210645616325
 20
254.303335383621
 30
0.0
 40
25.5
  0
LINE
  5
103A
330
2
100
AcDbEntity
  8
0
100
AcDbLine
 10
187.4210645616325
 20
242.27642344904
 30
0.0
 11
187.4210645616325
 21
266.330247318202
 31
0.0
  0
LINE
  5
103B
330
2
100
AcDbEntity
  8
0
100
AcDbLine
 10
189.4210645616325
 20
242.2764234490398
 30
0.0
 11
189.4210645616325
 21
266.3302473182022
 31
0.0
  0
LINE
  5
103C
330
2
100
AcDbEntity
  8
CENTER
100
AcDbLine
 10
193.6710645616343
 20
280.3033353836206
 30
0.0
 11
182.1710645616343
 21
280.303335383621
 31
0.0
  0
LINE
  5
103D
330
2
100
AcDbEntity
  8
0
100
AcDbLine
 10
178.8977239645195
 20
279.7530828519268
 30
0.0
 11
187.3708120299383
 21
271.279994786508
 31
0.0
  0
LINE
  5
103E
330
2
100
AcDbEntity
  8
0
100
AcDbLine
 10
177.483510402147
 20
278.3388692895537
 30
0.0
 11
185.9565984675658
 21
269.8657812241346
 31
0.0
  0
LINE
  5
103F
330
2
100
AcDbEntity
  8
CENTER
100
AcDbLine
 10
187.9210645616343
 20
286.0533353836208
 30
0.0
 11
187.9210645616343
 21
274.5533353836208
 31
0.0
  0
ARC
  5
1040
330
2
100
AcDbEntity
  8
0
100
AcDbCircle
 10
182.4210645616325
 20
266.330247318202
 30
0.0
 40
5.0
100
AcDbArc
 50
0.0
 51
44.99999999999309
  0
LINE
  5
1041
330
2
100
AcDbEntity
  8
0
100
AcDbLine
 10
187.0404622241889
 20
268.2436644800277
 30
0.0
 11
188.8882212892116
 21
269.0090313447579
 31
0.0
  0
ARC
  5
1042
330
2
100
AcDbEntity
  8
0
100
AcDbCircle
 10
182.4210645616325
 20
266.3302473182022
 30
0.0
 40
7.0
100
AcDbArc
 50
0.0
 51
44.99999999999309
  0
ARC
  5
1043
330
2
100
AcDbEntity
  8
0
100
AcDbCircle
 10
173.9479764962137
 20
274.803335383621
 30
0.0
 40
7.0
100
AcDbArc
 50
44.99999999999309
 51
90.0
  0
ARC
  5
1044
330
2
100
AcDbEntity
  8
0
100
AcDbCircle
 10
173.9479764962137
 20
274.803335383621
 30
0.0
 40
5.0
100
AcDbArc
 50
44.99999999999309
 51
90.0
  0
LINE
  5
1045
330
2
100
AcDbEntity
  8
0
100
AcDbLine
 10
175.8613936580398
 20
279.4227330461774
 30
0.0
 11
176.6267605227698
 21
281.2704921111999
 31
0.0
  0
LINE
  5
1046
330
2
100
AcDbEntity
  8
CENTER
100
AcDbLine
 10
193.6710645616325
 20
228.303335383621
 30
0.0
 11
182.1710645616325
 21
228.303335383621
 31
0.0
  0
LINE
  5
1047
330
2
100
AcDbEntity
  8
CENTER
100
AcDbLine
 10
193.5942696423893
 20
234.8033353836212
 30
0.0
 11
183.2478594808757
 21
234.8033353836212
 31
0.0
  0
LINE
  5
1048
330
2
100
AcDbEntity
  8
0
100
AcDbLine
 10
178.8977239645195
 20
228.8535879153152
 30
0.0
 11
187.3708120299383
 21
237.3266759807338
 31
0.0
  0
LINE
  5
1049
330
2
100
AcDbEntity
  8
0
100
AcDbLine
 10
177.483510402147
 20
230.2678014776881
 30
0.0
 11
185.9565984675658
 21
238.7408895431074
 31
0.0
  0
LINE
  5
104A
330
2
100
AcDbEntity
  8
CENTER
100
AcDbLine
 10
188.4210645616325
 20
231.6887591158784
 30
0.0
 11
188.4210645616325
 21
239.9765404643783
 31
0.0
  0
LINE
  5
104B
330
2
100
AcDbEntity
  8
CENTER
100
AcDbLine
 10
187.9210645616325
 20
222.553335383621
 30
0.0
 11
187.9210645616325
 21
234.053335383621
 31
0.0
  0
ARC
  5
104C
330
2
100
AcDbEntity
  8
0
100
AcDbCircle
 10
182.4210645616325
 20
242.27642344904
 30
0.0
 40
5.0
100
AcDbArc
 50
315.0000000000069
 51
0.0
  0
LINE
  5
104D
330
2
100
AcDbEntity
  8
0
100
AcDbLine
 10
187.0404622241889
 20
240.3630062872141
 30
0.0
 11
188.8882212892116
 21
239.5976394224842
 31
0.0
  0
CIRCLE
  5
104E
330
2
100
AcDbEntity
  8
0
100
AcDbCircle
 10
188.4210645616325
 20
234.8033353836212
 30
0.0
 40
1.6
  0
ARC
  5
104F
330
2
100
AcDbEntity
  8
0
100
AcDbCircle
 10
182.4210645616325
 20
242.2764234490398
 30
0.0
 40
7.0
100
AcDbArc
 50
315.0000000000069
 51
0.0
  0
CIRCLE
  5
1050
330
2
100
AcDbEntity
  8
HOJO
100
AcDbCircle
 10
188.4210645616325
 20
234.8033353836212
 30
0.0
 40
2.0
  0
ARC
  5
1051
330
2
100
AcDbEntity
  8
0
100
AcDbCircle
 10
173.9479764962137
 20
233.803335383621
 30
0.0
 40
5.0
100
AcDbArc
 50
270.0
 51
315.0000000000069
  0
ARC
  5
1052
330
2
100
AcDbEntity
  8
0
100
AcDbCircle
 10
173.9479764962137
 20
233.803335383621
 30
0.0
 40
7.0
100
AcDbArc
 50
270.0
 51
315.0000000000069
  0
LINE
  5
1053
330
2
100
AcDbEntity
  8
0
100
AcDbLine
 10
175.8613936580398
 20
229.1839377210647
 30
0.0
 11
176.6267605227698
 21
227.3361786560422
 31
0.0
  0
LINE
  5
1054
330
2
100
AcDbEntity
  8
0
100
AcDbLine
 10
131.2610645616326
 20
226.303335383621
 30
0.0
 11
131.2610645616326
 21
282.303335383621
 31
0.0
  0
LINE
  5
1055
330
2
100
AcDbEntity
  8
0
100
AcDbLine
 10
134.4210645616325
 20
242.2764234490398
 30
0.0
 11
134.4210645616325
 21
266.3302473182022
 31
0.0
  0
LINE
  5
1056
330
2
100
AcDbEntity
  8
0
100
AcDbLine
 10
136.4210645616325
 20
242.2764234490403
 30
0.0
 11
136.4210645616325
 21
266.3302473182018
 31
0.0
  0
LINE
  5
1057
330
2
100
AcDbEntity
  8
0
100
AcDbLine
 10
144.9444051587455
 20
279.7530828519268
 30
0.0
 11
136.4713170933267
 21
271.279994786508
 31
0.0
  0
LINE
  5
1058
330
2
100
AcDbEntity
  8
0
100
AcDbLine
 10
146.3586187211188
 20
278.3388692895534
 30
0.0
 11
137.8855306557001
 21
269.8657812241346
 31
0.0
  0
LINE
  5
1059
330
2
100
AcDbEntity
  8
CENTER
100
AcDbLine
 10
130.1710645616316
 20
280.3033353836204
 30
0.0
 11
141.6710645616316
 21
280.303335383621
 31
0.0
  0
LINE
  5
105A
330
2
100
AcDbEntity
  8
0
100
AcDbLine
 10
147.980735465226
 20
279.4227330461774
 30
0.0
 11
147.2153686004961
 21
281.2704921111999
 31
0.0
  0
ARC
  5
105B
330
2
100
AcDbEntity
  8
0
100
AcDbCircle
 10
149.8941526270513
 20
274.803335383621
 30
0.0
 40
5.0
100
AcDbArc
 50
90.0
 51
135.0000000000069
  0
ARC
  5
105C
330
2
100
AcDbEntity
  8
0
100
AcDbCircle
 10
149.8941526270513
 20
274.8033353836208
 30
0.0
 40
7.0
100
AcDbArc
 50
90.0
 51
135.0000000000069
  0
LINE
  5
105D
330
2
100
AcDbEntity
  8
CENTER
100
AcDbLine
 10
135.4210645616325
 20
278.9765404643778
 30
0.0
 11
135.4210645616325
 21
268.6301303028638
 31
0.0
  0
LINE
  5
105E
330
2
100
AcDbEntity
  8
0
100
AcDbLine
 10
136.9210645616325
 20
285.303335383621
 30
0.0
 11
134.2610645616326
 21
285.303335383621
 31
0.0
  0
ARC
  5
105F
330
2
100
AcDbEntity
  8
0
100
AcDbCircle
 10
134.2610645616326
 20
282.303335383621
 30
0.0
 40
3.0
100
AcDbArc
 50
90.0
 51
180.0
  0
ARC
  5
1060
330
2
100
AcDbEntity
  8
0
100
AcDbCircle
 10
141.4210645616325
 20
266.3302473182022
 30
0.0
 40
7.0
100
AcDbArc
 50
135.0000000000069
 51
180.0
  0
CIRCLE
  5
1061
330
2
100
AcDbEntity
  8
0
100
AcDbCircle
 10
135.4210645616325
 20
273.8033353836208
 30
0.0
 40
1.6
  0
CIRCLE
  5
1062
330
2
100
AcDbEntity
  8
HOJO
100
AcDbCircle
 10
135.4210645616325
 20
273.803335383621
 30
0.0
 40
2.0
  0
LINE
  5
1063
330
2
100
AcDbEntity
  8
CENTER
100
AcDbLine
 10
130.2478594808757
 20
273.803335383621
 30
0.0
 11
140.5942696423893
 21
273.803335383621
 31
0.0
  0
ARC
  5
1064
330
2
100
AcDbEntity
  8
0
100
AcDbCircle
 10
141.4210645616325
 20
266.3302473182018
 30
0.0
 40
5.0
100
AcDbArc
 50
135.0000000000069
 51
180.0
  0
LINE
  5
1065
330
2
100
AcDbEntity
  8
0
100
AcDbLine
 10
136.8016668990761
 20
268.2436644800277
 30
0.0
 11
134.9539078340543
 21
269.0090313447579
 31
0.0
  0
LINE
  5
1066
330
2
100
AcDbEntity
  8
0
100
AcDbLine
 10
146.3586187211188
 20
230.2678014776883
 30
0.0
 11
137.8855306557001
 21
238.7408895431074
 31
0.0
  0
LINE
  5
1067
330
2
100
AcDbEntity
  8
0
100
AcDbLine
 10
144.9444051587455
 20
228.8535879153152
 30
0.0
 11
136.4713170933267
 21
237.326675980734
 31
0.0
  0
LINE
  5
1068
330
2
100
AcDbEntity
  8
CENTER
100
AcDbLine
 10
130.1710645616325
 20
228.303335383621
 30
0.0
 11
141.6710645616325
 21
228.303335383621
 31
0.0
  0
LINE
  5
1069
330
2
100
AcDbEntity
  8
0
100
AcDbLine
 10
147.980735465226
 20
229.1839377210647
 30
0.0
 11
147.2153686004961
 21
227.3361786560422
 31
0.0
  0
ARC
  5
106A
330
2
100
AcDbEntity
  8
0
100
AcDbCircle
 10
149.8941526270513
 20
233.803335383621
 30
0.0
 40
7.0
100
AcDbArc
 50
224.999999999993
 51
270.0
  0
ARC
  5
106B
330
2
100
AcDbEntity
  8
0
100
AcDbCircle
 10
149.8941526270513
 20
233.803335383621
 30
0.0
 40
5.0
100
AcDbArc
 50
224.999999999993
 51
270.0
  0
ARC
  5
106C
330
2
100
AcDbEntity
  8
0
100
AcDbCircle
 10
141.4210645616325
 20
242.2764234490398
 30
0.0
 40
7.0
100
AcDbArc
 50
180.0
 51
224.999999999993
  0
ARC
  5
106D
330
2
100
AcDbEntity
  8
0
100
AcDbCircle
 10
141.4210645616325
 20
242.27642344904
 30
0.0
 40
5.0
100
AcDbArc
 50
180.0
 51
224.999999999993
  0
LINE
  5
106E
330
2
100
AcDbEntity
  8
0
100
AcDbLine
 10
136.8016668990761
 20
240.3630062872141
 30
0.0
 11
134.9539078340543
 21
239.5976394224842
 31
0.0
  0
LINE
  5
106F
330
2
100
AcDbEntity
  8
0
100
AcDbLine
 10
136.9210645616325
 20
223.3033353836213
 30
0.0
 11
134.2610645616326
 21
223.3033353836213
 31
0.0
  0
ARC
  5
1070
330
2
100
AcDbEntity
  8
0
100
AcDbCircle
 10
134.2610645616326
 20
226.303335383621
 30
0.0
 40
3.0
100
AcDbArc
 50
180.0
 51
270.0
  0
LINE
  5
1071
330
2
100
AcDbEntity
  8
CENTER
100
AcDbLine
 10
135.9210645616325
 20
222.553335383621
 30
0.0
 11
135.9210645616325
 21
234.053335383621
 31
0.0
  0
LINE
  5
1072
330
2
100
AcDbEntity
  8
CENTER
100
AcDbLine
 10
135.9210645616307
 20
286.0533353836208
 30
0.0
 11
135.9210645616316
 21
274.5533353836208
 31
0.0
  0
LINE
  5
1073
330
2
100
AcDbEntity
  8
CENTER
100
AcDbLine
 10
128.2642103121369
 20
287.9601896331155
 30
0.0
 11
195.5779188111249
 21
220.6464811341291
 31
0.0
  0
LINE
  5
1074
330
2
100
AcDbEntity
  8
CENTER
100
AcDbLine
 10
228.8534886534683
 20
254.3033353836169
 30
0.0
 11
349.8534886534679
 21
254.3033353836169
 31
0.0
  0
LINE
  5
1075
330
2
100
AcDbEntity
  8
CENTER
100
AcDbLine
 10
289.853488653472
 20
215.8033353836169
 30
0.0
 11
289.853488653472
 21
292.8033353836172
 31
0.0
  0
LINE
  5
1076
330
2
100
AcDbEntity
  8
0
100
AcDbLine
 10
325.8534886534756
 20
279.3033353836103
 30
0.0
 11
325.8534886534756
 21
229.3033353836103
 31
0.0
  0
LINE
  5
1077
330
2
100
AcDbEntity
  8
0
100
AcDbLine
 10
322.8534886534756
 20
229.3033353836103
 30
0.0
 11
325.8534886534756
 21
229.3033353836103
 31
0.0
  0
LINE
  5
1078
330
2
100
AcDbEntity
  8
0
100
AcDbLine
 10
322.8534886534756
 20
279.3033353836103
 30
0.0
 11
325.8534886534756
 21
279.3033353836103
 31
0.0
  0
LINE
  5
1079
330
2
100
AcDbEntity
  8
HIDS
  6
SEKKEI_H
100
AcDbLine
 10
258.853488653472
 20
226.2553384799989
 30
0.0
 11
258.853488653472
 21
231.3033353836169
 31
0.0
  0
LINE
  5
107A
330
2
100
AcDbEntity
  8
HIDS
  6
SEKKEI_H
100
AcDbLine
 10
258.853488653472
 20
277.3033353836174
 30
0.0
 11
258.853488653472
 21
282.3513322872349
 31
0.0
  0
LINE
  5
107B
330
2
100
AcDbEntity
  8
0
100
AcDbLine
 10
322.853488653472
 20
223.757132508738
 30
0.0
 11
322.853488653472
 21
284.8495377600336
 31
0.0
  0
LINE
  5
107C
330
2
100
AcDbEntity
  8
0
100
AcDbLine
 10
261.8051078493166
 20
285.3509421448316
 30
0.0
 11
289.853488653472
 21
285.8033353836172
 31
0.0
  0
ARC
  5
107D
330
2
100
AcDbEntity
  8
0
100
AcDbCircle
 10
261.853488653472
 20
282.3513322872349
 30
0.0
 40
3.0
100
AcDbArc
 50
90.92404535281902
 51
132.7771281045319
  0
ARC
  5
107E
330
2
100
AcDbEntity
  8
HIDS
  6
SEKKEI_H
100
AcDbCircle
 10
261.853488653472
 20
282.3513322872349
 30
0.0
 40
3.0
100
AcDbArc
 50
132.7771281045319
 51
180.0
  0
LINE
  5
107F
330
2
100
AcDbEntity
  8
0
100
AcDbLine
 10
317.9018694576274
 20
285.3509421448316
 30
0.0
 11
289.853488653472
 21
285.8033353836172
 31
0.0
  0
ARC
  5
1080
330
2
100
AcDbEntity
  8
0
100
AcDbCircle
 10
317.853488653472
 20
282.3513322872349
 30
0.0
 40
3.0
100
AcDbArc
 50
57.25704406250955
 51
89.07595464718097
  0
LINE
  5
1081
330
2
100
AcDbEntity
  8
0
100
AcDbLine
 10
261.8051078493166
 20
223.2557286224023
 30
0.0
 11
289.853488653472
 21
222.8033353836167
 31
0.0
  0
LINE
  5
1082
330
2
100
AcDbEntity
  8
0
100
AcDbLine
 10
317.9018694576274
 20
223.2557286224023
 30
0.0
 11
289.853488653472
 21
222.8033353836167
 31
0.0
  0
ARC
  5
1083
330
2
100
AcDbEntity
  8
HIDS
  6
SEKKEI_H
100
AcDbCircle
 10
261.853488653472
 20
226.2553384799989
 30
0.0
 40
3.0
100
AcDbArc
 50
180.0
 51
227.2228718954035
  0
ARC
  5
1084
330
2
100
AcDbEntity
  8
0
100
AcDbCircle
 10
261.853488653472
 20
226.2553384799989
 30
0.0
 40
3.0
100
AcDbArc
 50
227.2228718954035
 51
269.0759546471809
  0
ARC
  5
1085
330
2
100
AcDbEntity
  8
0
100
AcDbCircle
 10
317.853488653472
 20
226.2553384799987
 30
0.0
 40
3.0
100
AcDbArc
 50
270.9240453527669
 51
302.7429559374904
  0
LINE
  5
1086
330
2
100
AcDbEntity
  8
0
100
AcDbLine
 10
332.8534886534738
 20
234.2347129332281
 30
0.0
 11
332.8534886534738
 21
274.3719578340085
 31
0.0
  0
LINE
  5
1087
330
2
100
AcDbEntity
  8
0
100
AcDbLine
 10
327.7836896600687
 20
276.4803766656402
 30
0.0
 11
330.9232876468789
 21
276.3707394880464
 31
0.0
  0
ARC
  5
1088
330
2
100
AcDbEntity
  8
0
100
AcDbCircle
 10
327.8534886534738
 20
278.4791583196781
 30
0.0
 40
2.0
100
AcDbArc
 50
180.0
 51
267.9999999999963
  0
ARC
  5
1089
330
2
100
AcDbEntity
  8
0
100
AcDbCircle
 10
330.8534886534738
 20
274.3719578340085
 30
0.0
 40
2.0
100
AcDbArc
 50
0.0
 51
87.99999999999636
  0
LINE
  5
108A
330
2
100
AcDbEntity
  8
0
100
AcDbLine
 10
327.783689660045
 20
232.1262941016
 30
0.0
 11
330.9232876468553
 21
232.2359312791911
 31
0.0
  0
ARC
  5
108B
330
2
100
AcDbEntity
  8
0
100
AcDbCircle
 10
327.8534886534483
 20
230.1275124475621
 30
0.0
 40
2.0
100
AcDbArc
 50
91.99999999995149
 51
179.9999999999479
  0
ARC
  5
108C
330
2
100
AcDbEntity
  8
0
100
AcDbCircle
 10
330.8534886534529
 20
234.2347129332281
 30
0.0
 40
2.0
100
AcDbArc
 50
271.9999999999515
 51
359.9999999999478
  0
LINE
  5
108D
330
2
100
AcDbEntity
  8
0
100
AcDbLine
 10
270.8534886534684
 20
223.307698817515
 30
0.0
 11
270.8534886534684
 21
285.298971949747
 31
0.0
  0
LINE
  5
108E
330
2
100
AcDbEntity
  8
0
100
AcDbLine
 10
270.8534886534684
 20
223.3033353836165
 30
0.0
 11
322.853488653472
 21
223.757132508738
 31
0.0
  0
LINE
  5
108F
330
2
100
AcDbEntity
  8
0
100
AcDbLine
 10
270.8534505758083
 20
285.3033352174709
 30
0.0
 11
322.853488653472
 21
284.8495377600336
 31
0.0
  0
LINE
  5
1090
330
2
100
AcDbEntity
  8
0
100
AcDbLine
 10
321.853488653472
 20
282.303335383621
 30
0.0
 11
270.8534886534684
 21
282.303335383621
 31
0.0
  0
LINE
  5
1091
330
2
100
AcDbEntity
  8
0
100
AcDbLine
 10
321.853488653472
 20
279.3033353836183
 30
0.0
 11
270.8534886534684
 21
279.3033353836183
 31
0.0
  0
LINE
  5
1092
330
2
100
AcDbEntity
  8
0
100
AcDbLine
 10
321.853488653472
 20
270.284570112173
 30
0.0
 11
270.8534886534684
 21
270.284570112173
 31
0.0
  0
LINE
  5
1093
330
2
100
AcDbEntity
  8
0
100
AcDbLine
 10
321.853488653472
 20
226.3033353836128
 30
0.0
 11
270.8534886534684
 21
226.3033353836128
 31
0.0
  0
LINE
  5
1094
330
2
100
AcDbEntity
  8
0
100
AcDbLine
 10
321.853488653472
 20
229.3033353836156
 30
0.0
 11
270.8534886534684
 21
229.3033353836156
 31
0.0
  0
LINE
  5
1095
330
2
100
AcDbEntity
  8
0
100
AcDbLine
 10
321.853488653472
 20
238.3221006550609
 30
0.0
 11
270.8534886534684
 21
238.3221006550609
 31
0.0
  0
LINE
  5
1096
330
2
100
AcDbEntity
  8
0
100
AcDbLine
 10
253.8534886534683
 20
231.8806856528058
 30
0.0
 11
253.8534886534683
 21
276.725985114428
 31
0.0
  0
LINE
  5
1097
330
2
100
AcDbEntity
  8
0
100
AcDbLine
 10
261.8534886534638
 20
276.0533353836206
 30
0.0
 11
261.8534886534683
 21
232.5533353836133
 31
0.0
  0
LINE
  5
1098
330
2
100
AcDbEntity
  8
HIDS
  6
SEKKEI_H
100
AcDbLine
 10
262.3534886534684
 20
228.8033353836174
 30
0.0
 11
261.8534886534683
 21
229.3033353836174
 31
0.0
  0
LINE
  5
1099
330
2
100
AcDbEntity
  8
HIDS
  6
SEKKEI_H
100
AcDbLine
 10
258.5534886534682
 20
231.3033353836169
 30
0.0
 11
261.8534886534683
 21
231.3033353836174
 31
0.0
  0
LINE
  5
109A
330
2
100
AcDbEntity
  8
0
100
AcDbLine
 10
254.8534886534683
 20
231.3033353836165
 30
0.0
 11
253.8534886534683
 21
231.880685652806
 31
0.0
  0
LINE
  5
109B
330
2
100
AcDbEntity
  8
HIDS
  6
SEKKEI_H
100
AcDbLine
 10
258.3534886534684
 20
231.5033353836168
 30
0.0
 11
258.5534886534682
 21
231.3033353836169
 31
0.0
  0
LINE
  5
109C
330
2
100
AcDbEntity
  8
0
100
AcDbLine
 10
254.8534886534683
 20
231.3033353836165
 30
0.0
 11
256.1534886534685
 21
231.3033353836165
 31
0.0
  0
LINE
  5
109D
330
2
100
AcDbEntity
  8
0
100
AcDbLine
 10
256.3534886534684
 20
231.5033353836168
 30
0.0
 11
256.3534886534684
 21
277.1033353836175
 31
0.0
  0
LINE
  5
109E
330
2
100
AcDbEntity
  8
0
100
AcDbLine
 10
256.5534886534682
 20
232.0033353836165
 30
0.0
 11
258.0534886534654
 21
232.0033353836167
 31
0.0
  0
LINE
  5
109F
330
2
100
AcDbEntity
  8
0
100
AcDbLine
 10
258.3534886534656
 20
232.5533353836133
 30
0.0
 11
258.3534886534656
 21
276.0533353836206
 31
0.0
  0
LINE
  5
10A0
330
2
100
AcDbEntity
  8
0
100
AcDbLine
 10
270.8534505758083
 20
285.3033352174709
 30
0.0
 11
265.3536599989523
 21
285.2553392722299
 31
0.0
  0
LINE
  5
10A1
330
2
100
AcDbEntity
  8
HIDS
  6
SEKKEI_H
100
AcDbLine
 10
258.5534886534682
 20
277.3033353836174
 30
0.0
 11
261.8534886534683
 21
277.3033353836169
 31
0.0
  0
LINE
  5
10A2
330
2
100
AcDbEntity
  8
0
100
AcDbLine
 10
256.5534886534682
 20
276.6033353836176
 30
0.0
 11
258.0534886534654
 21
276.6033353836173
 31
0.0
  0
LINE
  5
10A3
330
2
100
AcDbEntity
  8
HIDS
  6
SEKKEI_H
100
AcDbLine
 10
258.3534886534684
 20
277.1033353836171
 30
0.0
 11
258.5534886534682
 21
277.3033353836174
 31
0.0
  0
LINE
  5
10A4
330
2
100
AcDbEntity
  8
0
100
AcDbLine
 10
254.8534886534683
 20
277.3033353836178
 30
0.0
 11
253.8534886534683
 21
276.7259851144283
 31
0.0
  0
LINE
  5
10A5
330
2
100
AcDbEntity
  8
0
100
AcDbLine
 10
254.8534886534683
 20
277.3033353836178
 30
0.0
 11
256.1534886534685
 21
277.3033353836174
 31
0.0
  0
LINE
  5
10A6
330
2
100
AcDbEntity
  8
HIDS
  6
SEKKEI_H
100
AcDbLine
 10
263.7677022158353
 20
281.2175489459825
 30
0.0
 11
261.8534886534629
 21
279.303335383611
 31
0.0
  0
LINE
  5
10A7
330
2
100
AcDbEntity
  8
0
100
AcDbLine
 10
264.3534886534301
 20
224.0533353836133
 30
0.0
 11
264.3534886534629
 21
284.5533353836206
 31
0.0
  0
ARC
  5
10A8
330
2
100
AcDbEntity
  8
0
100
AcDbCircle
 10
265.3534886534638
 20
284.2552996985348
 30
0.0
 40
1.0
100
AcDbArc
 50
90.50000000001761
 51
179.9999999999674
  0
LINE
  5
10A9
330
2
100
AcDbEntity
  8
0
100
AcDbLine
 10
270.8534886534684
 20
285.3033353836169
 30
0.0
 11
270.8534886534684
 21
223.3033353836165
 31
0.0
  0
ARC
  5
10AA
330
2
100
AcDbEntity
  8
HIDS
  6
SEKKEI_H
100
AcDbCircle
 10
262.3534886534629
 20
282.6317625083559
 30
0.0
 40
2.0
100
AcDbArc
 50
315.0000000000069
 51
359.9999999999674
  0
ARC
  5
10AB
330
2
100
AcDbEntity
  8
0
100
AcDbCircle
 10
256.1534886534685
 20
277.1033353836175
 30
0.0
 40
0.2
100
AcDbArc
 50
0.0
 51
90.0
  0
ARC
  5
10AC
330
2
100
AcDbEntity
  8
0
100
AcDbCircle
 10
256.5534886534682
 20
276.8033353836176
 30
0.0
 40
0.2
100
AcDbArc
 50
180.0
 51
270.0
  0
ARC
  5
10AD
330
2
100
AcDbEntity
  8
HIDS
  6
SEKKEI_H
100
AcDbCircle
 10
258.1534886534685
 20
276.8033353836174
 30
0.0
 40
0.2
100
AcDbArc
 50
270.0
 51
0.0
  0
ARC
  5
10AE
330
2
100
AcDbEntity
  8
0
100
AcDbCircle
 10
256.1534886534685
 20
231.5033353836168
 30
0.0
 40
0.2
100
AcDbArc
 50
270.0
 51
0.0
  0
ARC
  5
10AF
330
2
100
AcDbEntity
  8
0
100
AcDbCircle
 10
256.5534886534682
 20
231.8033353836165
 30
0.0
 40
0.2
100
AcDbArc
 50
90.0
 51
180.0
  0
ARC
  5
10B0
330
2
100
AcDbEntity
  8
HIDS
  6
SEKKEI_H
100
AcDbCircle
 10
258.1534886534685
 20
231.8033353836167
 30
0.0
 40
0.2
100
AcDbArc
 50
0.0
 51
90.0
  0
LINE
  5
10B1
330
2
100
AcDbEntity
  8
0
100
AcDbLine
 10
270.8534886534684
 20
223.3033353836165
 30
0.0
 11
265.3447621179324
 21
223.3514093117876
 31
0.0
  0
ARC
  5
10B2
330
2
100
AcDbEntity
  8
0
100
AcDbCircle
 10
265.3534886534302
 20
224.3513712348519
 30
0.0
 40
1.0
100
AcDbArc
 50
179.9999999999674
 51
269.4999999999824
  0
LINE
  5
10B3
330
2
100
AcDbEntity
  8
HIDS
  6
SEKKEI_H
100
AcDbLine
 10
263.7677022158353
 20
227.3891218212513
 30
0.0
 11
261.8534886534683
 21
229.3033353836169
 31
0.0
  0
ARC
  5
10B4
330
2
100
AcDbEntity
  8
HIDS
  6
SEKKEI_H
100
AcDbCircle
 10
262.3534886534629
 20
225.974908258878
 30
0.0
 40
2.0
100
AcDbArc
 50
0.0000000000390827
 51
44.99999999999309
  0
LINE
  5
10B5
330
2
100
AcDbEntity
  8
0
100
AcDbLine
 10
258.5534886534682
 20
276.0533353836206
 30
0.0
 11
258.5534886534682
 21
232.5533353836133
 31
0.0
  0
LINE
  5
10B6
330
2
100
AcDbEntity
  8
0
100
AcDbLine
 10
254.8534886534683
 20
231.3033353836165
 30
0.0
 11
254.8534886534683
 21
277.3033353836178
 31
0.0
  0
LINE
  5
10B7
330
2
100
AcDbEntity
  8
0
100
AcDbLine
 10
270.8534886534684
 20
282.303335383621
 30
0.0
 11
265.3534886534656
 21
282.303335383621
 31
0.0
  0
LINE
  5
10B8
330
2
100
AcDbEntity
  8
0
100
AcDbLine
 10
270.8534886534684
 20
279.3033353836183
 30
0.0
 11
265.3534886534656
 21
279.3033353836183
 31
0.0
  0
LINE
  5
10B9
330
2
100
AcDbEntity
  8
0
100
AcDbLine
 10
270.8534886534684
 20
270.284570112173
 30
0.0
 11
265.3534886534656
 21
270.284570112173
 31
0.0
  0
LINE
  5
10BA
330
2
100
AcDbEntity
  8
0
100
AcDbLine
 10
270.8534886534684
 20
226.3033353836128
 30
0.0
 11
265.3534886534656
 21
226.3033353836128
 31
0.0
  0
LINE
  5
10BB
330
2
100
AcDbEntity
  8
0
100
AcDbLine
 10
270.8534886534684
 20
229.3033353836156
 30
0.0
 11
265.3534886534656
 21
229.3033353836156
 31
0.0
  0
LINE
  5
10BC
330
2
100
AcDbEntity
  8
0
100
AcDbLine
 10
270.8534886534684
 20
238.3221006550609
 30
0.0
 11
265.3534886534656
 21
238.3221006550609
 31
0.0
  0
LINE
  5
10BD
330
2
100
AcDbEntity
  8
0
100
AcDbLine
 10
137.9210645616334
 20
279.1486348452415
 30
0.0
 11
135.9210645616334
 21
277.9939343068624
 31
0.0
  0
CIRCLE
  5
10BE
330
2
100
AcDbEntity
  8
0
100
AcDbCircle
 10
135.9210645616334
 20
280.3033353836206
 30
0.0
 40
4.250000000000085
  0
CIRCLE
  5
10BF
330
2
100
AcDbEntity
  8
0
100
AcDbCircle
 10
135.9210645616334
 20
280.3033353836206
 30
0.0
 40
3.730384757729268
  0
LINE
  5
10C0
330
2
100
AcDbEntity
  8
0
100
AcDbLine
 10
135.9210645616325
 20
282.6127364603792
 30
0.0
 11
137.9210645616334
 21
281.4580359220001
 31
0.0
  0
LINE
  5
10C1
330
2
100
AcDbEntity
  8
0
100
AcDbLine
 10
133.9210645616334
 20
281.4580359220001
 30
0.0
 11
133.9210645616334
 21
279.1486348452415
 31
0.0
  0
LINE
  5
10C2
330
2
100
AcDbEntity
  8
0
100
AcDbLine
 10
133.9210645616334
 20
279.1486348452415
 30
0.0
 11
135.9210645616325
 21
277.9939343068624
 31
0.0
  0
LINE
  5
10C3
330
2
100
AcDbEntity
  8
0
100
AcDbLine
 10
135.9210645616325
 20
282.6127364603792
 30
0.0
 11
133.9210645616334
 21
281.4580359220001
 31
0.0
  0
LINE
  5
10C4
330
2
100
AcDbEntity
  8
0
100
AcDbLine
 10
137.9210645616334
 20
281.4580359220001
 30
0.0
 11
137.9210645616334
 21
279.1486348452415
 31
0.0
  0
LINE
  5
10C5
330
2
100
AcDbEntity
  8
0
100
AcDbLine
 10
189.9210645616325
 20
279.1486348452415
 30
0.0
 11
187.9210645616325
 21
277.9939343068624
 31
0.0
  0
CIRCLE
  5
10C6
330
2
100
AcDbEntity
  8
0
100
AcDbCircle
 10
187.9210645616325
 20
280.3033353836206
 30
0.0
 40
4.250000000000085
  0
CIRCLE
  5
10C7
330
2
100
AcDbEntity
  8
0
100
AcDbCircle
 10
187.9210645616325
 20
280.3033353836206
 30
0.0
 40
3.730384757729268
  0
LINE
  5
10C8
330
2
100
AcDbEntity
  8
0
100
AcDbLine
 10
187.9210645616325
 20
282.6127364603792
 30
0.0
 11
189.9210645616325
 21
281.4580359220001
 31
0.0
  0
LINE
  5
10C9
330
2
100
AcDbEntity
  8
0
100
AcDbLine
 10
185.9210645616325
 20
281.4580359220001
 30
0.0
 11
185.9210645616325
 21
279.1486348452415
 31
0.0
  0
LINE
  5
10CA
330
2
100
AcDbEntity
  8
0
100
AcDbLine
 10
185.9210645616325
 20
279.1486348452415
 30
0.0
 11
187.9210645616325
 21
277.9939343068624
 31
0.0
  0
LINE
  5
10CB
330
2
100
AcDbEntity
  8
0
100
AcDbLine
 10
187.9210645616325
 20
282.6127364603792
 30
0.0
 11
185.9210645616325
 21
281.4580359220001
 31
0.0
  0
LINE
  5
10CC
330
2
100
AcDbEntity
  8
0
100
AcDbLine
 10
189.9210645616325
 20
281.4580359220001
 30
0.0
 11
189.9210645616325
 21
279.1486348452415
 31
0.0
  0
LINE
  5
10CD
330
2
100
AcDbEntity
  8
0
100
AcDbLine
 10
137.9210645616334
 20
229.4580359220006
 30
0.0
 11
135.9210645616334
 21
230.6127364603796
 31
0.0
  0
CIRCLE
  5
10CE
330
2
100
AcDbEntity
  8
0
100
AcDbCircle
 10
135.9210645616334
 20
228.3033353836215
 30
0.0
 40
4.250000000000085
  0
CIRCLE
  5
10CF
330
2
100
AcDbEntity
  8
0
100
AcDbCircle
 10
135.9210645616334
 20
228.3033353836215
 30
0.0
 40
3.730384757729268
  0
LINE
  5
10D0
330
2
100
AcDbEntity
  8
0
100
AcDbLine
 10
135.9210645616325
 20
225.9939343068629
 30
0.0
 11
137.9210645616334
 21
227.1486348452419
 31
0.0
  0
LINE
  5
10D1
330
2
100
AcDbEntity
  8
0
100
AcDbLine
 10
133.9210645616334
 20
227.1486348452419
 30
0.0
 11
133.9210645616334
 21
229.4580359220006
 31
0.0
  0
LINE
  5
10D2
330
2
100
AcDbEntity
  8
0
100
AcDbLine
 10
133.9210645616334
 20
229.4580359220006
 30
0.0
 11
135.9210645616325
 21
230.6127364603796
 31
0.0
  0
LINE
  5
10D3
330
2
100
AcDbEntity
  8
0
100
AcDbLine
 10
135.9210645616325
 20
225.9939343068629
 30
0.0
 11
133.9210645616334
 21
227.1486348452419
 31
0.0
  0
LINE
  5
10D4
330
2
100
AcDbEntity
  8
0
100
AcDbLine
 10
137.9210645616334
 20
227.1486348452419
 30
0.0
 11
137.9210645616334
 21
229.4580359220006
 31
0.0
  0
LINE
  5
10D5
330
2
100
AcDbEntity
  8
0
100
AcDbLine
 10
189.9210645616325
 20
229.4580359220006
 30
0.0
 11
187.9210645616325
 21
230.6127364603796
 31
0.0
  0
CIRCLE
  5
10D6
330
2
100
AcDbEntity
  8
0
100
AcDbCircle
 10
187.9210645616325
 20
228.3033353836215
 30
0.0
 40
4.250000000000085
  0
CIRCLE
  5
10D7
330
2
100
AcDbEntity
  8
0
100
AcDbCircle
 10
187.9210645616325
 20
228.3033353836215
 30
0.0
 40
3.730384757729268
  0
LINE
  5
10D8
330
2
100
AcDbEntity
  8
0
100
AcDbLine
 10
187.9210645616325
 20
225.9939343068629
 30
0.0
 11
189.9210645616325
 21
227.1486348452419
 31
0.0
  0
LINE
  5
10D9
330
2
100
AcDbEntity
  8
0
100
AcDbLine
 10
185.9210645616325
 20
227.1486348452419
 30
0.0
 11
185.9210645616325
 21
229.4580359220006
 31
0.0
  0
LINE
  5
10DA
330
2
100
AcDbEntity
  8
0
100
AcDbLine
 10
185.9210645616325
 20
229.4580359220006
 30
0.0
 11
187.9210645616325
 21
230.6127364603796
 31
0.0
  0
LINE
  5
10DB
330
2
100
AcDbEntity
  8
0
100
AcDbLine
 10
187.9210645616325
 20
225.9939343068629
 30
0.0
 11
185.9210645616325
 21
227.1486348452419
 31
0.0
  0
LINE
  5
10DC
330
2
100
AcDbEntity
  8
0
100
AcDbLine
 10
189.9210645616325
 20
227.1486348452419
 30
0.0
 11
189.9210645616325
 21
229.4580359220006
 31
0.0
  0
LINE
  5
10DD
330
2
100
AcDbEntity
  8
CENTER
  6
CENS
100
AcDbLine
 10
276.0514431301529
 20
280.3033353836206
 30
0.0
 11
255.0534886534654
 21
280.3033353836206
 31
0.0
  0
LINE
  5
10DE
330
2
100
AcDbEntity
  8
0
100
AcDbLine
 10
258.3534886534656
 20
284.5533353836206
 30
0.0
 11
264.3534886534629
 21
284.5533353836206
 31
0.0
  0
LINE
  5
10DF
330
2
100
AcDbEntity
  8
0
100
AcDbLine
 10
258.3534886534656
 20
276.0533353836206
 30
0.0
 11
264.3534886534656
 21
276.0533353836206
 31
0.0
  0
LINE
  5
10E0
330
2
100
AcDbEntity
  8
0
100
AcDbLine
 10
263.0534886534654
 20
276.0533353836206
 30
0.0
 11
263.0534886534654
 21
284.5533353836206
 31
0.0
  0
LINE
  5
10E1
330
2
100
AcDbEntity
  8
0
100
AcDbLine
 10
258.3534886534656
 20
276.0533353836206
 30
0.0
 11
258.3534886534656
 21
284.5533353836206
 31
0.0
  0
LINE
  5
10E2
330
2
100
AcDbEntity
  8
0
100
AcDbLine
 10
258.3534886534656
 20
276.0533353836206
 30
0.0
 11
258.0534886534654
 21
276.572950625891
 31
0.0
  0
LINE
  5
10E3
330
2
100
AcDbEntity
  8
0
100
AcDbLine
 10
258.3534886534656
 20
284.5533353836206
 30
0.0
 11
258.0534886534654
 21
284.0337201413496
 31
0.0
  0
LINE
  5
10E4
330
2
100
AcDbEntity
  8
0
100
AcDbLine
 10
258.0534886534654
 20
276.572950625891
 30
0.0
 11
258.0534886534654
 21
284.0337201413496
 31
0.0
  0
LINE
  5
10E5
330
2
100
AcDbEntity
  8
HIDS
  6
SEKKEI_H
100
AcDbLine
 10
261.8534886534629
 20
279.303335383611
 30
0.0
 11
261.8534886534638
 21
276.0533353836206
 31
0.0
  0
LINE
  5
10E6
330
2
100
AcDbEntity
  8
HIDS
  6
SEKKEI_H
100
AcDbLine
 10
258.5534886534682
 20
277.3033353836174
 30
0.0
 11
258.5534886534682
 21
276.0533353836206
 31
0.0
  0
LINE
  5
10E7
330
2
100
AcDbEntity
  8
HIDS
  6
SEKKEI_H
100
AcDbLine
 10
258.0534886534654
 20
276.6033353836173
 30
0.0
 11
258.1534886534685
 21
276.6033353836171
 31
0.0
  0
LINE
  5
10E8
330
2
100
AcDbEntity
  8
CENTER
  6
CENS
100
AcDbLine
 10
276.0514431301529
 20
228.3033353836133
 30
0.0
 11
255.0534886534654
 21
228.3033353836133
 31
0.0
  0
LINE
  5
10E9
330
2
100
AcDbEntity
  8
0
100
AcDbLine
 10
258.3534886534656
 20
224.0533353836133
 30
0.0
 11
264.3534886534301
 21
224.0533353836133
 31
0.0
  0
LINE
  5
10EA
330
2
100
AcDbEntity
  8
0
100
AcDbLine
 10
258.3534886534656
 20
232.5533353836133
 30
0.0
 11
264.3534886534656
 21
232.5533353836133
 31
0.0
  0
LINE
  5
10EB
330
2
100
AcDbEntity
  8
0
100
AcDbLine
 10
263.0534886534654
 20
232.5533353836133
 30
0.0
 11
263.0534886534654
 21
224.0533353836133
 31
0.0
  0
LINE
  5
10EC
330
2
100
AcDbEntity
  8
0
100
AcDbLine
 10
258.3534886534656
 20
232.5533353836133
 30
0.0
 11
258.3534886534656
 21
224.0533353836133
 31
0.0
  0
LINE
  5
10ED
330
2
100
AcDbEntity
  8
0
100
AcDbLine
 10
258.3534886534656
 20
232.5533353836133
 30
0.0
 11
258.0534886534654
 21
232.0337201413428
 31
0.0
  0
LINE
  5
10EE
330
2
100
AcDbEntity
  8
0
100
AcDbLine
 10
258.3534886534656
 20
224.0533353836133
 30
0.0
 11
258.0534886534654
 21
224.5729506258842
 31
0.0
  0
LINE
  5
10EF
330
2
100
AcDbEntity
  8
0
100
AcDbLine
 10
258.0534886534654
 20
232.0337201413428
 30
0.0
 11
258.0534886534654
 21
224.5729506258842
 31
0.0
  0
LINE
  5
10F0
330
2
100
AcDbEntity
  8
HIDS
  6
SEKKEI_H
100
AcDbLine
 10
261.8534886534683
 20
232.5533353836133
 30
0.0
 11
261.8534886534683
 21
229.3033353836174
 31
0.0
  0
LINE
  5
10F1
330
2
100
AcDbEntity
  8
HIDS
  6
SEKKEI_H
100
AcDbLine
 10
258.0534886534654
 20
232.0033353836167
 30
0.0
 11
258.1534886534685
 21
232.0033353836167
 31
0.0
  0
LINE
  5
10F2
330
2
100
AcDbEntity
  8
0
100
AcDbLine
 10
404.0484182343783
 20
465.380805671679
 30
0.0
 11
465.7082443124567
 21
465.380805671679
 31
0.0
  0
LINE
  5
10F3
330
2
100
AcDbEntity
  8
0
100
AcDbLine
 10
412.6214050696693
 20
482.3808056716798
 30
0.0
 11
457.466704531292
 21
482.3808056716798
 31
0.0
  0
LINE
  5
10F4
330
2
100
AcDbEntity
  8
0
100
AcDbLine
 10
456.7940548004838
 20
474.3808056716843
 30
0.0
 11
413.2940548004766
 21
474.3808056716796
 31
0.0
  0
LINE
  5
10F5
330
2
100
AcDbEntity
  8
HIDS
  6
SEKKEI_H
100
AcDbLine
 10
409.5440548004811
 20
473.880805671679
 30
0.0
 11
410.0440548004811
 21
474.3808056716791
 31
0.0
  0
LINE
  5
10F6
330
2
100
AcDbEntity
  8
HIDS
  6
SEKKEI_H
100
AcDbLine
 10
412.0440548004802
 20
477.6808056716795
 30
0.0
 11
412.0440548004811
 21
474.3808056716793
 31
0.0
  0
LINE
  5
10F7
330
2
100
AcDbEntity
  8
0
100
AcDbLine
 10
412.0440548004802
 20
481.3808056716793
 30
0.0
 11
412.6214050696701
 21
482.3808056716798
 31
0.0
  0
LINE
  5
10F8
330
2
100
AcDbEntity
  8
HIDS
  6
SEKKEI_H
100
AcDbLine
 10
412.2440548004809
 20
477.8808056716796
 30
0.0
 11
412.0440548004802
 21
477.6808056716795
 31
0.0
  0
LINE
  5
10F9
330
2
100
AcDbEntity
  8
0
100
AcDbLine
 10
412.0440548004802
 20
481.3808056716798
 30
0.0
 11
412.0440548004802
 21
480.0808056716793
 31
0.0
  0
LINE
  5
10FA
330
2
100
AcDbEntity
  8
0
100
AcDbLine
 10
412.2440548004809
 20
479.8808056716795
 30
0.0
 11
457.8440548004813
 21
479.8808056716795
 31
0.0
  0
LINE
  5
10FB
330
2
100
AcDbEntity
  8
0
100
AcDbLine
 10
412.74405480048
 20
479.6808056716797
 30
0.0
 11
412.7440548004809
 21
478.1808056716824
 31
0.0
  0
LINE
  5
10FC
330
2
100
AcDbEntity
  8
0
100
AcDbLine
 10
413.2940548004766
 20
477.8808056716822
 30
0.0
 11
456.7940548004838
 21
477.8808056716822
 31
0.0
  0
LINE
  5
10FD
330
2
100
AcDbEntity
  8
HIDS
  6
SEKKEI_H
100
AcDbLine
 10
458.0440548004811
 20
477.6808056716795
 30
0.0
 11
458.0440548004802
 21
474.3808056716793
 31
0.0
  0
LINE
  5
10FE
330
2
100
AcDbEntity
  8
0
100
AcDbLine
 10
457.3440548004813
 20
479.6808056716795
 30
0.0
 11
457.3440548004813
 21
478.1808056716824
 31
0.0
  0
LINE
  5
10FF
330
2
100
AcDbEntity
  8
HIDS
  6
SEKKEI_H
100
AcDbLine
 10
457.8440548004813
 20
477.8808056716796
 30
0.0
 11
458.0440548004811
 21
477.6808056716795
 31
0.0
  0
LINE
  5
1100
330
2
100
AcDbEntity
  8
0
100
AcDbLine
 10
458.044054800482
 20
481.3808056716793
 30
0.0
 11
457.466704531292
 21
482.3808056716798
 31
0.0
  0
LINE
  5
1101
330
2
100
AcDbEntity
  8
0
100
AcDbLine
 10
458.044054800482
 20
481.3808056716798
 30
0.0
 11
458.0440548004811
 21
480.0808056716793
 31
0.0
  0
LINE
  5
1102
330
2
100
AcDbEntity
  8
HIDS
  6
SEKKEI_H
100
AcDbLine
 10
461.9582683628463
 20
472.4665921093126
 30
0.0
 11
460.0440548004748
 21
474.3808056716848
 31
0.0
  0
LINE
  5
1103
330
2
100
AcDbEntity
  8
0
100
AcDbLine
 10
404.7940548004765
 20
471.8808056717175
 30
0.0
 11
465.2940548004838
 21
471.8808056716843
 31
0.0
  0
ARC
  5
1104
330
2
100
AcDbEntity
  8
0
100
AcDbCircle
 10
464.6560189492451
 20
470.8808056716845
 30
0.0
 40
1.0
100
AcDbArc
 50
0.500000000001317
 51
89.99999999994789
  0
ARC
  5
1105
330
2
100
AcDbEntity
  8
0
100
AcDbCircle
 10
405.0920906532495
 20
470.880805671717
 30
0.0
 40
1.0
100
AcDbArc
 50
89.99999999994789
 51
179.4999999999987
  0
LINE
  5
1106
330
2
100
AcDbEntity
  8
0
100
AcDbLine
 10
465.7082443124567
 20
465.380805671679
 30
0.0
 11
404.0440548004802
 21
465.380805671679
 31
0.0
  0
ARC
  5
1107
330
2
100
AcDbEntity
  8
HIDS
  6
SEKKEI_H
100
AcDbCircle
 10
463.3724819252196
 20
473.8808056716854
 30
0.0
 40
2.0
100
AcDbArc
 50
224.9999999999908
 51
269.9999999999478
  0
ARC
  5
1108
330
2
100
AcDbEntity
  8
0
100
AcDbCircle
 10
457.8440548004813
 20
480.0808056716796
 30
0.0
 40
0.2
100
AcDbArc
 50
270.0
 51
359.9999999999869
  0
ARC
  5
1109
330
2
100
AcDbEntity
  8
0
100
AcDbCircle
 10
457.5440548004811
 20
479.6808056716795
 30
0.0
 40
0.2
100
AcDbArc
 50
90.0
 51
179.9999999999869
  0
ARC
  5
110A
330
2
100
AcDbEntity
  8
HIDS
  6
SEKKEI_H
100
AcDbCircle
 10
457.5440548004811
 20
478.0808056716796
 30
0.0
 40
0.2
100
AcDbArc
 50
179.9999999999869
 51
270.0
  0
ARC
  5
110B
330
2
100
AcDbEntity
  8
0
100
AcDbCircle
 10
412.2440548004809
 20
480.0808056716796
 30
0.0
 40
0.2
100
AcDbArc
 50
180.000000000013
 51
270.0
  0
ARC
  5
110C
330
2
100
AcDbEntity
  8
0
100
AcDbCircle
 10
412.5440548004802
 20
479.6808056716795
 30
0.0
 40
0.2
100
AcDbArc
 50
0.0
 51
90.0
  0
ARC
  5
110D
330
2
100
AcDbEntity
  8
HIDS
  6
SEKKEI_H
100
AcDbCircle
 10
412.5440548004802
 20
478.0808056716796
 30
0.0
 40
0.2
100
AcDbArc
 50
270.0
 51
0.0000000000130276
  0
LINE
  5
110E
330
2
100
AcDbEntity
  8
0
100
AcDbLine
 10
404.0440548020145
 20
465.3808056716725
 30
0.0
 11
404.0920507472559
 21
470.8805962485285
 31
0.0
  0
LINE
  5
110F
330
2
100
AcDbEntity
  8
HIDS
  6
SEKKEI_H
100
AcDbLine
 10
408.129841238115
 20
472.4665921093126
 30
0.0
 11
410.0440548004802
 21
474.3808056716791
 31
0.0
  0
ARC
  5
1110
330
2
100
AcDbEntity
  8
HIDS
  6
SEKKEI_H
100
AcDbCircle
 10
406.7156276757417
 20
473.8808056716854
 30
0.0
 40
2.0
100
AcDbArc
 50
270.0000000000521
 51
315.0000000000092
  0
LINE
  5
1111
330
2
100
AcDbEntity
  8
0
100
AcDbLine
 10
456.7940548004838
 20
477.6808056716795
 30
0.0
 11
413.2940548004766
 21
477.6808056716795
 31
0.0
  0
LINE
  5
1112
330
2
100
AcDbEntity
  8
0
100
AcDbLine
 10
412.0440548004802
 20
481.3808056716793
 30
0.0
 11
458.044054800482
 21
481.3808056716793
 31
0.0
  0
LINE
  5
1113
330
2
100
AcDbEntity
  8
0
100
AcDbLine
 10
463.0440548004847
 20
465.380805671679
 30
0.0
 11
463.0440548004847
 21
470.8808056716825
 31
0.0
  0
LINE
  5
1114
330
2
100
AcDbEntity
  8
0
100
AcDbLine
 10
460.044054800482
 20
465.380805671679
 30
0.0
 11
460.044054800482
 21
470.8808056716825
 31
0.0
  0
LINE
  5
1115
330
2
100
AcDbEntity
  8
0
100
AcDbLine
 10
451.0252895290371
 20
465.380805671679
 30
0.0
 11
451.0252895290371
 21
470.8808056716825
 31
0.0
  0
LINE
  5
1116
330
2
100
AcDbEntity
  8
0
100
AcDbLine
 10
407.0440548004766
 20
465.380805671679
 30
0.0
 11
407.0440548004766
 21
470.8808056716825
 31
0.0
  0
LINE
  5
1117
330
2
100
AcDbEntity
  8
0
100
AcDbLine
 10
410.0440548004793
 20
465.380805671679
 30
0.0
 11
410.0440548004793
 21
470.8808056716825
 31
0.0
  0
LINE
  5
1118
330
2
100
AcDbEntity
  8
0
100
AcDbLine
 10
419.0628200719251
 20
465.380805671679
 30
0.0
 11
419.0628200719251
 21
470.8808056716825
 31
0.0
  0
LINE
  5
1119
330
2
100
AcDbEntity
  8
0
100
AcDbLine
 10
465.2940548004838
 20
477.8808056716822
 30
0.0
 11
465.2940548004838
 21
471.8808056716843
 31
0.0
  0
LINE
  5
111A
330
2
100
AcDbEntity
  8
0
100
AcDbLine
 10
456.7940548004838
 20
477.8808056716822
 30
0.0
 11
456.7940548004838
 21
471.8808056716825
 31
0.0
  0
LINE
  5
111B
330
2
100
AcDbEntity
  8
0
100
AcDbLine
 10
456.7940548004838
 20
473.1808056716825
 30
0.0
 11
465.2940548004838
 21
473.1808056716825
 31
0.0
  0
LINE
  5
111C
330
2
100
AcDbEntity
  8
0
100
AcDbLine
 10
456.7940548004838
 20
477.8808056716822
 30
0.0
 11
465.2940548004838
 21
477.8808056716822
 31
0.0
  0
LINE
  5
111D
330
2
100
AcDbEntity
  8
0
100
AcDbLine
 10
456.7940548004838
 20
477.8808056716822
 30
0.0
 11
457.3136700427543
 21
478.1808056716824
 31
0.0
  0
LINE
  5
111E
330
2
100
AcDbEntity
  8
0
100
AcDbLine
 10
465.2940548004838
 20
477.8808056716822
 30
0.0
 11
464.7744395582134
 21
478.1808056716824
 31
0.0
  0
LINE
  5
111F
330
2
100
AcDbEntity
  8
0
100
AcDbLine
 10
457.3136700427543
 20
478.1808056716824
 30
0.0
 11
464.7744395582134
 21
478.1808056716824
 31
0.0
  0
LINE
  5
1120
330
2
100
AcDbEntity
  8
HIDS
  6
SEKKEI_H
100
AcDbLine
 10
460.0440548004748
 20
474.3808056716848
 30
0.0
 11
456.7940548004838
 21
474.3808056716843
 31
0.0
  0
LINE
  5
1121
330
2
100
AcDbEntity
  8
HIDS
  6
SEKKEI_H
100
AcDbLine
 10
458.0440548004811
 20
477.6808056716795
 30
0.0
 11
456.7940548004838
 21
477.6808056716795
 31
0.0
  0
LINE
  5
1122
330
2
100
AcDbEntity
  8
HIDS
  6
SEKKEI_H
100
AcDbLine
 10
457.3440548004813
 20
478.1808056716824
 30
0.0
 11
457.3440548004813
 21
478.0808056716796
 31
0.0
  0
LINE
  5
1123
330
2
100
AcDbEntity
  8
0
100
AcDbLine
 10
404.7940548004765
 20
477.8808056716822
 30
0.0
 11
404.7940548004765
 21
471.8808056717175
 31
0.0
  0
LINE
  5
1124
330
2
100
AcDbEntity
  8
0
100
AcDbLine
 10
413.2940548004766
 20
477.8808056716822
 30
0.0
 11
413.2940548004766
 21
471.8808056716825
 31
0.0
  0
LINE
  5
1125
330
2
100
AcDbEntity
  8
0
100
AcDbLine
 10
413.2940548004766
 20
473.1808056716825
 30
0.0
 11
404.7940548004765
 21
473.1808056716825
 31
0.0
  0
LINE
  5
1126
330
2
100
AcDbEntity
  8
0
100
AcDbLine
 10
413.2940548004766
 20
477.8808056716822
 30
0.0
 11
404.7940548004765
 21
477.8808056716822
 31
0.0
  0
LINE
  5
1127
330
2
100
AcDbEntity
  8
0
100
AcDbLine
 10
413.2940548004766
 20
477.8808056716822
 30
0.0
 11
412.7744395582061
 21
478.1808056716824
 31
0.0
  0
LINE
  5
1128
330
2
100
AcDbEntity
  8
0
100
AcDbLine
 10
404.7940548004765
 20
477.8808056716822
 30
0.0
 11
405.3136700427479
 21
478.1808056716824
 31
0.0
  0
LINE
  5
1129
330
2
100
AcDbEntity
  8
0
100
AcDbLine
 10
412.7744395582061
 20
478.1808056716824
 30
0.0
 11
405.3136700427479
 21
478.1808056716824
 31
0.0
  0
LINE
  5
112A
330
2
100
AcDbEntity
  8
HIDS
  6
SEKKEI_H
100
AcDbLine
 10
413.2940548004766
 20
474.3808056716796
 30
0.0
 11
410.0440548004811
 21
474.3808056716791
 31
0.0
  0
LINE
  5
112B
330
2
100
AcDbEntity
  8
HIDS
  6
SEKKEI_H
100
AcDbLine
 10
412.7440548004809
 20
478.1808056716824
 30
0.0
 11
412.7440548004809
 21
478.0808056716796
 31
0.0
  0
LINE
  5
112C
330
2
100
AcDbEntity
  8
CENTER
  6
CENS
100
AcDbLine
 10
461.0440548004838
 20
460.182851194997
 30
0.0
 11
461.0440548004838
 21
481.1808056716849
 31
0.0
  0
LINE
  5
112D
330
2
100
AcDbEntity
  8
CENTER
  6
CENS
100
AcDbLine
 10
409.0440548004766
 20
460.182851194997
 30
0.0
 11
409.0440548004766
 21
481.1808056716849
 31
0.0
  0
LINE
  5
112E
330
2
100
AcDbEntity
  8
0
100
AcDbLine
 10
465.6559808723094
 20
470.8895322071827
 30
0.0
 11
465.70405480048
 21
465.3808056716789
 31
0.0
  0
LINE
  5
112F
330
2
100
AcDbEntity
  8
CENTER
100
AcDbLine
 10
264.8534886534684
 20
94.03685087101303
 30
0.0
 11
369.8534886534683
 21
94.03685087101326
 31
0.0
  0
LINE
  5
1130
330
2
100
AcDbEntity
  8
CENTER
100
AcDbLine
 10
309.853488653472
 20
55.53685087101314
 30
0.0
 11
309.853488653472
 21
132.5368508710134
 31
0.0
  0
LINE
  5
1131
330
2
100
AcDbEntity
  8
0
100
AcDbLine
 10
345.8534886534756
 20
119.0368508710066
 30
0.0
 11
345.8534886534756
 21
113.4079489454641
 31
0.0
  0
LINE
  5
1132
330
2
100
AcDbEntity
  8
0
100
AcDbLine
 10
345.8534886534756
 20
74.6657527965624
 30
0.0
 11
345.8534886534756
 21
69.03685087100666
 31
0.0
  0
LINE
  5
1133
330
2
100
AcDbEntity
  8
0
100
AcDbLine
 10
342.8534886534756
 20
69.03685087100666
 30
0.0
 11
345.8534886534756
 21
69.03685087100666
 31
0.0
  0
LINE
  5
1134
330
2
100
AcDbEntity
  8
0
100
AcDbLine
 10
342.8534886534756
 20
119.0368508710066
 30
0.0
 11
345.8534886534756
 21
119.0368508710066
 31
0.0
  0
LINE
  5
1135
330
2
100
AcDbEntity
  8
0
100
AcDbLine
 10
342.853488653472
 20
63.49064799613438
 30
0.0
 11
342.853488653472
 21
75.29111752053927
 31
0.0
  0
LINE
  5
1136
330
2
100
AcDbEntity
  8
0
100
AcDbLine
 10
342.853488653472
 20
112.7825842214872
 30
0.0
 11
342.853488653472
 21
124.5830537458743
 31
0.0
  0
LINE
  5
1137
330
2
100
AcDbEntity
  8
0
100
AcDbLine
 10
352.8534886534738
 20
73.96822842062443
 30
0.0
 11
352.8534886534738
 21
84.53685508562989
 31
0.0
  0
LINE
  5
1138
330
2
100
AcDbEntity
  8
0
100
AcDbLine
 10
352.8534886534738
 20
103.5368550856301
 30
0.0
 11
352.8534886534738
 21
114.1054733214048
 31
0.0
  0
LINE
  5
1139
330
2
100
AcDbEntity
  8
0
100
AcDbLine
 10
347.7836896600687
 20
116.2138921530365
 30
0.0
 11
350.9232876468789
 21
116.1042549754427
 31
0.0
  0
ARC
  5
113A
330
2
100
AcDbEntity
  8
0
100
AcDbCircle
 10
347.8534886534738
 20
118.2126738070744
 30
0.0
 40
2.0
100
AcDbArc
 50
180.0
 51
267.9999999999963
  0
ARC
  5
113B
330
2
100
AcDbEntity
  8
0
100
AcDbCircle
 10
350.8534886534738
 20
114.1054733214048
 30
0.0
 40
2.0
100
AcDbArc
 50
0.0
 51
87.99999999999636
  0
LINE
  5
113C
330
2
100
AcDbEntity
  8
0
100
AcDbLine
 10
347.783689660045
 20
71.85980958899631
 30
0.0
 11
350.9232876468553
 21
71.96944676658745
 31
0.0
  0
ARC
  5
113D
330
2
100
AcDbEntity
  8
0
100
AcDbCircle
 10
347.8534886534483
 20
69.86102793495843
 30
0.0
 40
2.0
100
AcDbArc
 50
91.99999999995149
 51
179.9999999999479
  0
ARC
  5
113E
330
2
100
AcDbEntity
  8
0
100
AcDbCircle
 10
350.8534886534529
 20
73.96822842062443
 30
0.0
 40
2.0
100
AcDbArc
 50
271.9999999999515
 51
359.9999999999478
  0
LINE
  5
113F
330
2
100
AcDbEntity
  8
0
100
AcDbLine
 10
290.8534886534683
 20
63.03685087101292
 30
0.0
 11
342.853488653472
 21
63.49064799613438
 31
0.0
  0
LINE
  5
1140
330
2
100
AcDbEntity
  8
0
100
AcDbLine
 10
290.8534886534683
 20
125.0368508710132
 30
0.0
 11
342.853488653472
 21
124.5830537458743
 31
0.0
  0
LINE
  5
1141
330
2
100
AcDbEntity
  8
0
100
AcDbLine
 10
341.853488653472
 20
122.0368508710173
 30
0.0
 11
290.8534886534683
 21
122.0368508710173
 31
0.0
  0
LINE
  5
1142
330
2
100
AcDbEntity
  8
0
100
AcDbLine
 10
341.853488653472
 20
119.0368508710146
 30
0.0
 11
290.8534886534683
 21
119.0368508710146
 31
0.0
  0
LINE
  5
1143
330
2
100
AcDbEntity
  8
0
100
AcDbLine
 10
341.5826695539057
 20
110.0180855995693
 30
0.0
 11
290.8534886534683
 21
110.0180855995693
 31
0.0
  0
LINE
  5
1144
330
2
100
AcDbEntity
  8
0
100
AcDbLine
 10
341.853488653472
 20
66.03685087100917
 30
0.0
 11
290.8534886534683
 21
66.03685087100927
 31
0.0
  0
LINE
  5
1145
330
2
100
AcDbEntity
  8
0
100
AcDbLine
 10
341.853488653472
 20
69.03685087101189
 30
0.0
 11
290.8534886534683
 21
69.03685087101189
 31
0.0
  0
LINE
  5
1146
330
2
100
AcDbEntity
  8
0
100
AcDbLine
 10
341.5826695539057
 20
78.05561614245721
 30
0.0
 11
290.8534886534683
 21
78.05561614245721
 31
0.0
  0
LINE
  5
1147
330
2
100
AcDbEntity
  8
0
100
AcDbLine
 10
273.8534886534683
 20
71.61420114020211
 30
0.0
 11
273.8534886534683
 21
84.53685508563012
 31
0.0
  0
LINE
  5
1148
330
2
100
AcDbEntity
  8
0
100
AcDbLine
 10
273.8534886534683
 20
103.5368550856301
 30
0.0
 11
273.8534886534683
 21
116.4595006018243
 31
0.0
  0
LINE
  5
1149
330
2
100
AcDbEntity
  8
0
100
AcDbLine
 10
281.8534886534638
 20
115.7868508710168
 30
0.0
 11
281.8534886534638
 21
112.5466382329291
 31
0.0
  0
LINE
  5
114A
330
2
100
AcDbEntity
  8
0
100
AcDbLine
 10
281.8534886534683
 20
75.52706350910148
 30
0.0
 11
281.8534886534683
 21
72.28685087100962
 31
0.0
  0
LINE
  5
114B
330
2
100
AcDbEntity
  8
HIDS
  6
SEKKEI_H
100
AcDbLine
 10
282.3534886534683
 20
68.53685087101371
 30
0.0
 11
281.8534886534683
 21
69.03685087101371
 31
0.0
  0
LINE
  5
114C
330
2
100
AcDbEntity
  8
HIDS
  6
SEKKEI_H
100
AcDbLine
 10
278.5534886534682
 20
71.03685087101325
 30
0.0
 11
281.8534886534683
 21
71.03685087101371
 31
0.0
  0
LINE
  5
114D
330
2
100
AcDbEntity
  8
0
100
AcDbLine
 10
274.8534886534684
 20
71.0368508710128
 30
0.0
 11
273.8534886534683
 21
71.61420114020234
 31
0.0
  0
LINE
  5
114E
330
2
100
AcDbEntity
  8
HIDS
  6
SEKKEI_H
100
AcDbLine
 10
278.3534886534683
 20
71.23685087101307
 30
0.0
 11
278.5534886534682
 21
71.03685087101325
 31
0.0
  0
LINE
  5
114F
330
2
100
AcDbEntity
  8
0
100
AcDbLine
 10
274.8534886534684
 20
71.0368508710128
 30
0.0
 11
276.1534886534685
 21
71.0368508710128
 31
0.0
  0
LINE
  5
1150
330
2
100
AcDbEntity
  8
0
100
AcDbLine
 10
276.3534886534683
 20
71.23685087101307
 30
0.0
 11
276.3534886534683
 21
74.17008360014552
 31
0.0
  0
LINE
  5
1151
330
2
100
AcDbEntity
  8
0
100
AcDbLine
 10
276.3534886534683
 20
113.9036181418807
 30
0.0
 11
276.3534886534683
 21
116.8368508710138
 31
0.0
  0
LINE
  5
1152
330
2
100
AcDbEntity
  8
0
100
AcDbLine
 10
276.5534886534682
 20
71.73685087101285
 30
0.0
 11
278.0534886534654
 21
71.73685087101308
 31
0.0
  0
LINE
  5
1153
330
2
100
AcDbEntity
  8
0
100
AcDbLine
 10
278.3534886534656
 20
72.28685087100962
 30
0.0
 11
278.3534886534656
 21
74.35142316113979
 31
0.0
  0
LINE
  5
1154
330
2
100
AcDbEntity
  8
0
100
AcDbLine
 10
278.3534886534656
 20
113.7222785808867
 30
0.0
 11
278.3534886534656
 21
115.7868508710168
 31
0.0
  0
LINE
  5
1155
330
2
100
AcDbEntity
  8
0
100
AcDbLine
 10
290.8534886534693
 20
125.0368508710137
 30
0.0
 11
285.3534886534656
 21
125.0368508710137
 31
0.0
  0
LINE
  5
1156
330
2
100
AcDbEntity
  8
0
100
AcDbLine
 10
274.8534886534684
 20
111.5368508710132
 30
0.0
 11
281.8534886534683
 21
111.5368508710132
 31
0.0
  0
LINE
  5
1157
330
2
100
AcDbEntity
  8
0
100
AcDbLine
 10
274.8534886534684
 20
111.5368508710132
 30
0.0
 11
273.8534886534683
 21
112.1142011402028
 31
0.0
  0
LINE
  5
1158
330
2
100
AcDbEntity
  8
HIDS
  6
SEKKEI_H
100
AcDbLine
 10
278.5534886534682
 20
117.0368508710137
 30
0.0
 11
281.8534886534683
 21
117.0368508710132
 31
0.0
  0
LINE
  5
1159
330
2
100
AcDbEntity
  8
0
100
AcDbLine
 10
276.5534886534682
 20
116.3368508710138
 30
0.0
 11
278.0534886534654
 21
116.3368508710136
 31
0.0
  0
LINE
  5
115A
330
2
100
AcDbEntity
  8
HIDS
  6
SEKKEI_H
100
AcDbLine
 10
278.3534886534683
 20
116.8368508710134
 30
0.0
 11
278.5534886534682
 21
117.0368508710137
 31
0.0
  0
LINE
  5
115B
330
2
100
AcDbEntity
  8
0
100
AcDbLine
 10
274.8534886534684
 20
117.0368508710141
 30
0.0
 11
273.8534886534683
 21
116.4595006018246
 31
0.0
  0
LINE
  5
115C
330
2
100
AcDbEntity
  8
0
100
AcDbLine
 10
274.8534886534684
 20
117.0368508710141
 30
0.0
 11
276.1534886534685
 21
117.0368508710137
 31
0.0
  0
ARC
  5
115D
330
2
100
AcDbEntity
  8
0
100
AcDbCircle
 10
285.3534886534656
 20
124.0368508710132
 30
0.0
 40
1.0
100
AcDbArc
 50
90.0
 51
179.9999999999674
  0
LINE
  5
115E
330
2
100
AcDbEntity
  8
HIDS
  6
SEKKEI_H
100
AcDbLine
 10
283.7677022158353
 20
120.9510644333788
 30
0.0
 11
281.8534886534629
 21
119.0368508710073
 31
0.0
  0
LINE
  5
115F
330
2
100
AcDbEntity
  8
0
100
AcDbLine
 10
284.3534886534301
 20
63.78685087100961
 30
0.0
 11
284.3534886534411
 21
83.91801798350797
 31
0.0
  0
LINE
  5
1160
330
2
100
AcDbEntity
  8
0
100
AcDbLine
 10
284.353488653452
 20
104.1556837585071
 30
0.0
 11
284.3534886534629
 21
124.0368508710139
 31
0.0
  0
LINE
  5
1161
330
2
100
AcDbEntity
  8
0
100
AcDbLine
 10
290.8534886534683
 20
125.0368508710132
 30
0.0
 11
290.8534886534683
 21
103.1171847569664
 31
0.0
  0
LINE
  5
1162
330
2
100
AcDbEntity
  8
0
100
AcDbLine
 10
290.8534886534683
 20
84.95651698506026
 30
0.0
 11
290.8534886534683
 21
63.03685087101292
 31
0.0
  0
ARC
  5
1163
330
2
100
AcDbEntity
  8
HIDS
  6
SEKKEI_H
100
AcDbCircle
 10
282.3534886534629
 20
122.3652779957521
 30
0.0
 40
2.0
100
AcDbArc
 50
315.0000000000069
 51
359.9999999999674
  0
ARC
  5
1164
330
2
100
AcDbEntity
  8
0
100
AcDbCircle
 10
276.1534886534685
 20
116.8368508710138
 30
0.0
 40
0.2
100
AcDbArc
 50
0.0
 51
90.0
  0
ARC
  5
1165
330
2
100
AcDbEntity
  8
0
100
AcDbCircle
 10
276.5534886534682
 20
116.5368508710139
 30
0.0
 40
0.2
100
AcDbArc
 50
180.0
 51
270.0
  0
ARC
  5
1166
330
2
100
AcDbEntity
  8
HIDS
  6
SEKKEI_H
100
AcDbCircle
 10
278.1534886534685
 20
116.5368508710137
 30
0.0
 40
0.2
100
AcDbArc
 50
270.0
 51
0.0
  0
ARC
  5
1167
330
2
100
AcDbEntity
  8
0
100
AcDbCircle
 10
276.1534886534685
 20
71.23685087101307
 30
0.0
 40
0.2
100
AcDbArc
 50
270.0
 51
0.0
  0
ARC
  5
1168
330
2
100
AcDbEntity
  8
0
100
AcDbCircle
 10
276.5534886534682
 20
71.5368508710128
 30
0.0
 40
0.2
100
AcDbArc
 50
90.0
 51
180.0
  0
ARC
  5
1169
330
2
100
AcDbEntity
  8
HIDS
  6
SEKKEI_H
100
AcDbCircle
 10
278.1534886534685
 20
71.53685087101303
 30
0.0
 40
0.2
100
AcDbArc
 50
0.0
 51
90.0
  0
LINE
  5
116A
330
2
100
AcDbEntity
  8
0
100
AcDbLine
 10
290.8534886534683
 20
63.03685087101292
 30
0.0
 11
285.3447621179324
 21
63.08492479918391
 31
0.0
  0
ARC
  5
116B
330
2
100
AcDbEntity
  8
0
100
AcDbCircle
 10
285.3534886534301
 20
64.08488672224803
 30
0.0
 40
1.0
100
AcDbArc
 50
179.9999999999674
 51
269.4999999999824
  0
LINE
  5
116C
330
2
100
AcDbEntity
  8
HIDS
  6
SEKKEI_H
100
AcDbLine
 10
283.7677022158353
 20
67.12263730864766
 30
0.0
 11
281.8534886534683
 21
69.03685087101326
 31
0.0
  0
ARC
  5
116D
330
2
100
AcDbEntity
  8
HIDS
  6
SEKKEI_H
100
AcDbCircle
 10
282.3534886534629
 20
65.70842374627421
 30
0.0
 40
2.0
100
AcDbArc
 50
0.0000000000390827
 51
44.99999999999309
  0
LINE
  5
116E
330
2
100
AcDbEntity
  8
0
100
AcDbLine
 10
278.5534886534682
 20
115.7868508710168
 30
0.0
 11
278.5534886534682
 21
113.7281735814601
 31
0.0
  0
LINE
  5
116F
330
2
100
AcDbEntity
  8
0
100
AcDbLine
 10
278.5534886534682
 20
74.34552816056612
 30
0.0
 11
278.5534886534682
 21
72.28685087100962
 31
0.0
  0
LINE
  5
1170
330
2
100
AcDbEntity
  8
0
100
AcDbLine
 10
274.8534886534684
 20
71.0368508710128
 30
0.0
 11
274.8534886534684
 21
73.59384749494484
 31
0.0
  0
LINE
  5
1171
330
2
100
AcDbEntity
  8
0
100
AcDbLine
 10
274.8534886534684
 20
114.4798542470819
 30
0.0
 11
274.8534886534684
 21
117.0368508710141
 31
0.0
  0
LINE
  5
1172
330
2
100
AcDbEntity
  8
0
100
AcDbLine
 10
290.8534886534683
 20
122.0368508710173
 30
0.0
 11
285.3534886534656
 21
122.0368508710173
 31
0.0
  0
LINE
  5
1173
330
2
100
AcDbEntity
  8
0
100
AcDbLine
 10
290.8534886534683
 20
119.0368508710146
 30
0.0
 11
285.3534886534656
 21
119.0368508710146
 31
0.0
  0
LINE
  5
1174
330
2
100
AcDbEntity
  8
0
100
AcDbLine
 10
290.8534886534683
 20
110.0180855995693
 30
0.0
 11
285.3534886534656
 21
110.0180855995693
 31
0.0
  0
LINE
  5
1175
330
2
100
AcDbEntity
  8
0
100
AcDbLine
 10
290.8534886534683
 20
66.03685087100927
 30
0.0
 11
285.3534886534656
 21
66.03685087100927
 31
0.0
  0
LINE
  5
1176
330
2
100
AcDbEntity
  8
0
100
AcDbLine
 10
290.8534886534683
 20
69.03685087101189
 30
0.0
 11
285.3534886534656
 21
69.03685087101189
 31
0.0
  0
LINE
  5
1177
330
2
100
AcDbEntity
  8
0
100
AcDbLine
 10
290.8534886534683
 20
78.05561614245721
 30
0.0
 11
285.3534886534656
 21
78.05561614245721
 31
0.0
  0
LINE
  5
1178
330
2
100
AcDbEntity
  8
CENTER
  6
CENS
100
AcDbLine
 10
296.0514431301529
 20
120.0368508710168
 30
0.0
 11
275.0534886534655
 21
120.0368508710168
 31
0.0
  0
LINE
  5
1179
330
2
100
AcDbEntity
  8
0
100
AcDbLine
 10
278.3534886534656
 20
124.2868508710168
 30
0.0
 11
284.3534886534656
 21
124.2868508710168
 31
0.0
  0
LINE
  5
117A
330
2
100
AcDbEntity
  8
0
100
AcDbLine
 10
278.3534886534656
 20
115.7868508710168
 30
0.0
 11
284.3534886534656
 21
115.7868508710168
 31
0.0
  0
LINE
  5
117B
330
2
100
AcDbEntity
  8
0
100
AcDbLine
 10
283.0534886534654
 20
115.7868508710168
 30
0.0
 11
283.0534886534654
 21
124.2868508710168
 31
0.0
  0
LINE
  5
117C
330
2
100
AcDbEntity
  8
0
100
AcDbLine
 10
278.3534886534656
 20
115.7868508710168
 30
0.0
 11
278.3534886534656
 21
124.2868508710168
 31
0.0
  0
LINE
  5
117D
330
2
100
AcDbEntity
  8
0
100
AcDbLine
 10
278.3534886534656
 20
115.7868508710168
 30
0.0
 11
278.0534886534654
 21
116.3064661132873
 31
0.0
  0
LINE
  5
117E
330
2
100
AcDbEntity
  8
0
100
AcDbLine
 10
278.3534886534656
 20
124.2868508710168
 30
0.0
 11
278.0534886534654
 21
123.7672356287459
 31
0.0
  0
LINE
  5
117F
330
2
100
AcDbEntity
  8
0
100
AcDbLine
 10
278.0534886534654
 20
116.3064661132873
 30
0.0
 11
278.0534886534654
 21
123.7672356287459
 31
0.0
  0
LINE
  5
1180
330
2
100
AcDbEntity
  8
HIDS
  6
SEKKEI_H
100
AcDbLine
 10
281.8534886534629
 20
119.0368508710073
 30
0.0
 11
281.8534886534638
 21
115.7868508710168
 31
0.0
  0
LINE
  5
1181
330
2
100
AcDbEntity
  8
HIDS
  6
SEKKEI_H
100
AcDbLine
 10
278.5534886534682
 20
117.0368508710137
 30
0.0
 11
278.5534886534682
 21
115.7868508710168
 31
0.0
  0
LINE
  5
1182
330
2
100
AcDbEntity
  8
HIDS
  6
SEKKEI_H
100
AcDbLine
 10
278.0534886534654
 20
116.3368508710136
 30
0.0
 11
278.1534886534685
 21
116.3368508710134
 31
0.0
  0
LINE
  5
1183
330
2
100
AcDbEntity
  8
CENTER
  6
CENS
100
AcDbLine
 10
296.0514431301529
 20
68.03685087100962
 30
0.0
 11
275.0534886534655
 21
68.03685087100962
 31
0.0
  0
LINE
  5
1184
330
2
100
AcDbEntity
  8
0
100
AcDbLine
 10
278.3534886534656
 20
63.78685087100961
 30
0.0
 11
284.3534886534301
 21
63.78685087100961
 31
0.0
  0
LINE
  5
1185
330
2
100
AcDbEntity
  8
0
100
AcDbLine
 10
278.3534886534656
 20
72.28685087100962
 30
0.0
 11
284.3534886534656
 21
72.28685087100962
 31
0.0
  0
LINE
  5
1186
330
2
100
AcDbEntity
  8
0
100
AcDbLine
 10
283.0534886534654
 20
72.28685087100962
 30
0.0
 11
283.0534886534654
 21
63.78685087100961
 31
0.0
  0
LINE
  5
1187
330
2
100
AcDbEntity
  8
0
100
AcDbLine
 10
278.3534886534656
 20
72.28685087100962
 30
0.0
 11
278.3534886534656
 21
63.78685087100961
 31
0.0
  0
LINE
  5
1188
330
2
100
AcDbEntity
  8
0
100
AcDbLine
 10
278.3534886534656
 20
72.28685087100962
 30
0.0
 11
278.0534886534654
 21
71.76723562873917
 31
0.0
  0
LINE
  5
1189
330
2
100
AcDbEntity
  8
0
100
AcDbLine
 10
278.3534886534656
 20
63.78685087100961
 30
0.0
 11
278.0534886534654
 21
64.30646611328052
 31
0.0
  0
LINE
  5
118A
330
2
100
AcDbEntity
  8
0
100
AcDbLine
 10
278.0534886534654
 20
71.76723562873917
 30
0.0
 11
278.0534886534654
 21
64.30646611328052
 31
0.0
  0
LINE
  5
118B
330
2
100
AcDbEntity
  8
HIDS
  6
SEKKEI_H
100
AcDbLine
 10
281.8534886534683
 20
72.28685087100962
 30
0.0
 11
281.8534886534683
 21
69.03685087101371
 31
0.0
  0
LINE
  5
118C
330
2
100
AcDbEntity
  8
HIDS
  6
SEKKEI_H
100
AcDbLine
 10
278.0534886534654
 20
71.73685087101308
 30
0.0
 11
278.1534886534685
 21
71.73685087101308
 31
0.0
  0
LINE
  5
118D
330
2
100
AcDbEntity
  8
0
100
AcDbLine
 10
339.8534886534684
 20
100.2868550856296
 30
0.0
 11
291.8534886534684
 21
100.2868550856296
 31
0.0
  0
LINE
  5
118E
330
2
100
AcDbEntity
  8
0
100
AcDbLine
 10
362.8534886534684
 20
101.8368550856302
 30
0.0
 11
271.8534886534683
 21
101.83685508563
 31
0.0
  0
LINE
  5
118F
330
2
100
AcDbEntity
  8
0
100
AcDbLine
 10
348.8534886534683
 20
100.0368550856298
 30
0.0
 11
339.8534886534684
 21
100.0368550856298
 31
0.0
  0
LINE
  5
1190
330
2
100
AcDbEntity
  8
0
100
AcDbLine
 10
362.8534886534684
 20
103.5368550856301
 30
0.0
 11
342.8534886534683
 21
103.5368550856301
 31
0.0
  0
LINE
  5
1191
330
2
100
AcDbEntity
  8
0
100
AcDbLine
 10
362.8534886534684
 20
84.53685508562989
 30
0.0
 11
342.8534886534683
 21
84.53685508562989
 31
0.0
  0
LINE
  5
1192
330
2
100
AcDbEntity
  8
0
100
AcDbLine
 10
350.003488653468
 20
87.7868550856299
 30
0.0
 11
350.003488653468
 21
100.2868550856296
 31
0.0
  0
LINE
  5
1193
330
2
100
AcDbEntity
  8
0
100
AcDbLine
 10
348.8534886534683
 20
87.7868550856299
 30
0.0
 11
348.8534886534683
 21
100.2868550856296
 31
0.0
  0
LINE
  5
1194
330
2
100
AcDbEntity
  8
0
100
AcDbLine
 10
360.8534886534684
 20
88.03685508562921
 30
0.0
 11
360.8534886534684
 21
100.0368550856296
 31
0.0
  0
LINE
  5
1195
330
2
100
AcDbEntity
  8
0
100
AcDbLine
 10
354.3534886534684
 20
87.53685508562966
 30
0.0
 11
354.3534886534684
 21
100.5368550856301
 31
0.0
  0
LINE
  5
1196
330
2
100
AcDbEntity
  8
0
100
AcDbLine
 10
358.3534886534684
 20
87.53685508562943
 30
0.0
 11
358.3534886534684
 21
100.5368550856303
 31
0.0
  0
LINE
  5
1197
330
2
100
AcDbEntity
  8
0
100
AcDbLine
 10
362.8534886534684
 20
84.53685508563012
 30
0.0
 11
362.8534886534684
 21
103.5368550856301
 31
0.0
  0
LINE
  5
1198
330
2
100
AcDbEntity
  8
0
100
AcDbLine
 10
360.8534886534684
 20
88.03685508562921
 30
0.0
 11
358.3534886534684
 21
88.03685508562944
 31
0.0
  0
LINE
  5
1199
330
2
100
AcDbEntity
  8
0
100
AcDbLine
 10
360.8534886534684
 20
88.03685508562921
 30
0.0
 11
358.3534886534684
 21
88.03685508562944
 31
0.0
  0
LINE
  5
119A
330
2
100
AcDbEntity
  8
0
100
AcDbLine
 10
362.8534886534684
 20
86.88215454725082
 30
0.0
 11
360.8534886534684
 21
88.03685508563011
 31
0.0
  0
LINE
  5
119B
330
2
100
AcDbEntity
  8
0
100
AcDbLine
 10
354.3534886534684
 20
88.03685508562967
 30
0.0
 11
350.003488653468
 21
88.0368550856299
 31
0.0
  0
LINE
  5
119C
330
2
100
AcDbEntity
  8
0
100
AcDbLine
 10
358.3534886534684
 20
87.53685508562943
 30
0.0
 11
354.3534886534684
 21
87.53685508562966
 31
0.0
  0
LINE
  5
119D
330
2
100
AcDbEntity
  8
0
100
AcDbLine
 10
348.8534886534683
 20
88.03685508563011
 30
0.0
 11
339.8534886534684
 21
88.03685508563035
 31
0.0
  0
LINE
  5
119E
330
2
100
AcDbEntity
  8
0
100
AcDbLine
 10
350.003488653468
 20
87.7868550856299
 30
0.0
 11
348.8534886534683
 21
87.7868550856299
 31
0.0
  0
LINE
  5
119F
330
2
100
AcDbEntity
  8
0
100
AcDbLine
 10
360.8534886534684
 20
100.0368550856296
 30
0.0
 11
358.3534886534684
 21
100.0368550856298
 31
0.0
  0
LINE
  5
11A0
330
2
100
AcDbEntity
  8
0
100
AcDbLine
 10
360.8534886534684
 20
100.0368550856296
 30
0.0
 11
358.3534886534684
 21
100.0368550856296
 31
0.0
  0
LINE
  5
11A1
330
2
100
AcDbEntity
  8
0
100
AcDbLine
 10
362.8534886534684
 20
101.1915556240089
 30
0.0
 11
360.8534886534684
 21
100.0368550856296
 31
0.0
  0
LINE
  5
11A2
330
2
100
AcDbEntity
  8
0
100
AcDbLine
 10
355.1534886534685
 20
103.5368550856298
 30
0.0
 11
355.1534886534685
 21
101.8368550856302
 31
0.0
  0
LINE
  5
11A3
330
2
100
AcDbEntity
  8
HOJO
100
AcDbLine
 10
354.8534886534683
 20
103.5368550856298
 30
0.0
 11
354.8534886534683
 21
101.8368550856302
 31
0.0
  0
LINE
  5
11A4
330
2
100
AcDbEntity
  8
0
100
AcDbLine
 10
357.5534886534682
 20
103.5368550856298
 30
0.0
 11
357.5534886534691
 21
101.8368550856302
 31
0.0
  0
LINE
  5
11A5
330
2
100
AcDbEntity
  8
HOJO
100
AcDbLine
 10
357.8534886534683
 20
103.5368550856298
 30
0.0
 11
357.8534886534683
 21
101.8368550856302
 31
0.0
  0
LINE
  5
11A6
330
2
100
AcDbEntity
  8
0
100
AcDbLine
 10
354.3534886534684
 20
100.0368550856298
 30
0.0
 11
350.003488653468
 21
100.0368550856298
 31
0.0
  0
LINE
  5
11A7
330
2
100
AcDbEntity
  8
0
100
AcDbLine
 10
358.3534886534684
 20
100.5368550856303
 30
0.0
 11
354.3534886534684
 21
100.5368550856301
 31
0.0
  0
LINE
  5
11A8
330
2
100
AcDbEntity
  8
0
100
AcDbLine
 10
350.003488653468
 20
100.2868550856296
 30
0.0
 11
348.8534886534683
 21
100.2868550856298
 31
0.0
  0
LINE
  5
11A9
330
2
100
AcDbEntity
  8
0
100
AcDbLine
 10
342.8534886534683
 20
84.53685508562989
 30
0.0
 11
342.8534886534683
 21
75.29111752054155
 31
0.0
  0
LINE
  5
11AA
330
2
100
AcDbEntity
  8
0
100
AcDbLine
 10
342.8534886534683
 20
84.0368550856299
 30
0.0
 11
339.58137858724
 21
84.0368550856299
 31
0.0
  0
LINE
  5
11AB
330
2
100
AcDbEntity
  8
0
100
AcDbLine
 10
342.8534886534683
 20
104.0368550856301
 30
0.0
 11
339.5813863194365
 21
104.0368550856301
 31
0.0
  0
LINE
  5
11AC
330
2
100
AcDbEntity
  8
0
100
AcDbLine
 10
342.8534886534683
 20
104.0368550856301
 30
0.0
 11
342.8534886534683
 21
103.5368550856301
 31
0.0
  0
LINE
  5
11AD
330
2
100
AcDbEntity
  8
0
100
AcDbLine
 10
271.8534886534683
 20
103.5368550856301
 30
0.0
 11
285.110492313502
 21
103.5368550856301
 31
0.0
  0
LINE
  5
11AE
330
2
100
AcDbEntity
  8
0
100
AcDbLine
 10
278.7034886534687
 20
100.0368550856296
 30
0.0
 11
273.8534886534683
 21
100.0368550856296
 31
0.0
  0
LINE
  5
11AF
330
2
100
AcDbEntity
  8
0
100
AcDbLine
 10
271.8534886534683
 20
84.53685508563012
 30
0.0
 11
285.1105050325917
 21
84.53685508562989
 31
0.0
  0
LINE
  5
11B0
330
2
100
AcDbEntity
  8
0
100
AcDbLine
 10
278.7034886534687
 20
88.03685508563376
 30
0.0
 11
273.8534886534683
 21
88.03685508563399
 31
0.0
  0
LINE
  5
11B1
330
2
100
AcDbEntity
  8
0
100
AcDbLine
 10
279.8534886534683
 20
100.2868550856296
 30
0.0
 11
279.8534886534683
 21
87.78685508563354
 31
0.0
  0
LINE
  5
11B2
330
2
100
AcDbEntity
  8
0
100
AcDbLine
 10
278.7034886534687
 20
100.2868550856296
 30
0.0
 11
278.7034886534687
 21
87.78685508563375
 31
0.0
  0
LINE
  5
11B3
330
2
100
AcDbEntity
  8
0
100
AcDbLine
 10
291.8534886534738
 20
88.03685508563331
 30
0.0
 11
279.8534886534683
 21
88.03685508563352
 31
0.0
  0
LINE
  5
11B4
330
2
100
AcDbEntity
  8
0
100
AcDbLine
 10
279.8534886534683
 20
87.78685508563354
 30
0.0
 11
278.7034886534687
 21
87.78685508563375
 31
0.0
  0
LINE
  5
11B5
330
2
100
AcDbEntity
  8
0
100
AcDbLine
 10
291.8534886534684
 20
100.0368550856296
 30
0.0
 11
279.8534886534683
 21
100.0368550856296
 31
0.0
  0
LINE
  5
11B6
330
2
100
AcDbEntity
  8
0
100
AcDbLine
 10
291.8534886534684
 20
100.2868550856296
 30
0.0
 11
291.8534886534738
 21
87.78684665639662
 31
0.0
  0
LINE
  5
11B7
330
2
100
AcDbEntity
  8
0
100
AcDbLine
 10
279.8534886534683
 20
100.2868550856296
 30
0.0
 11
278.7034886534687
 21
100.2868550856296
 31
0.0
  0
LINE
  5
11B8
330
2
100
AcDbEntity
  8
0
100
AcDbLine
 10
273.8534886534683
 20
100.0368550856296
 30
0.0
 11
273.8534886534683
 21
88.03685508563399
 31
0.0
  0
LINE
  5
11B9
330
2
100
AcDbEntity
  8
0
100
AcDbLine
 10
271.8534886534683
 20
103.5368550856301
 30
0.0
 11
271.8534886534683
 21
84.53685508562989
 31
0.0
  0
LINE
  5
11BA
330
2
100
AcDbEntity
  8
0
100
AcDbLine
 10
273.8534886534683
 20
88.03685508563399
 30
0.0
 11
271.8534886534683
 21
86.88215454725469
 31
0.0
  0
LINE
  5
11BB
330
2
100
AcDbEntity
  8
0
100
AcDbLine
 10
273.8534886534693
 20
100.0368550856262
 30
0.0
 11
271.8534886534693
 21
101.1915556240055
 31
0.0
  0
LINE
  5
11BC
330
2
100
AcDbEntity
  8
0
100
AcDbLine
 10
339.8534886534684
 20
100.2868550856296
 30
0.0
 11
339.8534886534684
 21
87.78684665639662
 31
0.0
  0
LINE
  5
11BD
330
2
100
AcDbEntity
  8
0
100
AcDbLine
 10
339.8534886534684
 20
87.78684665639662
 30
0.0
 11
291.8534886534738
 21
87.78684665639662
 31
0.0
  0
LINE
  5
11BE
330
2
100
AcDbEntity
  8
0
100
AcDbLine
 10
351.8534886534738
 20
111.5368508710134
 30
0.0
 11
351.8534886534738
 21
103.5368550856301
 31
0.0
  0
LINE
  5
11BF
330
2
100
AcDbEntity
  8
0
100
AcDbLine
 10
344.8534886534738
 20
111.5368508710134
 30
0.0
 11
344.8534886534738
 21
103.5368550856301
 31
0.0
  0
LINE
  5
11C0
330
2
100
AcDbEntity
  8
0
100
AcDbLine
 10
351.8534886534738
 20
84.53685508562989
 30
0.0
 11
351.8534886534738
 21
76.53685087101348
 31
0.0
  0
LINE
  5
11C1
330
2
100
AcDbEntity
  8
0
100
AcDbLine
 10
342.8534886534738
 20
76.53685087101348
 30
0.0
 11
351.8534886534738
 21
76.53685087101348
 31
0.0
  0
LINE
  5
11C2
330
2
100
AcDbEntity
  8
0
100
AcDbLine
 10
351.8534886534738
 20
76.53685087101348
 30
0.0
 11
352.8534886534738
 21
75.95950060182395
 31
0.0
  0
LINE
  5
11C3
330
2
100
AcDbEntity
  8
0
100
AcDbLine
 10
342.8534886534738
 20
111.5368508710134
 30
0.0
 11
351.8534886534738
 21
111.5368508710134
 31
0.0
  0
LINE
  5
11C4
330
2
100
AcDbEntity
  8
0
100
AcDbLine
 10
351.8534886534738
 20
111.5368508710134
 30
0.0
 11
352.8534886534738
 21
112.1142011402032
 31
0.0
  0
SPLINE
  5
11C5
330
2
100
AcDbEntity
  8
HOJO
100
AcDbSpline
210
0.0
220
0.0
230
1.0
 70
     8
 71
     3
 72
    30
 73
    26
 74
     0
 42
0.0000000001
 43
0.0000000001
 40
1.073701665119103
 40
1.073701665119103
 40
1.073701665119103
 40
1.073701665119103
 40
2.18150891874031
 40
3.841179975812767
 40
6.934876563096535
 40
11.04909901775557
 40
16.09897812345541
 40
18.38468990949584
 40
20.32701975216962
 40
26.5117454990493
 40
30.46491644453404
 40
35.83302429770391
 40
42.45273464572102
 40
47.20758177775013
 40
52.22079021395813
 40
57.21977993322538
 40
60.62363657950815
 40
66.61159553569167
 40
72.16084371902148
 40
75.98229293129505
 40
79.52171565640792
 40
82.70276676995699
 40
87.04688362939927
 40
92.17949855136799
 40
93.21086260406284
 40
93.21086260406284
 40
93.21086260406284
 40
93.21086260406284
 10
273.8534886534683
 20
114.694002468751
 30
0.0
 10
274.2546318476992
 20
114.6268303464605
 30
0.0
 10
275.2591814539122
 20
114.4297784006162
 30
0.0
 10
277.0136958471206
 20
113.4374921854166
 30
0.0
 10
280.0568988956641
 20
114.1669077716121
 30
0.0
 10
283.5139249138841
 20
111.5357556063011
 30
0.0
 10
282.8331110078883
 20
107.1332502580735
 30
0.0
 10
283.9272762139511
 20
104.265063660903
 30
0.0
 10
287.6576099772004
 20
101.8058952268168
 30
0.0
 10
292.3539232279011
 20
104.1191267613419
 30
0.0
 10
297.2907413213901
 20
102.3332391683372
 30
0.0
 10
302.6559462799736
 20
103.767065784971
 30
0.0
 10
308.2433381181111
 20
101.9918655173823
 30
0.0
 10
313.5806994005573
 20
104.4121420016442
 30
0.0
 10
318.4444890806574
 20
102.0644617153623
 30
0.0
 10
322.8682490358963
 20
104.0899633014271
 30
0.0
 10
327.6307013541376
 20
102.5063553566676
 30
0.0
 10
332.4775454012154
 20
104.2843150255489
 30
0.0
 10
338.0684443052063
 20
101.773063878968
 30
0.0
 10
341.1238561064759
 20
105.8810370228791
 30
0.0
 10
341.4479355217648
 20
109.1836874053958
 30
0.0
 10
342.056277931439
 20
113.4220705386494
 30
0.0
 10
347.2193398808562
 20
113.3884637522239
 30
0.0
 10
350.4782929755123
 20
113.5179329594316
 30
0.0
 10
352.5110655529082
 20
113.5565337815958
 30
0.0
 10
352.8534886534738
 20
113.5622840412932
 30
0.0
  0
LINE
  5
11C6
330
2
100
AcDbEntity
  8
0
100
AcDbLine
 10
342.853488653472
 20
112.7825842214872
 30
0.0
 11
342.8534886534683
 21
104.0368550856301
 31
0.0
  0
LINE
  5
11C7
330
2
100
AcDbEntity
  8
0
100
AcDbLine
 10
281.8534886534683
 20
111.945200145521
 30
0.0
 11
281.8534886534683
 21
103.5368550856301
 31
0.0
  0
LINE
  5
11C8
330
2
100
AcDbEntity
  8
0
100
AcDbLine
 10
274.8534886534684
 20
111.5368508710132
 30
0.0
 11
274.8534886534684
 21
103.5368550856301
 31
0.0
  0
LINE
  5
11C9
330
2
100
AcDbEntity
  8
0
100
AcDbLine
 10
281.8534886534683
 20
111.945200145521
 30
0.0
 11
282.3279128732277
 21
111.9576233809302
 31
0.0
  0
LINE
  5
11CA
330
2
100
AcDbEntity
  8
0
100
AcDbLine
 10
274.8534886534684
 20
76.53685087101326
 30
0.0
 11
281.8534886534683
 21
76.53685087101326
 31
0.0
  0
LINE
  5
11CB
330
2
100
AcDbEntity
  8
0
100
AcDbLine
 10
281.8534886534683
 20
76.12850159650543
 30
0.0
 11
281.8534886534683
 21
84.5368466563964
 31
0.0
  0
LINE
  5
11CC
330
2
100
AcDbEntity
  8
0
100
AcDbLine
 10
281.8534886534683
 20
76.12850159650543
 30
0.0
 11
282.3279128732277
 21
76.11607836109624
 31
0.0
  0
LINE
  5
11CD
330
2
100
AcDbEntity
  8
0
100
AcDbLine
 10
274.8534886534684
 20
76.53685087101326
 30
0.0
 11
273.8534886534683
 21
75.95950060182372
 31
0.0
  0
LINE
  5
11CE
330
2
100
AcDbEntity
  8
0
100
AcDbLine
 10
274.8534886534684
 20
76.53685087101326
 30
0.0
 11
274.8534886534684
 21
84.53685508563012
 31
0.0
  0
LINE
  5
11CF
330
2
100
AcDbEntity
  8
0
100
AcDbLine
 10
351.8534886534738
 20
111.5368508710134
 30
0.0
 11
344.8534886534738
 21
103.5368550856301
 31
0.0
  0
LINE
  5
11D0
330
2
100
AcDbEntity
  8
0
100
AcDbLine
 10
344.8534886534738
 20
111.5368508710134
 30
0.0
 11
351.8534886534738
 21
103.5368550856301
 31
0.0
  0
LINE
  5
11D1
330
2
100
AcDbEntity
  8
0
100
AcDbLine
 10
351.8534886534738
 20
84.53684665639684
 30
0.0
 11
344.8534886534738
 21
76.53685087101348
 31
0.0
  0
LINE
  5
11D2
330
2
100
AcDbEntity
  8
0
100
AcDbLine
 10
344.8534886534738
 20
84.53684665639684
 30
0.0
 11
351.8534886534738
 21
76.53685087101348
 31
0.0
  0
LINE
  5
11D3
330
2
100
AcDbEntity
  8
0
100
AcDbLine
 10
344.8534886534738
 20
84.53684665639684
 30
0.0
 11
344.8534886534738
 21
76.53685087101348
 31
0.0
  0
LINE
  5
11D4
330
2
100
AcDbEntity
  8
0
100
AcDbLine
 10
274.8534886534684
 20
111.5368508710132
 30
0.0
 11
281.8534886534683
 21
103.5368550856301
 31
0.0
  0
LINE
  5
11D5
330
2
100
AcDbEntity
  8
0
100
AcDbLine
 10
274.8534886534684
 20
103.5368550856301
 30
0.0
 11
281.8534886534683
 21
111.5368508710132
 31
0.0
  0
LINE
  5
11D6
330
2
100
AcDbEntity
  8
0
100
AcDbLine
 10
281.8534886534683
 20
84.5368466563964
 30
0.0
 11
274.8534886534684
 21
76.53685087101326
 31
0.0
  0
LINE
  5
11D7
330
2
100
AcDbEntity
  8
0
100
AcDbLine
 10
274.8534886534684
 20
84.53685508563012
 30
0.0
 11
281.8534886534683
 21
76.53685087101326
 31
0.0
  0
LINE
  5
11D8
330
2
100
AcDbEntity
  8
CENTER
100
AcDbLine
 10
356.3534886534684
 20
98.50174386933918
 30
0.0
 11
356.3534886534684
 21
106.2889710487131
 31
0.0
  0
LINE
  5
11D9
330
2
100
AcDbEntity
  8
0
100
AcDbLine
 10
342.8534886534683
 20
263.8033395982338
 30
0.0
 11
332.8534886534738
 21
263.8033395982338
 31
0.0
  0
LINE
  5
11DA
330
2
100
AcDbEntity
  8
0
100
AcDbLine
 10
342.8534886534683
 20
244.8033395982335
 30
0.0
 11
332.8534886534738
 21
244.8033395982335
 31
0.0
  0
LINE
  5
11DB
330
2
100
AcDbEntity
  8
0
100
AcDbLine
 10
342.8534886534683
 20
244.8033395982338
 30
0.0
 11
342.8534886534683
 21
263.8033395982338
 31
0.0
  0
LINE
  5
11DC
330
2
100
AcDbEntity
  8
0
100
AcDbLine
 10
251.8534886534684
 20
263.8033395982338
 30
0.0
 11
253.8534886534683
 21
263.803339598234
 31
0.0
  0
LINE
  5
11DD
330
2
100
AcDbEntity
  8
0
100
AcDbLine
 10
251.8534886534684
 20
244.8033395982338
 30
0.0
 11
253.8534886534683
 21
244.8033395982338
 31
0.0
  0
LINE
  5
11DE
330
2
100
AcDbEntity
  8
0
100
AcDbLine
 10
251.8534886534684
 20
263.8033395982338
 30
0.0
 11
251.8534886534684
 21
244.8033395982335
 31
0.0
  0
CIRCLE
  5
11DF
330
2
100
AcDbEntity
  8
HOJO
100
AcDbCircle
 10
336.3534886534683
 20
254.3033353836169
 30
0.0
 40
1.499999999999772
  0
CIRCLE
  5
11E0
330
2
100
AcDbEntity
  8
0
100
AcDbCircle
 10
336.3534886534683
 20
254.3033353836169
 30
0.0
 40
1.199999999999818
  0
LINE
  5
11E1
330
2
100
AcDbEntity
  8
CENTER
100
AcDbLine
 10
336.3534886534683
 20
258.2558548905933
 30
0.0
 11
336.3534886534683
 21
250.3508158766408
 31
0.0
  0
ARC
  5
11E2
330
2
100
AcDbEntity
  8
0
100
AcDbCircle
 10
435.0440548004802
 20
254.3033353836201
 30
0.0
 40
6.0
100
AcDbArc
 50
109.4712206344723
 51
70.52877936552764
  0
LINE
  5
11E3
330
2
100
AcDbEntity
  8
0
100
AcDbLine
 10
437.0440548004802
 20
262.10333538362
 30
0.0
 11
433.0440548004802
 21
262.10333538362
 31
0.0
  0
LINE
  5
11E4
330
2
100
AcDbEntity
  8
0
100
AcDbLine
 10
437.0440548004802
 20
259.9601896331126
 30
0.0
 11
437.0440548004802
 21
262.10333538362
 31
0.0
  0
LINE
  5
11E5
330
2
100
AcDbEntity
  8
0
100
AcDbLine
 10
433.0440548004802
 20
259.9601896331126
 30
0.0
 11
433.0440548004802
 21
262.10333538362
 31
0.0
  0
CIRCLE
  5
11E6
330
2
100
AcDbEntity
  8
0
100
AcDbCircle
 10
435.0440548004811
 20
254.3033353836203
 30
0.0
 40
9.500004214613113
  0
ARC
  5
11E7
330
2
100
AcDbEntity
  8
0
100
AcDbCircle
 10
161.9210645616325
 20
254.3033353836205
 30
0.0
 40
6.0
100
AcDbArc
 50
109.4712206344723
 51
70.52877936552764
  0
LINE
  5
11E8
330
2
100
AcDbEntity
  8
0
100
AcDbLine
 10
163.9210645616325
 20
262.1033353836208
 30
0.0
 11
159.9210645616325
 21
262.1033353836208
 31
0.0
  0
LINE
  5
11E9
330
2
100
AcDbEntity
  8
0
100
AcDbLine
 10
163.9210645616325
 20
259.960189633113
 30
0.0
 11
163.9210645616325
 21
262.1033353836208
 31
0.0
  0
LINE
  5
11EA
330
2
100
AcDbEntity
  8
0
100
AcDbLine
 10
159.9210645616325
 20
259.960189633113
 30
0.0
 11
159.9210645616325
 21
262.1033353836208
 31
0.0
  0
CIRCLE
  5
11EB
330
2
100
AcDbEntity
  8
0
100
AcDbCircle
 10
161.9210645616325
 20
254.303335383621
 30
0.0
 40
9.500004214613113
  0
LINE
  5
11EC
330
2
100
AcDbEntity
  8
0
100
AcDbLine
 10
444.5440590150978
 20
393.3808056716818
 30
0.0
 11
444.5440590150978
 21
403.3808056716759
 31
0.0
  0
LINE
  5
11ED
330
2
100
AcDbEntity
  8
0
100
AcDbLine
 10
425.5440590150969
 20
393.3808056716818
 30
0.0
 11
425.5440590150969
 21
403.3808056716759
 31
0.0
  0
LINE
  5
11EE
330
2
100
AcDbEntity
  8
0
100
AcDbLine
 10
425.5440590150977
 20
393.3808056716818
 30
0.0
 11
444.5440590150978
 21
393.3808056716818
 31
0.0
  0
LINE
  5
11EF
330
2
100
AcDbEntity
  8
0
100
AcDbLine
 10
444.5440590150978
 20
484.3808056716816
 30
0.0
 11
444.5440590150978
 21
482.3808056716821
 31
0.0
  0
LINE
  5
11F0
330
2
100
AcDbEntity
  8
0
100
AcDbLine
 10
425.5440590150977
 20
484.3808056716816
 30
0.0
 11
425.5440590150977
 21
482.3808056716821
 31
0.0
  0
LINE
  5
11F1
330
2
100
AcDbEntity
  8
0
100
AcDbLine
 10
444.5440590150978
 20
484.3808056716818
 30
0.0
 11
425.5440590150969
 21
484.3808056716816
 31
0.0
  0
CIRCLE
  5
11F2
330
2
100
AcDbEntity
  8
HOJO
100
AcDbCircle
 10
435.0440548004802
 20
399.8808056716816
 30
0.0
 40
1.499999999999772
  0
CIRCLE
  5
11F3
330
2
100
AcDbEntity
  8
0
100
AcDbCircle
 10
435.0440548004802
 20
399.8808056716816
 30
0.0
 40
1.199999999999818
  0
LINE
  5
11F4
330
2
100
AcDbEntity
  8
CENTER
100
AcDbLine
 10
438.9965743074566
 20
399.8808056716818
 30
0.0
 11
431.0915352935047
 21
399.8808056716818
 31
0.0
  0
SPLINE
  5
11F5
330
2
100
AcDbEntity
  8
HOJO
100
AcDbSpline
210
0.0
220
0.0
230
1.0
 70
     8
 71
     3
 72
    30
 73
    26
 74
     0
 42
0.0000000001
 43
0.0000000001
 40
1.073701665119103
 40
1.073701665119103
 40
1.073701665119103
 40
1.073701665119103
 40
2.18150891874031
 40
3.841179975812767
 40
6.934876563096535
 40
11.04909901775557
 40
16.09897812345541
 40
18.38468990949584
 40
20.32701975216962
 40
26.5117454990493
 40
30.46491644453404
 40
35.83302429770391
 40
42.45273464572102
 40
47.20758177775013
 40
52.22079021395813
 40
57.21977993322538
 40
60.62363657950815
 40
66.61159553569167
 40
72.16084371902148
 40
75.98229293129505
 40
79.52171565640792
 40
82.70276676995699
 40
87.04688362939927
 40
92.17949855136799
 40
93.21086260406284
 40
93.21086260406284
 40
93.21086260406284
 40
93.21086260406284
 10
273.8534886534683
 20
73.37969927327526
 30
0.0
 10
274.2546318476992
 20
73.44687139556572
 30
0.0
 10
275.2591814539122
 20
73.64392334141007
 30
0.0
 10
277.0136958471206
 20
74.63620955660985
 30
0.0
 10
280.0568988956641
 20
73.90679397041413
 30
0.0
 10
283.5139249138841
 20
76.5379461357254
 30
0.0
 10
282.8331110078883
 20
80.94045148395276
 30
0.0
 10
283.9272762139511
 20
83.8086380811235
 30
0.0
 10
287.6576099772004
 20
86.26780651520972
 30
0.0
 10
292.3539232279011
 20
83.95457498068457
 30
0.0
 10
297.2907413213901
 20
85.74046257368923
 30
0.0
 10
302.6559462799736
 20
84.30663595705528
 30
0.0
 10
308.2433381181111
 20
86.08183622464389
 30
0.0
 10
313.5806994005573
 20
83.66155974038202
 30
0.0
 10
318.4444890806574
 20
86.00924002666397
 30
0.0
 10
322.8682490358963
 20
83.98373844059916
 30
0.0
 10
327.6307013541376
 20
85.56734638535862
 30
0.0
 10
332.4775454012154
 20
83.78938671647734
 30
0.0
 10
338.0684443052063
 20
86.30063786305845
 30
0.0
 10
341.1238561064759
 20
82.19266471914716
 30
0.0
 10
341.4479355217648
 20
78.89001433663043
 30
0.0
 10
342.056277931439
 20
74.65163120337684
 30
0.0
 10
347.2193398808562
 20
74.68523798980254
 30
0.0
 10
350.4782929755123
 20
74.55576878259467
 30
0.0
 10
352.5110655529082
 20
74.51716796043069
 30
0.0
 10
352.8534886534738
 20
74.51141770073309
 30
0.0
  0
CIRCLE
  5
11F6
330
2
100
AcDbEntity
  8
0
100
AcDbCircle
 10
435.0440548004802
 20
254.3033353836205
 30
0.0
 40
18.0774
  0
LINE
  5
11F7
330
2
100
AcDbEntity
  8
PHAS
  6
SEKKEI_P_S
100
AcDbLine
 10
235.8534886534684
 20
242.7672248390895
 30
0.0
 11
235.8534886534684
 21
265.8394309281443
 31
0.0
  0
LINE
  5
11F8
330
2
100
AcDbEntity
  8
PHAS
  6
SEKKEI_P_S
100
AcDbLine
 10
239.9852104099557
 20
237.8431926609002
 30
0.0
 11
250.7270846534678
 21
235.9490263836168
 31
0.0
  0
ARC
  5
11F9
330
2
100
AcDbEntity
  8
PHAS
  6
SEKKEI_P_S
100
AcDbCircle
 10
240.8534886534683
 20
242.7672248390895
 30
0.0
 40
5.0
100
AcDbArc
 50
180.0
 51
259.9995653374257
  0
LINE
  5
11FA
330
2
100
AcDbEntity
  8
PHAS
  6
SEKKEI_P_S
100
AcDbLine
 10
251.5534856534699
 20
276.184225383617
 30
0.0
 11
251.5534856534681
 21
232.422430383617
 31
0.0
  0
ARC
  5
11FB
330
2
100
AcDbEntity
  8
PHAS
  6
SEKKEI_P_S
100
AcDbCircle
 10
250.553485653468
 20
234.9642243836169
 30
0.0
 40
1.0
100
AcDbArc
 50
0.0
 51
79.99999999999483
  0
LINE
  5
11FC
330
2
100
AcDbEntity
  8
PHAS
  6
SEKKEI_P_S
100
AcDbLine
 10
261.3534886534665
 20
228.3033353836169
 30
0.0
 11
261.3534886534683
 21
280.3033353836169
 31
0.0
  0
ARC
  5
11FD
330
2
100
AcDbEntity
  8
PHAS
  6
SEKKEI_P_S
100
AcDbCircle
 10
240.8534886534683
 20
265.8394309281443
 30
0.0
 40
5.0
100
AcDbArc
 50
100.0004346625742
 51
180.0
  0
LINE
  5
11FE
330
2
100
AcDbEntity
  8
PHAS
  6
SEKKEI_P_S
100
AcDbLine
 10
239.9852104099557
 20
270.7634631063335
 30
0.0
 11
250.7270846534678
 21
272.6576293836169
 31
0.0
  0
ARC
  5
11FF
330
2
100
AcDbEntity
  8
PHAS
  6
SEKKEI_P_S
100
AcDbCircle
 10
254.553485653468
 20
276.1842253836168
 30
0.0
 40
3.0
100
AcDbArc
 50
103.0417940599507
 51
179.9999999999967
  0
ARC
  5
1200
330
2
100
AcDbEntity
  8
PHAS
  6
SEKKEI_P_S
100
AcDbCircle
 10
250.553485653468
 20
273.6424313836169
 30
0.0
 40
1.0
100
AcDbArc
 50
280.0000000000051
 51
0.0
  0
LINE
  5
1201
330
2
100
AcDbEntity
  8
PHAS
  6
SEKKEI_P_S
100
AcDbLine
 10
258.8534886534683
 20
280.2596953836171
 30
0.0
 11
253.8765004251084
 21
279.1068425327803
 31
0.0
  0
LINE
  5
1202
330
2
100
AcDbEntity
  8
PHAS
  6
SEKKEI_P_S
100
AcDbLine
 10
258.8534886534683
 20
280.2596953836171
 30
0.0
 11
261.3534886534683
 21
280.3033353836169
 31
0.0
  0
ARC
  5
1203
330
2
100
AcDbEntity
  8
PHAS
  6
SEKKEI_P_S
100
AcDbCircle
 10
254.553485653468
 20
232.422445383617
 30
0.0
 40
3.0
100
AcDbArc
 50
180.0
 51
256.9582059400491
  0
LINE
  5
1204
330
2
100
AcDbEntity
  8
PHAS
  6
SEKKEI_P_S
100
AcDbLine
 10
258.8534886534683
 20
228.3469753836168
 30
0.0
 11
253.8765004251084
 21
229.4998282344536
 31
0.0
  0
LINE
  5
1205
330
2
100
AcDbEntity
  8
PHAS
  6
SEKKEI_P_S
100
AcDbLine
 10
258.8534886534683
 20
228.3469753836168
 30
0.0
 11
261.3534886534665
 21
228.3033353836169
 31
0.0
  0
ARC
  5
1206
330
2
100
AcDbEntity
  8
0
100
AcDbCircle
 10
435.0440548004811
 20
254.3033353836203
 30
0.0
 40
7.154704752992188
100
AcDbArc
 50
106.2325341514329
 51
73.76746584856705
  0
ARC
  5
1207
330
2
100
AcDbEntity
  8
0
100
AcDbCircle
 10
161.9210645616325
 20
254.3033353836205
 30
0.0
 40
7.154704752992188
100
AcDbArc
 50
106.2325341514329
 51
73.76746584856705
  0
CIRCLE
  5
1208
330
2
100
AcDbEntity
  8
0
100
AcDbCircle
 10
435.0440548004802
 20
254.3033353836205
 30
0.0
 40
22.0
  0
LINE
  5
1235
330
2
100
AcDbEntity
  8
CENTER
100
AcDbLine
 10
723.2039506210602
 20
254.3033353836101
 30
0.0
 11
618.2039506210607
 21
254.3033353836103
 31
0.0
  0
LINE
  5
1236
330
2
100
AcDbEntity
  8
CENTER
100
AcDbLine
 10
678.2039506210566
 20
292.8033353836105
 30
0.0
 11
678.203950621057
 21
215.80333538361
 31
0.0
  0
LINE
  5
1237
330
2
100
AcDbEntity
  8
0
100
AcDbLine
 10
642.2039506210543
 20
229.3033353836168
 30
0.0
 11
642.2039506210543
 21
279.3033353836168
 31
0.0
  0
LINE
  5
1238
330
2
100
AcDbEntity
  8
0
100
AcDbLine
 10
645.2039506210543
 20
279.3033353836168
 30
0.0
 11
642.2039506210543
 21
279.3033353836168
 31
0.0
  0
LINE
  5
1239
330
2
100
AcDbEntity
  8
0
100
AcDbLine
 10
645.2039506210543
 20
229.3033353836168
 30
0.0
 11
642.2039506210543
 21
229.3033353836168
 31
0.0
  0
LINE
  5
123A
330
2
100
AcDbEntity
  8
0
100
AcDbLine
 10
645.203950621057
 20
284.8451748245908
 30
0.0
 11
645.203950621057
 21
223.761495942619
 31
0.0
  0
LINE
  5
123B
330
2
100
AcDbEntity
  8
0
100
AcDbLine
 10
706.2523314252133
 20
223.2557286223956
 30
0.0
 11
678.203950621057
 21
222.80333538361
 31
0.0
  0
ARC
  5
123C
330
2
100
AcDbEntity
  8
0
100
AcDbCircle
 10
706.203950621057
 20
226.2553384799922
 30
0.0
 40
3.0
100
AcDbArc
 50
270.9240453527669
 51
315.6481997532208
  0
LINE
  5
123D
330
2
100
AcDbEntity
  8
0
100
AcDbLine
 10
650.1555698169016
 20
223.2557286223956
 30
0.0
 11
678.203950621057
 21
222.80333538361
 31
0.0
  0
ARC
  5
123E
330
2
100
AcDbEntity
  8
0
100
AcDbCircle
 10
650.2039506210571
 20
226.2553384799922
 30
0.0
 40
3.0
100
AcDbArc
 50
224.3518002499902
 51
269.0759546471809
  0
LINE
  5
123F
330
2
100
AcDbEntity
  8
0
100
AcDbLine
 10
706.2523314252133
 20
285.3509421448249
 30
0.0
 11
678.203950621057
 21
285.8033353836105
 31
0.0
  0
LINE
  5
1240
330
2
100
AcDbEntity
  8
0
100
AcDbLine
 10
650.1555698169016
 20
285.3509421448249
 30
0.0
 11
658.8845642061581
 21
285.4917323769125
 31
0.0
  0
ARC
  5
1241
330
2
100
AcDbEntity
  8
0
100
AcDbCircle
 10
706.2039506210579
 20
282.3513322872282
 30
0.0
 40
3.0
100
AcDbArc
 50
44.35180024240783
 51
89.07595464718097
  0
ARC
  5
1242
330
2
100
AcDbEntity
  8
0
100
AcDbCircle
 10
650.2039506210571
 20
282.3513322872285
 30
0.0
 40
3.0
100
AcDbArc
 50
90.9240453527669
 51
135.6481997539739
  0
LINE
  5
1243
330
2
100
AcDbEntity
  8
0
100
AcDbLine
 10
635.2039506210552
 20
274.3719578339991
 30
0.0
 11
635.2039506210552
 21
234.2347129332186
 31
0.0
  0
LINE
  5
1244
330
2
100
AcDbEntity
  8
0
100
AcDbLine
 10
640.2737496144603
 20
232.1262941015869
 30
0.0
 11
637.1341516276501
 21
232.2359312791808
 31
0.0
  0
ARC
  5
1245
330
2
100
AcDbEntity
  8
0
100
AcDbCircle
 10
640.2039506210552
 20
230.127512447549
 30
0.0
 40
2.0
100
AcDbArc
 50
0.0
 51
87.99999999999636
  0
ARC
  5
1246
330
2
100
AcDbEntity
  8
0
100
AcDbCircle
 10
637.2039506210552
 20
234.2347129332186
 30
0.0
 40
2.0
100
AcDbArc
 50
180.0
 51
267.9999999999963
  0
LINE
  5
1247
330
2
100
AcDbEntity
  8
0
100
AcDbLine
 10
640.273749614484
 20
276.4803766656271
 30
0.0
 11
637.1341516276737
 21
276.370739488036
 31
0.0
  0
ARC
  5
1248
330
2
100
AcDbEntity
  8
0
100
AcDbCircle
 10
640.2039506210806
 20
278.479158319665
 30
0.0
 40
2.0
100
AcDbArc
 50
271.9999999999515
 51
359.9999999999478
  0
ARC
  5
1249
330
2
100
AcDbEntity
  8
0
100
AcDbCircle
 10
637.2039506210761
 20
274.3719578339991
 30
0.0
 40
2.0
100
AcDbArc
 50
91.99999999995149
 51
179.9999999999479
  0
LINE
  5
124A
330
2
100
AcDbEntity
  8
0
100
AcDbLine
 10
648.5813374164666
 20
284.8746488326327
 30
0.0
 11
645.203950621057
 21
284.8451748245908
 31
0.0
  0
LINE
  5
124B
330
2
100
AcDbEntity
  8
0
100
AcDbLine
 10
648.5813374164676
 20
223.7320219345759
 30
0.0
 11
645.203950621057
 21
223.761495942619
 31
0.0
  0
LINE
  5
124C
330
2
100
AcDbEntity
  8
0
100
AcDbLine
 10
714.2039506210616
 20
276.7259851144213
 30
0.0
 11
714.2039506210616
 21
231.8806856527991
 31
0.0
  0
LINE
  5
124D
330
2
100
AcDbEntity
  8
0
100
AcDbLine
 10
709.5039506210609
 20
277.3033353836104
 30
0.0
 11
709.3329828791188
 21
277.3033353836104
 31
0.0
  0
LINE
  5
124E
330
2
100
AcDbEntity
  8
0
100
AcDbLine
 10
713.2039506210607
 20
277.3033353836109
 30
0.0
 11
714.2039506210616
 21
276.7259851144213
 31
0.0
  0
LINE
  5
124F
330
2
100
AcDbEntity
  8
0
100
AcDbLine
 10
709.7039506210616
 20
277.1033353836102
 30
0.0
 11
709.5039506210609
 21
277.3033353836104
 31
0.0
  0
LINE
  5
1250
330
2
100
AcDbEntity
  8
0
100
AcDbLine
 10
713.2039506210616
 20
277.3033353836109
 30
0.0
 11
711.9039506210604
 21
277.3033353836104
 31
0.0
  0
LINE
  5
1251
330
2
100
AcDbEntity
  8
0
100
AcDbLine
 10
711.7039506210616
 20
277.1033353836106
 30
0.0
 11
711.7039506210616
 21
231.5033353836096
 31
0.0
  0
LINE
  5
1252
330
2
100
AcDbEntity
  8
0
100
AcDbLine
 10
711.5039506210608
 20
276.6033353836106
 30
0.0
 11
709.9039506210605
 21
276.6033353836104
 31
0.0
  0
LINE
  5
1253
330
2
100
AcDbEntity
  8
0
100
AcDbLine
 10
709.7039506210616
 20
277.1033353836102
 30
0.0
 11
709.7039506210616
 21
231.5033353836098
 31
0.0
  0
LINE
  5
1254
330
2
100
AcDbEntity
  8
0
100
AcDbLine
 10
709.5039506210609
 20
231.30333538361
 30
0.0
 11
709.3329828791186
 21
231.30333538361
 31
0.0
  0
LINE
  5
1255
330
2
100
AcDbEntity
  8
0
100
AcDbLine
 10
711.5039506210608
 20
232.0033353836096
 30
0.0
 11
709.9039506210605
 21
232.0033353836098
 31
0.0
  0
LINE
  5
1256
330
2
100
AcDbEntity
  8
0
100
AcDbLine
 10
709.7039506210616
 20
231.5033353836098
 30
0.0
 11
709.5039506210609
 21
231.30333538361
 31
0.0
  0
LINE
  5
1257
330
2
100
AcDbEntity
  8
0
100
AcDbLine
 10
713.2039506210607
 20
231.3033353836095
 30
0.0
 11
714.2039506210616
 21
231.8806856527991
 31
0.0
  0
LINE
  5
1258
330
2
100
AcDbEntity
  8
0
100
AcDbLine
 10
713.2039506210616
 20
231.3033353836095
 30
0.0
 11
711.9039506210604
 21
231.3033353836095
 31
0.0
  0
ARC
  5
1259
330
2
100
AcDbEntity
  8
0
100
AcDbCircle
 10
711.9039506210604
 20
231.5033353836096
 30
0.0
 40
0.2
100
AcDbArc
 50
180.0
 51
270.0
  0
ARC
  5
125A
330
2
100
AcDbEntity
  8
0
100
AcDbCircle
 10
711.5039506210608
 20
231.8033353836095
 30
0.0
 40
0.2
100
AcDbArc
 50
0.0
 51
90.0
  0
ARC
  5
125B
330
2
100
AcDbEntity
  8
0
100
AcDbCircle
 10
709.9039506210605
 20
231.80333538361
 30
0.0
 40
0.2
100
AcDbArc
 50
90.0
 51
180.0
  0
ARC
  5
125C
330
2
100
AcDbEntity
  8
0
100
AcDbCircle
 10
711.9039506210604
 20
277.1033353836106
 30
0.0
 40
0.2
100
AcDbArc
 50
90.0
 51
180.0
  0
ARC
  5
125D
330
2
100
AcDbEntity
  8
0
100
AcDbCircle
 10
711.5039506210608
 20
276.8033353836107
 30
0.0
 40
0.2
100
AcDbArc
 50
270.0
 51
0.0
  0
ARC
  5
125E
330
2
100
AcDbEntity
  8
0
100
AcDbCircle
 10
709.9039506210605
 20
276.8033353836104
 30
0.0
 40
0.2
100
AcDbArc
 50
180.0
 51
270.0
  0
LINE
  5
125F
330
2
100
AcDbEntity
  8
0
100
AcDbLine
 10
713.2039506210607
 20
277.3033353836109
 30
0.0
 11
713.2039506210607
 21
231.3033353836095
 31
0.0
  0
LINE
  5
1260
330
2
100
AcDbEntity
  8
0
100
AcDbLine
 10
709.5039506210609
 20
231.30333538361
 30
0.0
 11
709.5039506210609
 21
277.3033353836104
 31
0.0
  0
LINE
  5
1261
330
2
100
AcDbEntity
  8
0
100
AcDbLine
 10
709.7039506210634
 20
224.0533353836066
 30
0.0
 11
708.2413956788463
 21
224.0533353836064
 31
0.0
  0
LINE
  5
1262
330
2
100
AcDbEntity
  8
0
100
AcDbLine
 10
709.7039506210634
 20
232.5533353836066
 30
0.0
 11
709.7039506210634
 21
224.0533353836066
 31
0.0
  0
LINE
  5
1263
330
2
100
AcDbEntity
  8
0
100
AcDbLine
 10
709.7039506210634
 20
224.0533353836066
 30
0.0
 11
710.0039506210645
 21
224.5729506258775
 31
0.0
  0
LINE
  5
1264
330
2
100
AcDbEntity
  8
0
100
AcDbLine
 10
710.0039506210645
 20
232.0033353836098
 30
0.0
 11
710.0039506210645
 21
224.5729506258775
 31
0.0
  0
LINE
  5
1265
330
2
100
AcDbEntity
  8
0
100
AcDbLine
 10
709.7039506210634
 20
284.5533353836139
 30
0.0
 11
708.2413956788463
 21
284.5533353836136
 31
0.0
  0
LINE
  5
1266
330
2
100
AcDbEntity
  8
0
100
AcDbLine
 10
709.7039506210634
 20
276.0533353836139
 30
0.0
 11
709.7039506210634
 21
284.5533353836139
 31
0.0
  0
LINE
  5
1267
330
2
100
AcDbEntity
  8
0
100
AcDbLine
 10
709.7039506210634
 20
284.5533353836139
 30
0.0
 11
710.0039506210645
 21
284.0337201413429
 31
0.0
  0
LINE
  5
1268
330
2
100
AcDbEntity
  8
0
100
AcDbLine
 10
710.0039506210635
 20
276.6033353836106
 30
0.0
 11
710.0039506210645
 21
284.0337201413429
 31
0.0
  0
LINE
  5
1269
330
2
100
AcDbEntity
  8
0
100
AcDbLine
 10
625.2039506210607
 20
263.8033395982271
 30
0.0
 11
635.2039506210552
 21
263.8033395982271
 31
0.0
  0
LINE
  5
126A
330
2
100
AcDbEntity
  8
0
100
AcDbLine
 10
625.2039506210607
 20
244.8033395982271
 30
0.0
 11
635.2039506210552
 21
244.8033395982271
 31
0.0
  0
LINE
  5
126B
330
2
100
AcDbEntity
  8
0
100
AcDbLine
 10
625.2039506210607
 20
244.8033395982271
 30
0.0
 11
625.2039506210607
 21
263.8033395982271
 31
0.0
  0
LINE
  5
126C
330
2
100
AcDbEntity
  8
0
100
AcDbLine
 10
716.2039506210606
 20
263.8033395982271
 30
0.0
 11
714.2039506210607
 21
263.8033395982271
 31
0.0
  0
LINE
  5
126D
330
2
100
AcDbEntity
  8
0
100
AcDbLine
 10
716.2039506210606
 20
244.8033395982271
 30
0.0
 11
714.2039506210607
 21
244.8033395982271
 31
0.0
  0
LINE
  5
126E
330
2
100
AcDbEntity
  8
0
100
AcDbLine
 10
716.2039506210606
 20
263.8033395982271
 30
0.0
 11
716.2039506210606
 21
244.8033395982271
 31
0.0
  0
LINE
  5
1276
330
2
100
AcDbEntity
  8
0
100
AcDbLine
 10
63.92106456163344
 20
254.303335383621
 30
0.0
 11
63.46601434194861
 21
280.3731450093703
 31
0.0
  0
LINE
  5
1277
330
2
100
AcDbEntity
  8
0
100
AcDbLine
 10
88.9210645616248
 20
254.303335383621
 30
0.0
 11
89.44502114236764
 21
284.3207877900588
 31
0.0
  0
LINE
  5
1278
330
2
100
AcDbEntity
  8
0
100
AcDbLine
 10
96.92106456163253
 20
254.303335383621
 30
0.0
 11
53.92106456163253
 21
254.303335383621
 31
0.0
  0
ARC
  5
1279
330
2
100
AcDbEntity
  8
0
100
AcDbCircle
 10
81.00462918633036
 20
229.0645689228469
 30
0.0
 40
3.0
100
AcDbArc
 50
90.0
 51
179.0000000000242
  0
LINE
  5
127A
330
2
100
AcDbEntity
  8
0
100
AcDbLine
 10
66.53334243326788
 20
232.0645689228465
 30
0.0
 11
81.00462918633036
 21
232.0645689228465
 31
0.0
  0
LINE
  5
127B
330
2
100
AcDbEntity
  8
0
100
AcDbLine
 10
84.41536982940386
 20
224.303335383621
 30
0.0
 11
53.92106456163253
 21
224.303335383621
 31
0.0
  0
LINE
  5
127C
330
2
100
AcDbEntity
  8
0
100
AcDbLine
 10
63.92106456163253
 20
254.303335383621
 30
0.0
 11
63.46601434194815
 21
228.2335257578718
 31
0.0
  0
ARC
  5
127D
330
2
100
AcDbEntity
  8
0
100
AcDbCircle
 10
59.46662356132299
 20
228.303335383621
 30
0.0
 40
4.0
100
AcDbArc
 50
270.0
 51
358.9999999999982
  0
ARC
  5
127E
330
2
100
AcDbEntity
  8
0
100
AcDbCircle
 10
75.95567003540179
 20
226.303335383621
 30
0.0
 40
2.0
100
AcDbArc
 50
270.0
 51
359.0000000000242
  0
LINE
  5
127F
330
2
100
AcDbEntity
  8
0
100
AcDbLine
 10
77.95536542571415
 20
226.2684305707464
 30
0.0
 11
78.00508610086069
 21
229.1169261421584
 31
0.0
  0
LINE
  5
1280
330
2
100
AcDbEntity
  8
0
100
AcDbLine
 10
88.92106456162435
 20
254.303335383621
 30
0.0
 11
89.44502114236673
 21
224.2858829771837
 31
0.0
  0
ARC
  5
1281
330
2
100
AcDbEntity
  8
0
100
AcDbCircle
 10
87.79911752645864
 20
221.303335383621
 30
0.0
 40
3.0
100
AcDbArc
 50
48.59037789073998
 51
61.24284295859403
  0
ARC
  5
1282
330
2
100
AcDbEntity
  8
0
100
AcDbCircle
 10
90.44486883752313
 20
224.303335383621
 30
0.0
 40
1.0
100
AcDbArc
 50
181.0000000000147
 51
270.0
  0
LINE
  5
1283
330
2
100
AcDbEntity
  8
0
100
AcDbLine
 10
96.92106456163253
 20
223.303335383621
 30
0.0
 11
90.44486883752313
 21
223.303335383621
 31
0.0
  0
LINE
  5
1284
330
2
100
AcDbEntity
  8
0
100
AcDbLine
 10
84.41536982940432
 20
284.303335383621
 30
0.0
 11
53.92106456163253
 21
284.303335383621
 31
0.0
  0
LINE
  5
1285
330
2
100
AcDbEntity
  8
CENTER
  6
CENS
100
AcDbLine
 10
67.92106456163253
 20
293.3033353836242
 30
0.0
 11
67.92106456163253
 21
270.8209256658708
 31
0.0
  0
ARC
  5
1286
330
2
100
AcDbEntity
  8
0
100
AcDbCircle
 10
59.46662356132299
 20
280.303335383621
 30
0.0
 40
4.0
100
AcDbArc
 50
1.000000000001775
 51
90.0
  0
ARC
  5
1287
330
2
100
AcDbEntity
  8
0
100
AcDbCircle
 10
87.79911752646
 20
287.303335383621
 30
0.0
 40
3.0
100
AcDbArc
 50
298.7571570414059
 51
311.4096221092513
  0
ARC
  5
1288
330
2
100
AcDbEntity
  8
0
100
AcDbCircle
 10
90.44486883752403
 20
284.303335383621
 30
0.0
 40
1.0
100
AcDbArc
 50
90.0
 51
178.9999999999851
  0
LINE
  5
1289
330
2
100
AcDbEntity
  8
0
100
AcDbLine
 10
96.92106456163253
 20
285.303335383621
 30
0.0
 11
90.44486883752403
 21
285.303335383621
 31
0.0
  0
LINE
  5
128A
330
2
100
AcDbEntity
  8
0
100
AcDbLine
 10
53.92106456163253
 20
284.303335383621
 30
0.0
 11
53.92106456163253
 21
224.303335383621
 31
0.0
  0
LINE
  5
128B
330
2
100
AcDbEntity
  8
0
100
AcDbLine
 10
88.32898942900408
 20
284.6733353836209
 30
0.0
 11
89.32898942900408
 21
284.6733353836209
 31
0.0
  0
LINE
  5
128C
330
2
100
AcDbEntity
  8
0
100
AcDbLine
 10
89.32898942900408
 20
284.6733353836209
 30
0.0
 11
89.32898942900408
 21
277.6733353836209
 31
0.0
  0
LINE
  5
128D
330
2
100
AcDbEntity
  8
0
100
AcDbLine
 10
89.32898942900408
 20
277.6733353836209
 30
0.0
 11
88.32898942900408
 21
277.6733353836209
 31
0.0
  0
LINE
  5
128E
330
2
100
AcDbEntity
  8
0
100
AcDbLine
 10
88.32898942900408
 20
277.6733353836209
 30
0.0
 11
88.32898942900408
 21
284.6733353836209
 31
0.0
  0
LINE
  5
128F
330
2
100
AcDbEntity
  8
0
100
AcDbLine
 10
84.32898942900408
 20
284.1537201413505
 30
0.0
 11
84.32898942900408
 21
278.1929506258914
 31
0.0
  0
LINE
  5
1290
330
2
100
AcDbEntity
  8
0
100
AcDbLine
 10
84.6289894290038
 20
277.6733353836209
 30
0.0
 11
84.6289894290038
 21
284.6733353836209
 31
0.0
  0
LINE
  5
1291
330
2
100
AcDbEntity
  8
0
100
AcDbLine
 10
84.6289894290038
 20
277.6733353836209
 30
0.0
 11
88.32898942900408
 21
277.6733353836209
 31
0.0
  0
LINE
  5
1292
330
2
100
AcDbEntity
  8
0
100
AcDbLine
 10
84.6289894290038
 20
277.6733353836209
 30
0.0
 11
84.32898942900408
 21
278.1929506258914
 31
0.0
  0
LINE
  5
1293
330
2
100
AcDbEntity
  8
0
100
AcDbLine
 10
84.32898942900408
 20
284.1537201413505
 30
0.0
 11
84.6289894290038
 21
284.6733353836209
 31
0.0
  0
LINE
  5
1294
330
2
100
AcDbEntity
  8
0
100
AcDbLine
 10
88.32898942900408
 20
284.6733353836209
 30
0.0
 11
84.6289894290038
 21
284.6733353836209
 31
0.0
  0
LINE
  5
1295
330
2
100
AcDbEntity
  8
CENTER
  6
CENS
100
AcDbLine
 10
79.39008215625415
 20
281.1733353836213
 30
0.0
 11
102.3900392458766
 21
281.1733353836213
 31
0.0
  0
LINE
  5
1296
330
2
100
AcDbEntity
  8
CENTER
  6
CENS
100
AcDbLine
 10
79.39008215625415
 20
227.4333353836207
 30
0.0
 11
102.3900392458766
 21
227.4333353836207
 31
0.0
  0
LINE
  5
1297
330
2
100
AcDbEntity
  8
0
100
AcDbLine
 10
88.32898942900408
 20
223.9333353836211
 30
0.0
 11
89.32898942900408
 21
223.9333353836211
 31
0.0
  0
LINE
  5
1298
330
2
100
AcDbEntity
  8
0
100
AcDbLine
 10
89.32898942900408
 20
223.9333353836211
 30
0.0
 11
89.32898942900408
 21
230.9333353836211
 31
0.0
  0
LINE
  5
1299
330
2
100
AcDbEntity
  8
0
100
AcDbLine
 10
89.32898942900408
 20
230.9333353836211
 30
0.0
 11
88.32898942900408
 21
230.9333353836211
 31
0.0
  0
LINE
  5
129A
330
2
100
AcDbEntity
  8
0
100
AcDbLine
 10
88.32898942900408
 20
230.9333353836211
 30
0.0
 11
88.32898942900408
 21
223.9333353836211
 31
0.0
  0
LINE
  5
129B
330
2
100
AcDbEntity
  8
0
100
AcDbLine
 10
84.32898942900408
 20
224.4529506258916
 30
0.0
 11
84.32898942900408
 21
230.4137201413507
 31
0.0
  0
LINE
  5
129C
330
2
100
AcDbEntity
  8
0
100
AcDbLine
 10
84.6289894290038
 20
230.9333353836211
 30
0.0
 11
84.6289894290038
 21
223.9333353836211
 31
0.0
  0
LINE
  5
129D
330
2
100
AcDbEntity
  8
0
100
AcDbLine
 10
84.6289894290038
 20
230.9333353836211
 30
0.0
 11
88.32898942900408
 21
230.9333353836211
 31
0.0
  0
LINE
  5
129E
330
2
100
AcDbEntity
  8
0
100
AcDbLine
 10
84.6289894290038
 20
230.9333353836211
 30
0.0
 11
84.32898942900408
 21
230.4137201413507
 31
0.0
  0
LINE
  5
129F
330
2
100
AcDbEntity
  8
0
100
AcDbLine
 10
84.32898942900408
 20
224.4529506258916
 30
0.0
 11
84.6289894290038
 21
223.9333353836211
 31
0.0
  0
LINE
  5
12A0
330
2
100
AcDbEntity
  8
0
100
AcDbLine
 10
88.32898942900408
 20
223.9333353836211
 30
0.0
 11
84.6289894290038
 21
223.9333353836211
 31
0.0
  0
LINE
  5
12A1
330
2
100
AcDbEntity
  8
0
100
AcDbLine
 10
62.92106456163253
 20
288.303335383621
 30
0.0
 11
72.92106456163253
 21
288.303335383621
 31
0.0
  0
ARC
  5
12A2
330
2
100
AcDbEntity
  8
0
100
AcDbCircle
 10
72.92106456163253
 20
284.303335383621
 30
0.0
 40
4.0
100
AcDbArc
 50
0.0
 51
90.0
  0
ARC
  5
12A3
330
2
100
AcDbEntity
  8
0
100
AcDbCircle
 10
62.92106456163253
 20
284.303335383621
 30
0.0
 40
4.000000000000028
100
AcDbArc
 50
90.0
 51
180.0
  0
CIRCLE
  5
12A4
330
2
100
AcDbEntity
  8
HIDS
100
AcDbCircle
 10
678.2039506210543
 20
254.303335383607
 30
0.0
 40
30.0
  0
LINE
  5
12A5
330
2
100
AcDbEntity
  8
0
100
AcDbLine
 10
648.2767151834594
 20
229.2887909942673
 30
0.0
 11
648.2039506210547
 21
254.303335383607
 31
0.0
  0
LINE
  5
12A6
330
2
100
AcDbEntity
  8
0
100
AcDbLine
 10
708.1311860586501
 20
229.2887909942668
 30
0.0
 11
708.2039506210548
 21
254.303335383607
 31
0.0
  0
LINE
  5
12A7
330
2
100
AcDbEntity
  8
0
100
AcDbLine
 10
709.2515573822778
 20
226.2549545794521
 30
0.0
 11
709.703950621053
 21
254.3033353836102
 31
0.0
  0
LINE
  5
12A8
330
2
100
AcDbEntity
  8
0
100
AcDbLine
 10
647.1563438598308
 20
226.2549545794521
 30
0.0
 11
646.7039506210556
 21
254.3033353836102
 31
0.0
  0
CIRCLE
  5
12A9
330
2
100
AcDbEntity
  8
0
100
AcDbCircle
 10
678.2039506210543
 20
254.303335383607
 30
0.0
 40
25.00000000345432
  0
LINE
  5
12AA
330
2
100
AcDbEntity
  8
0
100
AcDbLine
 10
653.2766940294886
 20
224.303335383607
 30
0.0
 11
703.131207212621
 21
224.303335383607
 31
0.0
  0
LINE
  5
12AB
330
2
100
AcDbEntity
  8
0
100
AcDbLine
 10
650.1559537174274
 20
223.303335383607
 30
0.0
 11
706.2519475246812
 21
223.303335383607
 31
0.0
  0
ARC
  5
12AC
330
2
100
AcDbEntity
  8
0
100
AcDbCircle
 10
653.2766940294886
 20
229.303335383607
 30
0.0
 40
5.0
100
AcDbArc
 50
180.1666666600049
 51
270.0
  0
ARC
  5
12AD
330
2
100
AcDbEntity
  8
0
100
AcDbCircle
 10
650.1559537174274
 20
226.303335383607
 30
0.0
 40
3.0
100
AcDbArc
 50
180.9240453527669
 51
270.0
  0
ARC
  5
12AE
330
2
100
AcDbEntity
  8
0
100
AcDbCircle
 10
703.131207212621
 20
229.303335383607
 30
0.0
 40
5.0
100
AcDbArc
 50
270.0
 51
359.833333339995
  0
ARC
  5
12AF
330
2
100
AcDbEntity
  8
0
100
AcDbCircle
 10
706.2519475246812
 20
226.303335383607
 30
0.0
 40
3.0
100
AcDbArc
 50
270.0
 51
359.0759546472331
  0
LINE
  5
12B0
330
2
100
AcDbEntity
  8
HIDS
100
AcDbLine
 10
698.2382514851359
 20
226.2684305707324
 30
0.0
 11
698.3173800213215
 21
230.801701372692
 31
0.0
  0
ARC
  5
12B1
330
2
100
AcDbEntity
  8
HIDS
100
AcDbCircle
 10
696.2385560948231
 20
226.303335383607
 30
0.0
 40
2.0
100
AcDbArc
 50
270.0
 51
358.9999999999852
  0
ARC
  5
12B2
330
2
100
AcDbEntity
  8
HIDS
100
AcDbCircle
 10
701.3169231067908
 20
230.7493441533801
 30
0.0
 40
3.0
100
AcDbArc
 50
134.4585514346973
 51
178.9999999999982
  0
LINE
  5
12B3
330
2
100
AcDbEntity
  8
0
100
AcDbLine
 10
653.2766940294886
 20
284.303335383607
 30
0.0
 11
703.131207212621
 21
284.303335383607
 31
0.0
  0
LINE
  5
12B4
330
2
100
AcDbEntity
  8
0
100
AcDbLine
 10
650.1559537174274
 20
285.3033353836071
 30
0.0
 11
658.8309672748481
 21
285.3033353836071
 31
0.0
  0
LINE
  5
12B5
330
2
100
AcDbEntity
  8
0
100
AcDbLine
 10
676.5769339672646
 20
285.3033353836071
 30
0.0
 11
706.2519475246812
 21
285.3033353836071
 31
0.0
  0
LINE
  5
12B6
330
2
100
AcDbEntity
  8
0
100
AcDbLine
 10
648.2767151834594
 20
279.3178797729468
 30
0.0
 11
648.2039506210547
 21
254.303335383607
 31
0.0
  0
LINE
  5
12B7
330
2
100
AcDbEntity
  8
0
100
AcDbLine
 10
647.1563438598308
 20
282.3517161877619
 30
0.0
 11
646.7039506210556
 21
254.3033353836102
 31
0.0
  0
LINE
  5
12B8
330
2
100
AcDbEntity
  8
HIDS
100
AcDbLine
 10
661.9539506210552
 20
284.303335383607
 30
0.0
 11
662.2015187397318
 21
270.1201673636104
 31
0.0
  0
LINE
  5
12B9
330
2
100
AcDbEntity
  8
0
100
AcDbLine
 10
646.7039506210543
 20
254.303335383607
 30
0.0
 11
648.2039506210543
 21
254.3033353835665
 31
0.0
  0
ARC
  5
12BA
330
2
100
AcDbEntity
  8
0
100
AcDbCircle
 10
653.2766940294886
 20
279.303335383607
 30
0.0
 40
5.0
100
AcDbArc
 50
90.0
 51
179.833333339995
  0
ARC
  5
12BB
330
2
100
AcDbEntity
  8
0
100
AcDbCircle
 10
650.1559537174274
 20
282.303335383607
 30
0.0
 40
3.0
100
AcDbArc
 50
90.0
 51
179.075954647233
  0
LINE
  5
12BC
330
2
100
AcDbEntity
  8
HIDS
100
AcDbLine
 10
673.4539506210543
 20
284.303335383607
 30
0.0
 11
673.3136489972093
 21
276.2654607367675
 31
0.0
  0
LINE
  5
12BD
330
2
100
AcDbEntity
  8
0
100
AcDbLine
 10
708.1311860586501
 20
279.3178797729473
 30
0.0
 11
708.2039506210548
 21
254.303335383607
 31
0.0
  0
LINE
  5
12BE
330
2
100
AcDbEntity
  8
0
100
AcDbLine
 10
709.2515573822778
 20
282.3517161877619
 30
0.0
 11
709.703950621053
 21
254.3033353836102
 31
0.0
  0
LINE
  5
12BF
330
2
100
AcDbEntity
  8
0
100
AcDbLine
 10
708.2039506210543
 20
254.3033353835939
 30
0.0
 11
709.7039506210543
 21
254.303335383607
 31
0.0
  0
ARC
  5
12C0
330
2
100
AcDbEntity
  8
0
100
AcDbCircle
 10
703.131207212621
 20
279.303335383607
 30
0.0
 40
5.0
100
AcDbArc
 50
0.1666666599919691
 51
90.0
  0
ARC
  5
12C1
330
2
100
AcDbEntity
  8
0
100
AcDbCircle
 10
706.2519475246812
 20
282.303335383607
 30
0.0
 40
3.0
100
AcDbArc
 50
0.9240453527669025
 51
90.0
  0
LINE
  5
12C2
330
2
100
AcDbEntity
  8
CENTER
100
AcDbLine
 10
653.455213279525
 20
282.5520727251363
 30
0.0
 11
653.455213279525
 21
275.5520727251363
 31
0.0
  0
LINE
  5
12C3
330
2
100
AcDbEntity
  8
CENTER
100
AcDbLine
 10
656.9552132795251
 20
279.0520727251363
 30
0.0
 11
649.955213279525
 21
279.0520727251363
 31
0.0
  0
LINE
  5
12C4
330
2
100
AcDbEntity
  8
CENTER
100
AcDbLine
 10
649.9552132795255
 20
229.5545980420778
 30
0.0
 11
656.9552132795255
 21
229.5545980420778
 31
0.0
  0
LINE
  5
12C5
330
2
100
AcDbEntity
  8
CENTER
100
AcDbLine
 10
653.4552132795255
 20
233.0545980420778
 30
0.0
 11
653.4552132795255
 21
226.0545980420778
 31
0.0
  0
LINE
  5
12C6
330
2
100
AcDbEntity
  8
CENTER
100
AcDbLine
 10
702.9526879625835
 20
226.0545980420782
 30
0.0
 11
702.9526879625835
 21
233.0545980420783
 31
0.0
  0
LINE
  5
12C7
330
2
100
AcDbEntity
  8
CENTER
100
AcDbLine
 10
699.4526879625835
 20
229.5545980420782
 30
0.0
 11
706.4526879625836
 21
229.5545980420782
 31
0.0
  0
LINE
  5
12C8
330
2
100
AcDbEntity
  8
CENTER
100
AcDbLine
 10
706.4526879625836
 20
279.0520727251363
 30
0.0
 11
699.4526879625835
 21
279.0520727251363
 31
0.0
  0
LINE
  5
12C9
330
2
100
AcDbEntity
  8
CENTER
100
AcDbLine
 10
702.9526879625835
 20
275.5520727251363
 30
0.0
 11
702.9526879625835
 21
282.5520727251363
 31
0.0
  0
CIRCLE
  5
12CA
330
2
100
AcDbEntity
  8
CENTER
100
AcDbCircle
 10
678.2039506210543
 20
254.303335383607
 30
0.0
 40
35.00000000000006
  0
LINE
  5
12CC
330
2
100
AcDbEntity
  8
0
100
AcDbLine
 10
663.4730307584003
 20
253.5533353836102
 30
0.0
 11
667.7039506210566
 21
253.5533353836102
 31
0.0
  0
LINE
  5
12CD
330
2
100
AcDbEntity
  8
0
100
AcDbLine
 10
663.4730307584003
 20
255.0533353836102
 30
0.0
 11
667.7039506210566
 21
255.0533353836102
 31
0.0
  0
LINE
  5
12CE
330
2
100
AcDbEntity
  8
0
100
AcDbLine
 10
692.2039506210566
 20
255.0533353836102
 30
0.0
 11
692.2039506210566
 21
253.5533353836102
 31
0.0
  0
LINE
  5
12CF
330
2
100
AcDbEntity
  8
0
100
AcDbLine
 10
683.6525743004798
 20
255.0533353836102
 30
0.0
 11
692.2039506210566
 21
255.0533353836102
 31
0.0
  0
LINE
  5
12D0
330
2
100
AcDbEntity
  8
0
100
AcDbLine
 10
692.2039506210566
 20
253.5533353836102
 30
0.0
 11
683.6525743004798
 21
253.5533353836102
 31
0.0
  0
LINE
  5
12D1
330
2
100
AcDbEntity
  8
HIDS
100
AcDbLine
 10
671.7039506210561
 20
267.5438980604757
 30
0.0
 11
671.7039506210561
 21
259.3033353836102
 31
0.0
  0
LINE
  5
12D2
330
2
100
AcDbEntity
  8
HIDS
100
AcDbLine
 10
669.3706172877231
 20
244.7700020502769
 30
0.0
 11
669.3706172877231
 21
242.4908537551708
 31
0.0
  0
LINE
  5
12D3
330
2
100
AcDbEntity
  8
HIDS
100
AcDbLine
 10
669.7039506210561
 20
253.5533353836102
 30
0.0
 11
669.7039506210561
 21
242.2487719323688
 31
0.0
  0
LINE
  5
12D4
330
2
100
AcDbEntity
  8
HIDS
100
AcDbLine
 10
665.2039506210561
 20
259.3033353836102
 30
0.0
 11
665.2039506210561
 21
255.0533353836102
 31
0.0
  0
LINE
  5
12D5
330
2
100
AcDbEntity
  8
HIDS
100
AcDbLine
 10
670.2039506210561
 20
259.3033353836102
 30
0.0
 11
670.2039506210561
 21
255.0533353836102
 31
0.0
  0
LINE
  5
12D6
330
2
100
AcDbEntity
  8
HIDS
100
AcDbLine
 10
664.3272615346785
 20
259.3033353836102
 30
0.0
 11
671.7039506210561
 21
259.3033353836102
 31
0.0
  0
LINE
  5
12D7
330
2
100
AcDbEntity
  8
CENTER
  6
CENS
100
AcDbLine
 10
667.7039506210566
 20
293.3033353836102
 30
0.0
 11
667.7039506210566
 21
239.1516327440148
 31
0.0
  0
LINE
  5
12D8
330
2
100
AcDbEntity
  8
HIDS
100
AcDbLine
 10
665.7039506210566
 20
259.3033353836102
 30
0.0
 11
665.7039506210566
 21
255.0533353836102
 31
0.0
  0
LINE
  5
12D9
330
2
100
AcDbEntity
  8
HIDS
100
AcDbLine
 10
666.03728395439
 20
257.6366687169437
 30
0.0
 11
666.03728395439
 21
255.0533353836102
 31
0.0
  0
LINE
  5
12DA
330
2
100
AcDbEntity
  8
HIDS
100
AcDbLine
 10
669.3706172877231
 20
257.6366687169437
 30
0.0
 11
669.3706172877231
 21
255.0533353836102
 31
0.0
  0
LINE
  5
12DB
330
2
100
AcDbEntity
  8
HIDS
100
AcDbLine
 10
669.7039506210566
 20
259.3033353836102
 30
0.0
 11
669.7039506210566
 21
255.0533353836102
 31
0.0
  0
LINE
  5
12DC
330
2
100
AcDbEntity
  8
HIDS
100
AcDbLine
 10
669.7039506210566
 20
245.1033353836099
 30
0.0
 11
666.6747485671415
 21
245.1033353836099
 31
0.0
  0
LINE
  5
12DD
330
2
100
AcDbEntity
  8
HIDS
100
AcDbLine
 10
668.9039506210568
 20
244.3033353836102
 30
0.0
 11
667.3613263999558
 21
244.3033353836102
 31
0.0
  0
LINE
  5
12DE
330
2
100
AcDbEntity
  8
0
100
AcDbLine
 10
666.5039506210563
 20
244.3033353836102
 30
0.0
 11
667.3613263999558
 21
244.3033353836102
 31
0.0
  0
LINE
  5
12DF
330
2
100
AcDbEntity
  8
0
100
AcDbLine
 10
665.7039506210566
 20
245.1033353836099
 30
0.0
 11
666.5039506210563
 21
244.3033353836102
 31
0.0
  0
LINE
  5
12E0
330
2
100
AcDbEntity
  8
0
100
AcDbLine
 10
665.7039506210566
 20
245.1033353836099
 30
0.0
 11
666.6747485671415
 21
245.1033353836099
 31
0.0
  0
LINE
  5
12E1
330
2
100
AcDbEntity
  8
HIDS
100
AcDbLine
 10
669.7039506210566
 20
245.1033353836099
 30
0.0
 11
668.9039506210568
 21
244.3033353836102
 31
0.0
  0
LINE
  5
12E2
330
2
100
AcDbEntity
  8
0
100
AcDbLine
 10
664.2039506210566
 20
259.3033353836102
 30
0.0
 11
664.3272615346785
 21
259.3033353836102
 31
0.0
  0
LINE
  5
12E3
330
2
100
AcDbEntity
  8
HIDS
100
AcDbLine
 10
669.7039506210566
 20
257.6366687169437
 30
0.0
 11
665.7039506210566
 21
257.6366687169437
 31
0.0
  0
LINE
  5
12E4
330
2
100
AcDbEntity
  8
0
100
AcDbLine
 10
664.2039506210566
 20
263.0033353836105
 30
0.0
 11
666.292926315817
 21
263.0033353836105
 31
0.0
  0
LINE
  5
12E5
330
2
100
AcDbEntity
  8
HIDS
100
AcDbLine
 10
670.6843353787856
 20
263.3033353836102
 30
0.0
 11
666.5179547285364
 21
263.3033353836102
 31
0.0
  0
LINE
  5
12E6
330
2
100
AcDbEntity
  8
0
100
AcDbLine
 10
664.2039506210566
 20
263.0033353836105
 30
0.0
 11
664.2039506210566
 21
259.3033353836102
 31
0.0
  0
LINE
  5
12E7
330
2
100
AcDbEntity
  8
HIDS
100
AcDbLine
 10
665.7039506210566
 20
259.3033353836102
 30
0.0
 11
666.03728395439
 21
257.6366687169437
 31
0.0
  0
LINE
  5
12E8
330
2
100
AcDbEntity
  8
0
100
AcDbLine
 10
664.2039506210566
 20
263.0033353836105
 30
0.0
 11
664.7235658633275
 21
263.3033353836102
 31
0.0
  0
LINE
  5
12E9
330
2
100
AcDbEntity
  8
HIDS
100
AcDbLine
 10
671.2039506210565
 20
259.3033353836102
 30
0.0
 11
671.2039506210565
 21
263.0033353836105
 31
0.0
  0
LINE
  5
12EA
330
2
100
AcDbEntity
  8
HIDS
100
AcDbLine
 10
669.7039506210566
 20
259.3033353836102
 30
0.0
 11
669.3706172877231
 21
257.6366687169437
 31
0.0
  0
LINE
  5
12EB
330
2
100
AcDbEntity
  8
HIDS
100
AcDbLine
 10
670.6843353787856
 20
263.3033353836102
 30
0.0
 11
671.2039506210565
 21
263.0033353836105
 31
0.0
  0
LINE
  5
12ED
330
2
100
AcDbEntity
  8
0
100
AcDbLine
 10
667.7039506210566
 20
255.0533353836102
 30
0.0
 11
672.7553269416334
 21
255.0533353836102
 31
0.0
  0
LINE
  5
12EE
330
2
100
AcDbEntity
  8
0
100
AcDbLine
 10
667.7039506210566
 20
253.5533353836102
 30
0.0
 11
672.7553269416334
 21
253.5533353836102
 31
0.0
  0
LINE
  5
12F0
330
2
100
AcDbEntity
  8
HIDS
100
AcDbLine
 10
666.292926315817
 20
263.0033353836105
 30
0.0
 11
671.2039506210565
 21
263.0033353836105
 31
0.0
  0
LINE
  5
12F1
330
2
100
AcDbEntity
  8
0
100
AcDbLine
 10
666.5179547285364
 20
263.3033353836102
 30
0.0
 11
664.7235658633275
 21
263.3033353836102
 31
0.0
  0
LINE
  5
12F2
330
2
100
AcDbEntity
  8
HIDS
100
AcDbLine
 10
664.3272615346785
 20
259.3033353836102
 30
0.0
 11
671.2039506210565
 21
259.3033353836102
 31
0.0
  0
LINE
  5
12F3
330
2
100
AcDbEntity
  8
0
100
AcDbLine
 10
669.7039506210566
 20
255.0533353836102
 30
0.0
 11
669.7039506210566
 21
253.5533353836102
 31
0.0
  0
LINE
  5
12F4
330
2
100
AcDbEntity
  8
HOJO
100
AcDbLine
 10
669.3706172877231
 20
255.0533353836102
 30
0.0
 11
669.3706172877231
 21
253.5533353836102
 31
0.0
  0
LINE
  5
12F5
330
2
100
AcDbEntity
  8
HOJO
100
AcDbLine
 10
666.03728395439
 20
255.0533353836102
 30
0.0
 11
666.03728395439
 21
253.5533353836102
 31
0.0
  0
LINE
  5
12F6
330
2
100
AcDbEntity
  8
0
100
AcDbLine
 10
665.7039506210566
 20
255.0533353836102
 30
0.0
 11
665.7039506210566
 21
253.5533353836102
 31
0.0
  0
LINE
  5
12F7
330
2
100
AcDbEntity
  8
HIDS
100
AcDbLine
 10
665.7039506210566
 20
253.5533353836102
 30
0.0
 11
665.7039506210566
 21
246.4731055019273
 31
0.0
  0
LINE
  5
12F8
330
2
100
AcDbEntity
  8
HIDS
100
AcDbLine
 10
666.03728395439
 20
253.5533353836102
 30
0.0
 11
666.03728395439
 21
245.9645871428837
 31
0.0
  0
LINE
  5
12F9
330
2
100
AcDbEntity
  8
HIDS
100
AcDbLine
 10
669.3706172877231
 20
253.5533353836102
 30
0.0
 11
669.3706172877231
 21
244.7700020502769
 31
0.0
  0
LINE
  5
12FA
330
2
100
AcDbEntity
  8
HIDS
100
AcDbLine
 10
669.7039506210566
 20
253.5533353836102
 30
0.0
 11
669.7039506210566
 21
245.1033353836099
 31
0.0
  0
LINE
  5
12FB
330
2
100
AcDbEntity
  8
HOJO
100
AcDbLine
 10
666.03728395439
 20
245.9645871428837
 30
0.0
 11
666.03728395439
 21
244.7700020502769
 31
0.0
  0
LINE
  5
12FC
330
2
100
AcDbEntity
  8
0
100
AcDbLine
 10
665.7039506210566
 20
246.4731055019273
 30
0.0
 11
665.7039506210566
 21
245.1033353836099
 31
0.0
  0
CIRCLE
  5
12FD
330
2
100
AcDbEntity
  8
0
100
AcDbCircle
 10
678.2039506210566
 20
254.3033353836102
 30
0.0
 40
5.499999999997157
  0
ARC
  5
12FE
330
2
100
AcDbEntity
  8
0
100
AcDbCircle
 10
678.2039506210566
 20
254.3033353836102
 30
0.0
 40
6.654700538376232
100
AcDbArc
 50
6.471114411181717
 51
173.5288855888182
  0
ARC
  5
12FF
330
2
100
AcDbEntity
  8
0
100
AcDbCircle
 10
678.2039506210566
 20
254.3033353836102
 30
0.0
 40
6.654700538376232
100
AcDbArc
 50
186.4711144111808
 51
353.5288855888182
  0
LINE
  5
1300
330
2
100
AcDbEntity
  8
0
100
AcDbLine
 10
662.7039506210565
 20
288.3033353836102
 30
0.0
 11
672.7039506210566
 21
288.3033353836102
 31
0.0
  0
ARC
  5
1301
330
2
100
AcDbEntity
  8
0
100
AcDbCircle
 10
672.7039506210566
 20
284.3033353836102
 30
0.0
 40
3.999999999999971
100
AcDbArc
 50
359.9999999999544
 51
90.0
  0
ARC
  5
1302
330
2
100
AcDbEntity
  8
0
100
AcDbCircle
 10
662.7039506210565
 20
284.3033353836102
 30
0.0
 40
4.000000000000056
100
AcDbArc
 50
90.0
 51
180.0000000000455
  0
ARC
  5
1303
330
2
100
AcDbEntity
  8
0
100
AcDbCircle
 10
705.0514619960148
 20
281.1959295376417
 30
0.0
 40
3.499999999999717
100
AcDbArc
 50
331.4660973942729
 51
117.7026032046078
  0
ARC
  5
1304
330
2
100
AcDbEntity
  8
0
100
AcDbCircle
 10
705.0514619960148
 20
281.1959295376417
 30
0.0
 40
2.980384757729353
100
AcDbArc
 50
347.989169496133
 51
101.179531102749
  0
ARC
  5
1305
330
2
100
AcDbEntity
  8
0
100
AcDbCircle
 10
651.3113564670251
 20
281.1508467585685
 30
0.0
 40
3.499999999999717
100
AcDbArc
 50
63.62312482356935
 51
209.9169029323347
  0
ARC
  5
1306
330
2
100
AcDbEntity
  8
0
100
AcDbCircle
 10
651.3113564670251
 20
281.1508467585685
 30
0.0
 40
2.980384757729353
100
AcDbArc
 50
80.12981105458875
 51
193.4102167013254
  0
ARC
  5
1307
330
2
100
AcDbEntity
  8
0
100
AcDbCircle
 10
651.3564392460978
 20
227.4107412295787
 30
0.0
 40
3.499999999999717
100
AcDbArc
 50
151.4660973942759
 51
297.7026032046078
  0
ARC
  5
1308
330
2
100
AcDbEntity
  8
0
100
AcDbCircle
 10
651.3564392460978
 20
227.4107412295787
 30
0.0
 40
2.980384757729353
100
AcDbArc
 50
167.989169496133
 51
281.179531102749
  0
ARC
  5
1309
330
2
100
AcDbEntity
  8
0
100
AcDbCircle
 10
705.0965447750876
 20
227.455824008652
 30
0.0
 40
3.499999999999717
100
AcDbArc
 50
243.6231248237703
 51
29.91690293243689
  0
ARC
  5
130A
330
2
100
AcDbEntity
  8
0
100
AcDbCircle
 10
705.0965447750876
 20
227.455824008652
 30
0.0
 40
2.980384757729353
100
AcDbArc
 50
260.1298110548003
 51
13.41021670139828
  0
CIRCLE
  5
130B
330
2
100
AcDbEntity
  8
HOJO
100
AcDbCircle
 10
702.952687962584
 20
279.0520727251358
 30
0.0
 40
2.0
  0
CIRCLE
  5
130C
330
2
100
AcDbEntity
  8
0
100
AcDbCircle
 10
702.952687962584
 20
279.0520727251358
 30
0.0
 40
1.6
  0
CIRCLE
  5
130D
330
2
100
AcDbEntity
  8
HOJO
100
AcDbCircle
 10
653.455213279525
 20
279.0520727251363
 30
0.0
 40
2.0
  0
CIRCLE
  5
130E
330
2
100
AcDbEntity
  8
0
100
AcDbCircle
 10
653.455213279525
 20
279.0520727251363
 30
0.0
 40
1.6
  0
CIRCLE
  5
130F
330
2
100
AcDbEntity
  8
HOJO
100
AcDbCircle
 10
653.4552132795255
 20
229.5545980420778
 30
0.0
 40
2.0
  0
CIRCLE
  5
1310
330
2
100
AcDbEntity
  8
0
100
AcDbCircle
 10
653.4552132795255
 20
229.5545980420778
 30
0.0
 40
1.6
  0
CIRCLE
  5
1311
330
2
100
AcDbEntity
  8
HOJO
100
AcDbCircle
 10
702.9526879625835
 20
229.5545980420782
 30
0.0
 40
2.0
  0
CIRCLE
  5
1312
330
2
100
AcDbEntity
  8
0
100
AcDbCircle
 10
702.9526879625835
 20
229.5545980420782
 30
0.0
 40
1.6
  0
LINE
  5
1313
330
2
100
AcDbEntity
  8
HIDS
100
AcDbLine
 10
658.1696497569772
 20
282.3382401964881
 30
0.0
 11
658.0905212207916
 21
277.8049693945285
 31
0.0
  0
ARC
  5
1314
330
2
100
AcDbEntity
  8
HIDS
100
AcDbCircle
 10
660.16934514729
 20
282.3033353836134
 30
0.0
 40
2.0
100
AcDbArc
 50
90.0
 51
178.9999999999721
  0
ARC
  5
1315
330
2
100
AcDbEntity
  8
HIDS
100
AcDbCircle
 10
655.0909781353224
 20
277.8573266138404
 30
0.0
 40
3.0
100
AcDbArc
 50
314.4585514346904
 51
359.0000000000242
  0
CIRCLE
  5
1316
330
2
100
AcDbEntity
  8
0
100
AcDbCircle
 10
678.2039506210566
 20
254.3033353836102
 30
0.0
 40
22.5
  0
LINE
  5
1317
330
2
100
AcDbEntity
  8
0
100
AcDbLine
 10
676.4235372119877
 20
285.7746190383023
 30
0.0
 11
678.203950621057
 21
285.8033353836105
 31
0.0
  0
LINE
  5
1318
330
2
100
AcDbEntity
  8
0
100
AcDbLine
 10
533.4491837456506
 20
277.5131571077306
 30
0.0
 11
533.4991050201677
 21
280.3731450093694
 31
0.0
  0
LINE
  5
1319
330
2
100
AcDbEntity
  8
0
100
AcDbLine
 10
507.9154194220467
 20
261.6728512789652
 30
0.0
 11
507.5200982197487
 21
284.3207877900579
 31
0.0
  0
LINE
  5
131A
330
2
100
AcDbEntity
  8
0
100
AcDbLine
 10
500.0440548004839
 20
254.3033353836201
 30
0.0
 11
500.5040941536697
 21
254.3033353836201
 31
0.0
  0
ARC
  5
131B
330
2
100
AcDbEntity
  8
0
100
AcDbCircle
 10
515.960490175786
 20
279.5421018443942
 30
0.0
 40
3.0
100
AcDbArc
 50
270.0
 51
359.0000000000242
  0
LINE
  5
131C
330
2
100
AcDbEntity
  8
0
100
AcDbLine
 10
530.4317769288485
 20
276.5421018443946
 30
0.0
 11
515.960490175786
 21
276.5421018443946
 31
0.0
  0
LINE
  5
131D
330
2
100
AcDbEntity
  8
0
100
AcDbLine
 10
512.549749532712
 20
224.3033353836201
 30
0.0
 11
543.0440548004838
 21
224.3033353836201
 31
0.0
  0
LINE
  5
131E
330
2
100
AcDbEntity
  8
0
100
AcDbLine
 10
536.0440548004838
 20
276.8033353836197
 30
0.0
 11
532.9433881288658
 21
276.8033353836201
 31
0.0
  0
LINE
  5
131F
330
2
100
AcDbEntity
  8
0
100
AcDbLine
 10
533.0440548004839
 20
254.3033353836201
 30
0.0
 11
533.4991050201682
 21
228.2335257578708
 31
0.0
  0
ARC
  5
1320
330
2
100
AcDbEntity
  8
0
100
AcDbCircle
 10
537.4984958007934
 20
228.3033353836201
 30
0.0
 40
4.0
100
AcDbArc
 50
181.0000000000017
 51
270.0
  0
ARC
  5
1321
330
2
100
AcDbEntity
  8
0
100
AcDbCircle
 10
521.0094493267146
 20
282.3033353836201
 30
0.0
 40
2.0
100
AcDbArc
 50
90.0
 51
179.0000000000242
  0
LINE
  5
1322
330
2
100
AcDbEntity
  8
0
100
AcDbLine
 10
519.0097539364022
 20
282.3382401964948
 30
0.0
 11
518.9600332612557
 21
279.4897446250827
 31
0.0
  0
LINE
  5
1323
330
2
100
AcDbEntity
  8
0
100
AcDbLine
 10
508.0440548004916
 20
254.3033353836201
 30
0.0
 11
507.5200982197497
 21
224.2858829771828
 31
0.0
  0
ARC
  5
1324
330
2
100
AcDbEntity
  8
0
100
AcDbCircle
 10
509.1660018356573
 20
221.3033353836201
 30
0.0
 40
3.0
100
AcDbArc
 50
118.7571570414059
 51
131.40962210926
  0
ARC
  5
1325
330
2
100
AcDbEntity
  8
0
100
AcDbCircle
 10
506.5202505245933
 20
224.3033353836201
 30
0.0
 40
1.0
100
AcDbArc
 50
270.0
 51
358.9999999999852
  0
LINE
  5
1326
330
2
100
AcDbEntity
  8
0
100
AcDbLine
 10
500.0440548004839
 20
223.3033353836201
 30
0.0
 11
506.5202505245933
 21
223.3033353836201
 31
0.0
  0
LINE
  5
1327
330
2
100
AcDbEntity
  8
0
100
AcDbLine
 10
512.549749532712
 20
284.3033353836201
 30
0.0
 11
543.0440548004838
 21
284.3033353836201
 31
0.0
  0
LINE
  5
1328
330
2
100
AcDbEntity
  8
CENTER
  6
CENS
100
AcDbLine
 10
529.0440548004839
 20
293.3033353836233
 30
0.0
 11
529.0440548004839
 21
270.8209256658699
 31
0.0
  0
ARC
  5
1329
330
2
100
AcDbEntity
  8
0
100
AcDbCircle
 10
537.4984958007929
 20
280.3033353836201
 30
0.0
 40
4.0
100
AcDbArc
 50
90.0
 51
178.9999999999982
  0
ARC
  5
132A
330
2
100
AcDbEntity
  8
0
100
AcDbCircle
 10
509.1660018356559
 20
287.3033353836201
 30
0.0
 40
3.0
100
AcDbArc
 50
228.5903778907486
 51
241.242842958594
  0
ARC
  5
132B
330
2
100
AcDbEntity
  8
0
100
AcDbCircle
 10
506.5202505245919
 20
284.3033353836201
 30
0.0
 40
1.0
100
AcDbArc
 50
1.000000000014801
 51
90.0
  0
LINE
  5
132C
330
2
100
AcDbEntity
  8
0
100
AcDbLine
 10
500.0440548004839
 20
285.3033353836201
 30
0.0
 11
506.5202505245919
 21
285.3033353836201
 31
0.0
  0
LINE
  5
132D
330
2
100
AcDbEntity
  8
0
100
AcDbLine
 10
543.0440548004838
 20
284.3033353836201
 30
0.0
 11
543.0440548004838
 21
224.3033353836201
 31
0.0
  0
LINE
  5
132E
330
2
100
AcDbEntity
  8
0
100
AcDbLine
 10
508.6361299331123
 20
284.67333538362
 30
0.0
 11
507.6361299331123
 21
284.67333538362
 31
0.0
  0
LINE
  5
132F
330
2
100
AcDbEntity
  8
0
100
AcDbLine
 10
507.6361299331123
 20
284.67333538362
 30
0.0
 11
507.6361299331123
 21
277.67333538362
 31
0.0
  0
LINE
  5
1330
330
2
100
AcDbEntity
  8
0
100
AcDbLine
 10
507.6361299331123
 20
277.67333538362
 30
0.0
 11
508.6361299331123
 21
277.67333538362
 31
0.0
  0
LINE
  5
1331
330
2
100
AcDbEntity
  8
0
100
AcDbLine
 10
508.6361299331123
 20
277.67333538362
 30
0.0
 11
508.6361299331123
 21
284.67333538362
 31
0.0
  0
LINE
  5
1332
330
2
100
AcDbEntity
  8
0
100
AcDbLine
 10
512.6361299331123
 20
284.1537201413495
 30
0.0
 11
512.6361299331123
 21
278.1929506258904
 31
0.0
  0
LINE
  5
1333
330
2
100
AcDbEntity
  8
0
100
AcDbLine
 10
512.3361299331121
 20
277.67333538362
 30
0.0
 11
512.3361299331121
 21
284.67333538362
 31
0.0
  0
LINE
  5
1334
330
2
100
AcDbEntity
  8
0
100
AcDbLine
 10
512.3361299331121
 20
277.67333538362
 30
0.0
 11
508.6361299331123
 21
277.67333538362
 31
0.0
  0
LINE
  5
1335
330
2
100
AcDbEntity
  8
0
100
AcDbLine
 10
512.3361299331121
 20
277.67333538362
 30
0.0
 11
512.6361299331123
 21
278.1929506258904
 31
0.0
  0
LINE
  5
1336
330
2
100
AcDbEntity
  8
0
100
AcDbLine
 10
512.6361299331123
 20
284.1537201413495
 30
0.0
 11
512.3361299331121
 21
284.67333538362
 31
0.0
  0
LINE
  5
1337
330
2
100
AcDbEntity
  8
0
100
AcDbLine
 10
508.6361299331123
 20
284.67333538362
 30
0.0
 11
512.3361299331121
 21
284.67333538362
 31
0.0
  0
LINE
  5
1338
330
2
100
AcDbEntity
  8
CENTER
  6
CENS
100
AcDbLine
 10
517.5750372058622
 20
281.1733353836205
 30
0.0
 11
494.5750801162397
 21
281.1733353836205
 31
0.0
  0
LINE
  5
1339
330
2
100
AcDbEntity
  8
CENTER
  6
CENS
100
AcDbLine
 10
517.5750372058622
 20
227.4333353836198
 30
0.0
 11
494.5750801162397
 21
227.4333353836198
 31
0.0
  0
LINE
  5
133A
330
2
100
AcDbEntity
  8
0
100
AcDbLine
 10
508.6361299331123
 20
223.9333353836202
 30
0.0
 11
507.6361299331123
 21
223.9333353836202
 31
0.0
  0
LINE
  5
133B
330
2
100
AcDbEntity
  8
0
100
AcDbLine
 10
507.6361299331123
 20
223.9333353836202
 30
0.0
 11
507.6361299331123
 21
230.9333353836202
 31
0.0
  0
LINE
  5
133C
330
2
100
AcDbEntity
  8
0
100
AcDbLine
 10
507.6361299331123
 20
230.9333353836202
 30
0.0
 11
508.6361299331123
 21
230.9333353836202
 31
0.0
  0
LINE
  5
133D
330
2
100
AcDbEntity
  8
0
100
AcDbLine
 10
508.6361299331123
 20
230.9333353836202
 30
0.0
 11
508.6361299331123
 21
223.9333353836202
 31
0.0
  0
LINE
  5
133E
330
2
100
AcDbEntity
  8
0
100
AcDbLine
 10
512.6361299331123
 20
224.4529506258907
 30
0.0
 11
512.6361299331123
 21
230.4137201413498
 31
0.0
  0
LINE
  5
133F
330
2
100
AcDbEntity
  8
0
100
AcDbLine
 10
512.3361299331121
 20
230.9333353836202
 30
0.0
 11
512.3361299331121
 21
223.9333353836202
 31
0.0
  0
LINE
  5
1340
330
2
100
AcDbEntity
  8
0
100
AcDbLine
 10
512.3361299331121
 20
230.9333353836202
 30
0.0
 11
508.6361299331123
 21
230.9333353836202
 31
0.0
  0
LINE
  5
1341
330
2
100
AcDbEntity
  8
0
100
AcDbLine
 10
512.3361299331121
 20
230.9333353836202
 30
0.0
 11
512.6361299331123
 21
230.4137201413498
 31
0.0
  0
LINE
  5
1342
330
2
100
AcDbEntity
  8
0
100
AcDbLine
 10
512.6361299331123
 20
224.4529506258907
 30
0.0
 11
512.3361299331121
 21
223.9333353836202
 31
0.0
  0
LINE
  5
1343
330
2
100
AcDbEntity
  8
0
100
AcDbLine
 10
508.6361299331123
 20
223.9333353836202
 30
0.0
 11
512.3361299331121
 21
223.9333353836202
 31
0.0
  0
LINE
  5
1344
330
2
100
AcDbEntity
  8
0
100
AcDbLine
 10
533.5440441914332
 20
259.8033353836206
 30
0.0
 11
523.5440441914327
 21
259.8033353836206
 31
0.0
  0
LINE
  5
1345
330
2
100
AcDbEntity
  8
0
100
AcDbLine
 10
533.5440441914332
 20
259.8033353836201
 30
0.0
 11
533.5440441914332
 21
254.3033353836201
 31
0.0
  0
LINE
  5
1346
330
2
100
AcDbEntity
  8
0
100
AcDbLine
 10
535.5440441914332
 20
260.9580359219996
 30
0.0
 11
533.5440441914332
 21
259.8033353836201
 31
0.0
  0
LINE
  5
1347
330
2
100
AcDbEntity
  8
0
100
AcDbLine
 10
506.5440441914337
 20
260.0533353836201
 30
0.0
 11
506.5440441914337
 21
254.3033353836201
 31
0.0
  0
LINE
  5
1348
330
2
100
AcDbEntity
  8
0
100
AcDbLine
 10
533.5440441914332
 20
259.8033353836201
 30
0.0
 11
523.5440441914333
 21
259.8033353836201
 31
0.0
  0
LINE
  5
1349
330
2
100
AcDbEntity
  8
0
100
AcDbLine
 10
528.4562583701061
 20
269.0533353836201
 30
0.0
 11
535.5440441914332
 21
269.0533353836201
 31
0.0
  0
LINE
  5
134A
330
2
100
AcDbEntity
  8
0
100
AcDbLine
 10
535.5440441914332
 20
269.0533353836201
 30
0.0
 11
535.5440441914332
 21
254.3033353836201
 31
0.0
  0
LINE
  5
134B
330
2
100
AcDbEntity
  8
0
100
AcDbLine
 10
521.5440441914332
 20
264.5880165703431
 30
0.0
 11
521.5440441914332
 21
254.3033353836201
 31
0.0
  0
LINE
  5
134C
330
2
100
AcDbEntity
  8
0
100
AcDbLine
 10
523.5440441914333
 20
265.1134167177754
 30
0.0
 11
523.5440441914333
 21
254.3033353836201
 31
0.0
  0
LINE
  5
134D
330
2
100
AcDbEntity
  8
0
100
AcDbLine
 10
514.5440441914337
 20
260.0533353836201
 30
0.0
 11
506.5440441914337
 21
260.0533353836201
 31
0.0
  0
LINE
  5
134E
330
2
100
AcDbEntity
  8
0
100
AcDbLine
 10
514.5440441914337
 20
254.3033353836201
 30
0.0
 11
514.5440441914337
 21
260.0533353836201
 31
0.0
  0
LINE
  5
134F
330
2
100
AcDbEntity
  8
0
100
AcDbLine
 10
521.5440441914332
 20
259.8033353836201
 30
0.0
 11
514.5440441914337
 21
259.8033353836201
 31
0.0
  0
LINE
  5
1350
330
2
100
AcDbEntity
  8
0
100
AcDbLine
 10
503.6572928454855
 20
254.3033353836201
 30
0.0
 11
506.5440441914337
 21
259.3033353836201
 31
0.0
  0
LINE
  5
1351
330
2
100
AcDbEntity
  8
0
100
AcDbLine
 10
536.0440548004838
 20
279.3033353836201
 30
0.0
 11
536.0440548004843
 21
254.3033353836201
 31
0.0
  0
LINE
  5
1352
330
2
100
AcDbEntity
  8
0
100
AcDbLine
 10
543.0440548004838
 20
279.3033353836201
 30
0.0
 11
536.0440548004838
 21
279.3033353836201
 31
0.0
  0
SPLINE
  5
1353
330
2
100
AcDbEntity
  8
HOJO
100
AcDbSpline
210
0.0
220
0.0
230
1.0
 70
     8
 71
     3
 72
    20
 73
    16
 74
     0
 42
0.0000000001
 43
0.0000000001
 40
0.0
 40
0.0
 40
0.0
 40
0.0
 40
5.311626210389601
 40
7.954639692924123
 40
10.24579206730457
 40
14.18281221953265
 40
18.83794314114633
 40
26.54246833222011
 40
31.19712602527561
 40
34.95638115537181
 40
42.12378530287149
 40
45.78553747213095
 40
50.20353689726185
 40
53.26513166942802
 40
54.23175360515262
 40
54.23175360515262
 40
54.23175360515262
 40
54.23175360515262
 10
543.0440548004838
 20
280.9907841056363
 30
0.0
 10
541.3310756345953
 20
280.88274205541
 30
0.0
 10
538.7657347151843
 20
280.720939333006
 30
0.0
 10
534.9939808281073
 20
280.468806660838
 30
0.0
 10
533.6748396119731
 20
277.5363651758714
 30
0.0
 10
531.2396302436826
 20
274.8818563525758
 30
0.0
 10
529.4015819005324
 20
269.730560919412
 30
0.0
 10
525.2767454910553
 20
265.0208135677865
 30
0.0
 10
519.7990979880491
 20
264.3834821333669
 30
0.0
 10
514.8857124784834
 20
262.6971631866592
 30
0.0
 10
510.051713131725
 20
262.0771760946852
 30
0.0
 10
505.0139863670864
 20
261.1219520770239
 30
0.0
 10
501.9428357457167
 20
258.5877402342732
 30
0.0
 10
500.942861450991
 20
255.9094997133836
 30
0.0
 10
500.5868219257584
 20
254.6144866833126
 30
0.0
 10
500.5040941536698
 20
254.3033353836201
 30
0.0
  0
LINE
  5
1354
330
2
100
AcDbEntity
  8
0
100
AcDbLine
 10
534.0440548004838
 20
288.3033353836201
 30
0.0
 11
524.0440548004839
 21
288.3033353836201
 31
0.0
  0
ARC
  5
1355
330
2
100
AcDbEntity
  8
0
100
AcDbCircle
 10
524.0440548004839
 20
284.3033353836201
 30
0.0
 40
4.0
100
AcDbArc
 50
90.0
 51
180.0
  0
ARC
  5
1356
330
2
100
AcDbEntity
  8
0
100
AcDbCircle
 10
534.0440548004838
 20
284.3033353836201
 30
0.0
 40
4.000000000000028
100
AcDbArc
 50
0.0
 51
90.0
  0
LINE
  5
1357
330
2
100
AcDbEntity
  8
0
100
AcDbLine
 10
508.0440548004848
 20
469.7508056716782
 30
0.0
 11
508.0440548004839
 21
423.0108056716784
 31
0.0
  0
LINE
  5
1358
330
2
100
AcDbEntity
  8
0
100
AcDbLine
 10
533.0440548004839
 20
449.3808056716783
 30
0.0
 11
533.0440548004839
 21
472.3808056716783
 31
0.0
  0
ARC
  5
1359
330
2
100
AcDbEntity
  8
0
100
AcDbCircle
 10
537.0440548004834
 20
472.3808056716783
 30
0.0
 40
4.0
100
AcDbArc
 50
90.0
 51
180.0
  0
LINE
  5
135A
330
2
100
AcDbEntity
  8
0
100
AcDbLine
 10
543.0440548004838
 20
476.3808056716783
 30
0.0
 11
512.549749532712
 21
476.3808056716783
 31
0.0
  0
LINE
  5
135B
330
2
100
AcDbEntity
  8
0
100
AcDbLine
 10
507.0440548004848
 20
477.3808056716783
 30
0.0
 11
500.0440548004839
 21
477.3808056716783
 31
0.0
  0
ARC
  5
135C
330
2
100
AcDbEntity
  8
0
100
AcDbCircle
 10
509.6898061115492
 20
479.3808056716783
 30
0.0
 40
3.0
100
AcDbArc
 50
228.5903778907203
 51
241.242842958594
  0
ARC
  5
135D
330
2
100
AcDbEntity
  8
0
100
AcDbCircle
 10
507.0440548004848
 20
476.3808056716783
 30
0.0
 40
1.0
100
AcDbArc
 50
21.71561728325768
 51
90.0
  0
ARC
  5
135E
330
2
100
AcDbEntity
  8
0
100
AcDbCircle
 10
537.0440548004839
 20
420.3808056716783
 30
0.0
 40
4.0
100
AcDbArc
 50
180.0
 51
270.0
  0
ARC
  5
135F
330
2
100
AcDbEntity
  8
0
100
AcDbCircle
 10
530.0440548004838
 20
423.3808056716783
 30
0.0
 40
3.0
100
AcDbArc
 50
0.0
 51
90.0
  0
ARC
  5
1360
330
2
100
AcDbEntity
  8
0
100
AcDbCircle
 10
530.0440548004838
 20
449.3808056716783
 30
0.0
 40
3.0
100
AcDbArc
 50
270.0
 51
0.0
  0
LINE
  5
1361
330
2
100
AcDbEntity
  8
0
100
AcDbLine
 10
519.0440548004834
 20
429.3808056716783
 30
0.0
 11
519.0440548004838
 21
443.3808056716783
 31
0.0
  0
LINE
  5
1362
330
2
100
AcDbEntity
  8
0
100
AcDbLine
 10
530.0440548004838
 20
446.3808056716783
 30
0.0
 11
522.0440548004838
 21
446.3808056716783
 31
0.0
  0
ARC
  5
1363
330
2
100
AcDbEntity
  8
0
100
AcDbCircle
 10
522.0440548004838
 20
443.3808056716783
 30
0.0
 40
3.0
100
AcDbArc
 50
90.0
 51
180.0
  0
LINE
  5
1364
330
2
100
AcDbEntity
  8
0
100
AcDbLine
 10
530.0440548004838
 20
426.3808056716783
 30
0.0
 11
522.0440548004834
 21
426.3808056716783
 31
0.0
  0
LINE
  5
1365
330
2
100
AcDbEntity
  8
0
100
AcDbLine
 10
533.0440548004839
 20
420.3808056716783
 30
0.0
 11
533.0440548004839
 21
423.3808056716783
 31
0.0
  0
ARC
  5
1366
330
2
100
AcDbEntity
  8
0
100
AcDbCircle
 10
522.0440548004834
 20
429.3808056716783
 30
0.0
 40
3.0
100
AcDbArc
 50
180.0
 51
270.0
  0
LINE
  5
1367
330
2
100
AcDbEntity
  8
0
100
AcDbLine
 10
543.0440548004838
 20
416.3808056716783
 30
0.0
 11
512.5497495327125
 21
416.3808056716783
 31
0.0
  0
LINE
  5
1368
330
2
100
AcDbEntity
  8
0
100
AcDbLine
 10
507.0440548004834
 20
415.3808056716782
 30
0.0
 11
500.0440548004839
 21
415.3808056716782
 31
0.0
  0
ARC
  5
1369
330
2
100
AcDbEntity
  8
0
100
AcDbCircle
 10
509.6898061115483
 20
413.3808056716783
 30
0.0
 40
3.0
100
AcDbArc
 50
118.7571570414059
 51
131.4096221092842
  0
ARC
  5
136A
330
2
100
AcDbEntity
  8
0
100
AcDbCircle
 10
507.0440548004834
 20
416.3808056716783
 30
0.0
 40
1.0
100
AcDbArc
 50
270.0
 51
338.2843827167423
  0
LINE
  5
136B
330
2
100
AcDbEntity
  8
0
100
AcDbLine
 10
543.0440548004838
 20
416.3808056716783
 30
0.0
 11
543.0440548004838
 21
476.3808056716783
 31
0.0
  0
LINE
  5
136C
330
2
100
AcDbEntity
  8
CENTER
  6
CENS
100
AcDbLine
 10
517.5750372058622
 20
419.5108056716784
 30
0.0
 11
494.5750801162397
 21
419.5108056716784
 31
0.0
  0
LINE
  5
136D
330
2
100
AcDbEntity
  8
0
100
AcDbLine
 10
508.6361299331123
 20
416.0108056716784
 30
0.0
 11
507.6361299331123
 21
416.0108056716784
 31
0.0
  0
LINE
  5
136E
330
2
100
AcDbEntity
  8
0
100
AcDbLine
 10
507.6361299331123
 20
423.0108056716784
 30
0.0
 11
508.6361299331123
 21
423.0108056716784
 31
0.0
  0
LINE
  5
136F
330
2
100
AcDbEntity
  8
0
100
AcDbLine
 10
508.6361299331123
 20
423.0108056716784
 30
0.0
 11
508.6361299331123
 21
416.0108056716784
 31
0.0
  0
LINE
  5
1370
330
2
100
AcDbEntity
  8
0
100
AcDbLine
 10
512.6361299331123
 20
416.5304209139493
 30
0.0
 11
512.6361299331123
 21
422.491190429408
 31
0.0
  0
LINE
  5
1371
330
2
100
AcDbEntity
  8
0
100
AcDbLine
 10
512.3361299331121
 20
423.0108056716784
 30
0.0
 11
512.3361299331121
 21
416.0108056716784
 31
0.0
  0
LINE
  5
1372
330
2
100
AcDbEntity
  8
0
100
AcDbLine
 10
512.3361299331121
 20
423.0108056716784
 30
0.0
 11
508.6361299331123
 21
423.0108056716784
 31
0.0
  0
LINE
  5
1373
330
2
100
AcDbEntity
  8
0
100
AcDbLine
 10
512.3361299331121
 20
423.0108056716784
 30
0.0
 11
512.6361299331123
 21
422.491190429408
 31
0.0
  0
LINE
  5
1374
330
2
100
AcDbEntity
  8
0
100
AcDbLine
 10
512.6361299331123
 20
416.5304209139493
 30
0.0
 11
512.3361299331121
 21
416.0108056716784
 31
0.0
  0
LINE
  5
1375
330
2
100
AcDbEntity
  8
0
100
AcDbLine
 10
508.6361299331123
 20
416.0108056716784
 30
0.0
 11
512.3361299331121
 21
416.0108056716784
 31
0.0
  0
LINE
  5
1376
330
2
100
AcDbEntity
  8
0
100
AcDbLine
 10
507.6361299331123
 20
416.0108056716784
 30
0.0
 11
507.6361299331123
 21
423.0108056716784
 31
0.0
  0
LINE
  5
1377
330
2
100
AcDbEntity
  8
0
100
AcDbLine
 10
507.6361299331123
 20
423.0108056716784
 30
0.0
 11
507.6361299331123
 21
416.0108056716784
 31
0.0
  0
LINE
  5
1378
330
2
100
AcDbEntity
  8
CENTER
  6
CENS
100
AcDbLine
 10
517.5750372058622
 20
473.2508056716786
 30
0.0
 11
494.5750801162397
 21
473.2508056716786
 31
0.0
  0
LINE
  5
1379
330
2
100
AcDbEntity
  8
0
100
AcDbLine
 10
508.6361299331123
 20
476.7508056716782
 30
0.0
 11
507.6361299331123
 21
476.7508056716782
 31
0.0
  0
LINE
  5
137A
330
2
100
AcDbEntity
  8
0
100
AcDbLine
 10
507.6361299331123
 20
469.7508056716782
 30
0.0
 11
508.6361299331123
 21
469.7508056716782
 31
0.0
  0
LINE
  5
137B
330
2
100
AcDbEntity
  8
0
100
AcDbLine
 10
508.6361299331123
 20
469.7508056716782
 30
0.0
 11
508.6361299331123
 21
476.7508056716782
 31
0.0
  0
LINE
  5
137C
330
2
100
AcDbEntity
  8
0
100
AcDbLine
 10
512.6361299331123
 20
476.2311904294078
 30
0.0
 11
512.6361299331123
 21
470.2704209139491
 31
0.0
  0
LINE
  5
137D
330
2
100
AcDbEntity
  8
0
100
AcDbLine
 10
512.3361299331121
 20
469.7508056716782
 30
0.0
 11
512.3361299331121
 21
476.7508056716782
 31
0.0
  0
LINE
  5
137E
330
2
100
AcDbEntity
  8
0
100
AcDbLine
 10
512.3361299331121
 20
469.7508056716782
 30
0.0
 11
508.6361299331123
 21
469.7508056716782
 31
0.0
  0
LINE
  5
137F
330
2
100
AcDbEntity
  8
0
100
AcDbLine
 10
512.3361299331121
 20
469.7508056716782
 30
0.0
 11
512.6361299331123
 21
470.2704209139491
 31
0.0
  0
LINE
  5
1380
330
2
100
AcDbEntity
  8
0
100
AcDbLine
 10
512.6361299331123
 20
476.2311904294078
 30
0.0
 11
512.3361299331121
 21
476.7508056716782
 31
0.0
  0
LINE
  5
1381
330
2
100
AcDbEntity
  8
0
100
AcDbLine
 10
508.6361299331123
 20
476.7508056716782
 30
0.0
 11
512.3361299331121
 21
476.7508056716782
 31
0.0
  0
LINE
  5
1382
330
2
100
AcDbEntity
  8
0
100
AcDbLine
 10
507.6361299331123
 20
476.7508056716782
 30
0.0
 11
507.6361299331123
 21
469.7508056716782
 31
0.0
  0
LINE
  5
1383
330
2
100
AcDbEntity
  8
0
100
AcDbLine
 10
507.6361299331123
 20
469.7508056716782
 30
0.0
 11
507.6361299331123
 21
476.7508056716782
 31
0.0
  0
CIRCLE
  5
1384
330
2
100
AcDbEntity
  8
0
100
AcDbCircle
 10
529.0440548004839
 20
435.8808056716783
 30
0.0
 40
9.0
  0
LINE
  5
1385
330
2
100
AcDbEntity
  8
CENTER
  6
CENS
100
AcDbLine
 10
529.0440548004839
 20
424.3402947675548
 30
0.0
 11
529.0440548004839
 21
447.4213165758027
 31
0.0
  0
LINE
  5
1386
330
2
100
AcDbEntity
  8
CENTER
  6
CENS
100
AcDbLine
 10
540.5845657046078
 20
435.8808056716788
 30
0.0
 11
517.5035438963599
 21
435.8808056716788
 31
0.0
  0
LINE
  5
138F
330
2
100
AcDbEntity
  8
0
100
AcDbLine
 10
305.3534886534697
 20
288.3033353836201
 30
0.0
 11
295.3534886534697
 21
288.3033353836201
 31
0.0
  0
ARC
  5
1390
330
2
100
AcDbEntity
  8
0
100
AcDbCircle
 10
295.3534886534697
 20
284.3033353836201
 30
0.0
 40
3.999999999999971
100
AcDbArc
 50
90.0
 51
158.4187099909541
  0
ARC
  5
1391
330
2
100
AcDbEntity
  8
0
100
AcDbCircle
 10
305.3534886534697
 20
284.3033353836201
 30
0.0
 40
4.000000000000056
100
AcDbArc
 50
17.2834602733143
 51
90.0
  0
LINE
  5
1392
330
2
100
AcDbEntity
  8
CENTER
  6
CENS
100
AcDbLine
 10
300.353488653472
 20
293.3033353836174
 30
0.0
 11
300.353488653472
 21
270.8209256658672
 31
0.0
  0
TEXT
  5
1394
330
2
100
AcDbEntity
  8
TITLE
100
AcDbText
 10
240.4867684400912
 20
446.8920816193544
 30
0.0
 40
5.0
  1
AFCZ12S-3~5M200S3
100
AcDbText
  0
TEXT
  5
1396
330
2
100
AcDbEntity
  8
TITLE
100
AcDbText
 10
240.4867684400912
 20
436.5621907403742
 30
0.0
 40
5.0
  1
AFCZ12S-3~5L200S3
100
AcDbText
  0
CIRCLE
  5
1D5D
330
2
100
AcDbEntity
  8
0
100
AcDbCircle
 10
678.2039506210561
 20
254.3033353836102
 30
0.0
 40
14.75
  0
ENDSEC
  0
SECTION
  2
OBJECTS
  0
DICTIONARY
  5
7
330
0
100
AcDbDictionary
  3
ACAD_COLOR
350
1CF8
  3
ACAD_GROUP
350
75
  3
ACAD_LAYOUT
350
61
  3
ACAD_MATERIAL
350
1CCE
  3
ACAD_MLEADERSTYLE
350
1D1D
  3
ACAD_MLINESTYLE
350
76
  3
ACAD_PLOTSETTINGS
350
77
  3
ACAD_PLOTSTYLENAME
350
6
  3
ACAD_SCALELIST
350
1CFB
  3
ACAD_TABLESTYLE
350
1CF9
  3
ACAD_VISUALSTYLE
350
1CE7
  3
ACADDIM
350
480
  3
ACDB_RECOMPOSE_DATA
350
1D36
  3
ACDBHEADERROUNDTRIPXREC
350
1F0E
  3
ACDBVARIABLEDICTIONARY
350
102
  3
DWGPROPS
350
1EDA
  0
DICTIONARY
  5
1D3F
330
6E
100
AcDbDictionary
280
     1
  3
ACAD_XREC_ROUNDTRIP
360
1EE1
  0
DICTIONARY
  5
AFF
330
66
100
AcDbDictionary
280
     1
  3
ACAD_LAYERSTATES
360
B00
  0
DICTIONARY
  5
1D22
330
5E
100
AcDbDictionary
280
     1
  3
ACAD_XREC_ROUNDTRIP
360
1EDD
  3
ADSK_XREC_LAYER_RECONCILED
360
1D23
  0
DICTIONARY
  5
1D24
330
3E
100
AcDbDictionary
280
     1
  3
ACAD_XREC_ROUNDTRIP
360
1EDC
  3
ADSK_XREC_LAYER_RECONCILED
360
1D25
  0
DICTIONARY
  5
1D2A
330
2B5
100
AcDbDictionary
280
     1
  3
ACAD_XREC_ROUNDTRIP
360
1EE7
  3
ADSK_XREC_LAYER_RECONCILED
360
1D2B
  0
DICTIONARY
  5
1D2C
330
2BA
100
AcDbDictionary
280
     1
  3
ACAD_XREC_ROUNDTRIP
360
1EE8
  3
ADSK_XREC_LAYER_RECONCILED
360
1D2D
  0
DICTIONARY
  5
1D30
330
3FA
100
AcDbDictionary
280
     1
  3
ACAD_XREC_ROUNDTRIP
360
1EEA
  3
ADSK_XREC_LAYER_RECONCILED
360
1D31
  0
DICTIONARY
  5
1D32
330
478
100
AcDbDictionary
280
     1
  3
ACAD_XREC_ROUNDTRIP
360
1EEB
  3
ADSK_XREC_LAYER_RECONCILED
360
1D33
  0
DICTIONARY
  5
1F2F
330
2
100
AcDbDictionary
280
     1
  3
ACAD_LAYOUTSELFREF
360
1F30
  0
DICTIONARY
  5
1F31
330
1F08
100
AcDbDictionary
280
     1
  3
ACAD_LAYOUTSELFREF
360
1F32
  0
DICTIONARY
  5
1CF8
102
{ACAD_REACTORS
330
7
102
}
330
7
100
AcDbDictionary
  0
DICTIONARY
  5
75
102
{ACAD_REACTORS
330
7
102
}
330
7
100
AcDbDictionary
  0
DICTIONARY
  5
61
102
{ACAD_REACTORS
330
7
102
}
330
7
100
AcDbDictionary
  0
DICTIONARY
  5
1CCE
102
{ACAD_REACTORS
330
7
102
}
330
7
100
AcDbDictionary
  3
BYBLOCK
350
1CD7
  3
BYLAYER
350
1CCF
  3
GLOBAL
350
1CDF
  0
DICTIONARY
  5
1D1D
102
{ACAD_REACTORS
330
7
102
}
330
7
100
AcDbDictionary
  3
STANDARD
350
1D1E
  0
DICTIONARY
  5
76
102
{ACAD_REACTORS
330
7
102
}
330
7
100
AcDbDictionary
  3
STANDARD
350
78
  0
DICTIONARY
  5
77
102
{ACAD_REACTORS
330
7
102
}
330
7
100
AcDbDictionary
  0
ACDBDICTIONARYWDFLT
  5
6
102
{ACAD_REACTORS
330
7
102
}
330
7
100
AcDbDictionary
281
     1
  3
Normal
350
5
100
AcDbDictionaryWithDefault
340
5
  0
DICTIONARY
  5
1CFB
102
{ACAD_REACTORS
330
7
102
}
330
7
100
AcDbDictionary
  3
A0
350
1CFC
  3
A1
350
1CFD
  3
A2
350
1CFE
  3
A3
350
1CFF
  3
A4
350
1D00
  3
A5
350
1D01
  3
A6
350
1D02
  3
A7
350
1D03
  3
A8
350
1D04
  3
A9
350
1D05
  3
B0
350
1D06
  3
B1
350
1D07
  3
B2
350
1D08
  3
B3
350
1D09
  3
B4
350
1D0A
  3
B5
350
1D0B
  3
B6
350
1D0C
  3
B7
350
1D0D
  3
B8
350
1D0E
  3
B9
350
1D0F
  3
C0
350
1D10
  3
C1
350
1D11
  3
C2
350
1D12
  3
C3
350
1D13
  3
C4
350
1D14
  3
C5
350
1D15
  3
C6
350
1D16
  3
C7
350
1D17
  3
C8
350
1D18
  3
C9
350
1D19
  3
D0
350
1D1A
  3
D1
350
1D1B
  3
D2
350
1D1C
  0
DICTIONARY
  5
1CF9
102
{ACAD_REACTORS
330
7
102
}
330
7
100
AcDbDictionary
  3
STANDARD
350
1CFA
  0
DICTIONARY
  5
1CE7
102
{ACAD_REACTORS
330
7
102
}
330
7
100
AcDbDictionary
  3
2DWIREFRAME
350
1CED
  3
3D_HIDDEN
350
1CEF
  3
3DWIREFRAME
350
1CEE
  3
BASIC
350
1CEC
  3
BRIGHTEN
350
1CF3
  3
COLORCHANGE
350
1CF7
  3
CONCEPTUAL
350
1CF0
  3
DIM
350
1CF2
  3
FACEPATTERN
350
1CF6
  3
FLAT
350
1CE8
  3
FLATWITHEDGES
350
1CE9
  3
GOURAUD
350
1CEA
  3
GOURAUDWITHEDGES
350
1CEB
  3
LINEPATTERN
350
1CF5
  3
REALISTIC
350
1CF1
  3
THICKEN
350
1CF4
  0
XRECORD
  5
480
102
{ACAD_REACTORS
330
7
102
}
330
7
100
AcDbXrecord
 90
   990106
  3

 60
     0
 61
     0
 62
     1
 63
     3
 64
     1
 65
     0
 66
     0
 67
     3
 68
     1
 69
     0
 70
     0
 71
     0
 72
     0
 40
0.0
170
     2
340
0
  0
XRECORD
  5
1D36
102
{ACAD_REACTORS
330
7
102
}
330
7
100
AcDbXrecord
 90
        1
330
1CFA
  0
DICTIONARY
  5
1F0E
102
{ACAD_REACTORS
330
7
102
}
330
7
100
AcDbDictionary
  3
CEPSNTYPE
350
1F18
  3
DIMSTYLEDATA
350
1F1C
  3
FINGERPRINTGUID
350
1F19
  3
HYPERLINKBASE
350
1F11
  3
INSUNITS
350
1F17
  3
LAYOUTDICT
350
1F13
  3
LWETCUNION
350
1F16
  3
PLOTSETDICT
350
1F14
  3
PLOTSTYLNAMDICT
350
1F15
  3
PSVPSCALE
350
1F1B
  3
PUCSBASE
350
1F1F
  3
PUCSORGBACK
350
1F25
  3
PUCSORGBOTTOM
350
1F21
  3
PUCSORGFRONT
350
1F24
  3
PUCSORGLEFT
350
1F22
  3
PUCSORGRIGHT
350
1F23
  3
PUCSORGTOP
350
1F20
  3
PUCSORTHOREF
350
1F1D
  3
PUCSORTHOVIEW
350
1F1E
  3
STYLESHEET
350
1F12
  3
TSTACKALIGN
350
1F0F
  3
TSTACKSIZE
350
1F10
  3
UCSBASE
350
1F28
  3
UCSORGBACK
350
1F2E
  3
UCSORGBOTTOM
350
1F2A
  3
UCSORGFRONT
350
1F2D
  3
UCSORGLEFT
350
1F2B
  3
UCSORGRIGHT
350
1F2C
  3
UCSORGTOP
350
1F29
  3
UCSORTHOREF
350
1F26
  3
UCSORTHOVIEW
350
1F27
  3
VERSIONGUID
350
1F1A
  0
DICTIONARY
  5
102
102
{ACAD_REACTORS
330
7
102
}
330
7
100
AcDbDictionary
  3
CANNOSCALE
350
1D57
  3
CMLEADERSTYLE
350
1D56
  3
CTABLESTYLE
350
1D55
  3
DIMASSOC
350
103
  3
INDEXCTL
350
1D58
  3
SORTENTS
350
549
  0
XRECORD
  5
1EDA
102
{ACAD_REACTORS
330
7
102
}
330
7
100
AcDbXrecord
  1
DWGPROPS COOKIE
  2

  3

  4

  6

  7

  8
ymorima
  9

300
=
301
=
302
=
303
=
304
=
305
=
306
=
307
=
308
=
309
=
 40
0.0192762384259259
 41
2454410.388680555
 42
2454425.672942523
  1

 90
        0
  0
XRECORD
  5
1EE1
102
{ACAD_REACTORS
330
1D3F
102
}
330
1D3F
100
AcDbXrecord
102
VTR_0.000_0.000_1.000_1.000_VISUALSTYLE
340
1CED
102
VTR_0.000_0.000_1.000_1.000_GRIDDISPLAY
 70
     3
102
VTR_0.000_0.000_1.000_1.000_GRIDMAJOR
 70
     5
102
VTR_0.000_0.000_1.000_1.000_DEFAULTLIGHTING
280
     1
102
VTR_0.000_0.000_1.000_1.000_DEFAULTLIGHTINGTYPE
 70
     1
102
VTR_0.000_0.000_1.000_1.000_BRIGHTNESS
141
0.0
102
VTR_0.000_0.000_1.000_1.000_CONTRAST
142
0.0
  0
DICTIONARY
  5
B00
102
{ACAD_REACTORS
330
AFF
102
}
330
AFF
100
AcDbDictionary
  0
XRECORD
  5
1EDD
102
{ACAD_REACTORS
330
1D22
102
}
330
1D22
100
AcDbXrecord
102
MATERIAL
340
1CDF
  0
XRECORD
  5
1D23
102
{ACAD_REACTORS
330
1D22
102
}
330
1D22
100
AcDbXrecord
290
     1
  0
XRECORD
  5
1EDC
102
{ACAD_REACTORS
330
1D24
102
}
330
1D24
100
AcDbXrecord
102
MATERIAL
340
1CDF
  0
XRECORD
  5
1D25
102
{ACAD_REACTORS
330
1D24
102
}
330
1D24
100
AcDbXrecord
290
     1
  0
XRECORD
  5
1EE7
102
{ACAD_REACTORS
330
1D2A
102
}
330
1D2A
100
AcDbXrecord
102
MATERIAL
340
1CDF
  0
XRECORD
  5
1D2B
102
{ACAD_REACTORS
330
1D2A
102
}
330
1D2A
100
AcDbXrecord
290
     1
  0
XRECORD
  5
1EE8
102
{ACAD_REACTORS
330
1D2C
102
}
330
1D2C
100
AcDbXrecord
102
MATERIAL
340
1CDF
  0
XRECORD
  5
1D2D
102
{ACAD_REACTORS
330
1D2C
102
}
330
1D2C
100
AcDbXrecord
290
     1
  0
XRECORD
  5
1EEA
102
{ACAD_REACTORS
330
1D30
102
}
330
1D30
100
AcDbXrecord
102
MATERIAL
340
1CDF
  0
XRECORD
  5
1D31
102
{ACAD_REACTORS
330
1D30
102
}
330
1D30
100
AcDbXrecord
290
     1
  0
XRECORD
  5
1EEB
102
{ACAD_REACTORS
330
1D32
102
}
330
1D32
100
AcDbXrecord
102
MATERIAL
340
1CDF
  0
XRECORD
  5
1D33
102
{ACAD_REACTORS
330
1D32
102
}
330
1D32
100
AcDbXrecord
290
     1
  0
XRECORD
  5
1F30
102
{ACAD_REACTORS
330
1F2F
102
}
330
1F2F
100
AcDbXrecord
340
2
  0
XRECORD
  5
1F32
102
{ACAD_REACTORS
330
1F31
102
}
330
1F31
100
AcDbXrecord
340
1F08
  0
ACAD_PROXY_OBJECT
  5
1CD7
102
{ACAD_XDICTIONARY
360
1CD8
102
}
102
{ACAD_REACTORS
330
1CCE
102
}
330
1CCE
100
AcDbProxyObject
 90
      499
 91
      510
 93
     1340
310
42109E509B1BD8DAC02004014080404555555555555953FAA155555555555654FEA9AA400014080404555555555555953FAA155555555555654FEA9AA400000000000000E03F4080404555555555555953FAA155555555555654FEA9AA4014080404555555555555953FAA155555555555654FEA9AA4010201011555555555
310
55654FEA8555555555555953FAA6A9005020101155555555555654FEA8555555555555953FAA6A9000
 94
        0
1001
ACAD
1000
AcadProxyRoundTripData
1071
      504
1071
   655383
1070
     0
  0
ACAD_PROXY_OBJECT
  5
1CCF
102
{ACAD_XDICTIONARY
360
1CD0
102
}
102
{ACAD_REACTORS
330
1CCE
102
}
330
1CCE
100
AcDbProxyObject
 90
      499
 91
      510
 93
     1340
310
42109E53185E595C802004014080404555555555555953FAA155555555555654FEA9AA400014080404555555555555953FAA155555555555654FEA9AA400000000000000E03F4080404555555555555953FAA155555555555654FEA9AA4014080404555555555555953FAA155555555555654FEA9AA4010201011555555555
310
55654FEA8555555555555953FAA6A9005020101155555555555654FEA8555555555555953FAA6A9000
 94
        0
1001
ACAD
1000
AcadProxyRoundTripData
1071
      504
1071
   655383
1070
     0
  0
ACAD_PROXY_OBJECT
  5
1CDF
102
{ACAD_XDICTIONARY
360
1CE0
102
}
102
{ACAD_REACTORS
330
1CCE
102
}
330
1CCE
100
AcDbProxyObject
 90
      499
 91
      510
 93
     1332
310
41D1DB1BD8985B002004014080404555555555555953FAA155555555555654FEA9AA400014080404555555555555953FAA155555555555654FEA9AA400000000000000E03F4080404555555555555953FAA155555555555654FEA9AA4014080404555555555555953FAA155555555555654FEA9AA401020101155555555555
310
654FEA8555555555555953FAA6A9005020101155555555555654FEA8555555555555953FAA6A9000
 94
        0
1001
ACAD
1000
AcadProxyRoundTripData
1071
      504
1071
   655383
1070
     0
  0
ACAD_PROXY_OBJECT
  5
1D1E
102
{ACAD_REACTORS
330
1D1D
102
}
330
1D1D
100
AcDbProxyObject
 90
      499
 91
      510
 93
      618
310
40901902A4063FBFFFFFE056BD1B81E855B9FC0AD7A3703D0AD73F4254DD185B99185C990000AD7A3703D0AC73F90141901A02B5E8DC0F42B1CFC02B5E8DC0F42B1CFE5764000000000000300FC6
340
6A
340
0
340
16
340
0
 94
        0
1001
ACAD_MLEADERVER
1070
     2
1001
ACAD
1000
AcadProxyRoundTripData
1071
      508
1071
   655383
1070
     0
  0
MLINESTYLE
  5
78
102
{ACAD_REACTORS
330
76
102
}
330
76
100
AcDbMlineStyle
  2
STANDARD
 70
     0
  3

 62
     0
 51
90.0
 52
90.0
 71
     2
 49
0.5
 62
   256
  6
BYLAYER
 49
-0.5
 62
   256
  6
BYLAYER
  0
ACDBPLACEHOLDER
  5
5
102
{ACAD_REACTORS
330
6
102
}
330
6
100
AcDbPlaceHolder
280
     0
  0
ACAD_PROXY_OBJECT
  5
1CFC
102
{ACAD_REACTORS
330
1CFB
102
}
330
1CFB
100
AcDbProxyObject
 90
      499
 91
      510
 93
       49
310
904313A3100598
 94
        0
1001
ACAD
1000
AcadProxyRoundTripData
1071
      507
1071
   655383
1070
     0
  0
ACAD_PROXY_OBJECT
  5
1CFD
102
{ACAD_REACTORS
330
1CFB
102
}
330
1CFB
100
AcDbProxyObject
 90
      499
 91
      510
 93
      113
310
904313A3200400000000000000406B
 94
        0
1001
ACAD
1000
AcadProxyRoundTripData
1071
      507
1071
   655383
1070
     0
  0
ACAD_PROXY_OBJECT
  5
1CFE
102
{ACAD_REACTORS
330
1CFB
102
}
330
1CFB
100
AcDbProxyObject
 90
      499
 91
      510
 93
      113
310
904313A3400400000000000010406B
 94
        0
1001
ACAD
1000
AcadProxyRoundTripData
1071
      507
1071
   655383
1070
     0
  0
ACAD_PROXY_OBJECT
  5
1CFF
102
{ACAD_REACTORS
330
1CFB
102
}
330
1CFB
100
AcDbProxyObject
 90
      499
 91
      510
 93
      113
310
904313A3500400000000000014406B
 94
        0
1001
ACAD
1000
AcadProxyRoundTripData
1071
      507
1071
   655383
1070
     0
  0
ACAD_PROXY_OBJECT
  5
1D00
102
{ACAD_REACTORS
330
1CFB
102
}
330
1CFB
100
AcDbProxyObject
 90
      499
 91
      510
 93
      113
310
904313A3800400000000000020406B
 94
        0
1001
ACAD
1000
AcadProxyRoundTripData
1071
      507
1071
   655383
1070
     0
  0
ACAD_PROXY_OBJECT
  5
1D01
102
{ACAD_REACTORS
330
1CFB
102
}
330
1CFB
100
AcDbProxyObject
 90
      499
 91
      510
 93
      121
310
905313A3130004000000000000244051
 94
        0
1001
ACAD
1000
AcadProxyRoundTripData
1071
      507
1071
   655383
1070
     0
  0
ACAD_PROXY_OBJECT
  5
1D02
102
{ACAD_REACTORS
330
1CFB
102
}
330
1CFB
100
AcDbProxyObject
 90
      499
 91
      510
 93
      121
310
905313A3136004000000000000304051
 94
        0
1001
ACAD
1000
AcadProxyRoundTripData
1071
      507
1071
   655383
1070
     0
  0
ACAD_PROXY_OBJECT
  5
1D03
102
{ACAD_REACTORS
330
1CFB
102
}
330
1CFB
100
AcDbProxyObject
 90
      499
 91
      510
 93
      121
310
905313A3230004000000000000344051
 94
        0
1001
ACAD
1000
AcadProxyRoundTripData
1071
      507
1071
   655383
1070
     0
  0
ACAD_PROXY_OBJECT
  5
1D04
102
{ACAD_REACTORS
330
1CFB
102
}
330
1CFB
100
AcDbProxyObject
 90
      499
 91
      510
 93
      121
310
905313A33300040000000000003E4051
 94
        0
1001
ACAD
1000
AcadProxyRoundTripData
1071
      507
1071
   655383
1070
     0
  0
ACAD_PROXY_OBJECT
  5
1D05
102
{ACAD_REACTORS
330
1CFB
102
}
330
1CFB
100
AcDbProxyObject
 90
      499
 91
      510
 93
      121
310
905313A3430004000000000000444051
 94
        0
1001
ACAD
1000
AcadProxyRoundTripData
1071
      507
1071
   655383
1070
     0
  0
ACAD_PROXY_OBJECT
  5
1D06
102
{ACAD_REACTORS
330
1CFB
102
}
330
1CFB
100
AcDbProxyObject
 90
      499
 91
      510
 93
      121
310
905313A3530004000000000000494051
 94
        0
1001
ACAD
1000
AcadProxyRoundTripData
1071
      507
1071
   655383
1070
     0
  0
ACAD_PROXY_OBJECT
  5
1D07
102
{ACAD_REACTORS
330
1CFB
102
}
330
1CFB
100
AcDbProxyObject
 90
      499
 91
      510
 93
      129
310
906313A313030004000000000000594038
 94
        0
1001
ACAD
1000
AcadProxyRoundTripData
1071
      507
1071
   655383
1070
     0
  0
ACAD_PROXY_OBJECT
  5
1D08
102
{ACAD_REACTORS
330
1CFB
102
}
330
1CFB
100
AcDbProxyObject
 90
      499
 91
      510
 93
      113
310
904323A31000000000000000010159
 94
        0
1001
ACAD
1000
AcadProxyRoundTripData
1071
      507
1071
   655383
1070
     0
  0
ACAD_PROXY_OBJECT
  5
1D09
102
{ACAD_REACTORS
330
1CFB
102
}
330
1CFB
100
AcDbProxyObject
 90
      499
 91
      510
 93
      113
310
904343A31000000000000000410159
 94
        0
1001
ACAD
1000
AcadProxyRoundTripData
1071
      507
1071
   655383
1070
     0
  0
ACAD_PROXY_OBJECT
  5
1D0A
102
{ACAD_REACTORS
330
1CFB
102
}
330
1CFB
100
AcDbProxyObject
 90
      499
 91
      510
 93
      113
310
904383A31000000000000000810159
 94
        0
1001
ACAD
1000
AcadProxyRoundTripData
1071
      507
1071
   655383
1070
     0
  0
ACAD_PROXY_OBJECT
  5
1D0B
102
{ACAD_REACTORS
330
1CFB
102
}
330
1CFB
100
AcDbProxyObject
 90
      499
 91
      510
 93
      121
310
90531303A31000000000000000910140
 94
        0
1001
ACAD
1000
AcadProxyRoundTripData
1071
      507
1071
   655383
1070
     0
  0
ACAD_PROXY_OBJECT
  5
1D0C
102
{ACAD_REACTORS
330
1CFB
102
}
330
1CFB
100
AcDbProxyObject
 90
      499
 91
      510
 93
      129
310
9063130303A31000000000000001650138
 94
        0
1001
ACAD
1000
AcadProxyRoundTripData
1071
      507
1071
   655383
1070
     0
  0
ACAD_PROXY_OBJECT
  5
1D0D
102
{ACAD_REACTORS
330
1CFB
102
}
330
1CFB
100
AcDbProxyObject
 90
      499
 91
      510
 93
      265
310
90F312F31323822203D2031272D302200000000000000200FC00000000000028402B
 94
        0
1001
ACAD
1000
AcadProxyRoundTripData
1071
      507
1071
   655383
1070
     0
  0
ACAD_PROXY_OBJECT
  5
1D0E
102
{ACAD_REACTORS
330
1CFB
102
}
330
1CFB
100
AcDbProxyObject
 90
      499
 91
      510
 93
      257
310
90E312F363422203D2031272D302200000000000000240FC000000000000284040
 94
        0
1001
ACAD
1000
AcadProxyRoundTripData
1071
      507
1071
   655383
1070
     0
  0
ACAD_PROXY_OBJECT
  5
1D0F
102
{ACAD_REACTORS
330
1CFB
102
}
330
1CFB
100
AcDbProxyObject
 90
      499
 91
      510
 93
      257
310
90E312F333222203D2031272D302200000000000000280FC000000000000284040
 94
        0
1001
ACAD
1000
AcadProxyRoundTripData
1071
      507
1071
   655383
1070
     0
  0
ACAD_PROXY_OBJECT
  5
1D10
102
{ACAD_REACTORS
330
1CFB
102
}
330
1CFB
100
AcDbProxyObject
 90
      499
 91
      510
 93
      257
310
90E312F313622203D2031272D3022000000000000002C0FC000000000000284040
 94
        0
1001
ACAD
1000
AcadProxyRoundTripData
1071
      507
1071
   655383
1070
     0
  0
ACAD_PROXY_OBJECT
  5
1D11
102
{ACAD_REACTORS
330
1CFB
102
}
330
1CFB
100
AcDbProxyObject
 90
      499
 91
      510
 93
      257
310
90E332F333222203D2031272D3022000000000000002E0FC000000000000284040
 94
        0
1001
ACAD
1000
AcadProxyRoundTripData
1071
      507
1071
   655383
1070
     0
  0
ACAD_PROXY_OBJECT
  5
1D12
102
{ACAD_REACTORS
330
1CFB
102
}
330
1CFB
100
AcDbProxyObject
 90
      499
 91
      510
 93
      249
310
90D312F3822203D2031272D302200000000000000300FC000000000000284040
 94
        0
1001
ACAD
1000
AcadProxyRoundTripData
1071
      507
1071
   655383
1070
     0
  0
ACAD_PROXY_OBJECT
  5
1D13
102
{ACAD_REACTORS
330
1CFB
102
}
330
1CFB
100
AcDbProxyObject
 90
      499
 91
      510
 93
      257
310
90E332F313622203D2031272D302200000000000000320FC000000000000284040
 94
        0
1001
ACAD
1000
AcadProxyRoundTripData
1071
      507
1071
   655383
1070
     0
  0
ACAD_PROXY_OBJECT
  5
1D14
102
{ACAD_REACTORS
330
1CFB
102
}
330
1CFB
100
AcDbProxyObject
 90
      499
 91
      510
 93
      249
310
90D312F3422203D2031272D302200000000000000340FC000000000000284040
 94
        0
1001
ACAD
1000
AcadProxyRoundTripData
1071
      507
1071
   655383
1070
     0
  0
ACAD_PROXY_OBJECT
  5
1D15
102
{ACAD_REACTORS
330
1CFB
102
}
330
1CFB
100
AcDbProxyObject
 90
      499
 91
      510
 93
      249
310
90D332F3822203D2031272D302200000000000000360FC000000000000284040
 94
        0
1001
ACAD
1000
AcadProxyRoundTripData
1071
      507
1071
   655383
1070
     0
  0
ACAD_PROXY_OBJECT
  5
1D16
102
{ACAD_REACTORS
330
1CFB
102
}
330
1CFB
100
AcDbProxyObject
 90
      499
 91
      510
 93
      249
310
90D312F3222203D2031272D302200000000000000380FC000000000000284040
 94
        0
1001
ACAD
1000
AcadProxyRoundTripData
1071
      507
1071
   655383
1070
     0
  0
ACAD_PROXY_OBJECT
  5
1D17
102
{ACAD_REACTORS
330
1CFB
102
}
330
1CFB
100
AcDbProxyObject
 90
      499
 91
      510
 93
      249
310
90D332F3422203D2031272D3022000000000000003A0FC000000000000284040
 94
        0
1001
ACAD
1000
AcadProxyRoundTripData
1071
      507
1071
   655383
1070
     0
  0
ACAD_PROXY_OBJECT
  5
1D18
102
{ACAD_REACTORS
330
1CFB
102
}
330
1CFB
100
AcDbProxyObject
 90
      499
 91
      510
 93
      169
310
90B3122203D2031272D3022004000000000000284020
 94
        0
1001
ACAD
1000
AcadProxyRoundTripData
1071
      507
1071
   655383
1070
     0
  0
ACAD_PROXY_OBJECT
  5
1D19
102
{ACAD_REACTORS
330
1CFB
102
}
330
1CFB
100
AcDbProxyObject
 90
      499
 91
      510
 93
      265
310
90F312D312F3222203D2031272D3022000000000000003E0FC00000000000028402B
 94
        0
1001
ACAD
1000
AcadProxyRoundTripData
1071
      507
1071
   655383
1070
     0
  0
ACAD_PROXY_OBJECT
  5
1D1A
102
{ACAD_REACTORS
330
1CFB
102
}
330
1CFB
100
AcDbProxyObject
 90
      499
 91
      510
 93
      233
310
90B3322203D2031272D30220000000000000002100000000000000284000
 94
        0
1001
ACAD
1000
AcadProxyRoundTripData
1071
      507
1071
   655383
1070
     0
  0
ACAD_PROXY_OBJECT
  5
1D1B
102
{ACAD_REACTORS
330
1CFB
102
}
330
1CFB
100
AcDbProxyObject
 90
      499
 91
      510
 93
      233
310
90B3622203D2031272D30220000000000000006100000000000000284000
 94
        0
1001
ACAD
1000
AcadProxyRoundTripData
1071
      507
1071
   655383
1070
     0
  0
ACAD_PROXY_OBJECT
  5
1D1C
102
{ACAD_REACTORS
330
1CFB
102
}
330
1CFB
100
AcDbProxyObject
 90
      499
 91
      510
 93
      257
310
90E31272D3022203D2031272D3022000000000000000A100000000000000284040
 94
        0
1001
ACAD
1000
AcadProxyRoundTripData
1071
      507
1071
   655383
1070
     0
  0
ACAD_PROXY_OBJECT
  5
1CFA
102
{ACAD_XDICTIONARY
360
1D34
102
}
102
{ACAD_REACTORS
330
1CF9
102
}
330
1CF9
100
AcDbProxyObject
 90
      499
 91
      510
 93
     1849
310
4254DD185B99185C990028B81E85EB51B8AE3F2E07A17AD46E2B8FC02B5E8DC0F42B1CFD028000000C1008070000C3001FDFF8000000C1003FBFF000000182007F7FE00000030400FEFFC00000060801FDFF8000000C1003FBFF00000018200000000000000681FA0B0000001820100E000186003FBFF000000182007F7FE0
310
0000030400FEFFC00000060801FDFF8000000C1003FBFF000000182007F7FE000000304000AD7A3703D0AC73F4160000003040201C00030C007F7FE00000030400FEFFC00000060801FDFF8000000C1003FBFF000000182007F7FE00000030400FEFFC000000608042
340
16
340
16
340
16
 94
        0
1001
ACAD
1000
AcadProxyRoundTripData
1071
      506
1071
   655383
1070
     0
  0
ACAD_PROXY_OBJECT
  5
1CED
102
{ACAD_REACTORS
330
1CE7
102
}
330
1CE7
100
AcDbProxyObject
 90
      499
 91
      510
 93
      444
310
430C9915DA5C99599C985B59401049028333333333333E3BF0000000000000FB0107901411070040501600405405064090741402480A0340
 94
        0
1001
ACAD
1000
AcDbSavedByObjectVersion
1070
     0
1000
AcadProxyRoundTripData
1071
      505
1071
   655383
1070
     0
  0
ACAD_PROXY_OBJECT
  5
1CEF
102
{ACAD_REACTORS
330
1CE7
102
}
330
1CE7
100
AcDbProxyObject
 90
      499
 91
      510
 93
      508
310
428CD108121A5919195B8010640502408333333333333E3BF0000000000000FB01079024090700405020000000000001110200405405064090740C02480A0340
 94
        0
1001
ACAD
1000
AcDbSavedByObjectVersion
1070
     0
1000
AcadProxyRoundTripData
1071
      505
1071
   655383
1070
     0
  0
ACAD_PROXY_OBJECT
  5
1CEE
102
{ACAD_REACTORS
330
1CE7
102
}
330
1CE7
100
AcDbProxyObject
 90
      499
 91
      510
 93
      444
310
430CD915DA5C99599C985B59401059028333333333333E3BF0000000000000FB0107901411070040501600405405064090741402480A0340
 94
        0
1001
ACAD
1000
AcDbSavedByObjectVersion
1070
     0
1000
AcadProxyRoundTripData
1071
      505
1071
   655383
1070
     0
  0
ACAD_PROXY_OBJECT
  5
1CEC
102
{ACAD_REACTORS
330
1CE7
102
}
330
1CE7
100
AcDbProxyObject
 90
      499
 91
      510
 93
      396
310
4190985CDA58C0107406404333333333333E3BF0000000000000FB0107A41107004050150841D405064090741402480A0356
 94
        0
1001
ACAD
1000
AcDbSavedByObjectVersion
1070
     0
1000
AcadProxyRoundTripData
1071
      505
1071
   655383
1070
     0
  0
ACAD_PROXY_OBJECT
  5
1CF3
102
{ACAD_REACTORS
330
1CE7
102
}
330
1CE7
100
AcDbProxyObject
 90
      499
 91
      510
 93
      436
310
42509C9A59DA1D195B8010C409028333333333333E3BF0000000000000FB010790141107004050150841D405064090741402480A029956
 94
        0
1001
ACAD
1000
AcDbSavedByObjectVersion
1070
     0
1000
AcadProxyRoundTripData
1071
      505
1071
   655383
1070
     0
  0
ACAD_PROXY_OBJECT
  5
1CF7
102
{ACAD_REACTORS
330
1CE7
102
}
330
1CE7
100
AcDbProxyObject
 90
      499
 91
      510
 93
      460
310
4310DBDB1BDC90DA185B99D9401104090240C333333333333E3BF0000000000000FB0108901411070040501508421405064090741402480A0354
 94
        0
1001
ACAD
1000
AcDbSavedByObjectVersion
1070
     0
1000
AcadProxyRoundTripData
1071
      505
1071
   655383
1070
     0
  0
ACAD_PROXY_OBJECT
  5
1CF0
102
{ACAD_REACTORS
330
1CE7
102
}
330
1CE7
100
AcDbProxyObject
 90
      499
 91
      510
 93
      508
310
42D0DBDB98D95C1D1D585B0010940D028333333333333E3BF0000000000000FB0107902409070040501000000000000111010841D405064090740C02480A0340
 94
        0
1001
ACAD
1000
AcDbSavedByObjectVersion
1070
     0
1000
AcadProxyRoundTripData
1071
      505
1071
   655383
1070
     0
  0
ACAD_PROXY_OBJECT
  5
1CF2
102
{ACAD_REACTORS
330
1CE7
102
}
330
1CE7
100
AcDbProxyObject
 90
      499
 91
      510
 93
      420
310
41111A5B4010B409028333333333333E3BF0000000000000FB010790141107004050150841D405064090741402480A02677FFFFFDB
 94
        0
1001
ACAD
1000
AcDbSavedByObjectVersion
1070
     0
1000
AcadProxyRoundTripData
1071
      505
1071
   655383
1070
     0
  0
ACAD_PROXY_OBJECT
  5
1CF6
102
{ACAD_REACTORS
330
1CE7
102
}
330
1CE7
100
AcDbProxyObject
 90
      499
 91
      510
 93
      452
310
43119858D95C185D1D195C9B8010F409028333333333333E3BF0000000000000FB010790141107004050150841D405064090741402480A0350
 94
        0
1001
ACAD
1000
AcDbSavedByObjectVersion
1070
     0
1000
AcadProxyRoundTripData
1071
      505
1071
   655383
1070
     0
  0
ACAD_PROXY_OBJECT
  5
1CE8
102
{ACAD_REACTORS
330
1CE7
102
}
330
1CE7
100
AcDbProxyObject
 90
      499
 91
      510
 93
      396
310
41519B185D00240901404333333333333E3BF0000000000000F9010740A41107004050150841D405064090741402480A1B55
 94
        0
1001
ACAD
1000
AcDbSavedByObjectVersion
1070
     0
1000
AcadProxyRoundTripData
1071
      505
1071
   655383
1070
     0
  0
ACAD_PROXY_OBJECT
  5
1CE9
102
{ACAD_REACTORS
330
1CE7
102
}
330
1CE7
100
AcDbProxyObject
 90
      499
 91
      510
 93
      484
310
43919B185D15DA5D1A115919D95CC010140901404333333333333E3BF0000000000000F9010740901411070040501600405405064090741402480A1B50
 94
        0
1001
ACAD
1000
AcDbSavedByObjectVersion
1070
     0
1000
AcadProxyRoundTripData
1071
      505
1071
   655383
1070
     0
  0
ACAD_PROXY_OBJECT
  5
1CEA
102
{ACAD_REACTORS
330
1CE7
102
}
330
1CE7
100
AcDbProxyObject
 90
      499
 91
      510
 93
      420
310
4211DBDD5C985D590010240902404333333333333E3BF0000000000000F9010740A411070040501641D405064090741402480A1B50
 94
        0
1001
ACAD
1000
AcDbSavedByObjectVersion
1070
     0
1000
AcadProxyRoundTripData
1071
      505
1071
   655383
1070
     0
  0
ACAD_PROXY_OBJECT
  5
1CEB
102
{ACAD_REACTORS
330
1CE7
102
}
330
1CE7
100
AcDbProxyObject
 90
      499
 91
      510
 93
      508
310
4451DBDD5C985D5915DA5D1A115919D95CC010340902404333333333333E3BF0000000000000F9010740901411070040501600405405064090741402480A1B50
 94
        0
1001
ACAD
1000
AcDbSavedByObjectVersion
1070
     0
1000
AcadProxyRoundTripData
1071
      505
1071
   655383
1070
     0
  0
ACAD_PROXY_OBJECT
  5
1CF5
102
{ACAD_REACTORS
330
1CE7
102
}
330
1CE7
100
AcDbProxyObject
 90
      499
 91
      510
 93
      452
310
43131A5B995C185D1D195C9B8010E409028333333333333E3BF0000000000000FB010790141107004050750841D405064090741402483A0350
 94
        0
1001
ACAD
1000
AcDbSavedByObjectVersion
1070
     0
1000
AcadProxyRoundTripData
1071
      505
1071
   655383
1070
     0
  0
ACAD_PROXY_OBJECT
  5
1CF1
102
{ACAD_REACTORS
330
1CE7
102
}
330
1CE7
100
AcDbProxyObject
 90
      499
 91
      510
 93
      428
310
429499585B1A5CDD1A58C0108409028333333333333E3BF0000000000000FB01079019070040501508421405064090741402480A1B45
 94
        0
1001
ACAD
1000
AcDbSavedByObjectVersion
1070
     0
1000
AcadProxyRoundTripData
1071
      505
1071
   655383
1070
     0
  0
ACAD_PROXY_OBJECT
  5
1CF4
102
{ACAD_REACTORS
330
1CE7
102
}
330
1CE7
100
AcDbProxyObject
 90
      499
 91
      510
 93
      420
310
42151A1A58DAD95B8010D409028333333333333E3BF0000000000000FB010790141107004050150C41D405064090741402480A0352
 94
        0
1001
ACAD
1000
AcDbSavedByObjectVersion
1070
     0
1000
AcadProxyRoundTripData
1071
      505
1071
   655383
1070
     0
  0
XRECORD
  5
1F18
102
{ACAD_REACTORS
330
1F0E
102
}
330
1F0E
100
AcDbXrecord
 90
        0
  0
XRECORD
  5
1F1C
102
{ACAD_REACTORS
330
1F0E
102
}
330
1F0E
100
AcDbXrecord
1000
DSTYLE
1002
{
1070
   179
 70
     2
1070
   277
 70
     6
1002
}
  0
XRECORD
  5
1F19
102
{ACAD_REACTORS
330
1F0E
102
}
330
1F0E
100
AcDbXrecord
  1
{6385560B-F4B1-4644-A7C2-A3E32AC3D232}
  0
XRECORD
  5
1F11
102
{ACAD_REACTORS
330
1F0E
102
}
330
1F0E
100
AcDbXrecord
  1

  0
XRECORD
  5
1F17
102
{ACAD_REACTORS
330
1F0E
102
}
330
1F0E
100
AcDbXrecord
 90
        0
  0
XRECORD
  5
1F13
102
{ACAD_REACTORS
330
1F0E
102
}
330
1F0E
100
AcDbXrecord
340
61
  0
XRECORD
  5
1F16
102
{ACAD_REACTORS
330
1F0E
102
}
330
1F0E
100
AcDbXrecord
 90
    10781
  0
XRECORD
  5
1F14
102
{ACAD_REACTORS
330
1F0E
102
}
330
1F0E
100
AcDbXrecord
340
77
  0
XRECORD
  5
1F15
102
{ACAD_REACTORS
330
1F0E
102
}
330
1F0E
100
AcDbXrecord
340
6
  0
XRECORD
  5
1F1B
102
{ACAD_REACTORS
330
1F0E
102
}
330
1F0E
100
AcDbXrecord
 40
0.0
  0
XRECORD
  5
1F1F
102
{ACAD_REACTORS
330
1F0E
102
}
330
1F0E
100
AcDbXrecord
340
0
  0
XRECORD
  5
1F25
102
{ACAD_REACTORS
330
1F0E
102
}
330
1F0E
100
AcDbXrecord
 10
0.0
 20
0.0
 30
0.0
  0
XRECORD
  5
1F21
102
{ACAD_REACTORS
330
1F0E
102
}
330
1F0E
100
AcDbXrecord
 10
0.0
 20
0.0
 30
0.0
  0
XRECORD
  5
1F24
102
{ACAD_REACTORS
330
1F0E
102
}
330
1F0E
100
AcDbXrecord
 10
0.0
 20
0.0
 30
0.0
  0
XRECORD
  5
1F22
102
{ACAD_REACTORS
330
1F0E
102
}
330
1F0E
100
AcDbXrecord
 10
0.0
 20
0.0
 30
0.0
  0
XRECORD
  5
1F23
102
{ACAD_REACTORS
330
1F0E
102
}
330
1F0E
100
AcDbXrecord
 10
0.0
 20
0.0
 30
0.0
  0
XRECORD
  5
1F20
102
{ACAD_REACTORS
330
1F0E
102
}
330
1F0E
100
AcDbXrecord
 10
0.0
 20
0.0
 30
0.0
  0
XRECORD
  5
1F1D
102
{ACAD_REACTORS
330
1F0E
102
}
330
1F0E
100
AcDbXrecord
340
0
  0
XRECORD
  5
1F1E
102
{ACAD_REACTORS
330
1F0E
102
}
330
1F0E
100
AcDbXrecord
 70
     0
  0
XRECORD
  5
1F12
102
{ACAD_REACTORS
330
1F0E
102
}
330
1F0E
100
AcDbXrecord
  1
Sekkei.ctb
  0
XRECORD
  5
1F0F
102
{ACAD_REACTORS
330
1F0E
102
}
330
1F0E
100
AcDbXrecord
 90
        1
  0
XRECORD
  5
1F10
102
{ACAD_REACTORS
330
1F0E
102
}
330
1F0E
100
AcDbXrecord
 90
       70
  0
XRECORD
  5
1F28
102
{ACAD_REACTORS
330
1F0E
102
}
330
1F0E
100
AcDbXrecord
340
0
  0
XRECORD
  5
1F2E
102
{ACAD_REACTORS
330
1F0E
102
}
330
1F0E
100
AcDbXrecord
 10
0.0
 20
0.0
 30
0.0
  0
XRECORD
  5
1F2A
102
{ACAD_REACTORS
330
1F0E
102
}
330
1F0E
100
AcDbXrecord
 10
0.0
 20
0.0
 30
0.0
  0
XRECORD
  5
1F2D
102
{ACAD_REACTORS
330
1F0E
102
}
330
1F0E
100
AcDbXrecord
 10
0.0
 20
0.0
 30
0.0
  0
XRECORD
  5
1F2B
102
{ACAD_REACTORS
330
1F0E
102
}
330
1F0E
100
AcDbXrecord
 10
0.0
 20
0.0
 30
0.0
  0
XRECORD
  5
1F2C
102
{ACAD_REACTORS
330
1F0E
102
}
330
1F0E
100
AcDbXrecord
 10
0.0
 20
0.0
 30
0.0
  0
XRECORD
  5
1F29
102
{ACAD_REACTORS
330
1F0E
102
}
330
1F0E
100
AcDbXrecord
 10
0.0
 20
0.0
 30
0.0
  0
XRECORD
  5
1F26
102
{ACAD_REACTORS
330
1F0E
102
}
330
1F0E
100
AcDbXrecord
340
0
  0
XRECORD
  5
1F27
102
{ACAD_REACTORS
330
1F0E
102
}
330
1F0E
100
AcDbXrecord
 70
     0
  0
XRECORD
  5
1F1A
102
{ACAD_REACTORS
330
1F0E
102
}
330
1F0E
100
AcDbXrecord
  1
{F6658A2F-66C1-4C2E-BE78-6E4389D56164}
  0
DICTIONARYVAR
  5
1D57
102
{ACAD_REACTORS
330
102
102
}
330
102
100
DictionaryVariables
280
     0
  1
1:1
  0
DICTIONARYVAR
  5
1D56
102
{ACAD_REACTORS
330
102
102
}
330
102
100
DictionaryVariables
280
     0
  1
STANDARD
  0
DICTIONARYVAR
  5
1D55
102
{ACAD_REACTORS
330
102
102
}
330
102
100
DictionaryVariables
280
     0
  1
STANDARD
  0
DICTIONARYVAR
  5
103
102
{ACAD_REACTORS
330
102
102
}
330
102
100
DictionaryVariables
280
     0
  1
1
  0
DICTIONARYVAR
  5
1D58
102
{ACAD_REACTORS
330
102
102
}
330
102
100
DictionaryVariables
280
     0
  1
0
  0
DICTIONARYVAR
  5
549
102
{ACAD_REACTORS
330
102
102
}
330
102
100
DictionaryVariables
280
     0
  1
96
  0
DICTIONARY
  5
1CD8
330
1CD7
100
AcDbDictionary
280
     1
  3
ACAD_XREC_ROUNDTRIP
360
1EF3
  3
BUMPTILE
360
1CDA
  3
DIFFUSETILE
360
1CD9
  3
OPACITYTILE
360
1CDD
  3
REFLECTIONTILE
360
1CDC
  3
REFRACTIONTILE
360
1CDE
  3
SPECULARTILE
360
1CDB
  0
DICTIONARY
  5
1CD0
330
1CCF
100
AcDbDictionary
280
     1
  3
ACAD_XREC_ROUNDTRIP
360
1EF2
  3
BUMPTILE
360
1CD2
  3
DIFFUSETILE
360
1CD1
  3
OPACITYTILE
360
1CD5
  3
REFLECTIONTILE
360
1CD4
  3
REFRACTIONTILE
360
1CD6
  3
SPECULARTILE
360
1CD3
  0
DICTIONARY
  5
1CE0
330
1CDF
100
AcDbDictionary
280
     1
  3
ACAD_XREC_ROUNDTRIP
360
1EF4
  3
BUMPTILE
360
1CE2
  3
DIFFUSETILE
360
1CE1
  3
OPACITYTILE
360
1CE5
  3
REFLECTIONTILE
360
1CE4
  3
REFRACTIONTILE
360
1CE6
  3
SPECULARTILE
360
1CE3
  0
DICTIONARY
  5
1D34
330
1CFA
100
AcDbDictionary
280
     1
  3
ACAD_ROUNDTRIP_2008_TABLES
360
1ED9
  3
ACAD_XREC_ROUNDTRIP
360
1EF5
  0
XRECORD
  5
1EF3
102
{ACAD_REACTORS
330
1CD8
102
}
330
1CD8
100
AcDbXrecord
102
MATERIAL
148
0.0
149
0.0
149
0.0
 93
        0
 94
      127
282
     0
 72
     0
 77
     0
171
     0
175
     0
179
     0
273
     0
  0
XRECORD
  5
1CDA
102
{ACAD_REACTORS
330
1CD8
102
}
330
1CD8
100
AcDbXrecord
270
     1
271
     1
  0
XRECORD
  5
1CD9
102
{ACAD_REACTORS
330
1CD8
102
}
330
1CD8
100
AcDbXrecord
270
     1
271
     1
  0
XRECORD
  5
1CDD
102
{ACAD_REACTORS
330
1CD8
102
}
330
1CD8
100
AcDbXrecord
270
     1
271
     1
  0
XRECORD
  5
1CDC
102
{ACAD_REACTORS
330
1CD8
102
}
330
1CD8
100
AcDbXrecord
270
     1
271
     1
  0
XRECORD
  5
1CDE
102
{ACAD_REACTORS
330
1CD8
102
}
330
1CD8
100
AcDbXrecord
270
     1
271
     1
  0
XRECORD
  5
1CDB
102
{ACAD_REACTORS
330
1CD8
102
}
330
1CD8
100
AcDbXrecord
270
     1
271
     1
  0
XRECORD
  5
1EF2
102
{ACAD_REACTORS
330
1CD0
102
}
330
1CD0
100
AcDbXrecord
102
MATERIAL
148
0.0
149
0.0
149
0.0
 93
        0
 94
      127
282
     0
 72
     0
 77
     0
171
     0
175
     0
179
     0
273
     0
  0
XRECORD
  5
1CD2
102
{ACAD_REACTORS
330
1CD0
102
}
330
1CD0
100
AcDbXrecord
270
     1
271
     1
  0
XRECORD
  5
1CD1
102
{ACAD_REACTORS
330
1CD0
102
}
330
1CD0
100
AcDbXrecord
270
     1
271
     1
  0
XRECORD
  5
1CD5
102
{ACAD_REACTORS
330
1CD0
102
}
330
1CD0
100
AcDbXrecord
270
     1
271
     1
  0
XRECORD
  5
1CD4
102
{ACAD_REACTORS
330
1CD0
102
}
330
1CD0
100
AcDbXrecord
270
     1
271
     1
  0
XRECORD
  5
1CD6
102
{ACAD_REACTORS
330
1CD0
102
}
330
1CD0
100
AcDbXrecord
270
     1
271
     1
  0
XRECORD
  5
1CD3
102
{ACAD_REACTORS
330
1CD0
102
}
330
1CD0
100
AcDbXrecord
270
     1
271
     1
  0
XRECORD
  5
1EF4
102
{ACAD_REACTORS
330
1CE0
102
}
330
1CE0
100
AcDbXrecord
102
MATERIAL
148
0.0
149
0.0
149
0.0
 93
        0
 94
      127
282
     0
 72
     0
 77
     0
171
     0
175
     0
179
     0
273
     0
  0
XRECORD
  5
1CE2
102
{ACAD_REACTORS
330
1CE0
102
}
330
1CE0
100
AcDbXrecord
270
     1
271
     1
  0
XRECORD
  5
1CE1
102
{ACAD_REACTORS
330
1CE0
102
}
330
1CE0
100
AcDbXrecord
270
     1
271
     1
  0
XRECORD
  5
1CE5
102
{ACAD_REACTORS
330
1CE0
102
}
330
1CE0
100
AcDbXrecord
270
     1
271
     1
  0
XRECORD
  5
1CE4
102
{ACAD_REACTORS
330
1CE0
102
}
330
1CE0
100
AcDbXrecord
270
     1
271
     1
  0
XRECORD
  5
1CE6
102
{ACAD_REACTORS
330
1CE0
102
}
330
1CE0
100
AcDbXrecord
270
     1
271
     1
  0
XRECORD
  5
1CE3
102
{ACAD_REACTORS
330
1CE0
102
}
330
1CE0
100
AcDbXrecord
270
     1
271
     1
  0
ACAD_PROXY_OBJECT
  5
1ED9
102
{ACAD_REACTORS
330
1D34
102
}
330
1D34
100
AcDbProxyObject
 90
      499
 91
      510
 93
     1044
310
40D054060020000020000003200101A000080002A5058000000C100000000000000340FE901405075F5449544C450041501A8000000C800406800020000A9416000000304000AD7A3703D0AC73FA409014217D2115051115480105406A0000003200101A000080002A5028000000C10002B5E8DC0F42B1CFE903409065F444
310
15441003
340
16
340
16
340
16
 94
        0
1001
ACAD
1000
AcadProxyRoundTripData
1071
      509
1071
   655383
1070
     0
  0
XRECORD
  5
1EF5
102
{ACAD_REACTORS
330
1D34
102
}
330
1D34
100
AcDbXrecord
102
ACAD_ROUNDTRIP_PRE2007_TABLESTYLE
 90
      512
 91
        0
  1

 92
      512
 93
        0
  2

 94
      512
 95
        0
  3

  0
ENDSEC
  0
EOF
