  0
SECTION
  2
HEADER
  9
$ACADVER
  1
AC1014
  9
$ACADMAINTVER
 70
     9
  9
$DWGCODEPAGE
  3
ANSI_932
  9
$INSBASE
 10
0.0
 20
0.0
 30
0.0
  9
$EXTMIN
 10
39.0982170539261
 20
56.74229556809968
 30
0.0
  9
$EXTMAX
 10
945.4165748929789
 20
444.3552626911584
 30
0.0
  9
$LIMMIN
 10
0.0
 20
0.0
  9
$LIMMAX
 10
297.0
 20
210.0
  9
$ORTHOMODE
 70
     0
  9
$REGENMODE
 70
     1
  9
$FILLMODE
 70
     1
  9
$QTEXTMODE
 70
     0
  9
$MIRRTEXT
 70
     0
  9
$DRAGMODE
 70
     2
  9
$LTSCALE
 40
3.0
  9
$OSMODE
 70
    37
  9
$ATTMODE
 70
     1
  9
$TEXTSIZE
 40
2.0
  9
$TRACEWID
 40
1.0
  9
$TEXTSTYLE
  7
STANDARD
  9
$CLAYER
  8
0
  9
$CELTYPE
  6
BYLAYER
  9
$CECOLOR
 62
   256
  9
$CELTSCALE
 40
1.0
  9
$DELOBJ
 70
     1
  9
$DISPSILH
 70
     0
  9
$DIMSCALE
 40
3.0
  9
$DIMASZ
 40
1.8
  9
$DIMEXO
 40
0.625
  9
$DIMDLI
 40
3.75
  9
$DIMRND
 40
0.0
  9
$DIMDLE
 40
0.0
  9
$DIMEXE
 40
0.8
  9
$DIMTP
 40
0.0
  9
$DIMTM
 40
0.0
  9
$DIMTXT
 40
1.8
  9
$DIMCEN
 40
2.5
  9
$DIMTSZ
 40
0.0
  9
$DIMTOL
 70
     0
  9
$DIMLIM
 70
     0
  9
$DIMTIH
 70
     0
  9
$DIMTOH
 70
     0
  9
$DIMSE1
 70
     0
  9
$DIMSE2
 70
     0
  9
$DIMTAD
 70
     1
  9
$DIMZIN
 70
     8
  9
$DIMBLK
  1

  9
$DIMASO
 70
     1
  9
$DIMSHO
 70
     1
  9
$DIMPOST
  1

  9
$DIMAPOST
  1

  9
$DIMALT
 70
     0
  9
$DIMALTD
 70
     4
  9
$DIMALTF
 40
0.0394
  9
$DIMLFAC
 40
1.0
  9
$DIMTOFL
 70
     1
  9
$DIMTVP
 40
0.0
  9
$DIMTIX
 70
     0
  9
$DIMSOXD
 70
     0
  9
$DIMSAH
 70
     0
  9
$DIMBLK1
  1

  9
$DIMBLK2
  1

  9
$DIMSTYLE
  2
STANDARD
  9
$DIMCLRD
 70
     0
  9
$DIMCLRE
 70
     0
  9
$DIMCLRT
 70
     0
  9
$DIMTFAC
 40
1.0
  9
$DIMGAP
 40
0.75
  9
$DIMJUST
 70
     0
  9
$DIMSD1
 70
     0
  9
$DIMSD2
 70
     0
  9
$DIMTOLJ
 70
     1
  9
$DIMTZIN
 70
     0
  9
$DIMALTZ
 70
     0
  9
$DIMALTTZ
 70
     0
  9
$DIMFIT
 70
     3
  9
$DIMUPT
 70
     0
  9
$DIMUNIT
 70
     8
  9
$DIMDEC
 70
     2
  9
$DIMTDEC
 70
     2
  9
$DIMALTU
 70
     8
  9
$DIMALTTD
 70
     4
  9
$DIMTXSTY
  7
STANDARD
  9
$DIMAUNIT
 70
     0
  9
$LUNITS
 70
     2
  9
$LUPREC
 70
     3
  9
$SKETCHINC
 40
1.0
  9
$FILLETRAD
 40
10.0
  9
$AUNITS
 70
     0
  9
$AUPREC
 70
     2
  9
$MENU
  1
.
  9
$ELEVATION
 40
0.0
  9
$PELEVATION
 40
0.0
  9
$THICKNESS
 40
0.0
  9
$LIMCHECK
 70
     0
  9
$BLIPMODE
 70
     0
  9
$CHAMFERA
 40
0.0
  9
$CHAMFERB
 40
0.0
  9
$CHAMFERC
 40
20.0
  9
$CHAMFERD
 40
0.0
  9
$SKPOLY
 70
     0
  9
$TDCREATE
 40
2454410.557961331
  9
$TDUPDATE
 40
2454425.732535983
  9
$TDINDWG
 40
0.0817147454
  9
$TDUSRTIMER
 40
0.0817145602
  9
$USRTIMER
 70
     1
  9
$ANGBASE
 50
0.0
  9
$ANGDIR
 70
     0
  9
$PDMODE
 70
     0
  9
$PDSIZE
 40
-10.0
  9
$PLINEWID
 40
0.0
  9
$COORDS
 70
     0
  9
$SPLFRAME
 70
     0
  9
$SPLINETYPE
 70
     6
  9
$SPLINESEGS
 70
     8
  9
$ATTDIA
 70
     0
  9
$ATTREQ
 70
     1
  9
$HANDLING
 70
-16383
  9
$HANDSEED
  5
2EFC
  9
$SURFTAB1
 70
     6
  9
$SURFTAB2
 70
     6
  9
$SURFTYPE
 70
     6
  9
$SURFU
 70
     6
  9
$SURFV
 70
     6
  9
$UCSNAME
  2

  9
$UCSORG
 10
0.0
 20
0.0
 30
0.0
  9
$UCSXDIR
 10
1.0
 20
0.0
 30
0.0
  9
$UCSYDIR
 10
0.0
 20
1.0
 30
0.0
  9
$PUCSNAME
  2

  9
$PUCSORG
 10
0.0
 20
0.0
 30
0.0
  9
$PUCSXDIR
 10
1.0
 20
0.0
 30
0.0
  9
$PUCSYDIR
 10
0.0
 20
1.0
 30
0.0
  9
$USERI1
 70
     0
  9
$USERI2
 70
     0
  9
$USERI3
 70
     0
  9
$USERI4
 70
     0
  9
$USERI5
 70
     0
  9
$USERR1
 40
0.0
  9
$USERR2
 40
0.0
  9
$USERR3
 40
0.0
  9
$USERR4
 40
0.0
  9
$USERR5
 40
0.0
  9
$WORLDVIEW
 70
     1
  9
$SHADEDGE
 70
     3
  9
$SHADEDIF
 70
    70
  9
$TILEMODE
 70
     1
  9
$MAXACTVP
 70
    48
  9
$PINSBASE
 10
0.0
 20
0.0
 30
0.0
  9
$PLIMCHECK
 70
     0
  9
$PEXTMIN
 10
0.0
 20
0.0
 30
0.0
  9
$PEXTMAX
 10
0.0
 20
0.0
 30
0.0
  9
$PLIMMIN
 10
0.0
 20
0.0
  9
$PLIMMAX
 10
12.0
 20
9.0
  9
$UNITMODE
 70
     0
  9
$VISRETAIN
 70
     1
  9
$PLINEGEN
 70
     0
  9
$PSLTSCALE
 70
     1
  9
$TREEDEPTH
 70
  3020
  9
$PICKSTYLE
 70
     1
  9
$CMLSTYLE
  2
STANDARD
  9
$CMLJUST
 70
     0
  9
$CMLSCALE
 40
1.0
  9
$PROXYGRAPHICS
 70
     1
  9
$MEASUREMENT
 70
     0
  0
ENDSEC
  0
SECTION
  2
CLASSES
  0
CLASS
  1
DICTIONARYVAR
  2
AcDbDictionaryVar
  3
AutoCAD 2000
 90
        0
280
     0
281
     0
  0
CLASS
  1
ACDBDICTIONARYWDFLT
  2
AcDbDictionaryWithDefault
  3
AutoCAD 2000
 90
        0
280
     0
281
     0
  0
CLASS
  1
ACDBPLACEHOLDER
  2
AcDbPlaceHolder
  3
AutoCAD 2000
 90
        0
280
     0
281
     0
  0
CLASS
  1
LAYOUT
  2
AcDbLayout
  3
AutoCAD 2000
 90
        0
280
     0
281
     0
  0
CLASS
  1
MATERIAL
  2
AcDbMaterial
  3
ObjectDBX Classes
 90
     1153
280
     0
281
     0
  0
CLASS
  1
VISUALSTYLE
  2
AcDbVisualStyle
  3
ObjectDBX Classes
 90
     4095
280
     0
281
     0
  0
CLASS
  1
TABLESTYLE
  2
AcDbTableStyle
  3
ObjectDBX Classes
 90
     4095
280
     0
281
     0
  0
CLASS
  1
SCALE
  2
AcDbScale
  3
ObjectDBX Classes
 90
     1153
280
     0
281
     0
  0
CLASS
  1
MLEADERSTYLE
  2
AcDbMLeaderStyle
  3
ACDB_MLEADERSTYLE_CLASS
 90
     4095
280
     0
281
     0
  0
CLASS
  1
CELLSTYLEMAP
  2
AcDbCellStyleMap
  3
ObjectDBX Classes
 90
     1152
280
     0
281
     0
  0
CLASS
  1
ACAD_PROXY_OBJECT_WRAPPER
  2
AcDbProxyObjectWrapper
  3
AutoCAD 2000
 90
        0
280
     0
281
     0
  0
CLASS
  1
LONG_TRANSACTION
  2
AcDbLongTransaction
  3
AutoCAD 2000
 90
        0
280
     0
281
     0
  0
CLASS
  1
LWPOLYLINE
  2
AcDbPolyline
  3
AutoCAD 2000
 90
        0
280
     0
281
     1
  0
CLASS
  1
HATCH
  2
AcDbHatch
  3
AutoCAD 2000
 90
        0
280
     0
281
     1
  0
CLASS
  1
XRECORD
  2
AcDbXrecord
  3
AutoCAD 2000
 90
        0
280
     0
281
     0
  0
ENDSEC
  0
SECTION
  2
TABLES
  0
TABLE
  2
VPORT
  5
6E
102
{ACAD_XDICTIONARY
360
1D83
102
}
330
0
100
AcDbSymbolTable
 70
     2
  0
VPORT
  5
2ED6
330
6E
100
AcDbSymbolTableRecord
100
AcDbViewportTableRecord
  2
*ACTIVE
 70
     0
 10
0.0
 20
0.0
 11
1.0
 21
1.0
 12
559.6565016192003
 22
240.7291632218454
 13
0.0
 23
0.0
 14
10.0
 24
10.0
 15
10.0
 25
10.0
 16
0.0
 26
0.0
 36
1.0
 17
0.0
 27
0.0
 37
0.0
 40
596.5687239315285
 41
1.753504672897196
 42
50.0
 43
0.0
 44
0.0
 50
0.0
 51
0.0
 71
     0
 72
   100
 73
     1
 74
     3
 75
     0
 76
     0
 77
     0
 78
     0
  0
ENDTAB
  0
TABLE
  2
LTYPE
  5
69
330
0
100
AcDbSymbolTable
 70
     5
  0
LTYPE
  5
6A
330
69
100
AcDbSymbolTableRecord
100
AcDbLinetypeTableRecord
  2
BYBLOCK
 70
     0
  3

 72
    65
 73
     0
 40
0.0
  0
LTYPE
  5
6B
330
69
100
AcDbSymbolTableRecord
100
AcDbLinetypeTableRecord
  2
BYLAYER
 70
     0
  3

 72
    65
 73
     0
 40
0.0
  0
LTYPE
  5
8
330
69
100
AcDbSymbolTableRecord
100
AcDbLinetypeTableRecord
  2
CONTINUOUS
 70
     0
  3
Solid line
 72
    65
 73
     0
 40
0.0
  0
LTYPE
  5
27C
330
69
100
AcDbSymbolTableRecord
100
AcDbLinetypeTableRecord
  2
SEKKEI_A2_
 70
     0
  3
center(A2)  ____ _ ____ _ ____ _ ____ _ ____ _ 
 72
    65
 73
     4
 40
14.28749999999999
 49
9.525
 74
     0
 49
-1.587499999999999
 74
     0
 49
1.587499999999999
 74
     0
 49
-1.587499999999999
 74
     0
  0
LTYPE
  5
7F0
330
69
100
AcDbSymbolTableRecord
100
AcDbLinetypeTableRecord
  2
HIDDEN3
 70
     0
  3
Hidden (.3x) _ _ _ _ _ _ _ _ _ _ _ _ _ _ _ _ _
 72
    65
 73
     2
 40
2.857499999999999
 49
1.905
 74
     0
 49
-0.9525
 74
     0
  0
LTYPE
  5
AE4
330
69
100
AcDbSymbolTableRecord
100
AcDbLinetypeTableRecord
  2
CENS
 70
     0
  3
(一点鎖線１)---- - ---- - ---- - ---- - ---- - 
 72
    65
 73
     4
 40
7.0
 49
4.0
 74
     0
 49
-1.0
 74
     0
 49
1.0
 74
     0
 49
-1.0
 74
     0
  0
ENDTAB
  0
TABLE
  2
LAYER
  5
66
102
{ACAD_XDICTIONARY
360
AE5
102
}
330
0
100
AcDbSymbolTable
 70
     9
  0
LAYER
  5
5E
102
{ACAD_XDICTIONARY
360
1D66
102
}
330
66
100
AcDbSymbolTableRecord
100
AcDbLayerTableRecord
  2
0
 70
     0
 62
     7
  6
CONTINUOUS
  0
LAYER
  5
3E
102
{ACAD_XDICTIONARY
360
1D68
102
}
330
66
100
AcDbSymbolTableRecord
100
AcDbLayerTableRecord
  2
CENTER
 70
     0
 62
     3
  6
SEKKEI_A2_
  0
LAYER
  5
2B5
102
{ACAD_XDICTIONARY
360
1D6E
102
}
330
66
100
AcDbSymbolTableRecord
100
AcDbLayerTableRecord
  2
HIDS
 70
     0
 62
     1
  6
HIDDEN3
  0
LAYER
  5
2BA
102
{ACAD_XDICTIONARY
360
1D70
102
}
330
66
100
AcDbSymbolTableRecord
100
AcDbLayerTableRecord
  2
HOJO
 70
     0
 62
     4
  6
CONTINUOUS
  0
LAYER
  5
3FA
102
{ACAD_XDICTIONARY
360
1D74
102
}
330
66
100
AcDbSymbolTableRecord
100
AcDbLayerTableRecord
  2
TITLE
 70
     0
 62
     4
  6
CONTINUOUS
  0
ENDTAB
  0
TABLE
  2
STYLE
  5
67
330
0
100
AcDbSymbolTable
 70
     2
  0
STYLE
  5
16
330
67
100
AcDbSymbolTableRecord
100
AcDbTextStyleTableRecord
  2
STANDARD
 70
     0
 40
0.0
 41
1.0
 50
0.0
 71
     0
 42
2.0
  3
simplex.shx
  4
extfont.shx
  0
ENDTAB
  0
TABLE
  2
VIEW
  5
6C
330
0
100
AcDbSymbolTable
 70
     0
  0
ENDTAB
  0
TABLE
  2
UCS
  5
6D
330
0
100
AcDbSymbolTable
 70
     0
  0
ENDTAB
  0
TABLE
  2
APPID
  5
70
330
0
100
AcDbSymbolTable
 70
     4
  0
APPID
  5
71
330
70
100
AcDbSymbolTableRecord
100
AcDbRegAppTableRecord
  2
ACAD
 70
     0
  0
APPID
  5
1D58
330
70
100
AcDbSymbolTableRecord
100
AcDbRegAppTableRecord
  2
ACAD_MLEADERVER
 70
     0
  0
APPID
  5
1D5E
330
70
100
AcDbSymbolTableRecord
100
AcDbRegAppTableRecord
  2
ACAD_EXEMPT_FROM_CAD_STANDARDS
 70
     0
  0
APPID
  5
1DE6
330
70
100
AcDbSymbolTableRecord
100
AcDbRegAppTableRecord
  2
ACAD_DSTYLE_DIMRADIAL_EXTENSION
 70
     0
  0
ENDTAB
  0
TABLE
  2
DIMSTYLE
  5
72
330
0
100
AcDbSymbolTable
 70
     1
  0
DIMSTYLE
105
73
102
{ACAD_REACTORS
330
27D7
330
27DA
330
297D
102
}
330
72
100
AcDbSymbolTableRecord
100
AcDbDimStyleTableRecord
  2
STANDARD
 70
     0
  3

  4

  5

  6

  7

 40
3.0
 41
1.8
 42
0.625
 43
3.75
 44
0.8
 45
0.0
 46
0.0
 47
0.0
 48
0.0
140
1.8
141
2.5
142
0.0
143
0.0394
144
1.0
145
0.0
146
1.0
147
0.75
 71
     0
 72
     0
 73
     0
 74
     0
 75
     0
 76
     0
 77
     1
 78
     8
170
     0
171
     4
172
     1
173
     0
174
     0
175
     0
176
     0
177
     0
178
     0
270
     8
271
     2
272
     2
273
     8
274
     4
340
16
275
     0
280
     0
281
     0
282
     0
283
     1
284
     0
285
     0
286
     0
287
     3
288
     0
  0
ENDTAB
  0
TABLE
  2
BLOCK_RECORD
  5
1
330
0
100
AcDbSymbolTable
 70
    43
  0
BLOCK_RECORD
  5
2
102
{ACAD_XDICTIONARY
360
2EF8
102
}
330
1
100
AcDbSymbolTableRecord
100
AcDbBlockTableRecord
  2
*MODEL_SPACE
  0
BLOCK_RECORD
  5
2ED1
102
{ACAD_XDICTIONARY
360
2EFA
102
}
330
1
100
AcDbSymbolTableRecord
100
AcDbBlockTableRecord
  2
*PAPER_SPACE
  0
ENDTAB
  0
ENDSEC
  0
SECTION
  2
BLOCKS
  0
BLOCK
  5
5D
330
2
100
AcDbEntity
  8
0
100
AcDbBlockBegin
  2
*MODEL_SPACE
 70
     0
 10
0.0
 20
0.0
 30
0.0
  3
*MODEL_SPACE
  1

  0
ENDBLK
  5
5F
330
2
100
AcDbEntity
  8
0
100
AcDbBlockEnd
  0
BLOCK
  5
2ED3
330
2ED1
100
AcDbEntity
 67
     1
  8
0
100
AcDbBlockBegin
  2
*PAPER_SPACE
 70
     0
 10
0.0
 20
0.0
 30
0.0
  3
*PAPER_SPACE
  1

  0
ENDBLK
  5
2ED4
330
2ED1
100
AcDbEntity
 67
     1
  8
0
100
AcDbBlockEnd
  0
ENDSEC
  0
SECTION
  2
ENTITIES
  0
TEXT
  5
F2E
330
2
100
AcDbEntity
  8
TITLE
100
AcDbText
 10
305.2050905687206
 20
397.9965905567494
 30
0.0
 40
7.5
  1
AFCZ15H-7~10M200S2
100
AcDbText
  0
TEXT
  5
F2F
330
2
100
AcDbEntity
  8
TITLE
100
AcDbText
 10
305.2050905687206
 20
385.2465905567494
 30
0.0
 40
7.5
  1
AFCZ15H-7~10L200S2
100
AcDbText
  0
LINE
  5
F31
330
2
100
AcDbEntity
  8
CENTER
100
AcDbLine
 10
509.9227715541725
 20
110.7422955680996
 30
0.0
 11
688.9227715541712
 21
110.7422955680996
 31
0.0
  0
LINE
  5
F36
330
2
100
AcDbEntity
  8
0
100
AcDbLine
 10
635.9227715498019
 20
432.3552626908648
 30
0.0
 11
635.9227715498019
 21
360.3552626908648
 31
0.0
  0
LINE
  5
F3B
330
2
100
AcDbEntity
  8
CENTER
100
AcDbLine
 10
518.1060357777793
 20
396.3552626908648
 30
0.0
 11
688.9227715541712
 21
396.355262690865
 31
0.0
  0
LINE
  5
F48
330
2
100
AcDbEntity
  8
0
100
AcDbLine
 10
635.9227715541707
 20
147.2422955680992
 30
0.0
 11
635.9227715541707
 21
74.24229556809945
 31
0.0
  0
LINE
  5
FCC
330
2
100
AcDbEntity
  8
CENTER
100
AcDbLine
 10
210.0982170539224
 20
110.742295568102
 30
0.0
 11
39.0982170539261
 21
110.7422955681018
 31
0.0
  0
LINE
  5
FCE
330
2
100
AcDbEntity
  8
0
100
AcDbLine
 10
92.09821705392611
 20
74.24229556810209
 30
0.0
 11
92.09821705392611
 21
147.242295568102
 31
0.0
  0
LINE
  5
1224
330
2
100
AcDbEntity
  8
CENTER
100
AcDbLine
 10
945.4165748929789
 20
110.7422955680905
 30
0.0
 11
799.4165748926913
 21
110.7422955680905
 31
0.0
  0
LINE
  5
1225
330
2
100
AcDbEntity
  8
CENTER
100
AcDbLine
 10
897.4165748926909
 20
157.2422955680887
 30
0.0
 11
897.4165748926905
 21
64.24229556809234
 31
0.0
  0
LINE
  5
1226
330
2
100
AcDbEntity
  8
0
100
AcDbLine
 10
859.4165748926872
 20
146.2230469345382
 30
0.0
 11
859.4165748926863
 21
75.26154420164278
 31
0.0
  0
LINE
  5
1227
330
2
100
AcDbEntity
  8
0
100
AcDbLine
 10
854.4165748926882
 20
140.7422955680871
 30
0.0
 11
854.4165748926882
 21
80.74229556808734
 31
0.0
  0
LINE
  5
1228
330
2
100
AcDbEntity
  8
0
100
AcDbLine
 10
859.4165748926881
 20
140.7422955680871
 30
0.0
 11
854.4165748926882
 21
140.7422955680871
 31
0.0
  0
LINE
  5
1229
330
2
100
AcDbEntity
  8
0
100
AcDbLine
 10
859.4165748926881
 20
80.74229556808734
 30
0.0
 11
854.4165748926882
 21
80.74229556808734
 31
0.0
  0
LINE
  5
122A
330
2
100
AcDbEntity
  8
0
100
AcDbLine
 10
841.4165748926846
 20
132.8109180184843
 30
0.0
 11
841.4165748926846
 21
88.67367311771216
 31
0.0
  0
LINE
  5
122B
330
2
100
AcDbEntity
  8
0
100
AcDbLine
 10
852.4863738860897
 20
135.1288614670671
 30
0.0
 11
843.3467758992794
 21
134.8096996725222
 31
0.0
  0
LINE
  5
122C
330
2
100
AcDbEntity
  8
0
100
AcDbLine
 10
852.4863738860897
 20
86.35572966913025
 30
0.0
 11
843.3467758992794
 21
86.67489146367428
 31
0.0
  0
ARC
  5
122D
330
2
100
AcDbEntity
  8
0
100
AcDbCircle
 10
843.4165748926846
 20
132.8109180184843
 30
0.0
 40
2.0
100
AcDbArc
 50
92.00000000000365
 51
180.0
  0
ARC
  5
122E
330
2
100
AcDbEntity
  8
0
100
AcDbCircle
 10
843.4165748926846
 20
88.67367311771216
 30
0.0
 40
2.0
100
AcDbArc
 50
180.0
 51
267.9999999999963
  0
ARC
  5
122F
330
2
100
AcDbEntity
  8
0
100
AcDbCircle
 10
852.4165748926845
 20
84.35694801509237
 30
0.0
 40
2.0
100
AcDbArc
 50
0.0
 51
87.99999999999636
  0
ARC
  5
1230
330
2
100
AcDbEntity
  8
0
100
AcDbCircle
 10
852.4165748926845
 20
137.127643121105
 30
0.0
 40
2.0
100
AcDbArc
 50
272.0000000000036
 51
0.0
  0
LINE
  5
1231
330
2
100
AcDbEntity
  8
0
100
AcDbLine
 10
864.0408307200553
 20
75.22118893240815
 30
0.0
 11
859.4165748926863
 21
75.26154420164278
 31
0.0
  0
LINE
  5
1232
330
2
100
AcDbEntity
  8
0
100
AcDbLine
 10
864.1427030591497
 20
146.2642912302072
 30
0.0
 11
859.4165748926872
 21
146.2230469345382
 31
0.0
  0
ARC
  5
1233
330
2
100
AcDbEntity
  8
0
100
AcDbCircle
 10
928.4165748926918
 20
141.8112577827033
 30
0.0
 40
5.0
100
AcDbArc
 50
44.44120087799995
 51
89.20427644728171
  0
LINE
  5
1234
330
2
100
AcDbEntity
  8
0
100
AcDbLine
 10
928.4860126401447
 20
146.8107755993761
 30
0.0
 11
897.4165748926919
 21
147.2422955680887
 31
0.0
  0
LINE
  5
1235
330
2
100
AcDbEntity
  8
0
100
AcDbLine
 10
866.3471371452436
 20
146.8107755993752
 30
0.0
 11
897.41657489269
 21
147.2422955680887
 31
0.0
  0
ARC
  5
1236
330
2
100
AcDbEntity
  8
0
100
AcDbCircle
 10
866.4165748926974
 20
141.8112577827024
 30
0.0
 40
5.0
100
AcDbArc
 50
90.79572355271826
 51
135.5587991204846
  0
ARC
  5
1237
330
2
100
AcDbEntity
  8
0
100
AcDbCircle
 10
928.4165748926918
 20
79.67333335347769
 30
0.0
 40
5.0
100
AcDbArc
 50
270.7957235527183
 51
315.5587991206642
  0
LINE
  5
1238
330
2
100
AcDbEntity
  8
0
100
AcDbLine
 10
928.4860126401447
 20
74.67381553680491
 30
0.0
 11
897.4165748926919
 21
74.24229556809234
 31
0.0
  0
LINE
  5
1239
330
2
100
AcDbEntity
  8
0
100
AcDbLine
 10
866.3471371452436
 20
74.67381553680581
 30
0.0
 11
897.41657489269
 21
74.24229556809234
 31
0.0
  0
ARC
  5
123A
330
2
100
AcDbEntity
  8
0
100
AcDbCircle
 10
866.4165748926974
 20
79.67333335347859
 30
0.0
 40
5.0
100
AcDbArc
 50
224.4412008808327
 51
269.2042764472816
  0
LINE
  5
123B
330
2
100
AcDbEntity
  8
0
100
AcDbLine
 10
934.4165748929793
 20
133.7422955680914
 30
0.0
 11
935.4165748929801
 21
133.1649452989016
 31
0.0
  0
LINE
  5
123C
330
2
100
AcDbEntity
  8
0
100
AcDbLine
 10
934.4165748929802
 20
133.7422955680914
 30
0.0
 11
933.5971304482489
 21
133.7422955680912
 31
0.0
  0
LINE
  5
123D
330
2
100
AcDbEntity
  8
0
100
AcDbLine
 10
935.4165748929792
 20
88.3196458372787
 30
0.0
 11
935.4165748929784
 21
133.1649452989025
 31
0.0
  0
LINE
  5
123E
330
2
100
AcDbEntity
  8
0
100
AcDbLine
 10
934.4165748929793
 20
87.74229556808961
 30
0.0
 11
935.4165748929801
 21
88.31964583727915
 31
0.0
  0
LINE
  5
123F
330
2
100
AcDbEntity
  8
0
100
AcDbLine
 10
934.4165748929802
 20
87.74229556808961
 30
0.0
 11
933.5971304482484
 21
87.74229556808961
 31
0.0
  0
LINE
  5
1240
330
2
100
AcDbEntity
  8
0
100
AcDbLine
 10
934.4165748929793
 20
133.7422955680914
 30
0.0
 11
934.4165748929802
 21
87.74229556808961
 31
0.0
  0
LINE
  5
124A
330
2
100
AcDbEntity
  8
0
100
AcDbLine
 10
866.3476126780809
 20
74.74229556808916
 30
0.0
 11
928.4855371073057
 21
74.74229556808916
 31
0.0
  0
CIRCLE
  5
124B
330
2
100
AcDbEntity
  8
HIDS
100
AcDbCircle
 10
897.4165748926928
 20
110.7422955680891
 30
0.0
 40
30.0
  0
ARC
  5
124C
330
2
100
AcDbEntity
  8
0
100
AcDbCircle
 10
872.4893183040341
 20
85.74229556808962
 30
0.0
 40
5.0
100
AcDbArc
 50
180.1666666666621
 51
270.0
  0
LINE
  5
124D
330
2
100
AcDbEntity
  8
CENTER
100
AcDbLine
 10
877.6665748926928
 20
135.4922955680891
 30
0.0
 11
867.6665748926927
 21
135.4922955680891
 31
0.0
  0
LINE
  5
124E
330
2
100
AcDbEntity
  8
CENTER
100
AcDbLine
 10
877.6665748926928
 20
85.99229556808916
 30
0.0
 11
867.6665748926927
 21
85.99229556808916
 31
0.0
  0
ARC
  5
124F
330
2
100
AcDbEntity
  8
0
100
AcDbCircle
 10
872.4893183040341
 20
135.7422955680887
 30
0.0
 40
5.0
100
AcDbArc
 50
90.0
 51
179.8333333333378
  0
LINE
  5
1250
330
2
100
AcDbEntity
  8
0
100
AcDbLine
 10
861.348094861408
 20
79.67285782063493
 30
0.0
 11
860.9165748926827
 21
110.7422955680905
 31
0.0
  0
LINE
  5
1251
330
2
100
AcDbEntity
  8
0
100
AcDbLine
 10
867.4893394580069
 20
85.72775117816821
 30
0.0
 11
867.4165748926927
 21
110.7422955680891
 31
0.0
  0
ARC
  5
1252
330
2
100
AcDbEntity
  8
0
100
AcDbCircle
 10
866.3476126780809
 20
79.74229556808871
 30
0.0
 40
5.0
100
AcDbArc
 50
180.7957235527443
 51
270.0
  0
LINE
  5
1253
330
2
100
AcDbEntity
  8
0
100
AcDbLine
 10
861.348094861408
 20
141.8117333155429
 30
0.0
 11
860.9165748926832
 21
110.7422955680905
 31
0.0
  0
LINE
  5
1254
330
2
100
AcDbEntity
  8
0
100
AcDbLine
 10
867.4893394580069
 20
135.7568399580101
 30
0.0
 11
867.4165748926927
 21
110.7422955680891
 31
0.0
  0
LINE
  5
1255
330
2
100
AcDbEntity
  8
0
100
AcDbLine
 10
867.4165748926927
 20
110.7422955680891
 30
0.0
 11
860.9165748926928
 21
110.7422955680887
 31
0.0
  0
ARC
  5
1256
330
2
100
AcDbEntity
  8
0
100
AcDbCircle
 10
866.3476126780809
 20
141.7422955680891
 30
0.0
 40
5.0
100
AcDbArc
 50
90.0
 51
179.2042764472556
  0
LINE
  5
1257
330
2
100
AcDbEntity
  8
0
100
AcDbLine
 10
933.4850549239783
 20
79.67285782063493
 30
0.0
 11
933.9165748926923
 21
110.7422955680905
 31
0.0
  0
LINE
  5
1258
330
2
100
AcDbEntity
  8
0
100
AcDbLine
 10
927.3438103273795
 20
85.72775117816821
 30
0.0
 11
927.4165748926927
 21
110.7422955680891
 31
0.0
  0
LINE
  5
1259
330
2
100
AcDbEntity
  8
0
100
AcDbLine
 10
922.3438314813522
 20
80.74229556808916
 30
0.0
 11
872.4893183040341
 21
80.74229556808916
 31
0.0
  0
LINE
  5
125A
330
2
100
AcDbEntity
  8
CENTER
100
AcDbLine
 10
872.6665748926928
 20
90.99229556808916
 30
0.0
 11
872.6665748926928
 21
80.99229556808916
 31
0.0
  0
LINE
  5
125B
330
2
100
AcDbEntity
  8
HIDS
100
AcDbLine
 10
917.9508757567749
 20
82.70739075521452
 30
0.0
 11
918.038913506489
 21
87.75107005845269
 31
0.0
  0
ARC
  5
125C
330
2
100
AcDbEntity
  8
0
100
AcDbCircle
 10
922.3438314813522
 20
85.74229556808962
 30
0.0
 40
5.0
100
AcDbArc
 50
270.0
 51
359.8333333333378
  0
LINE
  5
125D
330
2
100
AcDbEntity
  8
CENTER
100
AcDbLine
 10
922.1665748926927
 20
90.99229556808916
 30
0.0
 11
922.1665748926927
 21
80.99229556808916
 31
0.0
  0
ARC
  5
125E
330
2
100
AcDbEntity
  8
0
100
AcDbCircle
 10
928.4855371073057
 20
79.74229556808871
 30
0.0
 40
4.999999999999999
100
AcDbArc
 50
270.0
 51
359.2042764472556
  0
ARC
  5
125F
330
2
100
AcDbEntity
  8
HIDS
100
AcDbCircle
 10
915.9511803664612
 20
82.74229556808917
 30
0.0
 40
2.0
100
AcDbArc
 50
270.0
 51
358.9999999999982
  0
LINE
  5
1260
330
2
100
AcDbEntity
  8
CENTER
100
AcDbLine
 10
927.1665748926928
 20
85.99229556808916
 30
0.0
 11
917.1665748926928
 21
85.99229556808916
 31
0.0
  0
ARC
  5
1261
330
2
100
AcDbEntity
  8
HIDS
100
AcDbCircle
 10
921.0384565919587
 20
87.69871283914028
 30
0.0
 40
3.0
100
AcDbArc
 50
135.7099981688253
 51
178.9999999999982
  0
LINE
  5
1262
330
2
100
AcDbEntity
  8
0
100
AcDbLine
 10
922.3438314813522
 20
140.7422955680891
 30
0.0
 11
872.4893183040341
 21
140.7422955680887
 31
0.0
  0
LINE
  5
1263
330
2
100
AcDbEntity
  8
HIDS
100
AcDbLine
 10
881.1665748926937
 20
140.7422955680887
 30
0.0
 11
881.4141430113698
 21
126.5591275480913
 31
0.0
  0
LINE
  5
1264
330
2
100
AcDbEntity
  8
CENTER
100
AcDbLine
 10
872.6665748926928
 20
140.4922955680891
 30
0.0
 11
872.6665748926928
 21
130.4922955680891
 31
0.0
  0
ARC
  5
1265
330
2
100
AcDbEntity
  8
HIDS
100
AcDbCircle
 10
873.7946931934278
 20
133.785878297038
 30
0.0
 40
3.0
100
AcDbArc
 50
315.7099981688253
 51
358.9999999999982
  0
ARC
  5
1266
330
2
100
AcDbEntity
  8
HIDS
100
AcDbCircle
 10
878.8819694189244
 20
138.7422955680887
 30
0.0
 40
2.0
100
AcDbArc
 50
90.0
 51
178.9999999999982
  0
LINE
  5
1267
330
2
100
AcDbEntity
  8
HIDS
100
AcDbLine
 10
876.8822740286116
 20
138.7772003809633
 30
0.0
 11
876.7942362788964
 21
133.7335210777256
 31
0.0
  0
LINE
  5
1268
330
2
100
AcDbEntity
  8
HIDS
100
AcDbLine
 10
892.6665748926927
 20
140.7422955680891
 30
0.0
 11
892.5262732688482
 21
132.7044209212471
 31
0.0
  0
LINE
  5
1269
330
2
100
AcDbEntity
  8
0
100
AcDbLine
 10
933.4850549239783
 20
141.8117333155429
 30
0.0
 11
933.9165748926928
 21
110.7422955680905
 31
0.0
  0
LINE
  5
126A
330
2
100
AcDbEntity
  8
0
100
AcDbLine
 10
927.3438103273795
 20
135.7568399580101
 30
0.0
 11
927.4165748926927
 21
110.7422955680891
 31
0.0
  0
LINE
  5
126B
330
2
100
AcDbEntity
  8
CENTER
100
AcDbLine
 10
922.1665748926927
 20
140.4922955680891
 30
0.0
 11
922.1665748926927
 21
130.4922955680891
 31
0.0
  0
LINE
  5
126C
330
2
100
AcDbEntity
  8
0
100
AcDbLine
 10
927.4165748926927
 20
110.7422955680891
 30
0.0
 11
933.9165748926937
 21
110.7422955680891
 31
0.0
  0
ARC
  5
126D
330
2
100
AcDbEntity
  8
0
100
AcDbCircle
 10
928.4855371073057
 20
141.7422955680891
 30
0.0
 40
4.999999999999999
100
AcDbArc
 50
0.7957235527443399
 51
90.0
  0
ARC
  5
126E
330
2
100
AcDbEntity
  8
0
100
AcDbCircle
 10
922.3438314813522
 20
135.7422955680887
 30
0.0
 40
5.0
100
AcDbArc
 50
0.1666666666621044
 51
90.0
  0
LINE
  5
126F
330
2
100
AcDbEntity
  8
CENTER
100
AcDbLine
 10
927.1665748926928
 20
135.4922955680891
 30
0.0
 11
917.1665748926928
 21
135.4922955680891
 31
0.0
  0
CIRCLE
  5
1270
330
2
100
AcDbEntity
  8
0
100
AcDbCircle
 10
897.4165748926928
 20
110.7422955680891
 30
0.0
 40
25.00000000022851
  0
LINE
  5
1271
330
2
100
AcDbEntity
  8
0
100
AcDbLine
 10
866.3476126780809
 20
146.7422955680891
 30
0.0
 11
928.4855371073057
 21
146.7422955680891
 31
0.0
  0
CIRCLE
  5
1272
330
2
100
AcDbEntity
  8
0
100
AcDbCircle
 10
866.306574892693
 20
79.63229556808903
 30
0.0
 40
2.75
  0
CIRCLE
  5
1273
330
2
100
AcDbEntity
  8
0
100
AcDbCircle
 10
928.5265748926924
 20
141.8522955680892
 30
0.0
 40
2.75
  0
CIRCLE
  5
1274
330
2
100
AcDbEntity
  8
0
100
AcDbCircle
 10
928.5265748926924
 20
79.63229556808949
 30
0.0
 40
2.75
  0
ARC
  5
1275
330
2
100
AcDbEntity
  8
0
100
AcDbCircle
 10
866.306574892693
 20
141.8522955680892
 30
0.0
 40
4.25000000000019
100
AcDbArc
 50
337.0991355555478
 51
293.5789623545196
  0
ARC
  5
1276
330
2
100
AcDbEntity
  8
0
100
AcDbCircle
 10
866.306574892693
 20
141.8522955680892
 30
0.0
 40
3.730384757729381
100
AcDbArc
 50
321.5287333511405
 51
309.1493645588748
  0
LWPOLYLINE
  5
1277
330
2
100
AcDbEntity
  8
0
100
AcDbPolyline
 90
        6
 70
     1
 43
0.0
 10
868.3065748926932
 20
143.0069961064683
 10
866.306574892693
 20
144.1616966448479
 10
864.3065748926931
 20
143.0069961064683
 10
864.3065748926931
 20
140.6975950297102
 10
866.306574892693
 20
139.5428944913306
 10
868.3065748926932
 20
140.6975950297102
  0
CIRCLE
  5
1278
330
2
100
AcDbEntity
  8
0
100
AcDbCircle
 10
866.306574892693
 20
141.8522955680892
 30
0.0
 40
2.3094010767585
  0
LINE
  5
1279
330
2
100
AcDbEntity
  8
CENTER
100
AcDbLine
 10
866.3065748926912
 20
147.8107258153833
 30
0.0
 11
866.3065748926912
 21
135.8938653207952
 31
0.0
  0
LINE
  5
127A
330
2
100
AcDbEntity
  8
CENTER
100
AcDbLine
 10
860.3481446453972
 20
141.8522955680892
 30
0.0
 11
872.2650051399853
 21
141.8522955680892
 31
0.0
  0
ARC
  5
127B
330
2
100
AcDbEntity
  8
0
100
AcDbCircle
 10
928.5265748926942
 20
141.8522955680892
 30
0.0
 40
4.25000000000019
100
AcDbArc
 50
246.4210376454803
 51
202.9008644444513
  0
ARC
  5
127C
330
2
100
AcDbEntity
  8
0
100
AcDbCircle
 10
928.5265748926942
 20
141.8522955680892
 30
0.0
 40
3.730384757729381
100
AcDbArc
 50
230.8506354409949
 51
218.4712666488647
  0
LWPOLYLINE
  5
127D
330
2
100
AcDbEntity
  8
0
100
AcDbPolyline
 90
        6
 70
     1
 43
0.0
 10
930.5265748926942
 20
143.0069961064683
 10
928.5265748926942
 20
144.1616966448479
 10
926.5265748926942
 20
143.0069961064683
 10
926.5265748926942
 20
140.6975950297102
 10
928.5265748926942
 20
139.5428944913306
 10
930.5265748926942
 20
140.6975950297102
  0
CIRCLE
  5
127E
330
2
100
AcDbEntity
  8
0
100
AcDbCircle
 10
928.5265748926942
 20
141.8522955680892
 30
0.0
 40
2.3094010767585
  0
LINE
  5
127F
330
2
100
AcDbEntity
  8
CENTER
100
AcDbLine
 10
928.5265748926924
 20
147.8107258153833
 30
0.0
 11
928.5265748926924
 21
135.8938653207952
 31
0.0
  0
LINE
  5
1280
330
2
100
AcDbEntity
  8
CENTER
100
AcDbLine
 10
922.5681446453984
 20
141.8522955680892
 30
0.0
 11
934.4850051399864
 21
141.8522955680892
 31
0.0
  0
ARC
  5
1281
330
2
100
AcDbEntity
  8
0
100
AcDbCircle
 10
928.5265748926942
 20
79.63229556808949
 30
0.0
 40
4.25000000000019
100
AcDbArc
 50
157.0991355555478
 51
113.5789623545196
  0
ARC
  5
1282
330
2
100
AcDbEntity
  8
0
100
AcDbCircle
 10
928.5265748926942
 20
79.63229556808949
 30
0.0
 40
3.730384757729381
100
AcDbArc
 50
141.5287333511352
 51
129.1493645588748
  0
LWPOLYLINE
  5
1283
330
2
100
AcDbEntity
  8
0
100
AcDbPolyline
 90
        6
 70
     1
 43
0.0
 10
930.5265748926942
 20
80.78699610646856
 10
928.5265748926942
 20
81.94169664484808
 10
926.5265748926942
 20
80.78699610646856
 10
926.5265748926942
 20
78.47759502971041
 10
928.5265748926942
 20
77.32289449133088
 10
930.5265748926942
 20
78.47759502971041
  0
CIRCLE
  5
1284
330
2
100
AcDbEntity
  8
0
100
AcDbCircle
 10
928.5265748926942
 20
79.63229556808949
 30
0.0
 40
2.3094010767585
  0
LINE
  5
1285
330
2
100
AcDbEntity
  8
CENTER
100
AcDbLine
 10
928.5265748926924
 20
85.5907258153835
 30
0.0
 11
928.5265748926924
 21
73.67386532079547
 31
0.0
  0
LINE
  5
1286
330
2
100
AcDbEntity
  8
CENTER
100
AcDbLine
 10
922.5681446453984
 20
79.63229556808949
 30
0.0
 11
934.4850051399864
 21
79.63229556808949
 31
0.0
  0
ARC
  5
1287
330
2
100
AcDbEntity
  8
0
100
AcDbCircle
 10
866.3065748926939
 20
79.63229556808903
 30
0.0
 40
4.25000000000019
100
AcDbArc
 50
66.42103764559411
 51
22.90086444441159
  0
ARC
  5
1288
330
2
100
AcDbEntity
  8
0
100
AcDbCircle
 10
866.3065748926939
 20
79.63229556808903
 30
0.0
 40
3.730384757729381
100
AcDbArc
 50
50.85063544125946
 51
38.47126664869841
  0
LWPOLYLINE
  5
1289
330
2
100
AcDbEntity
  8
0
100
AcDbPolyline
 90
        6
 70
     1
 43
0.0
 10
868.306574892694
 20
80.78699610646856
 10
866.3065748926939
 20
81.94169664484764
 10
864.306574892694
 20
80.78699610646856
 10
864.306574892694
 20
78.47759502970996
 10
866.3065748926939
 20
77.32289449133088
 10
868.306574892694
 20
78.47759502970996
  0
CIRCLE
  5
128A
330
2
100
AcDbEntity
  8
0
100
AcDbCircle
 10
866.3065748926939
 20
79.63229556808903
 30
0.0
 40
2.3094010767585
  0
LINE
  5
128B
330
2
100
AcDbEntity
  8
CENTER
100
AcDbLine
 10
866.306574892693
 20
85.59072581538305
 30
0.0
 11
866.306574892693
 21
73.67386532079502
 31
0.0
  0
LINE
  5
128C
330
2
100
AcDbEntity
  8
CENTER
100
AcDbLine
 10
860.348144645399
 20
79.63229556808903
 30
0.0
 11
872.265005139987
 21
79.63229556808903
 31
0.0
  0
LINE
  5
128D
330
2
100
AcDbEntity
  8
HIDS
100
AcDbLine
 10
888.9165748926927
 20
109.9922955680891
 30
0.0
 11
888.9165748926927
 21
101.5422955680888
 31
0.0
  0
LINE
  5
128E
330
2
100
AcDbEntity
  8
HIDS
100
AcDbLine
 10
888.5832415593597
 20
109.9922955680891
 30
0.0
 11
888.5832415593597
 21
101.2089622347558
 31
0.0
  0
LINE
  5
128F
330
2
100
AcDbEntity
  8
HIDS
100
AcDbLine
 10
885.2499082260258
 20
109.9922955680891
 30
0.0
 11
885.2499082260258
 21
102.4035473273626
 31
0.0
  0
LINE
  5
1290
330
2
100
AcDbEntity
  8
HIDS
100
AcDbLine
 10
884.9165748926928
 20
109.9922955680891
 30
0.0
 11
884.9165748926928
 21
102.9120656864062
 31
0.0
  0
LINE
  5
1291
330
2
100
AcDbEntity
  8
CENTER
  6
CENS
100
AcDbLine
 10
886.9165748926928
 20
149.4214771685711
 30
0.0
 11
886.9165748926928
 21
99.29004522353228
 31
0.0
  0
LINE
  5
1292
330
2
100
AcDbEntity
  8
HIDS
100
AcDbLine
 10
888.9165748926927
 20
109.9922955680891
 30
0.0
 11
888.9165748926927
 21
98.68773211684777
 31
0.0
  0
LINE
  5
1293
330
2
100
AcDbEntity
  8
HIDS
100
AcDbLine
 10
885.8873728387782
 20
101.5422955680888
 30
0.0
 11
886.9165748926928
 21
101.5422955680888
 31
0.0
  0
LINE
  5
1294
330
2
100
AcDbEntity
  8
0
100
AcDbLine
 10
885.7165748926929
 20
100.7422955680891
 30
0.0
 11
886.573950671592
 21
100.7422955680891
 31
0.0
  0
LINE
  5
1295
330
2
100
AcDbEntity
  8
0
100
AcDbLine
 10
884.9165748926928
 20
102.9120656864062
 30
0.0
 11
884.9165748926928
 21
101.5422955680888
 31
0.0
  0
LINE
  5
1296
330
2
100
AcDbEntity
  8
HOJO
100
AcDbLine
 10
885.2499082260258
 20
102.4035473273626
 30
0.0
 11
885.2499082260258
 21
101.2089622347558
 31
0.0
  0
LINE
  5
1297
330
2
100
AcDbEntity
  8
0
100
AcDbLine
 10
884.9165748926928
 20
101.5422955680888
 30
0.0
 11
885.8873728387782
 21
101.5422955680888
 31
0.0
  0
LINE
  5
1298
330
2
100
AcDbEntity
  8
0
100
AcDbLine
 10
884.9165748926928
 20
101.5422955680888
 30
0.0
 11
885.7165748926929
 21
100.7422955680891
 31
0.0
  0
LINE
  5
1299
330
2
100
AcDbEntity
  8
HIDS
100
AcDbLine
 10
886.573950671592
 20
100.7422955680891
 30
0.0
 11
886.9165748926928
 21
100.7422955680891
 31
0.0
  0
LINE
  5
129A
330
2
100
AcDbEntity
  8
HIDS
100
AcDbLine
 10
888.9165748926927
 20
101.5422955680888
 30
0.0
 11
888.1165748926926
 21
100.7422955680891
 31
0.0
  0
LINE
  5
129B
330
2
100
AcDbEntity
  8
HIDS
100
AcDbLine
 10
888.1165748926926
 20
100.7422955680891
 30
0.0
 11
886.9165748926928
 21
100.7422955680891
 31
0.0
  0
LINE
  5
129C
330
2
100
AcDbEntity
  8
HIDS
100
AcDbLine
 10
888.9165748926927
 20
101.5422955680888
 30
0.0
 11
886.9165748926928
 21
101.5422955680888
 31
0.0
  0
LINE
  5
129D
330
2
100
AcDbEntity
  8
HIDS
100
AcDbLine
 10
888.5832415593597
 20
101.2089622347558
 30
0.0
 11
888.5832415593597
 21
98.92981393964976
 31
0.0
  0
LINE
  5
129E
330
2
100
AcDbEntity
  8
HIDS
100
AcDbLine
 10
883.5398858063147
 20
115.7422955680891
 30
0.0
 11
890.4165748926928
 21
115.7422955680891
 31
0.0
  0
LINE
  5
129F
330
2
100
AcDbEntity
  8
HIDS
100
AcDbLine
 10
885.5055505874537
 20
119.4422955680894
 30
0.0
 11
890.4165748926928
 21
119.4422955680894
 31
0.0
  0
LINE
  5
12A0
330
2
100
AcDbEntity
  8
HIDS
100
AcDbLine
 10
889.8969596504223
 20
119.7422955680891
 30
0.0
 11
885.7305790001721
 21
119.7422955680891
 31
0.0
  0
LINE
  5
12A1
330
2
100
AcDbEntity
  8
HIDS
100
AcDbLine
 10
888.9165748926927
 20
114.0756289014226
 30
0.0
 11
884.9165748926928
 21
114.0756289014226
 31
0.0
  0
LINE
  5
12A2
330
2
100
AcDbEntity
  8
HIDS
100
AcDbLine
 10
883.5398858063147
 20
115.7422955680891
 30
0.0
 11
890.9165748926927
 21
115.7422955680891
 31
0.0
  0
LINE
  5
12A3
330
2
100
AcDbEntity
  8
0
100
AcDbLine
 10
882.6856550300364
 20
111.4922955680891
 30
0.0
 11
886.9165748926928
 21
111.4922955680891
 31
0.0
  0
LINE
  5
12A4
330
2
100
AcDbEntity
  8
0
100
AcDbLine
 10
882.6856550300364
 20
109.9922955680891
 30
0.0
 11
886.9165748926928
 21
109.9922955680891
 31
0.0
  0
LINE
  5
12A5
330
2
100
AcDbEntity
  8
0
100
AcDbLine
 10
883.4165748926928
 20
119.4422955680894
 30
0.0
 11
883.4165748926928
 21
115.7422955680891
 31
0.0
  0
LINE
  5
12A6
330
2
100
AcDbEntity
  8
0
100
AcDbLine
 10
884.9165748926928
 20
111.4922955680891
 30
0.0
 11
884.9165748926928
 21
109.9922955680891
 31
0.0
  0
LINE
  5
12A7
330
2
100
AcDbEntity
  8
HOJO
100
AcDbLine
 10
885.2499082260258
 20
111.4922955680891
 30
0.0
 11
885.2499082260258
 21
109.9922955680891
 31
0.0
  0
LINE
  5
12A8
330
2
100
AcDbEntity
  8
HIDS
100
AcDbLine
 10
884.9165748926928
 20
115.7422955680891
 30
0.0
 11
885.2499082260258
 21
114.0756289014226
 31
0.0
  0
LINE
  5
12A9
330
2
100
AcDbEntity
  8
0
100
AcDbLine
 10
883.4165748926928
 20
115.7422955680891
 30
0.0
 11
883.5398858063147
 21
115.7422955680891
 31
0.0
  0
LINE
  5
12AA
330
2
100
AcDbEntity
  8
HIDS
100
AcDbLine
 10
885.2499082260258
 20
114.0756289014226
 30
0.0
 11
885.2499082260258
 21
111.4922955680891
 31
0.0
  0
LINE
  5
12AB
330
2
100
AcDbEntity
  8
HIDS
100
AcDbLine
 10
884.9165748926928
 20
115.7422955680891
 30
0.0
 11
884.9165748926928
 21
111.4922955680891
 31
0.0
  0
LINE
  5
12AC
330
2
100
AcDbEntity
  8
HIDS
100
AcDbLine
 10
884.4165748926927
 20
115.7422955680891
 30
0.0
 11
884.4165748926927
 21
111.4922955680891
 31
0.0
  0
LINE
  5
12AD
330
2
100
AcDbEntity
  8
0
100
AcDbLine
 10
885.7305790001721
 20
119.7422955680891
 30
0.0
 11
883.9361901349642
 21
119.7422955680891
 31
0.0
  0
LINE
  5
12AE
330
2
100
AcDbEntity
  8
0
100
AcDbLine
 10
883.4165748926928
 20
119.4422955680894
 30
0.0
 11
883.9361901349642
 21
119.7422955680891
 31
0.0
  0
LINE
  5
12AF
330
2
100
AcDbEntity
  8
0
100
AcDbLine
 10
883.4165748926928
 20
119.4422955680894
 30
0.0
 11
885.5055505874537
 21
119.4422955680894
 31
0.0
  0
LINE
  5
12B0
330
2
100
AcDbEntity
  8
HIDS
100
AcDbLine
 10
890.4165748926928
 20
115.7422955680891
 30
0.0
 11
890.4165748926928
 21
119.4422955680894
 31
0.0
  0
LINE
  5
12B1
330
2
100
AcDbEntity
  8
HIDS
100
AcDbLine
 10
890.9165748926927
 20
123.9828582449546
 30
0.0
 11
890.9165748926927
 21
115.7422955680891
 31
0.0
  0
LINE
  5
12B2
330
2
100
AcDbEntity
  8
HOJO
100
AcDbLine
 10
888.5832415593597
 20
111.4922955680891
 30
0.0
 11
888.5832415593597
 21
109.9922955680891
 31
0.0
  0
LINE
  5
12B3
330
2
100
AcDbEntity
  8
0
100
AcDbLine
 10
888.9165748926927
 20
111.4922955680891
 30
0.0
 11
888.9165748926927
 21
109.9922955680891
 31
0.0
  0
LINE
  5
12B4
330
2
100
AcDbEntity
  8
0
100
AcDbLine
 10
886.9165748926928
 20
109.9922955680891
 30
0.0
 11
890.4568694391567
 21
109.9922955680891
 31
0.0
  0
LINE
  5
12B5
330
2
100
AcDbEntity
  8
0
100
AcDbLine
 10
886.9165748926928
 20
111.4922955680891
 30
0.0
 11
890.4568694391571
 21
111.4922955680891
 31
0.0
  0
LINE
  5
12B6
330
2
100
AcDbEntity
  8
HIDS
100
AcDbLine
 10
888.9165748926927
 20
115.7422955680891
 30
0.0
 11
888.5832415593597
 21
114.0756289014226
 31
0.0
  0
LINE
  5
12B7
330
2
100
AcDbEntity
  8
HIDS
100
AcDbLine
 10
888.9165748926927
 20
115.7422955680891
 30
0.0
 11
888.9165748926927
 21
111.4922955680891
 31
0.0
  0
LINE
  5
12B8
330
2
100
AcDbEntity
  8
HIDS
100
AcDbLine
 10
888.5832415593597
 20
114.0756289014226
 30
0.0
 11
888.5832415593597
 21
111.4922955680891
 31
0.0
  0
LINE
  5
12B9
330
2
100
AcDbEntity
  8
HIDS
100
AcDbLine
 10
889.4165748926928
 20
115.7422955680891
 30
0.0
 11
889.4165748926928
 21
111.4922955680891
 31
0.0
  0
LINE
  5
12BA
330
2
100
AcDbEntity
  8
HIDS
100
AcDbLine
 10
889.8969596504223
 20
119.7422955680891
 30
0.0
 11
890.4165748926928
 21
119.4422955680894
 31
0.0
  0
LINE
  5
12BB
330
2
100
AcDbEntity
  8
0
100
AcDbLine
 10
911.4165748926927
 20
109.9922955680891
 30
0.0
 11
904.3762803462325
 21
109.9922955680891
 31
0.0
  0
LINE
  5
12BC
330
2
100
AcDbEntity
  8
0
100
AcDbLine
 10
904.3762803462321
 20
111.4922955680891
 30
0.0
 11
911.4165748926927
 21
111.4922955680891
 31
0.0
  0
LINE
  5
12BD
330
2
100
AcDbEntity
  8
0
100
AcDbLine
 10
911.4165748926927
 20
111.4922955680891
 30
0.0
 11
911.4165748926927
 21
109.9922955680891
 31
0.0
  0
LINE
  5
12BE
330
2
100
AcDbEntity
  8
0
100
AcDbLine
 10
881.9165687215056
 20
144.7422934325151
 30
0.0
 11
891.9165687215055
 21
144.7422934325151
 31
0.0
  0
ARC
  5
12BF
330
2
100
AcDbEntity
  8
0
100
AcDbCircle
 10
891.9165687215055
 20
140.7422934325151
 30
0.0
 40
4.0
100
AcDbArc
 50
0.0
 51
90.0
  0
LINE
  5
12C0
330
2
100
AcDbEntity
  8
0
100
AcDbLine
 10
895.9165687215056
 20
140.7422934325151
 30
0.0
 11
895.9165687215056
 21
140.7422934325151
 31
0.0
  0
ARC
  5
12C1
330
2
100
AcDbEntity
  8
0
100
AcDbCircle
 10
881.9165687215056
 20
140.7422934325151
 30
0.0
 40
4.0
100
AcDbArc
 50
90.0
 51
180.0
  0
CIRCLE
  5
12C2
330
2
100
AcDbEntity
  8
CENTER
100
AcDbCircle
 10
897.4165748926909
 20
110.7422955680918
 30
0.0
 40
35.00178566873169
  0
CIRCLE
  5
12C3
330
2
100
AcDbEntity
  8
0
100
AcDbCircle
 10
897.4165748926928
 20
110.7422955680905
 30
0.0
 40
14.75
  0
CIRCLE
  5
12C4
330
2
100
AcDbEntity
  8
HOJO
100
AcDbCircle
 10
872.6665748926928
 20
135.4922955680891
 30
0.0
 40
2.5
  0
CIRCLE
  5
12C5
330
2
100
AcDbEntity
  8
0
100
AcDbCircle
 10
872.6665748926928
 20
135.4922955680891
 30
0.0
 40
2.0
  0
CIRCLE
  5
12C6
330
2
100
AcDbEntity
  8
0
100
AcDbCircle
 10
872.6665748926928
 20
85.99229556808916
 30
0.0
 40
2.0
  0
CIRCLE
  5
12C7
330
2
100
AcDbEntity
  8
HOJO
100
AcDbCircle
 10
872.6665748926928
 20
85.99229556808916
 30
0.0
 40
2.5
  0
CIRCLE
  5
12C8
330
2
100
AcDbEntity
  8
0
100
AcDbCircle
 10
922.1665748926927
 20
85.99229556808916
 30
0.0
 40
2.0
  0
CIRCLE
  5
12C9
330
2
100
AcDbEntity
  8
HOJO
100
AcDbCircle
 10
922.1665748926927
 20
85.99229556808916
 30
0.0
 40
2.5
  0
CIRCLE
  5
12CA
330
2
100
AcDbEntity
  8
0
100
AcDbCircle
 10
922.1665748926927
 20
135.4922955680891
 30
0.0
 40
2.0
  0
CIRCLE
  5
12CB
330
2
100
AcDbEntity
  8
HOJO
100
AcDbCircle
 10
922.1665748926927
 20
135.4922955680891
 30
0.0
 40
2.5
  0
ARC
  5
12CC
330
2
100
AcDbEntity
  8
0
100
AcDbCircle
 10
897.4165748926928
 20
110.7422955680891
 30
0.0
 40
8.154700538378051
100
AcDbArc
 50
5.277035934798783
 51
174.7229640652076
  0
CIRCLE
  5
12CD
330
2
100
AcDbEntity
  8
0
100
AcDbCircle
 10
897.4165748926946
 20
110.7422955680877
 30
0.0
 40
7.000000000000113
  0
ARC
  5
12CE
330
2
100
AcDbEntity
  8
0
100
AcDbCircle
 10
897.4165748926928
 20
110.7422955680918
 30
0.0
 40
8.154700538378051
100
AcDbArc
 50
185.2770359348053
 51
354.7229640651946
  0
CIRCLE
  5
12CF
330
2
100
AcDbEntity
  8
0
100
AcDbCircle
 10
897.4165748926928
 20
110.7422955680891
 30
0.0
 40
22.5
  0
LINE
  5
12D1
330
2
100
AcDbEntity
  8
0
100
AcDbLine
 10
653.1539285101986
 20
137.6022955680997
 30
0.0
 11
648.4539285101996
 21
137.6022955680997
 31
0.0
  0
LINE
  5
12D2
330
2
100
AcDbEntity
  8
0
100
AcDbLine
 10
648.4539285101996
 20
146.1022955680998
 30
0.0
 11
653.1539285101986
 21
146.1022955680998
 31
0.0
  0
LINE
  5
12D3
330
2
100
AcDbEntity
  8
CENTER
  6
CENS
100
AcDbLine
 10
630.9227715541707
 20
141.8522955680998
 30
0.0
 11
658.3797444842545
 21
141.8522955680998
 31
0.0
  0
LINE
  5
12D4
330
2
100
AcDbEntity
  8
0
100
AcDbLine
 10
653.4539285101997
 20
145.5826803258293
 30
0.0
 11
653.4539285101997
 21
138.1219108103702
 31
0.0
  0
LINE
  5
12D5
330
2
100
AcDbEntity
  8
0
100
AcDbLine
 10
653.1539285101986
 20
137.6022955680997
 30
0.0
 11
653.1539285101986
 21
146.1022955680998
 31
0.0
  0
LINE
  5
12D6
330
2
100
AcDbEntity
  8
0
100
AcDbLine
 10
653.1539285101986
 20
137.6022955680997
 30
0.0
 11
653.4539285101997
 21
138.1219108103702
 31
0.0
  0
LINE
  5
12D7
330
2
100
AcDbEntity
  8
0
100
AcDbLine
 10
653.4539285101997
 20
145.5826803258293
 30
0.0
 11
653.1539285101986
 21
146.1022955680998
 31
0.0
  0
LINE
  5
12D8
330
2
100
AcDbEntity
  8
0
100
AcDbLine
 10
648.4539285101996
 20
146.1022955680998
 30
0.0
 11
647.4539285101997
 21
146.1022955680998
 31
0.0
  0
LINE
  5
12D9
330
2
100
AcDbEntity
  8
0
100
AcDbLine
 10
647.4539285101997
 20
146.1022955680998
 30
0.0
 11
647.4539285101997
 21
137.6022955680997
 31
0.0
  0
LINE
  5
12DA
330
2
100
AcDbEntity
  8
0
100
AcDbLine
 10
647.4539285101997
 20
137.6022955680997
 30
0.0
 11
648.4539285101996
 21
137.6022955680997
 31
0.0
  0
LINE
  5
12DB
330
2
100
AcDbEntity
  8
0
100
AcDbLine
 10
648.4539285101996
 20
137.6022955680997
 30
0.0
 11
648.4539285101996
 21
146.1022955680998
 31
0.0
  0
LINE
  5
12DC
330
2
100
AcDbEntity
  8
0
100
AcDbLine
 10
648.4539285101996
 20
137.6022955680997
 30
0.0
 11
648.4539285101996
 21
146.1022955680998
 31
0.0
  0
ARC
  5
12DD
330
2
100
AcDbEntity
  8
0
100
AcDbCircle
 10
652.2571979208001
 20
75.74229556809922
 30
0.0
 40
5.0
100
AcDbArc
 50
163.8741378563922
 51
171.7867892982563
  0
LINE
  5
12DE
330
2
100
AcDbEntity
  8
0
100
AcDbLine
 10
647.3286900808358
 20
76.70739075522504
 30
0.0
 11
647.9227715541707
 21
110.7422955680996
 31
0.0
  0
LINE
  5
12DF
330
2
100
AcDbEntity
  8
0
100
AcDbLine
 10
635.9227715541707
 20
74.74229556809968
 30
0.0
 11
645.3289946905239
 21
74.74229556809968
 31
0.0
  0
ARC
  5
12E0
330
2
100
AcDbEntity
  8
0
100
AcDbCircle
 10
645.3289946905239
 20
76.74229556809968
 30
0.0
 40
2.0
100
AcDbArc
 50
270.0
 51
358.9999999999982
  0
LINE
  5
12E1
330
2
100
AcDbEntity
  8
CENTER
  6
CENS
100
AcDbLine
 10
664.9227715541707
 20
121.1422955680997
 30
0.0
 11
664.9227715541707
 21
149.4214771685816
 31
0.0
  0
LINE
  5
12E2
330
2
100
AcDbEntity
  8
0
100
AcDbLine
 10
647.3286900808358
 20
144.7772003809738
 30
0.0
 11
647.7652235149372
 21
119.7682166907722
 31
0.0
  0
LINE
  5
12E3
330
2
100
AcDbEntity
  8
0
100
AcDbLine
 10
664.3939865279786
 20
137.7381833373221
 30
0.0
 11
664.1764435174442
 21
125.2751526108319
 31
0.0
  0
LINE
  5
12E4
330
2
100
AcDbEntity
  8
0
100
AcDbLine
 10
635.9227715541707
 20
110.7422955680996
 30
0.0
 11
636.382810907358
 21
110.7422955680997
 31
0.0
  0
LINE
  5
12E5
330
2
100
AcDbEntity
  8
0
100
AcDbLine
 10
653.4539285101997
 20
80.74229556809967
 30
0.0
 11
678.9227715541707
 21
80.74229556809967
 31
0.0
  0
LINE
  5
12E6
330
2
100
AcDbEntity
  8
0
100
AcDbLine
 10
664.3939865279786
 20
83.74640779887721
 30
0.0
 11
663.9227715541707
 21
110.7422955680996
 31
0.0
  0
ARC
  5
12E7
330
2
100
AcDbEntity
  8
0
100
AcDbCircle
 10
667.3945152913653
 20
83.74229556809968
 30
0.0
 40
3.0
100
AcDbArc
 50
181.0000000000017
 51
270.0
  0
ARC
  5
12E8
330
2
100
AcDbEntity
  8
0
100
AcDbCircle
 10
651.8309865047809
 20
135.5101142136429
 30
0.0
 40
3.0
100
AcDbArc
 50
270.0
 51
358.9999999999721
  0
LINE
  5
12E9
330
2
100
AcDbEntity
  8
0
100
AcDbLine
 10
661.3022732578425
 20
132.5101142136429
 30
0.0
 11
651.8309865047809
 21
132.5101142136433
 31
0.0
  0
LINE
  5
12EA
330
2
100
AcDbEntity
  8
0
100
AcDbLine
 10
654.8305295902497
 20
135.4577569943309
 30
0.0
 11
654.8884706900895
 21
138.7772003809743
 31
0.0
  0
ARC
  5
12EB
330
2
100
AcDbEntity
  8
0
100
AcDbCircle
 10
656.8881660804033
 20
138.7422955680996
 30
0.0
 40
2.0
100
AcDbArc
 50
90.0
 51
178.9999999999721
  0
LINE
  5
12EC
330
2
100
AcDbEntity
  8
0
100
AcDbLine
 10
653.4539285101997
 20
140.7422955681001
 30
0.0
 11
678.9227715541707
 21
140.7422955680996
 31
0.0
  0
ARC
  5
12ED
330
2
100
AcDbEntity
  8
0
100
AcDbCircle
 10
667.3945152913653
 20
137.7422955680996
 30
0.0
 40
3.0
100
AcDbArc
 50
90.0
 51
178.9999999999982
  0
ARC
  5
12EE
330
2
100
AcDbEntity
  8
0
100
AcDbCircle
 10
645.3289946905239
 20
144.7422955680996
 30
0.0
 40
2.0
100
AcDbArc
 50
1.000000000001775
 51
90.0
  0
LINE
  5
12EF
330
2
100
AcDbEntity
  8
0
100
AcDbLine
 10
635.9227715541707
 20
146.7422955680996
 30
0.0
 11
645.3289946905239
 21
146.7422955680996
 31
0.0
  0
ARC
  5
12F0
330
2
100
AcDbEntity
  8
0
100
AcDbCircle
 10
652.2571979208001
 20
145.7422955681001
 30
0.0
 40
5.0
100
AcDbArc
 50
188.2132107017437
 51
196.1258621436077
  0
LINE
  5
12F1
330
2
100
AcDbEntity
  8
0
100
AcDbLine
 10
678.9227715541707
 20
80.74229556809967
 30
0.0
 11
678.9227715541707
 21
140.7422955680996
 31
0.0
  0
LINE
  5
12F2
330
2
100
AcDbEntity
  8
0
100
AcDbLine
 10
653.1539285101986
 20
83.88229556809955
 30
0.0
 11
648.4539285101996
 21
83.88229556809955
 31
0.0
  0
LINE
  5
12F3
330
2
100
AcDbEntity
  8
0
100
AcDbLine
 10
648.4539285101996
 20
75.38229556809955
 30
0.0
 11
653.1539285101986
 21
75.38229556809955
 31
0.0
  0
LINE
  5
12F4
330
2
100
AcDbEntity
  8
CENTER
  6
CENS
100
AcDbLine
 10
630.9227715541707
 20
79.63229556809955
 30
0.0
 11
658.3797444842545
 21
79.63229556809955
 31
0.0
  0
LINE
  5
12F5
330
2
100
AcDbEntity
  8
0
100
AcDbLine
 10
653.4539285101997
 20
75.90191081037
 30
0.0
 11
653.4539285101997
 21
83.36268032582911
 31
0.0
  0
LINE
  5
12F6
330
2
100
AcDbEntity
  8
0
100
AcDbLine
 10
653.1539285101986
 20
83.88229556809955
 30
0.0
 11
653.1539285101986
 21
75.38229556809955
 31
0.0
  0
LINE
  5
12F7
330
2
100
AcDbEntity
  8
0
100
AcDbLine
 10
653.1539285101986
 20
83.88229556809955
 30
0.0
 11
653.4539285101997
 21
83.36268032582911
 31
0.0
  0
LINE
  5
12F8
330
2
100
AcDbEntity
  8
0
100
AcDbLine
 10
653.4539285101997
 20
75.90191081037
 30
0.0
 11
653.1539285101986
 21
75.38229556809955
 31
0.0
  0
LINE
  5
12F9
330
2
100
AcDbEntity
  8
0
100
AcDbLine
 10
648.4539285101996
 20
75.38229556809955
 30
0.0
 11
647.4539285101997
 21
75.38229556809955
 31
0.0
  0
LINE
  5
12FA
330
2
100
AcDbEntity
  8
0
100
AcDbLine
 10
647.4539285101997
 20
75.38229556809955
 30
0.0
 11
647.4539285101997
 21
83.88229556809955
 31
0.0
  0
LINE
  5
12FB
330
2
100
AcDbEntity
  8
0
100
AcDbLine
 10
647.4539285101997
 20
83.88229556809955
 30
0.0
 11
648.4539285101996
 21
83.88229556809955
 31
0.0
  0
LINE
  5
12FC
330
2
100
AcDbEntity
  8
0
100
AcDbLine
 10
648.4539285101996
 20
83.88229556809955
 30
0.0
 11
648.4539285101996
 21
75.38229556809955
 31
0.0
  0
LINE
  5
12FD
330
2
100
AcDbEntity
  8
0
100
AcDbLine
 10
648.4539285101996
 20
83.88229556809955
 30
0.0
 11
648.4539285101996
 21
75.38229556809955
 31
0.0
  0
LINE
  5
12FE
330
2
100
AcDbEntity
  8
0
100
AcDbLine
 10
664.3349751237943
 20
125.4922955681001
 30
0.0
 11
671.4227609451206
 21
125.4922955681001
 31
0.0
  0
LINE
  5
12FF
330
2
100
AcDbEntity
  8
0
100
AcDbLine
 10
671.4227609451206
 20
125.4922955681001
 30
0.0
 11
671.4227609451206
 21
110.7422955680996
 31
0.0
  0
LINE
  5
1300
330
2
100
AcDbEntity
  8
0
100
AcDbLine
 10
678.9227715541707
 20
135.7422955681001
 30
0.0
 11
671.9227715541706
 21
135.7422955681001
 31
0.0
  0
LINE
  5
1301
330
2
100
AcDbEntity
  8
0
100
AcDbLine
 10
671.9227715541706
 20
135.7422955681001
 30
0.0
 11
671.9227715541706
 21
110.7422955680996
 31
0.0
  0
LINE
  5
1302
330
2
100
AcDbEntity
  8
0
100
AcDbLine
 10
669.9227777253578
 20
144.7422955680996
 30
0.0
 11
659.9227777253578
 21
144.7422955680996
 31
0.0
  0
ARC
  5
1303
330
2
100
AcDbEntity
  8
0
100
AcDbCircle
 10
659.9227777253578
 20
140.7422955680996
 30
0.0
 40
4.0
100
AcDbArc
 50
90.0
 51
180.0
  0
ARC
  5
1304
330
2
100
AcDbEntity
  8
0
100
AcDbCircle
 10
669.9227777253578
 20
140.7422955680996
 30
0.0
 40
4.0
100
AcDbArc
 50
0.0
 51
90.0
  0
LINE
  5
1305
330
2
100
AcDbEntity
  8
0
100
AcDbLine
 10
669.4227609451205
 20
117.7422955681001
 30
0.0
 11
659.4227609451206
 21
117.7422955681001
 31
0.0
  0
LINE
  5
1306
330
2
100
AcDbEntity
  8
0
100
AcDbLine
 10
669.4227609451205
 20
117.7422955680996
 30
0.0
 11
669.4227609451205
 21
110.7422955680996
 31
0.0
  0
LINE
  5
1307
330
2
100
AcDbEntity
  8
0
100
AcDbLine
 10
671.4227609451206
 20
118.8969961064792
 30
0.0
 11
669.4227609451205
 21
117.7422955680996
 31
0.0
  0
LINE
  5
1308
330
2
100
AcDbEntity
  8
0
100
AcDbLine
 10
642.4227609451206
 20
117.9922955680996
 30
0.0
 11
642.4227609451206
 21
110.7422955680996
 31
0.0
  0
LINE
  5
1309
330
2
100
AcDbEntity
  8
0
100
AcDbLine
 10
669.4227609451205
 20
117.7422955680998
 30
0.0
 11
659.4227609451206
 21
117.7422955680998
 31
0.0
  0
LINE
  5
130A
330
2
100
AcDbEntity
  8
0
100
AcDbLine
 10
657.4227609451205
 20
121.0269767548229
 30
0.0
 11
657.4227609451205
 21
110.7422955680996
 31
0.0
  0
LINE
  5
130B
330
2
100
AcDbEntity
  8
0
100
AcDbLine
 10
659.4227609451206
 20
121.5523769022547
 30
0.0
 11
659.4227609451206
 21
110.7422955680996
 31
0.0
  0
LINE
  5
130C
330
2
100
AcDbEntity
  8
0
100
AcDbLine
 10
650.4227609451206
 20
117.9922955680996
 30
0.0
 11
642.4227609451206
 21
117.9922955680996
 31
0.0
  0
LINE
  5
130D
330
2
100
AcDbEntity
  8
0
100
AcDbLine
 10
650.4227609451206
 20
110.7422955680996
 30
0.0
 11
650.4227609451206
 21
117.9922955680996
 31
0.0
  0
LINE
  5
130E
330
2
100
AcDbEntity
  8
0
100
AcDbLine
 10
657.4227609451205
 20
117.7422955680996
 30
0.0
 11
650.4227609451206
 21
117.7422955680996
 31
0.0
  0
LINE
  5
130F
330
2
100
AcDbEntity
  8
0
100
AcDbLine
 10
638.6699841953883
 20
110.7422955680996
 30
0.0
 11
642.4227609451206
 21
117.2422955680996
 31
0.0
  0
SPLINE
  5
1310
330
2
100
AcDbEntity
  8
HOJO
100
AcDbSpline
210
0.0
220
0.0
230
1.0
 70
     8
 71
     3
 72
    20
 73
    16
 74
     0
 42
0.0000000001
 43
0.0000000001
 40
0.0
 40
0.0
 40
0.0
 40
0.0
 40
5.311626210389601
 40
7.954639692924123
 40
10.24579206730457
 40
14.18281221953265
 40
18.83794314114633
 40
26.54246833222011
 40
31.19712602527561
 40
34.95638115537181
 40
42.12378530287149
 40
45.78553747213095
 40
50.20353689726185
 40
53.26513166942802
 40
54.23175360515262
 40
54.23175360515262
 40
54.23175360515262
 40
54.23175360515262
 10
678.9227715541707
 20
137.4297442901158
 30
0.0
 10
677.2097923882825
 20
137.3217022398895
 30
0.0
 10
674.6444514688715
 20
137.1598995174853
 30
0.0
 10
670.872697581795
 20
136.9077668453177
 30
0.0
 10
669.5535563656609
 20
133.9753253603509
 30
0.0
 10
667.118346997369
 20
131.3208165370553
 30
0.0
 10
665.2802986542188
 20
126.1695211038915
 30
0.0
 10
661.1554622447434
 20
121.459773752266
 30
0.0
 10
655.6778147417368
 20
120.8224423178466
 30
0.0
 10
650.7644292321707
 20
119.9684186862884
 30
0.0
 10
645.9304298854127
 20
119.6322781645173
 30
0.0
 10
640.8927031207728
 20
119.2289034156125
 30
0.0
 10
637.8215524994044
 20
115.0267004187528
 30
0.0
 10
636.8215782046787
 20
112.3484598978631
 30
0.0
 10
636.4655386794453
 20
111.0534468677921
 30
0.0
 10
636.382810907358
 20
110.7422955680996
 30
0.0
  0
LINE
  5
1311
330
2
100
AcDbEntity
  8
0
100
AcDbLine
 10
668.8221048825536
 20
133.2422955680996
 30
0.0
 11
671.9227715541706
 21
133.2422955680996
 31
0.0
  0
ARC
  5
1313
330
2
100
AcDbEntity
  8
0
100
AcDbCircle
 10
645.9227715498019
 20
430.3552626908648
 30
0.0
 40
2.0
100
AcDbArc
 50
40.04151653423844
 51
90.0
  0
ARC
  5
1314
330
2
100
AcDbEntity
  8
0
100
AcDbCircle
 10
645.9227715498019
 20
362.3552626908648
 30
0.0
 40
2.0
100
AcDbArc
 50
270.0
 51
319.9584834657615
  0
LINE
  5
1315
330
2
100
AcDbEntity
  8
0
100
AcDbLine
 10
654.922771549802
 20
393.3552626908643
 30
0.0
 11
654.922771549802
 21
378.8552626908643
 31
0.0
  0
LINE
  5
1316
330
2
100
AcDbEntity
  8
0
100
AcDbLine
 10
647.9227715498019
 20
423.2152626908649
 30
0.0
 11
647.9227715498019
 21
369.4952626908647
 31
0.0
  0
LINE
  5
1317
330
2
100
AcDbEntity
  8
CENTER
  6
CENS
100
AcDbLine
 10
664.9227715498019
 20
398.7552626908648
 30
0.0
 11
664.9227715498019
 21
372.9552626908648
 31
0.0
  0
LINE
  5
1318
330
2
100
AcDbEntity
  8
0
100
AcDbLine
 10
663.9227715498019
 20
423.3552626908648
 30
0.0
 11
663.9227715498019
 21
399.3552626908648
 31
0.0
  0
LINE
  5
1319
330
2
100
AcDbEntity
  8
0
100
AcDbLine
 10
653.4539285058309
 20
426.3552626908648
 30
0.0
 11
678.9227715498019
 21
426.3552626908648
 31
0.0
  0
ARC
  5
131A
330
2
100
AcDbEntity
  8
0
100
AcDbCircle
 10
666.9227715498019
 20
423.3552626908648
 30
0.0
 40
3.0
100
AcDbArc
 50
90.0
 51
180.0
  0
ARC
  5
131B
330
2
100
AcDbEntity
  8
0
100
AcDbCircle
 10
660.9227715498019
 20
399.3552626908648
 30
0.0
 40
3.0
100
AcDbArc
 50
270.0
 51
0.0
  0
ARC
  5
131C
330
2
100
AcDbEntity
  8
0
100
AcDbCircle
 10
657.9227715498019
 20
393.3552626908643
 30
0.0
 40
3.0
100
AcDbArc
 50
90.0
 51
180.0
  0
LINE
  5
131D
330
2
100
AcDbEntity
  8
0
100
AcDbLine
 10
657.9227715498019
 20
396.3552626908648
 30
0.0
 11
660.9227715498019
 21
396.3552626908648
 31
0.0
  0
LINE
  5
131E
330
2
100
AcDbEntity
  8
0
100
AcDbLine
 10
653.4539285058309
 20
366.3552626908648
 30
0.0
 11
678.9227715498019
 21
366.3552626908648
 31
0.0
  0
LINE
  5
131F
330
2
100
AcDbEntity
  8
CENTER
  6
CENS
100
AcDbLine
 10
652.022771549802
 20
385.8552626908648
 30
0.0
 11
677.8227715498019
 21
385.8552626908648
 31
0.0
  0
ARC
  5
1320
330
2
100
AcDbEntity
  8
0
100
AcDbCircle
 10
657.9227715498019
 20
378.8552626908643
 30
0.0
 40
3.0
100
AcDbArc
 50
180.0
 51
270.0
  0
ARC
  5
1321
330
2
100
AcDbEntity
  8
0
100
AcDbCircle
 10
660.9227715498019
 20
372.8552626908648
 30
0.0
 40
3.0
100
AcDbArc
 50
0.0
 51
90.0
  0
LINE
  5
1322
330
2
100
AcDbEntity
  8
0
100
AcDbLine
 10
657.9227715498019
 20
375.8552626908648
 30
0.0
 11
660.9227715498019
 21
375.8552626908648
 31
0.0
  0
LINE
  5
1323
330
2
100
AcDbEntity
  8
0
100
AcDbLine
 10
663.9227715498019
 20
372.8552626908648
 30
0.0
 11
663.9227715498019
 21
369.3552626908648
 31
0.0
  0
ARC
  5
1324
330
2
100
AcDbEntity
  8
0
100
AcDbCircle
 10
666.9227715498019
 20
369.3552626908648
 30
0.0
 40
3.0
100
AcDbArc
 50
180.0
 51
270.0
  0
LINE
  5
1325
330
2
100
AcDbEntity
  8
0
100
AcDbLine
 10
635.9227715498019
 20
432.3552626908648
 30
0.0
 11
645.9227715498019
 21
432.3552626908648
 31
0.0
  0
LINE
  5
1326
330
2
100
AcDbEntity
  8
0
100
AcDbLine
 10
635.9227715498019
 20
360.3552626908648
 30
0.0
 11
645.9227715498019
 21
360.3552626908648
 31
0.0
  0
LINE
  5
1327
330
2
100
AcDbEntity
  8
0
100
AcDbLine
 10
678.9227715498019
 20
426.3552626908648
 30
0.0
 11
678.9227715498019
 21
366.3552626908648
 31
0.0
  0
LINE
  5
1328
330
2
100
AcDbEntity
  8
0
100
AcDbLine
 10
653.1539285058299
 20
369.4952626908647
 30
0.0
 11
648.453928505831
 21
369.4952626908647
 31
0.0
  0
LINE
  5
1329
330
2
100
AcDbEntity
  8
0
100
AcDbLine
 10
648.453928505831
 20
360.9952626908647
 30
0.0
 11
653.1539285058299
 21
360.9952626908647
 31
0.0
  0
LINE
  5
132A
330
2
100
AcDbEntity
  8
CENTER
  6
CENS
100
AcDbLine
 10
630.9227715498019
 20
365.2452626908647
 30
0.0
 11
658.3797444798857
 21
365.2452626908647
 31
0.0
  0
LINE
  5
132B
330
2
100
AcDbEntity
  8
0
100
AcDbLine
 10
653.4539285058309
 20
361.5148779331351
 30
0.0
 11
653.4539285058309
 21
368.9756474485942
 31
0.0
  0
LINE
  5
132C
330
2
100
AcDbEntity
  8
0
100
AcDbLine
 10
653.1539285058299
 20
369.4952626908647
 30
0.0
 11
653.1539285058299
 21
360.9952626908647
 31
0.0
  0
LINE
  5
132D
330
2
100
AcDbEntity
  8
0
100
AcDbLine
 10
653.1539285058299
 20
369.4952626908647
 30
0.0
 11
653.4539285058309
 21
368.9756474485942
 31
0.0
  0
LINE
  5
132E
330
2
100
AcDbEntity
  8
0
100
AcDbLine
 10
653.4539285058309
 20
361.5148779331351
 30
0.0
 11
653.1539285058299
 21
360.9952626908647
 31
0.0
  0
LINE
  5
132F
330
2
100
AcDbEntity
  8
0
100
AcDbLine
 10
648.453928505831
 20
360.9952626908647
 30
0.0
 11
647.4539285058309
 21
360.9952626908647
 31
0.0
  0
LINE
  5
1330
330
2
100
AcDbEntity
  8
0
100
AcDbLine
 10
647.4539285058309
 20
360.9952626908647
 30
0.0
 11
647.4539285058309
 21
369.4952626908647
 31
0.0
  0
LINE
  5
1331
330
2
100
AcDbEntity
  8
0
100
AcDbLine
 10
647.4539285058309
 20
369.4952626908647
 30
0.0
 11
648.453928505831
 21
369.4952626908647
 31
0.0
  0
LINE
  5
1332
330
2
100
AcDbEntity
  8
0
100
AcDbLine
 10
648.453928505831
 20
369.4952626908647
 30
0.0
 11
648.453928505831
 21
360.9952626908647
 31
0.0
  0
LINE
  5
1333
330
2
100
AcDbEntity
  8
0
100
AcDbLine
 10
648.453928505831
 20
369.4952626908647
 30
0.0
 11
648.453928505831
 21
360.9952626908647
 31
0.0
  0
LINE
  5
1334
330
2
100
AcDbEntity
  8
0
100
AcDbLine
 10
653.1539285058299
 20
423.2152626908649
 30
0.0
 11
648.453928505831
 21
423.2152626908649
 31
0.0
  0
LINE
  5
1335
330
2
100
AcDbEntity
  8
0
100
AcDbLine
 10
648.453928505831
 20
431.7152626908649
 30
0.0
 11
653.1539285058299
 21
431.7152626908649
 31
0.0
  0
LINE
  5
1336
330
2
100
AcDbEntity
  8
CENTER
  6
CENS
100
AcDbLine
 10
630.9227715498019
 20
427.4652626908649
 30
0.0
 11
658.3797444798857
 21
427.4652626908649
 31
0.0
  0
LINE
  5
1337
330
2
100
AcDbEntity
  8
0
100
AcDbLine
 10
653.4539285058309
 20
431.1956474485945
 30
0.0
 11
653.4539285058309
 21
423.7348779331354
 31
0.0
  0
LINE
  5
1338
330
2
100
AcDbEntity
  8
0
100
AcDbLine
 10
653.1539285058299
 20
423.2152626908649
 30
0.0
 11
653.1539285058299
 21
431.7152626908649
 31
0.0
  0
LINE
  5
1339
330
2
100
AcDbEntity
  8
0
100
AcDbLine
 10
653.1539285058299
 20
423.2152626908649
 30
0.0
 11
653.4539285058309
 21
423.7348779331354
 31
0.0
  0
LINE
  5
133A
330
2
100
AcDbEntity
  8
0
100
AcDbLine
 10
653.4539285058309
 20
431.1956474485945
 30
0.0
 11
653.1539285058299
 21
431.7152626908649
 31
0.0
  0
LINE
  5
133B
330
2
100
AcDbEntity
  8
0
100
AcDbLine
 10
648.453928505831
 20
431.7152626908649
 30
0.0
 11
647.4539285058309
 21
431.7152626908649
 31
0.0
  0
LINE
  5
133C
330
2
100
AcDbEntity
  8
0
100
AcDbLine
 10
647.4539285058309
 20
431.7152626908649
 30
0.0
 11
647.4539285058309
 21
423.2152626908649
 31
0.0
  0
LINE
  5
133D
330
2
100
AcDbEntity
  8
0
100
AcDbLine
 10
647.4539285058309
 20
423.2152626908649
 30
0.0
 11
648.453928505831
 21
423.2152626908649
 31
0.0
  0
LINE
  5
133E
330
2
100
AcDbEntity
  8
0
100
AcDbLine
 10
648.453928505831
 20
423.2152626908649
 30
0.0
 11
648.453928505831
 21
431.7152626908649
 31
0.0
  0
LINE
  5
133F
330
2
100
AcDbEntity
  8
0
100
AcDbLine
 10
648.453928505831
 20
423.2152626908649
 30
0.0
 11
648.453928505831
 21
431.7152626908649
 31
0.0
  0
CIRCLE
  5
1340
330
2
100
AcDbEntity
  8
0
100
AcDbCircle
 10
664.9227715498019
 20
385.8552626908648
 30
0.0
 40
9.000006171187123
  0
LINE
  5
1341
330
2
100
AcDbEntity
  8
0
100
AcDbLine
 10
74.86706009789819
 20
137.6022955681019
 30
0.0
 11
79.56706009789709
 21
137.6022955681019
 31
0.0
  0
LINE
  5
1342
330
2
100
AcDbEntity
  8
0
100
AcDbLine
 10
79.56706009789709
 20
146.1022955681019
 30
0.0
 11
74.86706009789819
 21
146.1022955681019
 31
0.0
  0
LINE
  5
1343
330
2
100
AcDbEntity
  8
CENTER
  6
CENS
100
AcDbLine
 10
97.09821705392611
 20
141.8522955681019
 30
0.0
 11
69.64124412384231
 21
141.8522955681019
 31
0.0
  0
LINE
  5
1344
330
2
100
AcDbEntity
  8
0
100
AcDbLine
 10
74.56706009789709
 20
145.5826803258315
 30
0.0
 11
74.56706009789709
 21
138.1219108103724
 31
0.0
  0
LINE
  5
1345
330
2
100
AcDbEntity
  8
0
100
AcDbLine
 10
74.86706009789819
 20
137.6022955681019
 30
0.0
 11
74.86706009789819
 21
146.1022955681019
 31
0.0
  0
LINE
  5
1346
330
2
100
AcDbEntity
  8
0
100
AcDbLine
 10
74.86706009789819
 20
137.6022955681019
 30
0.0
 11
74.56706009789709
 21
138.1219108103724
 31
0.0
  0
LINE
  5
1347
330
2
100
AcDbEntity
  8
0
100
AcDbLine
 10
74.56706009789709
 20
145.5826803258315
 30
0.0
 11
74.86706009789819
 21
146.1022955681019
 31
0.0
  0
LINE
  5
1348
330
2
100
AcDbEntity
  8
0
100
AcDbLine
 10
79.56706009789709
 20
146.1022955681019
 30
0.0
 11
80.5670600978971
 21
146.1022955681019
 31
0.0
  0
LINE
  5
1349
330
2
100
AcDbEntity
  8
0
100
AcDbLine
 10
80.5670600978971
 20
146.1022955681019
 30
0.0
 11
80.5670600978971
 21
137.6022955681019
 31
0.0
  0
LINE
  5
134A
330
2
100
AcDbEntity
  8
0
100
AcDbLine
 10
80.5670600978971
 20
137.6022955681019
 30
0.0
 11
79.56706009789709
 21
137.6022955681019
 31
0.0
  0
LINE
  5
134B
330
2
100
AcDbEntity
  8
0
100
AcDbLine
 10
79.56706009789709
 20
137.6022955681019
 30
0.0
 11
79.56706009789709
 21
146.1022955681019
 31
0.0
  0
LINE
  5
134C
330
2
100
AcDbEntity
  8
0
100
AcDbLine
 10
79.56706009789709
 20
137.6022955681019
 30
0.0
 11
79.56706009789709
 21
146.1022955681019
 31
0.0
  0
ARC
  5
134D
330
2
100
AcDbEntity
  8
0
100
AcDbCircle
 10
75.76379068729662
 20
75.74229556810141
 30
0.0
 40
5.0
100
AcDbArc
 50
8.213210701743676
 51
16.12586214360769
  0
LINE
  5
134E
330
2
100
AcDbEntity
  8
0
100
AcDbLine
 10
80.69229852726099
 20
76.70739075522724
 30
0.0
 11
80.0982170539261
 21
110.7422955681018
 31
0.0
  0
LINE
  5
134F
330
2
100
AcDbEntity
  8
0
100
AcDbLine
 10
92.09821705392611
 20
74.74229556810186
 30
0.0
 11
82.69199391757288
 21
74.74229556810186
 31
0.0
  0
ARC
  5
1350
330
2
100
AcDbEntity
  8
0
100
AcDbCircle
 10
82.69199391757288
 20
76.74229556810186
 30
0.0
 40
2.0
100
AcDbArc
 50
181.0000000000017
 51
270.0
  0
LINE
  5
1351
330
2
100
AcDbEntity
  8
CENTER
  6
CENS
100
AcDbLine
 10
63.09821705392611
 20
121.1422955681019
 30
0.0
 11
63.09821705392611
 21
149.4214771685838
 31
0.0
  0
LINE
  5
1352
330
2
100
AcDbEntity
  8
0
100
AcDbLine
 10
80.69229852726099
 20
144.777200380976
 30
0.0
 11
80.09821705392656
 21
110.7422955681018
 31
0.0
  0
LINE
  5
1353
330
2
100
AcDbEntity
  8
0
100
AcDbLine
 10
63.62700208011816
 20
137.7381833373243
 30
0.0
 11
64.09821705392701
 21
110.7422955681018
 31
0.0
  0
LINE
  5
1354
330
2
100
AcDbEntity
  8
0
100
AcDbLine
 10
92.09821705392611
 20
110.7422955681018
 30
0.0
 11
49.0982170539261
 21
110.7422955681018
 31
0.0
  0
LINE
  5
1355
330
2
100
AcDbEntity
  8
0
100
AcDbLine
 10
74.56706009789709
 20
80.74229556810186
 30
0.0
 11
49.0982170539261
 21
80.74229556810186
 31
0.0
  0
LINE
  5
1356
330
2
100
AcDbEntity
  8
0
100
AcDbLine
 10
63.62700208011816
 20
83.7464077988794
 30
0.0
 11
64.0982170539261
 21
110.7422955681018
 31
0.0
  0
ARC
  5
1357
330
2
100
AcDbEntity
  8
0
100
AcDbCircle
 10
60.62647331673147
 20
83.74229556810186
 30
0.0
 40
3.0
100
AcDbArc
 50
270.0
 51
358.9999999999982
  0
ARC
  5
1358
330
2
100
AcDbEntity
  8
0
100
AcDbCircle
 10
76.19000210331583
 20
85.97447692255864
 30
0.0
 40
3.0
100
AcDbArc
 50
90.0
 51
178.9999999999721
  0
LINE
  5
1359
330
2
100
AcDbEntity
  8
0
100
AcDbLine
 10
66.71871535025426
 20
88.97447692255864
 30
0.0
 11
76.19000210331583
 21
88.97447692255818
 31
0.0
  0
LINE
  5
135A
330
2
100
AcDbEntity
  8
0
100
AcDbLine
 10
73.19045901784708
 20
86.02683414187058
 30
0.0
 11
73.13251791800727
 21
82.70739075522724
 31
0.0
  0
ARC
  5
135B
330
2
100
AcDbEntity
  8
0
100
AcDbCircle
 10
71.13282252769355
 20
82.74229556810187
 30
0.0
 40
2.0
100
AcDbArc
 50
270.0
 51
358.9999999999721
  0
LINE
  5
135C
330
2
100
AcDbEntity
  8
0
100
AcDbLine
 10
74.56706009789709
 20
140.7422955681023
 30
0.0
 11
49.0982170539261
 21
140.7422955681018
 31
0.0
  0
ARC
  5
135D
330
2
100
AcDbEntity
  8
0
100
AcDbCircle
 10
60.62647331673147
 20
137.7422955681018
 30
0.0
 40
3.0
100
AcDbArc
 50
1.000000000001775
 51
90.0
  0
ARC
  5
135E
330
2
100
AcDbEntity
  8
0
100
AcDbCircle
 10
82.69199391757288
 20
144.7422955681018
 30
0.0
 40
2.0
100
AcDbArc
 50
90.0
 51
178.9999999999982
  0
LINE
  5
135F
330
2
100
AcDbEntity
  8
0
100
AcDbLine
 10
92.09821705392611
 20
146.7422955681018
 30
0.0
 11
82.69199391757288
 21
146.7422955681018
 31
0.0
  0
ARC
  5
1360
330
2
100
AcDbEntity
  8
0
100
AcDbCircle
 10
75.76379068729662
 20
145.7422955681023
 30
0.0
 40
5.0
100
AcDbArc
 50
343.8741378563923
 51
351.7867892982563
  0
LINE
  5
1361
330
2
100
AcDbEntity
  8
0
100
AcDbLine
 10
49.0982170539261
 20
80.74229556810186
 30
0.0
 11
49.0982170539261
 21
140.7422955681018
 31
0.0
  0
LINE
  5
1362
330
2
100
AcDbEntity
  8
0
100
AcDbLine
 10
74.86706009789819
 20
83.88229556810173
 30
0.0
 11
79.56706009789709
 21
83.88229556810173
 31
0.0
  0
LINE
  5
1363
330
2
100
AcDbEntity
  8
0
100
AcDbLine
 10
79.56706009789709
 20
75.38229556810174
 30
0.0
 11
74.86706009789819
 21
75.38229556810174
 31
0.0
  0
LINE
  5
1364
330
2
100
AcDbEntity
  8
CENTER
  6
CENS
100
AcDbLine
 10
97.09821705392611
 20
79.63229556810174
 30
0.0
 11
69.64124412384231
 21
79.63229556810174
 31
0.0
  0
LINE
  5
1365
330
2
100
AcDbEntity
  8
0
100
AcDbLine
 10
74.56706009789709
 20
75.90191081037218
 30
0.0
 11
74.56706009789709
 21
83.36268032583129
 31
0.0
  0
LINE
  5
1366
330
2
100
AcDbEntity
  8
0
100
AcDbLine
 10
74.86706009789819
 20
83.88229556810173
 30
0.0
 11
74.86706009789819
 21
75.38229556810174
 31
0.0
  0
LINE
  5
1367
330
2
100
AcDbEntity
  8
0
100
AcDbLine
 10
74.86706009789819
 20
83.88229556810173
 30
0.0
 11
74.56706009789709
 21
83.36268032583129
 31
0.0
  0
LINE
  5
1368
330
2
100
AcDbEntity
  8
0
100
AcDbLine
 10
74.56706009789709
 20
75.90191081037218
 30
0.0
 11
74.86706009789819
 21
75.38229556810174
 31
0.0
  0
LINE
  5
1369
330
2
100
AcDbEntity
  8
0
100
AcDbLine
 10
79.56706009789709
 20
75.38229556810174
 30
0.0
 11
80.5670600978971
 21
75.38229556810174
 31
0.0
  0
LINE
  5
136A
330
2
100
AcDbEntity
  8
0
100
AcDbLine
 10
80.5670600978971
 20
75.38229556810174
 30
0.0
 11
80.5670600978971
 21
83.88229556810173
 31
0.0
  0
LINE
  5
136B
330
2
100
AcDbEntity
  8
0
100
AcDbLine
 10
80.5670600978971
 20
83.88229556810173
 30
0.0
 11
79.56706009789709
 21
83.88229556810173
 31
0.0
  0
LINE
  5
136C
330
2
100
AcDbEntity
  8
0
100
AcDbLine
 10
79.56706009789709
 20
83.88229556810173
 30
0.0
 11
79.56706009789709
 21
75.38229556810174
 31
0.0
  0
LINE
  5
136D
330
2
100
AcDbEntity
  8
0
100
AcDbLine
 10
79.56706009789709
 20
83.88229556810173
 30
0.0
 11
79.56706009789709
 21
75.38229556810174
 31
0.0
  0
LINE
  5
136E
330
2
100
AcDbEntity
  8
0
100
AcDbLine
 10
58.09821088273898
 20
144.7422955681018
 30
0.0
 11
68.09821088273898
 21
144.7422955681018
 31
0.0
  0
ARC
  5
136F
330
2
100
AcDbEntity
  8
0
100
AcDbCircle
 10
68.09821088273898
 20
140.7422955681018
 30
0.0
 40
4.0
100
AcDbArc
 50
0.0
 51
90.0
  0
ARC
  5
1370
330
2
100
AcDbEntity
  8
0
100
AcDbCircle
 10
58.09821088273898
 20
140.7422955681018
 30
0.0
 40
4.0
100
AcDbArc
 50
90.0
 51
180.0
  0
LINE
  5
2218
330
2
100
AcDbEntity
  8
0
100
AcDbLine
 10
556.4228287550569
 20
338.3552626908636
 30
0.0
 11
556.4228287550573
 21
308.8552626908641
 31
0.0
  0
LINE
  5
2219
330
2
100
AcDbEntity
  8
0
100
AcDbLine
 10
571.4228287550564
 20
338.3552626908636
 30
0.0
 11
571.4228287550564
 21
308.8552626908636
 31
0.0
  0
LINE
  5
221B
330
2
100
AcDbEntity
  8
CENTER
100
AcDbLine
 10
524.437490179945
 20
150.2275769423262
 30
0.0
 11
603.4080529284214
 21
71.25701419384802
 31
0.0
  0
LINE
  5
221C
330
2
100
AcDbEntity
  8
CENTER
100
AcDbLine
 10
603.4080529283968
 20
150.2275769423251
 30
0.0
 11
524.4374901799191
 21
71.25701419384876
 31
0.0
  0
CIRCLE
  5
221D
330
2
100
AcDbEntity
  8
CENTER
100
AcDbCircle
 10
563.9227715541725
 20
110.7422955680996
 30
0.0
 40
44.0
  0
CIRCLE
  5
221E
330
2
100
AcDbEntity
  8
0
100
AcDbCircle
 10
563.9227715541725
 20
110.7422955681008
 30
0.0
 40
30.0
  0
CIRCLE
  5
221F
330
2
100
AcDbEntity
  8
0
100
AcDbCircle
 10
563.9227715541725
 20
110.7422955681008
 30
0.0
 40
24.00000000000017
  0
CIRCLE
  5
2220
330
2
100
AcDbEntity
  8
0
100
AcDbCircle
 10
563.9227715541725
 20
110.7422955681008
 30
0.0
 40
19.0
  0
ARC
  5
2221
330
2
100
AcDbEntity
  8
0
100
AcDbCircle
 10
563.9227715541734
 20
234.7422955680996
 30
0.0
 40
160.0
100
AcDbArc
 50
264.0709145121234
 51
275.9290854878765
  0
ARC
  5
2222
330
2
100
AcDbEntity
  8
0
100
AcDbCircle
 10
563.9227715541743
 20
-13.25770443190032
 30
0.0
 40
160.0
100
AcDbArc
 50
84.07091451212343
 51
95.92908548787658
  0
LINE
  5
2227
330
2
100
AcDbEntity
  8
0
100
AcDbLine
 10
114.5982170539215
 20
83.24229556810593
 30
0.0
 11
125.0982170539224
 21
83.24229556810639
 31
0.0
  0
LINE
  5
2228
330
2
100
AcDbEntity
  8
0
100
AcDbLine
 10
113.5982170539215
 20
101.4686770726062
 30
0.0
 11
128.0982170539224
 21
101.4686770726062
 31
0.0
  0
LINE
  5
2229
330
2
100
AcDbEntity
  8
0
100
AcDbLine
 10
125.0982170539224
 20
88.24229556810184
 30
0.0
 11
116.5982170539215
 21
88.24229556810184
 31
0.0
  0
LINE
  5
222A
330
2
100
AcDbEntity
  8
0
100
AcDbLine
 10
113.5982170539206
 20
120.0159140635972
 30
0.0
 11
128.0982170539224
 21
120.0159140635979
 31
0.0
  0
LINE
  5
222B
330
2
100
AcDbEntity
  8
0
100
AcDbLine
 10
114.5982170539215
 20
138.2422955680979
 30
0.0
 11
125.0982170539224
 21
138.2422955680975
 31
0.0
  0
LINE
  5
222C
330
2
100
AcDbEntity
  8
0
100
AcDbLine
 10
125.0982170539224
 20
133.2422955681018
 30
0.0
 11
116.5982170539151
 21
133.2422955681018
 31
0.0
  0
LINE
  5
222D
330
2
100
AcDbEntity
  8
0
100
AcDbLine
 10
113.5982170539151
 20
137.2422955680984
 30
0.0
 11
113.5982170539215
 21
84.24229556810592
 31
0.0
  0
LINE
  5
222E
330
2
100
AcDbEntity
  8
0
100
AcDbLine
 10
104.098217053926
 20
76.24229556810184
 30
0.0
 11
104.0982170539278
 21
145.2422955681018
 31
0.0
  0
ARC
  5
2230
330
2
100
AcDbEntity
  8
0
100
AcDbCircle
 10
114.5982170539215
 20
80.24229556810594
 30
0.0
 40
3.0
100
AcDbArc
 50
90.0
 51
126.8698976458212
  0
ARC
  5
2231
330
2
100
AcDbEntity
  8
0
100
AcDbCircle
 10
107.0982170539269
 20
79.24229556810548
 30
0.0
 40
3.0
100
AcDbArc
 50
90.0
 51
180.0
  0
ARC
  5
2232
330
2
100
AcDbEntity
  8
0
100
AcDbCircle
 10
111.5982170539215
 20
84.24229556810571
 30
0.0
 40
2.0
100
AcDbArc
 50
270.0
 51
0.0
  0
LINE
  5
2233
330
2
100
AcDbEntity
  8
0
100
AcDbLine
 10
92.09821705392608
 20
74.24229556810184
 30
0.0
 11
102.098217053926
 21
74.24229556810184
 31
0.0
  0
LINE
  5
2234
330
2
100
AcDbEntity
  8
0
100
AcDbLine
 10
92.09821705392608
 20
74.74229556810183
 30
0.0
 11
102.098217053926
 21
74.74229556810183
 31
0.0
  0
ARC
  5
2235
330
2
100
AcDbEntity
  8
0
100
AcDbCircle
 10
102.098217053926
 20
76.24229556810184
 30
0.0
 40
2.0
100
AcDbArc
 50
270.0
 51
0.0
  0
LINE
  5
2236
330
2
100
AcDbEntity
  8
0
100
AcDbLine
 10
107.098217053926
 20
82.24229556810547
 30
0.0
 11
111.5982170539215
 21
82.2422955681057
 31
0.0
  0
ARC
  5
2237
330
2
100
AcDbEntity
  8
0
100
AcDbCircle
 10
102.098217053926
 20
76.74229556810184
 30
0.0
 40
2.0
100
AcDbArc
 50
270.0
 51
0.0
  0
ARC
  5
2238
330
2
100
AcDbEntity
  8
0
100
AcDbCircle
 10
116.5982170539215
 20
85.24229556810183
 30
0.0
 40
3.0
100
AcDbArc
 50
90.0
 51
180.0
  0
ARC
  5
2239
330
2
100
AcDbEntity
  8
0
100
AcDbCircle
 10
116.5982170539151
 20
136.2422955681018
 30
0.0
 40
3.0
100
AcDbArc
 50
180.0
 51
270.0
  0
LINE
  5
223A
330
2
100
AcDbEntity
  8
0
100
AcDbLine
 10
102.098217053926
 20
147.2422955681018
 30
0.0
 11
92.09821705392608
 21
147.2422955681018
 31
0.0
  0
LINE
  5
223B
330
2
100
AcDbEntity
  8
0
100
AcDbLine
 10
102.098217053926
 20
146.7422955681018
 30
0.0
 11
92.09821705392608
 21
146.7422955681018
 31
0.0
  0
ARC
  5
223C
330
2
100
AcDbEntity
  8
0
100
AcDbCircle
 10
102.098217053926
 20
145.2422955681018
 30
0.0
 40
2.0
100
AcDbArc
 50
0.0
 51
90.0
  0
ARC
  5
223D
330
2
100
AcDbEntity
  8
0
100
AcDbCircle
 10
102.098217053926
 20
144.7422955681018
 30
0.0
 40
2.0
100
AcDbArc
 50
0.0
 51
90.0
  0
ARC
  5
223E
330
2
100
AcDbEntity
  8
0
100
AcDbCircle
 10
114.5982170539215
 20
141.2422955680979
 30
0.0
 40
3.0
100
AcDbArc
 50
233.1301023541299
 51
270.0
  0
ARC
  5
223F
330
2
100
AcDbEntity
  8
0
100
AcDbCircle
 10
111.5982170539215
 20
137.2422955680981
 30
0.0
 40
2.0
100
AcDbArc
 50
0.0
 51
90.0
  0
LINE
  5
2240
330
2
100
AcDbEntity
  8
0
100
AcDbLine
 10
107.098217053926
 20
139.2422955680981
 30
0.0
 11
111.5982170539215
 21
139.2422955680981
 31
0.0
  0
ARC
  5
2241
330
2
100
AcDbEntity
  8
0
100
AcDbCircle
 10
107.0982170539269
 20
142.2422955680984
 30
0.0
 40
3.0
100
AcDbArc
 50
180.0
 51
270.0
  0
LINE
  5
2242
330
2
100
AcDbEntity
  8
CENTER
100
AcDbLine
 10
164.0982170539224
 20
64.7422955681011
 30
0.0
 11
164.0982170539219
 21
156.7422955681013
 31
0.0
  0
LINE
  5
2243
330
2
100
AcDbEntity
  8
CENTER
100
AcDbLine
 10
124.6129356796708
 20
150.2275769423521
 30
0.0
 11
203.5834984281494
 21
71.25701419387599
 31
0.0
  0
LINE
  5
2244
330
2
100
AcDbEntity
  8
CENTER
100
AcDbLine
 10
203.5834984281736
 20
150.2275769423523
 30
0.0
 11
124.6129356796963
 21
71.25701419387559
 31
0.0
  0
ARC
  5
2245
330
2
100
AcDbEntity
  8
0
100
AcDbCircle
 10
229.0818134988291
 20
130.3688152480863
 30
0.0
 40
30.0
100
AcDbArc
 50
166.1581756815797
 51
185.9290854878502
  0
LINE
  5
2246
330
2
100
AcDbEntity
  8
CENTER
100
AcDbLine
 10
195.0982170539206
 20
148.9922955681025
 30
0.0
 11
195.0982170539215
 21
134.4922955681022
 31
0.0
  0
LINE
  5
2247
330
2
100
AcDbEntity
  8
0
100
AcDbLine
 10
135.06268314799
 20
131.2042363452272
 30
0.0
 11
143.6362762767972
 21
139.7778294740347
 31
0.0
  0
CIRCLE
  5
2248
330
2
100
AcDbEntity
  8
0
100
AcDbCircle
 10
132.5982170539224
 20
135.2422955681009
 30
0.0
 40
1.6
  0
CIRCLE
  5
2249
330
2
100
AcDbEntity
  8
HOJO
100
AcDbCircle
 10
132.5982170539224
 20
135.2422955681009
 30
0.0
 40
2.0
  0
LINE
  5
224A
330
2
100
AcDbEntity
  8
CENTER
100
AcDbLine
 10
132.5982170539215
 20
140.4155006488579
 30
0.0
 11
132.5982170539224
 21
130.0690904873438
 31
0.0
  0
LINE
  5
224B
330
2
100
AcDbEntity
  8
CENTER
100
AcDbLine
 10
133.0982170539242
 20
148.9922955681022
 30
0.0
 11
133.0982170539233
 21
134.4922955681018
 31
0.0
  0
LINE
  5
224C
330
2
100
AcDbEntity
  8
0
100
AcDbLine
 10
133.6484695856166
 20
132.6184499076003
 30
0.0
 11
142.2220627144248
 21
141.1920430364078
 31
0.0
  0
LINE
  5
224D
330
2
100
AcDbEntity
  8
0
100
AcDbLine
 10
194.5479645222291
 20
132.6184499076003
 30
0.0
 11
185.9743713934209
 21
141.192043036408
 31
0.0
  0
LINE
  5
224E
330
2
100
AcDbEntity
  8
0
100
AcDbLine
 10
193.1337509598557
 20
131.2042363452274
 30
0.0
 11
184.5601578310485
 21
139.7778294740347
 31
0.0
  0
LINE
  5
224F
330
2
100
AcDbEntity
  8
0
100
AcDbLine
 10
128.4682170539241
 20
79.74229556810183
 30
0.0
 11
128.4682170539223
 21
141.7422955681018
 31
0.0
  0
LINE
  5
2250
330
2
100
AcDbEntity
  8
0
100
AcDbLine
 10
128.0982170539224
 20
79.74229556812685
 30
0.0
 11
128.0982170539151
 21
141.7422955681257
 31
0.0
  0
CIRCLE
  5
2251
330
2
100
AcDbEntity
  8
0
100
AcDbCircle
 10
195.0982170539224
 20
79.74229556810207
 30
0.0
 40
3.730384757729268
  0
CIRCLE
  5
2252
330
2
100
AcDbEntity
  8
0
100
AcDbCircle
 10
195.0982170539224
 20
79.74229556810207
 30
0.0
 40
4.250000000000085
  0
LINE
  5
2253
330
2
100
AcDbEntity
  8
CENTER
100
AcDbLine
 10
200.7714221346801
 20
86.24229556810229
 30
0.0
 11
190.4250119731656
 21
86.24229556810229
 31
0.0
  0
LINE
  5
2254
330
2
100
AcDbEntity
  8
CENTER
100
AcDbLine
 10
202.3482170539224
 20
79.74229556810207
 30
0.0
 11
187.8482170539224
 21
79.74229556810207
 31
0.0
  0
LINE
  5
2255
330
2
100
AcDbEntity
  8
0
100
AcDbLine
 10
194.5479645222291
 20
88.86614122860356
 30
0.0
 11
185.9743713934209
 21
80.29254809979608
 31
0.0
  0
LINE
  5
2256
330
2
100
AcDbEntity
  8
0
100
AcDbLine
 10
192.0982170539224
 20
74.74229556810456
 30
0.0
 11
195.0982170539224
 21
74.74229556810456
 31
0.0
  0
LINE
  5
2257
330
2
100
AcDbEntity
  8
0
100
AcDbLine
 10
193.1337509598557
 20
90.28035479097667
 30
0.0
 11
184.5601578310485
 21
81.70676166216919
 31
0.0
  0
LINE
  5
2258
330
2
100
AcDbEntity
  8
0
100
AcDbLine
 10
131.5982170539224
 20
127.6687024392945
 30
0.0
 11
131.5982170539224
 21
93.81588869690956
 31
0.0
  0
LINE
  5
2259
330
2
100
AcDbEntity
  8
0
100
AcDbLine
 10
133.5982170539224
 20
127.6687024392945
 30
0.0
 11
133.5982170539224
 21
93.81588869690956
 31
0.0
  0
CIRCLE
  5
225A
330
2
100
AcDbEntity
  8
0
100
AcDbCircle
 10
164.0982170539224
 20
110.742295568102
 30
0.0
 40
19.0
  0
CIRCLE
  5
225B
330
2
100
AcDbEntity
  8
0
100
AcDbCircle
 10
164.0982170539224
 20
110.742295568102
 30
0.0
 40
19.5774
  0
CIRCLE
  5
225C
330
2
100
AcDbEntity
  8
0
100
AcDbCircle
 10
164.0982170539224
 20
110.742295568102
 30
0.0
 40
23.0
  0
CIRCLE
  5
225D
330
2
100
AcDbEntity
  8
0
100
AcDbCircle
 10
164.0982170539224
 20
110.742295568102
 30
0.0
 40
22.42259999999999
  0
CIRCLE
  5
225E
330
2
100
AcDbEntity
  8
0
100
AcDbCircle
 10
164.0982170539224
 20
110.742295568102
 30
0.0
 40
25.0
  0
CIRCLE
  5
225F
330
2
100
AcDbEntity
  8
0
100
AcDbCircle
 10
164.0982170539224
 20
110.742295568102
 30
0.0
 40
25.5
  0
LINE
  5
2260
330
2
100
AcDbEntity
  8
0
100
AcDbLine
 10
147.1718101827297
 20
78.24229556810184
 30
0.0
 11
181.0246239251151
 21
78.24229556810161
 31
0.0
  0
LINE
  5
2261
330
2
100
AcDbEntity
  8
0
100
AcDbLine
 10
147.1718101827297
 20
80.24229556810183
 30
0.0
 11
181.0246239251151
 21
80.24229556810183
 31
0.0
  0
ARC
  5
2262
330
2
100
AcDbEntity
  8
0
100
AcDbCircle
 10
164.0982170539188
 20
234.7422955681011
 30
0.0
 40
160.0
100
AcDbArc
 50
264.0709145121234
 51
275.9290854878765
  0
ARC
  5
2263
330
2
100
AcDbEntity
  8
0
100
AcDbCircle
 10
133.4682170539241
 20
79.74229556810207
 30
0.0
 40
5.0
100
AcDbArc
 50
180.0
 51
270.0
  0
LINE
  5
2264
330
2
100
AcDbEntity
  8
CENTER
100
AcDbLine
 10
125.8482170539224
 20
79.74229556810115
 30
0.0
 11
140.3482170539233
 21
79.74229556810161
 31
0.0
  0
ARC
  5
2265
330
2
100
AcDbEntity
  8
0
100
AcDbCircle
 10
125.0982170539224
 20
80.24229556810638
 30
0.0
 40
3.0
100
AcDbArc
 50
0.0
 51
90.0
  0
ARC
  5
2266
330
2
100
AcDbEntity
  8
0
100
AcDbCircle
 10
125.0982170539224
 20
85.24229556810183
 30
0.0
 40
3.0
100
AcDbArc
 50
0.0
 51
90.0
  0
ARC
  5
2267
330
2
100
AcDbEntity
  8
0
100
AcDbCircle
 10
133.0982170539224
 20
79.74229556812685
 30
0.0
 40
5.0
100
AcDbArc
 50
180.0
 51
270.0
  0
CIRCLE
  5
2268
330
2
100
AcDbEntity
  8
0
100
AcDbCircle
 10
133.0982170539224
 20
79.74229556810207
 30
0.0
 40
3.730384757729268
  0
CIRCLE
  5
2269
330
2
100
AcDbEntity
  8
0
100
AcDbCircle
 10
133.0982170539224
 20
79.74229556810207
 30
0.0
 40
4.250000000000085
  0
LINE
  5
226A
330
2
100
AcDbEntity
  8
CENTER
100
AcDbLine
 10
133.0982170539233
 20
72.49229556810161
 30
0.0
 11
133.0982170539233
 21
86.99229556810184
 31
0.0
  0
LINE
  5
226B
330
2
100
AcDbEntity
  8
0
100
AcDbLine
 10
135.06268314799
 20
90.28035479097667
 30
0.0
 11
143.6362762767972
 21
81.70676166216919
 31
0.0
  0
LINE
  5
226C
330
2
100
AcDbEntity
  8
0
100
AcDbLine
 10
133.6484695856166
 20
88.86614122860356
 30
0.0
 11
142.2220627144248
 21
80.29254809979608
 31
0.0
  0
LINE
  5
226D
330
2
100
AcDbEntity
  8
0
100
AcDbLine
 10
131.0982170539224
 20
80.89699610648137
 30
0.0
 11
131.0982170539224
 21
78.58759502972299
 31
0.0
  0
LINE
  5
226E
330
2
100
AcDbEntity
  8
0
100
AcDbLine
 10
133.0982170539224
 20
82.05169664486067
 30
0.0
 11
135.0982170539224
 21
80.89699610648137
 31
0.0
  0
LINE
  5
226F
330
2
100
AcDbEntity
  8
0
100
AcDbLine
 10
135.0982170539224
 20
78.58759502972276
 30
0.0
 11
133.0982170539224
 21
77.43289449134369
 31
0.0
  0
LINE
  5
2270
330
2
100
AcDbEntity
  8
0
100
AcDbLine
 10
135.0982170539224
 20
80.89699610648137
 30
0.0
 11
135.0982170539224
 21
78.58759502972276
 31
0.0
  0
LINE
  5
2271
330
2
100
AcDbEntity
  8
0
100
AcDbLine
 10
133.0982170539224
 20
82.05169664486044
 30
0.0
 11
131.0982170539224
 21
80.89699610648137
 31
0.0
  0
LINE
  5
2272
330
2
100
AcDbEntity
  8
0
100
AcDbLine
 10
131.0982170539224
 20
78.58759502972299
 30
0.0
 11
133.0982170539224
 21
77.43289449134369
 31
0.0
  0
LINE
  5
2273
330
2
100
AcDbEntity
  8
0
100
AcDbLine
 10
145.2583930209044
 20
80.62289790554524
 30
0.0
 11
144.4930261561745
 21
78.77513884052252
 31
0.0
  0
ARC
  5
2274
330
2
100
AcDbEntity
  8
0
100
AcDbCircle
 10
147.1718101827297
 20
85.24229556810183
 30
0.0
 40
5.0
100
AcDbArc
 50
224.9999999999792
 51
270.0
  0
ARC
  5
2275
330
2
100
AcDbEntity
  8
0
100
AcDbCircle
 10
147.1718101827297
 20
85.24229556810183
 30
0.0
 40
7.0
100
AcDbArc
 50
224.9999999999792
 51
270.0
  0
LINE
  5
2276
330
2
100
AcDbEntity
  8
0
100
AcDbLine
 10
136.0982170539233
 20
74.74229556810207
 30
0.0
 11
133.4682170539241
 21
74.74229556810207
 31
0.0
  0
ARC
  5
2277
330
2
100
AcDbEntity
  8
0
100
AcDbCircle
 10
136.0982170539224
 20
79.74229556810456
 30
0.0
 40
5.0
100
AcDbArc
 50
270.0
 51
283.841824318421
  0
LINE
  5
2278
330
2
100
AcDbEntity
  8
0
100
AcDbLine
 10
136.0982170539224
 20
74.74229556810456
 30
0.0
 11
133.0982170539224
 21
74.74229556810456
 31
0.0
  0
ARC
  5
2279
330
2
100
AcDbEntity
  8
0
100
AcDbCircle
 10
144.471697373941
 20
45.75869912319814
 30
0.0
 40
30.0
100
AcDbArc
 50
84.07091451212343
 51
103.841824318421
  0
LINE
  5
227A
330
2
100
AcDbEntity
  8
0
100
AcDbLine
 10
133.978819391366
 20
91.90247153508385
 30
0.0
 11
132.1310603263433
 21
91.1371046703535
 31
0.0
  0
ARC
  5
227B
330
2
100
AcDbEntity
  8
0
100
AcDbCircle
 10
138.5982170539224
 20
93.81588869690956
 30
0.0
 40
5.0
100
AcDbArc
 50
180.0
 51
224.9999999999792
  0
ARC
  5
227C
330
2
100
AcDbEntity
  8
0
100
AcDbCircle
 10
138.5982170539224
 20
93.81588869690956
 30
0.0
 40
7.0
100
AcDbArc
 50
180.0
 51
224.9999999999792
  0
LINE
  5
227D
330
2
100
AcDbEntity
  8
0
100
AcDbLine
 10
182.9380410869413
 20
80.62289790554524
 30
0.0
 11
183.7034079516712
 21
78.77513884052274
 31
0.0
  0
ARC
  5
227E
330
2
100
AcDbEntity
  8
0
100
AcDbCircle
 10
181.0246239251151
 20
85.24229556810183
 30
0.0
 40
7.0
100
AcDbArc
 50
270.0
 51
315.0000000000206
  0
ARC
  5
227F
330
2
100
AcDbEntity
  8
0
100
AcDbCircle
 10
181.0246239251151
 20
85.24229556810183
 30
0.0
 40
5.0
100
AcDbArc
 50
270.0
 51
315.0000000000206
  0
ARC
  5
2280
330
2
100
AcDbEntity
  8
0
100
AcDbCircle
 10
183.7247367339046
 20
45.75869912319814
 30
0.0
 40
30.0
100
AcDbArc
 50
76.15817568157897
 51
95.92908548787658
  0
ARC
  5
2281
330
2
100
AcDbEntity
  8
0
100
AcDbCircle
 10
192.0982170539224
 20
79.74229556810456
 30
0.0
 40
5.0
100
AcDbArc
 50
256.1581756815789
 51
270.0
  0
LINE
  5
2282
330
2
100
AcDbEntity
  8
0
100
AcDbLine
 10
127.5982170539224
 20
101.4686770726062
 30
0.0
 11
127.5982170539224
 21
120.0159140635979
 31
0.0
  0
LINE
  5
2283
330
2
100
AcDbEntity
  8
CENTER
100
AcDbLine
 10
127.4250119731647
 20
135.2422955681007
 30
0.0
 11
137.7714221346792
 21
135.2422955681011
 31
0.0
  0
ARC
  5
2284
330
2
100
AcDbEntity
  8
0
100
AcDbCircle
 10
125.0982170539224
 20
136.2422955681018
 30
0.0
 40
3.0
100
AcDbArc
 50
270.0
 51
0.0
  0
LINE
  5
2285
330
2
100
AcDbEntity
  8
0
100
AcDbLine
 10
133.978819391366
 20
129.5821196011198
 30
0.0
 11
132.1310603263433
 21
130.3474864658499
 31
0.0
  0
ARC
  5
2286
330
2
100
AcDbEntity
  8
0
100
AcDbCircle
 10
138.5982170539224
 20
127.6687024392945
 30
0.0
 40
7.0
100
AcDbArc
 50
135.0000000000207
 51
180.0
  0
ARC
  5
2287
330
2
100
AcDbEntity
  8
0
100
AcDbCircle
 10
138.5982170539224
 20
127.6687024392945
 30
0.0
 40
5.0
100
AcDbArc
 50
135.0000000000207
 51
180.0
  0
LINE
  5
2288
330
2
100
AcDbEntity
  8
0
100
AcDbLine
 10
196.5982170539233
 20
93.81588869690956
 30
0.0
 11
196.5982170539233
 21
127.6687024392945
 31
0.0
  0
LINE
  5
2289
330
2
100
AcDbEntity
  8
0
100
AcDbLine
 10
194.5982170539233
 20
93.81588869690956
 30
0.0
 11
194.5982170539233
 21
127.6687024392945
 31
0.0
  0
ARC
  5
228A
330
2
100
AcDbEntity
  8
0
100
AcDbCircle
 10
40.09821705392243
 20
110.7422955681047
 30
0.0
 40
160.0
100
AcDbArc
 50
354.0709145121496
 51
5.92908548785031
  0
LINE
  5
228B
330
2
100
AcDbEntity
  8
0
100
AcDbLine
 10
195.0982170539224
 20
82.05169664486067
 30
0.0
 11
193.0982170539224
 21
80.89699610648137
 31
0.0
  0
LINE
  5
228C
330
2
100
AcDbEntity
  8
0
100
AcDbLine
 10
193.0982170539224
 20
78.58759502972276
 30
0.0
 11
195.0982170539224
 21
77.43289449134369
 31
0.0
  0
ARC
  5
228D
330
2
100
AcDbEntity
  8
0
100
AcDbCircle
 10
189.5982170539224
 20
93.81588869690956
 30
0.0
 40
5.0
100
AcDbArc
 50
315.0000000000206
 51
0.0
  0
CIRCLE
  5
228E
330
2
100
AcDbEntity
  8
HOJO
100
AcDbCircle
 10
195.5982170539224
 20
86.24229556810229
 30
0.0
 40
2.0
  0
LINE
  5
228F
330
2
100
AcDbEntity
  8
0
100
AcDbLine
 10
193.0982170539224
 20
80.89699610648137
 30
0.0
 11
193.0982170539224
 21
78.58759502972276
 31
0.0
  0
ARC
  5
2290
330
2
100
AcDbEntity
  8
0
100
AcDbCircle
 10
195.0982170539224
 20
79.74229556812616
 30
0.0
 40
5.0
100
AcDbArc
 50
270.0
 51
0.0
  0
LINE
  5
2291
330
2
100
AcDbEntity
  8
CENTER
100
AcDbLine
 10
195.5982170539224
 20
81.06909048734525
 30
0.0
 11
195.5982170539224
 21
91.41550064885933
 31
0.0
  0
LINE
  5
2292
330
2
100
AcDbEntity
  8
CENTER
100
AcDbLine
 10
195.0982170539224
 20
72.49229556810184
 30
0.0
 11
195.0982170539224
 21
86.99229556810207
 31
0.0
  0
LINE
  5
2293
330
2
100
AcDbEntity
  8
0
100
AcDbLine
 10
197.0982170539224
 20
80.89699610648137
 30
0.0
 11
197.0982170539224
 21
78.58759502972299
 31
0.0
  0
LINE
  5
2294
330
2
100
AcDbEntity
  8
0
100
AcDbLine
 10
195.0982170539224
 20
82.05169664486044
 30
0.0
 11
197.0982170539224
 21
80.89699610648137
 31
0.0
  0
LINE
  5
2295
330
2
100
AcDbEntity
  8
0
100
AcDbLine
 10
197.0982170539224
 20
78.58759502972299
 30
0.0
 11
195.0982170539224
 21
77.43289449134369
 31
0.0
  0
LINE
  5
2296
330
2
100
AcDbEntity
  8
0
100
AcDbLine
 10
194.2176147164797
 20
91.90247153508408
 30
0.0
 11
196.0653737815024
 21
91.13710467035394
 31
0.0
  0
ARC
  5
2297
330
2
100
AcDbEntity
  8
0
100
AcDbCircle
 10
189.5982170539224
 20
93.81588869690956
 30
0.0
 40
7.0
100
AcDbArc
 50
315.0000000000206
 51
0.0
  0
CIRCLE
  5
2298
330
2
100
AcDbEntity
  8
0
100
AcDbCircle
 10
195.5982170539224
 20
86.24229556810229
 30
0.0
 40
1.6
  0
ARC
  5
2299
330
2
100
AcDbEntity
  8
0
100
AcDbCircle
 10
195.0982170539224
 20
82.74229556810457
 30
0.0
 40
5.0
100
AcDbArc
 50
0.0
 51
13.84182431842025
  0
LINE
  5
229A
330
2
100
AcDbEntity
  8
0
100
AcDbLine
 10
200.0982170539224
 20
82.74229556810457
 30
0.0
 11
200.0982170539224
 21
79.74229556812616
 31
0.0
  0
ARC
  5
229B
330
2
100
AcDbEntity
  8
0
100
AcDbCircle
 10
229.0818134988291
 20
91.11577588812275
 30
0.0
 40
30.0
100
AcDbArc
 50
174.0709145121497
 51
193.8418243184202
  0
ARC
  5
229C
330
2
100
AcDbEntity
  8
0
100
AcDbCircle
 10
189.5982170539224
 20
127.6687024392945
 30
0.0
 40
5.0
100
AcDbArc
 50
0.0
 51
44.99999999997927
  0
LINE
  5
229D
330
2
100
AcDbEntity
  8
0
100
AcDbLine
 10
194.2176147164797
 20
129.58211960112
 30
0.0
 11
196.0653737815024
 21
130.3474864658501
 31
0.0
  0
ARC
  5
229E
330
2
100
AcDbEntity
  8
0
100
AcDbCircle
 10
189.5982170539224
 20
127.6687024392945
 30
0.0
 40
7.0
100
AcDbArc
 50
0.0
 51
44.99999999997927
  0
CIRCLE
  5
229F
330
2
100
AcDbEntity
  8
0
100
AcDbCircle
 10
195.0982170539215
 20
141.7422955681004
 30
0.0
 40
3.730384757729268
  0
CIRCLE
  5
22A0
330
2
100
AcDbEntity
  8
0
100
AcDbCircle
 10
195.0982170539215
 20
141.7422955681004
 30
0.0
 40
4.250000000000085
  0
LINE
  5
22A1
330
2
100
AcDbEntity
  8
CENTER
100
AcDbLine
 10
202.3482170539215
 20
141.7422955681027
 30
0.0
 11
187.8482170539215
 21
141.742295568102
 31
0.0
  0
LINE
  5
22A2
330
2
100
AcDbEntity
  8
0
100
AcDbLine
 10
192.0982170539224
 20
146.7422955681047
 30
0.0
 11
195.0982170539224
 21
146.7422955681047
 31
0.0
  0
LINE
  5
22A3
330
2
100
AcDbEntity
  8
0
100
AcDbLine
 10
147.1718101827297
 20
141.242295568102
 30
0.0
 11
181.0246239251151
 21
141.242295568102
 31
0.0
  0
LINE
  5
22A4
330
2
100
AcDbEntity
  8
0
100
AcDbLine
 10
147.1718101827297
 20
143.242295568102
 30
0.0
 11
181.0246239251151
 21
143.2422955681022
 31
0.0
  0
ARC
  5
22A5
330
2
100
AcDbEntity
  8
0
100
AcDbCircle
 10
164.0982170539197
 20
-13.25770443189861
 30
0.0
 40
160.0
100
AcDbArc
 50
84.07091451212343
 51
95.92908548787658
  0
ARC
  5
22A6
330
2
100
AcDbEntity
  8
0
100
AcDbCircle
 10
133.4682170539223
 20
141.742295568102
 30
0.0
 40
5.0
100
AcDbArc
 50
90.0
 51
180.0
  0
LINE
  5
22A7
330
2
100
AcDbEntity
  8
CENTER
100
AcDbLine
 10
125.8482170539233
 20
141.7422955681032
 30
0.0
 11
140.3482170539242
 21
141.7422955681025
 31
0.0
  0
ARC
  5
22A8
330
2
100
AcDbEntity
  8
0
100
AcDbCircle
 10
133.0982170539224
 20
141.7422955681263
 30
0.0
 40
5.0
100
AcDbArc
 50
90.0
 51
180.0
  0
LINE
  5
22A9
330
2
100
AcDbEntity
  8
0
100
AcDbLine
 10
133.0982170539242
 20
144.051696644859
 30
0.0
 11
135.0982170539242
 21
142.8969961064797
 31
0.0
  0
LINE
  5
22AA
330
2
100
AcDbEntity
  8
0
100
AcDbLine
 10
133.0982170539242
 20
144.0516966448588
 30
0.0
 11
131.0982170539242
 21
142.8969961064797
 31
0.0
  0
ARC
  5
22AB
330
2
100
AcDbEntity
  8
0
100
AcDbCircle
 10
147.1718101827297
 20
136.2422955681023
 30
0.0
 40
7.0
100
AcDbArc
 50
90.0
 51
135.0000000000207
  0
LINE
  5
22AC
330
2
100
AcDbEntity
  8
0
100
AcDbLine
 10
136.0982170539233
 20
146.742295568102
 30
0.0
 11
133.4682170539223
 21
146.742295568102
 31
0.0
  0
ARC
  5
22AD
330
2
100
AcDbEntity
  8
0
100
AcDbCircle
 10
136.0982170539224
 20
141.7422955681048
 30
0.0
 40
5.0
100
AcDbArc
 50
76.15817568157897
 51
90.0
  0
LINE
  5
22AE
330
2
100
AcDbEntity
  8
0
100
AcDbLine
 10
136.0982170539224
 20
146.7422955681047
 30
0.0
 11
133.0982170539224
 21
146.7422955681047
 31
0.0
  0
ARC
  5
22AF
330
2
100
AcDbEntity
  8
0
100
AcDbCircle
 10
144.471697373941
 20
175.7258920130112
 30
0.0
 40
30.0
100
AcDbArc
 50
256.1581756815789
 51
275.9290854878765
  0
LINE
  5
22B0
330
2
100
AcDbEntity
  8
0
100
AcDbLine
 10
135.0982170539242
 20
140.5875950297211
 30
0.0
 11
133.0982170539242
 21
139.4328944913421
 31
0.0
  0
LINE
  5
22B1
330
2
100
AcDbEntity
  8
0
100
AcDbLine
 10
131.0982170539242
 20
140.5875950297214
 30
0.0
 11
133.0982170539242
 21
139.4328944913421
 31
0.0
  0
ARC
  5
22B2
330
2
100
AcDbEntity
  8
0
100
AcDbCircle
 10
125.0982170539224
 20
141.2422955680975
 30
0.0
 40
3.0
100
AcDbArc
 50
270.0
 51
0.0
  0
LINE
  5
22B3
330
2
100
AcDbEntity
  8
0
100
AcDbLine
 10
131.0982170539242
 20
142.8969961064797
 30
0.0
 11
131.0982170539242
 21
140.5875950297214
 31
0.0
  0
LINE
  5
22B4
330
2
100
AcDbEntity
  8
0
100
AcDbLine
 10
135.0982170539242
 20
142.8969961064797
 30
0.0
 11
135.0982170539242
 21
140.5875950297211
 31
0.0
  0
CIRCLE
  5
22B5
330
2
100
AcDbEntity
  8
0
100
AcDbCircle
 10
133.0982170539242
 20
141.7422955681004
 30
0.0
 40
3.730384757729268
  0
CIRCLE
  5
22B6
330
2
100
AcDbEntity
  8
0
100
AcDbCircle
 10
133.0982170539242
 20
141.7422955681004
 30
0.0
 40
4.250000000000085
  0
LINE
  5
22B7
330
2
100
AcDbEntity
  8
0
100
AcDbLine
 10
145.2583930209044
 20
140.8616932306584
 30
0.0
 11
144.4930261561745
 21
142.7094522956809
 31
0.0
  0
ARC
  5
22B8
330
2
100
AcDbEntity
  8
0
100
AcDbCircle
 10
147.1718101827297
 20
136.2422955681023
 30
0.0
 40
5.0
100
AcDbArc
 50
90.0
 51
135.0000000000207
  0
ARC
  5
22B9
330
2
100
AcDbEntity
  8
0
100
AcDbCircle
 10
181.0246239251151
 20
136.2422955681023
 30
0.0
 40
7.0
100
AcDbArc
 50
44.99999999997927
 51
90.0
  0
ARC
  5
22BA
330
2
100
AcDbEntity
  8
0
100
AcDbCircle
 10
192.0982170539224
 20
141.7422955681048
 30
0.0
 40
5.0
100
AcDbArc
 50
90.0
 51
103.841824318421
  0
ARC
  5
22BB
330
2
100
AcDbEntity
  8
0
100
AcDbCircle
 10
183.7247367339046
 20
175.7258920130112
 30
0.0
 40
30.0
100
AcDbArc
 50
264.0709145121234
 51
283.841824318421
  0
LINE
  5
22BC
330
2
100
AcDbEntity
  8
0
100
AcDbLine
 10
182.9380410869413
 20
140.8616932306586
 30
0.0
 11
183.7034079516712
 21
142.7094522956811
 31
0.0
  0
ARC
  5
22BD
330
2
100
AcDbEntity
  8
0
100
AcDbCircle
 10
181.0246239251151
 20
136.2422955681023
 30
0.0
 40
5.0
100
AcDbArc
 50
44.99999999997927
 51
90.0
  0
LINE
  5
22BE
330
2
100
AcDbEntity
  8
0
100
AcDbLine
 10
195.0982170539206
 20
144.051696644859
 30
0.0
 11
193.0982170539215
 21
142.8969961064797
 31
0.0
  0
ARC
  5
22BF
330
2
100
AcDbEntity
  8
0
100
AcDbCircle
 10
195.0982170539224
 20
141.7422955681261
 30
0.0
 40
5.0
100
AcDbArc
 50
0.0
 51
90.0
  0
LINE
  5
22C0
330
2
100
AcDbEntity
  8
0
100
AcDbLine
 10
195.0982170539206
 20
144.0516966448588
 30
0.0
 11
197.0982170539215
 21
142.8969961064797
 31
0.0
  0
LINE
  5
22C1
330
2
100
AcDbEntity
  8
0
100
AcDbLine
 10
193.0982170539215
 20
140.5875950297211
 30
0.0
 11
195.0982170539206
 21
139.4328944913421
 31
0.0
  0
LINE
  5
22C2
330
2
100
AcDbEntity
  8
0
100
AcDbLine
 10
197.0982170539215
 20
140.5875950297214
 30
0.0
 11
195.0982170539215
 21
139.4328944913421
 31
0.0
  0
ARC
  5
22C3
330
2
100
AcDbEntity
  8
0
100
AcDbCircle
 10
195.0982170539224
 20
138.742295568105
 30
0.0
 40
5.0
100
AcDbArc
 50
346.1581756815797
 51
0.0
  0
LINE
  5
22C4
330
2
100
AcDbEntity
  8
0
100
AcDbLine
 10
193.0982170539215
 20
142.8969961064797
 30
0.0
 11
193.0982170539215
 21
140.5875950297211
 31
0.0
  0
LINE
  5
22C5
330
2
100
AcDbEntity
  8
0
100
AcDbLine
 10
197.0982170539215
 20
142.8969961064797
 30
0.0
 11
197.0982170539215
 21
140.5875950297214
 31
0.0
  0
LINE
  5
22C6
330
2
100
AcDbEntity
  8
0
100
AcDbLine
 10
200.0982170539224
 20
138.742295568105
 30
0.0
 11
200.0982170539224
 21
141.7422955681261
 31
0.0
  0
LINE
  5
22CB
330
2
100
AcDbEntity
  8
CENTER
100
AcDbLine
 10
259.9715760977312
 20
110.7422955681021
 30
0.0
 11
405.9715760980254
 21
110.742295568102
 31
0.0
  0
LINE
  5
22CC
330
2
100
AcDbEntity
  8
0
100
AcDbLine
 10
365.9715760980259
 20
103.2423527689875
 30
0.0
 11
395.4715760980255
 21
103.2423527689884
 31
0.0
  0
LINE
  5
22CE
330
2
100
AcDbEntity
  8
0
100
AcDbLine
 10
365.9715760980259
 20
118.2423527689873
 30
0.0
 11
395.4715760980259
 21
118.2423527689873
 31
0.0
  0
LINE
  5
22D0
330
2
100
AcDbEntity
  8
CENTER
100
AcDbLine
 10
307.971576098025
 20
64.24229556810383
 30
0.0
 11
307.971576098025
 21
157.2422955681003
 31
0.0
  0
ARC
  5
22D1
330
2
100
AcDbEntity
  8
0
100
AcDbCircle
 10
352.9715760980282
 20
137.1276431211002
 30
0.0
 40
2.0
100
AcDbArc
 50
180.0
 51
267.9999999999963
  0
LINE
  5
22D2
330
2
100
AcDbEntity
  8
0
100
AcDbLine
 10
271.9715760980209
 20
141.8112577827149
 30
0.0
 11
271.9715760980209
 21
133.7422955681029
 31
0.0
  0
LINE
  5
22D3
330
2
100
AcDbEntity
  8
0
100
AcDbLine
 10
278.4715760977253
 20
137.4922955680936
 30
0.0
 11
278.4715760977253
 21
83.99229556811048
 31
0.0
  0
LINE
  5
22D4
330
2
100
AcDbEntity
  8
0
100
AcDbLine
 10
280.4715760977253
 20
145.9922955680932
 30
0.0
 11
280.4715760977253
 21
75.49229556811048
 31
0.0
  0
LINE
  5
22D5
330
2
100
AcDbEntity
  8
0
100
AcDbLine
 10
286.9715760977299
 20
146.7379321341891
 30
0.0
 11
286.9715760977299
 21
74.746659002022
 31
0.0
  0
LINE
  5
22D6
330
2
100
AcDbEntity
  8
0
100
AcDbLine
 10
350.9715760980245
 20
80.74229556810548
 30
0.0
 11
350.9715760980245
 21
140.7422955681052
 31
0.0
  0
LINE
  5
22D7
330
2
100
AcDbEntity
  8
0
100
AcDbLine
 10
345.9715760980254
 20
75.25718076773461
 30
0.0
 11
345.9715760980263
 21
146.2274103684626
 31
0.0
  0
LINE
  5
22D8
330
2
100
AcDbEntity
  8
0
100
AcDbLine
 10
345.9715760980263
 20
127.2698910880984
 30
0.0
 11
286.9715760977299
 21
127.2698910880984
 31
0.0
  0
LINE
  5
22D9
330
2
100
AcDbEntity
  8
0
100
AcDbLine
 10
345.9715760980263
 20
94.21470004810572
 30
0.0
 11
286.9715760977299
 21
94.21470004810572
 31
0.0
  0
LINE
  5
22DA
330
2
100
AcDbEntity
  8
0
100
AcDbLine
 10
345.9715760980263
 20
79.74229556811048
 30
0.0
 11
286.9715760977299
 21
79.74229556811048
 31
0.0
  0
LINE
  5
22DB
330
2
100
AcDbEntity
  8
0
100
AcDbLine
 10
345.9715760980263
 20
82.74229556808865
 30
0.0
 11
286.9715760977299
 21
82.74229556808865
 31
0.0
  0
LINE
  5
22DC
330
2
100
AcDbEntity
  8
0
100
AcDbLine
 10
286.9715760977299
 20
74.74229556810207
 30
0.0
 11
345.9715760980254
 21
75.25718076773461
 31
0.0
  0
LINE
  5
22DD
330
2
100
AcDbEntity
  8
0
100
AcDbLine
 10
339.0410138454692
 20
74.67381553681736
 30
0.0
 11
307.9715760980227
 21
74.24229556810388
 31
0.0
  0
LINE
  5
22DE
330
2
100
AcDbEntity
  8
0
100
AcDbLine
 10
270.9715760977299
 20
133.7422955681029
 30
0.0
 11
270.9715760977307
 21
87.74229556810116
 31
0.0
  0
LINE
  5
22DF
330
2
100
AcDbEntity
  8
0
100
AcDbLine
 10
269.9715760977298
 20
133.1649452989138
 30
0.0
 11
269.9715760977317
 21
88.31964583729002
 31
0.0
  0
LINE
  5
22E0
330
2
100
AcDbEntity
  8
0
100
AcDbLine
 10
277.9715760977308
 20
130.6375518818243
 30
0.0
 11
277.9715760977308
 21
90.84703925437958
 31
0.0
  0
LINE
  5
22E1
330
2
100
AcDbEntity
  8
0
100
AcDbLine
 10
272.4715760977299
 20
87.94229556810142
 30
0.0
 11
272.4715760977808
 21
133.5422955681027
 31
0.0
  0
LINE
  5
22E2
330
2
100
AcDbEntity
  8
0
100
AcDbLine
 10
274.4715760977299
 20
87.94229556810165
 30
0.0
 11
274.4715760977299
 21
133.5422955681027
 31
0.0
  0
LINE
  5
22E3
330
2
100
AcDbEntity
  8
0
100
AcDbLine
 10
277.9715760977244
 20
135.7422955680966
 30
0.0
 11
277.9715760977298
 21
85.74229556810207
 31
0.0
  0
LINE
  5
22E4
330
2
100
AcDbEntity
  8
0
100
AcDbLine
 10
276.902138350568
 20
74.67381553681645
 30
0.0
 11
307.9715760980209
 21
74.24229556810388
 31
0.0
  0
LINE
  5
22E5
330
2
100
AcDbEntity
  8
HIDS
100
AcDbLine
 10
278.4715760977253
 20
83.99229556811048
 30
0.0
 11
278.4715760977253
 21
81.07072269284804
 31
0.0
  0
LINE
  5
22E6
330
2
100
AcDbEntity
  8
0
100
AcDbLine
 10
274.1715760977297
 20
83.47268032584002
 30
0.0
 11
274.1715760977297
 21
76.01191081038138
 31
0.0
  0
LINE
  5
22E7
330
2
100
AcDbEntity
  8
0
100
AcDbLine
 10
274.4715760977299
 20
83.99229556811048
 30
0.0
 11
274.4715760977299
 21
75.49229556811048
 31
0.0
  0
LINE
  5
22E8
330
2
100
AcDbEntity
  8
0
100
AcDbLine
 10
279.1715760977297
 20
83.99229556811048
 30
0.0
 11
279.1715760977297
 21
75.49229556811048
 31
0.0
  0
LINE
  5
22E9
330
2
100
AcDbEntity
  8
0
100
AcDbLine
 10
271.9715760980209
 20
87.74229556810139
 30
0.0
 11
271.9715760980209
 21
79.67333335348922
 31
0.0
  0
LINE
  5
22EA
330
2
100
AcDbEntity
  8
0
100
AcDbLine
 10
274.4715760977299
 20
75.49229556811048
 30
0.0
 11
274.1715760977297
 21
76.01191081038138
 31
0.0
  0
LINE
  5
22EB
330
2
100
AcDbEntity
  8
0
100
AcDbLine
 10
274.4715760977299
 20
75.49229556811048
 30
0.0
 11
280.4715760977253
 21
75.49229556811048
 31
0.0
  0
LINE
  5
22EC
330
2
100
AcDbEntity
  8
CENTER
  6
CENS
100
AcDbLine
 10
271.1715760977297
 20
79.74229556808456
 30
0.0
 11
290.7202775783264
 21
79.74229556808456
 31
0.0
  0
LINE
  5
22ED
330
2
100
AcDbEntity
  8
0
100
AcDbLine
 10
286.9715760977299
 20
82.74229556808865
 30
0.0
 11
281.4628495622266
 21
82.74229556808865
 31
0.0
  0
LINE
  5
22EE
330
2
100
AcDbEntity
  8
0
100
AcDbLine
 10
286.9715760977299
 20
79.74229556811048
 30
0.0
 11
281.4628495622266
 21
79.74229556808456
 31
0.0
  0
ARC
  5
22EF
330
2
100
AcDbEntity
  8
HIDS
100
AcDbCircle
 10
278.4715760977253
 20
77.41386844335562
 30
0.0
 40
2.0
100
AcDbArc
 50
0.0
 51
45.0000000000069
  0
ARC
  5
22F0
330
2
100
AcDbEntity
  8
HIDS
100
AcDbCircle
 10
280.4715760977253
 20
81.07072269284804
 30
0.0
 40
2.0
100
AcDbArc
 50
180.0
 51
225.0000000000069
  0
ARC
  5
22F1
330
2
100
AcDbEntity
  8
0
100
AcDbCircle
 10
281.4715760977253
 20
75.79033125318443
 30
0.0
 40
1.0
100
AcDbArc
 50
180.0
 51
269.4999999999824
  0
LINE
  5
22F2
330
2
100
AcDbEntity
  8
0
100
AcDbLine
 10
286.9715380200698
 20
74.74229573424833
 30
0.0
 11
281.4628495622266
 21
74.79036933012054
 31
0.0
  0
LINE
  5
22F3
330
2
100
AcDbEntity
  8
HIDS
100
AcDbLine
 10
279.057362535352
 20
79.65650913047494
 30
0.0
 11
279.8857896600986
 21
78.82808200572873
 31
0.0
  0
ARC
  5
22F4
330
2
100
AcDbEntity
  8
0
100
AcDbCircle
 10
276.9715760980209
 20
79.67333335348922
 30
0.0
 40
5.0
100
AcDbArc
 50
180.0
 51
269.2042764472296
  0
LINE
  5
22F5
330
2
100
AcDbEntity
  8
0
100
AcDbLine
 10
274.4715760977299
 20
83.99229556811048
 30
0.0
 11
274.1715760977297
 21
83.47268032584002
 31
0.0
  0
LINE
  5
22F6
330
2
100
AcDbEntity
  8
0
100
AcDbLine
 10
274.4715760977299
 20
83.99229556811048
 30
0.0
 11
280.4715760977298
 21
83.99229556811048
 31
0.0
  0
LINE
  5
22F7
330
2
100
AcDbEntity
  8
0
100
AcDbLine
 10
286.9715760977299
 20
94.21470004810572
 30
0.0
 11
281.4628495622266
 21
94.21470004810595
 31
0.0
  0
ARC
  5
22F8
330
2
100
AcDbEntity
  8
0
100
AcDbCircle
 10
274.2715760977291
 20
88.24229556810161
 30
0.0
 40
0.2
100
AcDbArc
 50
0.0
 51
90.0
  0
ARC
  5
22F9
330
2
100
AcDbEntity
  8
0
100
AcDbCircle
 10
272.6715760977297
 20
88.24229556810138
 30
0.0
 40
0.2
100
AcDbArc
 50
90.0
 51
179.9999999999218
  0
ARC
  5
22FA
330
2
100
AcDbEntity
  8
0
100
AcDbCircle
 10
272.2715760977291
 20
87.94229556810142
 30
0.0
 40
0.2
100
AcDbArc
 50
270.0
 51
359.9999999999218
  0
LINE
  5
22FB
330
2
100
AcDbEntity
  8
0
100
AcDbLine
 10
270.9715760977299
 20
87.74229556810116
 30
0.0
 11
272.2715760977291
 21
87.7422955681016
 31
0.0
  0
LINE
  5
22FC
330
2
100
AcDbEntity
  8
0
100
AcDbLine
 10
270.9715760977299
 20
87.74229556810116
 30
0.0
 11
269.9715760977298
 21
88.31964583729092
 31
0.0
  0
LINE
  5
22FD
330
2
100
AcDbEntity
  8
0
100
AcDbLine
 10
274.6715760977297
 20
87.7422955681016
 30
0.0
 11
277.9715760977298
 21
87.74229556810206
 31
0.0
  0
LINE
  5
22FE
330
2
100
AcDbEntity
  8
0
100
AcDbLine
 10
274.4715760977299
 20
87.94229556810165
 30
0.0
 11
274.6715760977297
 21
87.7422955681016
 31
0.0
  0
LINE
  5
22FF
330
2
100
AcDbEntity
  8
0
100
AcDbLine
 10
272.6715760977297
 20
88.44229556810143
 30
0.0
 11
274.2715760977291
 21
88.44229556810166
 31
0.0
  0
LINE
  5
2300
330
2
100
AcDbEntity
  8
0
100
AcDbLine
 10
278.4715760977244
 20
85.24229556810752
 30
0.0
 11
278.4715760977244
 21
83.99229556811048
 31
0.0
  0
LINE
  5
2301
330
2
100
AcDbEntity
  8
0
100
AcDbLine
 10
278.4715760977298
 20
85.24229556810253
 30
0.0
 11
277.9715760977298
 21
85.74229556810207
 31
0.0
  0
LINE
  5
2302
330
2
100
AcDbEntity
  8
0
100
AcDbLine
 10
286.9715760977299
 20
127.2698910880984
 30
0.0
 11
281.4628495622266
 21
127.2698910880981
 31
0.0
  0
ARC
  5
2303
330
2
100
AcDbEntity
  8
0
100
AcDbCircle
 10
274.2715760977291
 20
133.2422955681027
 30
0.0
 40
0.2
100
AcDbArc
 50
270.0
 51
0.0
  0
ARC
  5
2304
330
2
100
AcDbEntity
  8
0
100
AcDbCircle
 10
272.6715760977297
 20
133.2422955681029
 30
0.0
 40
0.2
100
AcDbArc
 50
180.0000000000521
 51
270.0
  0
ARC
  5
2305
330
2
100
AcDbEntity
  8
0
100
AcDbCircle
 10
272.2715760977291
 20
133.5422955681027
 30
0.0
 40
0.2
100
AcDbArc
 50
359.9999999999218
 51
90.0
  0
LINE
  5
2306
330
2
100
AcDbEntity
  8
0
100
AcDbLine
 10
278.4715760977298
 20
136.2422955681018
 30
0.0
 11
277.9715760977244
 21
135.7422955680966
 31
0.0
  0
LINE
  5
2307
330
2
100
AcDbEntity
  8
0
100
AcDbLine
 10
270.9715760977299
 20
133.7422955681029
 30
0.0
 11
272.2715760977291
 21
133.7422955681029
 31
0.0
  0
LINE
  5
2308
330
2
100
AcDbEntity
  8
0
100
AcDbLine
 10
270.9715760977299
 20
133.7422955681029
 30
0.0
 11
269.9715760977298
 21
133.1649452989134
 31
0.0
  0
LINE
  5
2309
330
2
100
AcDbEntity
  8
0
100
AcDbLine
 10
274.6715760977297
 20
133.7422955681027
 30
0.0
 11
277.9715760977298
 21
133.7422955681022
 31
0.0
  0
LINE
  5
230A
330
2
100
AcDbEntity
  8
0
100
AcDbLine
 10
274.4715760977299
 20
133.5422955681027
 30
0.0
 11
274.6715760977297
 21
133.7422955681027
 31
0.0
  0
LINE
  5
230B
330
2
100
AcDbEntity
  8
0
100
AcDbLine
 10
272.6715760977297
 20
133.0422955681029
 30
0.0
 11
274.2715760977291
 21
133.0422955681026
 31
0.0
  0
LINE
  5
230C
330
2
100
AcDbEntity
  8
0
100
AcDbLine
 10
363.9715760980282
 20
88.67367311770824
 30
0.0
 11
363.9715760980282
 21
132.8109180184804
 31
0.0
  0
LINE
  5
230D
330
2
100
AcDbEntity
  8
0
100
AcDbLine
 10
352.901777104623
 20
86.35572966912542
 30
0.0
 11
362.0413750914333
 21
86.67489146367035
 31
0.0
  0
ARC
  5
230E
330
2
100
AcDbEntity
  8
0
100
AcDbCircle
 10
338.9715760980154
 20
79.67333335349014
 30
0.0
 40
5.0
100
AcDbArc
 50
270.7957235527183
 51
297.0504175270652
  0
LINE
  5
230F
330
2
100
AcDbEntity
  8
0
100
AcDbLine
 10
345.9715760980245
 20
80.74229556810548
 30
0.0
 11
350.9715760980245
 21
80.74229556810548
 31
0.0
  0
ARC
  5
2310
330
2
100
AcDbEntity
  8
0
100
AcDbCircle
 10
352.9715760980282
 20
84.35694801508754
 30
0.0
 40
2.0
100
AcDbArc
 50
92.00000000000361
 51
180.0
  0
ARC
  5
2311
330
2
100
AcDbEntity
  8
0
100
AcDbCircle
 10
361.9715760980282
 20
88.67367311770824
 30
0.0
 40
2.0
100
AcDbArc
 50
272.0000000000035
 51
0.0
  0
LINE
  5
2312
330
2
100
AcDbEntity
  8
0
100
AcDbLine
 10
352.901777104623
 20
135.1288614670623
 30
0.0
 11
362.0413750914333
 21
134.8096996725183
 31
0.0
  0
ARC
  5
2313
330
2
100
AcDbEntity
  8
0
100
AcDbCircle
 10
361.9715760980282
 20
132.8109180184804
 30
0.0
 40
2.0
100
AcDbArc
 50
0.0
 51
87.9999999999964
  0
LINE
  5
2314
330
2
100
AcDbEntity
  8
0
100
AcDbLine
 10
365.9715760980259
 20
119.2423527689873
 30
0.0
 11
365.9715760980259
 21
102.2423527689874
 31
0.0
  0
LINE
  5
2315
330
2
100
AcDbEntity
  8
0
100
AcDbLine
 10
365.9715760980259
 20
102.2422383672168
 30
0.0
 11
364.9715760980259
 21
101.6648880980272
 31
0.0
  0
LINE
  5
2316
330
2
100
AcDbEntity
  8
0
100
AcDbLine
 10
364.7215760980259
 20
122.3866331353994
 30
0.0
 11
364.5695532345396
 21
122.474403576556
 31
0.0
  0
LINE
  5
2317
330
2
100
AcDbEntity
  8
0
100
AcDbLine
 10
365.9715760980259
 20
119.2423527689873
 30
0.0
 11
364.9715760980259
 21
119.8197030381769
 31
0.0
  0
ARC
  5
2318
330
2
100
AcDbEntity
  8
0
100
AcDbCircle
 10
363.5695532345396
 20
120.7423527689872
 30
0.0
 40
2.0
100
AcDbArc
 50
59.99999999999946
 51
78.40388896673717
  0
ARC
  5
2319
330
2
100
AcDbEntity
  8
0
100
AcDbCircle
 10
364.4715760980259
 20
121.9536204335072
 30
0.0
 40
0.5
100
AcDbArc
 50
0.0
 51
59.99999999999946
  0
LINE
  5
231A
330
2
100
AcDbEntity
  8
0
100
AcDbLine
 10
364.7215760980259
 20
99.09795800080468
 30
0.0
 11
364.5695532345396
 21
99.01018755964805
 31
0.0
  0
ARC
  5
231B
330
2
100
AcDbEntity
  8
0
100
AcDbCircle
 10
363.5695532345396
 20
100.7422383672168
 30
0.0
 40
2.0
100
AcDbArc
 50
281.5961110332628
 51
300.0000000000005
  0
ARC
  5
231C
330
2
100
AcDbEntity
  8
0
100
AcDbCircle
 10
364.4715760980259
 20
99.5309707026969
 30
0.0
 40
0.5
100
AcDbArc
 50
300.0000000000005
 51
0.0
  0
LINE
  5
231D
330
2
100
AcDbEntity
  8
0
100
AcDbLine
 10
364.9715760980259
 20
121.9536204335072
 30
0.0
 11
364.9715760980259
 21
99.5309707026969
 31
0.0
  0
LINE
  5
231F
330
2
100
AcDbEntity
  8
0
100
AcDbLine
 10
345.9715760980263
 20
141.7422955680936
 30
0.0
 11
286.9715760977299
 21
141.7422955680936
 31
0.0
  0
LINE
  5
2320
330
2
100
AcDbEntity
  8
0
100
AcDbLine
 10
345.9715760980263
 20
138.7422955681154
 30
0.0
 11
286.9715760977299
 21
138.7422955681154
 31
0.0
  0
LINE
  5
2321
330
2
100
AcDbEntity
  8
0
100
AcDbLine
 10
286.9715760977299
 20
146.7422955681018
 30
0.0
 11
345.9715760980263
 21
146.2274103684626
 31
0.0
  0
LINE
  5
2322
330
2
100
AcDbEntity
  8
0
100
AcDbLine
 10
339.0410138454692
 20
146.8107755993867
 30
0.0
 11
307.9715760980227
 21
147.2422955681002
 31
0.0
  0
LINE
  5
2324
330
2
100
AcDbEntity
  8
0
100
AcDbLine
 10
276.902138350568
 20
146.8107755993876
 30
0.0
 11
307.9715760980209
 21
147.2422955681002
 31
0.0
  0
LINE
  5
2325
330
2
100
AcDbEntity
  8
0
100
AcDbLine
 10
286.9715760977299
 20
141.7422955680936
 30
0.0
 11
281.4628495622266
 21
141.7422955681154
 31
0.0
  0
LINE
  5
2326
330
2
100
AcDbEntity
  8
0
100
AcDbLine
 10
274.4715760977299
 20
145.9922955680936
 30
0.0
 11
274.1715760977297
 21
145.4726803258227
 31
0.0
  0
LINE
  5
2327
330
2
100
AcDbEntity
  8
0
100
AcDbLine
 10
274.4715760977299
 20
145.9922955680936
 30
0.0
 11
280.4715760977253
 21
145.9922955680932
 31
0.0
  0
LINE
  5
2328
330
2
100
AcDbEntity
  8
CENTER
  6
CENS
100
AcDbLine
 10
271.1715760977297
 20
141.7422955681195
 30
0.0
 11
290.7202775783264
 21
141.7422955681195
 31
0.0
  0
ARC
  5
2329
330
2
100
AcDbEntity
  8
0
100
AcDbCircle
 10
281.4715760977253
 20
145.6942598830196
 30
0.0
 40
1.0
100
AcDbArc
 50
90.50000000001761
 51
180.0
  0
ARC
  5
232A
330
2
100
AcDbEntity
  8
HIDS
100
AcDbCircle
 10
278.4715760977244
 20
144.0707226928485
 30
0.0
 40
2.0
100
AcDbArc
 50
314.999999999993
 51
0.0
  0
ARC
  5
232B
330
2
100
AcDbEntity
  8
0
100
AcDbCircle
 10
281.4715760977244
 20
145.742295568102
 30
0.0
 40
1.0
100
AcDbArc
 50
180.0
 51
180.0
  0
LINE
  5
232C
330
2
100
AcDbEntity
  8
0
100
AcDbLine
 10
286.9715380200698
 20
146.7422954019558
 30
0.0
 11
281.4628495622266
 21
146.694221806084
 31
0.0
  0
LINE
  5
232D
330
2
100
AcDbEntity
  8
HIDS
100
AcDbLine
 10
279.057362535352
 20
141.8280820057291
 30
0.0
 11
279.8857896600977
 21
142.6565091304754
 31
0.0
  0
ARC
  5
232E
330
2
100
AcDbEntity
  8
0
100
AcDbCircle
 10
276.9715760980209
 20
141.8112577827149
 30
0.0
 40
5.0
100
AcDbArc
 50
90.79572355271826
 51
180.0
  0
LINE
  5
232F
330
2
100
AcDbEntity
  8
HIDS
100
AcDbLine
 10
278.4715760977244
 20
140.413868443356
 30
0.0
 11
278.4715760977253
 21
137.4922955680936
 31
0.0
  0
LINE
  5
2330
330
2
100
AcDbEntity
  8
0
100
AcDbLine
 10
274.4715760977299
 20
137.4922955680936
 30
0.0
 11
274.1715760977297
 21
138.0119108103641
 31
0.0
  0
LINE
  5
2331
330
2
100
AcDbEntity
  8
0
100
AcDbLine
 10
274.4715760977299
 20
137.4922955680936
 30
0.0
 11
280.4715760977298
 21
137.4922955680936
 31
0.0
  0
LINE
  5
2332
330
2
100
AcDbEntity
  8
0
100
AcDbLine
 10
286.9715760977299
 20
138.7422955681154
 30
0.0
 11
281.4628495622266
 21
138.7422955681154
 31
0.0
  0
LINE
  5
2333
330
2
100
AcDbEntity
  8
0
100
AcDbLine
 10
274.1715760977297
 20
138.0119108103641
 30
0.0
 11
274.1715760977297
 21
145.4726803258227
 31
0.0
  0
LINE
  5
2334
330
2
100
AcDbEntity
  8
0
100
AcDbLine
 10
274.4715760977299
 20
137.4922955680936
 30
0.0
 11
274.4715760977299
 21
145.9922955680936
 31
0.0
  0
LINE
  5
2335
330
2
100
AcDbEntity
  8
0
100
AcDbLine
 10
279.1715760977297
 20
137.4922955680936
 30
0.0
 11
279.1715760977297
 21
145.9922955680936
 31
0.0
  0
ARC
  5
2336
330
2
100
AcDbEntity
  8
HIDS
100
AcDbCircle
 10
280.4715760977244
 20
140.413868443356
 30
0.0
 40
2.0
100
AcDbArc
 50
134.999999999993
 51
180.0
  0
ARC
  5
2338
330
2
100
AcDbEntity
  8
0
100
AcDbCircle
 10
338.9715760980154
 20
141.8112577827139
 30
0.0
 40
5.0
100
AcDbArc
 50
62.94958247298872
 51
89.20427644728171
  0
LINE
  5
2339
330
2
100
AcDbEntity
  8
0
100
AcDbLine
 10
345.9715760980245
 20
140.7422955681052
 30
0.0
 11
350.9715760980245
 21
140.7422955681052
 31
0.0
  0
LINE
  5
233B
330
2
100
AcDbEntity
  8
CENTER
100
AcDbLine
 10
563.9227715541706
 20
164.7422955680996
 30
0.0
 11
563.9227715541706
 21
56.74229556809968
 31
0.0
  0
ARC
  5
233C
330
2
100
AcDbEntity
  8
0
100
AcDbCircle
 10
498.939175109264
 20
130.368815248078
 30
0.0
 40
30.0
100
AcDbArc
 50
354.0709145121496
 51
13.84182431842025
  0
LINE
  5
233D
330
2
100
AcDbEntity
  8
CENTER
100
AcDbLine
 10
532.8100731819646
 20
148.3549939403082
 30
0.0
 11
532.8100731819646
 21
135.3549939403082
 31
0.0
  0
LINE
  5
233E
330
2
100
AcDbEntity
  8
0
100
AcDbLine
 10
395.4715760980259
 20
118.2423527689873
 30
0.0
 11
395.4715760980255
 21
103.2423527689884
 31
0.0
  0
LINE
  5
233F
330
2
100
AcDbEntity
  8
0
100
AcDbLine
 10
395.9715760980259
 20
117.7423527689873
 30
0.0
 11
395.9715760980254
 21
103.7423527689884
 31
0.0
  0
LINE
  5
2340
330
2
100
AcDbEntity
  8
0
100
AcDbLine
 10
395.4715760980255
 20
103.2423527689884
 30
0.0
 11
395.9715760980254
 21
103.7423527689884
 31
0.0
  0
LINE
  5
2341
330
2
100
AcDbEntity
  8
0
100
AcDbLine
 10
395.9715760980259
 20
117.7423527689873
 30
0.0
 11
395.4715760980259
 21
118.2423527689873
 31
0.0
  0
ARC
  5
2342
330
2
100
AcDbEntity
  8
0
100
AcDbCircle
 10
687.9227715541706
 20
110.7422955680962
 30
0.0
 40
160.0
100
AcDbArc
 50
174.0709145121497
 51
185.9290854878502
  0
ARC
  5
2343
330
2
100
AcDbEntity
  8
0
100
AcDbCircle
 10
544.2962518741893
 20
45.75869912318961
 30
0.0
 40
30.0
100
AcDbArc
 50
84.07091451212343
 51
103.841824318421
  0
ARC
  5
2344
330
2
100
AcDbEntity
  8
0
100
AcDbCircle
 10
532.9227715541707
 20
82.74229556809604
 30
0.0
 40
5.0
100
AcDbArc
 50
166.1581756815797
 51
180.0
  0
LINE
  5
2345
330
2
100
AcDbEntity
  8
CENTER
100
AcDbLine
 10
532.8100731819646
 20
86.12959719589316
 30
0.0
 11
532.8100731819646
 21
73.12959719589315
 31
0.0
  0
LINE
  5
2346
330
2
100
AcDbEntity
  8
0
100
AcDbLine
 10
527.9227715541707
 20
82.74229556809604
 30
0.0
 11
527.9227715541707
 21
79.74229556807467
 31
0.0
  0
ARC
  5
2347
330
2
100
AcDbEntity
  8
0
100
AcDbCircle
 10
532.9227715541707
 20
79.74229556807467
 30
0.0
 40
5.0
100
AcDbArc
 50
180.0
 51
270.0
  0
LINE
  5
2348
330
2
100
AcDbEntity
  8
0
100
AcDbLine
 10
535.9227715541707
 20
74.74229556809603
 30
0.0
 11
532.9227715541707
 21
74.74229556809603
 31
0.0
  0
ARC
  5
2349
330
2
100
AcDbEntity
  8
0
100
AcDbCircle
 10
535.9227715541707
 20
79.74229556809603
 30
0.0
 40
5.0
100
AcDbArc
 50
270.0
 51
283.841824318421
  0
LINE
  5
234A
330
2
100
AcDbEntity
  8
CENTER
100
AcDbLine
 10
539.3100731819646
 20
79.62959719589315
 30
0.0
 11
526.3100731819646
 21
79.62959719589315
 31
0.0
  0
CIRCLE
  5
234B
330
2
100
AcDbEntity
  8
HOJO
100
AcDbCircle
 10
532.8100731819628
 20
79.62959719589315
 30
0.0
 40
2.5
  0
CIRCLE
  5
234C
330
2
100
AcDbEntity
  8
0
100
AcDbCircle
 10
532.8100731819646
 20
79.6295971958927
 30
0.0
 40
2.1
  0
ARC
  5
234D
330
2
100
AcDbEntity
  8
0
100
AcDbCircle
 10
498.939175109264
 20
91.11577588811446
 30
0.0
 40
30.0
100
AcDbArc
 50
346.1581756815797
 51
5.92908548785031
  0
LINE
  5
234E
330
2
100
AcDbEntity
  8
0
100
AcDbLine
 10
564.1659454558826
 20
83.39229556808954
 30
0.0
 11
564.1659454558826
 21
81.74229556809104
 31
0.0
  0
LINE
  5
234F
330
2
100
AcDbEntity
  8
0
100
AcDbLine
 10
564.2722181933819
 20
83.28604556808972
 30
0.0
 11
565.2545745240637
 21
81.74229556809104
 31
0.0
  0
ARC
  5
2350
330
2
100
AcDbEntity
  8
0
100
AcDbCircle
 10
565.0159454558812
 20
83.39229556808954
 30
0.0
 40
0.8499999999992269
100
AcDbArc
 50
307.5189678667967
 51
90.0
  0
LINE
  5
2351
330
2
100
AcDbEntity
  8
0
100
AcDbLine
 10
562.9409681933835
 20
84.24229556808876
 30
0.0
 11
561.6909681933845
 21
81.74229556809104
 31
0.0
  0
LINE
  5
2352
330
2
100
AcDbEntity
  8
0
100
AcDbLine
 10
563.415968193383
 20
82.11729556809059
 30
0.0
 11
563.415968193383
 21
81.74229556809104
 31
0.0
  0
LINE
  5
2353
330
2
100
AcDbEntity
  8
0
100
AcDbLine
 10
562.778468581299
 20
82.11729556809059
 30
0.0
 11
563.415968193383
 21
82.11729556809059
 31
0.0
  0
LINE
  5
2354
330
2
100
AcDbEntity
  8
0
100
AcDbLine
 10
562.778468581299
 20
82.11729556809059
 30
0.0
 11
562.5909685812991
 21
81.74229556809104
 31
0.0
  0
LINE
  5
2355
330
2
100
AcDbEntity
  8
0
100
AcDbLine
 10
563.415968193383
 20
81.74229556809104
 30
0.0
 11
564.1659454558826
 21
81.74229556809104
 31
0.0
  0
LINE
  5
2356
330
2
100
AcDbEntity
  8
0
100
AcDbLine
 10
565.2545745240637
 20
81.74229556809104
 30
0.0
 11
566.1545749119774
 21
81.74229556809104
 31
0.0
  0
LINE
  5
2357
330
2
100
AcDbEntity
  8
0
100
AcDbLine
 10
565.5336158870246
 20
82.71811656758648
 30
0.0
 11
566.1545749119774
 21
81.74229556809104
 31
0.0
  0
LINE
  5
2358
330
2
100
AcDbEntity
  8
0
100
AcDbLine
 10
561.6909681933845
 20
81.74229556809104
 30
0.0
 11
562.5909685812991
 21
81.74229556809104
 31
0.0
  0
LINE
  5
2359
330
2
100
AcDbEntity
  8
0
100
AcDbLine
 10
562.9409681933835
 20
84.24229556808876
 30
0.0
 11
565.0159454558812
 21
84.24229556808876
 31
0.0
  0
ARC
  5
235A
330
2
100
AcDbEntity
  8
0
100
AcDbCircle
 10
564.9628431933812
 20
83.33917056808962
 30
0.0
 40
0.0531249999999517
100
AcDbArc
 50
270.0
 51
90.0
  0
LINE
  5
235B
330
2
100
AcDbEntity
  8
0
100
AcDbLine
 10
564.2722181933819
 20
83.28604556808972
 30
0.0
 11
564.9628431933812
 21
83.28604556808972
 31
0.0
  0
LINE
  5
235C
330
2
100
AcDbEntity
  8
0
100
AcDbLine
 10
564.1659454558826
 20
83.39229556808954
 30
0.0
 11
564.9628431933812
 21
83.39229556808954
 31
0.0
  0
LINE
  5
235D
330
2
100
AcDbEntity
  8
0
100
AcDbLine
 10
563.415968193383
 20
83.3922947922594
 30
0.0
 11
563.1784685812987
 21
82.91729556808986
 31
0.0
  0
LINE
  5
235E
330
2
100
AcDbEntity
  8
0
100
AcDbLine
 10
563.415968193383
 20
83.3922947922594
 30
0.0
 11
563.415968193383
 21
82.91729556808986
 31
0.0
  0
LINE
  5
235F
330
2
100
AcDbEntity
  8
0
100
AcDbLine
 10
563.1784685812987
 20
82.91729556808986
 30
0.0
 11
563.415968193383
 21
82.91729556808986
 31
0.0
  0
CIRCLE
  5
2360
330
2
100
AcDbEntity
  8
0
100
AcDbCircle
 10
563.9227715541706
 20
110.7422955680996
 30
0.0
 40
9.077407470058233
  0
CIRCLE
  5
2361
330
2
100
AcDbEntity
  8
0
100
AcDbCircle
 10
563.9227715541706
 20
110.7422955680998
 30
0.0
 40
8.500057200868525
  0
CIRCLE
  5
2362
330
2
100
AcDbEntity
  8
0
100
AcDbCircle
 10
563.9227715541706
 20
110.7422955680998
 30
0.0
 40
7.500057200868525
  0
CIRCLE
  5
2363
330
2
100
AcDbEntity
  8
0
100
AcDbCircle
 10
563.9227715541706
 20
110.7422955680996
 30
0.0
 40
12.00005720086858
  0
ARC
  5
2364
330
2
100
AcDbEntity
  8
0
100
AcDbCircle
 10
544.2962518741893
 20
175.7258920130027
 30
0.0
 40
30.0
100
AcDbArc
 50
256.1581756815789
 51
275.9290854878765
  0
LINE
  5
2365
330
2
100
AcDbEntity
  8
0
100
AcDbLine
 10
535.9227715541707
 20
146.7422955680962
 30
0.0
 11
532.9227715541707
 21
146.7422955680962
 31
0.0
  0
ARC
  5
2366
330
2
100
AcDbEntity
  8
0
100
AcDbCircle
 10
535.9227715541707
 20
141.7422955680962
 30
0.0
 40
5.0
100
AcDbArc
 50
76.15817568157897
 51
90.0
  0
ARC
  5
2367
330
2
100
AcDbEntity
  8
0
100
AcDbCircle
 10
532.9227715541707
 20
141.7422955680746
 30
0.0
 40
5.0
100
AcDbArc
 50
90.0
 51
180.0
  0
LINE
  5
2368
330
2
100
AcDbEntity
  8
CENTER
100
AcDbLine
 10
539.3100731819646
 20
141.8549939403082
 30
0.0
 11
526.3100731819646
 21
141.8549939403082
 31
0.0
  0
ARC
  5
2369
330
2
100
AcDbEntity
  8
0
100
AcDbCircle
 10
532.9227715541707
 20
138.7422955680964
 30
0.0
 40
5.0
100
AcDbArc
 50
180.0
 51
193.8418243184202
  0
LINE
  5
236A
330
2
100
AcDbEntity
  8
0
100
AcDbLine
 10
527.9227715541707
 20
138.7422955680964
 30
0.0
 11
527.9227715541707
 21
141.7422955680746
 31
0.0
  0
CIRCLE
  5
236B
330
2
100
AcDbEntity
  8
HOJO
100
AcDbCircle
 10
532.8100731819646
 20
141.854993940308
 30
0.0
 40
2.5
  0
CIRCLE
  5
236C
330
2
100
AcDbEntity
  8
0
100
AcDbCircle
 10
532.8100731819646
 20
141.8549939403091
 30
0.0
 40
2.1
  0
LINE
  5
236D
330
2
100
AcDbEntity
  8
0
100
AcDbLine
 10
571.4228287550564
 20
308.8552626908636
 30
0.0
 11
556.4228287550573
 21
308.8552626908641
 31
0.0
  0
LINE
  5
236E
330
2
100
AcDbEntity
  8
0
100
AcDbLine
 10
556.4228287550573
 20
308.8552626908641
 30
0.0
 11
556.9228287550573
 21
308.3552626908641
 31
0.0
  0
LINE
  5
236F
330
2
100
AcDbEntity
  8
0
100
AcDbLine
 10
570.9228287550565
 20
308.3552626908637
 30
0.0
 11
556.9228287550573
 21
308.3552626908641
 31
0.0
  0
LINE
  5
2370
330
2
100
AcDbEntity
  8
0
100
AcDbLine
 10
570.9228287550565
 20
308.3552626908637
 30
0.0
 11
571.4228287550564
 21
308.8552626908636
 31
0.0
  0
LINE
  5
2375
330
2
100
AcDbEntity
  8
CENTER
100
AcDbLine
 10
595.0354699263795
 20
148.3549939403089
 30
0.0
 11
595.0354699263795
 21
135.3549939403089
 31
0.0
  0
LINE
  5
2376
330
2
100
AcDbEntity
  8
0
100
AcDbLine
 10
614.4227715541816
 20
84.24229556810308
 30
0.0
 11
614.4227715541752
 21
137.2422955680955
 31
0.0
  0
LINE
  5
2377
330
2
100
AcDbEntity
  8
0
100
AcDbLine
 10
599.9227715541707
 20
141.7422955680739
 30
0.0
 11
599.9227715541707
 21
79.74229556807467
 31
0.0
  0
LINE
  5
2379
330
2
100
AcDbEntity
  8
0
100
AcDbLine
 10
623.9227715541716
 20
145.2422955680992
 30
0.0
 11
623.9227715541716
 21
76.24229556809945
 31
0.0
  0
ARC
  5
237B
330
2
100
AcDbEntity
  8
0
100
AcDbCircle
 10
613.4227715541753
 20
80.24229556810377
 30
0.0
 40
3.0
100
AcDbArc
 50
53.13010235412992
 51
90.0
  0
ARC
  5
237C
330
2
100
AcDbEntity
  8
0
100
AcDbCircle
 10
616.4227715541752
 20
84.24229556810331
 30
0.0
 40
2.0
100
AcDbArc
 50
180.0
 51
270.0
  0
ARC
  5
237D
330
2
100
AcDbEntity
  8
0
100
AcDbCircle
 10
611.4227715541816
 20
85.24229556809968
 30
0.0
 40
3.0
100
AcDbArc
 50
0.0
 51
90.0
  0
ARC
  5
237E
330
2
100
AcDbEntity
  8
0
100
AcDbCircle
 10
583.549291234152
 20
45.75869912318961
 30
0.0
 40
30.0
100
AcDbArc
 50
76.15817568157897
 51
95.92908548787658
  0
ARC
  5
237F
330
2
100
AcDbEntity
  8
0
100
AcDbCircle
 10
602.9227715541707
 20
80.242295568104
 30
0.0
 40
3.0
100
AcDbArc
 50
90.0
 51
180.0
  0
LINE
  5
2380
330
2
100
AcDbEntity
  8
CENTER
100
AcDbLine
 10
595.0354699263812
 20
86.12959719589383
 30
0.0
 11
595.0354699263812
 21
73.12959719589383
 31
0.0
  0
ARC
  5
2381
330
2
100
AcDbEntity
  8
0
100
AcDbCircle
 10
594.9227715541707
 20
79.74229556807467
 30
0.0
 40
5.0
100
AcDbArc
 50
270.0
 51
0.0
  0
ARC
  5
2382
330
2
100
AcDbEntity
  8
0
100
AcDbCircle
 10
591.9227715541707
 20
79.74229556809603
 30
0.0
 40
5.0
100
AcDbArc
 50
256.1581756815789
 51
270.0
  0
LINE
  5
2383
330
2
100
AcDbEntity
  8
0
100
AcDbLine
 10
591.9227715541707
 20
74.74229556809603
 30
0.0
 11
594.9227715541707
 21
74.74229556809603
 31
0.0
  0
LINE
  5
2384
330
2
100
AcDbEntity
  8
CENTER
100
AcDbLine
 10
601.5354699263813
 20
79.62959719589384
 30
0.0
 11
588.5354699263813
 21
79.62959719589384
 31
0.0
  0
CIRCLE
  5
2385
330
2
100
AcDbEntity
  8
HOJO
100
AcDbCircle
 10
595.0354699263812
 20
79.62959719589361
 30
0.0
 40
2.5
  0
CIRCLE
  5
2386
330
2
100
AcDbEntity
  8
0
100
AcDbCircle
 10
595.0354699263804
 20
79.6295971958927
 30
0.0
 40
2.1
  0
LINE
  5
2387
330
2
100
AcDbEntity
  8
0
100
AcDbLine
 10
613.4227715541753
 20
83.24229556810378
 30
0.0
 11
602.9227715541707
 21
83.24229556810399
 31
0.0
  0
LINE
  5
2388
330
2
100
AcDbEntity
  8
0
100
AcDbLine
 10
602.9227715541743
 20
88.24229556809967
 30
0.0
 11
611.4227715541816
 21
88.24229556809967
 31
0.0
  0
ARC
  5
2389
330
2
100
AcDbEntity
  8
0
100
AcDbCircle
 10
602.9227715541743
 20
85.24229556809968
 30
0.0
 40
3.0
100
AcDbArc
 50
90.0
 51
180.0
  0
LINE
  5
238A
330
2
100
AcDbEntity
  8
0
100
AcDbLine
 10
620.9227715541707
 20
82.24229556810332
 30
0.0
 11
616.4227715541752
 21
82.24229556810332
 31
0.0
  0
ARC
  5
238B
330
2
100
AcDbEntity
  8
0
100
AcDbCircle
 10
620.9227715541707
 20
79.24229556810331
 30
0.0
 40
3.0
100
AcDbArc
 50
0.0
 51
90.0
  0
ARC
  5
238C
330
2
100
AcDbEntity
  8
0
100
AcDbCircle
 10
625.9227715541716
 20
76.24229556809945
 30
0.0
 40
2.0
100
AcDbArc
 50
180.0
 51
270.0
  0
LINE
  5
238D
330
2
100
AcDbEntity
  8
0
100
AcDbLine
 10
625.9227715541716
 20
74.24229556809945
 30
0.0
 11
635.9227715541716
 21
74.24229556809945
 31
0.0
  0
ARC
  5
238E
330
2
100
AcDbEntity
  8
0
100
AcDbCircle
 10
625.9227715541716
 20
76.74229556809945
 30
0.0
 40
2.0
100
AcDbArc
 50
180.0
 51
270.0
  0
LINE
  5
238F
330
2
100
AcDbEntity
  8
0
100
AcDbLine
 10
625.9227715541716
 20
74.74229556809945
 30
0.0
 11
635.9227715541716
 21
74.74229556809945
 31
0.0
  0
ARC
  5
2390
330
2
100
AcDbEntity
  8
0
100
AcDbCircle
 10
611.422771554178
 20
105.2422955680994
 30
0.0
 40
3.0
100
AcDbArc
 50
0.0
 51
90.0
  0
ARC
  5
2391
330
2
100
AcDbEntity
  8
0
100
AcDbCircle
 10
611.422771554178
 20
116.2422955680996
 30
0.0
 40
3.0
100
AcDbArc
 50
270.0
 51
0.0
  0
ARC
  5
2392
330
2
100
AcDbEntity
  8
0
100
AcDbCircle
 10
611.4227715541761
 20
136.2422955680996
 30
0.0
 40
3.0
100
AcDbArc
 50
270.0
 51
0.0
  0
LINE
  5
2393
330
2
100
AcDbEntity
  8
0
100
AcDbLine
 10
602.9227715541707
 20
108.2422955680992
 30
0.0
 11
611.422771554178
 21
108.2422955680994
 31
0.0
  0
ARC
  5
2394
330
2
100
AcDbEntity
  8
0
100
AcDbCircle
 10
602.9227715541707
 20
105.2422955680992
 30
0.0
 40
3.0
100
AcDbArc
 50
90.0
 51
180.0
  0
ARC
  5
2395
330
2
100
AcDbEntity
  8
0
100
AcDbCircle
 10
602.9227715541707
 20
116.2422955680996
 30
0.0
 40
3.0
100
AcDbArc
 50
180.0
 51
270.0
  0
LINE
  5
2396
330
2
100
AcDbEntity
  8
0
100
AcDbLine
 10
602.9227715541707
 20
113.2422955680996
 30
0.0
 11
611.422771554178
 21
113.2422955680996
 31
0.0
  0
LINE
  5
2397
330
2
100
AcDbEntity
  8
0
100
AcDbLine
 10
602.9227715541743
 20
133.2422955680996
 30
0.0
 11
611.4227715541761
 21
133.2422955680996
 31
0.0
  0
ARC
  5
2398
330
2
100
AcDbEntity
  8
0
100
AcDbCircle
 10
602.9227715541743
 20
136.2422955680996
 30
0.0
 40
3.0
100
AcDbArc
 50
180.0
 51
270.0
  0
LINE
  5
239D
330
2
100
AcDbEntity
  8
0
100
AcDbLine
 10
839.4165748926912
 20
118.2422383672047
 30
0.0
 11
809.9165748926916
 21
118.2422383672043
 31
0.0
  0
LINE
  5
239E
330
2
100
AcDbEntity
  8
0
100
AcDbLine
 10
839.4165748926912
 20
103.2422383672052
 30
0.0
 11
809.9165748926912
 21
103.2422383672052
 31
0.0
  0
LINE
  5
239F
330
2
100
AcDbEntity
  8
0
100
AcDbLine
 10
809.9165748926912
 20
103.2422383672052
 30
0.0
 11
809.9165748926916
 21
118.2422383672043
 31
0.0
  0
LINE
  5
23A0
330
2
100
AcDbEntity
  8
0
100
AcDbLine
 10
809.4165748926911
 20
103.7422383672052
 30
0.0
 11
809.4165748926917
 21
117.7422383672043
 31
0.0
  0
LINE
  5
23A1
330
2
100
AcDbEntity
  8
0
100
AcDbLine
 10
809.4165748926911
 20
103.7422383672052
 30
0.0
 11
809.9165748926912
 21
103.2422383672052
 31
0.0
  0
LINE
  5
23A2
330
2
100
AcDbEntity
  8
0
100
AcDbLine
 10
809.9165748926916
 20
118.2422383672043
 30
0.0
 11
809.4165748926917
 21
117.7422383672043
 31
0.0
  0
LINE
  5
23A3
330
2
100
AcDbEntity
  8
0
100
AcDbLine
 10
839.4165748926912
 20
102.2422383672052
 30
0.0
 11
839.4165748926912
 21
119.2422383672052
 31
0.0
  0
LINE
  5
23A4
330
2
100
AcDbEntity
  8
0
100
AcDbLine
 10
839.4165748926912
 20
102.2422383672052
 30
0.0
 11
840.4165748926912
 21
101.6648880980157
 31
0.0
  0
LINE
  5
23A5
330
2
100
AcDbEntity
  8
0
100
AcDbLine
 10
840.6665748926911
 20
122.386633135388
 30
0.0
 11
840.8185977561775
 21
122.4744035765444
 31
0.0
  0
ARC
  5
23A6
330
2
100
AcDbEntity
  8
0
100
AcDbCircle
 10
841.8185977561774
 20
120.7423527689758
 30
0.0
 40
2.0
100
AcDbArc
 50
101.5961110332493
 51
119.9999999999932
  0
ARC
  5
23A7
330
2
100
AcDbEntity
  8
0
100
AcDbCircle
 10
840.9165748926911
 20
121.9536204334955
 30
0.0
 40
0.5
100
AcDbArc
 50
119.9999999999932
 51
180.0
  0
LINE
  5
23A8
330
2
100
AcDbEntity
  8
0
100
AcDbLine
 10
839.4165748926912
 20
119.2423527689758
 30
0.0
 11
840.4165748926912
 21
119.8197030381653
 31
0.0
  0
LINE
  5
23AB
330
2
100
AcDbEntity
  8
0
100
AcDbLine
 10
840.6665748926911
 20
99.09795800079303
 30
0.0
 11
840.8185977561775
 21
99.01018755963661
 31
0.0
  0
ARC
  5
23AC
330
2
100
AcDbEntity
  8
0
100
AcDbCircle
 10
841.8185977561774
 20
100.7422383672052
 30
0.0
 40
2.0
100
AcDbArc
 50
240.0000000000067
 51
258.4038889667237
  0
ARC
  5
23AD
330
2
100
AcDbEntity
  8
0
100
AcDbCircle
 10
840.9165748926911
 20
99.53097070268553
 30
0.0
 40
0.5
100
AcDbArc
 50
180.0
 51
240.0000000000067
  0
LINE
  5
23AE
330
2
100
AcDbEntity
  8
0
100
AcDbLine
 10
840.4165748926912
 20
99.53097070268553
 30
0.0
 11
840.4165748926912
 21
121.9536204334955
 31
0.0
  0
ARC
  5
23AF
330
2
100
AcDbEntity
  8
0
100
AcDbCircle
 10
613.4227715541753
 20
141.2422955680955
 30
0.0
 40
3.0
100
AcDbArc
 50
270.0
 51
306.86989764587
  0
ARC
  5
23B0
330
2
100
AcDbEntity
  8
0
100
AcDbCircle
 10
616.4227715541752
 20
137.242295568096
 30
0.0
 40
2.0
100
AcDbArc
 50
90.0
 51
180.0
  0
ARC
  5
23B1
330
2
100
AcDbEntity
  8
0
100
AcDbCircle
 10
583.549291234152
 20
175.7258920130027
 30
0.0
 40
30.0
100
AcDbArc
 50
264.0709145121234
 51
283.841824318421
  0
ARC
  5
23B2
330
2
100
AcDbEntity
  8
0
100
AcDbCircle
 10
594.9227715541707
 20
141.7422955680739
 30
0.0
 40
5.0
100
AcDbArc
 50
0.0
 51
90.0
  0
ARC
  5
23B3
330
2
100
AcDbEntity
  8
0
100
AcDbCircle
 10
591.9227715541707
 20
141.7422955680962
 30
0.0
 40
5.0
100
AcDbArc
 50
90.0
 51
103.841824318421
  0
LINE
  5
23B4
330
2
100
AcDbEntity
  8
0
100
AcDbLine
 10
591.9227715541707
 20
146.7422955680962
 30
0.0
 11
594.9227715541707
 21
146.7422955680962
 31
0.0
  0
LINE
  5
23B5
330
2
100
AcDbEntity
  8
CENTER
100
AcDbLine
 10
601.5354699263795
 20
141.8549939403089
 30
0.0
 11
588.5354699263794
 21
141.8549939403089
 31
0.0
  0
LINE
  5
23B6
330
2
100
AcDbEntity
  8
0
100
AcDbLine
 10
613.4227715541753
 20
138.2422955680955
 30
0.0
 11
602.9227715541707
 21
138.2422955680953
 31
0.0
  0
ARC
  5
23B7
330
2
100
AcDbEntity
  8
0
100
AcDbCircle
 10
602.9227715541707
 20
141.2422955680953
 30
0.0
 40
3.0
100
AcDbArc
 50
180.0
 51
270.0
  0
CIRCLE
  5
23B8
330
2
100
AcDbEntity
  8
HOJO
100
AcDbCircle
 10
595.0354699263812
 20
141.8549939403098
 30
0.0
 40
2.5
  0
CIRCLE
  5
23B9
330
2
100
AcDbEntity
  8
0
100
AcDbCircle
 10
595.0354699263804
 20
141.8549939403089
 30
0.0
 40
2.1
  0
ARC
  5
23BA
330
2
100
AcDbEntity
  8
0
100
AcDbCircle
 10
625.9227715541716
 20
145.2422955680992
 30
0.0
 40
2.0
100
AcDbArc
 50
90.0
 51
180.0
  0
LINE
  5
23BB
330
2
100
AcDbEntity
  8
0
100
AcDbLine
 10
635.9227715541716
 20
147.2422955680992
 30
0.0
 11
625.9227715541716
 21
147.2422955680992
 31
0.0
  0
ARC
  5
23BC
330
2
100
AcDbEntity
  8
0
100
AcDbCircle
 10
625.9227715541716
 20
144.7422955680992
 30
0.0
 40
2.0
100
AcDbArc
 50
90.0
 51
180.0
  0
LINE
  5
23BD
330
2
100
AcDbEntity
  8
0
100
AcDbLine
 10
635.9227715541716
 20
146.7422955680992
 30
0.0
 11
625.9227715541716
 21
146.7422955680992
 31
0.0
  0
LINE
  5
23BE
330
2
100
AcDbEntity
  8
0
100
AcDbLine
 10
620.9227715541707
 20
139.242295568096
 30
0.0
 11
616.4227715541752
 21
139.242295568096
 31
0.0
  0
ARC
  5
23BF
330
2
100
AcDbEntity
  8
0
100
AcDbCircle
 10
620.9227715541707
 20
142.242295568096
 30
0.0
 40
3.0
100
AcDbArc
 50
270.0
 51
0.0
  0
LINE
  5
23E4
330
2
100
AcDbEntity
  8
0
100
AcDbLine
 10
528.4376567538275
 20
358.3552626908647
 30
0.0
 11
599.401150578121
 21
358.3552626908638
 31
0.0
  0
LINE
  5
23E5
330
2
100
AcDbEntity
  8
0
100
AcDbLine
 10
533.9227715541711
 20
353.3552626908647
 30
0.0
 11
593.9227715541711
 21
353.3552626908647
 31
0.0
  0
LINE
  5
23E6
330
2
100
AcDbEntity
  8
0
100
AcDbLine
 10
541.8541491037832
 20
340.3552626908652
 30
0.0
 11
585.9913940045554
 21
340.355262690865
 31
0.0
  0
LINE
  5
23E7
330
2
100
AcDbEntity
  8
0
100
AcDbLine
 10
533.9227715541711
 20
358.3552626908647
 30
0.0
 11
533.9227715541711
 21
353.3552626908647
 31
0.0
  0
ARC
  5
23E8
330
2
100
AcDbEntity
  8
0
100
AcDbCircle
 10
537.5374240011625
 20
351.355262690865
 30
0.0
 40
2.0
100
AcDbArc
 50
2.000000000003725
 51
90.0
  0
ARC
  5
23E9
330
2
100
AcDbEntity
  8
0
100
AcDbCircle
 10
541.8541491037832
 20
342.355262690865
 30
0.0
 40
2.0
100
AcDbArc
 50
182.0000000000037
 51
270.0
  0
LINE
  5
23EA
330
2
100
AcDbEntity
  8
0
100
AcDbLine
 10
539.5362056552004
 20
351.4250616842699
 30
0.0
 11
539.8553674497454
 21
342.2854636974601
 31
0.0
  0
LINE
  5
23EB
330
2
100
AcDbEntity
  8
0
100
AcDbLine
 10
575.1340964195761
 20
339.3552626908637
 30
0.0
 11
552.7114466887661
 21
339.3552626908637
 31
0.0
  0
LINE
  5
23EC
330
2
100
AcDbEntity
  8
0
100
AcDbLine
 10
552.2784339868736
 20
339.6052626908637
 30
0.0
 11
552.1906635457172
 21
339.75728555435
 31
0.0
  0
ARC
  5
23ED
330
2
100
AcDbEntity
  8
0
100
AcDbCircle
 10
553.9227143532858
 20
340.75728555435
 30
0.0
 40
2.0
100
AcDbArc
 50
191.5961110332487
 51
209.9999999999977
  0
ARC
  5
23EE
330
2
100
AcDbEntity
  8
0
100
AcDbCircle
 10
552.7114466887661
 20
339.8552626908637
 30
0.0
 40
0.5
100
AcDbArc
 50
209.9999999999977
 51
270.0
  0
LINE
  5
23EF
330
2
100
AcDbEntity
  8
0
100
AcDbLine
 10
575.5671091214686
 20
339.6052626908637
 30
0.0
 11
575.654879562625
 21
339.75728555435
 31
0.0
  0
ARC
  5
23F0
330
2
100
AcDbEntity
  8
0
100
AcDbCircle
 10
573.9228287550564
 20
340.75728555435
 30
0.0
 40
2.0
100
AcDbArc
 50
330.0000000000022
 51
348.4038889667244
  0
ARC
  5
23F1
330
2
100
AcDbEntity
  8
0
100
AcDbCircle
 10
575.1340964195761
 20
339.8552626908637
 30
0.0
 40
0.5
100
AcDbArc
 50
270.0
 51
330.0000000000022
  0
LINE
  5
23F2
330
2
100
AcDbEntity
  8
0
100
AcDbLine
 10
572.4228287550564
 20
338.3552626908636
 30
0.0
 11
555.4228287550564
 21
338.3552626908636
 31
0.0
  0
LINE
  5
23F3
330
2
100
AcDbEntity
  8
0
100
AcDbLine
 10
555.4227143532858
 20
338.3552626908636
 30
0.0
 11
554.8453640840963
 21
339.3552626908637
 31
0.0
  0
LINE
  5
23F4
330
2
100
AcDbEntity
  8
0
100
AcDbLine
 10
572.4228287550564
 20
338.3552626908636
 30
0.0
 11
573.000179024246
 21
339.3552626908637
 31
0.0
  0
LINE
  5
23F5
330
2
100
AcDbEntity
  8
0
100
AcDbLine
 10
593.9227715541711
 20
358.3552626908647
 30
0.0
 11
593.9227715541711
 21
353.3552626908647
 31
0.0
  0
ARC
  5
23F6
330
2
100
AcDbEntity
  8
0
100
AcDbCircle
 10
590.3081191071761
 20
351.355262690865
 30
0.0
 40
2.0
100
AcDbArc
 50
90.0
 51
177.9999999999962
  0
ARC
  5
23F7
330
2
100
AcDbEntity
  8
0
100
AcDbCircle
 10
585.9913940045554
 20
342.355262690865
 30
0.0
 40
2.0
100
AcDbArc
 50
270.0
 51
357.9999999999962
  0
LINE
  5
23F8
330
2
100
AcDbEntity
  8
0
100
AcDbLine
 10
588.3093374531382
 20
351.4250616842699
 30
0.0
 11
587.9901756585933
 21
342.2854636974601
 31
0.0
  0
ARC
  5
23F9
330
2
100
AcDbEntity
  8
0
100
AcDbCircle
 10
613.3710852916502
 20
365.855262690865
 30
0.0
 40
3.0
100
AcDbArc
 50
53.1301023542602
 51
90.0
  0
ARC
  5
23FA
330
2
100
AcDbEntity
  8
0
100
AcDbCircle
 10
611.3431854076235
 20
370.8552626908647
 30
0.0
 40
3.0
100
AcDbArc
 50
1.499999999989629
 51
90.0
  0
ARC
  5
23FB
330
2
100
AcDbEntity
  8
0
100
AcDbCircle
 10
616.3710852916457
 20
369.8552626908686
 30
0.0
 40
2.0
100
AcDbArc
 50
181.4999999999896
 51
270.0
  0
ARC
  5
23FC
330
2
100
AcDbEntity
  8
0
100
AcDbCircle
 10
602.4667163217087
 20
365.8552626908647
 30
0.0
 40
3.0
100
AcDbArc
 50
90.0
 51
179.5000000000084
  0
ARC
  5
23FD
330
2
100
AcDbEntity
  8
0
100
AcDbCircle
 10
602.5103506606625
 20
370.8552626908647
 30
0.0
 40
3.0
100
AcDbArc
 50
90.0
 51
179.5000000000084
  0
LINE
  5
23FE
330
2
100
AcDbEntity
  8
0
100
AcDbLine
 10
602.4667163217087
 20
368.8552626908647
 30
0.0
 11
613.3710852916502
 21
368.8552626908649
 31
0.0
  0
LINE
  5
23FF
330
2
100
AcDbEntity
  8
0
100
AcDbLine
 10
602.5103506606625
 20
373.8552626908647
 30
0.0
 11
611.3431854076235
 21
373.8552626908647
 31
0.0
  0
LINE
  5
2400
330
2
100
AcDbEntity
  8
0
100
AcDbLine
 10
616.371085296014
 20
367.855262690865
 30
0.0
 11
620.8039065296362
 21
367.855262690865
 31
0.0
  0
ARC
  5
2401
330
2
100
AcDbEntity
  8
0
100
AcDbCircle
 10
620.8039065296362
 20
364.8552626908649
 30
0.0
 40
3.0
100
AcDbArc
 50
1.500000000015675
 51
90.0
  0
ARC
  5
2402
330
2
100
AcDbEntity
  8
0
100
AcDbCircle
 10
625.871085296014
 20
362.3552626908649
 30
0.0
 40
2.0
100
AcDbArc
 50
181.5000000000157
 51
270.0
  0
LINE
  5
2403
330
2
100
AcDbEntity
  8
0
100
AcDbLine
 10
625.871085296014
 20
360.3552626908649
 30
0.0
 11
635.9227715498019
 21
360.3552626908649
 31
0.0
  0
LINE
  5
2404
330
2
100
AcDbEntity
  8
CENTER
100
AcDbLine
 10
563.9227715541716
 20
444.3552626911584
 30
0.0
 11
563.9227715541716
 21
298.3552626908638
 31
0.0
  0
LINE
  5
2406
330
2
100
AcDbEntity
  8
0
100
AcDbLine
 10
590.672771554162
 20
425.8552626911638
 30
0.0
 11
537.1727715541793
 21
425.8552626911638
 31
0.0
  0
LINE
  5
2407
330
2
100
AcDbEntity
  8
0
100
AcDbLine
 10
599.172771554162
 20
423.8552626911635
 30
0.0
 11
528.6727715541802
 21
423.855262691164
 31
0.0
  0
LINE
  5
2409
330
2
100
AcDbEntity
  8
0
100
AcDbLine
 10
588.9227715541657
 20
426.3552626911646
 30
0.0
 11
538.9227715541712
 21
426.3552626911589
 31
0.0
  0
LINE
  5
240B
330
2
100
AcDbEntity
  8
0
100
AcDbLine
 10
527.9227715541711
 20
417.3552626911597
 30
0.0
 11
599.549507330562
 21
417.3552626911581
 31
0.0
  0
LINE
  5
240C
330
2
100
AcDbEntity
  8
0
100
AcDbLine
 10
586.345421284983
 20
434.355262691159
 30
0.0
 11
541.5001218233584
 21
434.3552626911578
 31
0.0
  0
LINE
  5
240D
330
2
100
AcDbEntity
  8
0
100
AcDbLine
 10
541.12277155417
 20
431.8552626911596
 30
0.0
 11
586.7227715541713
 21
431.8552626911078
 31
0.0
  0
LINE
  5
240E
330
2
100
AcDbEntity
  8
0
100
AcDbLine
 10
541.12277155417
 20
429.8552626911594
 30
0.0
 11
586.7227715541713
 21
429.8552626911592
 31
0.0
  0
LINE
  5
240F
330
2
100
AcDbEntity
  8
0
100
AcDbLine
 10
547.3951760341861
 20
416.8552626908647
 30
0.0
 11
547.3951760341861
 21
359.8552246139291
 31
0.0
  0
LINE
  5
2410
330
2
100
AcDbEntity
  8
0
100
AcDbLine
 10
532.9227715541711
 20
416.8552626908647
 30
0.0
 11
532.9227715541711
 21
359.8552246139291
 31
0.0
  0
LINE
  5
2411
330
2
100
AcDbEntity
  8
0
100
AcDbLine
 10
535.9227715541711
 20
416.8552626908647
 30
0.0
 11
535.9227715541711
 21
359.8552246139291
 31
0.0
  0
LINE
  5
2412
330
2
100
AcDbEntity
  8
0
100
AcDbLine
 10
527.9227715541711
 20
417.3552626911597
 30
0.0
 11
528.4376567538275
 21
358.3552626908647
 31
0.0
  0
LINE
  5
2413
330
2
100
AcDbEntity
  8
HIDS
100
AcDbLine
 10
537.1727715541793
 20
425.8552626911638
 30
0.0
 11
534.2511986789169
 21
425.8552626911638
 31
0.0
  0
LINE
  5
2414
330
2
100
AcDbEntity
  8
0
100
AcDbLine
 10
536.6531563119089
 20
430.1552626911593
 30
0.0
 11
529.1923867964507
 21
430.1552626911593
 31
0.0
  0
LINE
  5
2415
330
2
100
AcDbEntity
  8
0
100
AcDbLine
 10
528.6727715541793
 20
429.8552626911592
 30
0.0
 11
529.1923867964507
 21
430.1552626911593
 31
0.0
  0
LINE
  5
2416
330
2
100
AcDbEntity
  8
0
100
AcDbLine
 10
537.1727715541793
 20
429.8552626911592
 30
0.0
 11
536.6531563119089
 21
430.1552626911593
 31
0.0
  0
LINE
  5
2417
330
2
100
AcDbEntity
  8
0
100
AcDbLine
 10
537.1727715541793
 20
429.8552626911592
 30
0.0
 11
528.6727715541793
 21
429.8552626911592
 31
0.0
  0
LINE
  5
2418
330
2
100
AcDbEntity
  8
0
100
AcDbLine
 10
537.1727715541793
 20
425.1552626911593
 30
0.0
 11
528.6727715541793
 21
425.1552626911593
 31
0.0
  0
LINE
  5
2419
330
2
100
AcDbEntity
  8
0
100
AcDbLine
 10
537.1727715541793
 20
429.8552626911592
 30
0.0
 11
537.1727715541793
 21
423.8552626911594
 31
0.0
  0
LINE
  5
241A
330
2
100
AcDbEntity
  8
0
100
AcDbLine
 10
528.6727715541793
 20
429.8552626911592
 30
0.0
 11
528.6727715541802
 21
423.855262691164
 31
0.0
  0
ARC
  5
241B
330
2
100
AcDbEntity
  8
HIDS
100
AcDbCircle
 10
530.5943444294245
 20
425.8552626911638
 30
0.0
 40
2.0
100
AcDbArc
 50
270.0
 51
314.999999999993
  0
ARC
  5
241C
330
2
100
AcDbEntity
  8
HIDS
100
AcDbCircle
 10
534.2511986789169
 20
423.8552626911637
 30
0.0
 40
2.0
100
AcDbArc
 50
90.0
 51
134.999999999993
  0
ARC
  5
241D
330
2
100
AcDbEntity
  8
0
100
AcDbCircle
 10
528.9708074054052
 20
422.855262691164
 30
0.0
 40
1.0
100
AcDbArc
 50
90.0
 51
179.5000000000084
  0
LINE
  5
241E
330
2
100
AcDbEntity
  8
HIDS
100
AcDbLine
 10
532.8369851165436
 20
425.2694762535369
 30
0.0
 11
532.0085579917978
 21
424.4410491287906
 31
0.0
  0
ARC
  5
241F
330
2
100
AcDbEntity
  8
0
100
AcDbCircle
 10
541.4227715541702
 20
430.0552626911595
 30
0.0
 40
0.2
100
AcDbArc
 50
270.0
 51
0.0
  0
ARC
  5
2420
330
2
100
AcDbEntity
  8
0
100
AcDbCircle
 10
541.4227715541702
 20
431.6552626911591
 30
0.0
 40
0.2
100
AcDbArc
 50
0.0
 51
89.99999999994789
  0
ARC
  5
2421
330
2
100
AcDbEntity
  8
0
100
AcDbCircle
 10
541.12277155417
 20
432.0552626911594
 30
0.0
 40
0.2
100
AcDbArc
 50
180.0
 51
269.9999999999478
  0
LINE
  5
2422
330
2
100
AcDbEntity
  8
0
100
AcDbLine
 10
540.9227715541693
 20
433.3552626911594
 30
0.0
 11
540.9227715541702
 21
432.0552626911594
 31
0.0
  0
LINE
  5
2423
330
2
100
AcDbEntity
  8
0
100
AcDbLine
 10
540.9227715541693
 20
433.3552626911592
 30
0.0
 11
541.5001218233593
 21
434.3552626911594
 31
0.0
  0
LINE
  5
2424
330
2
100
AcDbEntity
  8
0
100
AcDbLine
 10
540.9227715541702
 20
429.6552626911593
 30
0.0
 11
540.9227715541711
 21
426.3552626911592
 31
0.0
  0
LINE
  5
2425
330
2
100
AcDbEntity
  8
0
100
AcDbLine
 10
541.12277155417
 20
429.8552626911594
 30
0.0
 11
540.9227715541702
 21
429.6552626911593
 31
0.0
  0
LINE
  5
2426
330
2
100
AcDbEntity
  8
0
100
AcDbLine
 10
541.62277155417
 20
431.6552626911594
 30
0.0
 11
541.62277155417
 21
430.0552626911595
 31
0.0
  0
LINE
  5
2427
330
2
100
AcDbEntity
  8
0
100
AcDbLine
 10
538.4227715541766
 20
425.8552626911642
 30
0.0
 11
537.1727715541793
 21
425.8552626911642
 31
0.0
  0
LINE
  5
2428
330
2
100
AcDbEntity
  8
0
100
AcDbLine
 10
538.4227715541711
 20
425.8552626911592
 30
0.0
 11
538.9227715541712
 21
426.3552626911589
 31
0.0
  0
LINE
  5
2429
330
2
100
AcDbEntity
  8
CENTER
  6
CENS
100
AcDbLine
 10
532.9227715541529
 20
433.1552626911594
 30
0.0
 11
532.9227715541529
 21
413.6065612105626
 31
0.0
  0
LINE
  5
242A
330
2
100
AcDbEntity
  8
0
100
AcDbLine
 10
535.9227715541575
 20
417.3552626911587
 30
0.0
 11
535.9227715541575
 21
422.8639892266622
 31
0.0
  0
LINE
  5
242B
330
2
100
AcDbEntity
  8
0
100
AcDbLine
 10
532.9227715541793
 20
417.3552626911587
 30
0.0
 11
532.9227715541793
 21
422.8639892266622
 31
0.0
  0
LINE
  5
242C
330
2
100
AcDbEntity
  8
0
100
AcDbLine
 10
527.9227715541711
 20
417.3552626911587
 30
0.0
 11
527.9708454823413
 21
422.8639892266622
 31
0.0
  0
LINE
  5
242D
330
2
100
AcDbEntity
  8
0
100
AcDbLine
 10
547.3951760341743
 20
417.3552626911587
 30
0.0
 11
547.3951760341743
 21
422.8639892266622
 31
0.0
  0
LINE
  5
242E
330
2
100
AcDbEntity
  8
0
100
AcDbLine
 10
599.7327715541711
 20
396.3552626906558
 30
0.0
 11
599.5495073305611
 21
417.3552626911587
 31
0.0
  0
LINE
  5
242F
330
2
100
AcDbEntity
  8
0
100
AcDbLine
 10
591.9358645149469
 20
417.3552626911581
 30
0.0
 11
592.4602684138537
 21
397.329085742557
 31
0.0
  0
LINE
  5
2430
330
2
100
AcDbEntity
  8
0
100
AcDbLine
 10
614.3717706416947
 20
422.9076165874769
 30
0.0
 11
613.6764727850805
 21
396.355262690865
 31
0.0
  0
LINE
  5
2431
330
2
100
AcDbEntity
  8
0
100
AcDbLine
 10
623.871770646063
 20
430.4076165874819
 30
0.0
 11
622.9800783776592
 21
396.355262690865
 31
0.0
  0
LINE
  5
2432
330
2
100
AcDbEntity
  8
0
100
AcDbLine
 10
580.4503670741543
 20
416.8552626908647
 30
0.0
 11
580.4503670741543
 21
359.8552246139291
 31
0.0
  0
ARC
  5
2434
330
2
100
AcDbEntity
  8
0
100
AcDbCircle
 10
610.8194669762379
 20
390.855262690865
 30
0.0
 40
3.0
100
AcDbArc
 50
1.500000000015675
 51
90.0
  0
LINE
  5
2435
330
2
100
AcDbEntity
  8
0
100
AcDbLine
 10
614.3717706416947
 20
369.802908794253
 30
0.0
 11
613.6764727850805
 21
396.355262690865
 31
0.0
  0
ARC
  5
2436
330
2
100
AcDbEntity
  8
0
100
AcDbCircle
 10
602.6848880164776
 20
390.8552626908647
 30
0.0
 40
3.0
100
AcDbArc
 50
90.0
 51
179.5000000000084
  0
LINE
  5
2437
330
2
100
AcDbEntity
  8
0
100
AcDbLine
 10
602.6916237928709
 20
393.8552626908647
 30
0.0
 11
610.8194669762379
 21
393.8552626908649
 31
0.0
  0
ARC
  5
2438
330
2
100
AcDbEntity
  8
0
100
AcDbCircle
 10
593.4599257388291
 20
397.355262690865
 30
0.0
 40
1.0
100
AcDbArc
 50
181.5000000000157
 51
270.0
  0
LINE
  5
2439
330
2
100
AcDbEntity
  8
0
100
AcDbLine
 10
599.7327715541711
 20
396.3552626910741
 30
0.0
 11
599.401150578121
 21
358.3552626908638
 31
0.0
  0
LINE
  5
243A
330
2
100
AcDbEntity
  8
0
100
AcDbLine
 10
594.9227715541693
 20
396.355262690865
 30
0.0
 11
594.9227715541711
 21
359.8552246139291
 31
0.0
  0
LINE
  5
243B
330
2
100
AcDbEntity
  8
0
100
AcDbLine
 10
591.9227715541711
 20
396.355262690865
 30
0.0
 11
591.9227715541711
 21
359.8552246139291
 31
0.0
  0
LINE
  5
243C
330
2
100
AcDbEntity
  8
0
100
AcDbLine
 10
622.9800783776592
 20
396.355262690865
 30
0.0
 11
635.9227715498019
 21
396.355262690865
 31
0.0
  0
LINE
  5
243D
330
2
100
AcDbEntity
  8
0
100
AcDbLine
 10
623.871770646063
 20
362.302908794248
 30
0.0
 11
622.9800783776592
 21
396.355262690865
 31
0.0
  0
ARC
  5
243E
330
2
100
AcDbEntity
  8
0
100
AcDbCircle
 10
616.3710852916457
 20
422.8552626908613
 30
0.0
 40
2.0
100
AcDbArc
 50
90.0
 51
178.5000000000103
  0
ARC
  5
243F
330
2
100
AcDbEntity
  8
0
100
AcDbCircle
 10
610.8194669762379
 20
401.855262690865
 30
0.0
 40
3.0
100
AcDbArc
 50
270.0
 51
358.4999999999843
  0
ARC
  5
2440
330
2
100
AcDbEntity
  8
0
100
AcDbCircle
 10
611.2908135644858
 20
419.8552626909513
 30
0.0
 40
3.0
100
AcDbArc
 50
270.0
 51
358.4999999999843
  0
ARC
  5
2441
330
2
100
AcDbEntity
  8
0
100
AcDbCircle
 10
586.4227715541711
 20
430.0552626911595
 30
0.0
 40
0.2
100
AcDbArc
 50
180.0
 51
270.0
  0
ARC
  5
2442
330
2
100
AcDbEntity
  8
0
100
AcDbCircle
 10
586.4227715541711
 20
431.6552626911591
 30
0.0
 40
0.2
100
AcDbArc
 50
90.00000000005213
 51
180.0
  0
ARC
  5
2443
330
2
100
AcDbEntity
  8
0
100
AcDbCircle
 10
586.7227715541713
 20
432.0552626911594
 30
0.0
 40
0.2
100
AcDbArc
 50
269.9999999999478
 51
359.9999999999739
  0
LINE
  5
2444
330
2
100
AcDbEntity
  8
0
100
AcDbLine
 10
586.9227715541711
 20
433.3552626911594
 30
0.0
 11
586.9227715541711
 21
432.0552626911594
 31
0.0
  0
LINE
  5
2445
330
2
100
AcDbEntity
  8
0
100
AcDbLine
 10
586.9227715541711
 20
433.3552626911592
 30
0.0
 11
586.3454212849821
 21
434.3552626911594
 31
0.0
  0
LINE
  5
2446
330
2
100
AcDbEntity
  8
0
100
AcDbLine
 10
586.9227715541711
 20
429.6552626911593
 30
0.0
 11
586.9227715541711
 21
426.3552626911592
 31
0.0
  0
LINE
  5
2447
330
2
100
AcDbEntity
  8
0
100
AcDbLine
 10
586.7227715541713
 20
429.8552626911592
 30
0.0
 11
586.9227715541711
 21
429.6552626911593
 31
0.0
  0
LINE
  5
2448
330
2
100
AcDbEntity
  8
0
100
AcDbLine
 10
586.2227715541713
 20
431.6552626911594
 30
0.0
 11
586.2227715541713
 21
430.0552626911595
 31
0.0
  0
ARC
  5
2449
330
2
100
AcDbEntity
  8
0
100
AcDbCircle
 10
598.5047357029363
 20
422.8552626911635
 30
0.0
 40
1.0
100
AcDbArc
 50
0.4999999999915751
 51
90.0
  0
LINE
  5
244A
330
2
100
AcDbEntity
  8
HIDS
100
AcDbLine
 10
593.5943444294244
 20
425.8552626911642
 30
0.0
 11
590.672771554162
 21
425.8552626911638
 31
0.0
  0
LINE
  5
244B
330
2
100
AcDbEntity
  8
0
100
AcDbLine
 10
591.1923867964325
 20
430.1552626911593
 30
0.0
 11
598.6531563118916
 21
430.1552626911593
 31
0.0
  0
LINE
  5
244C
330
2
100
AcDbEntity
  8
0
100
AcDbLine
 10
599.172771554162
 20
429.8552626911592
 30
0.0
 11
598.6531563118916
 21
430.1552626911593
 31
0.0
  0
LINE
  5
244D
330
2
100
AcDbEntity
  8
0
100
AcDbLine
 10
590.672771554162
 20
429.8552626911592
 30
0.0
 11
591.1923867964325
 21
430.1552626911593
 31
0.0
  0
LINE
  5
244E
330
2
100
AcDbEntity
  8
0
100
AcDbLine
 10
590.672771554162
 20
429.8552626911592
 30
0.0
 11
599.172771554162
 21
429.8552626911592
 31
0.0
  0
LINE
  5
244F
330
2
100
AcDbEntity
  8
0
100
AcDbLine
 10
590.672771554162
 20
425.1552626911593
 30
0.0
 11
599.172771554162
 21
425.1552626911593
 31
0.0
  0
LINE
  5
2450
330
2
100
AcDbEntity
  8
0
100
AcDbLine
 10
590.672771554162
 20
429.8552626911592
 30
0.0
 11
590.672771554162
 21
423.8552626911594
 31
0.0
  0
LINE
  5
2451
330
2
100
AcDbEntity
  8
0
100
AcDbLine
 10
599.172771554162
 20
429.8552626911592
 30
0.0
 11
599.172771554162
 21
423.8552626911635
 31
0.0
  0
ARC
  5
2452
330
2
100
AcDbEntity
  8
HIDS
100
AcDbCircle
 10
597.2511986789169
 20
425.8552626911642
 30
0.0
 40
2.0
100
AcDbArc
 50
225.0000000000069
 51
270.0
  0
ARC
  5
2453
330
2
100
AcDbEntity
  8
HIDS
100
AcDbCircle
 10
593.5943444294244
 20
423.8552626911642
 30
0.0
 40
2.0
100
AcDbArc
 50
45.0000000000069
 51
90.0
  0
ARC
  5
2454
330
2
100
AcDbEntity
  8
0
100
AcDbCircle
 10
598.9227715541711
 20
422.8552626911642
 30
0.0
 40
1.0
100
AcDbArc
 50
90.0
 51
90.0
  0
LINE
  5
2455
330
2
100
AcDbEntity
  8
0
100
AcDbLine
 10
589.4227715541702
 20
425.8552626911592
 30
0.0
 11
588.9227715541657
 21
426.3552626911646
 31
0.0
  0
LINE
  5
2456
330
2
100
AcDbEntity
  8
HIDS
100
AcDbLine
 10
595.0085579917978
 20
425.2694762535373
 30
0.0
 11
595.8369851165445
 21
424.4410491287911
 31
0.0
  0
ARC
  5
2457
330
2
100
AcDbEntity
  8
0
100
AcDbCircle
 10
602.6848880164772
 20
401.855262690865
 30
0.0
 40
3.0
100
AcDbArc
 50
180.4999999999915
 51
270.0
  0
LINE
  5
2458
330
2
100
AcDbEntity
  8
0
100
AcDbLine
 10
602.6848880164772
 20
398.855262690865
 30
0.0
 11
610.8194669762379
 21
398.855262690865
 31
0.0
  0
LINE
  5
2459
330
2
100
AcDbEntity
  8
0
100
AcDbLine
 10
611.2908135644866
 20
416.8552626909514
 30
0.0
 11
600.0495073307694
 21
416.8552626909507
 31
0.0
  0
LINE
  5
245A
330
2
100
AcDbEntity
  8
0
100
AcDbLine
 10
599.5495073305611
 20
417.3552626911587
 30
0.0
 11
600.0495073307694
 21
416.8552626909507
 31
0.0
  0
LINE
  5
245B
330
2
100
AcDbEntity
  8
CENTER
  6
CENS
100
AcDbLine
 10
594.9227715541884
 20
433.1552626911594
 30
0.0
 11
594.9227715541884
 21
413.6065612105626
 31
0.0
  0
LINE
  5
245C
330
2
100
AcDbEntity
  8
0
100
AcDbLine
 10
580.450367074167
 20
417.3552626911587
 30
0.0
 11
580.450367074167
 21
422.8639892266622
 31
0.0
  0
LINE
  5
245D
330
2
100
AcDbEntity
  8
0
100
AcDbLine
 10
599.5046976260002
 20
422.8639892266618
 30
0.0
 11
599.5527715541713
 21
417.3552626911578
 31
0.0
  0
LINE
  5
245E
330
2
100
AcDbEntity
  8
0
100
AcDbLine
 10
594.9227715541621
 20
417.3552626911587
 30
0.0
 11
594.9227715541884
 21
422.8639892266622
 31
0.0
  0
LINE
  5
245F
330
2
100
AcDbEntity
  8
0
100
AcDbLine
 10
591.9227715541839
 20
417.3552626911587
 30
0.0
 11
591.9227715541839
 21
422.8639892266622
 31
0.0
  0
LINE
  5
2460
330
2
100
AcDbEntity
  8
0
100
AcDbLine
 10
616.371085296014
 20
424.855262690865
 30
0.0
 11
620.8039065296362
 21
424.855262690865
 31
0.0
  0
ARC
  5
2461
330
2
100
AcDbEntity
  8
0
100
AcDbCircle
 10
620.8039065296362
 20
427.8552626908649
 30
0.0
 40
3.0
100
AcDbArc
 50
270.0
 51
358.4999999999843
  0
ARC
  5
2462
330
2
100
AcDbEntity
  8
0
100
AcDbCircle
 10
625.871085296014
 20
430.355262690865
 30
0.0
 40
2.0
100
AcDbArc
 50
90.0
 51
178.4999999999843
  0
LINE
  5
2463
330
2
100
AcDbEntity
  8
0
100
AcDbLine
 10
625.871085296014
 20
432.3552626908649
 30
0.0
 11
635.9227715498019
 21
432.3552626908649
 31
0.0
  0
CIRCLE
  5
2E94
330
2
100
AcDbEntity
  8
0
100
AcDbCircle
 10
563.9227715541706
 20
110.7422955680996
 30
0.0
 40
19.5774
  0
ENDSEC
  0
SECTION
  2
OBJECTS
  0
DICTIONARY
  5
7
330
0
100
AcDbDictionary
  3
ACAD_COLOR
350
1D31
  3
ACAD_GROUP
350
75
  3
ACAD_LAYOUT
350
61
  3
ACAD_MATERIAL
350
1D07
  3
ACAD_MLEADERSTYLE
350
1D56
  3
ACAD_MLINESTYLE
350
76
  3
ACAD_PLOTSETTINGS
350
77
  3
ACAD_PLOTSTYLENAME
350
6
  3
ACAD_SCALELIST
350
1D34
  3
ACAD_TABLESTYLE
350
1D32
  3
ACAD_VISUALSTYLE
350
1D20
  3
ACADDIM
350
480
  3
ACDB_RECOMPOSE_DATA
350
1D7A
  3
ACDBHEADERROUNDTRIPXREC
350
2ED7
  3
ACDBVARIABLEDICTIONARY
350
102
  3
DWGPROPS
350
2EA4
  0
DICTIONARY
  5
1D83
330
6E
100
AcDbDictionary
280
     1
  3
ACAD_XREC_ROUNDTRIP
360
2EAB
  0
DICTIONARY
  5
AE5
330
66
100
AcDbDictionary
280
     1
  3
ACAD_LAYERSTATES
360
AE6
  0
DICTIONARY
  5
1D66
330
5E
100
AcDbDictionary
280
     1
  3
ACAD_XREC_ROUNDTRIP
360
2EA7
  3
ADSK_XREC_LAYER_RECONCILED
360
1D67
  0
DICTIONARY
  5
1D68
330
3E
100
AcDbDictionary
280
     1
  3
ACAD_XREC_ROUNDTRIP
360
2EA6
  3
ADSK_XREC_LAYER_RECONCILED
360
1D69
  0
DICTIONARY
  5
1D6E
330
2B5
100
AcDbDictionary
280
     1
  3
ACAD_XREC_ROUNDTRIP
360
2EB1
  3
ADSK_XREC_LAYER_RECONCILED
360
1D6F
  0
DICTIONARY
  5
1D70
330
2BA
100
AcDbDictionary
280
     1
  3
ACAD_XREC_ROUNDTRIP
360
2EB2
  3
ADSK_XREC_LAYER_RECONCILED
360
1D71
  0
DICTIONARY
  5
1D74
330
3FA
100
AcDbDictionary
280
     1
  3
ACAD_XREC_ROUNDTRIP
360
2EB4
  3
ADSK_XREC_LAYER_RECONCILED
360
1D75
  0
DICTIONARY
  5
2EF8
330
2
100
AcDbDictionary
280
     1
  3
ACAD_LAYOUTSELFREF
360
2EF9
  0
DICTIONARY
  5
2EFA
330
2ED1
100
AcDbDictionary
280
     1
  3
ACAD_LAYOUTSELFREF
360
2EFB
  0
DICTIONARY
  5
1D31
102
{ACAD_REACTORS
330
7
102
}
330
7
100
AcDbDictionary
  0
DICTIONARY
  5
75
102
{ACAD_REACTORS
330
7
102
}
330
7
100
AcDbDictionary
  0
DICTIONARY
  5
61
102
{ACAD_REACTORS
330
7
102
}
330
7
100
AcDbDictionary
  0
DICTIONARY
  5
1D07
102
{ACAD_REACTORS
330
7
102
}
330
7
100
AcDbDictionary
  3
BYBLOCK
350
1D10
  3
BYLAYER
350
1D08
  3
GLOBAL
350
1D18
  0
DICTIONARY
  5
1D56
102
{ACAD_REACTORS
330
7
102
}
330
7
100
AcDbDictionary
  3
STANDARD
350
1D57
  0
DICTIONARY
  5
76
102
{ACAD_REACTORS
330
7
102
}
330
7
100
AcDbDictionary
  3
STANDARD
350
78
  0
DICTIONARY
  5
77
102
{ACAD_REACTORS
330
7
102
}
330
7
100
AcDbDictionary
  0
ACDBDICTIONARYWDFLT
  5
6
102
{ACAD_REACTORS
330
7
102
}
330
7
100
AcDbDictionary
281
     1
  3
Normal
350
5
100
AcDbDictionaryWithDefault
340
5
  0
DICTIONARY
  5
1D34
102
{ACAD_REACTORS
330
7
102
}
330
7
100
AcDbDictionary
  3
A0
350
1D35
  3
A1
350
1D36
  3
A2
350
1D37
  3
A3
350
1D38
  3
A4
350
1D39
  3
A5
350
1D3A
  3
A6
350
1D3B
  3
A7
350
1D3C
  3
A8
350
1D3D
  3
A9
350
1D3E
  3
B0
350
1D3F
  3
B1
350
1D40
  3
B2
350
1D41
  3
B3
350
1D42
  3
B4
350
1D43
  3
B5
350
1D44
  3
B6
350
1D45
  3
B7
350
1D46
  3
B8
350
1D47
  3
B9
350
1D48
  3
C0
350
1D49
  3
C1
350
1D4A
  3
C2
350
1D4B
  3
C3
350
1D4C
  3
C4
350
1D4D
  3
C5
350
1D4E
  3
C6
350
1D4F
  3
C7
350
1D50
  3
C8
350
1D51
  3
C9
350
1D52
  3
D0
350
1D53
  3
D1
350
1D54
  3
D2
350
1D55
  0
DICTIONARY
  5
1D32
102
{ACAD_REACTORS
330
7
102
}
330
7
100
AcDbDictionary
  3
STANDARD
350
1D33
  0
DICTIONARY
  5
1D20
102
{ACAD_REACTORS
330
7
102
}
330
7
100
AcDbDictionary
  3
2DWIREFRAME
350
1D26
  3
3D_HIDDEN
350
1D28
  3
3DWIREFRAME
350
1D27
  3
BASIC
350
1D25
  3
BRIGHTEN
350
1D2C
  3
COLORCHANGE
350
1D30
  3
CONCEPTUAL
350
1D29
  3
DIM
350
1D2B
  3
FACEPATTERN
350
1D2F
  3
FLAT
350
1D21
  3
FLATWITHEDGES
350
1D22
  3
GOURAUD
350
1D23
  3
GOURAUDWITHEDGES
350
1D24
  3
LINEPATTERN
350
1D2E
  3
REALISTIC
350
1D2A
  3
THICKEN
350
1D2D
  0
XRECORD
  5
480
102
{ACAD_REACTORS
330
7
102
}
330
7
100
AcDbXrecord
 90
   990106
  3

 60
     0
 61
     0
 62
     1
 63
     3
 64
     1
 65
     0
 66
     0
 67
     3
 68
     1
 69
     0
 70
     0
 71
     0
 72
     0
 40
0.0
170
     2
340
0
  0
XRECORD
  5
1D7A
102
{ACAD_REACTORS
330
7
102
}
330
7
100
AcDbXrecord
 90
        1
330
1D33
  0
DICTIONARY
  5
2ED7
102
{ACAD_REACTORS
330
7
102
}
330
7
100
AcDbDictionary
  3
CEPSNTYPE
350
2EE1
  3
DIMSTYLEDATA
350
2EE5
  3
FINGERPRINTGUID
350
2EE2
  3
HYPERLINKBASE
350
2EDA
  3
INSUNITS
350
2EE0
  3
LAYOUTDICT
350
2EDC
  3
LWETCUNION
350
2EDF
  3
PLOTSETDICT
350
2EDD
  3
PLOTSTYLNAMDICT
350
2EDE
  3
PSVPSCALE
350
2EE4
  3
PUCSBASE
350
2EE8
  3
PUCSORGBACK
350
2EEE
  3
PUCSORGBOTTOM
350
2EEA
  3
PUCSORGFRONT
350
2EED
  3
PUCSORGLEFT
350
2EEB
  3
PUCSORGRIGHT
350
2EEC
  3
PUCSORGTOP
350
2EE9
  3
PUCSORTHOREF
350
2EE6
  3
PUCSORTHOVIEW
350
2EE7
  3
STYLESHEET
350
2EDB
  3
TSTACKALIGN
350
2ED8
  3
TSTACKSIZE
350
2ED9
  3
UCSBASE
350
2EF1
  3
UCSORGBACK
350
2EF7
  3
UCSORGBOTTOM
350
2EF3
  3
UCSORGFRONT
350
2EF6
  3
UCSORGLEFT
350
2EF4
  3
UCSORGRIGHT
350
2EF5
  3
UCSORGTOP
350
2EF2
  3
UCSORTHOREF
350
2EEF
  3
UCSORTHOVIEW
350
2EF0
  3
VERSIONGUID
350
2EE3
  0
DICTIONARY
  5
102
102
{ACAD_REACTORS
330
7
102
}
330
7
100
AcDbDictionary
  3
CANNOSCALE
350
1D9B
  3
CMLEADERSTYLE
350
1D9A
  3
CTABLESTYLE
350
1D99
  3
DIMASSOC
350
103
  3
INDEXCTL
350
1D9C
  3
SORTENTS
350
549
  0
XRECORD
  5
2EA4
102
{ACAD_REACTORS
330
7
102
}
330
7
100
AcDbXrecord
  1
DWGPROPS COOKIE
  2

  3

  4

  6

  7

  8
ymorima
  9

300
=
301
=
302
=
303
=
304
=
305
=
306
=
307
=
308
=
309
=
 40
0.081530462962963
 41
2454410.557961331
 42
2454425.723118669
  1

 90
        0
  0
XRECORD
  5
2EAB
102
{ACAD_REACTORS
330
1D83
102
}
330
1D83
100
AcDbXrecord
102
VTR_0.000_0.000_1.000_1.000_VISUALSTYLE
340
1D26
102
VTR_0.000_0.000_1.000_1.000_GRIDDISPLAY
 70
     3
102
VTR_0.000_0.000_1.000_1.000_GRIDMAJOR
 70
     5
102
VTR_0.000_0.000_1.000_1.000_DEFAULTLIGHTING
280
     1
102
VTR_0.000_0.000_1.000_1.000_DEFAULTLIGHTINGTYPE
 70
     1
102
VTR_0.000_0.000_1.000_1.000_BRIGHTNESS
141
0.0
102
VTR_0.000_0.000_1.000_1.000_CONTRAST
142
0.0
  0
DICTIONARY
  5
AE6
102
{ACAD_REACTORS
330
AE5
102
}
330
AE5
100
AcDbDictionary
  0
XRECORD
  5
2EA7
102
{ACAD_REACTORS
330
1D66
102
}
330
1D66
100
AcDbXrecord
102
MATERIAL
340
1D18
  0
XRECORD
  5
1D67
102
{ACAD_REACTORS
330
1D66
102
}
330
1D66
100
AcDbXrecord
290
     1
  0
XRECORD
  5
2EA6
102
{ACAD_REACTORS
330
1D68
102
}
330
1D68
100
AcDbXrecord
102
MATERIAL
340
1D18
  0
XRECORD
  5
1D69
102
{ACAD_REACTORS
330
1D68
102
}
330
1D68
100
AcDbXrecord
290
     1
  0
XRECORD
  5
2EB1
102
{ACAD_REACTORS
330
1D6E
102
}
330
1D6E
100
AcDbXrecord
102
MATERIAL
340
1D18
  0
XRECORD
  5
1D6F
102
{ACAD_REACTORS
330
1D6E
102
}
330
1D6E
100
AcDbXrecord
290
     1
  0
XRECORD
  5
2EB2
102
{ACAD_REACTORS
330
1D70
102
}
330
1D70
100
AcDbXrecord
102
MATERIAL
340
1D18
  0
XRECORD
  5
1D71
102
{ACAD_REACTORS
330
1D70
102
}
330
1D70
100
AcDbXrecord
290
     1
  0
XRECORD
  5
2EB4
102
{ACAD_REACTORS
330
1D74
102
}
330
1D74
100
AcDbXrecord
102
MATERIAL
340
1D18
  0
XRECORD
  5
1D75
102
{ACAD_REACTORS
330
1D74
102
}
330
1D74
100
AcDbXrecord
290
     1
  0
XRECORD
  5
2EF9
102
{ACAD_REACTORS
330
2EF8
102
}
330
2EF8
100
AcDbXrecord
340
2
  0
XRECORD
  5
2EFB
102
{ACAD_REACTORS
330
2EFA
102
}
330
2EFA
100
AcDbXrecord
340
2ED1
  0
ACAD_PROXY_OBJECT
  5
1D10
102
{ACAD_XDICTIONARY
360
1D11
102
}
102
{ACAD_REACTORS
330
1D07
102
}
330
1D07
100
AcDbProxyObject
 90
      499
 91
      510
 93
     1340
310
42109E509B1BD8DAC02004014080404555555555555953FAA155555555555654FEA9AA400014080404555555555555953FAA155555555555654FEA9AA400000000000000E03F4080404555555555555953FAA155555555555654FEA9AA4014080404555555555555953FAA155555555555654FEA9AA4010201011555555555
310
55654FEA8555555555555953FAA6A9005020101155555555555654FEA8555555555555953FAA6A9000
 94
        0
1001
ACAD
1000
AcadProxyRoundTripData
1071
      504
1071
   655383
1070
     0
  0
ACAD_PROXY_OBJECT
  5
1D08
102
{ACAD_XDICTIONARY
360
1D09
102
}
102
{ACAD_REACTORS
330
1D07
102
}
330
1D07
100
AcDbProxyObject
 90
      499
 91
      510
 93
     1340
310
42109E53185E595C802004014080404555555555555953FAA155555555555654FEA9AA400014080404555555555555953FAA155555555555654FEA9AA400000000000000E03F4080404555555555555953FAA155555555555654FEA9AA4014080404555555555555953FAA155555555555654FEA9AA4010201011555555555
310
55654FEA8555555555555953FAA6A9005020101155555555555654FEA8555555555555953FAA6A9000
 94
        0
1001
ACAD
1000
AcadProxyRoundTripData
1071
      504
1071
   655383
1070
     0
  0
ACAD_PROXY_OBJECT
  5
1D18
102
{ACAD_XDICTIONARY
360
1D19
102
}
102
{ACAD_REACTORS
330
1D07
102
}
330
1D07
100
AcDbProxyObject
 90
      499
 91
      510
 93
     1332
310
41D1DB1BD8985B002004014080404555555555555953FAA155555555555654FEA9AA400014080404555555555555953FAA155555555555654FEA9AA400000000000000E03F4080404555555555555953FAA155555555555654FEA9AA4014080404555555555555953FAA155555555555654FEA9AA401020101155555555555
310
654FEA8555555555555953FAA6A9005020101155555555555654FEA8555555555555953FAA6A9002
 94
        0
1001
ACAD
1000
AcadProxyRoundTripData
1071
      504
1071
   655383
1070
     0
  0
ACAD_PROXY_OBJECT
  5
1D57
102
{ACAD_REACTORS
330
1D56
102
}
330
1D56
100
AcDbProxyObject
 90
      499
 91
      510
 93
      618
310
40901902A4063FBFFFFFE056BD1B81E855B9FC0AD7A3703D0AD73F4254DD185B99185C990000AD7A3703D0AC73F90141901A02B5E8DC0F42B1CFC02B5E8DC0F42B1CFE5764000000000000300FC6
340
6A
340
0
340
16
340
0
 94
        0
1001
ACAD_MLEADERVER
1070
     2
1001
ACAD
1000
AcadProxyRoundTripData
1071
      508
1071
   655383
1070
     0
  0
MLINESTYLE
  5
78
102
{ACAD_REACTORS
330
76
102
}
330
76
100
AcDbMlineStyle
  2
STANDARD
 70
     0
  3

 62
     0
 51
90.0
 52
90.0
 71
     2
 49
0.5
 62
   256
  6
BYLAYER
 49
-0.5
 62
   256
  6
BYLAYER
  0
ACDBPLACEHOLDER
  5
5
102
{ACAD_REACTORS
330
6
102
}
330
6
100
AcDbPlaceHolder
280
     0
  0
ACAD_PROXY_OBJECT
  5
1D35
102
{ACAD_REACTORS
330
1D34
102
}
330
1D34
100
AcDbProxyObject
 90
      499
 91
      510
 93
       49
310
904313A3100598
 94
        0
1001
ACAD
1000
AcadProxyRoundTripData
1071
      507
1071
   655383
1070
     0
  0
ACAD_PROXY_OBJECT
  5
1D36
102
{ACAD_REACTORS
330
1D34
102
}
330
1D34
100
AcDbProxyObject
 90
      499
 91
      510
 93
      113
310
904313A3200400000000000000406B
 94
        0
1001
ACAD
1000
AcadProxyRoundTripData
1071
      507
1071
   655383
1070
     0
  0
ACAD_PROXY_OBJECT
  5
1D37
102
{ACAD_REACTORS
330
1D34
102
}
330
1D34
100
AcDbProxyObject
 90
      499
 91
      510
 93
      113
310
904313A3400400000000000010406B
 94
        0
1001
ACAD
1000
AcadProxyRoundTripData
1071
      507
1071
   655383
1070
     0
  0
ACAD_PROXY_OBJECT
  5
1D38
102
{ACAD_REACTORS
330
1D34
102
}
330
1D34
100
AcDbProxyObject
 90
      499
 91
      510
 93
      113
310
904313A3500400000000000014406B
 94
        0
1001
ACAD
1000
AcadProxyRoundTripData
1071
      507
1071
   655383
1070
     0
  0
ACAD_PROXY_OBJECT
  5
1D39
102
{ACAD_REACTORS
330
1D34
102
}
330
1D34
100
AcDbProxyObject
 90
      499
 91
      510
 93
      113
310
904313A3800400000000000020406B
 94
        0
1001
ACAD
1000
AcadProxyRoundTripData
1071
      507
1071
   655383
1070
     0
  0
ACAD_PROXY_OBJECT
  5
1D3A
102
{ACAD_REACTORS
330
1D34
102
}
330
1D34
100
AcDbProxyObject
 90
      499
 91
      510
 93
      121
310
905313A3130004000000000000244051
 94
        0
1001
ACAD
1000
AcadProxyRoundTripData
1071
      507
1071
   655383
1070
     0
  0
ACAD_PROXY_OBJECT
  5
1D3B
102
{ACAD_REACTORS
330
1D34
102
}
330
1D34
100
AcDbProxyObject
 90
      499
 91
      510
 93
      121
310
905313A3136004000000000000304051
 94
        0
1001
ACAD
1000
AcadProxyRoundTripData
1071
      507
1071
   655383
1070
     0
  0
ACAD_PROXY_OBJECT
  5
1D3C
102
{ACAD_REACTORS
330
1D34
102
}
330
1D34
100
AcDbProxyObject
 90
      499
 91
      510
 93
      121
310
905313A3230004000000000000344051
 94
        0
1001
ACAD
1000
AcadProxyRoundTripData
1071
      507
1071
   655383
1070
     0
  0
ACAD_PROXY_OBJECT
  5
1D3D
102
{ACAD_REACTORS
330
1D34
102
}
330
1D34
100
AcDbProxyObject
 90
      499
 91
      510
 93
      121
310
905313A33300040000000000003E4051
 94
        0
1001
ACAD
1000
AcadProxyRoundTripData
1071
      507
1071
   655383
1070
     0
  0
ACAD_PROXY_OBJECT
  5
1D3E
102
{ACAD_REACTORS
330
1D34
102
}
330
1D34
100
AcDbProxyObject
 90
      499
 91
      510
 93
      121
310
905313A3430004000000000000444051
 94
        0
1001
ACAD
1000
AcadProxyRoundTripData
1071
      507
1071
   655383
1070
     0
  0
ACAD_PROXY_OBJECT
  5
1D3F
102
{ACAD_REACTORS
330
1D34
102
}
330
1D34
100
AcDbProxyObject
 90
      499
 91
      510
 93
      121
310
905313A3530004000000000000494051
 94
        0
1001
ACAD
1000
AcadProxyRoundTripData
1071
      507
1071
   655383
1070
     0
  0
ACAD_PROXY_OBJECT
  5
1D40
102
{ACAD_REACTORS
330
1D34
102
}
330
1D34
100
AcDbProxyObject
 90
      499
 91
      510
 93
      129
310
906313A313030004000000000000594038
 94
        0
1001
ACAD
1000
AcadProxyRoundTripData
1071
      507
1071
   655383
1070
     0
  0
ACAD_PROXY_OBJECT
  5
1D41
102
{ACAD_REACTORS
330
1D34
102
}
330
1D34
100
AcDbProxyObject
 90
      499
 91
      510
 93
      113
310
904323A31000000000000000010159
 94
        0
1001
ACAD
1000
AcadProxyRoundTripData
1071
      507
1071
   655383
1070
     0
  0
ACAD_PROXY_OBJECT
  5
1D42
102
{ACAD_REACTORS
330
1D34
102
}
330
1D34
100
AcDbProxyObject
 90
      499
 91
      510
 93
      113
310
904343A31000000000000000410159
 94
        0
1001
ACAD
1000
AcadProxyRoundTripData
1071
      507
1071
   655383
1070
     0
  0
ACAD_PROXY_OBJECT
  5
1D43
102
{ACAD_REACTORS
330
1D34
102
}
330
1D34
100
AcDbProxyObject
 90
      499
 91
      510
 93
      113
310
904383A31000000000000000810159
 94
        0
1001
ACAD
1000
AcadProxyRoundTripData
1071
      507
1071
   655383
1070
     0
  0
ACAD_PROXY_OBJECT
  5
1D44
102
{ACAD_REACTORS
330
1D34
102
}
330
1D34
100
AcDbProxyObject
 90
      499
 91
      510
 93
      121
310
90531303A31000000000000000910140
 94
        0
1001
ACAD
1000
AcadProxyRoundTripData
1071
      507
1071
   655383
1070
     0
  0
ACAD_PROXY_OBJECT
  5
1D45
102
{ACAD_REACTORS
330
1D34
102
}
330
1D34
100
AcDbProxyObject
 90
      499
 91
      510
 93
      129
310
9063130303A31000000000000001650138
 94
        0
1001
ACAD
1000
AcadProxyRoundTripData
1071
      507
1071
   655383
1070
     0
  0
ACAD_PROXY_OBJECT
  5
1D46
102
{ACAD_REACTORS
330
1D34
102
}
330
1D34
100
AcDbProxyObject
 90
      499
 91
      510
 93
      265
310
90F312F31323822203D2031272D302200000000000000200FC00000000000028402B
 94
        0
1001
ACAD
1000
AcadProxyRoundTripData
1071
      507
1071
   655383
1070
     0
  0
ACAD_PROXY_OBJECT
  5
1D47
102
{ACAD_REACTORS
330
1D34
102
}
330
1D34
100
AcDbProxyObject
 90
      499
 91
      510
 93
      257
310
90E312F363422203D2031272D302200000000000000240FC000000000000284040
 94
        0
1001
ACAD
1000
AcadProxyRoundTripData
1071
      507
1071
   655383
1070
     0
  0
ACAD_PROXY_OBJECT
  5
1D48
102
{ACAD_REACTORS
330
1D34
102
}
330
1D34
100
AcDbProxyObject
 90
      499
 91
      510
 93
      257
310
90E312F333222203D2031272D302200000000000000280FC000000000000284040
 94
        0
1001
ACAD
1000
AcadProxyRoundTripData
1071
      507
1071
   655383
1070
     0
  0
ACAD_PROXY_OBJECT
  5
1D49
102
{ACAD_REACTORS
330
1D34
102
}
330
1D34
100
AcDbProxyObject
 90
      499
 91
      510
 93
      257
310
90E312F313622203D2031272D3022000000000000002C0FC000000000000284040
 94
        0
1001
ACAD
1000
AcadProxyRoundTripData
1071
      507
1071
   655383
1070
     0
  0
ACAD_PROXY_OBJECT
  5
1D4A
102
{ACAD_REACTORS
330
1D34
102
}
330
1D34
100
AcDbProxyObject
 90
      499
 91
      510
 93
      257
310
90E332F333222203D2031272D3022000000000000002E0FC000000000000284040
 94
        0
1001
ACAD
1000
AcadProxyRoundTripData
1071
      507
1071
   655383
1070
     0
  0
ACAD_PROXY_OBJECT
  5
1D4B
102
{ACAD_REACTORS
330
1D34
102
}
330
1D34
100
AcDbProxyObject
 90
      499
 91
      510
 93
      249
310
90D312F3822203D2031272D302200000000000000300FC000000000000284040
 94
        0
1001
ACAD
1000
AcadProxyRoundTripData
1071
      507
1071
   655383
1070
     0
  0
ACAD_PROXY_OBJECT
  5
1D4C
102
{ACAD_REACTORS
330
1D34
102
}
330
1D34
100
AcDbProxyObject
 90
      499
 91
      510
 93
      257
310
90E332F313622203D2031272D302200000000000000320FC000000000000284040
 94
        0
1001
ACAD
1000
AcadProxyRoundTripData
1071
      507
1071
   655383
1070
     0
  0
ACAD_PROXY_OBJECT
  5
1D4D
102
{ACAD_REACTORS
330
1D34
102
}
330
1D34
100
AcDbProxyObject
 90
      499
 91
      510
 93
      249
310
90D312F3422203D2031272D302200000000000000340FC000000000000284040
 94
        0
1001
ACAD
1000
AcadProxyRoundTripData
1071
      507
1071
   655383
1070
     0
  0
ACAD_PROXY_OBJECT
  5
1D4E
102
{ACAD_REACTORS
330
1D34
102
}
330
1D34
100
AcDbProxyObject
 90
      499
 91
      510
 93
      249
310
90D332F3822203D2031272D302200000000000000360FC000000000000284040
 94
        0
1001
ACAD
1000
AcadProxyRoundTripData
1071
      507
1071
   655383
1070
     0
  0
ACAD_PROXY_OBJECT
  5
1D4F
102
{ACAD_REACTORS
330
1D34
102
}
330
1D34
100
AcDbProxyObject
 90
      499
 91
      510
 93
      249
310
90D312F3222203D2031272D302200000000000000380FC000000000000284040
 94
        0
1001
ACAD
1000
AcadProxyRoundTripData
1071
      507
1071
   655383
1070
     0
  0
ACAD_PROXY_OBJECT
  5
1D50
102
{ACAD_REACTORS
330
1D34
102
}
330
1D34
100
AcDbProxyObject
 90
      499
 91
      510
 93
      249
310
90D332F3422203D2031272D3022000000000000003A0FC000000000000284040
 94
        0
1001
ACAD
1000
AcadProxyRoundTripData
1071
      507
1071
   655383
1070
     0
  0
ACAD_PROXY_OBJECT
  5
1D51
102
{ACAD_REACTORS
330
1D34
102
}
330
1D34
100
AcDbProxyObject
 90
      499
 91
      510
 93
      169
310
90B3122203D2031272D3022004000000000000284020
 94
        0
1001
ACAD
1000
AcadProxyRoundTripData
1071
      507
1071
   655383
1070
     0
  0
ACAD_PROXY_OBJECT
  5
1D52
102
{ACAD_REACTORS
330
1D34
102
}
330
1D34
100
AcDbProxyObject
 90
      499
 91
      510
 93
      265
310
90F312D312F3222203D2031272D3022000000000000003E0FC00000000000028402B
 94
        0
1001
ACAD
1000
AcadProxyRoundTripData
1071
      507
1071
   655383
1070
     0
  0
ACAD_PROXY_OBJECT
  5
1D53
102
{ACAD_REACTORS
330
1D34
102
}
330
1D34
100
AcDbProxyObject
 90
      499
 91
      510
 93
      233
310
90B3322203D2031272D30220000000000000002100000000000000284000
 94
        0
1001
ACAD
1000
AcadProxyRoundTripData
1071
      507
1071
   655383
1070
     0
  0
ACAD_PROXY_OBJECT
  5
1D54
102
{ACAD_REACTORS
330
1D34
102
}
330
1D34
100
AcDbProxyObject
 90
      499
 91
      510
 93
      233
310
90B3622203D2031272D30220000000000000006100000000000000284000
 94
        0
1001
ACAD
1000
AcadProxyRoundTripData
1071
      507
1071
   655383
1070
     0
  0
ACAD_PROXY_OBJECT
  5
1D55
102
{ACAD_REACTORS
330
1D34
102
}
330
1D34
100
AcDbProxyObject
 90
      499
 91
      510
 93
      257
310
90E31272D3022203D2031272D3022000000000000000A100000000000000284040
 94
        0
1001
ACAD
1000
AcadProxyRoundTripData
1071
      507
1071
   655383
1070
     0
  0
ACAD_PROXY_OBJECT
  5
1D33
102
{ACAD_XDICTIONARY
360
1D78
102
}
102
{ACAD_REACTORS
330
1D32
102
}
330
1D32
100
AcDbProxyObject
 90
      499
 91
      510
 93
     1849
310
4254DD185B99185C990028B81E85EB51B8AE3F2E07A17AD46E2B8FC02B5E8DC0F42B1CFD028000000C1008070000C3001FDFF8000000C1003FBFF000000182007F7FE00000030400FEFFC00000060801FDFF8000000C1003FBFF00000018200000000000000681FA0B0000001820100E000186003FBFF000000182007F7FE0
310
0000030400FEFFC00000060801FDFF8000000C1003FBFF000000182007F7FE000000304000AD7A3703D0AC73F4160000003040201C00030C007F7FE00000030400FEFFC00000060801FDFF8000000C1003FBFF000000182007F7FE00000030400FEFFC000000608062
340
16
340
16
340
16
 94
        0
1001
ACAD
1000
AcadProxyRoundTripData
1071
      506
1071
   655383
1070
     0
  0
ACAD_PROXY_OBJECT
  5
1D26
102
{ACAD_REACTORS
330
1D20
102
}
330
1D20
100
AcDbProxyObject
 90
      499
 91
      510
 93
      444
310
430C9915DA5C99599C985B59401049028333333333333E3BF0000000000000FB0107901411070040501600405405064090741402480A0340
 94
        0
1001
ACAD
1000
AcDbSavedByObjectVersion
1070
     0
1000
AcadProxyRoundTripData
1071
      505
1071
   655383
1070
     0
  0
ACAD_PROXY_OBJECT
  5
1D28
102
{ACAD_REACTORS
330
1D20
102
}
330
1D20
100
AcDbProxyObject
 90
      499
 91
      510
 93
      508
310
428CD108121A5919195B8010640502408333333333333E3BF0000000000000FB01079024090700405020000000000001110200405405064090740C02480A0340
 94
        0
1001
ACAD
1000
AcDbSavedByObjectVersion
1070
     0
1000
AcadProxyRoundTripData
1071
      505
1071
   655383
1070
     0
  0
ACAD_PROXY_OBJECT
  5
1D27
102
{ACAD_REACTORS
330
1D20
102
}
330
1D20
100
AcDbProxyObject
 90
      499
 91
      510
 93
      444
310
430CD915DA5C99599C985B59401059028333333333333E3BF0000000000000FB0107901411070040501600405405064090741402480A0340
 94
        0
1001
ACAD
1000
AcDbSavedByObjectVersion
1070
     0
1000
AcadProxyRoundTripData
1071
      505
1071
   655383
1070
     0
  0
ACAD_PROXY_OBJECT
  5
1D25
102
{ACAD_REACTORS
330
1D20
102
}
330
1D20
100
AcDbProxyObject
 90
      499
 91
      510
 93
      396
310
4190985CDA58C0107406404333333333333E3BF0000000000000FB0107A41107004050150841D405064090741402480A0356
 94
        0
1001
ACAD
1000
AcDbSavedByObjectVersion
1070
     0
1000
AcadProxyRoundTripData
1071
      505
1071
   655383
1070
     0
  0
ACAD_PROXY_OBJECT
  5
1D2C
102
{ACAD_REACTORS
330
1D20
102
}
330
1D20
100
AcDbProxyObject
 90
      499
 91
      510
 93
      436
310
42509C9A59DA1D195B8010C409028333333333333E3BF0000000000000FB010790141107004050150841D405064090741402480A029956
 94
        0
1001
ACAD
1000
AcDbSavedByObjectVersion
1070
     0
1000
AcadProxyRoundTripData
1071
      505
1071
   655383
1070
     0
  0
ACAD_PROXY_OBJECT
  5
1D30
102
{ACAD_REACTORS
330
1D20
102
}
330
1D20
100
AcDbProxyObject
 90
      499
 91
      510
 93
      460
310
4310DBDB1BDC90DA185B99D9401104090240C333333333333E3BF0000000000000FB0108901411070040501508421405064090741402480A0354
 94
        0
1001
ACAD
1000
AcDbSavedByObjectVersion
1070
     0
1000
AcadProxyRoundTripData
1071
      505
1071
   655383
1070
     0
  0
ACAD_PROXY_OBJECT
  5
1D29
102
{ACAD_REACTORS
330
1D20
102
}
330
1D20
100
AcDbProxyObject
 90
      499
 91
      510
 93
      508
310
42D0DBDB98D95C1D1D585B0010940D028333333333333E3BF0000000000000FB0107902409070040501000000000000111010841D405064090740C02480A0340
 94
        0
1001
ACAD
1000
AcDbSavedByObjectVersion
1070
     0
1000
AcadProxyRoundTripData
1071
      505
1071
   655383
1070
     0
  0
ACAD_PROXY_OBJECT
  5
1D2B
102
{ACAD_REACTORS
330
1D20
102
}
330
1D20
100
AcDbProxyObject
 90
      499
 91
      510
 93
      420
310
41111A5B4010B409028333333333333E3BF0000000000000FB010790141107004050150841D405064090741402480A02677FFFFFDB
 94
        0
1001
ACAD
1000
AcDbSavedByObjectVersion
1070
     0
1000
AcadProxyRoundTripData
1071
      505
1071
   655383
1070
     0
  0
ACAD_PROXY_OBJECT
  5
1D2F
102
{ACAD_REACTORS
330
1D20
102
}
330
1D20
100
AcDbProxyObject
 90
      499
 91
      510
 93
      452
310
43119858D95C185D1D195C9B8010F409028333333333333E3BF0000000000000FB010790141107004050150841D405064090741402480A0350
 94
        0
1001
ACAD
1000
AcDbSavedByObjectVersion
1070
     0
1000
AcadProxyRoundTripData
1071
      505
1071
   655383
1070
     0
  0
ACAD_PROXY_OBJECT
  5
1D21
102
{ACAD_REACTORS
330
1D20
102
}
330
1D20
100
AcDbProxyObject
 90
      499
 91
      510
 93
      396
310
41519B185D00240901404333333333333E3BF0000000000000F9010740A41107004050150841D405064090741402480A1B55
 94
        0
1001
ACAD
1000
AcDbSavedByObjectVersion
1070
     0
1000
AcadProxyRoundTripData
1071
      505
1071
   655383
1070
     0
  0
ACAD_PROXY_OBJECT
  5
1D22
102
{ACAD_REACTORS
330
1D20
102
}
330
1D20
100
AcDbProxyObject
 90
      499
 91
      510
 93
      484
310
43919B185D15DA5D1A115919D95CC010140901404333333333333E3BF0000000000000F9010740901411070040501600405405064090741402480A1B50
 94
        0
1001
ACAD
1000
AcDbSavedByObjectVersion
1070
     0
1000
AcadProxyRoundTripData
1071
      505
1071
   655383
1070
     0
  0
ACAD_PROXY_OBJECT
  5
1D23
102
{ACAD_REACTORS
330
1D20
102
}
330
1D20
100
AcDbProxyObject
 90
      499
 91
      510
 93
      420
310
4211DBDD5C985D590010240902404333333333333E3BF0000000000000F9010740A411070040501641D405064090741402480A1B50
 94
        0
1001
ACAD
1000
AcDbSavedByObjectVersion
1070
     0
1000
AcadProxyRoundTripData
1071
      505
1071
   655383
1070
     0
  0
ACAD_PROXY_OBJECT
  5
1D24
102
{ACAD_REACTORS
330
1D20
102
}
330
1D20
100
AcDbProxyObject
 90
      499
 91
      510
 93
      508
310
4451DBDD5C985D5915DA5D1A115919D95CC010340902404333333333333E3BF0000000000000F9010740901411070040501600405405064090741402480A1B50
 94
        0
1001
ACAD
1000
AcDbSavedByObjectVersion
1070
     0
1000
AcadProxyRoundTripData
1071
      505
1071
   655383
1070
     0
  0
ACAD_PROXY_OBJECT
  5
1D2E
102
{ACAD_REACTORS
330
1D20
102
}
330
1D20
100
AcDbProxyObject
 90
      499
 91
      510
 93
      452
310
43131A5B995C185D1D195C9B8010E409028333333333333E3BF0000000000000FB010790141107004050750841D405064090741402483A0350
 94
        0
1001
ACAD
1000
AcDbSavedByObjectVersion
1070
     0
1000
AcadProxyRoundTripData
1071
      505
1071
   655383
1070
     0
  0
ACAD_PROXY_OBJECT
  5
1D2A
102
{ACAD_REACTORS
330
1D20
102
}
330
1D20
100
AcDbProxyObject
 90
      499
 91
      510
 93
      428
310
429499585B1A5CDD1A58C0108409028333333333333E3BF0000000000000FB01079019070040501508421405064090741402480A1B45
 94
        0
1001
ACAD
1000
AcDbSavedByObjectVersion
1070
     0
1000
AcadProxyRoundTripData
1071
      505
1071
   655383
1070
     0
  0
ACAD_PROXY_OBJECT
  5
1D2D
102
{ACAD_REACTORS
330
1D20
102
}
330
1D20
100
AcDbProxyObject
 90
      499
 91
      510
 93
      420
310
42151A1A58DAD95B8010D409028333333333333E3BF0000000000000FB010790141107004050150C41D405064090741402480A0352
 94
        0
1001
ACAD
1000
AcDbSavedByObjectVersion
1070
     0
1000
AcadProxyRoundTripData
1071
      505
1071
   655383
1070
     0
  0
XRECORD
  5
2EE1
102
{ACAD_REACTORS
330
2ED7
102
}
330
2ED7
100
AcDbXrecord
 90
        0
  0
XRECORD
  5
2EE5
102
{ACAD_REACTORS
330
2ED7
102
}
330
2ED7
100
AcDbXrecord
1000
DSTYLE
1002
{
1070
   179
 70
     2
1070
   277
 70
     6
1002
}
  0
XRECORD
  5
2EE2
102
{ACAD_REACTORS
330
2ED7
102
}
330
2ED7
100
AcDbXrecord
  1
{6385560B-F4B1-4644-A7C2-A3E32AC3D232}
  0
XRECORD
  5
2EDA
102
{ACAD_REACTORS
330
2ED7
102
}
330
2ED7
100
AcDbXrecord
  1

  0
XRECORD
  5
2EE0
102
{ACAD_REACTORS
330
2ED7
102
}
330
2ED7
100
AcDbXrecord
 90
        0
  0
XRECORD
  5
2EDC
102
{ACAD_REACTORS
330
2ED7
102
}
330
2ED7
100
AcDbXrecord
340
61
  0
XRECORD
  5
2EDF
102
{ACAD_REACTORS
330
2ED7
102
}
330
2ED7
100
AcDbXrecord
 90
    10781
  0
XRECORD
  5
2EDD
102
{ACAD_REACTORS
330
2ED7
102
}
330
2ED7
100
AcDbXrecord
340
77
  0
XRECORD
  5
2EDE
102
{ACAD_REACTORS
330
2ED7
102
}
330
2ED7
100
AcDbXrecord
340
6
  0
XRECORD
  5
2EE4
102
{ACAD_REACTORS
330
2ED7
102
}
330
2ED7
100
AcDbXrecord
 40
0.0
  0
XRECORD
  5
2EE8
102
{ACAD_REACTORS
330
2ED7
102
}
330
2ED7
100
AcDbXrecord
340
0
  0
XRECORD
  5
2EEE
102
{ACAD_REACTORS
330
2ED7
102
}
330
2ED7
100
AcDbXrecord
 10
0.0
 20
0.0
 30
0.0
  0
XRECORD
  5
2EEA
102
{ACAD_REACTORS
330
2ED7
102
}
330
2ED7
100
AcDbXrecord
 10
0.0
 20
0.0
 30
0.0
  0
XRECORD
  5
2EED
102
{ACAD_REACTORS
330
2ED7
102
}
330
2ED7
100
AcDbXrecord
 10
0.0
 20
0.0
 30
0.0
  0
XRECORD
  5
2EEB
102
{ACAD_REACTORS
330
2ED7
102
}
330
2ED7
100
AcDbXrecord
 10
0.0
 20
0.0
 30
0.0
  0
XRECORD
  5
2EEC
102
{ACAD_REACTORS
330
2ED7
102
}
330
2ED7
100
AcDbXrecord
 10
0.0
 20
0.0
 30
0.0
  0
XRECORD
  5
2EE9
102
{ACAD_REACTORS
330
2ED7
102
}
330
2ED7
100
AcDbXrecord
 10
0.0
 20
0.0
 30
0.0
  0
XRECORD
  5
2EE6
102
{ACAD_REACTORS
330
2ED7
102
}
330
2ED7
100
AcDbXrecord
340
0
  0
XRECORD
  5
2EE7
102
{ACAD_REACTORS
330
2ED7
102
}
330
2ED7
100
AcDbXrecord
 70
     0
  0
XRECORD
  5
2EDB
102
{ACAD_REACTORS
330
2ED7
102
}
330
2ED7
100
AcDbXrecord
  1
Sekkei.ctb
  0
XRECORD
  5
2ED8
102
{ACAD_REACTORS
330
2ED7
102
}
330
2ED7
100
AcDbXrecord
 90
        1
  0
XRECORD
  5
2ED9
102
{ACAD_REACTORS
330
2ED7
102
}
330
2ED7
100
AcDbXrecord
 90
       70
  0
XRECORD
  5
2EF1
102
{ACAD_REACTORS
330
2ED7
102
}
330
2ED7
100
AcDbXrecord
340
0
  0
XRECORD
  5
2EF7
102
{ACAD_REACTORS
330
2ED7
102
}
330
2ED7
100
AcDbXrecord
 10
0.0
 20
0.0
 30
0.0
  0
XRECORD
  5
2EF3
102
{ACAD_REACTORS
330
2ED7
102
}
330
2ED7
100
AcDbXrecord
 10
0.0
 20
0.0
 30
0.0
  0
XRECORD
  5
2EF6
102
{ACAD_REACTORS
330
2ED7
102
}
330
2ED7
100
AcDbXrecord
 10
0.0
 20
0.0
 30
0.0
  0
XRECORD
  5
2EF4
102
{ACAD_REACTORS
330
2ED7
102
}
330
2ED7
100
AcDbXrecord
 10
0.0
 20
0.0
 30
0.0
  0
XRECORD
  5
2EF5
102
{ACAD_REACTORS
330
2ED7
102
}
330
2ED7
100
AcDbXrecord
 10
0.0
 20
0.0
 30
0.0
  0
XRECORD
  5
2EF2
102
{ACAD_REACTORS
330
2ED7
102
}
330
2ED7
100
AcDbXrecord
 10
0.0
 20
0.0
 30
0.0
  0
XRECORD
  5
2EEF
102
{ACAD_REACTORS
330
2ED7
102
}
330
2ED7
100
AcDbXrecord
340
0
  0
XRECORD
  5
2EF0
102
{ACAD_REACTORS
330
2ED7
102
}
330
2ED7
100
AcDbXrecord
 70
     0
  0
XRECORD
  5
2EE3
102
{ACAD_REACTORS
330
2ED7
102
}
330
2ED7
100
AcDbXrecord
  1
{3F5C2F69-1716-4DA6-B998-751D553958FE}
  0
DICTIONARYVAR
  5
1D9B
102
{ACAD_REACTORS
330
102
102
}
330
102
100
DictionaryVariables
280
     0
  1
1:1
  0
DICTIONARYVAR
  5
1D9A
102
{ACAD_REACTORS
330
102
102
}
330
102
100
DictionaryVariables
280
     0
  1
STANDARD
  0
DICTIONARYVAR
  5
1D99
102
{ACAD_REACTORS
330
102
102
}
330
102
100
DictionaryVariables
280
     0
  1
STANDARD
  0
DICTIONARYVAR
  5
103
102
{ACAD_REACTORS
330
102
102
}
330
102
100
DictionaryVariables
280
     0
  1
1
  0
DICTIONARYVAR
  5
1D9C
102
{ACAD_REACTORS
330
102
102
}
330
102
100
DictionaryVariables
280
     0
  1
0
  0
DICTIONARYVAR
  5
549
102
{ACAD_REACTORS
330
102
102
}
330
102
100
DictionaryVariables
280
     0
  1
96
  0
DICTIONARY
  5
1D11
330
1D10
100
AcDbDictionary
280
     1
  3
ACAD_XREC_ROUNDTRIP
360
2EB6
  3
BUMPTILE
360
1D13
  3
DIFFUSETILE
360
1D12
  3
OPACITYTILE
360
1D16
  3
REFLECTIONTILE
360
1D15
  3
REFRACTIONTILE
360
1D17
  3
SPECULARTILE
360
1D14
  0
DICTIONARY
  5
1D09
330
1D08
100
AcDbDictionary
280
     1
  3
ACAD_XREC_ROUNDTRIP
360
2EB5
  3
BUMPTILE
360
1D0B
  3
DIFFUSETILE
360
1D0A
  3
OPACITYTILE
360
1D0E
  3
REFLECTIONTILE
360
1D0D
  3
REFRACTIONTILE
360
1D0F
  3
SPECULARTILE
360
1D0C
  0
DICTIONARY
  5
1D19
330
1D18
100
AcDbDictionary
280
     1
  3
ACAD_XREC_ROUNDTRIP
360
2EB7
  3
BUMPTILE
360
1D1B
  3
DIFFUSETILE
360
1D1A
  3
OPACITYTILE
360
1D1E
  3
REFLECTIONTILE
360
1D1D
  3
REFRACTIONTILE
360
1D1F
  3
SPECULARTILE
360
1D1C
  0
DICTIONARY
  5
1D78
330
1D33
100
AcDbDictionary
280
     1
  3
ACAD_ROUNDTRIP_2008_TABLES
360
2EA3
  3
ACAD_XREC_ROUNDTRIP
360
2EB8
  0
XRECORD
  5
2EB6
102
{ACAD_REACTORS
330
1D11
102
}
330
1D11
100
AcDbXrecord
102
MATERIAL
148
0.0
149
0.0
149
0.0
 93
        0
 94
      127
282
     0
 72
     0
 77
     0
171
     0
175
     0
179
     0
273
     0
  0
XRECORD
  5
1D13
102
{ACAD_REACTORS
330
1D11
102
}
330
1D11
100
AcDbXrecord
270
     1
271
     1
  0
XRECORD
  5
1D12
102
{ACAD_REACTORS
330
1D11
102
}
330
1D11
100
AcDbXrecord
270
     1
271
     1
  0
XRECORD
  5
1D16
102
{ACAD_REACTORS
330
1D11
102
}
330
1D11
100
AcDbXrecord
270
     1
271
     1
  0
XRECORD
  5
1D15
102
{ACAD_REACTORS
330
1D11
102
}
330
1D11
100
AcDbXrecord
270
     1
271
     1
  0
XRECORD
  5
1D17
102
{ACAD_REACTORS
330
1D11
102
}
330
1D11
100
AcDbXrecord
270
     1
271
     1
  0
XRECORD
  5
1D14
102
{ACAD_REACTORS
330
1D11
102
}
330
1D11
100
AcDbXrecord
270
     1
271
     1
  0
XRECORD
  5
2EB5
102
{ACAD_REACTORS
330
1D09
102
}
330
1D09
100
AcDbXrecord
102
MATERIAL
148
0.0
149
0.0
149
0.0
 93
        0
 94
      127
282
     0
 72
     0
 77
     0
171
     0
175
     0
179
     0
273
     0
  0
XRECORD
  5
1D0B
102
{ACAD_REACTORS
330
1D09
102
}
330
1D09
100
AcDbXrecord
270
     1
271
     1
  0
XRECORD
  5
1D0A
102
{ACAD_REACTORS
330
1D09
102
}
330
1D09
100
AcDbXrecord
270
     1
271
     1
  0
XRECORD
  5
1D0E
102
{ACAD_REACTORS
330
1D09
102
}
330
1D09
100
AcDbXrecord
270
     1
271
     1
  0
XRECORD
  5
1D0D
102
{ACAD_REACTORS
330
1D09
102
}
330
1D09
100
AcDbXrecord
270
     1
271
     1
  0
XRECORD
  5
1D0F
102
{ACAD_REACTORS
330
1D09
102
}
330
1D09
100
AcDbXrecord
270
     1
271
     1
  0
XRECORD
  5
1D0C
102
{ACAD_REACTORS
330
1D09
102
}
330
1D09
100
AcDbXrecord
270
     1
271
     1
  0
XRECORD
  5
2EB7
102
{ACAD_REACTORS
330
1D19
102
}
330
1D19
100
AcDbXrecord
102
MATERIAL
148
0.0
149
0.0
149
0.0
 93
        0
 94
      127
282
     0
 72
     0
 77
     0
171
     0
175
     0
179
     0
273
     0
  0
XRECORD
  5
1D1B
102
{ACAD_REACTORS
330
1D19
102
}
330
1D19
100
AcDbXrecord
270
     1
271
     1
  0
XRECORD
  5
1D1A
102
{ACAD_REACTORS
330
1D19
102
}
330
1D19
100
AcDbXrecord
270
     1
271
     1
  0
XRECORD
  5
1D1E
102
{ACAD_REACTORS
330
1D19
102
}
330
1D19
100
AcDbXrecord
270
     1
271
     1
  0
XRECORD
  5
1D1D
102
{ACAD_REACTORS
330
1D19
102
}
330
1D19
100
AcDbXrecord
270
     1
271
     1
  0
XRECORD
  5
1D1F
102
{ACAD_REACTORS
330
1D19
102
}
330
1D19
100
AcDbXrecord
270
     1
271
     1
  0
XRECORD
  5
1D1C
102
{ACAD_REACTORS
330
1D19
102
}
330
1D19
100
AcDbXrecord
270
     1
271
     1
  0
ACAD_PROXY_OBJECT
  5
2EA3
102
{ACAD_REACTORS
330
1D78
102
}
330
1D78
100
AcDbProxyObject
 90
      499
 91
      510
 93
     5304
310
40D054060020000020000003200101A000080002A5058000000C100000000000000340FD012E07A17AD46E2B8FCB81E85EB51B8AE3F2E07A17AD46E2B8FCB81E85EB51B8AE3F02B5E8DC0F42B1CFC0AD7A3703D0AC73F419019018000000C1003FBFFFFFE02B5E8DC0F42A9CFD029018000000C1003FBFFFFFE02B5E8DC0F4
310
2A9CFD049018000000C1003FBFFFFFE02B5E8DC0F42A9CFD089018000000C1003FBFFFFFE02B5E8DC0F42A9CFD109018000000C1003FBFFFFFE02B5E8DC0F42A9CFD209018000000C1003FBFFFFFE02B5E8DC0F42A9CFD01405075F5449544C450041501A8000000C800406800020000A9416000000304000AD7A3703D0AC7
310
3F404B81E85EB51B8AE3F2E07A17AD46E2B8FCB81E85EB51B8AE3F2E07A17AD46E2B8FC0AD7A3703D0AC73F02B5E8DC0F42B1CFD0640640600000030400FEFFFFFF80AD7A3703D0AA73F40A40600000030400FEFFFFFF80AD7A3703D0AA73F41240600000030400FEFFFFFF80AD7A3703D0AA73F42240600000030400FEFFF
310
FFF80AD7A3703D0AA73F44240600000030400FEFFFFFF80AD7A3703D0AA73F48240600000030400FEFFFFFF80AD7A3703D0AA73F409014217D2115051115480105406A0000003200101A000080002A5028000000C10002B5E8DC0F42B1CFD012E07A17AD46E2B8FCB81E85EB51B8AE3F2E07A17AD46E2B8FCB81E85EB51B8A
310
E3F02B5E8DC0F42B1CFC0AD7A3703D0AC73F419019018000000C1003FBFFFFFE02B5E8DC0F42A9CFD029018000000C1003FBFFFFFE02B5E8DC0F42A9CFD049018000000C1003FBFFFFFE02B5E8DC0F42A9CFD089018000000C1003FBFFFFFE02B5E8DC0F42A9CFD109018000000C1003FBFFFFFE02B5E8DC0F42A9CFD20901
310
8000000C1003FBFFFFFE02B5E8DC0F42A9CFD03409065F444154410000
340
16
340
0
340
0
340
0
340
0
340
0
340
0
340
16
340
0
340
0
340
0
340
0
340
0
340
0
340
16
340
0
340
0
340
0
340
0
340
0
340
0
 94
        0
1001
ACAD
1000
AcadProxyRoundTripData
1071
      509
1071
   655383
1070
     0
  0
XRECORD
  5
2EB8
102
{ACAD_REACTORS
330
1D78
102
}
330
1D78
100
AcDbXrecord
102
ACAD_ROUNDTRIP_PRE2007_TABLESTYLE
 90
      512
 91
        0
  1

 92
      512
 93
        0
  2

 94
      512
 95
        0
  3

  0
ENDSEC
  0
EOF
