  0
SECTION
  2
HEADER
  9
$ACADVER
  1
AC1014
  9
$ACADMAINTVER
 70
     9
  9
$DWGCODEPAGE
  3
ANSI_932
  9
$INSBASE
 10
0.0
 20
0.0
 30
0.0
  9
$EXTMIN
 10
56.93540353574348
 20
79.97742630183137
 30
0.0
  9
$EXTMAX
 10
998.2762643935521
 20
458.6794976649594
 30
0.0
  9
$LIMMIN
 10
-57.90139200703447
 20
-17.81744290533618
  9
$LIMMAX
 10
970.6271028187096
 20
472.3762881128046
  9
$ORTHOMODE
 70
     1
  9
$REGENMODE
 70
     1
  9
$FILLMODE
 70
     1
  9
$QTEXTMODE
 70
     0
  9
$MIRRTEXT
 70
     0
  9
$DRAGMODE
 70
     2
  9
$LTSCALE
 40
3.0
  9
$OSMODE
 70
    37
  9
$ATTMODE
 70
     1
  9
$TEXTSIZE
 40
2.0
  9
$TRACEWID
 40
1.0
  9
$TEXTSTYLE
  7
STANDARD
  9
$CLAYER
  8
0
  9
$CELTYPE
  6
BYLAYER
  9
$CECOLOR
 62
   256
  9
$CELTSCALE
 40
1.0
  9
$DELOBJ
 70
     1
  9
$DISPSILH
 70
     0
  9
$DIMSCALE
 40
3.0
  9
$DIMASZ
 40
1.8
  9
$DIMEXO
 40
0.625
  9
$DIMDLI
 40
3.75
  9
$DIMRND
 40
0.0
  9
$DIMDLE
 40
0.0
  9
$DIMEXE
 40
0.8
  9
$DIMTP
 40
0.0
  9
$DIMTM
 40
0.0
  9
$DIMTXT
 40
1.8
  9
$DIMCEN
 40
2.5
  9
$DIMTSZ
 40
0.0
  9
$DIMTOL
 70
     0
  9
$DIMLIM
 70
     0
  9
$DIMTIH
 70
     0
  9
$DIMTOH
 70
     0
  9
$DIMSE1
 70
     0
  9
$DIMSE2
 70
     0
  9
$DIMTAD
 70
     1
  9
$DIMZIN
 70
     8
  9
$DIMBLK
  1

  9
$DIMASO
 70
     1
  9
$DIMSHO
 70
     1
  9
$DIMPOST
  1

  9
$DIMAPOST
  1

  9
$DIMALT
 70
     0
  9
$DIMALTD
 70
     4
  9
$DIMALTF
 40
0.0394
  9
$DIMLFAC
 40
1.0
  9
$DIMTOFL
 70
     1
  9
$DIMTVP
 40
0.0
  9
$DIMTIX
 70
     0
  9
$DIMSOXD
 70
     0
  9
$DIMSAH
 70
     0
  9
$DIMBLK1
  1

  9
$DIMBLK2
  1

  9
$DIMSTYLE
  2
STANDARD
  9
$DIMCLRD
 70
     0
  9
$DIMCLRE
 70
     0
  9
$DIMCLRT
 70
     0
  9
$DIMTFAC
 40
1.0
  9
$DIMGAP
 40
0.75
  9
$DIMJUST
 70
     0
  9
$DIMSD1
 70
     0
  9
$DIMSD2
 70
     0
  9
$DIMTOLJ
 70
     1
  9
$DIMTZIN
 70
     0
  9
$DIMALTZ
 70
     0
  9
$DIMALTTZ
 70
     0
  9
$DIMFIT
 70
     3
  9
$DIMUPT
 70
     0
  9
$DIMUNIT
 70
     8
  9
$DIMDEC
 70
     2
  9
$DIMTDEC
 70
     2
  9
$DIMALTU
 70
     8
  9
$DIMALTTD
 70
     4
  9
$DIMTXSTY
  7
STANDARD
  9
$DIMAUNIT
 70
     0
  9
$LUNITS
 70
     2
  9
$LUPREC
 70
     3
  9
$SKETCHINC
 40
1.0
  9
$FILLETRAD
 40
2.0
  9
$AUNITS
 70
     0
  9
$AUPREC
 70
     2
  9
$MENU
  1
.
  9
$ELEVATION
 40
0.0
  9
$PELEVATION
 40
0.0
  9
$THICKNESS
 40
0.0
  9
$LIMCHECK
 70
     0
  9
$BLIPMODE
 70
     0
  9
$CHAMFERA
 40
0.0
  9
$CHAMFERB
 40
0.0
  9
$CHAMFERC
 40
20.0
  9
$CHAMFERD
 40
0.0
  9
$SKPOLY
 70
     0
  9
$TDCREATE
 40
2454411.495290613
  9
$TDUPDATE
 40
2454426.372858252
  9
$TDINDWG
 40
0.0612172685
  9
$TDUSRTIMER
 40
0.0612172685
  9
$USRTIMER
 70
     1
  9
$ANGBASE
 50
0.0
  9
$ANGDIR
 70
     0
  9
$PDMODE
 70
     0
  9
$PDSIZE
 40
-10.0
  9
$PLINEWID
 40
0.0
  9
$COORDS
 70
     0
  9
$SPLFRAME
 70
     0
  9
$SPLINETYPE
 70
     6
  9
$SPLINESEGS
 70
     8
  9
$ATTDIA
 70
     0
  9
$ATTREQ
 70
     1
  9
$HANDLING
 70
-16383
  9
$HANDSEED
  5
3790
  9
$SURFTAB1
 70
     6
  9
$SURFTAB2
 70
     6
  9
$SURFTYPE
 70
     6
  9
$SURFU
 70
     6
  9
$SURFV
 70
     6
  9
$UCSNAME
  2

  9
$UCSORG
 10
0.0
 20
0.0
 30
0.0
  9
$UCSXDIR
 10
1.0
 20
0.0
 30
0.0
  9
$UCSYDIR
 10
0.0
 20
1.0
 30
0.0
  9
$PUCSNAME
  2

  9
$PUCSORG
 10
0.0
 20
0.0
 30
0.0
  9
$PUCSXDIR
 10
1.0
 20
0.0
 30
0.0
  9
$PUCSYDIR
 10
0.0
 20
1.0
 30
0.0
  9
$USERI1
 70
     0
  9
$USERI2
 70
     0
  9
$USERI3
 70
     0
  9
$USERI4
 70
     0
  9
$USERI5
 70
     0
  9
$USERR1
 40
0.0
  9
$USERR2
 40
0.0
  9
$USERR3
 40
0.0
  9
$USERR4
 40
0.0
  9
$USERR5
 40
0.0
  9
$WORLDVIEW
 70
     1
  9
$SHADEDGE
 70
     3
  9
$SHADEDIF
 70
    70
  9
$TILEMODE
 70
     1
  9
$MAXACTVP
 70
    48
  9
$PINSBASE
 10
0.0
 20
0.0
 30
0.0
  9
$PLIMCHECK
 70
     0
  9
$PEXTMIN
 10
0.0
 20
0.0
 30
0.0
  9
$PEXTMAX
 10
0.0
 20
0.0
 30
0.0
  9
$PLIMMIN
 10
0.0
 20
0.0
  9
$PLIMMAX
 10
12.0
 20
9.0
  9
$UNITMODE
 70
     0
  9
$VISRETAIN
 70
     1
  9
$PLINEGEN
 70
     0
  9
$PSLTSCALE
 70
     1
  9
$TREEDEPTH
 70
  3020
  9
$PICKSTYLE
 70
     1
  9
$CMLSTYLE
  2
STANDARD
  9
$CMLJUST
 70
     0
  9
$CMLSCALE
 40
1.0
  9
$PROXYGRAPHICS
 70
     1
  9
$MEASUREMENT
 70
     0
  0
ENDSEC
  0
SECTION
  2
CLASSES
  0
CLASS
  1
DICTIONARYVAR
  2
AcDbDictionaryVar
  3
AutoCAD 2000
 90
        0
280
     0
281
     0
  0
CLASS
  1
ACDBDICTIONARYWDFLT
  2
AcDbDictionaryWithDefault
  3
AutoCAD 2000
 90
        0
280
     0
281
     0
  0
CLASS
  1
ACDBPLACEHOLDER
  2
AcDbPlaceHolder
  3
AutoCAD 2000
 90
        0
280
     0
281
     0
  0
CLASS
  1
LAYOUT
  2
AcDbLayout
  3
AutoCAD 2000
 90
        0
280
     0
281
     0
  0
CLASS
  1
MATERIAL
  2
AcDbMaterial
  3
ObjectDBX Classes
 90
     1153
280
     0
281
     0
  0
CLASS
  1
VISUALSTYLE
  2
AcDbVisualStyle
  3
ObjectDBX Classes
 90
     4095
280
     0
281
     0
  0
CLASS
  1
TABLESTYLE
  2
AcDbTableStyle
  3
ObjectDBX Classes
 90
     4095
280
     0
281
     0
  0
CLASS
  1
SCALE
  2
AcDbScale
  3
ObjectDBX Classes
 90
     1153
280
     0
281
     0
  0
CLASS
  1
MLEADERSTYLE
  2
AcDbMLeaderStyle
  3
ACDB_MLEADERSTYLE_CLASS
 90
     4095
280
     0
281
     0
  0
CLASS
  1
CELLSTYLEMAP
  2
AcDbCellStyleMap
  3
ObjectDBX Classes
 90
     1152
280
     0
281
     0
  0
CLASS
  1
ACAD_PROXY_OBJECT_WRAPPER
  2
AcDbProxyObjectWrapper
  3
AutoCAD 2000
 90
        0
280
     0
281
     0
  0
CLASS
  1
LONG_TRANSACTION
  2
AcDbLongTransaction
  3
AutoCAD 2000
 90
        0
280
     0
281
     0
  0
CLASS
  1
LWPOLYLINE
  2
AcDbPolyline
  3
AutoCAD 2000
 90
        0
280
     0
281
     1
  0
CLASS
  1
HATCH
  2
AcDbHatch
  3
AutoCAD 2000
 90
        0
280
     0
281
     1
  0
CLASS
  1
XRECORD
  2
AcDbXrecord
  3
AutoCAD 2000
 90
        0
280
     0
281
     0
  0
ENDSEC
  0
SECTION
  2
TABLES
  0
TABLE
  2
VPORT
  5
6E
102
{ACAD_XDICTIONARY
360
1C69
102
}
330
0
100
AcDbSymbolTable
 70
     2
  0
VPORT
  5
376A
330
6E
100
AcDbSymbolTableRecord
100
AcDbViewportTableRecord
  2
*ACTIVE
 70
     0
 10
0.0
 20
0.0
 11
1.0
 21
1.0
 12
591.0570618663139
 22
260.1903798453779
 13
0.0
 23
0.0
 14
10.0
 24
10.0
 15
18.0
 25
18.0
 16
0.0
 26
0.0
 36
1.0
 17
0.0
 27
0.0
 37
0.0
 40
611.9494166813161
 41
1.753504672897196
 42
50.0
 43
0.0
 44
0.0
 50
0.0
 51
0.0
 71
     0
 72
   100
 73
     1
 74
     3
 75
     0
 76
     0
 77
     0
 78
     0
  0
ENDTAB
  0
TABLE
  2
LTYPE
  5
69
330
0
100
AcDbSymbolTable
 70
     5
  0
LTYPE
  5
6A
330
69
100
AcDbSymbolTableRecord
100
AcDbLinetypeTableRecord
  2
BYBLOCK
 70
     0
  3

 72
    65
 73
     0
 40
0.0
  0
LTYPE
  5
6B
330
69
100
AcDbSymbolTableRecord
100
AcDbLinetypeTableRecord
  2
BYLAYER
 70
     0
  3

 72
    65
 73
     0
 40
0.0
  0
LTYPE
  5
8
330
69
100
AcDbSymbolTableRecord
100
AcDbLinetypeTableRecord
  2
CONTINUOUS
 70
     0
  3
Solid line
 72
    65
 73
     0
 40
0.0
  0
LTYPE
  5
27C
330
69
100
AcDbSymbolTableRecord
100
AcDbLinetypeTableRecord
  2
SEKKEI_A2_
 70
     0
  3
center(A2)  ____ _ ____ _ ____ _ ____ _ ____ _ 
 72
    65
 73
     4
 40
14.28749999999999
 49
9.525
 74
     0
 49
-1.587499999999999
 74
     0
 49
1.587499999999999
 74
     0
 49
-1.587499999999999
 74
     0
  0
LTYPE
  5
7F0
330
69
100
AcDbSymbolTableRecord
100
AcDbLinetypeTableRecord
  2
HIDDEN3
 70
     0
  3
Hidden (.3x) _ _ _ _ _ _ _ _ _ _ _ _ _ _ _ _ _
 72
    65
 73
     2
 40
2.857499999999999
 49
1.905
 74
     0
 49
-0.9525
 74
     0
  0
LTYPE
  5
B11
330
69
100
AcDbSymbolTableRecord
100
AcDbLinetypeTableRecord
  2
CENS
 70
     0
  3
(一点鎖線１)---- - ---- - ---- - ---- - ---- - 
 72
    65
 73
     4
 40
7.0
 49
4.0
 74
     0
 49
-1.0
 74
     0
 49
1.0
 74
     0
 49
-1.0
 74
     0
  0
ENDTAB
  0
TABLE
  2
LAYER
  5
66
102
{ACAD_XDICTIONARY
360
B12
102
}
330
0
100
AcDbSymbolTable
 70
     9
  0
LAYER
  5
5E
102
{ACAD_XDICTIONARY
360
1C4E
102
}
330
66
100
AcDbSymbolTableRecord
100
AcDbLayerTableRecord
  2
0
 70
     0
 62
     7
  6
CONTINUOUS
  0
LAYER
  5
3E
102
{ACAD_XDICTIONARY
360
1C50
102
}
330
66
100
AcDbSymbolTableRecord
100
AcDbLayerTableRecord
  2
CENTER
 70
     0
 62
     3
  6
SEKKEI_A2_
  0
LAYER
  5
2B5
102
{ACAD_XDICTIONARY
360
1C56
102
}
330
66
100
AcDbSymbolTableRecord
100
AcDbLayerTableRecord
  2
HIDS
 70
     0
 62
     1
  6
HIDDEN3
  0
LAYER
  5
2BA
102
{ACAD_XDICTIONARY
360
1C58
102
}
330
66
100
AcDbSymbolTableRecord
100
AcDbLayerTableRecord
  2
HOJO
 70
     0
 62
     4
  6
CONTINUOUS
  0
LAYER
  5
372C
102
{ACAD_XDICTIONARY
360
372D
102
}
330
66
100
AcDbSymbolTableRecord
100
AcDbLayerTableRecord
  2
TITLE
 70
     0
 62
     4
  6
CONTINUOUS
  0
ENDTAB
  0
TABLE
  2
STYLE
  5
67
330
0
100
AcDbSymbolTable
 70
     2
  0
STYLE
  5
16
330
67
100
AcDbSymbolTableRecord
100
AcDbTextStyleTableRecord
  2
STANDARD
 70
     0
 40
0.0
 41
1.0
 50
0.0
 71
     0
 42
2.0
  3
simplex.shx
  4
extfont.shx
  0
ENDTAB
  0
TABLE
  2
VIEW
  5
6C
330
0
100
AcDbSymbolTable
 70
     0
  0
ENDTAB
  0
TABLE
  2
UCS
  5
6D
330
0
100
AcDbSymbolTable
 70
     0
  0
ENDTAB
  0
TABLE
  2
APPID
  5
70
330
0
100
AcDbSymbolTable
 70
     3
  0
APPID
  5
71
330
70
100
AcDbSymbolTableRecord
100
AcDbRegAppTableRecord
  2
ACAD
 70
     0
  0
APPID
  5
1A74
330
70
100
AcDbSymbolTableRecord
100
AcDbRegAppTableRecord
  2
ACAD_MLEADERVER
 70
     0
  0
APPID
  5
1CDC
330
70
100
AcDbSymbolTableRecord
100
AcDbRegAppTableRecord
  2
ACAD_DSTYLE_DIMRADIAL_EXTENSION
 70
     0
  0
ENDTAB
  0
TABLE
  2
DIMSTYLE
  5
72
330
0
100
AcDbSymbolTable
 70
     1
  0
DIMSTYLE
105
73
102
{ACAD_REACTORS
330
1443
330
1453
330
1456
102
}
330
72
100
AcDbSymbolTableRecord
100
AcDbDimStyleTableRecord
  2
STANDARD
 70
     0
  3

  4

  5

  6

  7

 40
3.0
 41
1.8
 42
0.625
 43
3.75
 44
0.8
 45
0.0
 46
0.0
 47
0.0
 48
0.0
140
1.8
141
2.5
142
0.0
143
0.0394
144
1.0
145
0.0
146
1.0
147
0.75
 71
     0
 72
     0
 73
     0
 74
     0
 75
     0
 76
     0
 77
     1
 78
     8
170
     0
171
     4
172
     1
173
     0
174
     0
175
     0
176
     0
177
     0
178
     0
270
     8
271
     2
272
     2
273
     8
274
     4
340
16
275
     0
280
     0
281
     0
282
     0
283
     1
284
     0
285
     0
286
     0
287
     3
288
     0
  0
ENDTAB
  0
TABLE
  2
BLOCK_RECORD
  5
1
330
0
100
AcDbSymbolTable
 70
    47
  0
BLOCK_RECORD
  5
2
102
{ACAD_XDICTIONARY
360
378C
102
}
330
1
100
AcDbSymbolTableRecord
100
AcDbBlockTableRecord
  2
*MODEL_SPACE
  0
BLOCK_RECORD
  5
3765
102
{ACAD_XDICTIONARY
360
378E
102
}
330
1
100
AcDbSymbolTableRecord
100
AcDbBlockTableRecord
  2
*PAPER_SPACE
  0
ENDTAB
  0
ENDSEC
  0
SECTION
  2
BLOCKS
  0
BLOCK
  5
5D
330
2
100
AcDbEntity
  8
0
100
AcDbBlockBegin
  2
*MODEL_SPACE
 70
     0
 10
0.0
 20
0.0
 30
0.0
  3
*MODEL_SPACE
  1

  0
ENDBLK
  5
5F
330
2
100
AcDbEntity
  8
0
100
AcDbBlockEnd
  0
BLOCK
  5
3767
330
3765
100
AcDbEntity
 67
     1
  8
0
100
AcDbBlockBegin
  2
*PAPER_SPACE
 70
     0
 10
0.0
 20
0.0
 30
0.0
  3
*PAPER_SPACE
  1

  0
ENDBLK
  5
3768
330
3765
100
AcDbEntity
 67
     1
  8
0
100
AcDbBlockEnd
  0
ENDSEC
  0
SECTION
  2
ENTITIES
  0
LINE
  5
FB9
330
2
100
AcDbEntity
  8
0
100
AcDbLine
 10
969.2762643936047
 20
169.9774263018313
 30
0.0
 11
969.2762643936044
 21
162.0667120161285
 31
0.0
  0
LINE
  5
FBA
330
2
100
AcDbEntity
  8
CENTER
100
AcDbLine
 10
946.2762643936049
 20
179.7767083426439
 30
0.0
 11
946.2762643936049
 21
88.17814426101875
 31
0.0
  0
LINE
  5
FBB
330
2
100
AcDbEntity
  8
0
100
AcDbLine
 10
916.2762643936044
 20
169.5149023089213
 30
0.0
 11
916.2762643936025
 21
98.43995029474143
 31
0.0
  0
LINE
  5
FBD
330
2
100
AcDbEntity
  8
CENTER
100
AcDbLine
 10
559.4739590712054
 20
406.6794976650139
 30
0.0
 11
745.0731986626087
 21
406.6794976650139
 31
0.0
  0
LINE
  5
FBE
330
2
100
AcDbEntity
  8
CENTER
100
AcDbLine
 10
856.2762643936038
 20
133.9774263018313
 30
0.0
 11
998.2762643935521
 21
133.9774263018313
 31
0.0
  0
LINE
  5
FBF
330
2
100
AcDbEntity
  8
0
100
AcDbLine
 10
911.2762643936049
 20
163.977425840863
 30
0.0
 11
911.2762643936049
 21
103.977425840863
 31
0.0
  0
LINE
  5
FC0
330
2
100
AcDbEntity
  8
0
100
AcDbLine
 10
916.2762643936048
 20
163.977425840863
 30
0.0
 11
911.2762643936049
 21
163.977425840863
 31
0.0
  0
LINE
  5
FC1
330
2
100
AcDbEntity
  8
0
100
AcDbLine
 10
916.2762643936048
 20
103.977425840863
 30
0.0
 11
911.2762643936049
 21
103.977425840863
 31
0.0
  0
LINE
  5
FC2
330
2
100
AcDbEntity
  8
CENTER
100
AcDbLine
 10
242.7354039967121
 20
133.9774263018313
 30
0.0
 11
56.93540353574348
 21
133.9774263018313
 31
0.0
  0
LINE
  5
FC3
330
2
100
AcDbEntity
  8
0
100
AcDbLine
 10
969.2762643936006
 20
105.888140587536
 30
0.0
 11
969.2762643936003
 21
97.97742630183137
 31
0.0
  0
LINE
  5
FC5
330
2
100
AcDbEntity
  8
0
100
AcDbLine
 10
969.2762643936047
 20
169.9774263018313
 30
0.0
 11
916.2762643936044
 21
169.5149023089213
 31
0.0
  0
LINE
  5
FC6
330
2
100
AcDbEntity
  8
0
100
AcDbLine
 10
969.2762643936003
 20
97.97742630183137
 30
0.0
 11
916.2762643936025
 21
98.43995029474143
 31
0.0
  0
LINE
  5
FC7
330
2
100
AcDbEntity
  8
CENTER
100
AcDbLine
 10
551.2732411120182
 20
133.9774263018313
 30
0.0
 11
745.0731986626085
 21
133.9774263018313
 31
0.0
  0
LINE
  5
FCB
330
2
100
AcDbEntity
  8
CENTER
100
AcDbLine
 10
605.2732411120182
 20
187.9774263018313
 30
0.0
 11
605.2732411120182
 21
79.97742630183137
 31
0.0
  0
LINE
  5
FD4
330
2
100
AcDbEntity
  8
0
100
AcDbLine
 10
104.9354035357432
 20
105.4774263018313
 30
0.0
 11
104.9354035357432
 21
162.4774263018313
 31
0.0
  0
LINE
  5
FDD
330
2
100
AcDbEntity
  8
0
100
AcDbLine
 10
697.073241572988
 20
162.4774263018313
 30
0.0
 11
697.073241572988
 21
105.4774263018313
 31
0.0
  0
LINE
  5
1009
330
2
100
AcDbEntity
  8
0
100
AcDbLine
 10
697.0732415729862
 20
434.6794976650139
 30
0.0
 11
697.0732415729862
 21
378.6794976650138
 31
0.0
  0
LINE
  5
1044
330
2
100
AcDbEntity
  8
0
100
AcDbLine
 10
898.2762643936048
 20
156.0460482912491
 30
0.0
 11
898.2762643936039
 21
111.9088033904769
 31
0.0
  0
LINE
  5
1045
330
2
100
AcDbEntity
  8
0
100
AcDbLine
 10
909.3460633870094
 20
158.3639917398319
 30
0.0
 11
900.2064654001992
 21
158.044829945287
 31
0.0
  0
ARC
  5
1046
330
2
100
AcDbEntity
  8
0
100
AcDbCircle
 10
909.2762643936048
 20
160.3627733938698
 30
0.0
 40
2.0
100
AcDbArc
 50
272.0000000000036
 51
0.0
  0
ARC
  5
1047
330
2
100
AcDbEntity
  8
0
100
AcDbCircle
 10
900.2762643936048
 20
156.0460482912491
 30
0.0
 40
2.0
100
AcDbArc
 50
92.00000000000365
 51
180.0
  0
LINE
  5
1048
330
2
100
AcDbEntity
  8
0
100
AcDbLine
 10
909.3460633870094
 20
109.5908599418923
 30
0.0
 11
900.2064654001992
 21
109.9100217364372
 31
0.0
  0
ARC
  5
1049
330
2
100
AcDbEntity
  8
0
100
AcDbCircle
 10
909.2762643936048
 20
107.5920782878544
 30
0.0
 40
2.0
100
AcDbArc
 50
0.0
 51
87.99999999999636
  0
ARC
  5
104A
330
2
100
AcDbEntity
  8
0
100
AcDbCircle
 10
900.2762643936048
 20
111.9088033904769
 30
0.0
 40
2.0
100
AcDbArc
 50
180.0
 51
267.9999999999963
  0
LINE
  5
104B
330
2
100
AcDbEntity
  8
0
100
AcDbLine
 10
946.3361983041812
 20
162.4763560534411
 30
0.0
 11
971.3298272828678
 21
162.0300412502489
 31
0.0
  0
LINE
  5
104C
330
2
100
AcDbEntity
  8
0
100
AcDbLine
 10
918.276264393617
 20
108.9243331514478
 30
0.0
 11
918.2762643936175
 21
159.0305194522131
 31
0.0
  0
ARC
  5
104D
330
2
100
AcDbEntity
  8
0
100
AcDbCircle
 10
921.2762643936171
 20
159.0305194522131
 30
0.0
 40
3.0
100
AcDbArc
 50
91.02303018866145
 51
180.0
  0
LINE
  5
104E
330
2
100
AcDbEntity
  8
0
100
AcDbLine
 10
974.276264393617
 20
159.0305194522131
 30
0.0
 11
974.2762643936176
 21
108.9243331514732
 31
0.0
  0
ARC
  5
104F
330
2
100
AcDbEntity
  8
0
100
AcDbCircle
 10
971.2762643936171
 20
159.0305194522131
 30
0.0
 40
3.0
100
AcDbArc
 50
0.0
 51
88.97696981131245
  0
LINE
  5
1050
330
2
100
AcDbEntity
  8
0
100
AcDbLine
 10
921.2227015043664
 20
162.0300412502489
 30
0.0
 11
929.7704909292477
 21
162.1826803471223
 31
0.0
  0
ARC
  5
1051
330
2
100
AcDbEntity
  8
0
100
AcDbCircle
 10
971.2762643936194
 20
108.9243331514514
 30
0.0
 40
3.0
100
AcDbArc
 50
271.0230301886614
 51
0.0
  0
LINE
  5
1052
330
2
100
AcDbEntity
  8
0
100
AcDbLine
 10
946.2762643936198
 20
105.4774263018186
 30
0.0
 11
971.3298272828701
 21
105.9248113534155
 31
0.0
  0
LINE
  5
1053
330
2
100
AcDbEntity
  8
0
100
AcDbLine
 10
921.2227015043691
 20
105.9248113534119
 30
0.0
 11
946.2762643936198
 21
105.4774263018186
 31
0.0
  0
ARC
  5
1054
330
2
100
AcDbEntity
  8
0
100
AcDbCircle
 10
921.2762643936194
 20
108.9243331514478
 30
0.0
 40
3.0
100
AcDbArc
 50
180.0
 51
268.9769698113385
  0
LINE
  5
1099
330
2
100
AcDbEntity
  8
0
100
AcDbLine
 10
969.2762643936047
 20
164.9774263018313
 30
0.0
 11
917.2762643936044
 21
164.9774263018313
 31
0.0
  0
LINE
  5
109A
330
2
100
AcDbEntity
  8
0
100
AcDbLine
 10
969.2762643936047
 20
102.9774263018295
 30
0.0
 11
917.2762643936025
 21
102.9774263018295
 31
0.0
  0
LINE
  5
1178
330
2
100
AcDbEntity
  8
0
100
AcDbLine
 10
969.2762643936076
 20
97.97742630183137
 30
0.0
 11
969.2762643936067
 21
105.888140587536
 31
0.0
  0
LINE
  5
1179
330
2
100
AcDbEntity
  8
0
100
AcDbLine
 10
969.2762643936021
 20
162.0667120161285
 30
0.0
 11
969.2762643936012
 21
169.9774263018313
 31
0.0
  0
LINE
  5
117A
330
2
100
AcDbEntity
  8
0
100
AcDbLine
 10
969.2762643936038
 20
97.97742630183137
 30
0.0
 11
969.2762643936038
 21
105.888140587536
 31
0.0
  0
LINE
  5
117B
330
2
100
AcDbEntity
  8
0
100
AcDbLine
 10
969.2762643936044
 20
162.0667120161285
 30
0.0
 11
969.2762643936044
 21
169.9774263018313
 31
0.0
  0
LINE
  5
117C
330
2
100
AcDbEntity
  8
0
100
AcDbLine
 10
969.2762643936044
 20
97.97742630183137
 30
0.0
 11
969.2762643936044
 21
105.888140587536
 31
0.0
  0
LINE
  5
117D
330
2
100
AcDbEntity
  8
0
100
AcDbLine
 10
969.2762643936044
 20
162.0667120161285
 30
0.0
 11
969.2762643936044
 21
169.9774263018313
 31
0.0
  0
LINE
  5
117E
330
2
100
AcDbEntity
  8
0
100
AcDbLine
 10
969.2762643936076
 20
169.9774263018313
 30
0.0
 11
969.2762643936067
 21
162.0667120161285
 31
0.0
  0
LINE
  5
117F
330
2
100
AcDbEntity
  8
0
100
AcDbLine
 10
969.2762643936021
 20
105.888140587536
 30
0.0
 11
969.2762643936012
 21
97.97742630183137
 31
0.0
  0
LINE
  5
1180
330
2
100
AcDbEntity
  8
0
100
AcDbLine
 10
979.776264393552
 20
115.2274263018313
 30
0.0
 11
979.776264393552
 21
152.7274263018313
 31
0.0
  0
LINE
  5
1181
330
2
100
AcDbEntity
  8
0
100
AcDbLine
 10
969.2762643936044
 20
97.97742630183137
 30
0.0
 11
977.7849909290985
 21
98.05168083337385
 31
0.0
  0
LINE
  5
1182
330
2
100
AcDbEntity
  8
0
100
AcDbLine
 10
985.9762643935519
 20
110.9774263018295
 30
0.0
 11
987.2762643935516
 21
110.9774263018295
 31
0.0
  0
LINE
  5
1183
330
2
100
AcDbEntity
  8
0
100
AcDbLine
 10
982.0762643936532
 20
110.9774263018295
 30
0.0
 11
983.5762643935513
 21
110.9774263018295
 31
0.0
  0
LINE
  5
1184
330
2
100
AcDbEntity
  8
0
100
AcDbLine
 10
988.2762643935521
 20
111.5547765710195
 30
0.0
 11
988.2762643935521
 21
156.4000760326413
 31
0.0
  0
LINE
  5
1185
330
2
100
AcDbEntity
  8
0
100
AcDbLine
 10
988.2762643935521
 20
111.5547765710195
 30
0.0
 11
987.2762643935516
 21
110.9774263018295
 31
0.0
  0
LINE
  5
1186
330
2
100
AcDbEntity
  8
0
100
AcDbLine
 10
985.9762643935519
 20
156.9774263018313
 30
0.0
 11
987.2762643935521
 21
156.9774263018313
 31
0.0
  0
LINE
  5
1187
330
2
100
AcDbEntity
  8
0
100
AcDbLine
 10
982.0762643936532
 20
156.9774263018313
 30
0.0
 11
983.5762643935519
 21
156.9774263018313
 31
0.0
  0
LINE
  5
1188
330
2
100
AcDbEntity
  8
0
100
AcDbLine
 10
980.2762643935521
 20
115.2274263018313
 30
0.0
 11
980.2762643935521
 21
152.7274263018313
 31
0.0
  0
LINE
  5
1189
330
2
100
AcDbEntity
  8
0
100
AcDbLine
 10
988.2762643935521
 20
156.4000760326413
 30
0.0
 11
987.2762643935521
 21
156.9774263018313
 31
0.0
  0
LINE
  5
118A
330
2
100
AcDbEntity
  8
0
100
AcDbLine
 10
978.7762643936003
 20
99.05164275643773
 30
0.0
 11
978.7762643936003
 21
106.7274263018295
 31
0.0
  0
LINE
  5
118B
330
2
100
AcDbEntity
  8
0
100
AcDbLine
 10
978.7762643936003
 20
115.2274263018313
 30
0.0
 11
978.7762643936003
 21
152.7274263018313
 31
0.0
  0
LINE
  5
118C
330
2
100
AcDbEntity
  8
0
100
AcDbLine
 10
978.7762643936003
 20
161.2274263018313
 30
0.0
 11
978.7762643936003
 21
168.9774263018313
 31
0.0
  0
ARC
  5
118D
330
2
100
AcDbEntity
  8
0
100
AcDbCircle
 10
977.7762643936002
 20
99.05164275643773
 30
0.0
 40
1.0
100
AcDbArc
 50
270.4999999999915
 51
0.0
  0
LINE
  5
118E
330
2
100
AcDbEntity
  8
0
100
AcDbLine
 10
969.2762643936044
 20
169.9774263018313
 30
0.0
 11
969.2762643936044
 21
162.0667120161285
 31
0.0
  0
LINE
  5
118F
330
2
100
AcDbEntity
  8
0
100
AcDbLine
 10
969.2762643936044
 20
105.888140587536
 30
0.0
 11
969.2762643936044
 21
97.97742630183137
 31
0.0
  0
LINE
  5
1190
330
2
100
AcDbEntity
  8
0
100
AcDbLine
 10
985.7762643935512
 20
111.1774263018302
 30
0.0
 11
985.7762643935521
 21
156.7774263018306
 31
0.0
  0
LINE
  5
1191
330
2
100
AcDbEntity
  8
0
100
AcDbLine
 10
983.9762643935518
 20
156.2774263018306
 30
0.0
 11
985.5762643935522
 21
156.2774263018306
 31
0.0
  0
LINE
  5
1192
330
2
100
AcDbEntity
  8
0
100
AcDbLine
 10
983.7762643935516
 20
111.1774263018302
 30
0.0
 11
983.7762643935516
 21
156.7774263018306
 31
0.0
  0
ARC
  5
1193
330
2
100
AcDbEntity
  8
0
100
AcDbCircle
 10
985.9762643935519
 20
156.7774263018306
 30
0.0
 40
0.2
100
AcDbArc
 50
90.0
 51
180.0
  0
ARC
  5
1194
330
2
100
AcDbEntity
  8
0
100
AcDbCircle
 10
985.5762643935522
 20
156.4774263018313
 30
0.0
 40
0.2
100
AcDbArc
 50
270.0
 51
0.0
  0
ARC
  5
1195
330
2
100
AcDbEntity
  8
0
100
AcDbCircle
 10
983.9762643935518
 20
156.4774263018313
 30
0.0
 40
0.2
100
AcDbArc
 50
180.0
 51
270.0
  0
LINE
  5
1196
330
2
100
AcDbEntity
  8
0
100
AcDbLine
 10
983.7762643935516
 20
156.7774263018306
 30
0.0
 11
983.5762643935519
 21
156.9774263018313
 31
0.0
  0
LINE
  5
1197
330
2
100
AcDbEntity
  8
0
100
AcDbLine
 10
983.7762643935516
 20
111.1774263018302
 30
0.0
 11
983.5762643935519
 21
110.9774263018313
 31
0.0
  0
LINE
  5
1198
330
2
100
AcDbEntity
  8
0
100
AcDbLine
 10
983.9762643935518
 20
111.6774263018302
 30
0.0
 11
985.5762643935518
 21
111.6774263018302
 31
0.0
  0
ARC
  5
1199
330
2
100
AcDbEntity
  8
0
100
AcDbCircle
 10
983.9762643935518
 20
111.4774263018313
 30
0.0
 40
0.2
100
AcDbArc
 50
90.0
 51
180.0
  0
ARC
  5
119A
330
2
100
AcDbEntity
  8
0
100
AcDbCircle
 10
985.5762643935518
 20
111.4774263018313
 30
0.0
 40
0.2
100
AcDbArc
 50
0.0
 51
90.0
  0
ARC
  5
119B
330
2
100
AcDbEntity
  8
0
100
AcDbCircle
 10
985.9762643935519
 20
111.1774263018302
 30
0.0
 40
0.2
100
AcDbArc
 50
180.0
 51
270.0
  0
LINE
  5
119C
330
2
100
AcDbEntity
  8
0
100
AcDbLine
 10
983.5762643935519
 20
156.9774263018313
 30
0.0
 11
983.5762643935513
 21
110.9774263018295
 31
0.0
  0
LINE
  5
119D
330
2
100
AcDbEntity
  8
0
100
AcDbLine
 10
987.2762643935516
 20
110.9774263018295
 30
0.0
 11
987.2762643935521
 21
156.9774263018313
 31
0.0
  0
LINE
  5
119E
330
2
100
AcDbEntity
  8
0
100
AcDbLine
 10
971.9490723774006
 20
161.9541010599256
 30
0.0
 11
975.7849909291026
 21
161.9206255058704
 31
0.0
  0
LINE
  5
119F
330
2
100
AcDbEntity
  8
0
100
AcDbLine
 10
978.7762643936003
 20
168.903209847225
 30
0.0
 11
978.7762643936003
 21
161.2274263018313
 31
0.0
  0
LINE
  5
11A0
330
2
100
AcDbEntity
  8
0
100
AcDbLine
 10
978.7762643936003
 20
106.7274263018295
 30
0.0
 11
978.7762643936003
 21
99.05164275643773
 31
0.0
  0
LINE
  5
11A1
330
2
100
AcDbEntity
  8
0
100
AcDbLine
 10
969.2762643936044
 20
169.9774263018313
 30
0.0
 11
969.2762643936044
 21
162.0667120161285
 31
0.0
  0
LINE
  5
11A2
330
2
100
AcDbEntity
  8
0
100
AcDbLine
 10
969.2762643936044
 20
105.888140587536
 30
0.0
 11
969.2762643936044
 21
97.97742630183137
 31
0.0
  0
LINE
  5
11A3
330
2
100
AcDbEntity
  8
0
100
AcDbLine
 10
969.2762643936044
 20
169.9774263018313
 30
0.0
 11
977.7849909290985
 21
169.9031717702889
 31
0.0
  0
ARC
  5
11A4
330
2
100
AcDbEntity
  8
0
100
AcDbCircle
 10
977.7762643936002
 20
168.903209847225
 30
0.0
 40
1.0
100
AcDbArc
 50
0.0
 51
89.50000000000846
  0
LINE
  5
11A5
330
2
100
AcDbEntity
  8
0
100
AcDbLine
 10
976.2719011259036
 20
151.5211748737671
 30
0.0
 11
976.7762643936043
 21
151.5167733622126
 31
0.0
  0
LINE
  5
11A6
330
2
100
AcDbEntity
  8
0
100
AcDbLine
 10
975.776264393653
 20
152.0211558352963
 30
0.0
 11
975.776264393653
 21
160.9293904505954
 31
0.0
  0
ARC
  5
11A7
330
2
100
AcDbEntity
  8
0
100
AcDbCircle
 10
974.776264393653
 20
160.9293904505954
 30
0.0
 40
1.0
100
AcDbArc
 50
0.0
 51
89.50000000000846
  0
ARC
  5
11A8
330
2
100
AcDbEntity
  8
0
100
AcDbCircle
 10
976.2762643936531
 20
152.0211558352963
 30
0.0
 40
0.5
100
AcDbArc
 50
180.0
 51
269.5000000000084
  0
ARC
  5
11A9
330
2
100
AcDbEntity
  8
0
100
AcDbCircle
 10
975.7762643936043
 20
160.9206635828047
 30
0.0
 40
1.0
100
AcDbArc
 50
17.86424478095049
 51
89.50000000000846
  0
LINE
  5
11AA
330
2
100
AcDbEntity
  8
0
100
AcDbLine
 10
971.9490723773878
 20
106.0007515437352
 30
0.0
 11
975.7849909291026
 21
106.0342270977923
 31
0.0
  0
LINE
  5
11AB
330
2
100
AcDbEntity
  8
0
100
AcDbLine
 10
976.2719011259036
 20
116.4336777298937
 30
0.0
 11
976.7762643936043
 21
116.4380792414501
 31
0.0
  0
LINE
  5
11AC
330
2
100
AcDbEntity
  8
0
100
AcDbLine
 10
975.776264393653
 20
115.9336967683645
 30
0.0
 11
975.776264393653
 21
107.0254621530654
 31
0.0
  0
ARC
  5
11AD
330
2
100
AcDbEntity
  8
0
100
AcDbCircle
 10
974.776264393653
 20
107.0254621530654
 30
0.0
 40
1.0
100
AcDbArc
 50
270.4999999999915
 51
0.0
  0
ARC
  5
11AE
330
2
100
AcDbEntity
  8
0
100
AcDbCircle
 10
976.2762643936531
 20
115.9336967683645
 30
0.0
 40
0.5
100
AcDbArc
 50
90.49999999999155
 51
180.0
  0
ARC
  5
11AF
330
2
100
AcDbEntity
  8
0
100
AcDbCircle
 10
975.7762643936043
 20
107.0341890208562
 30
0.0
 40
1.0
100
AcDbArc
 50
270.4999999999915
 51
342.1357552190495
  0
LINE
  5
11B0
330
2
100
AcDbEntity
  8
0
100
AcDbLine
 10
976.7762643936043
 20
152.7274263018313
 30
0.0
 11
976.7762643936043
 21
115.2274263018313
 31
0.0
  0
LINE
  5
11F3
330
2
100
AcDbEntity
  8
CENTER
  6
CENS
100
AcDbLine
 10
984.9973758575188
 20
156.9774263018313
 30
0.0
 11
965.2060077898987
 21
156.9774263018313
 31
0.0
  0
LINE
  5
11F4
330
2
100
AcDbEntity
  8
0
100
AcDbLine
 10
977.0762643936532
 20
161.2274263018313
 30
0.0
 11
977.0762643936532
 21
152.7274263018313
 31
0.0
  0
LINE
  5
11F5
330
2
100
AcDbEntity
  8
0
100
AcDbLine
 10
981.776264393653
 20
161.2274263018313
 30
0.0
 11
981.776264393653
 21
152.7274263018313
 31
0.0
  0
LINE
  5
11F6
330
2
100
AcDbEntity
  8
0
100
AcDbLine
 10
982.0762643936532
 20
160.7078110595609
 30
0.0
 11
982.0762643936532
 21
153.2470415441018
 31
0.0
  0
LINE
  5
11F7
330
2
100
AcDbEntity
  8
0
100
AcDbLine
 10
981.776264393653
 20
161.2274263018313
 30
0.0
 11
982.0762643936532
 21
160.7078110595609
 31
0.0
  0
LINE
  5
11F8
330
2
100
AcDbEntity
  8
0
100
AcDbLine
 10
981.776264393653
 20
161.2274263018313
 30
0.0
 11
975.776264393653
 21
161.2274263018313
 31
0.0
  0
LINE
  5
11F9
330
2
100
AcDbEntity
  8
0
100
AcDbLine
 10
981.776264393653
 20
152.7274263018313
 30
0.0
 11
975.776264393653
 21
152.7274263018313
 31
0.0
  0
LINE
  5
11FA
330
2
100
AcDbEntity
  8
0
100
AcDbLine
 10
981.776264393653
 20
152.7274263018313
 30
0.0
 11
982.0762643936532
 21
153.2470415441018
 31
0.0
  0
LINE
  5
11FB
330
2
100
AcDbEntity
  8
CENTER
  6
CENS
100
AcDbLine
 10
984.9973758575188
 20
110.9774263018313
 30
0.0
 11
965.2060077898987
 21
110.9774263018313
 31
0.0
  0
LINE
  5
11FC
330
2
100
AcDbEntity
  8
0
100
AcDbLine
 10
977.0762643936532
 20
106.7274263018313
 30
0.0
 11
977.0762643936532
 21
115.2274263018313
 31
0.0
  0
LINE
  5
11FD
330
2
100
AcDbEntity
  8
0
100
AcDbLine
 10
981.776264393653
 20
106.7274263018313
 30
0.0
 11
981.776264393653
 21
115.2274263018313
 31
0.0
  0
LINE
  5
11FE
330
2
100
AcDbEntity
  8
0
100
AcDbLine
 10
982.0762643936532
 20
107.2470415441018
 30
0.0
 11
982.0762643936532
 21
114.7078110595591
 31
0.0
  0
LINE
  5
11FF
330
2
100
AcDbEntity
  8
0
100
AcDbLine
 10
981.776264393653
 20
106.7274263018313
 30
0.0
 11
982.0762643936532
 21
107.2470415441018
 31
0.0
  0
LINE
  5
1200
330
2
100
AcDbEntity
  8
0
100
AcDbLine
 10
981.776264393653
 20
106.7274263018313
 30
0.0
 11
975.776264393653
 21
106.7274263018313
 31
0.0
  0
LINE
  5
1201
330
2
100
AcDbEntity
  8
0
100
AcDbLine
 10
981.776264393653
 20
115.2274263018313
 30
0.0
 11
975.776264393653
 21
115.2274263018313
 31
0.0
  0
LINE
  5
1202
330
2
100
AcDbEntity
  8
0
100
AcDbLine
 10
981.776264393653
 20
115.2274263018313
 30
0.0
 11
982.0762643936532
 21
114.7078110595591
 31
0.0
  0
LINE
  5
12DF
330
2
100
AcDbEntity
  8
0
100
AcDbLine
 10
981.7762643936507
 20
160.7274263018441
 30
0.0
 11
981.7762643936507
 21
169.2274263018441
 31
0.0
  0
LINE
  5
12E0
330
2
100
AcDbEntity
  8
0
100
AcDbLine
 10
982.0762643936509
 20
161.2470415441145
 30
0.0
 11
982.0762643936509
 21
168.7078110595736
 31
0.0
  0
LINE
  5
12E1
330
2
100
AcDbEntity
  8
0
100
AcDbLine
 10
981.9206019609458
 20
160.9774263018395
 30
0.0
 11
982.0762643936509
 21
161.2470415441145
 31
0.0
  0
LINE
  5
12E2
330
2
100
AcDbEntity
  8
0
100
AcDbLine
 10
981.7762643936507
 20
169.2274263018441
 30
0.0
 11
978.7222473165721
 21
169.2274263018441
 31
0.0
  0
LINE
  5
12E3
330
2
100
AcDbEntity
  8
0
100
AcDbLine
 10
981.7762643936507
 20
169.2274263018441
 30
0.0
 11
982.0762643936509
 21
168.7078110595736
 31
0.0
  0
LINE
  5
12E4
330
2
100
AcDbEntity
  8
0
100
AcDbLine
 10
981.7762643936507
 20
107.2274263018186
 30
0.0
 11
981.7762643936507
 21
98.72742630181864
 31
0.0
  0
LINE
  5
12E5
330
2
100
AcDbEntity
  8
0
100
AcDbLine
 10
982.0762643936509
 20
106.7078110595481
 30
0.0
 11
982.0762643936509
 21
99.24704154408908
 31
0.0
  0
LINE
  5
12E6
330
2
100
AcDbEntity
  8
0
100
AcDbLine
 10
981.9206019609458
 20
106.9774263018231
 30
0.0
 11
982.0762643936509
 21
106.7078110595481
 31
0.0
  0
LINE
  5
12E7
330
2
100
AcDbEntity
  8
0
100
AcDbLine
 10
981.7762643936507
 20
98.72742630181864
 30
0.0
 11
978.7222473165721
 21
98.72742630181864
 31
0.0
  0
LINE
  5
12E8
330
2
100
AcDbEntity
  8
0
100
AcDbLine
 10
981.7762643936507
 20
98.72742630181864
 30
0.0
 11
982.0762643936509
 21
99.24704154408908
 31
0.0
  0
LINE
  5
12F0
330
2
100
AcDbEntity
  8
CENTER
  6
CENS
100
AcDbLine
 10
965.1153735996235
 20
164.9774263018313
 30
0.0
 11
985.8497858896489
 21
164.9774263018313
 31
0.0
  0
LINE
  5
12F1
330
2
100
AcDbEntity
  8
CENTER
  6
CENS
100
AcDbLine
 10
965.1153735996235
 20
102.9774263018059
 30
0.0
 11
985.8497858896489
 21
102.9774263018059
 31
0.0
  0
ARC
  5
12F3
330
2
100
AcDbEntity
  8
0
100
AcDbCircle
 10
946.2762643936049
 20
133.9774263018313
 30
0.0
 40
27.00000000000004
100
AcDbArc
 50
313.6028189726618
 51
73.73979529164896
  0
CIRCLE
  5
12F4
330
2
100
AcDbEntity
  8
HIDS
100
AcDbCircle
 10
946.2762643936049
 20
133.9774263018313
 30
0.0
 40
17.49999999999926
  0
CIRCLE
  5
12F5
330
2
100
AcDbEntity
  8
0
100
AcDbCircle
 10
946.2762643936049
 20
133.9774263018313
 30
0.0
 40
15.0
  0
LINE
  5
12F6
330
2
100
AcDbEntity
  8
0
100
AcDbLine
 10
930.2762643936048
 20
153.9774263018313
 30
0.0
 11
962.2762643936049
 21
153.9774263018313
 31
0.0
  0
LINE
  5
12F7
330
2
100
AcDbEntity
  8
HIDS
100
AcDbLine
 10
932.5262643936047
 20
159.9774263018313
 30
0.0
 11
932.5262643936047
 21
144.802743849135
 31
0.0
  0
ARC
  5
12F8
330
2
100
AcDbEntity
  8
0
100
AcDbCircle
 10
946.2762643936049
 20
133.9774263018313
 30
0.0
 40
27.00000000000004
100
AcDbArc
 50
133.6028189726618
 51
253.7397952916489
  0
ARC
  5
12F9
330
2
100
AcDbEntity
  8
0
100
AcDbCircle
 10
930.2762643936048
 20
157.9774263018313
 30
0.0
 40
2.0
100
AcDbArc
 50
90.0
 51
180.0
  0
ARC
  5
12FA
330
2
100
AcDbEntity
  8
0
100
AcDbCircle
 10
926.2762643936047
 20
154.9774263018313
 30
0.0
 40
2.0
100
AcDbArc
 50
313.6028189726618
 51
0.0
  0
ARC
  5
12FB
330
2
100
AcDbEntity
  8
0
100
AcDbCircle
 10
930.2762643936048
 20
149.9774263018313
 30
0.0
 40
4.0
100
AcDbArc
 50
90.0
 51
180.0
  0
LINE
  5
12FC
330
2
100
AcDbEntity
  8
0
100
AcDbLine
 10
953.2762643936058
 20
159.9774263018313
 30
0.0
 11
929.1512661054612
 21
159.9774263018313
 31
0.0
  0
LINE
  5
12FD
330
2
100
AcDbEntity
  8
0
100
AcDbLine
 10
928.2762643936049
 20
157.9774263018313
 30
0.0
 11
928.2762643936049
 21
154.9774263018313
 31
0.0
  0
LINE
  5
12FE
330
2
100
AcDbEntity
  8
HIDS
100
AcDbLine
 10
944.0262643936048
 20
151.3321806936389
 30
0.0
 11
944.0262643936048
 21
159.9774263018313
 31
0.0
  0
ARC
  5
12FF
330
2
100
AcDbEntity
  8
0
100
AcDbCircle
 10
953.2762643936058
 20
157.9774263018313
 30
0.0
 40
2.0
100
AcDbArc
 50
73.73979529164896
 51
90.0
  0
LINE
  5
1300
330
2
100
AcDbEntity
  8
0
100
AcDbLine
 10
966.2762643936048
 20
149.9774263018313
 30
0.0
 11
966.2762643936048
 21
117.9774263018313
 31
0.0
  0
ARC
  5
1301
330
2
100
AcDbEntity
  8
0
100
AcDbCircle
 10
971.2762643936049
 20
158.9774263018313
 30
0.0
 40
3.0
100
AcDbArc
 50
0.0
 51
90.0
  0
ARC
  5
1302
330
2
100
AcDbEntity
  8
0
100
AcDbCircle
 10
962.2762643936049
 20
149.9774263018313
 30
0.0
 40
4.0
100
AcDbArc
 50
0.0
 51
90.0
  0
LINE
  5
1303
330
2
100
AcDbEntity
  8
0
100
AcDbLine
 10
939.2762643936048
 20
107.9774263018313
 30
0.0
 11
962.2762643936049
 21
107.9774263018313
 31
0.0
  0
LINE
  5
1304
330
2
100
AcDbEntity
  8
0
100
AcDbLine
 10
921.2762643936049
 20
105.9774263018313
 30
0.0
 11
971.2762643936049
 21
105.9774263018313
 31
0.0
  0
LINE
  5
1305
330
2
100
AcDbEntity
  8
0
100
AcDbLine
 10
962.2762643936049
 20
113.9774263018313
 30
0.0
 11
930.2762643936048
 21
113.9774263018313
 31
0.0
  0
LINE
  5
1306
330
2
100
AcDbEntity
  8
0
100
AcDbLine
 10
926.2762643936047
 20
117.9774263018313
 30
0.0
 11
926.2762643936047
 21
149.9774263018313
 31
0.0
  0
ARC
  5
1307
330
2
100
AcDbEntity
  8
0
100
AcDbCircle
 10
930.2762643936048
 20
117.9774263018313
 30
0.0
 40
4.0
100
AcDbArc
 50
180.0
 51
270.0
  0
ARC
  5
1308
330
2
100
AcDbEntity
  8
0
100
AcDbCircle
 10
921.2762643936049
 20
108.9774263018313
 30
0.0
 40
3.0
100
AcDbArc
 50
180.0
 51
270.0
  0
ARC
  5
1309
330
2
100
AcDbEntity
  8
0
100
AcDbCircle
 10
939.2762643936048
 20
109.9774263018313
 30
0.0
 40
2.0
100
AcDbArc
 50
253.7397952916489
 51
270.0
  0
ARC
  5
130A
330
2
100
AcDbEntity
  8
0
100
AcDbCircle
 10
921.2762643936049
 20
158.9774263018313
 30
0.0
 40
3.0
100
AcDbArc
 50
90.0
 51
180.0
  0
ARC
  5
130B
330
2
100
AcDbEntity
  8
0
100
AcDbCircle
 10
966.2762643936048
 20
112.9774263018313
 30
0.0
 40
2.0
100
AcDbArc
 50
133.6028189726618
 51
180.0
  0
ARC
  5
130C
330
2
100
AcDbEntity
  8
0
100
AcDbCircle
 10
962.2762643936049
 20
117.9774263018313
 30
0.0
 40
4.0
100
AcDbArc
 50
270.0
 51
0.0
  0
ARC
  5
130D
330
2
100
AcDbEntity
  8
0
100
AcDbCircle
 10
962.2762643936049
 20
109.9774263018313
 30
0.0
 40
2.0
100
AcDbArc
 50
270.0
 51
0.0
  0
LINE
  5
130E
330
2
100
AcDbEntity
  8
0
100
AcDbLine
 10
964.2762643936048
 20
109.9774263018313
 30
0.0
 11
964.2762643936048
 21
112.9774263018313
 31
0.0
  0
ARC
  5
130F
330
2
100
AcDbEntity
  8
0
100
AcDbCircle
 10
971.2762643936049
 20
108.9774263018313
 30
0.0
 40
3.0
100
AcDbArc
 50
270.0
 51
0.0
  0
LINE
  5
1310
330
2
100
AcDbEntity
  8
0
100
AcDbLine
 10
921.2762643936049
 20
161.9774263018313
 30
0.0
 11
929.6533013125927
 21
161.9774263018313
 31
0.0
  0
LINE
  5
1311
330
2
100
AcDbEntity
  8
0
100
AcDbLine
 10
946.6492274746167
 20
161.9774263018313
 30
0.0
 11
971.2762643936057
 21
161.9774263018313
 31
0.0
  0
LINE
  5
1312
330
2
100
AcDbEntity
  8
CENTER
100
AcDbLine
 10
970.6714483445411
 20
104.7072423508959
 30
0.0
 11
970.6714483445411
 21
114.4572423508959
 31
0.0
  0
LINE
  5
1313
330
2
100
AcDbEntity
  8
CENTER
100
AcDbLine
 10
965.7964483445411
 20
109.5822423508959
 30
0.0
 11
975.5464483445411
 21
109.5822423508959
 31
0.0
  0
LINE
  5
1314
330
2
100
AcDbEntity
  8
CENTER
100
AcDbLine
 10
921.8810804426693
 20
104.7072423508959
 30
0.0
 11
921.8810804426693
 21
114.4572423508959
 31
0.0
  0
LINE
  5
1315
330
2
100
AcDbEntity
  8
CENTER
100
AcDbLine
 10
917.0060804426693
 20
109.5822423508959
 30
0.0
 11
926.7560804426693
 21
109.5822423508959
 31
0.0
  0
LINE
  5
1316
330
2
100
AcDbEntity
  8
CENTER
100
AcDbLine
 10
921.8810804426693
 20
153.4976102527668
 30
0.0
 11
921.8810804426693
 21
163.2476102527668
 31
0.0
  0
LINE
  5
1317
330
2
100
AcDbEntity
  8
CENTER
100
AcDbLine
 10
917.0060804426693
 20
158.3726102527668
 30
0.0
 11
926.7560804426693
 21
158.3726102527668
 31
0.0
  0
LINE
  5
1318
330
2
100
AcDbEntity
  8
CENTER
100
AcDbLine
 10
970.6714483445411
 20
153.4976102527668
 30
0.0
 11
970.6714483445411
 21
163.2476102527668
 31
0.0
  0
LINE
  5
1319
330
2
100
AcDbEntity
  8
CENTER
100
AcDbLine
 10
965.7964483445411
 20
158.3726102527668
 30
0.0
 11
975.5464483445411
 21
158.3726102527668
 31
0.0
  0
CIRCLE
  5
131A
330
2
100
AcDbEntity
  8
0
100
AcDbCircle
 10
946.2762643936049
 20
133.9774263018313
 30
0.0
 40
12.25000000258501
  0
ARC
  5
131B
330
2
100
AcDbEntity
  8
0
100
AcDbCircle
 10
946.2762643936049
 20
133.9774263018313
 30
0.0
 40
4.577350271774776
100
AcDbArc
 50
9.430449844994965
 51
170.569550155005
  0
ARC
  5
131C
330
2
100
AcDbEntity
  8
0
100
AcDbCircle
 10
946.2762643936049
 20
133.9774263018313
 30
0.0
 40
4.577350271774776
100
AcDbArc
 50
189.4304498449949
 51
350.569550155005
  0
CIRCLE
  5
131D
330
2
100
AcDbEntity
  8
0
100
AcDbCircle
 10
946.2762643936049
 20
133.9774263018313
 30
0.0
 40
4.000000002585125
  0
CIRCLE
  5
131E
330
2
100
AcDbEntity
  8
0
100
AcDbCircle
 10
921.8810804426693
 20
158.3726102527668
 30
0.0
 40
1.732050807568871
  0
LWPOLYLINE
  5
131F
330
2
100
AcDbEntity
  8
0
100
AcDbPolyline
 90
        6
 70
     1
 43
0.0
 10
923.3810804426694
 20
159.2386356565518
 10
921.8810804426693
 20
160.1046610603368
 10
920.3810804426693
 20
159.2386356565518
 10
920.3810804426693
 20
157.5065848489827
 10
921.8810804426693
 20
156.6405594451986
 10
923.3810804426694
 20
157.5065848489827
  0
CIRCLE
  5
1320
330
2
100
AcDbEntity
  8
0
100
AcDbCircle
 10
921.8810804426693
 20
158.3726102527668
 30
0.0
 40
3.499999999999717
  0
CIRCLE
  5
1321
330
2
100
AcDbEntity
  8
0
100
AcDbCircle
 10
921.8810804426693
 20
158.3726102527668
 30
0.0
 40
2.980384757729353
  0
CIRCLE
  5
1322
330
2
100
AcDbEntity
  8
0
100
AcDbCircle
 10
970.6714483445411
 20
158.3726102527668
 30
0.0
 40
1.732050807568871
  0
LWPOLYLINE
  5
1323
330
2
100
AcDbEntity
  8
0
100
AcDbPolyline
 90
        6
 70
     1
 43
0.0
 10
972.1714483445412
 20
159.2386356565518
 10
970.6714483445411
 20
160.1046610603358
 10
969.1714483445412
 20
159.2386356565518
 10
969.1714483445412
 20
157.5065848489827
 10
970.6714483445411
 20
156.6405594451986
 10
972.1714483445412
 20
157.5065848489827
  0
CIRCLE
  5
1324
330
2
100
AcDbEntity
  8
0
100
AcDbCircle
 10
970.6714483445411
 20
158.3726102527668
 30
0.0
 40
3.499999999999717
  0
CIRCLE
  5
1325
330
2
100
AcDbEntity
  8
0
100
AcDbCircle
 10
970.6714483445411
 20
158.3726102527668
 30
0.0
 40
2.980384757729353
  0
CIRCLE
  5
1326
330
2
100
AcDbEntity
  8
0
100
AcDbCircle
 10
970.6714483445411
 20
109.5822423508959
 30
0.0
 40
1.732050807568871
  0
LWPOLYLINE
  5
1327
330
2
100
AcDbEntity
  8
0
100
AcDbPolyline
 90
        6
 70
     1
 43
0.0
 10
972.1714483445412
 20
110.4482677546799
 10
970.6714483445411
 20
111.314293158464
 10
969.1714483445412
 20
110.4482677546799
 10
969.1714483445412
 20
108.7162169471109
 10
970.6714483445411
 20
107.8501915433268
 10
972.1714483445412
 20
108.7162169471109
  0
CIRCLE
  5
1328
330
2
100
AcDbEntity
  8
0
100
AcDbCircle
 10
970.6714483445411
 20
109.5822423508959
 30
0.0
 40
3.499999999999717
  0
CIRCLE
  5
1329
330
2
100
AcDbEntity
  8
0
100
AcDbCircle
 10
970.6714483445411
 20
109.5822423508959
 30
0.0
 40
2.980384757729353
  0
CIRCLE
  5
132A
330
2
100
AcDbEntity
  8
0
100
AcDbCircle
 10
921.8810804426693
 20
109.5822423508959
 30
0.0
 40
1.732050807568871
  0
LWPOLYLINE
  5
132B
330
2
100
AcDbEntity
  8
0
100
AcDbPolyline
 90
        6
 70
     1
 43
0.0
 10
923.3810804426694
 20
110.4482677546799
 10
921.8810804426693
 20
111.314293158464
 10
920.3810804426693
 20
110.4482677546799
 10
920.3810804426693
 20
108.7162169471109
 10
921.8810804426693
 20
107.8501915433268
 10
923.3810804426694
 20
108.7162169471109
  0
CIRCLE
  5
132C
330
2
100
AcDbEntity
  8
0
100
AcDbCircle
 10
921.8810804426693
 20
109.5822423508959
 30
0.0
 40
3.499999999999717
  0
CIRCLE
  5
132D
330
2
100
AcDbEntity
  8
0
100
AcDbCircle
 10
921.8810804426693
 20
109.5822423508959
 30
0.0
 40
2.980384757729353
  0
LINE
  5
132E
330
2
100
AcDbEntity
  8
HIDS
100
AcDbLine
 10
942.2762643936057
 20
145.5559624787408
 30
0.0
 11
942.2762643936057
 21
138.9774263018313
 31
0.0
  0
LINE
  5
132F
330
2
100
AcDbEntity
  8
0
100
AcDbLine
 10
958.5032836542431
 20
133.2274263018313
 30
0.0
 11
950.2053228049808
 21
133.2274263018313
 31
0.0
  0
LINE
  5
1330
330
2
100
AcDbEntity
  8
0
100
AcDbLine
 10
950.2053228049808
 20
134.7274263018313
 30
0.0
 11
958.5032836542431
 21
134.7274263018313
 31
0.0
  0
LINE
  5
1331
330
2
100
AcDbEntity
  8
HIDS
100
AcDbLine
 10
936.2762643936058
 20
133.2274263018313
 30
0.0
 11
936.2762643936058
 21
126.9019404527886
 31
0.0
  0
LINE
  5
1332
330
2
100
AcDbEntity
  8
HIDS
100
AcDbLine
 10
940.2762643936057
 20
133.2274263018313
 30
0.0
 11
940.2762643936057
 21
123.2974216201843
 31
0.0
  0
LINE
  5
1333
330
2
100
AcDbEntity
  8
HIDS
100
AcDbLine
 10
935.0931297704327
 20
138.9774263018313
 30
0.0
 11
942.2762643936057
 21
138.9774263018313
 31
0.0
  0
LINE
  5
1334
330
2
100
AcDbEntity
  8
0
100
AcDbLine
 10
934.0492451329682
 20
134.7274263018313
 30
0.0
 11
942.3472059822298
 21
134.7274263018313
 31
0.0
  0
LINE
  5
1335
330
2
100
AcDbEntity
  8
0
100
AcDbLine
 10
934.0492451329682
 20
133.2274263018313
 30
0.0
 11
942.3472059822298
 21
133.2274263018313
 31
0.0
  0
LINE
  5
1336
330
2
100
AcDbEntity
  8
HIDS
100
AcDbLine
 10
940.7762643936058
 20
138.9774263018313
 30
0.0
 11
940.7762643936058
 21
134.7274263018313
 31
0.0
  0
LINE
  5
1337
330
2
100
AcDbEntity
  8
HIDS
100
AcDbLine
 10
935.7762643936057
 20
138.9774263018313
 30
0.0
 11
935.7762643936057
 21
134.7274263018313
 31
0.0
  0
LINE
  5
1338
330
2
100
AcDbEntity
  8
HIDS
100
AcDbLine
 10
941.2566491513352
 20
142.9774263018313
 30
0.0
 11
937.9658793243079
 21
142.9774263018313
 31
0.0
  0
LINE
  5
1339
330
2
100
AcDbEntity
  8
0
100
AcDbLine
 10
934.7762643936057
 20
142.6774263018312
 30
0.0
 11
937.6523151822521
 21
142.6774263018312
 31
0.0
  0
LINE
  5
133A
330
2
100
AcDbEntity
  8
0
100
AcDbLine
 10
934.7762643936057
 20
138.9774263018313
 30
0.0
 11
935.0931297704327
 21
138.9774263018313
 31
0.0
  0
LINE
  5
133B
330
2
100
AcDbEntity
  8
0
100
AcDbLine
 10
934.7762643936057
 20
142.6774263018312
 30
0.0
 11
935.2958796358761
 21
142.9774263018313
 31
0.0
  0
LINE
  5
133C
330
2
100
AcDbEntity
  8
0
100
AcDbLine
 10
934.7762643936057
 20
142.6774263018312
 30
0.0
 11
934.7762643936057
 21
138.9774263018313
 31
0.0
  0
LINE
  5
133D
330
2
100
AcDbEntity
  8
HIDS
100
AcDbLine
 10
941.2566491513352
 20
142.9774263018313
 30
0.0
 11
941.7762643936057
 21
142.6774263018312
 31
0.0
  0
LINE
  5
133E
330
2
100
AcDbEntity
  8
HIDS
100
AcDbLine
 10
941.7762643936057
 20
138.9774263018313
 30
0.0
 11
941.7762643936057
 21
142.6774263018312
 31
0.0
  0
LINE
  5
133F
330
2
100
AcDbEntity
  8
HIDS
100
AcDbLine
 10
937.6523151822521
 20
142.6774263018312
 30
0.0
 11
941.7762643936057
 21
142.6774263018312
 31
0.0
  0
LINE
  5
1340
330
2
100
AcDbEntity
  8
0
100
AcDbLine
 10
937.9658793243079
 20
142.9774263018313
 30
0.0
 11
935.2958796358761
 21
142.9774263018313
 31
0.0
  0
LINE
  5
1341
330
2
100
AcDbEntity
  8
HIDS
100
AcDbLine
 10
935.0931297704327
 20
138.9774263018313
 30
0.0
 11
941.7762643936057
 21
138.9774263018313
 31
0.0
  0
LINE
  5
1342
330
2
100
AcDbEntity
  8
HIDS
100
AcDbLine
 10
936.2762643936058
 20
138.9774263018313
 30
0.0
 11
936.2762643936058
 21
134.7274263018313
 31
0.0
  0
LINE
  5
1343
330
2
100
AcDbEntity
  8
HIDS
100
AcDbLine
 10
940.2762643936057
 20
138.9774263018313
 30
0.0
 11
940.2762643936057
 21
134.7274263018313
 31
0.0
  0
LINE
  5
1344
330
2
100
AcDbEntity
  8
HIDS
100
AcDbLine
 10
940.2762643936057
 20
138.9774263018313
 30
0.0
 11
939.9429310602718
 21
137.3107596351653
 31
0.0
  0
LINE
  5
1345
330
2
100
AcDbEntity
  8
HIDS
100
AcDbLine
 10
936.2762643936058
 20
138.9774263018313
 30
0.0
 11
936.6095977269388
 21
137.3107596351653
 31
0.0
  0
LINE
  5
1346
330
2
100
AcDbEntity
  8
0
100
AcDbLine
 10
937.076264393605
 20
123.9774263018313
 30
0.0
 11
939.200778544562
 21
123.9774263018313
 31
0.0
  0
LINE
  5
1347
330
2
100
AcDbEntity
  8
0
100
AcDbLine
 10
936.2762643936058
 20
124.7774263018315
 30
0.0
 11
938.1878467486021
 21
124.7774263018315
 31
0.0
  0
LINE
  5
1348
330
2
100
AcDbEntity
  8
HIDS
100
AcDbLine
 10
940.2762643936057
 20
137.3107596351653
 30
0.0
 11
936.2762643936058
 21
137.3107596351653
 31
0.0
  0
LINE
  5
1349
330
2
100
AcDbEntity
  8
HIDS
100
AcDbLine
 10
936.6095977269388
 20
137.3107596351653
 30
0.0
 11
936.6095977269388
 21
134.7274263018313
 31
0.0
  0
LINE
  5
134A
330
2
100
AcDbEntity
  8
0
100
AcDbLine
 10
936.2762643936058
 20
124.7774263018315
 30
0.0
 11
937.076264393605
 21
123.9774263018313
 31
0.0
  0
LINE
  5
134B
330
2
100
AcDbEntity
  8
HIDS
100
AcDbLine
 10
939.9429310602718
 20
137.3107596351653
 30
0.0
 11
939.9429310602718
 21
134.7274263018313
 31
0.0
  0
LINE
  5
134C
330
2
100
AcDbEntity
  8
HIDS
100
AcDbLine
 10
940.2762643936057
 20
124.7774263018315
 30
0.0
 11
938.2762643936057
 21
124.7774263018315
 31
0.0
  0
LINE
  5
134D
330
2
100
AcDbEntity
  8
0
100
AcDbLine
 10
939.4762643936056
 20
123.9774263018313
 30
0.0
 11
939.200778544562
 21
123.9774263018313
 31
0.0
  0
LINE
  5
134E
330
2
100
AcDbEntity
  8
HIDS
100
AcDbLine
 10
940.2762643936057
 20
124.7774263018315
 30
0.0
 11
939.4762643936056
 21
123.9774263018313
 31
0.0
  0
LINE
  5
134F
330
2
100
AcDbEntity
  8
0
100
AcDbLine
 10
940.2762643936057
 20
134.7274263018313
 30
0.0
 11
940.2762643936057
 21
133.2274263018313
 31
0.0
  0
LINE
  5
1350
330
2
100
AcDbEntity
  8
HOJO
100
AcDbLine
 10
939.9429310602718
 20
134.7274263018313
 30
0.0
 11
939.9429310602718
 21
133.2274263018313
 31
0.0
  0
LINE
  5
1351
330
2
100
AcDbEntity
  8
HOJO
100
AcDbLine
 10
936.6095977269388
 20
134.7274263018313
 30
0.0
 11
936.6095977269388
 21
133.2274263018313
 31
0.0
  0
LINE
  5
1352
330
2
100
AcDbEntity
  8
0
100
AcDbLine
 10
936.2762643936058
 20
134.7274263018313
 30
0.0
 11
936.2762643936058
 21
133.2274263018313
 31
0.0
  0
LINE
  5
1353
330
2
100
AcDbEntity
  8
HIDS
100
AcDbLine
 10
936.6095977269388
 20
133.2274263018313
 30
0.0
 11
936.6095977269388
 21
126.4529292717595
 31
0.0
  0
LINE
  5
1354
330
2
100
AcDbEntity
  8
HIDS
100
AcDbLine
 10
936.2762643936058
 20
133.2274263018313
 30
0.0
 11
936.2762643936058
 21
126.9019404527886
 31
0.0
  0
LINE
  5
1355
330
2
100
AcDbEntity
  8
HIDS
100
AcDbLine
 10
939.9429310602718
 20
133.2274263018313
 30
0.0
 11
939.9429310602718
 21
124.4440929684985
 31
0.0
  0
LINE
  5
1356
330
2
100
AcDbEntity
  8
HIDS
100
AcDbLine
 10
940.2762643936057
 20
133.2274263018313
 30
0.0
 11
940.2762643936057
 21
124.7774263018315
 31
0.0
  0
LINE
  5
1357
330
2
100
AcDbEntity
  8
0
100
AcDbLine
 10
938.1878467486021
 20
124.7774263018315
 30
0.0
 11
938.2762643936057
 21
124.7774263018315
 31
0.0
  0
LINE
  5
1358
330
2
100
AcDbEntity
  8
HOJO
100
AcDbLine
 10
936.6095977269388
 20
126.4529292717595
 30
0.0
 11
936.6095977269388
 21
124.4440929684985
 31
0.0
  0
LINE
  5
1359
330
2
100
AcDbEntity
  8
0
100
AcDbLine
 10
936.2762643936058
 20
126.9019404527886
 30
0.0
 11
936.2762643936058
 21
124.7774263018315
 31
0.0
  0
LINE
  5
135A
330
2
100
AcDbEntity
  8
0
100
AcDbLine
 10
947.2762643936057
 20
159.9774263018313
 30
0.0
 11
947.2762643936057
 21
159.9774263018313
 31
0.0
  0
LINE
  5
135C
330
2
100
AcDbEntity
  8
0
100
AcDbLine
 10
933.4012643936048
 20
164.2236117536828
 30
0.0
 11
943.151264393605
 21
164.2236117536828
 31
0.0
  0
ARC
  5
135D
330
2
100
AcDbEntity
  8
0
100
AcDbCircle
 10
933.4012643936048
 20
159.9736117536828
 30
0.0
 40
4.25
100
AcDbArc
 50
90.0
 51
179.948574696702
  0
ARC
  5
135E
330
2
100
AcDbEntity
  8
0
100
AcDbCircle
 10
942.9012643936047
 20
159.9736117536828
 30
0.0
 40
4.25
100
AcDbArc
 50
0.0
 51
90.0
  0
LINE
  5
135F
330
2
100
AcDbEntity
  8
0
100
AcDbLine
 10
66.93540353574326
 20
153.9774263018313
 30
0.0
 11
66.93540353574326
 21
113.9774263018313
 31
0.0
  0
LINE
  5
1360
330
2
100
AcDbEntity
  8
0
100
AcDbLine
 10
91.93544644612074
 20
160.3614384770959
 30
0.0
 11
71.90049872286772
 21
160.0117271637533
 31
0.0
  0
ARC
  5
1361
330
2
100
AcDbEntity
  8
0
100
AcDbCircle
 10
71.93540353574326
 20
158.0120317734396
 30
0.0
 40
2.0
100
AcDbArc
 50
90.99999999997569
 51
180.0
  0
ARC
  5
1362
330
2
100
AcDbEntity
  8
0
100
AcDbCircle
 10
67.93540353574326
 20
155.9951860228472
 30
0.0
 40
2.0
100
AcDbArc
 50
270.9999999999757
 51
0.0
  0
LINE
  5
1363
330
2
100
AcDbEntity
  8
0
100
AcDbLine
 10
66.93540353574326
 20
153.9774263018313
 30
0.0
 11
67.97030834861698
 21
153.9954906325344
 31
0.0
  0
LINE
  5
1364
330
2
100
AcDbEntity
  8
0
100
AcDbLine
 10
69.93540353574326
 20
158.0120317734396
 30
0.0
 11
69.93540353574326
 21
109.942820830223
 31
0.0
  0
LINE
  5
1365
330
2
100
AcDbEntity
  8
0
100
AcDbLine
 10
104.9354035357432
 20
161.9774262992465
 30
0.0
 11
97.92671991062206
 21
161.9162624438628
 31
0.0
  0
LINE
  5
1366
330
2
100
AcDbEntity
  8
0
100
AcDbLine
 10
104.9354035357432
 20
105.9774263044161
 30
0.0
 11
97.9266769974679
 21
106.038590534297
 31
0.0
  0
LINE
  5
1367
330
2
100
AcDbEntity
  8
0
100
AcDbLine
 10
91.93544644612074
 20
107.5934141265667
 30
0.0
 11
71.90049872286772
 21
107.9431254399093
 31
0.0
  0
ARC
  5
1368
330
2
100
AcDbEntity
  8
0
100
AcDbCircle
 10
71.93540353574326
 20
109.942820830223
 30
0.0
 40
2.0
100
AcDbArc
 50
180.0
 51
269.0000000000242
  0
ARC
  5
1369
330
2
100
AcDbEntity
  8
0
100
AcDbCircle
 10
67.93540353574326
 20
111.9596665808155
 30
0.0
 40
2.0
100
AcDbArc
 50
0.0
 51
89.0000000000243
  0
LINE
  5
136A
330
2
100
AcDbEntity
  8
0
100
AcDbLine
 10
66.93540353574326
 20
113.9774263018313
 30
0.0
 11
67.97030834861698
 21
113.9593619711283
 31
0.0
  0
ARC
  5
136B
330
2
100
AcDbEntity
  8
0
100
AcDbCircle
 10
97.93544644611984
 20
160.9163005207989
 30
0.0
 40
1.0
100
AcDbArc
 50
90.49999999996549
 51
180.0
  0
ARC
  5
136C
330
2
100
AcDbEntity
  8
0
100
AcDbCircle
 10
95.34018954461089
 20
162.421173145032
 30
0.0
 40
2.0
100
AcDbArc
 50
322.9042291269399
 51
329.8924849549449
  0
ARC
  5
136D
330
2
100
AcDbEntity
  8
0
100
AcDbCircle
 10
97.93544644611984
 20
107.0385520828637
 30
0.0
 40
1.0
100
AcDbArc
 50
180.0
 51
269.5000000000345
  0
ARC
  5
136E
330
2
100
AcDbEntity
  8
0
100
AcDbCircle
 10
95.34018954461089
 20
105.5336794586307
 30
0.0
 40
2.0
100
AcDbArc
 50
30.1075150449967
 51
37.09577087306008
  0
LINE
  5
136F
330
2
100
AcDbEntity
  8
0
100
AcDbLine
 10
95.93544644612075
 20
161.8726604664531
 30
0.0
 11
96.93544644612074
 21
161.8726604664531
 31
0.0
  0
LINE
  5
1370
330
2
100
AcDbEntity
  8
0
100
AcDbLine
 10
96.93544644612074
 20
161.8726604664531
 30
0.0
 11
96.93544644612074
 21
154.8726604664531
 31
0.0
  0
LINE
  5
1371
330
2
100
AcDbEntity
  8
0
100
AcDbLine
 10
96.93544644612074
 20
154.8726604664531
 30
0.0
 11
95.93544644612075
 21
154.8726604664531
 31
0.0
  0
LINE
  5
1372
330
2
100
AcDbEntity
  8
0
100
AcDbLine
 10
95.93544644612075
 20
154.8726604664531
 30
0.0
 11
95.93544644612075
 21
161.8726604664531
 31
0.0
  0
LINE
  5
1373
330
2
100
AcDbEntity
  8
0
100
AcDbLine
 10
91.93544644612074
 20
161.3530452241818
 30
0.0
 11
91.93544644612074
 21
155.3922757087236
 31
0.0
  0
LINE
  5
1374
330
2
100
AcDbEntity
  8
0
100
AcDbLine
 10
92.23544644612093
 20
154.8726604664531
 30
0.0
 11
92.23544644612093
 21
161.8726604664531
 31
0.0
  0
LINE
  5
1375
330
2
100
AcDbEntity
  8
0
100
AcDbLine
 10
92.23544644612093
 20
154.8726604664531
 30
0.0
 11
95.93544644612075
 21
154.8726604664531
 31
0.0
  0
LINE
  5
1376
330
2
100
AcDbEntity
  8
0
100
AcDbLine
 10
92.23544644612093
 20
154.8726604664531
 30
0.0
 11
91.93544644612074
 21
155.3922757087236
 31
0.0
  0
LINE
  5
1377
330
2
100
AcDbEntity
  8
0
100
AcDbLine
 10
91.93544644612074
 20
161.3530452241818
 30
0.0
 11
92.23544644612093
 21
161.8726604664531
 31
0.0
  0
LINE
  5
1378
330
2
100
AcDbEntity
  8
0
100
AcDbLine
 10
95.93544644612075
 20
161.8726604664531
 30
0.0
 11
92.23544644612093
 21
161.8726604664531
 31
0.0
  0
LINE
  5
1379
330
2
100
AcDbEntity
  8
0
100
AcDbLine
 10
95.93544644612075
 20
106.0821921372095
 30
0.0
 11
96.93544644612074
 21
106.0821921372095
 31
0.0
  0
LINE
  5
137A
330
2
100
AcDbEntity
  8
0
100
AcDbLine
 10
96.93544644612074
 20
113.0821921372095
 30
0.0
 11
95.93544644612075
 21
113.0821921372095
 31
0.0
  0
LINE
  5
137B
330
2
100
AcDbEntity
  8
0
100
AcDbLine
 10
95.93544644612075
 20
113.0821921372095
 30
0.0
 11
95.93544644612075
 21
106.0821921372095
 31
0.0
  0
LINE
  5
137C
330
2
100
AcDbEntity
  8
0
100
AcDbLine
 10
91.93544644612074
 20
106.6018073794809
 30
0.0
 11
91.93544644612074
 21
112.5625768949391
 31
0.0
  0
LINE
  5
137D
330
2
100
AcDbEntity
  8
0
100
AcDbLine
 10
92.23544644612093
 20
113.0821921372095
 30
0.0
 11
92.23544644612093
 21
106.0821921372095
 31
0.0
  0
LINE
  5
137E
330
2
100
AcDbEntity
  8
0
100
AcDbLine
 10
92.23544644612093
 20
113.0821921372095
 30
0.0
 11
95.93544644612075
 21
113.0821921372095
 31
0.0
  0
LINE
  5
137F
330
2
100
AcDbEntity
  8
0
100
AcDbLine
 10
92.23544644612093
 20
113.0821921372095
 30
0.0
 11
91.93544644612074
 21
112.5625768949391
 31
0.0
  0
LINE
  5
1380
330
2
100
AcDbEntity
  8
0
100
AcDbLine
 10
91.93544644612074
 20
106.6018073794809
 30
0.0
 11
92.23544644612093
 21
106.0821921372095
 31
0.0
  0
LINE
  5
1381
330
2
100
AcDbEntity
  8
0
100
AcDbLine
 10
95.93544644612075
 20
106.0821921372095
 30
0.0
 11
92.23544644612093
 21
106.0821921372095
 31
0.0
  0
LINE
  5
1382
330
2
100
AcDbEntity
  8
0
100
AcDbLine
 10
96.93544644612074
 20
106.0821921372095
 30
0.0
 11
96.93544644612074
 21
113.0821921372095
 31
0.0
  0
LINE
  5
1383
330
2
100
AcDbEntity
  8
0
100
AcDbLine
 10
96.93544644611984
 20
107.0385520828637
 30
0.0
 11
96.93544644611984
 21
160.9163005207989
 31
0.0
  0
LINE
  5
1384
330
2
100
AcDbEntity
  8
0
100
AcDbLine
 10
74.00601723776936
 20
164.0490876893106
 30
0.0
 11
84.00449418933431
 21
164.2236117536828
 31
0.0
  0
ARC
  5
1385
330
2
100
AcDbEntity
  8
0
100
AcDbCircle
 10
84.07430381508357
 20
160.2242209730572
 30
0.0
 40
3.999999999999995
100
AcDbArc
 50
1.000000000001775
 51
90.99999999997569
  0
LINE
  5
1386
330
2
100
AcDbEntity
  8
0
100
AcDbLine
 10
88.07369459570827
 20
160.2940305988065
 30
0.0
 11
70.07643608289299
 21
159.9798872829357
 31
0.0
  0
LINE
  5
1387
330
2
100
AcDbEntity
  8
0
100
AcDbLine
 10
70.07643608289299
 20
159.9798872829357
 30
0.0
 11
70.07643608289299
 21
159.9798872829357
 31
0.0
  0
ARC
  5
1388
330
2
100
AcDbEntity
  8
0
100
AcDbCircle
 10
74.07582686351862
 20
160.049696908685
 30
0.0
 40
3.999999999999995
100
AcDbArc
 50
90.99999999997569
 51
181.0000000000017
  0
LINE
  5
1389
330
2
100
AcDbEntity
  8
0
100
AcDbLine
 10
95.93544644611984
 20
113.8528145043334
 30
0.0
 11
70.93635546077212
 21
114.0709782662512
 31
0.0
  0
LINE
  5
138A
330
2
100
AcDbEntity
  8
CENTER
  6
CENS
100
AcDbLine
 10
86.93544644612074
 20
158.3726604664531
 30
0.0
 11
109.9354035357432
 21
158.3726604664531
 31
0.0
  0
LINE
  5
138B
330
2
100
AcDbEntity
  8
CENTER
  6
CENS
100
AcDbLine
 10
86.93544644612074
 20
109.5821921372095
 30
0.0
 11
109.9354035357432
 21
109.5821921372095
 31
0.0
  0
CIRCLE
  5
138C
330
2
100
AcDbEntity
  8
CENTER
100
AcDbCircle
 10
946.2762643936049
 20
133.9774263018313
 30
0.0
 40
23.0
  0
CIRCLE
  5
138D
330
2
100
AcDbEntity
  8
0
100
AcDbCircle
 10
962.5397203608955
 20
150.2408822691228
 30
0.0
 40
1.6
  0
CIRCLE
  5
138E
330
2
100
AcDbEntity
  8
HOJO
100
AcDbCircle
 10
962.5397203608955
 20
150.2408822691228
 30
0.0
 40
2.0
  0
LINE
  5
138F
330
2
100
AcDbEntity
  8
CENTER
100
AcDbLine
 10
967.0419274962169
 20
150.2408822691228
 30
0.0
 11
958.037513225574
 21
150.2408822691228
 31
0.0
  0
CIRCLE
  5
1390
330
2
100
AcDbEntity
  8
0
100
AcDbCircle
 10
930.0128084263151
 20
150.2408822691228
 30
0.0
 40
1.6
  0
LINE
  5
1391
330
2
100
AcDbEntity
  8
CENTER
100
AcDbLine
 10
930.0128084263151
 20
154.7430894044443
 30
0.0
 11
930.0128084263151
 21
145.7386751338005
 31
0.0
  0
CIRCLE
  5
1392
330
2
100
AcDbEntity
  8
HOJO
100
AcDbCircle
 10
930.0128084263151
 20
150.2408822691228
 30
0.0
 40
2.0
  0
LINE
  5
1393
330
2
100
AcDbEntity
  8
CENTER
100
AcDbLine
 10
925.5106012909928
 20
150.2408822691228
 30
0.0
 11
934.5150155616366
 21
150.2408822691228
 31
0.0
  0
LINE
  5
1394
330
2
100
AcDbEntity
  8
CENTER
100
AcDbLine
 10
962.5397203608955
 20
154.7430894044443
 30
0.0
 11
962.5397203608955
 21
145.7386751338005
 31
0.0
  0
LINE
  5
1395
330
2
100
AcDbEntity
  8
CENTER
100
AcDbLine
 10
967.0419274962169
 20
117.7139703345398
 30
0.0
 11
958.037513225574
 21
117.7139703345398
 31
0.0
  0
CIRCLE
  5
1396
330
2
100
AcDbEntity
  8
0
100
AcDbCircle
 10
962.5397203608955
 20
117.7139703345398
 30
0.0
 40
1.6
  0
CIRCLE
  5
1397
330
2
100
AcDbEntity
  8
HOJO
100
AcDbCircle
 10
962.5397203608955
 20
117.7139703345398
 30
0.0
 40
2.0
  0
LINE
  5
1398
330
2
100
AcDbEntity
  8
CENTER
100
AcDbLine
 10
925.5106012909928
 20
117.7139703345398
 30
0.0
 11
934.5150155616366
 21
117.7139703345398
 31
0.0
  0
CIRCLE
  5
1399
330
2
100
AcDbEntity
  8
HOJO
100
AcDbCircle
 10
930.0128084263151
 20
117.7139703345398
 30
0.0
 40
2.0
  0
LINE
  5
139A
330
2
100
AcDbEntity
  8
CENTER
100
AcDbLine
 10
930.0128084263151
 20
113.2117631992184
 30
0.0
 11
930.0128084263151
 21
122.2161774698621
 31
0.0
  0
CIRCLE
  5
139B
330
2
100
AcDbEntity
  8
0
100
AcDbCircle
 10
930.0128084263151
 20
117.7139703345398
 30
0.0
 40
1.6
  0
LINE
  5
139C
330
2
100
AcDbEntity
  8
CENTER
100
AcDbLine
 10
962.5397203608955
 20
113.2117631992184
 30
0.0
 11
962.5397203608955
 21
122.2161774698621
 31
0.0
  0
LINE
  5
139D
330
2
100
AcDbEntity
  8
CENTER
  6
CENS
100
AcDbLine
 10
938.2762643936048
 20
169.4042934843379
 30
0.0
 11
938.2762643936048
 21
121.7608614867946
 31
0.0
  0
LINE
  5
139E
330
2
100
AcDbEntity
  8
CENTER
  6
CENS
100
AcDbLine
 10
78.93540353574326
 20
169.4042934843379
 30
0.0
 11
78.93540353574326
 21
147.3500328177357
 31
0.0
  0
LINE
  5
139F
330
2
100
AcDbEntity
  8
0
100
AcDbLine
 10
735.073241572988
 20
153.9774263018313
 30
0.0
 11
735.073241572988
 21
113.9774263018313
 31
0.0
  0
LINE
  5
13A0
330
2
100
AcDbEntity
  8
0
100
AcDbLine
 10
710.0731986626105
 20
160.3614384770959
 30
0.0
 11
730.1081463858636
 21
160.0117271637533
 31
0.0
  0
ARC
  5
13A1
330
2
100
AcDbEntity
  8
0
100
AcDbCircle
 10
730.073241572988
 20
158.0120317734396
 30
0.0
 40
2.0
100
AcDbArc
 50
0.0
 51
89.0000000000243
  0
ARC
  5
13A2
330
2
100
AcDbEntity
  8
0
100
AcDbCircle
 10
734.073241572988
 20
155.9951860228472
 30
0.0
 40
2.0
100
AcDbArc
 50
180.0
 51
269.0000000000242
  0
LINE
  5
13A3
330
2
100
AcDbEntity
  8
0
100
AcDbLine
 10
735.073241572988
 20
153.9774263018313
 30
0.0
 11
734.0383367601143
 21
153.9954906325344
 31
0.0
  0
LINE
  5
13A4
330
2
100
AcDbEntity
  8
0
100
AcDbLine
 10
732.0732415729881
 20
158.0120317734396
 30
0.0
 11
732.0732415729881
 21
151.1426263176869
 31
0.0
  0
LINE
  5
13A5
330
2
100
AcDbEntity
  8
0
100
AcDbLine
 10
732.0732415729881
 20
133.9774263018313
 30
0.0
 11
732.0732415729881
 21
109.942820830223
 31
0.0
  0
LINE
  5
13A6
330
2
100
AcDbEntity
  8
0
100
AcDbLine
 10
697.073241572988
 20
161.9774262992465
 30
0.0
 11
704.0819251981092
 21
161.9162624438628
 31
0.0
  0
LINE
  5
13A7
330
2
100
AcDbEntity
  8
0
100
AcDbLine
 10
697.073241572988
 20
105.9774263044161
 30
0.0
 11
704.0819681112634
 21
106.038590534297
 31
0.0
  0
LINE
  5
13A8
330
2
100
AcDbEntity
  8
0
100
AcDbLine
 10
710.0731986626105
 20
107.5934141265667
 30
0.0
 11
730.1081463858636
 21
107.9431254399093
 31
0.0
  0
ARC
  5
13A9
330
2
100
AcDbEntity
  8
0
100
AcDbCircle
 10
730.073241572988
 20
109.942820830223
 30
0.0
 40
2.0
100
AcDbArc
 50
270.9999999999757
 51
0.0
  0
ARC
  5
13AA
330
2
100
AcDbEntity
  8
0
100
AcDbCircle
 10
734.073241572988
 20
111.9596665808155
 30
0.0
 40
2.0
100
AcDbArc
 50
90.99999999997569
 51
180.0
  0
LINE
  5
13AB
330
2
100
AcDbEntity
  8
0
100
AcDbLine
 10
735.073241572988
 20
113.9774263018313
 30
0.0
 11
734.0383367601143
 21
113.9593619711283
 31
0.0
  0
LINE
  5
13AC
330
2
100
AcDbEntity
  8
0
100
AcDbLine
 10
705.0731986626114
 20
160.9163005207989
 30
0.0
 11
705.0731986626114
 21
139.1751695194577
 31
0.0
  0
ARC
  5
13AD
330
2
100
AcDbEntity
  8
0
100
AcDbCircle
 10
704.0731986626115
 20
160.9163005207989
 30
0.0
 40
1.0
100
AcDbArc
 50
0.0
 51
89.5000000000345
  0
ARC
  5
13AE
330
2
100
AcDbEntity
  8
0
100
AcDbCircle
 10
706.6684555641204
 20
162.421173145032
 30
0.0
 40
2.0
100
AcDbArc
 50
210.107515045055
 51
217.0957708730601
  0
ARC
  5
13AF
330
2
100
AcDbEntity
  8
0
100
AcDbCircle
 10
704.0731986626115
 20
107.0385520828637
 30
0.0
 40
1.0
100
AcDbArc
 50
270.4999999999654
 51
0.0
  0
ARC
  5
13B0
330
2
100
AcDbEntity
  8
0
100
AcDbCircle
 10
706.6684555641204
 20
105.5336794586307
 30
0.0
 40
2.0
100
AcDbArc
 50
142.9042291269398
 51
149.8924849550032
  0
LINE
  5
13B1
330
2
100
AcDbEntity
  8
0
100
AcDbLine
 10
706.0731986626105
 20
161.8726604664531
 30
0.0
 11
705.0731986626106
 21
161.8726604664531
 31
0.0
  0
LINE
  5
13B2
330
2
100
AcDbEntity
  8
0
100
AcDbLine
 10
705.0731986626106
 20
161.8726604664531
 30
0.0
 11
705.0731986626106
 21
154.8726604664531
 31
0.0
  0
LINE
  5
13B3
330
2
100
AcDbEntity
  8
0
100
AcDbLine
 10
705.0731986626106
 20
154.8726604664531
 30
0.0
 11
706.0731986626105
 21
154.8726604664531
 31
0.0
  0
LINE
  5
13B4
330
2
100
AcDbEntity
  8
0
100
AcDbLine
 10
706.0731986626105
 20
154.8726604664531
 30
0.0
 11
706.0731986626105
 21
161.8726604664531
 31
0.0
  0
LINE
  5
13B5
330
2
100
AcDbEntity
  8
0
100
AcDbLine
 10
710.0731986626105
 20
161.3530452241818
 30
0.0
 11
710.0731986626105
 21
155.3922757087236
 31
0.0
  0
LINE
  5
13B6
330
2
100
AcDbEntity
  8
0
100
AcDbLine
 10
709.7731986626103
 20
154.8726604664531
 30
0.0
 11
709.7731986626103
 21
161.8726604664531
 31
0.0
  0
LINE
  5
13B7
330
2
100
AcDbEntity
  8
0
100
AcDbLine
 10
709.7731986626103
 20
154.8726604664531
 30
0.0
 11
706.0731986626105
 21
154.8726604664531
 31
0.0
  0
LINE
  5
13B8
330
2
100
AcDbEntity
  8
0
100
AcDbLine
 10
709.7731986626103
 20
154.8726604664531
 30
0.0
 11
710.0731986626105
 21
155.3922757087236
 31
0.0
  0
LINE
  5
13B9
330
2
100
AcDbEntity
  8
0
100
AcDbLine
 10
710.0731986626105
 20
161.3530452241818
 30
0.0
 11
709.7731986626103
 21
161.8726604664531
 31
0.0
  0
LINE
  5
13BA
330
2
100
AcDbEntity
  8
0
100
AcDbLine
 10
706.0731986626105
 20
161.8726604664531
 30
0.0
 11
709.7731986626103
 21
161.8726604664531
 31
0.0
  0
LINE
  5
13BB
330
2
100
AcDbEntity
  8
0
100
AcDbLine
 10
706.0731986626105
 20
106.0821921372095
 30
0.0
 11
705.0731986626106
 21
106.0821921372095
 31
0.0
  0
LINE
  5
13BC
330
2
100
AcDbEntity
  8
0
100
AcDbLine
 10
705.0731986626106
 20
113.0821921372095
 30
0.0
 11
706.0731986626105
 21
113.0821921372095
 31
0.0
  0
LINE
  5
13BD
330
2
100
AcDbEntity
  8
0
100
AcDbLine
 10
706.0731986626105
 20
113.0821921372095
 30
0.0
 11
706.0731986626105
 21
106.0821921372095
 31
0.0
  0
LINE
  5
13BE
330
2
100
AcDbEntity
  8
0
100
AcDbLine
 10
710.0731986626105
 20
106.6018073794809
 30
0.0
 11
710.0731986626105
 21
112.5625768949391
 31
0.0
  0
LINE
  5
13BF
330
2
100
AcDbEntity
  8
0
100
AcDbLine
 10
709.7731986626103
 20
113.0821921372095
 30
0.0
 11
709.7731986626103
 21
106.0821921372095
 31
0.0
  0
LINE
  5
13C0
330
2
100
AcDbEntity
  8
0
100
AcDbLine
 10
709.7731986626103
 20
113.0821921372095
 30
0.0
 11
706.0731986626105
 21
113.0821921372095
 31
0.0
  0
LINE
  5
13C1
330
2
100
AcDbEntity
  8
0
100
AcDbLine
 10
709.7731986626103
 20
113.0821921372095
 30
0.0
 11
710.0731986626105
 21
112.5625768949391
 31
0.0
  0
LINE
  5
13C2
330
2
100
AcDbEntity
  8
0
100
AcDbLine
 10
710.0731986626105
 20
106.6018073794809
 30
0.0
 11
709.7731986626103
 21
106.0821921372095
 31
0.0
  0
LINE
  5
13C3
330
2
100
AcDbEntity
  8
0
100
AcDbLine
 10
706.0731986626105
 20
106.0821921372095
 30
0.0
 11
709.7731986626103
 21
106.0821921372095
 31
0.0
  0
LINE
  5
13C4
330
2
100
AcDbEntity
  8
0
100
AcDbLine
 10
705.0731986626106
 20
106.0821921372095
 30
0.0
 11
705.0731986626106
 21
113.0821921372095
 31
0.0
  0
LINE
  5
13C5
330
2
100
AcDbEntity
  8
0
100
AcDbLine
 10
731.073241572988
 20
149.1101378148802
 30
0.0
 11
731.073241572988
 21
133.9774263018313
 31
0.0
  0
LINE
  5
13C6
330
2
100
AcDbEntity
  8
0
100
AcDbLine
 10
735.073241572988
 20
148.9774263018313
 30
0.0
 11
731.0732272457799
 21
148.9774263018313
 31
0.0
  0
ARC
  5
13C7
330
2
100
AcDbEntity
  8
0
100
AcDbCircle
 10
729.073241572988
 20
149.0970448540953
 30
0.0
 40
2.0
100
AcDbArc
 50
0.0
 51
52.22196899348834
  0
LINE
  5
13C8
330
2
100
AcDbEntity
  8
0
100
AcDbLine
 10
718.573241572988
 20
137.9774263018313
 30
0.0
 11
729.573241572988
 21
137.9774263018313
 31
0.0
  0
LINE
  5
13C9
330
2
100
AcDbEntity
  8
0
100
AcDbLine
 10
718.573241572988
 20
133.9774263018313
 30
0.0
 11
718.573241572988
 21
142.4282171696174
 31
0.0
  0
LINE
  5
13CA
330
2
100
AcDbEntity
  8
0
100
AcDbLine
 10
725.1298034007077
 20
146.2274263018313
 30
0.0
 11
730.573241572988
 21
146.2274263018313
 31
0.0
  0
LINE
  5
13CB
330
2
100
AcDbEntity
  8
0
100
AcDbLine
 10
730.573241572988
 20
146.2274263018313
 30
0.0
 11
730.573241572988
 21
133.9774263018313
 31
0.0
  0
LINE
  5
13CC
330
2
100
AcDbEntity
  8
0
100
AcDbLine
 10
729.573241572988
 20
137.9774263018313
 30
0.0
 11
730.573241572988
 21
138.5547765710213
 31
0.0
  0
LINE
  5
13CD
330
2
100
AcDbEntity
  8
0
100
AcDbLine
 10
716.573241572988
 20
142.3203518155275
 30
0.0
 11
716.573241572988
 21
133.9774263018313
 31
0.0
  0
LINE
  5
13CE
330
2
100
AcDbEntity
  8
0
100
AcDbLine
 10
710.073241572988
 20
137.9774263018313
 30
0.0
 11
716.573241572988
 21
137.9774263018313
 31
0.0
  0
LINE
  5
13CF
330
2
100
AcDbEntity
  8
0
100
AcDbLine
 10
712.0732415729881
 20
137.9774263018313
 30
0.0
 11
716.573241572988
 21
137.9774263018313
 31
0.0
  0
LINE
  5
13D0
330
2
100
AcDbEntity
  8
0
100
AcDbLine
 10
706.5732415729881
 20
136.9774263018313
 30
0.0
 11
704.8411907654199
 21
133.9774263018313
 31
0.0
  0
LINE
  5
13D1
330
2
100
AcDbEntity
  8
0
100
AcDbLine
 10
706.5732415729881
 20
138.2274263018313
 30
0.0
 11
706.5732415729881
 21
133.9774263018313
 31
0.0
  0
LINE
  5
13D2
330
2
100
AcDbEntity
  8
0
100
AcDbLine
 10
710.073241572988
 20
137.9774263018313
 30
0.0
 11
710.073241572988
 21
133.9774263018313
 31
0.0
  0
LINE
  5
13D3
330
2
100
AcDbEntity
  8
0
100
AcDbLine
 10
710.073241572988
 20
138.2274263018313
 30
0.0
 11
706.5732415729881
 21
138.2274263018313
 31
0.0
  0
LINE
  5
13D4
330
2
100
AcDbEntity
  8
0
100
AcDbLine
 10
710.073241572988
 20
137.9774263018313
 30
0.0
 11
710.073241572988
 21
138.2274263018313
 31
0.0
  0
SPLINE
  5
13D5
330
2
100
AcDbEntity
  8
HOJO
100
AcDbSpline
210
0.0
220
0.0
230
1.0
 70
     8
 71
     3
 72
    16
 73
    12
 74
     0
 42
0.0000000001
 43
0.0000000001
 40
1.229586671925319
 40
1.229586671925319
 40
1.229586671925319
 40
1.229586671925319
 40
9.059721493801909
 40
14.01454332224558
 40
17.68854249089321
 40
25.49282471102274
 40
30.81266567978604
 40
35.19147887412627
 40
39.07871238777226
 40
41.42088313435808
 40
41.93957356983536
 40
41.93957356983536
 40
41.93957356983536
 40
41.93957356983536
 10
735.0732415729963
 20
151.5495889787322
 30
0.0
 10
732.2631021620099
 20
151.2823986903874
 30
0.0
 10
727.8544843806621
 20
150.5832747974924
 30
0.0
 10
724.9628375980246
 20
145.612152682968
 30
0.0
 10
720.6233370010878
 20
141.9273798405199
 30
0.0
 10
714.5898418629085
 20
142.6922158429185
 30
0.0
 10
708.91786037785
 20
141.1476853307055
 30
0.0
 10
704.917541657076
 20
139.1581112315795
 30
0.0
 10
701.7014457876157
 20
137.2025703920114
 30
0.0
 10
701.0008744479336
 20
134.9927598662167
 30
0.0
 10
700.5820349816649
 20
134.1316183025516
 30
0.0
 10
700.5029785884398
 20
133.9774263018313
 30
0.0
  0
LINE
  5
13D6
330
2
100
AcDbEntity
  8
0
100
AcDbLine
 10
705.0731986626114
 20
107.0385520828637
 30
0.0
 11
705.0731986626114
 21
133.9774263018313
 31
0.0
  0
LINE
  5
13D7
330
2
100
AcDbEntity
  8
0
100
AcDbLine
 10
729.573241572988
 20
137.9774263018313
 30
0.0
 11
729.573241572988
 21
133.9774263018313
 31
0.0
  0
LINE
  5
13D8
330
2
100
AcDbEntity
  8
0
100
AcDbLine
 10
728.002627870962
 20
164.0490876893106
 30
0.0
 11
718.004150919397
 21
164.2236117536828
 31
0.0
  0
ARC
  5
13D9
330
2
100
AcDbEntity
  8
0
100
AcDbCircle
 10
717.9343412936478
 20
160.2242209730572
 30
0.0
 40
3.999999999999995
100
AcDbArc
 50
89.0000000000243
 51
178.9999999999982
  0
LINE
  5
13DA
330
2
100
AcDbEntity
  8
0
100
AcDbLine
 10
713.9349505130231
 20
160.2940305988065
 30
0.0
 11
731.9322090258383
 21
159.9798872829357
 31
0.0
  0
LINE
  5
13DB
330
2
100
AcDbEntity
  8
0
100
AcDbLine
 10
731.9322090258383
 20
159.9798872829357
 30
0.0
 11
731.9322090258383
 21
159.9798872829357
 31
0.0
  0
ARC
  5
13DC
330
2
100
AcDbEntity
  8
0
100
AcDbCircle
 10
727.9328182452127
 20
160.049696908685
 30
0.0
 40
3.999999999999995
100
AcDbArc
 50
358.9999999999982
 51
89.0000000000243
  0
LINE
  5
13DD
330
2
100
AcDbEntity
  8
CENTER
  6
CENS
100
AcDbLine
 10
715.0731986626105
 20
158.3726604664531
 30
0.0
 11
692.073241572988
 21
158.3726604664531
 31
0.0
  0
LINE
  5
13DE
330
2
100
AcDbEntity
  8
CENTER
  6
CENS
100
AcDbLine
 10
715.0731986626105
 20
109.5821921372095
 30
0.0
 11
692.073241572988
 21
109.5821921372095
 31
0.0
  0
LINE
  5
13DF
330
2
100
AcDbEntity
  8
0
100
AcDbLine
 10
706.0731986626115
 20
154.1020380993292
 30
0.0
 11
731.0722896479592
 21
153.8838743374114
 31
0.0
  0
LINE
  5
13E0
330
2
100
AcDbEntity
  8
CENTER
  6
CENS
100
AcDbLine
 10
723.0732415729881
 20
169.4042934843379
 30
0.0
 11
723.0732415729881
 21
147.3500328177357
 31
0.0
  0
LINE
  5
13E1
330
2
100
AcDbEntity
  8
0
100
AcDbLine
 10
732.0731986626078
 20
381.6448921912455
 30
0.0
 11
732.0731986626087
 21
431.7141031387823
 31
0.0
  0
LINE
  5
13E2
330
2
100
AcDbEntity
  8
0
100
AcDbLine
 10
705.0731986626088
 20
378.784263500393
 30
0.0
 11
705.0731986626088
 21
434.5747318296357
 31
0.0
  0
LINE
  5
13E3
330
2
100
AcDbEntity
  8
0
100
AcDbLine
 10
735.0731986626088
 20
426.6794976650148
 30
0.0
 11
735.0731986626088
 21
386.6794976650139
 31
0.0
  0
LINE
  5
13E4
330
2
100
AcDbEntity
  8
CENTER
  6
CENS
100
AcDbLine
 10
723.0732415729862
 20
385.6843120692471
 30
0.0
 11
723.0732415729862
 21
411.6746832607818
 31
0.0
  0
LINE
  5
13E5
330
2
100
AcDbEntity
  8
0
100
AcDbLine
 10
710.0683039192826
 20
434.0635945314975
 30
0.0
 11
730.1081034754843
 21
433.713798529096
 31
0.0
  0
ARC
  5
13E6
330
2
100
AcDbEntity
  8
0
100
AcDbCircle
 10
730.0731986626088
 20
431.7141031387823
 30
0.0
 40
2.0
100
AcDbArc
 50
0.0
 51
89.0000000000243
  0
ARC
  5
13E7
330
2
100
AcDbEntity
  8
0
100
AcDbCircle
 10
734.0731986626088
 20
428.7063691715652
 30
0.0
 40
2.0
100
AcDbArc
 50
180.0
 51
268.5000000000103
  0
LINE
  5
13E8
330
2
100
AcDbEntity
  8
0
100
AcDbLine
 10
735.0731986626088
 20
426.6794976650148
 30
0.0
 11
734.0208447659933
 21
426.7070545216141
 31
0.0
  0
LINE
  5
13E9
330
2
100
AcDbEntity
  8
0
100
AcDbLine
 10
710.0683039192826
 20
379.2954007985312
 30
0.0
 11
730.1081034754834
 21
379.6451968009327
 31
0.0
  0
LINE
  5
13EA
330
2
100
AcDbEntity
  8
0
100
AcDbLine
 10
730.1081034754843
 20
388.6451968009327
 30
0.0
 11
707.038293849735
 21
388.2425117760334
 31
0.0
  0
LINE
  5
13EB
330
2
100
AcDbEntity
  8
CENTER
  6
CENS
100
AcDbLine
 10
736.068427168753
 20
398.6794976650139
 30
0.0
 11
710.0780559772195
 21
398.6794976650139
 31
0.0
  0
ARC
  5
13EC
330
2
100
AcDbEntity
  8
0
100
AcDbCircle
 10
730.0731986626088
 20
390.6448921912455
 30
0.0
 40
2.0
100
AcDbArc
 50
270.9999999999757
 51
0.0
  0
ARC
  5
13ED
330
2
100
AcDbEntity
  8
0
100
AcDbCircle
 10
734.0731986626088
 20
384.6526261584626
 30
0.0
 40
2.0
100
AcDbArc
 50
91.49999999998968
 51
180.0
  0
LINE
  5
13EE
330
2
100
AcDbEntity
  8
0
100
AcDbLine
 10
735.0731986626088
 20
386.6794976650139
 30
0.0
 11
734.0208447659933
 21
386.6519408084144
 31
0.0
  0
ARC
  5
13EF
330
2
100
AcDbEntity
  8
0
100
AcDbCircle
 10
730.0731986626088
 20
381.6448921912455
 30
0.0
 40
2.0
100
AcDbArc
 50
270.9999999999757
 51
0.0
  0
ARC
  5
13F0
330
2
100
AcDbEntity
  8
0
100
AcDbCircle
 10
707.0731986626087
 20
386.2428163857206
 30
0.0
 40
2.0
100
AcDbArc
 50
90.99999999997569
 51
180.0
  0
LINE
  5
13F1
330
2
100
AcDbEntity
  8
0
100
AcDbLine
 10
707.0731986626087
 20
413.9594976650136
 30
0.0
 11
730.0731986626078
 21
413.9594976650136
 31
0.0
  0
LINE
  5
13F2
330
2
100
AcDbEntity
  8
0
100
AcDbLine
 10
697.0732415729862
 20
378.6794976650138
 30
0.0
 11
704.0819251981075
 21
378.7406615203976
 31
0.0
  0
ARC
  5
13F3
330
2
100
AcDbEntity
  8
0
100
AcDbCircle
 10
704.0731986626087
 20
379.7406234434624
 30
0.0
 40
1.0
100
AcDbArc
 50
270.4999999999654
 51
0.0
  0
ARC
  5
13F4
330
2
100
AcDbEntity
  8
0
100
AcDbCircle
 10
705.698154563126
 20
377.218814901686
 30
0.0
 40
2.0
100
AcDbArc
 50
108.2086269045676
 51
122.7961663449187
  0
LINE
  5
13F5
330
2
100
AcDbEntity
  8
0
100
AcDbLine
 10
697.0732415729862
 20
434.6794976650139
 30
0.0
 11
704.0819251981075
 21
434.6183338096311
 31
0.0
  0
ARC
  5
13F6
330
2
100
AcDbEntity
  8
0
100
AcDbCircle
 10
704.0731986626087
 20
433.6183718865664
 30
0.0
 40
1.0
100
AcDbArc
 50
0.0
 51
89.5000000000345
  0
ARC
  5
13F7
330
2
100
AcDbEntity
  8
0
100
AcDbCircle
 10
705.698154563126
 20
436.1401804283428
 30
0.0
 40
2.0
100
AcDbArc
 50
237.2038336550812
 51
251.791373095426
  0
LINE
  5
13F8
330
2
100
AcDbEntity
  8
0
100
AcDbLine
 10
706.0731986626088
 20
378.784263500393
 30
0.0
 11
705.0731986626088
 21
378.784263500393
 31
0.0
  0
LINE
  5
13F9
330
2
100
AcDbEntity
  8
0
100
AcDbLine
 10
705.0731986626088
 20
385.784263500393
 30
0.0
 11
706.0731986626088
 21
385.784263500393
 31
0.0
  0
LINE
  5
13FA
330
2
100
AcDbEntity
  8
0
100
AcDbLine
 10
706.0731986626088
 20
385.784263500393
 30
0.0
 11
706.0731986626088
 21
378.784263500393
 31
0.0
  0
LINE
  5
13FB
330
2
100
AcDbEntity
  8
0
100
AcDbLine
 10
710.0731986626088
 20
379.3038787426634
 30
0.0
 11
710.0731986626088
 21
385.2646482581225
 31
0.0
  0
LINE
  5
13FC
330
2
100
AcDbEntity
  8
0
100
AcDbLine
 10
709.7731986626095
 20
385.784263500393
 30
0.0
 11
709.7731986626095
 21
378.784263500393
 31
0.0
  0
LINE
  5
13FD
330
2
100
AcDbEntity
  8
0
100
AcDbLine
 10
709.7731986626095
 20
385.784263500393
 30
0.0
 11
706.0731986626088
 21
385.784263500393
 31
0.0
  0
LINE
  5
13FE
330
2
100
AcDbEntity
  8
0
100
AcDbLine
 10
709.7731986626095
 20
385.784263500393
 30
0.0
 11
710.0731986626088
 21
385.2646482581225
 31
0.0
  0
LINE
  5
13FF
330
2
100
AcDbEntity
  8
0
100
AcDbLine
 10
710.0731986626088
 20
379.3038787426634
 30
0.0
 11
709.7731986626095
 21
378.784263500393
 31
0.0
  0
LINE
  5
1400
330
2
100
AcDbEntity
  8
0
100
AcDbLine
 10
706.0731986626088
 20
378.784263500393
 30
0.0
 11
709.7731986626095
 21
378.784263500393
 31
0.0
  0
LINE
  5
1401
330
2
100
AcDbEntity
  8
0
100
AcDbLine
 10
706.0731986626088
 20
434.5747318296357
 30
0.0
 11
705.0731986626088
 21
434.5747318296357
 31
0.0
  0
LINE
  5
1402
330
2
100
AcDbEntity
  8
0
100
AcDbLine
 10
705.0731986626088
 20
427.5747318296358
 30
0.0
 11
706.0731986626088
 21
427.5747318296358
 31
0.0
  0
LINE
  5
1403
330
2
100
AcDbEntity
  8
0
100
AcDbLine
 10
706.0731986626088
 20
427.5747318296358
 30
0.0
 11
706.0731986626088
 21
434.5747318296357
 31
0.0
  0
LINE
  5
1404
330
2
100
AcDbEntity
  8
0
100
AcDbLine
 10
710.0731986626088
 20
434.0551165873644
 30
0.0
 11
710.0731986626088
 21
428.0943470719062
 31
0.0
  0
LINE
  5
1405
330
2
100
AcDbEntity
  8
0
100
AcDbLine
 10
709.7731986626095
 20
427.5747318296358
 30
0.0
 11
709.7731986626095
 21
434.5747318296357
 31
0.0
  0
LINE
  5
1406
330
2
100
AcDbEntity
  8
0
100
AcDbLine
 10
709.7731986626095
 20
427.5747318296358
 30
0.0
 11
706.0731986626088
 21
427.5747318296358
 31
0.0
  0
LINE
  5
1407
330
2
100
AcDbEntity
  8
0
100
AcDbLine
 10
709.7731986626095
 20
427.5747318296358
 30
0.0
 11
710.0731986626088
 21
428.0943470719062
 31
0.0
  0
LINE
  5
1408
330
2
100
AcDbEntity
  8
0
100
AcDbLine
 10
710.0731986626088
 20
434.0551165873644
 30
0.0
 11
709.7731986626095
 21
434.5747318296357
 31
0.0
  0
LINE
  5
1409
330
2
100
AcDbEntity
  8
0
100
AcDbLine
 10
706.0731986626088
 20
434.5747318296357
 30
0.0
 11
709.7731986626095
 21
434.5747318296357
 31
0.0
  0
CIRCLE
  5
140A
330
2
100
AcDbEntity
  8
0
100
AcDbCircle
 10
723.0732415729862
 20
398.6794976650139
 30
0.0
 40
8.858967452849583
  0
LINE
  5
140B
330
2
100
AcDbEntity
  8
CENTER
  6
CENS
100
AcDbLine
 10
715.0731986626087
 20
382.284263500393
 30
0.0
 11
692.0732415729863
 21
382.284263500393
 31
0.0
  0
LINE
  5
140C
330
2
100
AcDbEntity
  8
CENTER
  6
CENS
100
AcDbLine
 10
715.0731986626087
 20
431.0747318296357
 30
0.0
 11
692.0732415729863
 21
431.0747318296357
 31
0.0
  0
TEXT
  5
1458
330
2
100
AcDbEntity
  8
TITLE
100
AcDbText
 10
296.1511603845682
 20
407.8571624391235
 30
0.0
 40
7.5
  1
AFCZ15L-10~30M100S1
100
AcDbText
  0
TEXT
  5
1459
330
2
100
AcDbEntity
  8
TITLE
100
AcDbText
 10
296.1511603845682
 20
396.6071624391235
 30
0.0
 40
7.5
  1
AFCZ15L-10~30L100S1
100
AcDbText
  0
LINE
  5
285B
330
2
100
AcDbEntity
  8
CENTER
100
AcDbLine
 10
565.7879597377825
 20
173.4627076760713
 30
0.0
 11
644.7585224862534
 21
94.4921449275891
 31
0.0
  0
LINE
  5
285C
330
2
100
AcDbEntity
  8
CENTER
100
AcDbLine
 10
644.7585224862575
 20
173.4627076760697
 30
0.0
 11
565.7879597377802
 21
94.49214492759365
 31
0.0
  0
LINE
  5
285D
330
2
100
AcDbEntity
  8
0
100
AcDbLine
 10
575.2732415729861
 20
371.6794976650139
 30
0.0
 11
635.273241572986
 21
371.6794976650139
 31
0.0
  0
LINE
  5
285E
330
2
100
AcDbEntity
  8
0
100
AcDbLine
 10
583.2046186616317
 20
358.6794976650139
 30
0.0
 11
627.3418635624039
 21
358.6794976650139
 31
0.0
  0
ARC
  5
2863
330
2
100
AcDbEntity
  8
0
100
AcDbCircle
 10
605.2732411120196
 20
9.977426301829552
 30
0.0
 40
160.0
100
AcDbArc
 50
84.07091451212378
 51
95.92908548787621
  0
CIRCLE
  5
2865
330
2
100
AcDbEntity
  8
0
100
AcDbCircle
 10
605.2732411120196
 20
133.9774263018313
 30
0.0
 40
19.0
  0
ARC
  5
2869
330
2
100
AcDbEntity
  8
0
100
AcDbCircle
 10
605.2732411120196
 20
257.9774263018295
 30
0.0
 40
160.0
100
AcDbArc
 50
264.0709145121237
 51
275.9290854878762
  0
CIRCLE
  5
286B
330
2
100
AcDbEntity
  8
0
100
AcDbCircle
 10
605.2732411120196
 20
133.9774263018313
 30
0.0
 40
30.0
  0
CIRCLE
  5
286C
330
2
100
AcDbEntity
  8
0
100
AcDbCircle
 10
605.2732411120196
 20
133.9774263018313
 30
0.0
 40
24.0
  0
CIRCLE
  5
286D
330
2
100
AcDbEntity
  8
CENTER
100
AcDbCircle
 10
605.2732411120177
 20
133.9774263018313
 30
0.0
 40
44.0
  0
LINE
  5
2870
330
2
100
AcDbEntity
  8
0
100
AcDbLine
 10
324.9150990045275
 20
97.97742630183144
 30
0.0
 11
324.9150990045275
 21
169.9774263018314
 31
0.0
  0
LINE
  5
2871
330
2
100
AcDbEntity
  8
0
100
AcDbLine
 10
306.9150990045802
 20
156.9774263018314
 30
0.0
 11
306.9150990045802
 21
110.9774263018314
 31
0.0
  0
LINE
  5
2872
330
2
100
AcDbEntity
  8
0
100
AcDbLine
 10
310.61509900458
 20
110.9774263018314
 30
0.0
 11
310.615099004581
 21
156.9774263018314
 31
0.0
  0
LINE
  5
2873
330
2
100
AcDbEntity
  8
0
100
AcDbLine
 10
310.4150990045802
 20
156.7774263018307
 30
0.0
 11
310.4150990045802
 21
111.1774263018303
 31
0.0
  0
LINE
  5
2874
330
2
100
AcDbEntity
  8
0
100
AcDbLine
 10
308.4150990045802
 20
156.7774263018307
 30
0.0
 11
308.4150990045802
 21
111.1774263018303
 31
0.0
  0
LINE
  5
2875
330
2
100
AcDbEntity
  8
0
100
AcDbLine
 10
315.4150990045316
 20
160.7274263018441
 30
0.0
 11
315.4150990045316
 21
107.2274263018186
 31
0.0
  0
LINE
  5
2876
330
2
100
AcDbEntity
  8
0
100
AcDbLine
 10
313.9150990045798
 20
158.9774263018314
 30
0.0
 11
313.9150990045798
 21
108.9774263018314
 31
0.0
  0
LINE
  5
2877
330
2
100
AcDbEntity
  8
0
100
AcDbLine
 10
314.4150990045798
 20
160.5632127394581
 30
0.0
 11
314.4150990045798
 21
107.3916398642047
 31
0.0
  0
LINE
  5
2878
330
2
100
AcDbEntity
  8
0
100
AcDbLine
 10
382.9150990045247
 20
103.9774267627997
 30
0.0
 11
382.9150990045247
 21
163.9774267627997
 31
0.0
  0
LINE
  5
2879
330
2
100
AcDbEntity
  8
0
100
AcDbLine
 10
377.9150990045248
 20
98.4399502947415
 30
0.0
 11
377.9150990045266
 21
169.5149023089213
 31
0.0
  0
LINE
  5
287A
330
2
100
AcDbEntity
  8
0
100
AcDbLine
 10
305.9150990045802
 20
156.4000760326414
 30
0.0
 11
305.9150990045802
 21
111.5547765710195
 31
0.0
  0
LINE
  5
287B
330
2
100
AcDbEntity
  8
0
100
AcDbLine
 10
395.9150990045248
 20
111.9088043124136
 30
0.0
 11
395.9150990045252
 21
156.0460492131858
 31
0.0
  0
LINE
  5
287C
330
2
100
AcDbEntity
  8
CENTER
100
AcDbLine
 10
347.9150990045248
 20
88.17814426101881
 30
0.0
 11
347.9150990045252
 21
179.776708342644
 31
0.0
  0
LINE
  5
2883
330
2
100
AcDbEntity
  8
CENTER
100
AcDbLine
 10
196.7354039967117
 20
87.97742630183137
 30
0.0
 11
196.7354039967117
 21
179.9774263018313
 31
0.0
  0
ARC
  5
2884
330
2
100
AcDbEntity
  8
0
100
AcDbCircle
 10
729.2732411120196
 20
133.9774263018295
 30
0.0
 40
160.0
100
AcDbArc
 50
174.0709145121237
 51
185.9290854878762
  0
ARC
  5
2885
330
2
100
AcDbEntity
  8
0
100
AcDbCircle
 10
72.73540399671219
 20
133.9774263018313
 30
0.0
 40
160.0
100
AcDbArc
 50
354.0709145121237
 51
5.929085487876228
  0
LINE
  5
2886
330
2
100
AcDbEntity
  8
CENTER
100
AcDbLine
 10
227.2354039967112
 20
149.3677896849509
 30
0.0
 11
227.2354039967112
 21
160.5870629187117
 31
0.0
  0
ARC
  5
2887
330
2
100
AcDbEntity
  8
0
100
AcDbCircle
 10
211.7354039967117
 20
148.9774263018313
 30
0.0
 40
13.0
100
AcDbArc
 50
0.0
 51
90.0
  0
ARC
  5
2888
330
2
100
AcDbEntity
  8
0
100
AcDbCircle
 10
211.7354039967117
 20
148.9774263018313
 30
0.0
 40
12.0
100
AcDbArc
 50
0.0
 51
90.0
  0
ARC
  5
2889
330
2
100
AcDbEntity
  8
0
100
AcDbCircle
 10
134.7354039967112
 20
149.4774263018313
 30
0.0
 40
2.0
100
AcDbArc
 50
90.0
 51
180.0
  0
LINE
  5
288A
330
2
100
AcDbEntity
  8
CENTER
100
AcDbLine
 10
137.7354039967112
 20
164.2274263018313
 30
0.0
 11
137.7354039967108
 21
149.7274263018313
 31
0.0
  0
LINE
  5
288B
330
2
100
AcDbEntity
  8
0
100
AcDbLine
 10
123.4354035357441
 20
154.4774263018295
 30
0.0
 11
123.4354035357441
 21
113.4774263018295
 31
0.0
  0
ARC
  5
288C
330
2
100
AcDbEntity
  8
0
100
AcDbCircle
 10
181.7354039967117
 20
148.9774263018313
 30
0.0
 40
13.0
100
AcDbArc
 50
90.0
 51
180.0
  0
ARC
  5
288D
330
2
100
AcDbEntity
  8
0
100
AcDbCircle
 10
181.7354039967117
 20
148.9774263018313
 30
0.0
 40
12.0
100
AcDbArc
 50
90.0
 51
180.0
  0
CIRCLE
  5
288E
330
2
100
AcDbEntity
  8
0
100
AcDbCircle
 10
196.7354039967117
 20
133.9774263018313
 30
0.0
 40
19.0
  0
CIRCLE
  5
288F
330
2
100
AcDbEntity
  8
0
100
AcDbCircle
 10
196.7354039967117
 20
133.9774263018313
 30
0.0
 40
19.5774
  0
CIRCLE
  5
2890
330
2
100
AcDbEntity
  8
0
100
AcDbCircle
 10
196.7354039967117
 20
133.9774263018313
 30
0.0
 40
22.42259999999999
  0
LINE
  5
2891
330
2
100
AcDbEntity
  8
0
100
AcDbLine
 10
112.9354035357437
 20
107.4774263018313
 30
0.0
 11
112.9354035357432
 21
160.4774263018313
 31
0.0
  0
LINE
  5
2892
330
2
100
AcDbEntity
  8
0
100
AcDbLine
 10
160.7354039967122
 20
102.9774263018313
 30
0.0
 11
160.7354039967131
 21
164.9774263018313
 31
0.0
  0
LINE
  5
2893
330
2
100
AcDbEntity
  8
0
100
AcDbLine
 10
132.7354039967112
 20
110.9774263018313
 30
0.0
 11
132.7354039967112
 21
156.9774263018313
 31
0.0
  0
CIRCLE
  5
2894
330
2
100
AcDbEntity
  8
0
100
AcDbCircle
 10
196.7354039967117
 20
133.9774263018313
 30
0.0
 40
25.5
  0
CIRCLE
  5
2895
330
2
100
AcDbEntity
  8
0
100
AcDbCircle
 10
196.7354039967117
 20
133.9774263018313
 30
0.0
 40
25.0
  0
CIRCLE
  5
2896
330
2
100
AcDbEntity
  8
0
100
AcDbCircle
 10
196.7354039967117
 20
133.9774263018313
 30
0.0
 40
23.0
  0
ARC
  5
2899
330
2
100
AcDbEntity
  8
0
100
AcDbCircle
 10
145.2354039967126
 20
107.9774263018313
 30
0.0
 40
2.0
100
AcDbArc
 50
180.0
 51
270.0
  0
LINE
  5
289A
330
2
100
AcDbEntity
  8
CENTER
100
AcDbLine
 10
130.4854039967112
 20
110.9774263018313
 30
0.0
 11
144.9854039967112
 21
110.9774263018313
 31
0.0
  0
LINE
  5
289B
330
2
100
AcDbEntity
  8
0
100
AcDbLine
 10
157.7354039967121
 20
105.9774263018313
 30
0.0
 11
137.7354039967112
 21
105.9774263018313
 31
0.0
  0
LINE
  5
289C
330
2
100
AcDbEntity
  8
CENTER
100
AcDbLine
 10
143.6342991557135
 20
110.4774263018295
 30
0.0
 11
151.8365088377095
 21
110.4774263018295
 31
0.0
  0
ARC
  5
289D
330
2
100
AcDbEntity
  8
0
100
AcDbCircle
 10
137.7354039967112
 20
110.9774263018313
 30
0.0
 40
5.0
100
AcDbArc
 50
180.0
 51
270.0
  0
LINE
  5
289E
330
2
100
AcDbEntity
  8
0
100
AcDbLine
 10
143.2354039967126
 20
107.9774263018313
 30
0.0
 11
143.2354039967122
 21
110.9774263018313
 31
0.0
  0
LINE
  5
289F
330
2
100
AcDbEntity
  8
0
100
AcDbLine
 10
139.7354039967112
 20
109.8227257634514
 30
0.0
 11
137.7354039967112
 21
108.6680252250713
 31
0.0
  0
LINE
  5
28A0
330
2
100
AcDbEntity
  8
0
100
AcDbLine
 10
135.7354039967112
 20
109.8227257634514
 30
0.0
 11
137.7354039967108
 21
108.6680252250713
 31
0.0
  0
LINE
  5
28A1
330
2
100
AcDbEntity
  8
CENTER
100
AcDbLine
 10
137.7354039967112
 20
103.7274263018295
 30
0.0
 11
137.7354039967108
 21
118.2274263018313
 31
0.0
  0
CIRCLE
  5
28A2
330
2
100
AcDbEntity
  8
0
100
AcDbCircle
 10
137.7354039967112
 20
110.9774263018313
 30
0.0
 40
3.730384757729268
  0
CIRCLE
  5
28A3
330
2
100
AcDbEntity
  8
0
100
AcDbCircle
 10
137.7354039967112
 20
110.9774263018313
 30
0.0
 40
4.250000000000085
  0
ARC
  5
28A4
330
2
100
AcDbEntity
  8
0
100
AcDbCircle
 10
117.863606766019
 20
106.4774263018295
 30
0.0
 40
5.0
100
AcDbArc
 50
90.0
 51
171.7867892982771
  0
LINE
  5
28A5
330
2
100
AcDbEntity
  8
0
100
AcDbLine
 10
104.9354035357432
 20
105.9774263018313
 30
0.0
 11
110.9354035357437
 21
105.9774263018313
 31
0.0
  0
LINE
  5
28A6
330
2
100
AcDbEntity
  8
0
100
AcDbLine
 10
104.9354035357432
 20
105.4774263018313
 30
0.0
 11
110.9354035357437
 21
105.4774263018313
 31
0.0
  0
ARC
  5
28A7
330
2
100
AcDbEntity
  8
0
100
AcDbCircle
 10
110.9354035357437
 20
107.9774263018313
 30
0.0
 40
2.0
100
AcDbArc
 50
270.0
 51
0.0
  0
ARC
  5
28A8
330
2
100
AcDbEntity
  8
0
100
AcDbCircle
 10
110.9354035357437
 20
107.4774263018313
 30
0.0
 40
2.0
100
AcDbArc
 50
270.0
 51
0.0
  0
ARC
  5
28A9
330
2
100
AcDbEntity
  8
0
100
AcDbCircle
 10
130.7354039967117
 20
111.4774263018295
 30
0.0
 40
2.0
100
AcDbArc
 50
0.0
 51
90.0
  0
ARC
  5
28AA
330
2
100
AcDbEntity
  8
0
100
AcDbCircle
 10
124.8995051508813
 20
111.4774263018295
 30
0.0
 40
2.0
100
AcDbArc
 50
90.0
 51
149.9999999999994
  0
LINE
  5
28AB
330
2
100
AcDbEntity
  8
0
100
AcDbLine
 10
124.8995051508813
 20
113.4774263018295
 30
0.0
 11
130.7354039967117
 21
113.4774263018295
 31
0.0
  0
LINE
  5
28AC
330
2
100
AcDbEntity
  8
0
100
AcDbLine
 10
121.4354035357441
 20
111.4774263018295
 30
0.0
 11
117.863606766019
 21
111.4774263018295
 31
0.0
  0
LINE
  5
28AD
330
2
100
AcDbEntity
  8
0
100
AcDbLine
 10
134.7354039967121
 20
116.4774263018313
 30
0.0
 11
137.7354039967117
 21
116.4774263018313
 31
0.0
  0
ARC
  5
28AE
330
2
100
AcDbEntity
  8
0
100
AcDbCircle
 10
134.7354039967117
 20
118.4774263018313
 30
0.0
 40
2.0
100
AcDbArc
 50
180.0
 51
270.0
  0
LINE
  5
28AF
330
2
100
AcDbEntity
  8
0
100
AcDbLine
 10
137.7354039967108
 20
113.2868273785895
 30
0.0
 11
139.7354039967112
 21
112.1321268402095
 31
0.0
  0
LINE
  5
28B0
330
2
100
AcDbEntity
  8
0
100
AcDbLine
 10
137.7354039967108
 20
113.2868273785895
 30
0.0
 11
135.7354039967112
 21
112.1321268402095
 31
0.0
  0
ARC
  5
28B1
330
2
100
AcDbEntity
  8
0
100
AcDbCircle
 10
121.4354035357441
 20
113.4774263018295
 30
0.0
 40
2.0
100
AcDbArc
 50
270.0
 51
0.0
  0
ARC
  5
28B2
330
2
100
AcDbEntity
  8
0
100
AcDbCircle
 10
137.7354039967122
 20
110.9774263018313
 30
0.0
 40
5.5
100
AcDbArc
 50
0.0
 51
90.0
  0
LINE
  5
28B3
330
2
100
AcDbEntity
  8
0
100
AcDbLine
 10
135.7354039967112
 20
112.1321268402095
 30
0.0
 11
135.7354039967112
 21
109.8227257634514
 31
0.0
  0
LINE
  5
28B4
330
2
100
AcDbEntity
  8
0
100
AcDbLine
 10
139.7354039967112
 20
112.1321268402095
 30
0.0
 11
139.7354039967112
 21
109.8227257634514
 31
0.0
  0
ARC
  5
28B5
330
2
100
AcDbEntity
  8
0
100
AcDbCircle
 10
216.3619236766935
 20
68.99382985692472
 30
0.0
 40
30.0
100
AcDbArc
 50
76.15817568162558
 51
95.92908548785031
  0
ARC
  5
28B6
330
2
100
AcDbEntity
  8
0
100
AcDbCircle
 10
211.7354039967117
 20
118.9774263018313
 30
0.0
 40
13.0
100
AcDbArc
 50
270.0
 51
0.0
  0
ARC
  5
28B7
330
2
100
AcDbEntity
  8
0
100
AcDbCircle
 10
211.7354039967117
 20
118.9774263018313
 30
0.0
 40
12.0
100
AcDbArc
 50
270.0
 51
0.0
  0
ARC
  5
28B8
330
2
100
AcDbEntity
  8
0
100
AcDbCircle
 10
181.7354039967117
 20
118.9774263018313
 30
0.0
 40
13.0
100
AcDbArc
 50
180.0
 51
270.0
  0
ARC
  5
28B9
330
2
100
AcDbEntity
  8
0
100
AcDbCircle
 10
181.7354039967117
 20
118.9774263018313
 30
0.0
 40
12.0
100
AcDbArc
 50
180.0
 51
270.0
  0
CIRCLE
  5
28BA
330
2
100
AcDbEntity
  8
0
100
AcDbCircle
 10
147.7354039967112
 20
110.4774263018295
 30
0.0
 40
1.6
  0
LINE
  5
28BB
330
2
100
AcDbEntity
  8
CENTER
100
AcDbLine
 10
147.7354039967112
 20
106.3763214608313
 30
0.0
 11
147.7354039967112
 21
114.5785311428277
 31
0.0
  0
CIRCLE
  5
28BC
330
2
100
AcDbEntity
  8
HOJO
100
AcDbCircle
 10
147.7354039967112
 20
110.4774263018295
 30
0.0
 40
2.0
  0
ARC
  5
28BD
330
2
100
AcDbEntity
  8
0
100
AcDbCircle
 10
177.1088843167303
 20
68.99382985692472
 30
0.0
 40
30.0
100
AcDbArc
 50
84.0709145121497
 51
103.8418243183744
  0
ARC
  5
28BE
330
2
100
AcDbEntity
  8
0
100
AcDbCircle
 10
157.7354039967121
 20
102.9774263018313
 30
0.0
 40
3.0
100
AcDbArc
 50
0.0
 51
90.0
  0
ARC
  5
28BF
330
2
100
AcDbEntity
  8
0
100
AcDbCircle
 10
165.7354039967122
 20
102.9774263018313
 30
0.0
 40
5.0
100
AcDbArc
 50
180.0
 51
270.0
  0
LINE
  5
28C0
330
2
100
AcDbEntity
  8
0
100
AcDbLine
 10
168.7354039967122
 20
97.97742630183137
 30
0.0
 11
165.7354039967122
 21
97.97742630183137
 31
0.0
  0
ARC
  5
28C1
330
2
100
AcDbEntity
  8
0
100
AcDbCircle
 10
168.7354039967122
 20
102.9774263018313
 30
0.0
 40
5.0
100
AcDbArc
 50
270.0
 51
283.8418243183744
  0
LINE
  5
28C2
330
2
100
AcDbEntity
  8
0
100
AcDbLine
 10
211.7354039967117
 20
105.9774263018313
 30
0.0
 11
181.7354039967117
 21
105.9774263018313
 31
0.0
  0
LINE
  5
28C3
330
2
100
AcDbEntity
  8
0
100
AcDbLine
 10
211.7354039967117
 20
106.9774263018313
 30
0.0
 11
181.7354039967117
 21
106.9774263018313
 31
0.0
  0
ARC
  5
28C4
330
2
100
AcDbEntity
  8
0
100
AcDbCircle
 10
196.7354039967117
 20
257.9774263018313
 30
0.0
 40
160.0
100
AcDbArc
 50
264.0709145121496
 51
275.9290854878502
  0
LINE
  5
28C5
330
2
100
AcDbEntity
  8
0
100
AcDbLine
 10
168.7354039967117
 20
148.9774263018313
 30
0.0
 11
168.7354039967117
 21
118.9774263018313
 31
0.0
  0
LINE
  5
28C6
330
2
100
AcDbEntity
  8
0
100
AcDbLine
 10
169.7354039967117
 20
148.9774263018313
 30
0.0
 11
169.7354039967117
 21
118.9774263018313
 31
0.0
  0
LINE
  5
28C7
330
2
100
AcDbEntity
  8
0
100
AcDbLine
 10
172.5430158412868
 20
109.7850381464065
 30
0.0
 11
173.2501226224731
 21
110.4921449275931
 31
0.0
  0
ARC
  5
28C8
330
2
100
AcDbEntity
  8
0
100
AcDbCircle
 10
227.7354039967117
 20
102.9774263018313
 30
0.0
 40
5.5
100
AcDbArc
 50
90.0
 51
180.0
  0
ARC
  5
28C9
330
2
100
AcDbEntity
  8
0
100
AcDbCircle
 10
229.9543006915746
 20
110.4774263018313
 30
0.0
 40
2.0
100
AcDbArc
 50
270.0
 51
6.95248905059621
  0
LINE
  5
28CA
330
2
100
AcDbEntity
  8
CENTER
100
AcDbLine
 10
227.7354039967126
 20
95.72742630183137
 30
0.0
 11
227.7354039967121
 21
110.2274263018313
 31
0.0
  0
ARC
  5
28CB
330
2
100
AcDbEntity
  8
0
100
AcDbCircle
 10
261.7190004416183
 20
114.35090662185
 30
0.0
 40
30.0
100
AcDbArc
 50
174.0709145121237
 51
193.8418243184202
  0
LINE
  5
28CC
330
2
100
AcDbEntity
  8
CENTER
100
AcDbLine
 10
227.2354039967112
 20
118.5870629187117
 30
0.0
 11
227.2354039967112
 21
107.3677896849509
 31
0.0
  0
LINE
  5
28CD
330
2
100
AcDbEntity
  8
CENTER
100
AcDbLine
 10
234.9854039967117
 20
102.9774263018313
 30
0.0
 11
220.4854039967117
 21
102.9774263018313
 31
0.0
  0
LINE
  5
28CE
330
2
100
AcDbEntity
  8
0
100
AcDbLine
 10
227.7354039967117
 20
97.97742630183137
 30
0.0
 11
224.7354039967117
 21
97.97742630183137
 31
0.0
  0
ARC
  5
28CF
330
2
100
AcDbEntity
  8
0
100
AcDbCircle
 10
227.7354039967117
 20
102.9774263018313
 30
0.0
 40
5.0
100
AcDbArc
 50
270.0
 51
0.0
  0
LINE
  5
28D0
330
2
100
AcDbEntity
  8
0
100
AcDbLine
 10
227.7354039967117
 20
108.4774263018313
 30
0.0
 11
229.9543006915746
 21
108.4774263018313
 31
0.0
  0
ARC
  5
28D1
330
2
100
AcDbEntity
  8
0
100
AcDbCircle
 10
227.7354039967117
 20
105.9774263018313
 30
0.0
 40
5.0
100
AcDbArc
 50
0.0
 51
13.84182431842025
  0
LINE
  5
28D2
330
2
100
AcDbEntity
  8
0
100
AcDbLine
 10
232.7354039967117
 20
102.9774263018313
 30
0.0
 11
232.7354039967117
 21
105.9774263018313
 31
0.0
  0
ARC
  5
28D3
330
2
100
AcDbEntity
  8
0
100
AcDbCircle
 10
220.2354039967117
 20
100.758529606968
 30
0.0
 40
2.0
100
AcDbArc
 50
263.04751094943
 51
0.0
  0
LINE
  5
28D4
330
2
100
AcDbEntity
  8
0
100
AcDbLine
 10
222.2354039967117
 20
102.9774263018313
 30
0.0
 11
222.2354039967117
 21
100.758529606968
 31
0.0
  0
ARC
  5
28D5
330
2
100
AcDbEntity
  8
0
100
AcDbCircle
 10
224.7354039967117
 20
102.9774263018313
 30
0.0
 40
5.0
100
AcDbArc
 50
256.1581756815789
 51
270.0
  0
LINE
  5
28D6
330
2
100
AcDbEntity
  8
0
100
AcDbLine
 10
225.7354039967121
 20
104.1321268402095
 30
0.0
 11
225.7354039967121
 21
101.8227257634513
 31
0.0
  0
LINE
  5
28D7
330
2
100
AcDbEntity
  8
0
100
AcDbLine
 10
229.7354039967121
 20
104.1321268402095
 30
0.0
 11
229.7354039967121
 21
101.8227257634513
 31
0.0
  0
CIRCLE
  5
28D8
330
2
100
AcDbEntity
  8
0
100
AcDbCircle
 10
227.7354039967121
 20
102.9774263018313
 30
0.0
 40
3.730384757729268
  0
CIRCLE
  5
28D9
330
2
100
AcDbEntity
  8
0
100
AcDbCircle
 10
227.7354039967121
 20
102.9774263018313
 30
0.0
 40
4.250000000000085
  0
LINE
  5
28DA
330
2
100
AcDbEntity
  8
0
100
AcDbLine
 10
229.7354039967121
 20
101.8227257634513
 30
0.0
 11
227.7354039967121
 21
100.6680252250732
 31
0.0
  0
LINE
  5
28DB
330
2
100
AcDbEntity
  8
0
100
AcDbLine
 10
225.7354039967121
 20
101.8227257634513
 30
0.0
 11
227.7354039967121
 21
100.6680252250732
 31
0.0
  0
LINE
  5
28DC
330
2
100
AcDbEntity
  8
0
100
AcDbLine
 10
227.7354039967121
 20
105.2868273785895
 30
0.0
 11
229.7354039967121
 21
104.1321268402095
 31
0.0
  0
LINE
  5
28DD
330
2
100
AcDbEntity
  8
0
100
AcDbLine
 10
227.7354039967121
 20
105.2868273785895
 30
0.0
 11
225.7354039967121
 21
104.1321268402095
 31
0.0
  0
CIRCLE
  5
28DE
330
2
100
AcDbEntity
  8
0
100
AcDbCircle
 10
227.2354039967117
 20
112.9774263018313
 30
0.0
 40
1.6
  0
LINE
  5
28DF
330
2
100
AcDbEntity
  8
CENTER
100
AcDbLine
 10
221.6257673798309
 20
112.9774263018313
 30
0.0
 11
232.8450406135916
 21
112.9774263018313
 31
0.0
  0
LINE
  5
28E0
330
2
100
AcDbEntity
  8
0
100
AcDbLine
 10
224.7354039967117
 20
148.9774263018313
 30
0.0
 11
224.7354039967117
 21
118.9774263018313
 31
0.0
  0
LINE
  5
28E1
330
2
100
AcDbEntity
  8
0
100
AcDbLine
 10
223.7354039967117
 20
148.9774263018313
 30
0.0
 11
223.7354039967117
 21
118.9774263018313
 31
0.0
  0
LINE
  5
28E2
330
2
100
AcDbEntity
  8
0
100
AcDbLine
 10
220.927792152137
 20
109.7850381464065
 30
0.0
 11
220.2206853709503
 21
110.4921449275931
 31
0.0
  0
CIRCLE
  5
28E3
330
2
100
AcDbEntity
  8
HOJO
100
AcDbCircle
 10
227.2354039967112
 20
112.9774263018313
 30
0.0
 40
2.0
  0
CIRCLE
  5
28E4
330
2
100
AcDbEntity
  8
0
100
AcDbCircle
 10
227.2354039967117
 20
112.9774263018313
 30
0.0
 40
2.5
  0
CIRCLE
  5
28E5
330
2
100
AcDbEntity
  8
0
100
AcDbCircle
 10
227.2354039967117
 20
112.9774263018313
 30
0.0
 40
3.0
  0
LINE
  5
28E6
330
2
100
AcDbEntity
  8
CENTER
100
AcDbLine
 10
437.9150990045257
 20
133.9774263018312
 30
0.0
 11
295.9150990045802
 21
133.9774263018314
 31
0.0
  0
LINE
  5
28E9
330
2
100
AcDbEntity
  8
0
100
AcDbLine
 10
324.9150990045297
 20
105.9774263018187
 30
0.0
 11
376.9150990045247
 21
105.9774263018187
 31
0.0
  0
LINE
  5
28EA
330
2
100
AcDbEntity
  8
0
100
AcDbLine
 10
324.9150990045302
 20
102.9774263018168
 30
0.0
 11
376.9150990045247
 21
102.9774263018168
 31
0.0
  0
LINE
  5
28EB
330
2
100
AcDbEntity
  8
0
100
AcDbLine
 10
324.9150990045243
 20
97.97742630183144
 30
0.0
 11
377.9150990045248
 21
98.4399502947415
 31
0.0
  0
LINE
  5
28EC
330
2
100
AcDbEntity
  8
0
100
AcDbLine
 10
324.9150990045289
 20
117.4498307818355
 30
0.0
 11
376.9150990045252
 21
117.4498307818355
 31
0.0
  0
LINE
  5
28ED
330
2
100
AcDbEntity
  8
0
100
AcDbLine
 10
324.9150990045279
 20
97.97742630183144
 30
0.0
 11
324.9150990045275
 21
121.4773803018304
 31
0.0
  0
LINE
  5
28EE
330
2
100
AcDbEntity
  8
0
100
AcDbLine
 10
324.9150990045243
 20
97.97742630183144
 30
0.0
 11
324.9150990045265
 21
122.5627705043677
 31
0.0
  0
ARC
  5
28EF
330
2
100
AcDbEntity
  8
0
100
AcDbCircle
 10
316.4150990045316
 20
109.4949181157969
 30
0.0
 40
1.0
100
AcDbArc
 50
180.0
 51
269.5000000000084
  0
LINE
  5
28F0
330
2
100
AcDbEntity
  8
0
100
AcDbLine
 10
312.1150990044764
 20
107.2470415441018
 30
0.0
 11
312.1150990044759
 21
110.9774263018314
 31
0.0
  0
LINE
  5
28F1
330
2
100
AcDbEntity
  8
0
100
AcDbLine
 10
312.4150990044765
 20
106.7274263018314
 30
0.0
 11
312.4150990044765
 21
110.9774263018314
 31
0.0
  0
LINE
  5
28F2
330
2
100
AcDbEntity
  8
0
100
AcDbLine
 10
324.9150990045275
 20
97.97742630183144
 30
0.0
 11
316.4063724690334
 21
98.0516808333739
 31
0.0
  0
LINE
  5
28F3
330
2
100
AcDbEntity
  8
0
100
AcDbLine
 10
324.9150990045275
 20
105.9774263018314
 30
0.0
 11
319.4063724689806
 21
105.9774263018314
 31
0.0
  0
LINE
  5
28F4
330
2
100
AcDbEntity
  8
0
100
AcDbLine
 10
324.9150990045275
 20
102.9774263018314
 30
0.0
 11
319.4063724689806
 21
102.9774263018314
 31
0.0
  0
LINE
  5
28F5
330
2
100
AcDbEntity
  8
CENTER
  6
CENS
100
AcDbLine
 10
308.2509433182078
 20
102.9774263018186
 30
0.0
 11
328.9853556082332
 21
102.9774263018186
 31
0.0
  0
ARC
  5
28F6
330
2
100
AcDbEntity
  8
0
100
AcDbCircle
 10
316.4150990045316
 20
99.05164275643778
 30
0.0
 40
1.0
100
AcDbArc
 50
198.9181108946889
 51
269.5000000000084
  0
ARC
  5
28F7
330
2
100
AcDbEntity
  8
HIDS
100
AcDbCircle
 10
316.4150990045316
 20
99.05164275643778
 30
0.0
 40
1.0
100
AcDbArc
 50
180.0
 51
198.9181108946889
  0
ARC
  5
28F8
330
2
100
AcDbEntity
  8
HIDS
100
AcDbCircle
 10
314.4150990045316
 20
105.5632127395072
 30
0.0
 40
1.0
100
AcDbArc
 50
0.0
 51
45.00000000000921
  0
ARC
  5
28F9
330
2
100
AcDbEntity
  8
HIDS
100
AcDbCircle
 10
315.4150990045798
 20
107.3916398642047
 30
0.0
 40
1.0
100
AcDbArc
 50
189.4515517656347
 51
225.0000000000091
  0
ARC
  5
28FA
330
2
100
AcDbEntity
  8
0
100
AcDbCircle
 10
315.4150990045798
 20
107.3916398642047
 30
0.0
 40
1.0
100
AcDbArc
 50
180.0
 51
189.4515517656347
  0
LINE
  5
28FB
330
2
100
AcDbEntity
  8
HIDS
100
AcDbLine
 10
314.7079922233936
 20
106.6845330830181
 30
0.0
 11
315.1222057857182
 21
106.2703195206938
 31
0.0
  0
LINE
  5
28FC
330
2
100
AcDbEntity
  8
HIDS
100
AcDbLine
 10
315.4150990045316
 20
107.2274263018186
 30
0.0
 11
315.4150990045316
 21
99.05164275643778
 31
0.0
  0
LINE
  5
28FD
330
2
100
AcDbEntity
  8
0
100
AcDbLine
 10
313.9150990045798
 20
108.9774263018314
 30
0.0
 11
314.4150990045798
 21
108.4774263018314
 31
0.0
  0
LINE
  5
28FE
330
2
100
AcDbEntity
  8
0
100
AcDbLine
 10
317.1150990044786
 20
107.2274263018186
 30
0.0
 11
317.1150990044786
 21
98.72742630181869
 31
0.0
  0
ARC
  5
28FF
330
2
100
AcDbEntity
  8
0
100
AcDbCircle
 10
319.4150990044788
 20
99.02546215306552
 30
0.0
 40
1.0
100
AcDbArc
 50
180.0
 51
269.5000000000084
  0
ARC
  5
2900
330
2
100
AcDbEntity
  8
0
100
AcDbCircle
 10
317.9150990044788
 20
107.9817706965366
 30
0.0
 40
0.5
100
AcDbArc
 50
0.0
 51
89.50000000000846
  0
LINE
  5
2901
330
2
100
AcDbEntity
  8
0
100
AcDbLine
 10
318.4150990044788
 20
107.9817706965366
 30
0.0
 11
318.4150990044788
 21
98.72742630181869
 31
0.0
  0
LINE
  5
2902
330
2
100
AcDbEntity
  8
0
100
AcDbLine
 10
317.9194622722282
 20
108.4817516580658
 30
0.0
 11
316.4063724690334
 21
108.494956192733
 31
0.0
  0
LINE
  5
2903
330
2
100
AcDbEntity
  8
0
100
AcDbLine
 10
312.2707614371836
 20
106.9774263018232
 30
0.0
 11
312.1150990044764
 21
107.2470415441018
 31
0.0
  0
LINE
  5
2904
330
2
100
AcDbEntity
  8
0
100
AcDbLine
 10
312.4150990044788
 20
98.72742630181869
 30
0.0
 11
312.1150990044786
 21
99.24704154408914
 31
0.0
  0
LINE
  5
2905
330
2
100
AcDbEntity
  8
0
100
AcDbLine
 10
312.4150990044788
 20
107.2274263018186
 30
0.0
 11
312.1150990044786
 21
106.7078110595482
 31
0.0
  0
LINE
  5
2906
330
2
100
AcDbEntity
  8
0
100
AcDbLine
 10
312.1150990044786
 20
106.7078110595482
 30
0.0
 11
312.1150990044786
 21
99.24704154408914
 31
0.0
  0
LINE
  5
2907
330
2
100
AcDbEntity
  8
0
100
AcDbLine
 10
312.4150990044788
 20
107.2274263018186
 30
0.0
 11
312.4150990044788
 21
98.72742630181869
 31
0.0
  0
LINE
  5
2908
330
2
100
AcDbEntity
  8
0
100
AcDbLine
 10
312.4150990044788
 20
98.72742630181869
 30
0.0
 11
318.4150990044788
 21
98.72742630181869
 31
0.0
  0
LINE
  5
2909
330
2
100
AcDbEntity
  8
0
100
AcDbLine
 10
312.4150990044788
 20
107.2274263018186
 30
0.0
 11
318.4150990044788
 21
107.2274263018186
 31
0.0
  0
LINE
  5
290A
330
2
100
AcDbEntity
  8
0
100
AcDbLine
 10
324.9150990045275
 20
117.4498307818482
 30
0.0
 11
316.4063724690334
 21
117.4498307818482
 31
0.0
  0
LINE
  5
290B
330
2
100
AcDbEntity
  8
0
100
AcDbLine
 10
305.9150990045798
 20
111.5547765710195
 30
0.0
 11
306.9150990045802
 21
110.9774263018314
 31
0.0
  0
LINE
  5
290C
330
2
100
AcDbEntity
  8
0
100
AcDbLine
 10
310.4150990045802
 20
111.1774263018303
 30
0.0
 11
310.61509900458
 21
110.9774263018314
 31
0.0
  0
ARC
  5
290D
330
2
100
AcDbEntity
  8
0
100
AcDbCircle
 10
308.2150990045799
 20
111.1774263018303
 30
0.0
 40
0.2
100
AcDbArc
 50
270.0
 51
0.0
  0
LINE
  5
290E
330
2
100
AcDbEntity
  8
0
100
AcDbLine
 10
308.2150990045799
 20
110.9774263018314
 30
0.0
 11
306.9150990045802
 21
110.9774263018314
 31
0.0
  0
LINE
  5
290F
330
2
100
AcDbEntity
  8
0
100
AcDbLine
 10
305.9150990045798
 20
111.5547765710195
 30
0.0
 11
305.9150990045798
 21
121.9774723018306
 31
0.0
  0
ARC
  5
2910
330
2
100
AcDbEntity
  8
0
100
AcDbCircle
 10
310.2150990045799
 20
111.4774263018314
 30
0.0
 40
0.2
100
AcDbArc
 50
0.0
 51
90.0
  0
ARC
  5
2911
330
2
100
AcDbEntity
  8
0
100
AcDbCircle
 10
308.61509900458
 20
111.4774263018314
 30
0.0
 40
0.2
100
AcDbArc
 50
90.0
 51
180.0
  0
LINE
  5
2912
330
2
100
AcDbEntity
  8
0
100
AcDbLine
 10
310.2150990045799
 20
111.6774263018303
 30
0.0
 11
308.61509900458
 21
111.6774263018303
 31
0.0
  0
LINE
  5
2913
330
2
100
AcDbEntity
  8
0
100
AcDbLine
 10
313.9150990045798
 20
110.9774263018314
 30
0.0
 11
310.61509900458
 21
110.9774263018314
 31
0.0
  0
ARC
  5
2914
330
2
100
AcDbEntity
  8
0
100
AcDbCircle
 10
384.9150990045247
 20
107.5920792097911
 30
0.0
 40
2.0
100
AcDbArc
 50
92.00000000000361
 51
180.0
  0
LINE
  5
2915
330
2
100
AcDbEntity
  8
0
100
AcDbLine
 10
377.9150990045248
 20
103.9774267627997
 30
0.0
 11
382.9150990045247
 21
103.9774267627997
 31
0.0
  0
LINE
  5
2916
330
2
100
AcDbEntity
  8
0
100
AcDbLine
 10
384.8453000111201
 20
109.5908608638289
 30
0.0
 11
393.9848979979304
 21
109.9100226583739
 31
0.0
  0
ARC
  5
2917
330
2
100
AcDbEntity
  8
0
100
AcDbCircle
 10
393.9150990045248
 20
111.9088043124136
 30
0.0
 40
2.0
100
AcDbArc
 50
272.0000000000035
 51
0.0
  0
LINE
  5
2927
330
2
100
AcDbEntity
  8
CENTER
100
AcDbLine
 10
574.1605427398098
 20
109.3647279296234
 30
0.0
 11
574.1605427398098
 21
96.36472792962349
 31
0.0
  0
ARC
  5
2928
330
2
100
AcDbEntity
  8
0
100
AcDbCircle
 10
540.2896446671129
 20
114.3509066218481
 30
0.0
 40
30.0
100
AcDbArc
 50
346.1581756815797
 51
5.929085487876228
  0
ARC
  5
2929
330
2
100
AcDbEntity
  8
0
100
AcDbCircle
 10
585.6467214320382
 20
68.9938298569229
 30
0.0
 40
30.0
100
AcDbArc
 50
84.07091451212378
 51
103.8418243183673
  0
ARC
  5
292A
330
2
100
AcDbEntity
  8
0
100
AcDbCircle
 10
577.2732411120196
 20
102.9774263018295
 30
0.0
 40
5.0
100
AcDbArc
 50
270.0
 51
283.8418243183673
  0
CIRCLE
  5
292B
330
2
100
AcDbEntity
  8
HOJO
100
AcDbCircle
 10
574.1605427398117
 20
102.8647279296234
 30
0.0
 40
2.5
  0
CIRCLE
  5
292C
330
2
100
AcDbEntity
  8
0
100
AcDbCircle
 10
574.1605427398117
 20
102.8647279296234
 30
0.0
 40
2.0
  0
LINE
  5
292D
330
2
100
AcDbEntity
  8
0
100
AcDbLine
 10
574.2732411120195
 20
97.97742630183137
 30
0.0
 11
577.2732411120196
 21
97.97742630183137
 31
0.0
  0
LINE
  5
292E
330
2
100
AcDbEntity
  8
0
100
AcDbLine
 10
569.2732411120196
 20
105.9774263018295
 30
0.0
 11
569.2732411120196
 21
102.9774263018313
 31
0.0
  0
ARC
  5
292F
330
2
100
AcDbEntity
  8
0
100
AcDbCircle
 10
574.2732411120195
 20
105.9774263018295
 30
0.0
 40
5.0
100
AcDbArc
 50
166.1581756815797
 51
180.0
  0
ARC
  5
2930
330
2
100
AcDbEntity
  8
0
100
AcDbCircle
 10
574.2732411120195
 20
102.9774263018313
 30
0.0
 40
5.0
100
AcDbArc
 50
180.0
 51
270.0
  0
LINE
  5
2931
330
2
100
AcDbEntity
  8
CENTER
100
AcDbLine
 10
580.6605427398099
 20
102.8647279296234
 30
0.0
 11
567.6605427398099
 21
102.8647279296234
 31
0.0
  0
LINE
  5
2933
330
2
100
AcDbEntity
  8
CENTER
100
AcDbLine
 10
130.4854039967112
 20
156.9774263018313
 30
0.0
 11
144.9854039967112
 21
156.9774263018313
 31
0.0
  0
ARC
  5
2934
330
2
100
AcDbEntity
  8
0
100
AcDbCircle
 10
145.2354039967112
 20
159.9774263018313
 30
0.0
 40
2.0
100
AcDbArc
 50
90.0
 51
180.0
  0
LINE
  5
2935
330
2
100
AcDbEntity
  8
0
100
AcDbLine
 10
157.7354039967131
 20
161.9774263018313
 30
0.0
 11
137.7354039967112
 21
161.9774263018313
 31
0.0
  0
LINE
  5
2936
330
2
100
AcDbEntity
  8
CENTER
100
AcDbLine
 10
143.6342991557135
 20
157.4774263018331
 30
0.0
 11
151.8365088377095
 21
157.4774263018331
 31
0.0
  0
LINE
  5
2937
330
2
100
AcDbEntity
  8
0
100
AcDbLine
 10
104.9354035357432
 20
161.9774263018313
 30
0.0
 11
110.9354035357432
 21
161.9774263018313
 31
0.0
  0
LINE
  5
2938
330
2
100
AcDbEntity
  8
0
100
AcDbLine
 10
104.9354035357432
 20
162.4774263018313
 30
0.0
 11
110.9354035357432
 21
162.4774263018313
 31
0.0
  0
ARC
  5
2939
330
2
100
AcDbEntity
  8
0
100
AcDbCircle
 10
130.7354039967117
 20
156.4774263018295
 30
0.0
 40
2.0
100
AcDbArc
 50
270.0
 51
0.0
  0
ARC
  5
293A
330
2
100
AcDbEntity
  8
0
100
AcDbCircle
 10
121.4354035357441
 20
154.4774263018295
 30
0.0
 40
2.0
100
AcDbArc
 50
0.0
 51
90.0
  0
ARC
  5
293B
330
2
100
AcDbEntity
  8
0
100
AcDbCircle
 10
124.8995051508813
 20
156.4774263018295
 30
0.0
 40
2.0
100
AcDbArc
 50
210.0000000000004
 51
270.0
  0
LINE
  5
293C
330
2
100
AcDbEntity
  8
0
100
AcDbLine
 10
121.4354035357441
 20
156.4774263018295
 30
0.0
 11
117.863606766019
 21
156.4774263018295
 31
0.0
  0
LINE
  5
293D
330
2
100
AcDbEntity
  8
0
100
AcDbLine
 10
124.8995051508813
 20
154.4774263018295
 30
0.0
 11
130.7354039967117
 21
154.4774263018295
 31
0.0
  0
LINE
  5
293E
330
2
100
AcDbEntity
  8
0
100
AcDbLine
 10
143.2354039967112
 20
159.9774263018313
 30
0.0
 11
143.2354039967112
 21
156.9774263018313
 31
0.0
  0
ARC
  5
293F
330
2
100
AcDbEntity
  8
0
100
AcDbCircle
 10
137.7354039967112
 20
156.9774263018313
 30
0.0
 40
5.0
100
AcDbArc
 50
90.0
 51
180.0
  0
LINE
  5
2940
330
2
100
AcDbEntity
  8
0
100
AcDbLine
 10
135.7354039967112
 20
158.1321268402113
 30
0.0
 11
135.7354039967112
 21
155.8227257634514
 31
0.0
  0
LINE
  5
2941
330
2
100
AcDbEntity
  8
0
100
AcDbLine
 10
139.7354039967112
 20
158.1321268402113
 30
0.0
 11
139.7354039967112
 21
155.8227257634514
 31
0.0
  0
LINE
  5
2942
330
2
100
AcDbEntity
  8
0
100
AcDbLine
 10
139.7354039967112
 20
155.8227257634514
 30
0.0
 11
137.7354039967112
 21
154.6680252250732
 31
0.0
  0
LINE
  5
2943
330
2
100
AcDbEntity
  8
0
100
AcDbLine
 10
135.7354039967112
 20
155.8227257634514
 30
0.0
 11
137.7354039967108
 21
154.6680252250732
 31
0.0
  0
LINE
  5
2944
330
2
100
AcDbEntity
  8
0
100
AcDbLine
 10
137.7354039967108
 20
159.2868273785895
 30
0.0
 11
139.7354039967112
 21
158.1321268402113
 31
0.0
  0
LINE
  5
2945
330
2
100
AcDbEntity
  8
0
100
AcDbLine
 10
137.7354039967108
 20
159.2868273785895
 30
0.0
 11
135.7354039967112
 21
158.1321268402113
 31
0.0
  0
ARC
  5
2946
330
2
100
AcDbEntity
  8
0
100
AcDbCircle
 10
110.9354035357432
 20
159.9774263018313
 30
0.0
 40
2.0
100
AcDbArc
 50
0.0
 51
90.0
  0
ARC
  5
2947
330
2
100
AcDbEntity
  8
0
100
AcDbCircle
 10
110.9354035357432
 20
160.4774263018313
 30
0.0
 40
2.0
100
AcDbArc
 50
0.0
 51
90.0
  0
ARC
  5
2948
330
2
100
AcDbEntity
  8
0
100
AcDbCircle
 10
117.863606766019
 20
161.4774263018295
 30
0.0
 40
5.0
100
AcDbArc
 50
188.2132107017228
 51
270.0
  0
LINE
  5
2949
330
2
100
AcDbEntity
  8
0
100
AcDbLine
 10
134.7354039967112
 20
151.4774263018313
 30
0.0
 11
137.7354039967112
 21
151.4774263018313
 31
0.0
  0
ARC
  5
294A
330
2
100
AcDbEntity
  8
0
100
AcDbCircle
 10
137.7354039967112
 20
156.9774263018313
 30
0.0
 40
5.5
100
AcDbArc
 50
270.0
 51
0.0
  0
CIRCLE
  5
294B
330
2
100
AcDbEntity
  8
0
100
AcDbCircle
 10
137.7354039967112
 20
156.9774263018313
 30
0.0
 40
3.730384757729268
  0
CIRCLE
  5
294C
330
2
100
AcDbEntity
  8
0
100
AcDbCircle
 10
137.7354039967112
 20
156.9774263018313
 30
0.0
 40
4.250000000000085
  0
ARC
  5
294D
330
2
100
AcDbEntity
  8
0
100
AcDbCircle
 10
216.3619236766935
 20
198.961022746738
 30
0.0
 40
30.0
100
AcDbArc
 50
264.0709145121496
 51
283.8418243183744
  0
ARC
  5
294E
330
2
100
AcDbEntity
  8
0
100
AcDbCircle
 10
177.1088843167303
 20
198.961022746738
 30
0.0
 40
30.0
100
AcDbArc
 50
256.1581756815789
 51
275.9290854878502
  0
ARC
  5
294F
330
2
100
AcDbEntity
  8
0
100
AcDbCircle
 10
168.7354039967122
 20
164.9774263018313
 30
0.0
 40
5.0
100
AcDbArc
 50
76.15817568162558
 51
90.0
  0
LINE
  5
2950
330
2
100
AcDbEntity
  8
0
100
AcDbLine
 10
168.7354039967122
 20
169.9774263018313
 30
0.0
 11
165.7354039967131
 21
169.9774263018313
 31
0.0
  0
ARC
  5
2951
330
2
100
AcDbEntity
  8
0
100
AcDbCircle
 10
157.7354039967131
 20
164.9774263018313
 30
0.0
 40
3.0
100
AcDbArc
 50
270.0
 51
0.0
  0
LINE
  5
2952
330
2
100
AcDbEntity
  8
0
100
AcDbLine
 10
173.2501226224731
 20
157.4627076760695
 30
0.0
 11
172.5430158412868
 21
158.1698144572562
 31
0.0
  0
ARC
  5
2953
330
2
100
AcDbEntity
  8
0
100
AcDbCircle
 10
165.7354039967131
 20
164.9774263018313
 30
0.0
 40
5.0
100
AcDbArc
 50
90.0
 51
180.0
  0
CIRCLE
  5
2954
330
2
100
AcDbEntity
  8
0
100
AcDbCircle
 10
147.7354039967112
 20
157.4774263018331
 30
0.0
 40
1.6
  0
CIRCLE
  5
2955
330
2
100
AcDbEntity
  8
HOJO
100
AcDbCircle
 10
147.7354039967112
 20
157.4774263018331
 30
0.0
 40
2.0
  0
LINE
  5
2956
330
2
100
AcDbEntity
  8
CENTER
100
AcDbLine
 10
147.7354039967112
 20
161.5785311428314
 30
0.0
 11
147.7354039967112
 21
153.3763214608349
 31
0.0
  0
LINE
  5
2957
330
2
100
AcDbEntity
  8
0
100
AcDbLine
 10
211.7354039967117
 20
161.9774263018313
 30
0.0
 11
181.7354039967117
 21
161.9774263018313
 31
0.0
  0
LINE
  5
2958
330
2
100
AcDbEntity
  8
0
100
AcDbLine
 10
211.7354039967117
 20
160.9774263018313
 30
0.0
 11
181.7354039967117
 21
160.9774263018313
 31
0.0
  0
ARC
  5
2959
330
2
100
AcDbEntity
  8
0
100
AcDbCircle
 10
196.7354039967117
 20
9.977426301831371
 30
0.0
 40
160.0
100
AcDbArc
 50
84.0709145121497
 51
95.92908548785031
  0
LINE
  5
295A
330
2
100
AcDbEntity
  8
0
100
AcDbLine
 10
227.7354039967117
 20
169.9774263018313
 30
0.0
 11
224.7354039967117
 21
169.9774263018313
 31
0.0
  0
ARC
  5
295B
330
2
100
AcDbEntity
  8
0
100
AcDbCircle
 10
224.7354039967117
 20
164.9774263018313
 30
0.0
 40
5.0
100
AcDbArc
 50
90.0
 51
103.8418243183744
  0
LINE
  5
295C
330
2
100
AcDbEntity
  8
CENTER
100
AcDbLine
 10
234.9854039967117
 20
164.9774263018313
 30
0.0
 11
220.4854039967117
 21
164.9774263018313
 31
0.0
  0
ARC
  5
295D
330
2
100
AcDbEntity
  8
0
100
AcDbCircle
 10
229.9543006915746
 20
157.4774263018313
 30
0.0
 40
2.0
100
AcDbArc
 50
353.0475109494037
 51
90.0
  0
ARC
  5
295E
330
2
100
AcDbEntity
  8
0
100
AcDbCircle
 10
227.7354039967117
 20
164.9774263018313
 30
0.0
 40
5.5
100
AcDbArc
 50
180.0
 51
270.0
  0
ARC
  5
295F
330
2
100
AcDbEntity
  8
0
100
AcDbCircle
 10
227.7354039967117
 20
161.9774263018313
 30
0.0
 40
5.0
100
AcDbArc
 50
346.1581756815797
 51
0.0
  0
LINE
  5
2960
330
2
100
AcDbEntity
  8
0
100
AcDbLine
 10
232.7354039967117
 20
161.9774263018313
 30
0.0
 11
232.7354039967117
 21
164.9774263018313
 31
0.0
  0
LINE
  5
2961
330
2
100
AcDbEntity
  8
0
100
AcDbLine
 10
227.7354039967117
 20
159.4774263018313
 30
0.0
 11
229.9543006915746
 21
159.4774263018313
 31
0.0
  0
LINE
  5
2962
330
2
100
AcDbEntity
  8
0
100
AcDbLine
 10
222.2354039967117
 20
164.9774263018313
 30
0.0
 11
222.2354039967117
 21
167.1963229966947
 31
0.0
  0
LINE
  5
2963
330
2
100
AcDbEntity
  8
0
100
AcDbLine
 10
220.2206853709503
 20
157.4627076760695
 30
0.0
 11
220.927792152137
 21
158.1698144572562
 31
0.0
  0
LINE
  5
2964
330
2
100
AcDbEntity
  8
0
100
AcDbLine
 10
225.7354039967117
 20
166.1321268402095
 30
0.0
 11
225.7354039967117
 21
163.8227257634513
 31
0.0
  0
LINE
  5
2965
330
2
100
AcDbEntity
  8
0
100
AcDbLine
 10
229.7354039967117
 20
166.1321268402095
 30
0.0
 11
229.7354039967117
 21
163.8227257634513
 31
0.0
  0
LINE
  5
2966
330
2
100
AcDbEntity
  8
0
100
AcDbLine
 10
229.7354039967117
 20
163.8227257634513
 30
0.0
 11
227.7354039967117
 21
162.6680252250732
 31
0.0
  0
LINE
  5
2967
330
2
100
AcDbEntity
  8
0
100
AcDbLine
 10
225.7354039967117
 20
163.8227257634513
 30
0.0
 11
227.7354039967117
 21
162.6680252250732
 31
0.0
  0
LINE
  5
2968
330
2
100
AcDbEntity
  8
0
100
AcDbLine
 10
227.7354039967117
 20
167.2868273785895
 30
0.0
 11
229.7354039967117
 21
166.1321268402095
 31
0.0
  0
LINE
  5
2969
330
2
100
AcDbEntity
  8
0
100
AcDbLine
 10
227.7354039967117
 20
167.2868273785895
 30
0.0
 11
225.7354039967117
 21
166.1321268402095
 31
0.0
  0
LINE
  5
296A
330
2
100
AcDbEntity
  8
CENTER
100
AcDbLine
 10
221.6257673798309
 20
154.9774263018313
 30
0.0
 11
232.8450406135916
 21
154.9774263018313
 31
0.0
  0
ARC
  5
296B
330
2
100
AcDbEntity
  8
0
100
AcDbCircle
 10
227.7354039967117
 20
164.9774263018313
 30
0.0
 40
5.0
100
AcDbArc
 50
0.0
 51
90.0
  0
ARC
  5
296C
330
2
100
AcDbEntity
  8
0
100
AcDbCircle
 10
220.2354039967117
 20
167.1963229966947
 30
0.0
 40
2.0
100
AcDbArc
 50
0.0
 51
96.95248905056994
  0
LINE
  5
296D
330
2
100
AcDbEntity
  8
CENTER
100
AcDbLine
 10
227.7354039967117
 20
172.2274263018313
 30
0.0
 11
227.7354039967117
 21
157.7274263018313
 31
0.0
  0
CIRCLE
  5
296E
330
2
100
AcDbEntity
  8
0
100
AcDbCircle
 10
227.7354039967117
 20
164.9774263018313
 30
0.0
 40
3.730384757729268
  0
CIRCLE
  5
296F
330
2
100
AcDbEntity
  8
0
100
AcDbCircle
 10
227.7354039967117
 20
164.9774263018313
 30
0.0
 40
4.250000000000085
  0
CIRCLE
  5
2970
330
2
100
AcDbEntity
  8
HOJO
100
AcDbCircle
 10
227.2354039967112
 20
154.9774263018313
 30
0.0
 40
2.0
  0
ARC
  5
2971
330
2
100
AcDbEntity
  8
0
100
AcDbCircle
 10
261.7190004416183
 20
153.6039459818127
 30
0.0
 40
30.0
100
AcDbArc
 50
166.1581756815797
 51
185.9290854878762
  0
CIRCLE
  5
2972
330
2
100
AcDbEntity
  8
0
100
AcDbCircle
 10
227.2354039967117
 20
154.9774263018313
 30
0.0
 40
3.0
  0
CIRCLE
  5
2973
330
2
100
AcDbEntity
  8
0
100
AcDbCircle
 10
227.2354039967117
 20
154.9774263018313
 30
0.0
 40
2.5
  0
CIRCLE
  5
2974
330
2
100
AcDbEntity
  8
0
100
AcDbCircle
 10
227.2354039967117
 20
154.9774263018313
 30
0.0
 40
1.6
  0
LINE
  5
2978
330
2
100
AcDbEntity
  8
0
100
AcDbLine
 10
324.9150990045289
 20
150.5050218218254
 30
0.0
 11
376.9150990045261
 21
150.5050218218254
 31
0.0
  0
LINE
  5
2979
330
2
100
AcDbEntity
  8
0
100
AcDbLine
 10
324.9150990045297
 20
161.9774263018423
 30
0.0
 11
376.9150990045265
 21
161.9774263018423
 31
0.0
  0
LINE
  5
297A
330
2
100
AcDbEntity
  8
0
100
AcDbLine
 10
324.9150990045302
 20
164.9774263018441
 30
0.0
 11
376.9150990045265
 21
164.9774263018441
 31
0.0
  0
LINE
  5
297B
330
2
100
AcDbEntity
  8
0
100
AcDbLine
 10
324.9150990045307
 20
169.9774263018314
 30
0.0
 11
377.9150990045266
 21
169.5149023089213
 31
0.0
  0
LINE
  5
297C
330
2
100
AcDbEntity
  8
0
100
AcDbLine
 10
324.9150990045275
 20
150.5050218218145
 30
0.0
 11
316.4063724690334
 21
150.5050218218145
 31
0.0
  0
LINE
  5
297D
330
2
100
AcDbEntity
  8
0
100
AcDbLine
 10
324.9150990045275
 20
161.9774263018314
 30
0.0
 11
319.4063724689806
 21
161.9774263018314
 31
0.0
  0
LINE
  5
297E
330
2
100
AcDbEntity
  8
0
100
AcDbLine
 10
324.9150990045275
 20
164.9774263018314
 30
0.0
 11
319.4063724689806
 21
164.9774263018314
 31
0.0
  0
LINE
  5
297F
330
2
100
AcDbEntity
  8
0
100
AcDbLine
 10
324.9150990045275
 20
169.9774263018314
 30
0.0
 11
316.4063724690334
 21
169.9031717702889
 31
0.0
  0
LINE
  5
2980
330
2
100
AcDbEntity
  8
CENTER
  6
CENS
100
AcDbLine
 10
308.2509433182078
 20
164.9774263018441
 30
0.0
 11
328.9853556082332
 21
164.9774263018441
 31
0.0
  0
ARC
  5
2981
330
2
100
AcDbEntity
  8
0
100
AcDbCircle
 10
316.4150990045316
 20
158.459934487864
 30
0.0
 40
1.0
100
AcDbArc
 50
90.49999999999155
 51
180.0
  0
ARC
  5
2982
330
2
100
AcDbEntity
  8
0
100
AcDbCircle
 10
316.4150990045316
 20
168.903209847225
 30
0.0
 40
1.0
100
AcDbArc
 50
90.49999999999155
 51
161.0818891053111
  0
LINE
  5
2983
330
2
100
AcDbEntity
  8
HIDS
100
AcDbLine
 10
315.4150990045316
 20
168.903209847225
 30
0.0
 11
315.4150990045316
 21
160.7274263018441
 31
0.0
  0
ARC
  5
2984
330
2
100
AcDbEntity
  8
HIDS
100
AcDbCircle
 10
314.4150990045798
 20
162.3916398642047
 30
0.0
 40
1.0
100
AcDbArc
 50
314.9999999999907
 51
0.0
  0
ARC
  5
2985
330
2
100
AcDbEntity
  8
0
100
AcDbCircle
 10
315.4150990045798
 20
160.5632127394581
 30
0.0
 40
1.0
100
AcDbArc
 50
170.5484482344712
 51
180.0
  0
ARC
  5
2986
330
2
100
AcDbEntity
  8
HIDS
100
AcDbCircle
 10
315.4150990045798
 20
160.5632127394581
 30
0.0
 40
1.0
100
AcDbArc
 50
134.9999999999907
 51
170.5484482344712
  0
LINE
  5
2987
330
2
100
AcDbEntity
  8
0
100
AcDbLine
 10
313.9150990045798
 20
158.9774263018314
 30
0.0
 11
314.4150990045798
 21
159.4774263018314
 31
0.0
  0
LINE
  5
2988
330
2
100
AcDbEntity
  8
HIDS
100
AcDbLine
 10
314.7079922233936
 20
161.2703195206447
 30
0.0
 11
315.1222057857665
 21
161.684533083018
 31
0.0
  0
ARC
  5
2989
330
2
100
AcDbEntity
  8
HIDS
100
AcDbCircle
 10
316.4150990045316
 20
168.903209847225
 30
0.0
 40
1.0
100
AcDbArc
 50
161.0818891053111
 51
180.0
  0
LINE
  5
298A
330
2
100
AcDbEntity
  8
0
100
AcDbLine
 10
318.4150990044788
 20
169.2274263018441
 30
0.0
 11
318.4150990044788
 21
160.7274263018441
 31
0.0
  0
LINE
  5
298B
330
2
100
AcDbEntity
  8
0
100
AcDbLine
 10
317.1150990044786
 20
160.7274263018441
 30
0.0
 11
317.1150990044786
 21
169.2274263018441
 31
0.0
  0
LINE
  5
298C
330
2
100
AcDbEntity
  8
0
100
AcDbLine
 10
318.4150990044788
 20
159.9730819071262
 30
0.0
 11
318.4150990044788
 21
168.9293904505955
 31
0.0
  0
ARC
  5
298D
330
2
100
AcDbEntity
  8
0
100
AcDbCircle
 10
317.9150990044788
 20
159.9730819071262
 30
0.0
 40
0.5
100
AcDbArc
 50
270.4999999999915
 51
0.0
  0
LINE
  5
298E
330
2
100
AcDbEntity
  8
0
100
AcDbLine
 10
317.9194622722282
 20
159.473100945597
 30
0.0
 11
316.4063724690334
 21
159.4598964109279
 31
0.0
  0
ARC
  5
298F
330
2
100
AcDbEntity
  8
0
100
AcDbCircle
 10
319.4150990044788
 20
168.9293904505955
 30
0.0
 40
1.0
100
AcDbArc
 50
90.49999999999155
 51
180.0
  0
LINE
  5
2990
330
2
100
AcDbEntity
  8
0
100
AcDbLine
 10
312.1150990044786
 20
161.2470415441146
 30
0.0
 11
312.1150990044786
 21
168.7078110595737
 31
0.0
  0
LINE
  5
2991
330
2
100
AcDbEntity
  8
0
100
AcDbLine
 10
312.4150990044788
 20
160.7274263018441
 30
0.0
 11
312.4150990044788
 21
169.2274263018441
 31
0.0
  0
LINE
  5
2992
330
2
100
AcDbEntity
  8
0
100
AcDbLine
 10
312.2707614371831
 20
160.9774263018396
 30
0.0
 11
312.1150990044764
 21
160.7078110595609
 31
0.0
  0
LINE
  5
2993
330
2
100
AcDbEntity
  8
0
100
AcDbLine
 10
312.1150990044764
 20
160.7078110595609
 30
0.0
 11
312.1150990044759
 21
156.9774263018314
 31
0.0
  0
LINE
  5
2994
330
2
100
AcDbEntity
  8
0
100
AcDbLine
 10
312.4150990044765
 20
161.2274263018314
 30
0.0
 11
312.4150990044765
 21
156.9774263018314
 31
0.0
  0
LINE
  5
2995
330
2
100
AcDbEntity
  8
0
100
AcDbLine
 10
312.4150990044788
 20
160.7274263018441
 30
0.0
 11
312.1150990044786
 21
161.2470415441146
 31
0.0
  0
ARC
  5
2996
330
2
100
AcDbEntity
  8
0
100
AcDbCircle
 10
308.2150990045804
 20
156.7774263018307
 30
0.0
 40
0.2
100
AcDbArc
 50
0.0
 51
90.0
  0
ARC
  5
2997
330
2
100
AcDbEntity
  8
0
100
AcDbCircle
 10
308.61509900458
 20
156.4774263018314
 30
0.0
 40
0.2
100
AcDbArc
 50
180.0
 51
270.0
  0
ARC
  5
2998
330
2
100
AcDbEntity
  8
0
100
AcDbCircle
 10
310.2150990045799
 20
156.4774263018314
 30
0.0
 40
0.2
100
AcDbArc
 50
270.0
 51
0.0
  0
LINE
  5
2999
330
2
100
AcDbEntity
  8
0
100
AcDbLine
 10
310.2150990045799
 20
156.2774263018306
 30
0.0
 11
308.61509900458
 21
156.2774263018306
 31
0.0
  0
LINE
  5
299A
330
2
100
AcDbEntity
  8
0
100
AcDbLine
 10
310.4150990045802
 20
156.7774263018307
 30
0.0
 11
310.61509900458
 21
156.9774263018314
 31
0.0
  0
LINE
  5
299B
330
2
100
AcDbEntity
  8
0
100
AcDbLine
 10
305.9150990045802
 20
156.4000760326414
 30
0.0
 11
306.9150990045802
 21
156.9774263018314
 31
0.0
  0
LINE
  5
299C
330
2
100
AcDbEntity
  8
0
100
AcDbLine
 10
308.2150990045804
 20
156.9774263018314
 30
0.0
 11
306.9150990045802
 21
156.9774263018314
 31
0.0
  0
LINE
  5
299D
330
2
100
AcDbEntity
  8
0
100
AcDbLine
 10
312.4150990044788
 20
169.2274263018441
 30
0.0
 11
312.1150990044786
 21
168.7078110595737
 31
0.0
  0
LINE
  5
299E
330
2
100
AcDbEntity
  8
0
100
AcDbLine
 10
312.4150990044788
 20
160.7274263018441
 30
0.0
 11
318.4150990044788
 21
160.7274263018441
 31
0.0
  0
LINE
  5
299F
330
2
100
AcDbEntity
  8
0
100
AcDbLine
 10
312.4150990044788
 20
169.2274263018441
 30
0.0
 11
318.4150990044788
 21
169.2274263018441
 31
0.0
  0
LINE
  5
29A0
330
2
100
AcDbEntity
  8
0
100
AcDbLine
 10
313.9150990045798
 20
156.9774263018314
 30
0.0
 11
310.6150990045805
 21
156.9774263018314
 31
0.0
  0
LINE
  5
29A3
330
2
100
AcDbEntity
  8
0
100
AcDbLine
 10
384.8453000111201
 20
158.3639926617686
 30
0.0
 11
393.9848979979304
 21
158.0448308672237
 31
0.0
  0
ARC
  5
29A4
330
2
100
AcDbEntity
  8
0
100
AcDbCircle
 10
384.9150990045247
 20
160.3627743158065
 30
0.0
 40
2.0
100
AcDbArc
 50
180.0
 51
267.9999999999963
  0
LINE
  5
29A5
330
2
100
AcDbEntity
  8
0
100
AcDbLine
 10
377.9150990045248
 20
163.9774267627997
 30
0.0
 11
382.9150990045247
 21
163.9774267627997
 31
0.0
  0
ARC
  5
29A6
330
2
100
AcDbEntity
  8
0
100
AcDbCircle
 10
393.9150990045248
 20
156.0460492131858
 30
0.0
 40
2.0
100
AcDbArc
 50
0.0
 51
87.9999999999964
  0
ARC
  5
29A8
330
2
100
AcDbEntity
  8
0
100
AcDbCircle
 10
585.6467214320382
 20
198.9610227467362
 30
0.0
 40
30.0
100
AcDbArc
 50
256.1581756815789
 51
275.9290854878762
  0
ARC
  5
29A9
330
2
100
AcDbEntity
  8
0
100
AcDbCircle
 10
577.2732411120196
 20
164.9774263018295
 30
0.0
 40
5.0
100
AcDbArc
 50
76.15817568163269
 51
90.0
  0
LINE
  5
29AA
330
2
100
AcDbEntity
  8
0
100
AcDbLine
 10
574.2732411120195
 20
169.9774263018313
 30
0.0
 11
577.2732411120196
 21
169.9774263018313
 31
0.0
  0
CIRCLE
  5
29AB
330
2
100
AcDbEntity
  8
HOJO
100
AcDbCircle
 10
574.1605427398117
 20
165.0901246740392
 30
0.0
 40
2.5
  0
CIRCLE
  5
29AC
330
2
100
AcDbEntity
  8
0
100
AcDbCircle
 10
574.1605427398117
 20
165.0901246740392
 30
0.0
 40
2.0
  0
LINE
  5
29AD
330
2
100
AcDbEntity
  8
CENTER
100
AcDbLine
 10
574.1605427398098
 20
171.5901246740392
 30
0.0
 11
574.1605427398098
 21
158.5901246740392
 31
0.0
  0
ARC
  5
29AE
330
2
100
AcDbEntity
  8
0
100
AcDbCircle
 10
574.2732411120195
 20
161.9774263018295
 30
0.0
 40
5.0
100
AcDbArc
 50
180.0
 51
193.8418243184202
  0
LINE
  5
29AF
330
2
100
AcDbEntity
  8
0
100
AcDbLine
 10
569.2732411120196
 20
164.9774263018313
 30
0.0
 11
569.2732411120196
 21
161.9774263018295
 31
0.0
  0
ARC
  5
29B0
330
2
100
AcDbEntity
  8
0
100
AcDbCircle
 10
540.2896446671129
 20
153.6039459818109
 30
0.0
 40
30.0
100
AcDbArc
 50
354.0709145121237
 51
13.84182431842025
  0
LINE
  5
29B1
330
2
100
AcDbEntity
  8
CENTER
100
AcDbLine
 10
580.6605427398099
 20
165.0901246740392
 30
0.0
 11
567.6605427398099
 21
165.0901246740392
 31
0.0
  0
ARC
  5
29B2
330
2
100
AcDbEntity
  8
0
100
AcDbCircle
 10
574.2732411120195
 20
164.9774263018313
 30
0.0
 40
5.0
100
AcDbArc
 50
90.0
 51
180.0
  0
LINE
  5
29B4
330
2
100
AcDbEntity
  8
0
100
AcDbLine
 10
580.8866752130488
 20
369.749296658419
 30
0.0
 11
581.2058370075938
 21
360.6096986716087
 31
0.0
  0
ARC
  5
29B5
330
2
100
AcDbEntity
  8
0
100
AcDbCircle
 10
583.2046186616317
 20
360.6794976650139
 30
0.0
 40
2.0
100
AcDbArc
 50
182.0000000000037
 51
270.0
  0
ARC
  5
29BA
330
2
100
AcDbEntity
  8
0
100
AcDbCircle
 10
578.8878935590109
 20
369.6794976650139
 30
0.0
 40
2.0
100
AcDbArc
 50
2.000000000003725
 51
90.0
  0
LINE
  5
29BC
330
2
100
AcDbEntity
  8
CENTER
100
AcDbLine
 10
605.2732411120177
 20
187.9774263018313
 30
0.0
 11
605.2732411120177
 21
79.97742630183137
 31
0.0
  0
LINE
  5
29CB
330
2
100
AcDbEntity
  8
0
100
AcDbLine
 10
678.5732415729771
 20
113.477426301835
 30
0.0
 11
678.5732415729771
 21
154.477426301835
 31
0.0
  0
LINE
  5
29CC
330
2
100
AcDbEntity
  8
0
100
AcDbLine
 10
641.2732411120186
 20
164.9774263018313
 30
0.0
 11
641.2732411120186
 21
102.9774263018313
 31
0.0
  0
LINE
  5
29CD
330
2
100
AcDbEntity
  8
0
100
AcDbLine
 10
689.073241572988
 20
160.4774263018313
 30
0.0
 11
689.073241572988
 21
107.4774263018313
 31
0.0
  0
LINE
  5
29CF
330
2
100
AcDbEntity
  8
0
100
AcDbLine
 10
669.2732411120204
 20
156.9774263018313
 30
0.0
 11
669.2732411120204
 21
110.9774263018313
 31
0.0
  0
ARC
  5
29D1
330
2
100
AcDbEntity
  8
0
100
AcDbCircle
 10
671.2732411120096
 20
111.477426301835
 30
0.0
 40
2.0
100
AcDbArc
 50
90.0
 51
180.0
  0
ARC
  5
29D2
330
2
100
AcDbEntity
  8
0
100
AcDbCircle
 10
664.2732411120205
 20
110.9774263018313
 30
0.0
 40
5.0
100
AcDbArc
 50
270.0
 51
0.0
  0
LINE
  5
29D3
330
2
100
AcDbEntity
  8
CENTER
100
AcDbLine
 10
636.3859394842266
 20
109.3647279296234
 30
0.0
 11
636.3859394842266
 21
96.36472792962349
 31
0.0
  0
CIRCLE
  5
29D4
330
2
100
AcDbEntity
  8
0
100
AcDbCircle
 10
636.3859394842283
 20
102.8647279296234
 30
0.0
 40
2.0
  0
CIRCLE
  5
29D5
330
2
100
AcDbEntity
  8
HOJO
100
AcDbCircle
 10
636.3859394842283
 20
102.8647279296234
 30
0.0
 40
2.5
  0
LINE
  5
29D6
330
2
100
AcDbEntity
  8
0
100
AcDbLine
 10
633.2732411120196
 20
97.97742630183137
 30
0.0
 11
636.2732411120187
 21
97.97742630183137
 31
0.0
  0
LINE
  5
29D7
330
2
100
AcDbEntity
  8
CENTER
100
AcDbLine
 10
642.8859394842265
 20
102.8647279296234
 30
0.0
 11
629.8859394842265
 21
102.8647279296234
 31
0.0
  0
ARC
  5
29D8
330
2
100
AcDbEntity
  8
0
100
AcDbCircle
 10
624.8997607920009
 20
68.9938298569229
 30
0.0
 40
30.0
100
AcDbArc
 50
76.15817568163269
 51
95.92908548787621
  0
ARC
  5
29D9
330
2
100
AcDbEntity
  8
0
100
AcDbCircle
 10
633.2732411120196
 20
102.9774263018295
 30
0.0
 40
5.0
100
AcDbArc
 50
256.1581756815789
 51
270.0
  0
ARC
  5
29DA
330
2
100
AcDbEntity
  8
0
100
AcDbCircle
 10
606.3664150137319
 20
106.6274263018182
 30
0.0
 40
0.8499999999992269
100
AcDbArc
 50
307.5189678668129
 51
90.0
  0
LINE
  5
29DB
330
2
100
AcDbEntity
  8
0
100
AcDbLine
 10
606.8840854448754
 20
105.9532473013147
 30
0.0
 11
607.5050444698281
 21
104.9774263018204
 31
0.0
  0
LINE
  5
29DC
330
2
100
AcDbEntity
  8
0
100
AcDbLine
 10
606.6050440819144
 20
104.9774263018204
 30
0.0
 11
607.5050444698281
 21
104.9774263018204
 31
0.0
  0
LINE
  5
29DD
330
2
100
AcDbEntity
  8
0
100
AcDbLine
 10
605.6226877512326
 20
106.5211763018193
 30
0.0
 11
606.6050440819144
 21
104.9774263018204
 31
0.0
  0
LINE
  5
29DE
330
2
100
AcDbEntity
  8
0
100
AcDbLine
 10
605.5164150137334
 20
106.6274263018182
 30
0.0
 11
605.5164150137334
 21
104.9774263018204
 31
0.0
  0
LINE
  5
29DF
330
2
100
AcDbEntity
  8
0
100
AcDbLine
 10
605.5164150137334
 20
106.6274263018182
 30
0.0
 11
606.3133127512319
 21
106.6274263018182
 31
0.0
  0
LINE
  5
29E0
330
2
100
AcDbEntity
  8
0
100
AcDbLine
 10
605.6226877512326
 20
106.5211763018193
 30
0.0
 11
606.3133127512319
 21
106.5211763018193
 31
0.0
  0
ARC
  5
29E1
330
2
100
AcDbEntity
  8
0
100
AcDbCircle
 10
606.3133127512319
 20
106.5743013018179
 30
0.0
 40
0.0531249999999517
100
AcDbArc
 50
270.0
 51
90.0
  0
LINE
  5
29E2
330
2
100
AcDbEntity
  8
0
100
AcDbLine
 10
603.0414377512352
 20
104.9774263018204
 30
0.0
 11
603.9414381391497
 21
104.9774263018204
 31
0.0
  0
LINE
  5
29E3
330
2
100
AcDbEntity
  8
0
100
AcDbLine
 10
604.2914377512342
 20
107.4774263018168
 30
0.0
 11
603.0414377512352
 21
104.9774263018204
 31
0.0
  0
LINE
  5
29E4
330
2
100
AcDbEntity
  8
0
100
AcDbLine
 10
604.1289381391497
 20
105.3524263018204
 30
0.0
 11
603.9414381391497
 21
104.9774263018204
 31
0.0
  0
LINE
  5
29E5
330
2
100
AcDbEntity
  8
0
100
AcDbLine
 10
604.1289381391497
 20
105.3524263018204
 30
0.0
 11
604.7664377512337
 21
105.3524263018204
 31
0.0
  0
LINE
  5
29E6
330
2
100
AcDbEntity
  8
0
100
AcDbLine
 10
604.7664377512337
 20
105.3524263018204
 30
0.0
 11
604.7664377512337
 21
104.9774263018204
 31
0.0
  0
LINE
  5
29E7
330
2
100
AcDbEntity
  8
0
100
AcDbLine
 10
604.5289381391494
 20
106.1524263018197
 30
0.0
 11
604.7664377512337
 21
106.1524263018197
 31
0.0
  0
LINE
  5
29E8
330
2
100
AcDbEntity
  8
0
100
AcDbLine
 10
604.7664377512337
 20
106.6274255259883
 30
0.0
 11
604.7664377512337
 21
106.1524263018197
 31
0.0
  0
LINE
  5
29E9
330
2
100
AcDbEntity
  8
0
100
AcDbLine
 10
604.7664377512337
 20
106.6274255259883
 30
0.0
 11
604.5289381391494
 21
106.1524263018197
 31
0.0
  0
LINE
  5
29EA
330
2
100
AcDbEntity
  8
0
100
AcDbLine
 10
604.7664377512337
 20
104.9774263018204
 30
0.0
 11
605.5164150137334
 21
104.9774263018204
 31
0.0
  0
LINE
  5
29EB
330
2
100
AcDbEntity
  8
0
100
AcDbLine
 10
604.2914377512342
 20
107.4774263018168
 30
0.0
 11
606.3664150137319
 21
107.4774263018168
 31
0.0
  0
LINE
  5
29EC
330
2
100
AcDbEntity
  8
0
100
AcDbLine
 10
644.2732411120187
 20
105.9774263018313
 30
0.0
 11
664.2732411120205
 21
105.9774263018313
 31
0.0
  0
ARC
  5
29ED
330
2
100
AcDbEntity
  8
0
100
AcDbCircle
 10
644.2732411120187
 20
102.9774263018295
 30
0.0
 40
3.0
100
AcDbArc
 50
90.0
 51
180.0
  0
ARC
  5
29EE
330
2
100
AcDbEntity
  8
0
100
AcDbCircle
 10
636.2732411120187
 20
102.9774263018313
 30
0.0
 40
5.0
100
AcDbArc
 50
270.0
 51
0.0
  0
ARC
  5
29EF
330
2
100
AcDbEntity
  8
0
100
AcDbCircle
 10
684.1450383427127
 20
106.477426301835
 30
0.0
 40
5.0
100
AcDbArc
 50
8.213210701722832
 51
90.0
  0
LINE
  5
29F0
330
2
100
AcDbEntity
  8
0
100
AcDbLine
 10
697.073241572988
 20
105.9774263018313
 30
0.0
 11
691.0732415729881
 21
105.9774263018313
 31
0.0
  0
ARC
  5
29F1
330
2
100
AcDbEntity
  8
0
100
AcDbCircle
 10
691.0732415729881
 20
107.9774263018313
 30
0.0
 40
2.0
100
AcDbArc
 50
180.0
 51
270.0
  0
ARC
  5
29F2
330
2
100
AcDbEntity
  8
0
100
AcDbCircle
 10
691.0732415729881
 20
107.4774263018313
 30
0.0
 40
2.0
100
AcDbArc
 50
180.0
 51
270.0
  0
LINE
  5
29F3
330
2
100
AcDbEntity
  8
0
100
AcDbLine
 10
697.073241572988
 20
105.4774263018313
 30
0.0
 11
691.0732415729881
 21
105.4774263018313
 31
0.0
  0
LINE
  5
29F4
330
2
100
AcDbEntity
  8
0
100
AcDbLine
 10
680.5732415729771
 20
111.477426301835
 30
0.0
 11
684.1450383427127
 21
111.477426301835
 31
0.0
  0
ARC
  5
29F5
330
2
100
AcDbEntity
  8
0
100
AcDbCircle
 10
677.1091399578399
 20
111.477426301835
 30
0.0
 40
2.0
100
AcDbArc
 50
30.00000000001508
 51
90.0
  0
LINE
  5
29F6
330
2
100
AcDbEntity
  8
0
100
AcDbLine
 10
677.1091399578399
 20
113.477426301835
 30
0.0
 11
671.2732411120096
 21
113.477426301835
 31
0.0
  0
ARC
  5
29F7
330
2
100
AcDbEntity
  8
0
100
AcDbCircle
 10
680.5732415729771
 20
113.477426301835
 30
0.0
 40
2.0
100
AcDbArc
 50
180.0
 51
270.0
  0
ARC
  5
2A3C
330
2
100
AcDbEntity
  8
0
100
AcDbCircle
 10
664.2732411120205
 20
156.9774263018313
 30
0.0
 40
5.0
100
AcDbArc
 50
0.0
 51
90.0
  0
ARC
  5
2A3D
330
2
100
AcDbEntity
  8
0
100
AcDbCircle
 10
671.2732411120096
 20
156.477426301835
 30
0.0
 40
2.0
100
AcDbArc
 50
180.0
 51
270.0
  0
LINE
  5
2A3E
330
2
100
AcDbEntity
  8
0
100
AcDbLine
 10
633.2732411120196
 20
169.9774263018313
 30
0.0
 11
636.2732411120187
 21
169.9774263018313
 31
0.0
  0
CIRCLE
  5
2A3F
330
2
100
AcDbEntity
  8
HOJO
100
AcDbCircle
 10
636.3859394842283
 20
165.0901246740392
 30
0.0
 40
2.5
  0
CIRCLE
  5
2A40
330
2
100
AcDbEntity
  8
0
100
AcDbCircle
 10
636.3859394842283
 20
165.0901246740392
 30
0.0
 40
2.0
  0
LINE
  5
2A41
330
2
100
AcDbEntity
  8
CENTER
100
AcDbLine
 10
642.8859394842265
 20
165.0901246740392
 30
0.0
 11
629.8859394842265
 21
165.0901246740392
 31
0.0
  0
ARC
  5
2A42
330
2
100
AcDbEntity
  8
0
100
AcDbCircle
 10
624.8997607920018
 20
198.9610227467362
 30
0.0
 40
30.0
100
AcDbArc
 50
264.0709145121237
 51
283.8418243183673
  0
ARC
  5
2A43
330
2
100
AcDbEntity
  8
0
100
AcDbCircle
 10
633.2732411120196
 20
164.9774263018295
 30
0.0
 40
5.0
100
AcDbArc
 50
90.0
 51
103.8418243183673
  0
LINE
  5
2A44
330
2
100
AcDbEntity
  8
0
100
AcDbLine
 10
644.2732411120187
 20
161.9774263018313
 30
0.0
 11
664.2732411120205
 21
161.9774263018313
 31
0.0
  0
ARC
  5
2A45
330
2
100
AcDbEntity
  8
0
100
AcDbCircle
 10
644.2732411120187
 20
164.9774263018313
 30
0.0
 40
3.0
100
AcDbArc
 50
180.0
 51
270.0
  0
LINE
  5
2A46
330
2
100
AcDbEntity
  8
CENTER
100
AcDbLine
 10
636.3859394842266
 20
171.5901246740392
 30
0.0
 11
636.3859394842266
 21
158.5901246740392
 31
0.0
  0
ARC
  5
2A47
330
2
100
AcDbEntity
  8
0
100
AcDbCircle
 10
636.2732411120187
 20
164.9774263018313
 30
0.0
 40
5.0
100
AcDbArc
 50
0.0
 51
90.0
  0
LINE
  5
2A49
330
2
100
AcDbEntity
  8
0
100
AcDbLine
 10
697.073241572988
 20
161.9774263018313
 30
0.0
 11
691.0732415729881
 21
161.9774263018313
 31
0.0
  0
ARC
  5
2A4A
330
2
100
AcDbEntity
  8
0
100
AcDbCircle
 10
691.0732415729881
 20
159.9774263018313
 30
0.0
 40
2.0
100
AcDbArc
 50
90.0
 51
180.0
  0
LINE
  5
2A4B
330
2
100
AcDbEntity
  8
0
100
AcDbLine
 10
680.5732415729771
 20
156.477426301835
 30
0.0
 11
684.1450383427127
 21
156.477426301835
 31
0.0
  0
ARC
  5
2A4C
330
2
100
AcDbEntity
  8
0
100
AcDbCircle
 10
691.0732415729881
 20
160.4774263018313
 30
0.0
 40
2.0
100
AcDbArc
 50
90.0
 51
180.0
  0
LINE
  5
2A4D
330
2
100
AcDbEntity
  8
0
100
AcDbLine
 10
697.073241572988
 20
162.4774263018313
 30
0.0
 11
691.0732415729881
 21
162.4774263018313
 31
0.0
  0
ARC
  5
2A4E
330
2
100
AcDbEntity
  8
0
100
AcDbCircle
 10
684.1450383427127
 20
161.477426301835
 30
0.0
 40
5.0
100
AcDbArc
 50
270.0
 51
351.7867892982771
  0
ARC
  5
2A4F
330
2
100
AcDbEntity
  8
0
100
AcDbCircle
 10
677.1091399578399
 20
156.477426301835
 30
0.0
 40
2.0
100
AcDbArc
 50
270.0
 51
329.9999999999849
  0
ARC
  5
2A50
330
2
100
AcDbEntity
  8
0
100
AcDbCircle
 10
680.5732415729771
 20
154.477426301835
 30
0.0
 40
2.0
100
AcDbArc
 50
90.0
 51
180.0
  0
LINE
  5
2A51
330
2
100
AcDbEntity
  8
0
100
AcDbLine
 10
677.1091399578399
 20
154.477426301835
 30
0.0
 11
671.2732411120096
 21
154.477426301835
 31
0.0
  0
LINE
  5
2A52
330
2
100
AcDbEntity
  8
0
100
AcDbLine
 10
629.6598070109885
 20
369.749296658419
 30
0.0
 11
629.3406452164435
 21
360.6096986716087
 31
0.0
  0
ARC
  5
2A53
330
2
100
AcDbEntity
  8
0
100
AcDbCircle
 10
627.3418635624039
 20
360.6794976650139
 30
0.0
 40
2.0
100
AcDbArc
 50
270.0
 51
357.9999999999962
  0
ARC
  5
2A58
330
2
100
AcDbEntity
  8
0
100
AcDbCircle
 10
631.6585886650264
 20
369.6794976650139
 30
0.0
 40
2.0
100
AcDbArc
 50
90.0
 51
177.9999999999962
  0
LINE
  5
2A8D
330
2
100
AcDbEntity
  8
0
100
AcDbLine
 10
578.6874546743901
 20
440.1794976649593
 30
0.0
 11
631.8590275496444
 21
440.1794976649593
 31
0.0
  0
LINE
  5
2A8E
330
2
100
AcDbEntity
  8
0
100
AcDbLine
 10
582.8505913812078
 20
448.6794976649593
 30
0.0
 11
627.6958908428286
 21
448.6794976649593
 31
0.0
  0
LINE
  5
2A8F
330
2
100
AcDbEntity
  8
0
100
AcDbLine
 10
580.2732411120177
 20
440.6794976649593
 30
0.0
 11
630.2732411120177
 21
440.6794976649593
 31
0.0
  0
LINE
  5
2A90
330
2
100
AcDbEntity
  8
0
100
AcDbLine
 10
582.4732411120176
 20
446.1794976649594
 30
0.0
 11
628.073241112018
 21
446.1794976649594
 31
0.0
  0
LINE
  5
2A91
330
2
100
AcDbEntity
  8
0
100
AcDbLine
 10
582.4732411120176
 20
444.1794976649593
 30
0.0
 11
628.073241112018
 21
444.1794976649593
 31
0.0
  0
LINE
  5
2A92
330
2
100
AcDbEntity
  8
0
100
AcDbLine
 10
628.2732411120178
 20
443.9794976649586
 30
0.0
 11
582.2732411120178
 21
443.9794976649586
 31
0.0
  0
LINE
  5
2A93
330
2
100
AcDbEntity
  8
0
100
AcDbLine
 10
582.2732411120178
 20
447.6794976649594
 30
0.0
 11
628.2732411120178
 21
447.6794976649594
 31
0.0
  0
LINE
  5
2A94
330
2
100
AcDbEntity
  8
0
100
AcDbLine
 10
578.5232411120177
 20
439.1794976650067
 30
0.0
 11
640.2732411120178
 21
439.1794976650067
 31
0.0
  0
LINE
  5
2A95
330
2
100
AcDbEntity
  8
0
100
AcDbLine
 10
569.2732411120178
 20
429.6794976650139
 30
0.0
 11
669.2732411120241
 21
429.6794976650066
 31
0.0
  0
LINE
  5
2A96
330
2
100
AcDbEntity
  8
0
100
AcDbLine
 10
569.7357651049278
 20
376.6794976650139
 30
0.0
 11
640.8063536852077
 21
376.6794976650121
 31
0.0
  0
LINE
  5
2A97
330
2
100
AcDbEntity
  8
0
100
AcDbLine
 10
588.7456455920346
 20
429.6794976650121
 30
0.0
 11
588.7456455920346
 21
378.1794976650139
 31
0.0
  0
LINE
  5
2A98
330
2
100
AcDbEntity
  8
0
100
AcDbLine
 10
574.2732411120186
 20
378.1794976650139
 30
0.0
 11
574.2732411120205
 21
429.6794976650103
 31
0.0
  0
LINE
  5
2A99
330
2
100
AcDbEntity
  8
0
100
AcDbLine
 10
577.2732411120204
 20
378.1794976650139
 30
0.0
 11
577.2732411120196
 21
429.6794976650103
 31
0.0
  0
LINE
  5
2A9A
330
2
100
AcDbEntity
  8
0
100
AcDbLine
 10
569.7357651049278
 20
376.6794976650139
 30
0.0
 11
569.2732411120178
 21
429.6794976650139
 31
0.0
  0
LINE
  5
2A9B
330
2
100
AcDbEntity
  8
0
100
AcDbLine
 10
575.2732415729861
 20
376.6794976650139
 30
0.0
 11
575.2732415729861
 21
371.6794976650139
 31
0.0
  0
LINE
  5
2A9C
330
2
100
AcDbEntity
  8
HIDS
100
AcDbLine
 10
577.9803478932035
 20
439.8866044461461
 30
0.0
 11
577.5661343308311
 21
439.4723908837727
 31
0.0
  0
LINE
  5
2A9D
330
2
100
AcDbEntity
  8
0
100
AcDbLine
 10
580.2732411120177
 20
440.6794976649593
 30
0.0
 11
579.7732411120177
 21
440.1794976649593
 31
0.0
  0
LINE
  5
2A9E
330
2
100
AcDbEntity
  8
0
100
AcDbLine
 10
582.2732411120178
 20
446.3794976649583
 30
0.0
 11
582.2732411120178
 21
447.6794976649594
 31
0.0
  0
LINE
  5
2A9F
330
2
100
AcDbEntity
  8
0
100
AcDbLine
 10
582.2732411120178
 20
440.6794976649593
 30
0.0
 11
582.2732411120178
 21
443.9794976649586
 31
0.0
  0
LINE
  5
2AA0
330
2
100
AcDbEntity
  8
0
100
AcDbLine
 10
582.8505913812068
 20
448.6794976649593
 30
0.0
 11
582.2732411120178
 21
447.6794976649594
 31
0.0
  0
ARC
  5
2AA1
330
2
100
AcDbEntity
  8
0
100
AcDbCircle
 10
578.6874546743901
 20
439.1794976649594
 30
0.0
 40
1.0
100
AcDbArc
 50
90.0
 51
99.45155176478936
  0
ARC
  5
2AA2
330
2
100
AcDbEntity
  8
HIDS
100
AcDbCircle
 10
578.6874546743901
 20
439.1794976649594
 30
0.0
 40
1.0
100
AcDbArc
 50
99.45155176478936
 51
135.0000000000092
  0
ARC
  5
2AA3
330
2
100
AcDbEntity
  8
HIDS
100
AcDbCircle
 10
576.8590275496444
 20
440.1794976649593
 30
0.0
 40
1.0
100
AcDbArc
 50
270.0
 51
315.0000000000092
  0
LINE
  5
2AA4
330
2
100
AcDbEntity
  8
0
100
AcDbLine
 10
582.4732411120176
 20
444.1794976649593
 30
0.0
 11
582.2732411120178
 21
443.9794976649586
 31
0.0
  0
LINE
  5
2AA5
330
2
100
AcDbEntity
  8
0
100
AcDbLine
 10
582.9732411120176
 20
444.3794976649583
 30
0.0
 11
582.9732411120176
 21
445.9794976649586
 31
0.0
  0
ARC
  5
2AA6
330
2
100
AcDbEntity
  8
0
100
AcDbCircle
 10
582.7732411120178
 20
444.3794976649583
 30
0.0
 40
0.2
100
AcDbArc
 50
270.0
 51
0.0
  0
ARC
  5
2AA7
330
2
100
AcDbEntity
  8
0
100
AcDbCircle
 10
582.7732411120178
 20
445.9794976649586
 30
0.0
 40
0.2
100
AcDbArc
 50
0.0
 51
90.0
  0
ARC
  5
2AA8
330
2
100
AcDbEntity
  8
0
100
AcDbCircle
 10
582.4732411120176
 20
446.3794976649583
 30
0.0
 40
0.2
100
AcDbArc
 50
180.0
 51
270.0
  0
LINE
  5
2AA9
330
2
100
AcDbEntity
  8
0
100
AcDbLine
 10
579.7775664682522
 20
436.6751343973114
 30
0.0
 11
579.7907710029203
 21
438.1882242005063
 31
0.0
  0
ARC
  5
2AAA
330
2
100
AcDbEntity
  8
0
100
AcDbCircle
 10
579.277585506723
 20
436.6794976650594
 30
0.0
 40
0.5
100
AcDbArc
 50
270.0
 51
359.5000000000345
  0
ARC
  5
2AAB
330
2
100
AcDbEntity
  8
0
100
AcDbCircle
 10
580.7907329259842
 20
438.1794976650085
 30
0.0
 40
1.0
100
AcDbArc
 50
89.99999999994789
 51
179.5000000000344
  0
LINE
  5
2AAC
330
2
100
AcDbEntity
  8
0
100
AcDbLine
 10
578.5232411120177
 20
442.1794976650594
 30
0.0
 11
578.5232411120177
 21
436.1794976650594
 31
0.0
  0
LINE
  5
2AAD
330
2
100
AcDbEntity
  8
0
100
AcDbLine
 10
578.5232411120177
 20
442.1794976650594
 30
0.0
 11
578.0036258697473
 21
442.4794976650605
 31
0.0
  0
LINE
  5
2AAE
330
2
100
AcDbEntity
  8
0
100
AcDbLine
 10
574.2732411120178
 20
429.6794976650121
 30
0.0
 11
574.2732411120178
 21
435.188224200559
 31
0.0
  0
LINE
  5
2AAF
330
2
100
AcDbEntity
  8
0
100
AcDbLine
 10
577.2732411120178
 20
429.6794976650121
 30
0.0
 11
577.2732411120178
 21
435.188224200559
 31
0.0
  0
LINE
  5
2AB0
330
2
100
AcDbEntity
  8
0
100
AcDbLine
 10
588.7456455920346
 20
429.6794976650121
 30
0.0
 11
588.7456455920346
 21
438.1794976649594
 31
0.0
  0
LINE
  5
2AB1
330
2
100
AcDbEntity
  8
CENTER
  6
CENS
100
AcDbLine
 10
574.2732411120178
 20
446.3436533513317
 30
0.0
 11
574.2732411120178
 21
425.6092410613049
 31
0.0
  0
ARC
  5
2AB2
330
2
100
AcDbEntity
  8
HIDS
100
AcDbCircle
 10
570.3474575666241
 20
438.1794976650066
 30
0.0
 40
1.0
100
AcDbArc
 50
90.0
 51
108.9181108939113
  0
ARC
  5
2AB3
330
2
100
AcDbEntity
  8
0
100
AcDbCircle
 10
570.3474575666241
 20
438.1794976650066
 30
0.0
 40
1.0
100
AcDbArc
 50
108.9181108939113
 51
179.5000000000344
  0
ARC
  5
2AB4
330
2
100
AcDbEntity
  8
0
100
AcDbCircle
 10
570.3212769632528
 20
435.1794976650594
 30
0.0
 40
1.0
100
AcDbArc
 50
90.0
 51
179.5000000000344
  0
LINE
  5
2AB5
330
2
100
AcDbEntity
  8
0
100
AcDbLine
 10
570.0232411120177
 20
442.1794976650594
 30
0.0
 11
570.5428563542882
 21
442.4794976650605
 31
0.0
  0
LINE
  5
2AB6
330
2
100
AcDbEntity
  8
0
100
AcDbLine
 10
570.0232411120177
 20
442.1794976650594
 30
0.0
 11
570.0232411120177
 21
436.1794976650594
 31
0.0
  0
LINE
  5
2AB7
330
2
100
AcDbEntity
  8
0
100
AcDbLine
 10
569.2732411120178
 20
429.6794976650121
 30
0.0
 11
569.3474956435602
 21
438.1882242005063
 31
0.0
  0
LINE
  5
2AB8
330
2
100
AcDbEntity
  8
HIDS
100
AcDbLine
 10
570.3474575666241
 20
439.1794976650067
 30
0.0
 11
578.5232411120177
 21
439.1794976650067
 31
0.0
  0
LINE
  5
2AB9
330
2
100
AcDbEntity
  8
0
100
AcDbLine
 10
579.277585506723
 20
436.1794976650594
 30
0.0
 11
570.3212769632528
 21
436.1794976650594
 31
0.0
  0
LINE
  5
2ABA
330
2
100
AcDbEntity
  8
0
100
AcDbLine
 10
570.0232411120177
 20
437.4794976650605
 30
0.0
 11
578.5232411120177
 21
437.4794976650605
 31
0.0
  0
LINE
  5
2ABB
330
2
100
AcDbEntity
  8
0
100
AcDbLine
 10
570.0232411120177
 20
442.1794976650594
 30
0.0
 11
578.5232411120177
 21
442.1794976650594
 31
0.0
  0
LINE
  5
2ABC
330
2
100
AcDbEntity
  8
0
100
AcDbLine
 10
570.5428563542882
 20
442.4794976650605
 30
0.0
 11
578.0036258697473
 21
442.4794976650605
 31
0.0
  0
LINE
  5
2ABD
330
2
100
AcDbEntity
  8
CENTER
100
AcDbLine
 10
605.2732411120173
 20
316.6794976650129
 30
0.0
 11
605.2732411120182
 21
458.6794976649594
 31
0.0
  0
LINE
  5
2ABE
330
2
100
AcDbEntity
  8
0
100
AcDbLine
 10
688.340035769047
 20
406.6794976650139
 30
0.0
 11
689.0222406648763
 21
432.7318515616293
 31
0.0
  0
LINE
  5
2ABF
330
2
100
AcDbEntity
  8
0
100
AcDbLine
 10
664.2863340728053
 20
429.6794976650085
 30
0.0
 11
664.8631098149153
 21
407.6533207167026
 31
0.0
  0
LINE
  5
2AC0
330
2
100
AcDbEntity
  8
0
100
AcDbLine
 10
669.2732411120178
 20
429.6794976650066
 30
0.0
 11
669.4739590712006
 21
406.6794976650139
 31
0.0
  0
LINE
  5
2AC1
330
2
100
AcDbEntity
  8
0
100
AcDbLine
 10
677.9840583393642
 20
406.6794976650139
 30
0.0
 11
678.5222406665625
 21
427.2318515616293
 31
0.0
  0
LINE
  5
2AC3
330
2
100
AcDbEntity
  8
0
100
AcDbLine
 10
621.8008366320018
 20
429.6794976650103
 30
0.0
 11
621.8008366320018
 21
378.179497665012
 31
0.0
  0
LINE
  5
2AC4
330
2
100
AcDbEntity
  8
0
100
AcDbLine
 10
633.3859395101562
 20
378.179497665012
 30
0.0
 11
633.3859395101562
 21
429.6794976650103
 31
0.0
  0
LINE
  5
2AC5
330
2
100
AcDbEntity
  8
0
100
AcDbLine
 10
636.3859395101553
 20
378.179497665012
 30
0.0
 11
636.3859395101562
 21
429.6794976650103
 31
0.0
  0
LINE
  5
2AC6
330
2
100
AcDbEntity
  8
0
100
AcDbLine
 10
640.8063536852077
 20
376.6794976650121
 30
0.0
 11
641.2688776786481
 21
429.6794976650085
 31
0.0
  0
LINE
  5
2AC7
330
2
100
AcDbEntity
  8
0
100
AcDbLine
 10
665.8627671398908
 20
406.6794976650139
 30
0.0
 11
669.2732411120178
 21
406.6794976650139
 31
0.0
  0
ARC
  5
2AC8
330
2
100
AcDbEntity
  8
0
100
AcDbCircle
 10
671.2732411120177
 20
384.1794976650139
 30
0.0
 40
2.0
100
AcDbArc
 50
90.0
 51
180.0
  0
ARC
  5
2ACA
330
2
100
AcDbEntity
  8
0
100
AcDbCircle
 10
665.8627671398908
 20
407.6794976650139
 30
0.0
 40
1.0
100
AcDbArc
 50
181.5000000001981
 51
270.0
  0
ARC
  5
2ACB
330
2
100
AcDbEntity
  8
0
100
AcDbCircle
 10
642.3107742366864
 20
377.1794976650139
 30
0.0
 40
1.5
100
AcDbArc
 50
90.0
 51
179.4999999994091
  0
LINE
  5
2ACC
330
2
100
AcDbEntity
  8
0
100
AcDbLine
 10
642.3107742366864
 20
378.6794976650138
 30
0.0
 11
667.2469843518741
 21
378.6794976650138
 31
0.0
  0
LINE
  5
2ACD
330
2
100
AcDbEntity
  8
0
100
AcDbLine
 10
635.273241572986
 20
376.6794976650139
 30
0.0
 11
635.273241572986
 21
371.6794976650139
 31
0.0
  0
LINE
  5
2ACE
330
2
100
AcDbEntity
  8
0
100
AcDbLine
 10
688.340035769047
 20
406.6794976650139
 30
0.0
 11
697.0732415729862
 21
406.6794976650139
 31
0.0
  0
ARC
  5
2ACF
330
2
100
AcDbEntity
  8
0
100
AcDbCircle
 10
684.1841581492389
 20
379.1794976650139
 30
0.0
 40
5.0
100
AcDbArc
 50
12.37362511621949
 51
90.0
  0
LINE
  5
2AD0
330
2
100
AcDbEntity
  8
0
100
AcDbLine
 10
684.1841581492389
 20
384.1794976650139
 30
0.0
 11
680.5215553165135
 21
384.1794976650139
 31
0.0
  0
LINE
  5
2AD1
330
2
100
AcDbEntity
  8
0
100
AcDbLine
 10
697.0732415729862
 20
378.6794976650138
 30
0.0
 11
691.0215553148272
 21
378.6794976650138
 31
0.0
  0
ARC
  5
2AD2
330
2
100
AcDbEntity
  8
0
100
AcDbCircle
 10
691.0215553148272
 20
380.6794976650138
 30
0.0
 40
2.0
100
AcDbArc
 50
181.4999999999896
 51
270.0
  0
ARC
  5
2AD3
330
2
100
AcDbEntity
  8
0
100
AcDbCircle
 10
677.0574537013763
 20
384.1794976650139
 30
0.0
 40
2.0
100
AcDbArc
 50
30.00000000001508
 51
90.0
  0
ARC
  5
2AD4
330
2
100
AcDbEntity
  8
0
100
AcDbCircle
 10
680.5215553165135
 20
386.1794976650139
 30
0.0
 40
2.0
100
AcDbArc
 50
181.4999999999896
 51
270.0
  0
LINE
  5
2AD5
330
2
100
AcDbEntity
  8
0
100
AcDbLine
 10
677.9840583393642
 20
406.6794976650139
 30
0.0
 11
678.5222406665625
 21
386.1271437683985
 31
0.0
  0
LINE
  5
2AD6
330
2
100
AcDbEntity
  8
0
100
AcDbLine
 10
688.340035769047
 20
406.6794976650139
 30
0.0
 11
689.0222406648763
 21
380.6271437683985
 31
0.0
  0
LINE
  5
2AD7
330
2
100
AcDbEntity
  8
0
100
AcDbLine
 10
669.2469081980025
 20
380.6620445940175
 30
0.0
 11
669.4739590712006
 21
406.6794976650139
 31
0.0
  0
LINE
  5
2AD8
330
2
100
AcDbEntity
  8
0
100
AcDbLine
 10
671.2732411120177
 20
386.1794976650139
 30
0.0
 11
677.0574537013763
 21
386.1794976650139
 31
0.0
  0
ARC
  5
2AD9
330
2
100
AcDbEntity
  8
0
100
AcDbCircle
 10
668.2164783929911
 20
436.1794976650594
 30
0.0
 40
1.0
100
AcDbArc
 50
0.499999999965521
 51
72.13575521904876
  0
ARC
  5
2ADA
330
2
100
AcDbEntity
  8
0
100
AcDbCircle
 10
668.2252052607818
 20
435.1794976650594
 30
0.0
 40
1.0
100
AcDbArc
 50
0.499999999965521
 51
90.0
  0
ARC
  5
2ADB
330
2
100
AcDbEntity
  8
0
100
AcDbCircle
 10
671.2776807026848
 20
429.1794976650139
 30
0.0
 40
2.0
100
AcDbArc
 50
180.4999999999655
 51
270.0
  0
LINE
  5
2ADC
330
2
100
AcDbEntity
  8
0
100
AcDbLine
 10
628.2732411120178
 20
446.3794976649583
 30
0.0
 11
628.2732411120178
 21
447.6794976649594
 31
0.0
  0
LINE
  5
2ADD
330
2
100
AcDbEntity
  8
0
100
AcDbLine
 10
630.2732411120177
 20
440.6794976649593
 30
0.0
 11
630.7732411120177
 21
440.1794976649593
 31
0.0
  0
LINE
  5
2ADE
330
2
100
AcDbEntity
  8
0
100
AcDbLine
 10
628.2732411120178
 20
440.6794976649593
 30
0.0
 11
628.2732411120178
 21
443.9794976649586
 31
0.0
  0
LINE
  5
2ADF
330
2
100
AcDbEntity
  8
0
100
AcDbLine
 10
627.6958908428286
 20
448.6794976649593
 30
0.0
 11
628.2732411120178
 21
447.6794976649594
 31
0.0
  0
LINE
  5
2AE0
330
2
100
AcDbEntity
  8
0
100
AcDbLine
 10
632.5661343308311
 20
439.8866044461461
 30
0.0
 11
632.9803478931553
 21
439.4723908838218
 31
0.0
  0
ARC
  5
2AE1
330
2
100
AcDbEntity
  8
0
100
AcDbCircle
 10
631.8590275496444
 20
439.1794976649594
 30
0.0
 40
1.0
100
AcDbArc
 50
44.99999999999078
 51
90.0
  0
ARC
  5
2AE2
330
2
100
AcDbEntity
  8
0
100
AcDbCircle
 10
633.687454674342
 20
440.1794976650067
 30
0.0
 40
1.0
100
AcDbArc
 50
224.9999999999908
 51
270.0
  0
LINE
  5
2AE3
330
2
100
AcDbEntity
  8
0
100
AcDbLine
 10
627.573241112018
 20
444.3794976649583
 30
0.0
 11
627.573241112018
 21
445.9794976649586
 31
0.0
  0
ARC
  5
2AE4
330
2
100
AcDbEntity
  8
0
100
AcDbCircle
 10
628.073241112018
 20
446.3794976649583
 30
0.0
 40
0.2
100
AcDbArc
 50
270.0
 51
0.0
  0
ARC
  5
2AE5
330
2
100
AcDbEntity
  8
0
100
AcDbCircle
 10
627.7732411120178
 20
445.9794976649586
 30
0.0
 40
0.2
100
AcDbArc
 50
90.0
 51
180.0
  0
ARC
  5
2AE6
330
2
100
AcDbEntity
  8
0
100
AcDbCircle
 10
627.7732411120178
 20
444.3794976649583
 30
0.0
 40
0.2
100
AcDbArc
 50
180.0
 51
270.0
  0
LINE
  5
2AE7
330
2
100
AcDbEntity
  8
0
100
AcDbLine
 10
628.073241112018
 20
444.1794976649593
 30
0.0
 11
628.2732411120178
 21
443.9794976649586
 31
0.0
  0
LINE
  5
2AE8
330
2
100
AcDbEntity
  8
0
100
AcDbLine
 10
633.2732411120177
 20
429.6794976650121
 30
0.0
 11
633.2732411120177
 21
438.1794976649594
 31
0.0
  0
LINE
  5
2AE9
330
2
100
AcDbEntity
  8
0
100
AcDbLine
 10
621.8008366320009
 20
429.6794976650121
 30
0.0
 11
621.8008366320009
 21
438.1794976649594
 31
0.0
  0
LINE
  5
2AEA
330
2
100
AcDbEntity
  8
0
100
AcDbLine
 10
659.2132973424668
 20
436.1794976650594
 30
0.0
 11
668.2252052607818
 21
436.1794976650594
 31
0.0
  0
ARC
  5
2AEB
330
2
100
AcDbEntity
  8
0
100
AcDbCircle
 10
657.7990837800935
 20
436.1794976650648
 30
0.0
 40
1.0
100
AcDbArc
 50
19.47122063451463
 51
90.0
  0
ARC
  5
2AEC
330
2
100
AcDbEntity
  8
0
100
AcDbCircle
 10
659.2132973424668
 20
436.6794976650667
 30
0.0
 40
0.5
100
AcDbArc
 50
199.4712206345146
 51
270.0
  0
LINE
  5
2AED
330
2
100
AcDbEntity
  8
0
100
AcDbLine
 10
660.0232411120186
 20
437.4794976650605
 30
0.0
 11
668.5232411120186
 21
437.4794976650605
 31
0.0
  0
LINE
  5
2AEE
330
2
100
AcDbEntity
  8
0
100
AcDbLine
 10
660.0232411120186
 20
442.1794976650594
 30
0.0
 11
668.5232411120186
 21
442.1794976650594
 31
0.0
  0
LINE
  5
2AEF
330
2
100
AcDbEntity
  8
0
100
AcDbLine
 10
660.5428563542891
 20
442.4794976650605
 30
0.0
 11
668.0036258697473
 21
442.4794976650605
 31
0.0
  0
LINE
  5
2AF0
330
2
100
AcDbEntity
  8
0
100
AcDbLine
 10
660.0232411120186
 20
442.1794976650594
 30
0.0
 11
660.5428563542891
 21
442.4794976650605
 31
0.0
  0
LINE
  5
2AF1
330
2
100
AcDbEntity
  8
0
100
AcDbLine
 10
660.0232411120186
 20
442.1794976650594
 30
0.0
 11
660.0232411120186
 21
436.1794976650594
 31
0.0
  0
LINE
  5
2AF2
330
2
100
AcDbEntity
  8
0
100
AcDbLine
 10
668.5232411120186
 20
442.1794976650594
 30
0.0
 11
668.5232411120186
 21
436.1794976650594
 31
0.0
  0
LINE
  5
2AF3
330
2
100
AcDbEntity
  8
0
100
AcDbLine
 10
668.5232411120186
 20
442.1794976650594
 30
0.0
 11
668.0036258697473
 21
442.4794976650605
 31
0.0
  0
ARC
  5
2AF4
330
2
100
AcDbEntity
  8
0
100
AcDbCircle
 10
642.2732411120177
 20
438.1794976650594
 30
0.0
 40
1.0
100
AcDbArc
 50
180.000000001459
 51
270.0
  0
ARC
  5
2AF5
330
2
100
AcDbEntity
  8
0
100
AcDbCircle
 10
640.2732411120178
 20
438.1794976650066
 30
0.0
 40
1.0
100
AcDbArc
 50
0.0000000015633062
 51
90.0
  0
LINE
  5
2AF6
330
2
100
AcDbEntity
  8
0
100
AcDbLine
 10
641.2732411120177
 20
438.1794976650103
 30
0.0
 11
641.2732411120177
 21
438.1794976650066
 31
0.0
  0
LINE
  5
2AF7
330
2
100
AcDbEntity
  8
0
100
AcDbLine
 10
642.2732411120177
 20
437.1794976650594
 30
0.0
 11
660.0232411120186
 21
437.1794976650594
 31
0.0
  0
LINE
  5
2AF8
330
2
100
AcDbEntity
  8
0
100
AcDbLine
 10
641.2732411120177
 20
429.6794976650121
 30
0.0
 11
641.2732411120177
 21
438.1794976650066
 31
0.0
  0
LINE
  5
2AF9
330
2
100
AcDbEntity
  8
CENTER
  6
CENS
100
AcDbLine
 10
664.2732411120187
 20
446.3436533513317
 30
0.0
 11
664.2732411120187
 21
425.6092410613049
 31
0.0
  0
LINE
  5
2AFA
330
2
100
AcDbEntity
  8
0
100
AcDbLine
 10
636.2732411120178
 20
429.6794976650121
 30
0.0
 11
636.2732411120178
 21
438.1794976649594
 31
0.0
  0
LINE
  5
2AFB
330
2
100
AcDbEntity
  8
0
100
AcDbLine
 10
697.0732415729862
 20
434.6794976650139
 30
0.0
 11
691.0215553148272
 21
434.6794976650139
 31
0.0
  0
LINE
  5
2AFC
330
2
100
AcDbEntity
  8
CENTER
100
AcDbLine
 10
691.0386360992151
 20
434.6794976650139
 30
0.0
 11
691.0215553148272
 21
434.6794976650139
 31
0.0
  0
ARC
  5
2AFD
330
2
100
AcDbEntity
  8
0
100
AcDbCircle
 10
684.1841581492389
 20
434.1794976650139
 30
0.0
 40
5.0
100
AcDbArc
 50
270.0
 51
347.6263748837804
  0
LINE
  5
2AFE
330
2
100
AcDbEntity
  8
0
100
AcDbLine
 10
684.1841581492389
 20
429.1794976650139
 30
0.0
 11
680.5215553165135
 21
429.1794976650139
 31
0.0
  0
ARC
  5
2AFF
330
2
100
AcDbEntity
  8
0
100
AcDbCircle
 10
691.0215553148272
 20
432.6794976650139
 30
0.0
 40
2.0
100
AcDbArc
 50
90.0
 51
178.5000000000103
  0
ARC
  5
2B00
330
2
100
AcDbEntity
  8
0
100
AcDbCircle
 10
677.0574537013763
 20
429.1794976650139
 30
0.0
 40
2.0
100
AcDbArc
 50
270.0
 51
329.9999999999849
  0
ARC
  5
2B01
330
2
100
AcDbEntity
  8
0
100
AcDbCircle
 10
680.5215553165135
 20
427.1794976650139
 30
0.0
 40
2.0
100
AcDbArc
 50
90.0
 51
178.5000000000103
  0
LINE
  5
2B02
330
2
100
AcDbEntity
  8
0
100
AcDbLine
 10
669.2732411120178
 20
429.6794976650121
 30
0.0
 11
669.216440316055
 21
436.188224200559
 31
0.0
  0
LINE
  5
2B03
330
2
100
AcDbEntity
  8
0
100
AcDbLine
 10
671.2776807026848
 20
427.1794976650139
 30
0.0
 11
677.0574537013763
 21
427.1794976650139
 31
0.0
  0
ARC
  5
35A4
330
2
100
AcDbEntity
  8
0
100
AcDbCircle
 10
605.2732411120146
 20
133.97742630183
 30
0.0
 40
7.500057200868525
100
AcDbArc
 50
199.4710661391139
 51
160.528933860886
  0
ARC
  5
35A5
330
2
100
AcDbEntity
  8
0
100
AcDbCircle
 10
605.2732411120146
 20
133.97742630183
 30
0.0
 40
8.500057200868525
100
AcDbArc
 50
197.1045165256766
 51
162.8954834743377
  0
ARC
  5
35A6
330
2
100
AcDbEntity
  8
0
100
AcDbCircle
 10
605.2732411120146
 20
133.97742630183
 30
0.0
 40
9.077407470058233
100
AcDbArc
 50
195.986391246479
 51
164.0136087535209
  0
CIRCLE
  5
35A7
330
2
100
AcDbEntity
  8
0
100
AcDbCircle
 10
605.2732411120146
 20
133.97742630183
 30
0.0
 40
12.00005720086858
  0
LINE
  5
35AA
330
2
100
AcDbEntity
  8
0
100
AcDbLine
 10
616.484565977423
 20
357.6794976650162
 30
0.0
 11
594.0619162466125
 21
357.6794976650162
 31
0.0
  0
LINE
  5
35AB
330
2
100
AcDbEntity
  8
0
100
AcDbLine
 10
613.7732983129028
 20
356.6794976650161
 30
0.0
 11
596.7732983129028
 21
356.6794976650161
 31
0.0
  0
LINE
  5
35AC
330
2
100
AcDbEntity
  8
0
100
AcDbLine
 10
612.2732983129028
 20
326.6794976650162
 30
0.0
 11
595.7732983128983
 21
326.6794976650166
 31
0.0
  0
LINE
  5
35AD
330
2
100
AcDbEntity
  8
0
100
AcDbLine
 10
612.7732983129028
 20
327.1794976650161
 30
0.0
 11
598.2021126295105
 21
327.1794976650175
 31
0.0
  0
LINE
  5
35B0
330
2
100
AcDbEntity
  8
0
100
AcDbLine
 10
397.9150990045227
 20
142.4774835027165
 30
0.0
 11
396.9150990045227
 21
143.054833771906
 31
0.0
  0
LINE
  5
35B1
330
2
100
AcDbEntity
  8
0
100
AcDbLine
 10
397.9150990045227
 20
125.4773691009459
 30
0.0
 11
396.9150990045227
 21
124.9000188317564
 31
0.0
  0
LINE
  5
35B2
330
2
100
AcDbEntity
  8
0
100
AcDbLine
 10
396.9150990045227
 20
145.1887511672364
 30
0.0
 11
396.9150990045227
 21
122.766101436426
 31
0.0
  0
ARC
  5
35B3
330
2
100
AcDbEntity
  8
0
100
AcDbCircle
 10
396.4150990045227
 20
145.1887511672364
 30
0.0
 40
0.5
100
AcDbArc
 50
0.0
 51
60.00000000000109
  0
ARC
  5
35B4
330
2
100
AcDbEntity
  8
0
100
AcDbCircle
 10
395.5130761410364
 20
143.9774835027163
 30
0.0
 40
2.0
100
AcDbArc
 50
60.00000000000109
 51
78.40388896672376
  0
LINE
  5
35B5
330
2
100
AcDbEntity
  8
0
100
AcDbLine
 10
396.6650990045227
 20
145.6217638691285
 30
0.0
 11
396.5130761410364
 21
145.7095343102853
 31
0.0
  0
ARC
  5
35B6
330
2
100
AcDbEntity
  8
0
100
AcDbCircle
 10
396.4150990045227
 20
122.766101436426
 30
0.0
 40
0.5
100
AcDbArc
 50
299.9999999999989
 51
0.0
  0
ARC
  5
35B7
330
2
100
AcDbEntity
  8
0
100
AcDbCircle
 10
395.5130761410364
 20
123.9773691009461
 30
0.0
 40
2.0
100
AcDbArc
 50
281.5961110332494
 51
299.9999999999989
  0
LINE
  5
35B8
330
2
100
AcDbEntity
  8
0
100
AcDbLine
 10
396.6650990045227
 20
122.3330887345339
 30
0.0
 11
396.5130761410364
 21
122.2453182933771
 31
0.0
  0
LINE
  5
35B9
330
2
100
AcDbEntity
  8
0
100
AcDbLine
 10
397.9150990045227
 20
142.4774835027165
 30
0.0
 11
397.9150990045227
 21
125.4774835027165
 31
0.0
  0
LINE
  5
35BA
330
2
100
AcDbEntity
  8
0
100
AcDbLine
 10
397.9150990045227
 20
141.4774835027165
 30
0.0
 11
427.4150990045227
 21
141.4774835027165
 31
0.0
  0
LINE
  5
35BB
330
2
100
AcDbEntity
  8
0
100
AcDbLine
 10
427.9150990045227
 20
140.9774835027165
 30
0.0
 11
427.4150990045227
 21
141.4774835027165
 31
0.0
  0
LINE
  5
35BC
330
2
100
AcDbEntity
  8
0
100
AcDbLine
 10
427.9150990045227
 20
140.9774835027165
 30
0.0
 11
427.9150990045223
 21
126.9774835027176
 31
0.0
  0
LINE
  5
35BD
330
2
100
AcDbEntity
  8
0
100
AcDbLine
 10
427.4150990045223
 20
126.4774835027177
 30
0.0
 11
427.9150990045223
 21
126.9774835027176
 31
0.0
  0
LINE
  5
35BE
330
2
100
AcDbEntity
  8
0
100
AcDbLine
 10
397.9150990045227
 20
126.4774835027167
 30
0.0
 11
427.4150990045223
 21
126.4774835027177
 31
0.0
  0
LINE
  5
35BF
330
2
100
AcDbEntity
  8
0
100
AcDbLine
 10
427.4150990045227
 20
141.4774835027165
 30
0.0
 11
427.4150990045223
 21
136.4774294838533
 31
0.0
  0
LINE
  5
35C0
330
2
100
AcDbEntity
  8
0
100
AcDbLine
 10
427.4150990045223
 20
131.4774294931306
 30
0.0
 11
427.4150990045223
 21
126.4774835027177
 31
0.0
  0
LINE
  5
35C1
330
2
100
AcDbEntity
  8
0
100
AcDbLine
 10
406.4150990045223
 20
136.4774263018312
 30
0.0
 11
427.9150990045223
 21
136.477429559616
 31
0.0
  0
ARC
  5
35C2
330
2
100
AcDbEntity
  8
0
100
AcDbCircle
 10
406.4150990045223
 20
133.9774263018312
 30
0.0
 40
2.5
100
AcDbArc
 50
90.0
 51
270.0
  0
LINE
  5
35C3
330
2
100
AcDbEntity
  8
0
100
AcDbLine
 10
406.4136870472593
 20
131.477426700556
 30
0.0
 11
427.9150990045223
 21
131.477429559616
 31
0.0
  0
LINE
  5
35C6
330
2
100
AcDbEntity
  8
0
100
AcDbLine
 10
595.7732983128839
 20
131.47742630183
 30
0.0
 11
600.7732983128835
 21
131.47742630183
 31
0.0
  0
LINE
  5
35C7
330
2
100
AcDbEntity
  8
0
100
AcDbLine
 10
595.7732983128821
 20
136.47742630183
 30
0.0
 11
600.7732983128826
 21
136.47742630183
 31
0.0
  0
LINE
  5
35C8
330
2
100
AcDbEntity
  8
0
100
AcDbLine
 10
600.7732983128826
 20
136.47742630183
 30
0.0
 11
600.7732983128835
 21
131.47742630183
 31
0.0
  0
LINE
  5
35C9
330
2
100
AcDbEntity
  8
0
100
AcDbLine
 10
595.7732983128821
 20
136.47742630183
 30
0.0
 11
595.7732983128839
 21
131.47742630183
 31
0.0
  0
LINE
  5
35CA
330
2
100
AcDbEntity
  8
0
100
AcDbLine
 10
597.7732983129032
 20
356.6794976650161
 30
0.0
 11
597.7732983129032
 21
350.6794976650166
 31
0.0
  0
LINE
  5
35CB
330
2
100
AcDbEntity
  8
0
100
AcDbLine
 10
596.7731839111322
 20
356.6794976650161
 30
0.0
 11
596.1958336419427
 21
357.6794976650162
 31
0.0
  0
ARC
  5
35CC
330
2
100
AcDbEntity
  8
0
100
AcDbCircle
 10
594.0619162466125
 20
358.1794976650161
 30
0.0
 40
0.5
100
AcDbArc
 50
210.0000000000004
 51
270.0
  0
ARC
  5
35CD
330
2
100
AcDbEntity
  8
0
100
AcDbCircle
 10
595.2731839111322
 20
359.0815205285025
 30
0.0
 40
2.0
100
AcDbArc
 50
191.5961110332487
 51
210.0000000000004
  0
LINE
  5
35CE
330
2
100
AcDbEntity
  8
0
100
AcDbLine
 10
593.6289035447201
 20
357.9294976650162
 30
0.0
 11
593.5411331035636
 21
358.0815205285024
 31
0.0
  0
LINE
  5
35CF
330
2
100
AcDbEntity
  8
0
100
AcDbLine
 10
595.7732983128983
 20
326.6794976650166
 30
0.0
 11
595.7732983128983
 21
350.6794976650166
 31
0.0
  0
LINE
  5
35D0
330
2
100
AcDbEntity
  8
0
100
AcDbLine
 10
598.2021126295109
 20
326.6794976650166
 30
0.0
 11
598.2021126295109
 21
348.1809096222795
 31
0.0
  0
LINE
  5
35D1
330
2
100
AcDbEntity
  8
0
100
AcDbLine
 10
597.7732983129028
 20
350.6794976650166
 30
0.0
 11
595.7732983128983
 21
350.6794976650166
 31
0.0
  0
LINE
  5
35D2
330
2
100
AcDbEntity
  8
0
100
AcDbLine
 10
597.7732983129028
 20
350.6794976650166
 30
0.0
 11
598.2021126295109
 21
348.1809096222795
 31
0.0
  0
LINE
  5
35D4
330
2
100
AcDbEntity
  8
0
100
AcDbLine
 10
896.2762643936066
 20
126.477369100946
 30
0.0
 11
866.7762643936068
 21
126.477369100946
 31
0.0
  0
LINE
  5
35D5
330
2
100
AcDbEntity
  8
0
100
AcDbLine
 10
896.2762643936066
 20
141.4773691009456
 30
0.0
 11
866.7762643936077
 21
141.4773691009456
 31
0.0
  0
LINE
  5
35D6
330
2
100
AcDbEntity
  8
0
100
AcDbLine
 10
866.2762643936067
 20
126.977369100946
 30
0.0
 11
866.7762643936068
 21
126.477369100946
 31
0.0
  0
LINE
  5
35D7
330
2
100
AcDbEntity
  8
0
100
AcDbLine
 10
866.2762643936067
 20
126.977369100946
 30
0.0
 11
866.2762643936076
 21
140.9773691009456
 31
0.0
  0
LINE
  5
35D8
330
2
100
AcDbEntity
  8
0
100
AcDbLine
 10
866.7762643936077
 20
141.4773691009456
 30
0.0
 11
866.2762643936076
 21
140.9773691009456
 31
0.0
  0
LINE
  5
35D9
330
2
100
AcDbEntity
  8
0
100
AcDbLine
 10
866.7762643936068
 20
126.477369100946
 30
0.0
 11
866.7762643936081
 21
141.4773691009456
 31
0.0
  0
LINE
  5
35DB
330
2
100
AcDbEntity
  8
0
100
AcDbLine
 10
897.2762643936066
 20
122.7661014364259
 30
0.0
 11
897.2762643936066
 21
145.1887511672363
 31
0.0
  0
ARC
  5
35DC
330
2
100
AcDbEntity
  8
0
100
AcDbCircle
 10
897.7762643936067
 20
122.7661014364259
 30
0.0
 40
0.5
100
AcDbArc
 50
180.0
 51
240.000000000001
  0
ARC
  5
35DD
330
2
100
AcDbEntity
  8
0
100
AcDbCircle
 10
898.6782872570929
 20
123.977369100946
 30
0.0
 40
2.0
100
AcDbArc
 50
240.000000000001
 51
258.4038889667506
  0
LINE
  5
35DE
330
2
100
AcDbEntity
  8
0
100
AcDbLine
 10
896.2762643936066
 20
125.477369100946
 30
0.0
 11
896.2762643936066
 21
142.477369100946
 31
0.0
  0
LINE
  5
35DF
330
2
100
AcDbEntity
  8
0
100
AcDbLine
 10
896.2762643936066
 20
125.477369100946
 30
0.0
 11
897.2762643936066
 21
124.9000188317565
 31
0.0
  0
LINE
  5
35E0
330
2
100
AcDbEntity
  8
0
100
AcDbLine
 10
896.2762643936066
 20
142.4774835027166
 30
0.0
 11
897.2762643936066
 21
143.0548337719061
 31
0.0
  0
LINE
  5
35E1
330
2
100
AcDbEntity
  8
0
100
AcDbLine
 10
897.5262643936066
 20
122.3330887345338
 30
0.0
 11
897.6782872570929
 21
122.245318293377
 31
0.0
  0
ARC
  5
35E2
330
2
100
AcDbEntity
  8
0
100
AcDbCircle
 10
897.7762643936067
 20
145.1887511672363
 30
0.0
 40
0.5
100
AcDbArc
 50
119.9999999999989
 51
180.0
  0
ARC
  5
35E3
330
2
100
AcDbEntity
  8
0
100
AcDbCircle
 10
898.6782872570929
 20
143.9774835027166
 30
0.0
 40
2.0
100
AcDbArc
 50
101.5961110332493
 51
119.9999999999989
  0
LINE
  5
35E4
330
2
100
AcDbEntity
  8
0
100
AcDbLine
 10
897.5262643936066
 20
145.6217638691288
 30
0.0
 11
897.6782872570929
 21
145.7095343102852
 31
0.0
  0
ARC
  5
35E5
330
2
100
AcDbEntity
  8
0
100
AcDbCircle
 10
616.484565977423
 20
358.1794976650161
 30
0.0
 40
0.5
100
AcDbArc
 50
270.0
 51
329.9999999999994
  0
ARC
  5
35E6
330
2
100
AcDbEntity
  8
0
100
AcDbCircle
 10
615.2732983129028
 20
359.0815205285025
 30
0.0
 40
2.0
100
AcDbArc
 50
329.9999999999994
 51
348.4038889667512
  0
LINE
  5
35E7
330
2
100
AcDbEntity
  8
0
100
AcDbLine
 10
612.7732983129028
 20
356.6794976650161
 30
0.0
 11
612.7732983129028
 21
327.1794976650161
 31
0.0
  0
LINE
  5
35E8
330
2
100
AcDbEntity
  8
0
100
AcDbLine
 10
612.2732983129028
 20
326.6794976650162
 30
0.0
 11
612.7732983129028
 21
327.1794976650161
 31
0.0
  0
LINE
  5
35E9
330
2
100
AcDbEntity
  8
0
100
AcDbLine
 10
613.7732983129028
 20
356.6794976650161
 30
0.0
 11
614.3506485820924
 21
357.6794976650162
 31
0.0
  0
LINE
  5
35EA
330
2
100
AcDbEntity
  8
0
100
AcDbLine
 10
616.917578679315
 20
357.9294976650162
 30
0.0
 11
617.0053491204718
 21
358.0815205285024
 31
0.0
  0
CIRCLE
  5
3722
330
2
100
AcDbEntity
  8
0
100
AcDbCircle
 10
605.2732411120146
 20
133.97742630183
 30
0.0
 40
19.5774
  0
ARC
  5
3727
330
2
100
AcDbEntity
  8
0
100
AcDbCircle
 10
667.2469843518741
 20
380.6794976650138
 30
0.0
 40
2.0
100
AcDbArc
 50
270.0
 51
359.5000000000105
  0
ENDSEC
  0
SECTION
  2
OBJECTS
  0
DICTIONARY
  5
7
330
0
100
AcDbDictionary
  3
ACAD_COLOR
350
1C1C
  3
ACAD_GROUP
350
75
  3
ACAD_LAYOUT
350
61
  3
ACAD_MATERIAL
350
1BF2
  3
ACAD_MLEADERSTYLE
350
1C41
  3
ACAD_MLINESTYLE
350
76
  3
ACAD_PLOTSETTINGS
350
77
  3
ACAD_PLOTSTYLENAME
350
6
  3
ACAD_SCALELIST
350
1C1F
  3
ACAD_TABLESTYLE
350
1C1D
  3
ACAD_VISUALSTYLE
350
1C0B
  3
ACADDIM
350
480
  3
ACDB_RECOMPOSE_DATA
350
1C60
  3
ACDBHEADERROUNDTRIPXREC
350
376B
  3
ACDBVARIABLEDICTIONARY
350
102
  3
DWGPROPS
350
3735
  0
DICTIONARY
  5
1C69
330
6E
100
AcDbDictionary
280
     1
  3
ACAD_XREC_ROUNDTRIP
360
373D
  0
DICTIONARY
  5
B12
330
66
100
AcDbDictionary
280
     1
  3
ACAD_LAYERSTATES
360
B13
  0
DICTIONARY
  5
1C4E
330
5E
100
AcDbDictionary
280
     1
  3
ACAD_XREC_ROUNDTRIP
360
3738
  3
ADSK_XREC_LAYER_RECONCILED
360
1C4F
  0
DICTIONARY
  5
1C50
330
3E
100
AcDbDictionary
280
     1
  3
ACAD_XREC_ROUNDTRIP
360
3737
  3
ADSK_XREC_LAYER_RECONCILED
360
1C51
  0
DICTIONARY
  5
1C56
330
2B5
100
AcDbDictionary
280
     1
  3
ACAD_XREC_ROUNDTRIP
360
3743
  3
ADSK_XREC_LAYER_RECONCILED
360
1C57
  0
DICTIONARY
  5
1C58
330
2BA
100
AcDbDictionary
280
     1
  3
ACAD_XREC_ROUNDTRIP
360
3744
  3
ADSK_XREC_LAYER_RECONCILED
360
1C59
  0
DICTIONARY
  5
372D
330
372C
100
AcDbDictionary
280
     1
  3
ACAD_XREC_ROUNDTRIP
360
3752
  0
DICTIONARY
  5
378C
330
2
100
AcDbDictionary
280
     1
  3
ACAD_LAYOUTSELFREF
360
378D
  0
DICTIONARY
  5
378E
330
3765
100
AcDbDictionary
280
     1
  3
ACAD_LAYOUTSELFREF
360
378F
  0
DICTIONARY
  5
1C1C
102
{ACAD_REACTORS
330
7
102
}
330
7
100
AcDbDictionary
  0
DICTIONARY
  5
75
102
{ACAD_REACTORS
330
7
102
}
330
7
100
AcDbDictionary
  0
DICTIONARY
  5
61
102
{ACAD_REACTORS
330
7
102
}
330
7
100
AcDbDictionary
  0
DICTIONARY
  5
1BF2
102
{ACAD_REACTORS
330
7
102
}
330
7
100
AcDbDictionary
  3
BYBLOCK
350
1BFB
  3
BYLAYER
350
1BF3
  3
GLOBAL
350
1C03
  0
DICTIONARY
  5
1C41
102
{ACAD_REACTORS
330
7
102
}
330
7
100
AcDbDictionary
  3
STANDARD
350
1C42
  0
DICTIONARY
  5
76
102
{ACAD_REACTORS
330
7
102
}
330
7
100
AcDbDictionary
  3
STANDARD
350
78
  0
DICTIONARY
  5
77
102
{ACAD_REACTORS
330
7
102
}
330
7
100
AcDbDictionary
  0
ACDBDICTIONARYWDFLT
  5
6
102
{ACAD_REACTORS
330
7
102
}
330
7
100
AcDbDictionary
281
     1
  3
Normal
350
5
100
AcDbDictionaryWithDefault
340
5
  0
DICTIONARY
  5
1C1F
102
{ACAD_REACTORS
330
7
102
}
330
7
100
AcDbDictionary
  3
A0
350
1C20
  3
A1
350
1C21
  3
A2
350
1C22
  3
A3
350
1C23
  3
A4
350
1C24
  3
A5
350
1C25
  3
A6
350
1C26
  3
A7
350
1C27
  3
A8
350
1C28
  3
A9
350
1C29
  3
B0
350
1C2A
  3
B1
350
1C2B
  3
B2
350
1C2C
  3
B3
350
1C2D
  3
B4
350
1C2E
  3
B5
350
1C2F
  3
B6
350
1C30
  3
B7
350
1C31
  3
B8
350
1C32
  3
B9
350
1C33
  3
C0
350
1C34
  3
C1
350
1C35
  3
C2
350
1C36
  3
C3
350
1C37
  3
C4
350
1C38
  3
C5
350
1C39
  3
C6
350
1C3A
  3
C7
350
1C3B
  3
C8
350
1C3C
  3
C9
350
1C3D
  3
D0
350
1C3E
  3
D1
350
1C3F
  3
D2
350
1C40
  0
DICTIONARY
  5
1C1D
102
{ACAD_REACTORS
330
7
102
}
330
7
100
AcDbDictionary
  3
STANDARD
350
1C1E
  0
DICTIONARY
  5
1C0B
102
{ACAD_REACTORS
330
7
102
}
330
7
100
AcDbDictionary
  3
2DWIREFRAME
350
1C11
  3
3D_HIDDEN
350
1C13
  3
3DWIREFRAME
350
1C12
  3
BASIC
350
1C10
  3
BRIGHTEN
350
1C17
  3
COLORCHANGE
350
1C1B
  3
CONCEPTUAL
350
1C14
  3
DIM
350
1C16
  3
FACEPATTERN
350
1C1A
  3
FLAT
350
1C0C
  3
FLATWITHEDGES
350
1C0D
  3
GOURAUD
350
1C0E
  3
GOURAUDWITHEDGES
350
1C0F
  3
LINEPATTERN
350
1C19
  3
REALISTIC
350
1C15
  3
THICKEN
350
1C18
  0
XRECORD
  5
480
102
{ACAD_REACTORS
330
7
102
}
330
7
100
AcDbXrecord
 90
   990106
  3

 60
     0
 61
     0
 62
     1
 63
     3
 64
     1
 65
     0
 66
     0
 67
     3
 68
     1
 69
     0
 70
     0
 71
     0
 72
     0
 40
0.0
170
     2
340
0
  0
XRECORD
  5
1C60
102
{ACAD_REACTORS
330
7
102
}
330
7
100
AcDbXrecord
 90
        1
330
1C1E
  0
DICTIONARY
  5
376B
102
{ACAD_REACTORS
330
7
102
}
330
7
100
AcDbDictionary
  3
CEPSNTYPE
350
3775
  3
DIMSTYLEDATA
350
3779
  3
FINGERPRINTGUID
350
3776
  3
HYPERLINKBASE
350
376E
  3
INSUNITS
350
3774
  3
LAYOUTDICT
350
3770
  3
LWETCUNION
350
3773
  3
PLOTSETDICT
350
3771
  3
PLOTSTYLNAMDICT
350
3772
  3
PSVPSCALE
350
3778
  3
PUCSBASE
350
377C
  3
PUCSORGBACK
350
3782
  3
PUCSORGBOTTOM
350
377E
  3
PUCSORGFRONT
350
3781
  3
PUCSORGLEFT
350
377F
  3
PUCSORGRIGHT
350
3780
  3
PUCSORGTOP
350
377D
  3
PUCSORTHOREF
350
377A
  3
PUCSORTHOVIEW
350
377B
  3
STYLESHEET
350
376F
  3
TSTACKALIGN
350
376C
  3
TSTACKSIZE
350
376D
  3
UCSBASE
350
3785
  3
UCSORGBACK
350
378B
  3
UCSORGBOTTOM
350
3787
  3
UCSORGFRONT
350
378A
  3
UCSORGLEFT
350
3788
  3
UCSORGRIGHT
350
3789
  3
UCSORGTOP
350
3786
  3
UCSORTHOREF
350
3783
  3
UCSORTHOVIEW
350
3784
  3
VERSIONGUID
350
3777
  0
DICTIONARY
  5
102
102
{ACAD_REACTORS
330
7
102
}
330
7
100
AcDbDictionary
  3
CANNOSCALE
350
1C82
  3
CMLEADERSTYLE
350
1C81
  3
CTABLESTYLE
350
1C80
  3
DIMASSOC
350
103
  3
INDEXCTL
350
1C83
  3
SORTENTS
350
549
  0
XRECORD
  5
3735
102
{ACAD_REACTORS
330
7
102
}
330
7
100
AcDbXrecord
  1
DWGPROPS COOKIE
  2

  3

  4

  6

  7

  8
ymorima
  9

300
=
301
=
302
=
303
=
304
=
305
=
306
=
307
=
308
=
309
=
 40
0.0610331712962963
 41
2454411.495290613
 42
2454426.372154583
  1

 90
        0
  0
XRECORD
  5
373D
102
{ACAD_REACTORS
330
1C69
102
}
330
1C69
100
AcDbXrecord
102
VTR_0.000_0.000_1.000_1.000_VISUALSTYLE
340
1C11
102
VTR_0.000_0.000_1.000_1.000_GRIDDISPLAY
 70
     3
102
VTR_0.000_0.000_1.000_1.000_GRIDMAJOR
 70
     5
102
VTR_0.000_0.000_1.000_1.000_DEFAULTLIGHTING
280
     1
102
VTR_0.000_0.000_1.000_1.000_DEFAULTLIGHTINGTYPE
 70
     1
102
VTR_0.000_0.000_1.000_1.000_BRIGHTNESS
141
0.0
102
VTR_0.000_0.000_1.000_1.000_CONTRAST
142
0.0
  0
DICTIONARY
  5
B13
102
{ACAD_REACTORS
330
B12
102
}
330
B12
100
AcDbDictionary
  0
XRECORD
  5
3738
102
{ACAD_REACTORS
330
1C4E
102
}
330
1C4E
100
AcDbXrecord
102
MATERIAL
340
1C03
  0
XRECORD
  5
1C4F
102
{ACAD_REACTORS
330
1C4E
102
}
330
1C4E
100
AcDbXrecord
290
     1
  0
XRECORD
  5
3737
102
{ACAD_REACTORS
330
1C50
102
}
330
1C50
100
AcDbXrecord
102
MATERIAL
340
1C03
  0
XRECORD
  5
1C51
102
{ACAD_REACTORS
330
1C50
102
}
330
1C50
100
AcDbXrecord
290
     1
  0
XRECORD
  5
3743
102
{ACAD_REACTORS
330
1C56
102
}
330
1C56
100
AcDbXrecord
102
MATERIAL
340
1C03
  0
XRECORD
  5
1C57
102
{ACAD_REACTORS
330
1C56
102
}
330
1C56
100
AcDbXrecord
290
     1
  0
XRECORD
  5
3744
102
{ACAD_REACTORS
330
1C58
102
}
330
1C58
100
AcDbXrecord
102
MATERIAL
340
1C03
  0
XRECORD
  5
1C59
102
{ACAD_REACTORS
330
1C58
102
}
330
1C58
100
AcDbXrecord
290
     1
  0
XRECORD
  5
3752
102
{ACAD_REACTORS
330
372D
102
}
330
372D
100
AcDbXrecord
102
MATERIAL
340
1C03
  0
XRECORD
  5
378D
102
{ACAD_REACTORS
330
378C
102
}
330
378C
100
AcDbXrecord
340
2
  0
XRECORD
  5
378F
102
{ACAD_REACTORS
330
378E
102
}
330
378E
100
AcDbXrecord
340
3765
  0
ACAD_PROXY_OBJECT
  5
1BFB
102
{ACAD_XDICTIONARY
360
1BFC
102
}
102
{ACAD_REACTORS
330
1BF2
102
}
330
1BF2
100
AcDbProxyObject
 90
      499
 91
      510
 93
     1340
310
42109E509B1BD8DAC02004014080404555555555555953FAA155555555555654FEA9AA400014080404555555555555953FAA155555555555654FEA9AA400000000000000E03F4080404555555555555953FAA155555555555654FEA9AA4014080404555555555555953FAA155555555555654FEA9AA4010201011555555555
310
55654FEA8555555555555953FAA6A9005020101155555555555654FEA8555555555555953FAA6A9000
 94
        0
1001
ACAD
1000
AcadProxyRoundTripData
1071
      504
1071
   655383
1070
     0
  0
ACAD_PROXY_OBJECT
  5
1BF3
102
{ACAD_XDICTIONARY
360
1BF4
102
}
102
{ACAD_REACTORS
330
1BF2
102
}
330
1BF2
100
AcDbProxyObject
 90
      499
 91
      510
 93
     1340
310
42109E53185E595C802004014080404555555555555953FAA155555555555654FEA9AA400014080404555555555555953FAA155555555555654FEA9AA400000000000000E03F4080404555555555555953FAA155555555555654FEA9AA4014080404555555555555953FAA155555555555654FEA9AA4010201011555555555
310
55654FEA8555555555555953FAA6A9005020101155555555555654FEA8555555555555953FAA6A9000
 94
        0
1001
ACAD
1000
AcadProxyRoundTripData
1071
      504
1071
   655383
1070
     0
  0
ACAD_PROXY_OBJECT
  5
1C03
102
{ACAD_XDICTIONARY
360
1C04
102
}
102
{ACAD_REACTORS
330
1BF2
102
}
330
1BF2
100
AcDbProxyObject
 90
      499
 91
      510
 93
     1332
310
41D1DB1BD8985B002004014080404555555555555953FAA155555555555654FEA9AA400014080404555555555555953FAA155555555555654FEA9AA400000000000000E03F4080404555555555555953FAA155555555555654FEA9AA4014080404555555555555953FAA155555555555654FEA9AA401020101155555555555
310
654FEA8555555555555953FAA6A9005020101155555555555654FEA8555555555555953FAA6A9000
 94
        0
1001
ACAD
1000
AcadProxyRoundTripData
1071
      504
1071
   655383
1070
     0
  0
ACAD_PROXY_OBJECT
  5
1C42
102
{ACAD_REACTORS
330
1C41
102
}
330
1C41
100
AcDbProxyObject
 90
      499
 91
      510
 93
      618
310
40901902A4063FBFFFFFE056BD1B81E855B9FC0AD7A3703D0AD73F4254DD185B99185C990000AD7A3703D0AC73F90141901A02B5E8DC0F42B1CFC02B5E8DC0F42B1CFE5764000000000000300FC6
340
6A
340
0
340
16
340
0
 94
        0
1001
ACAD_MLEADERVER
1070
     2
1001
ACAD
1000
AcadProxyRoundTripData
1071
      508
1071
   655383
1070
     0
  0
MLINESTYLE
  5
78
102
{ACAD_REACTORS
330
76
102
}
330
76
100
AcDbMlineStyle
  2
STANDARD
 70
     0
  3

 62
     0
 51
90.0
 52
90.0
 71
     2
 49
0.5
 62
   256
  6
BYLAYER
 49
-0.5
 62
   256
  6
BYLAYER
  0
ACDBPLACEHOLDER
  5
5
102
{ACAD_REACTORS
330
6
102
}
330
6
100
AcDbPlaceHolder
280
     0
  0
ACAD_PROXY_OBJECT
  5
1C20
102
{ACAD_REACTORS
330
1C1F
102
}
330
1C1F
100
AcDbProxyObject
 90
      499
 91
      510
 93
       49
310
904313A3100598
 94
        0
1001
ACAD
1000
AcadProxyRoundTripData
1071
      507
1071
   655383
1070
     0
  0
ACAD_PROXY_OBJECT
  5
1C21
102
{ACAD_REACTORS
330
1C1F
102
}
330
1C1F
100
AcDbProxyObject
 90
      499
 91
      510
 93
      113
310
904313A3200400000000000000406B
 94
        0
1001
ACAD
1000
AcadProxyRoundTripData
1071
      507
1071
   655383
1070
     0
  0
ACAD_PROXY_OBJECT
  5
1C22
102
{ACAD_REACTORS
330
1C1F
102
}
330
1C1F
100
AcDbProxyObject
 90
      499
 91
      510
 93
      113
310
904313A3400400000000000010406B
 94
        0
1001
ACAD
1000
AcadProxyRoundTripData
1071
      507
1071
   655383
1070
     0
  0
ACAD_PROXY_OBJECT
  5
1C23
102
{ACAD_REACTORS
330
1C1F
102
}
330
1C1F
100
AcDbProxyObject
 90
      499
 91
      510
 93
      113
310
904313A3500400000000000014406B
 94
        0
1001
ACAD
1000
AcadProxyRoundTripData
1071
      507
1071
   655383
1070
     0
  0
ACAD_PROXY_OBJECT
  5
1C24
102
{ACAD_REACTORS
330
1C1F
102
}
330
1C1F
100
AcDbProxyObject
 90
      499
 91
      510
 93
      113
310
904313A3800400000000000020406B
 94
        0
1001
ACAD
1000
AcadProxyRoundTripData
1071
      507
1071
   655383
1070
     0
  0
ACAD_PROXY_OBJECT
  5
1C25
102
{ACAD_REACTORS
330
1C1F
102
}
330
1C1F
100
AcDbProxyObject
 90
      499
 91
      510
 93
      121
310
905313A3130004000000000000244051
 94
        0
1001
ACAD
1000
AcadProxyRoundTripData
1071
      507
1071
   655383
1070
     0
  0
ACAD_PROXY_OBJECT
  5
1C26
102
{ACAD_REACTORS
330
1C1F
102
}
330
1C1F
100
AcDbProxyObject
 90
      499
 91
      510
 93
      121
310
905313A3136004000000000000304051
 94
        0
1001
ACAD
1000
AcadProxyRoundTripData
1071
      507
1071
   655383
1070
     0
  0
ACAD_PROXY_OBJECT
  5
1C27
102
{ACAD_REACTORS
330
1C1F
102
}
330
1C1F
100
AcDbProxyObject
 90
      499
 91
      510
 93
      121
310
905313A3230004000000000000344051
 94
        0
1001
ACAD
1000
AcadProxyRoundTripData
1071
      507
1071
   655383
1070
     0
  0
ACAD_PROXY_OBJECT
  5
1C28
102
{ACAD_REACTORS
330
1C1F
102
}
330
1C1F
100
AcDbProxyObject
 90
      499
 91
      510
 93
      121
310
905313A33300040000000000003E4051
 94
        0
1001
ACAD
1000
AcadProxyRoundTripData
1071
      507
1071
   655383
1070
     0
  0
ACAD_PROXY_OBJECT
  5
1C29
102
{ACAD_REACTORS
330
1C1F
102
}
330
1C1F
100
AcDbProxyObject
 90
      499
 91
      510
 93
      121
310
905313A3430004000000000000444051
 94
        0
1001
ACAD
1000
AcadProxyRoundTripData
1071
      507
1071
   655383
1070
     0
  0
ACAD_PROXY_OBJECT
  5
1C2A
102
{ACAD_REACTORS
330
1C1F
102
}
330
1C1F
100
AcDbProxyObject
 90
      499
 91
      510
 93
      121
310
905313A3530004000000000000494051
 94
        0
1001
ACAD
1000
AcadProxyRoundTripData
1071
      507
1071
   655383
1070
     0
  0
ACAD_PROXY_OBJECT
  5
1C2B
102
{ACAD_REACTORS
330
1C1F
102
}
330
1C1F
100
AcDbProxyObject
 90
      499
 91
      510
 93
      129
310
906313A313030004000000000000594038
 94
        0
1001
ACAD
1000
AcadProxyRoundTripData
1071
      507
1071
   655383
1070
     0
  0
ACAD_PROXY_OBJECT
  5
1C2C
102
{ACAD_REACTORS
330
1C1F
102
}
330
1C1F
100
AcDbProxyObject
 90
      499
 91
      510
 93
      113
310
904323A31000000000000000010159
 94
        0
1001
ACAD
1000
AcadProxyRoundTripData
1071
      507
1071
   655383
1070
     0
  0
ACAD_PROXY_OBJECT
  5
1C2D
102
{ACAD_REACTORS
330
1C1F
102
}
330
1C1F
100
AcDbProxyObject
 90
      499
 91
      510
 93
      113
310
904343A31000000000000000410159
 94
        0
1001
ACAD
1000
AcadProxyRoundTripData
1071
      507
1071
   655383
1070
     0
  0
ACAD_PROXY_OBJECT
  5
1C2E
102
{ACAD_REACTORS
330
1C1F
102
}
330
1C1F
100
AcDbProxyObject
 90
      499
 91
      510
 93
      113
310
904383A31000000000000000810159
 94
        0
1001
ACAD
1000
AcadProxyRoundTripData
1071
      507
1071
   655383
1070
     0
  0
ACAD_PROXY_OBJECT
  5
1C2F
102
{ACAD_REACTORS
330
1C1F
102
}
330
1C1F
100
AcDbProxyObject
 90
      499
 91
      510
 93
      121
310
90531303A31000000000000000910140
 94
        0
1001
ACAD
1000
AcadProxyRoundTripData
1071
      507
1071
   655383
1070
     0
  0
ACAD_PROXY_OBJECT
  5
1C30
102
{ACAD_REACTORS
330
1C1F
102
}
330
1C1F
100
AcDbProxyObject
 90
      499
 91
      510
 93
      129
310
9063130303A31000000000000001650138
 94
        0
1001
ACAD
1000
AcadProxyRoundTripData
1071
      507
1071
   655383
1070
     0
  0
ACAD_PROXY_OBJECT
  5
1C31
102
{ACAD_REACTORS
330
1C1F
102
}
330
1C1F
100
AcDbProxyObject
 90
      499
 91
      510
 93
      265
310
90F312F31323822203D2031272D302200000000000000200FC00000000000028402B
 94
        0
1001
ACAD
1000
AcadProxyRoundTripData
1071
      507
1071
   655383
1070
     0
  0
ACAD_PROXY_OBJECT
  5
1C32
102
{ACAD_REACTORS
330
1C1F
102
}
330
1C1F
100
AcDbProxyObject
 90
      499
 91
      510
 93
      257
310
90E312F363422203D2031272D302200000000000000240FC000000000000284040
 94
        0
1001
ACAD
1000
AcadProxyRoundTripData
1071
      507
1071
   655383
1070
     0
  0
ACAD_PROXY_OBJECT
  5
1C33
102
{ACAD_REACTORS
330
1C1F
102
}
330
1C1F
100
AcDbProxyObject
 90
      499
 91
      510
 93
      257
310
90E312F333222203D2031272D302200000000000000280FC000000000000284040
 94
        0
1001
ACAD
1000
AcadProxyRoundTripData
1071
      507
1071
   655383
1070
     0
  0
ACAD_PROXY_OBJECT
  5
1C34
102
{ACAD_REACTORS
330
1C1F
102
}
330
1C1F
100
AcDbProxyObject
 90
      499
 91
      510
 93
      257
310
90E312F313622203D2031272D3022000000000000002C0FC000000000000284040
 94
        0
1001
ACAD
1000
AcadProxyRoundTripData
1071
      507
1071
   655383
1070
     0
  0
ACAD_PROXY_OBJECT
  5
1C35
102
{ACAD_REACTORS
330
1C1F
102
}
330
1C1F
100
AcDbProxyObject
 90
      499
 91
      510
 93
      257
310
90E332F333222203D2031272D3022000000000000002E0FC000000000000284040
 94
        0
1001
ACAD
1000
AcadProxyRoundTripData
1071
      507
1071
   655383
1070
     0
  0
ACAD_PROXY_OBJECT
  5
1C36
102
{ACAD_REACTORS
330
1C1F
102
}
330
1C1F
100
AcDbProxyObject
 90
      499
 91
      510
 93
      249
310
90D312F3822203D2031272D302200000000000000300FC000000000000284040
 94
        0
1001
ACAD
1000
AcadProxyRoundTripData
1071
      507
1071
   655383
1070
     0
  0
ACAD_PROXY_OBJECT
  5
1C37
102
{ACAD_REACTORS
330
1C1F
102
}
330
1C1F
100
AcDbProxyObject
 90
      499
 91
      510
 93
      257
310
90E332F313622203D2031272D302200000000000000320FC000000000000284040
 94
        0
1001
ACAD
1000
AcadProxyRoundTripData
1071
      507
1071
   655383
1070
     0
  0
ACAD_PROXY_OBJECT
  5
1C38
102
{ACAD_REACTORS
330
1C1F
102
}
330
1C1F
100
AcDbProxyObject
 90
      499
 91
      510
 93
      249
310
90D312F3422203D2031272D302200000000000000340FC000000000000284040
 94
        0
1001
ACAD
1000
AcadProxyRoundTripData
1071
      507
1071
   655383
1070
     0
  0
ACAD_PROXY_OBJECT
  5
1C39
102
{ACAD_REACTORS
330
1C1F
102
}
330
1C1F
100
AcDbProxyObject
 90
      499
 91
      510
 93
      249
310
90D332F3822203D2031272D302200000000000000360FC000000000000284040
 94
        0
1001
ACAD
1000
AcadProxyRoundTripData
1071
      507
1071
   655383
1070
     0
  0
ACAD_PROXY_OBJECT
  5
1C3A
102
{ACAD_REACTORS
330
1C1F
102
}
330
1C1F
100
AcDbProxyObject
 90
      499
 91
      510
 93
      249
310
90D312F3222203D2031272D302200000000000000380FC000000000000284040
 94
        0
1001
ACAD
1000
AcadProxyRoundTripData
1071
      507
1071
   655383
1070
     0
  0
ACAD_PROXY_OBJECT
  5
1C3B
102
{ACAD_REACTORS
330
1C1F
102
}
330
1C1F
100
AcDbProxyObject
 90
      499
 91
      510
 93
      249
310
90D332F3422203D2031272D3022000000000000003A0FC000000000000284040
 94
        0
1001
ACAD
1000
AcadProxyRoundTripData
1071
      507
1071
   655383
1070
     0
  0
ACAD_PROXY_OBJECT
  5
1C3C
102
{ACAD_REACTORS
330
1C1F
102
}
330
1C1F
100
AcDbProxyObject
 90
      499
 91
      510
 93
      169
310
90B3122203D2031272D3022004000000000000284020
 94
        0
1001
ACAD
1000
AcadProxyRoundTripData
1071
      507
1071
   655383
1070
     0
  0
ACAD_PROXY_OBJECT
  5
1C3D
102
{ACAD_REACTORS
330
1C1F
102
}
330
1C1F
100
AcDbProxyObject
 90
      499
 91
      510
 93
      265
310
90F312D312F3222203D2031272D3022000000000000003E0FC00000000000028402B
 94
        0
1001
ACAD
1000
AcadProxyRoundTripData
1071
      507
1071
   655383
1070
     0
  0
ACAD_PROXY_OBJECT
  5
1C3E
102
{ACAD_REACTORS
330
1C1F
102
}
330
1C1F
100
AcDbProxyObject
 90
      499
 91
      510
 93
      233
310
90B3322203D2031272D30220000000000000002100000000000000284000
 94
        0
1001
ACAD
1000
AcadProxyRoundTripData
1071
      507
1071
   655383
1070
     0
  0
ACAD_PROXY_OBJECT
  5
1C3F
102
{ACAD_REACTORS
330
1C1F
102
}
330
1C1F
100
AcDbProxyObject
 90
      499
 91
      510
 93
      233
310
90B3622203D2031272D30220000000000000006100000000000000284000
 94
        0
1001
ACAD
1000
AcadProxyRoundTripData
1071
      507
1071
   655383
1070
     0
  0
ACAD_PROXY_OBJECT
  5
1C40
102
{ACAD_REACTORS
330
1C1F
102
}
330
1C1F
100
AcDbProxyObject
 90
      499
 91
      510
 93
      257
310
90E31272D3022203D2031272D3022000000000000000A100000000000000284040
 94
        0
1001
ACAD
1000
AcadProxyRoundTripData
1071
      507
1071
   655383
1070
     0
  0
ACAD_PROXY_OBJECT
  5
1C1E
102
{ACAD_XDICTIONARY
360
1C5E
102
}
102
{ACAD_REACTORS
330
1C1D
102
}
330
1C1D
100
AcDbProxyObject
 90
      499
 91
      510
 93
     1849
310
4254DD185B99185C990028B81E85EB51B8AE3F2E07A17AD46E2B8FC02B5E8DC0F42B1CFD028000000C1008070000C3001FDFF8000000C1003FBFF000000182007F7FE00000030400FEFFC00000060801FDFF8000000C1003FBFF00000018200000000000000681FA0B0000001820100E000186003FBFF000000182007F7FE0
310
0000030400FEFFC00000060801FDFF8000000C1003FBFF000000182007F7FE000000304000AD7A3703D0AC73F4160000003040201C00030C007F7FE00000030400FEFFC00000060801FDFF8000000C1003FBFF000000182007F7FE00000030400FEFFC000000608000
340
16
340
16
340
16
 94
        0
1001
ACAD
1000
AcadProxyRoundTripData
1071
      506
1071
   655383
1070
     0
  0
ACAD_PROXY_OBJECT
  5
1C11
102
{ACAD_REACTORS
330
1C0B
102
}
330
1C0B
100
AcDbProxyObject
 90
      499
 91
      510
 93
      444
310
430C9915DA5C99599C985B59401049028333333333333E3BF0000000000000FB0107901411070040501600405405064090741402480A0340
 94
        0
1001
ACAD
1000
AcDbSavedByObjectVersion
1070
     0
1000
AcadProxyRoundTripData
1071
      505
1071
   655383
1070
     0
  0
ACAD_PROXY_OBJECT
  5
1C13
102
{ACAD_REACTORS
330
1C0B
102
}
330
1C0B
100
AcDbProxyObject
 90
      499
 91
      510
 93
      508
310
428CD108121A5919195B8010640502408333333333333E3BF0000000000000FB01079024090700405020000000000001110200405405064090740C02480A0340
 94
        0
1001
ACAD
1000
AcDbSavedByObjectVersion
1070
     0
1000
AcadProxyRoundTripData
1071
      505
1071
   655383
1070
     0
  0
ACAD_PROXY_OBJECT
  5
1C12
102
{ACAD_REACTORS
330
1C0B
102
}
330
1C0B
100
AcDbProxyObject
 90
      499
 91
      510
 93
      444
310
430CD915DA5C99599C985B59401059028333333333333E3BF0000000000000FB0107901411070040501600405405064090741402480A0340
 94
        0
1001
ACAD
1000
AcDbSavedByObjectVersion
1070
     0
1000
AcadProxyRoundTripData
1071
      505
1071
   655383
1070
     0
  0
ACAD_PROXY_OBJECT
  5
1C10
102
{ACAD_REACTORS
330
1C0B
102
}
330
1C0B
100
AcDbProxyObject
 90
      499
 91
      510
 93
      396
310
4190985CDA58C0107406404333333333333E3BF0000000000000FB0107A41107004050150841D405064090741402480A0356
 94
        0
1001
ACAD
1000
AcDbSavedByObjectVersion
1070
     0
1000
AcadProxyRoundTripData
1071
      505
1071
   655383
1070
     0
  0
ACAD_PROXY_OBJECT
  5
1C17
102
{ACAD_REACTORS
330
1C0B
102
}
330
1C0B
100
AcDbProxyObject
 90
      499
 91
      510
 93
      436
310
42509C9A59DA1D195B8010C409028333333333333E3BF0000000000000FB010790141107004050150841D405064090741402480A029956
 94
        0
1001
ACAD
1000
AcDbSavedByObjectVersion
1070
     0
1000
AcadProxyRoundTripData
1071
      505
1071
   655383
1070
     0
  0
ACAD_PROXY_OBJECT
  5
1C1B
102
{ACAD_REACTORS
330
1C0B
102
}
330
1C0B
100
AcDbProxyObject
 90
      499
 91
      510
 93
      460
310
4310DBDB1BDC90DA185B99D9401104090240C333333333333E3BF0000000000000FB0108901411070040501508421405064090741402480A0354
 94
        0
1001
ACAD
1000
AcDbSavedByObjectVersion
1070
     0
1000
AcadProxyRoundTripData
1071
      505
1071
   655383
1070
     0
  0
ACAD_PROXY_OBJECT
  5
1C14
102
{ACAD_REACTORS
330
1C0B
102
}
330
1C0B
100
AcDbProxyObject
 90
      499
 91
      510
 93
      508
310
42D0DBDB98D95C1D1D585B0010940D028333333333333E3BF0000000000000FB0107902409070040501000000000000111010841D405064090740C02480A0340
 94
        0
1001
ACAD
1000
AcDbSavedByObjectVersion
1070
     0
1000
AcadProxyRoundTripData
1071
      505
1071
   655383
1070
     0
  0
ACAD_PROXY_OBJECT
  5
1C16
102
{ACAD_REACTORS
330
1C0B
102
}
330
1C0B
100
AcDbProxyObject
 90
      499
 91
      510
 93
      420
310
41111A5B4010B409028333333333333E3BF0000000000000FB010790141107004050150841D405064090741402480A02677FFFFFDB
 94
        0
1001
ACAD
1000
AcDbSavedByObjectVersion
1070
     0
1000
AcadProxyRoundTripData
1071
      505
1071
   655383
1070
     0
  0
ACAD_PROXY_OBJECT
  5
1C1A
102
{ACAD_REACTORS
330
1C0B
102
}
330
1C0B
100
AcDbProxyObject
 90
      499
 91
      510
 93
      452
310
43119858D95C185D1D195C9B8010F409028333333333333E3BF0000000000000FB010790141107004050150841D405064090741402480A0350
 94
        0
1001
ACAD
1000
AcDbSavedByObjectVersion
1070
     0
1000
AcadProxyRoundTripData
1071
      505
1071
   655383
1070
     0
  0
ACAD_PROXY_OBJECT
  5
1C0C
102
{ACAD_REACTORS
330
1C0B
102
}
330
1C0B
100
AcDbProxyObject
 90
      499
 91
      510
 93
      396
310
41519B185D00240901404333333333333E3BF0000000000000F9010740A41107004050150841D405064090741402480A1B55
 94
        0
1001
ACAD
1000
AcDbSavedByObjectVersion
1070
     0
1000
AcadProxyRoundTripData
1071
      505
1071
   655383
1070
     0
  0
ACAD_PROXY_OBJECT
  5
1C0D
102
{ACAD_REACTORS
330
1C0B
102
}
330
1C0B
100
AcDbProxyObject
 90
      499
 91
      510
 93
      484
310
43919B185D15DA5D1A115919D95CC010140901404333333333333E3BF0000000000000F9010740901411070040501600405405064090741402480A1B50
 94
        0
1001
ACAD
1000
AcDbSavedByObjectVersion
1070
     0
1000
AcadProxyRoundTripData
1071
      505
1071
   655383
1070
     0
  0
ACAD_PROXY_OBJECT
  5
1C0E
102
{ACAD_REACTORS
330
1C0B
102
}
330
1C0B
100
AcDbProxyObject
 90
      499
 91
      510
 93
      420
310
4211DBDD5C985D590010240902404333333333333E3BF0000000000000F9010740A411070040501641D405064090741402480A1B50
 94
        0
1001
ACAD
1000
AcDbSavedByObjectVersion
1070
     0
1000
AcadProxyRoundTripData
1071
      505
1071
   655383
1070
     0
  0
ACAD_PROXY_OBJECT
  5
1C0F
102
{ACAD_REACTORS
330
1C0B
102
}
330
1C0B
100
AcDbProxyObject
 90
      499
 91
      510
 93
      508
310
4451DBDD5C985D5915DA5D1A115919D95CC010340902404333333333333E3BF0000000000000F9010740901411070040501600405405064090741402480A1B50
 94
        0
1001
ACAD
1000
AcDbSavedByObjectVersion
1070
     0
1000
AcadProxyRoundTripData
1071
      505
1071
   655383
1070
     0
  0
ACAD_PROXY_OBJECT
  5
1C19
102
{ACAD_REACTORS
330
1C0B
102
}
330
1C0B
100
AcDbProxyObject
 90
      499
 91
      510
 93
      452
310
43131A5B995C185D1D195C9B8010E409028333333333333E3BF0000000000000FB010790141107004050750841D405064090741402483A0350
 94
        0
1001
ACAD
1000
AcDbSavedByObjectVersion
1070
     0
1000
AcadProxyRoundTripData
1071
      505
1071
   655383
1070
     0
  0
ACAD_PROXY_OBJECT
  5
1C15
102
{ACAD_REACTORS
330
1C0B
102
}
330
1C0B
100
AcDbProxyObject
 90
      499
 91
      510
 93
      428
310
429499585B1A5CDD1A58C0108409028333333333333E3BF0000000000000FB01079019070040501508421405064090741402480A1B45
 94
        0
1001
ACAD
1000
AcDbSavedByObjectVersion
1070
     0
1000
AcadProxyRoundTripData
1071
      505
1071
   655383
1070
     0
  0
ACAD_PROXY_OBJECT
  5
1C18
102
{ACAD_REACTORS
330
1C0B
102
}
330
1C0B
100
AcDbProxyObject
 90
      499
 91
      510
 93
      420
310
42151A1A58DAD95B8010D409028333333333333E3BF0000000000000FB010790141107004050150C41D405064090741402480A0352
 94
        0
1001
ACAD
1000
AcDbSavedByObjectVersion
1070
     0
1000
AcadProxyRoundTripData
1071
      505
1071
   655383
1070
     0
  0
XRECORD
  5
3775
102
{ACAD_REACTORS
330
376B
102
}
330
376B
100
AcDbXrecord
 90
        0
  0
XRECORD
  5
3779
102
{ACAD_REACTORS
330
376B
102
}
330
376B
100
AcDbXrecord
1000
DSTYLE
1002
{
1070
   179
 70
     2
1070
   277
 70
     6
1002
}
  0
XRECORD
  5
3776
102
{ACAD_REACTORS
330
376B
102
}
330
376B
100
AcDbXrecord
  1
{6385560B-F4B1-4644-A7C2-A3E32AC3D232}
  0
XRECORD
  5
376E
102
{ACAD_REACTORS
330
376B
102
}
330
376B
100
AcDbXrecord
  1

  0
XRECORD
  5
3774
102
{ACAD_REACTORS
330
376B
102
}
330
376B
100
AcDbXrecord
 90
        0
  0
XRECORD
  5
3770
102
{ACAD_REACTORS
330
376B
102
}
330
376B
100
AcDbXrecord
340
61
  0
XRECORD
  5
3773
102
{ACAD_REACTORS
330
376B
102
}
330
376B
100
AcDbXrecord
 90
    10781
  0
XRECORD
  5
3771
102
{ACAD_REACTORS
330
376B
102
}
330
376B
100
AcDbXrecord
340
77
  0
XRECORD
  5
3772
102
{ACAD_REACTORS
330
376B
102
}
330
376B
100
AcDbXrecord
340
6
  0
XRECORD
  5
3778
102
{ACAD_REACTORS
330
376B
102
}
330
376B
100
AcDbXrecord
 40
0.0
  0
XRECORD
  5
377C
102
{ACAD_REACTORS
330
376B
102
}
330
376B
100
AcDbXrecord
340
0
  0
XRECORD
  5
3782
102
{ACAD_REACTORS
330
376B
102
}
330
376B
100
AcDbXrecord
 10
0.0
 20
0.0
 30
0.0
  0
XRECORD
  5
377E
102
{ACAD_REACTORS
330
376B
102
}
330
376B
100
AcDbXrecord
 10
0.0
 20
0.0
 30
0.0
  0
XRECORD
  5
3781
102
{ACAD_REACTORS
330
376B
102
}
330
376B
100
AcDbXrecord
 10
0.0
 20
0.0
 30
0.0
  0
XRECORD
  5
377F
102
{ACAD_REACTORS
330
376B
102
}
330
376B
100
AcDbXrecord
 10
0.0
 20
0.0
 30
0.0
  0
XRECORD
  5
3780
102
{ACAD_REACTORS
330
376B
102
}
330
376B
100
AcDbXrecord
 10
0.0
 20
0.0
 30
0.0
  0
XRECORD
  5
377D
102
{ACAD_REACTORS
330
376B
102
}
330
376B
100
AcDbXrecord
 10
0.0
 20
0.0
 30
0.0
  0
XRECORD
  5
377A
102
{ACAD_REACTORS
330
376B
102
}
330
376B
100
AcDbXrecord
340
0
  0
XRECORD
  5
377B
102
{ACAD_REACTORS
330
376B
102
}
330
376B
100
AcDbXrecord
 70
     0
  0
XRECORD
  5
376F
102
{ACAD_REACTORS
330
376B
102
}
330
376B
100
AcDbXrecord
  1
Sekkei.ctb
  0
XRECORD
  5
376C
102
{ACAD_REACTORS
330
376B
102
}
330
376B
100
AcDbXrecord
 90
        1
  0
XRECORD
  5
376D
102
{ACAD_REACTORS
330
376B
102
}
330
376B
100
AcDbXrecord
 90
       70
  0
XRECORD
  5
3785
102
{ACAD_REACTORS
330
376B
102
}
330
376B
100
AcDbXrecord
340
0
  0
XRECORD
  5
378B
102
{ACAD_REACTORS
330
376B
102
}
330
376B
100
AcDbXrecord
 10
0.0
 20
0.0
 30
0.0
  0
XRECORD
  5
3787
102
{ACAD_REACTORS
330
376B
102
}
330
376B
100
AcDbXrecord
 10
0.0
 20
0.0
 30
0.0
  0
XRECORD
  5
378A
102
{ACAD_REACTORS
330
376B
102
}
330
376B
100
AcDbXrecord
 10
0.0
 20
0.0
 30
0.0
  0
XRECORD
  5
3788
102
{ACAD_REACTORS
330
376B
102
}
330
376B
100
AcDbXrecord
 10
0.0
 20
0.0
 30
0.0
  0
XRECORD
  5
3789
102
{ACAD_REACTORS
330
376B
102
}
330
376B
100
AcDbXrecord
 10
0.0
 20
0.0
 30
0.0
  0
XRECORD
  5
3786
102
{ACAD_REACTORS
330
376B
102
}
330
376B
100
AcDbXrecord
 10
0.0
 20
0.0
 30
0.0
  0
XRECORD
  5
3783
102
{ACAD_REACTORS
330
376B
102
}
330
376B
100
AcDbXrecord
340
0
  0
XRECORD
  5
3784
102
{ACAD_REACTORS
330
376B
102
}
330
376B
100
AcDbXrecord
 70
     0
  0
XRECORD
  5
3777
102
{ACAD_REACTORS
330
376B
102
}
330
376B
100
AcDbXrecord
  1
{A2AB6890-42C5-4057-8683-27C8DC574890}
  0
DICTIONARYVAR
  5
1C82
102
{ACAD_REACTORS
330
102
102
}
330
102
100
DictionaryVariables
280
     0
  1
1:1
  0
DICTIONARYVAR
  5
1C81
102
{ACAD_REACTORS
330
102
102
}
330
102
100
DictionaryVariables
280
     0
  1
STANDARD
  0
DICTIONARYVAR
  5
1C80
102
{ACAD_REACTORS
330
102
102
}
330
102
100
DictionaryVariables
280
     0
  1
STANDARD
  0
DICTIONARYVAR
  5
103
102
{ACAD_REACTORS
330
102
102
}
330
102
100
DictionaryVariables
280
     0
  1
1
  0
DICTIONARYVAR
  5
1C83
102
{ACAD_REACTORS
330
102
102
}
330
102
100
DictionaryVariables
280
     0
  1
0
  0
DICTIONARYVAR
  5
549
102
{ACAD_REACTORS
330
102
102
}
330
102
100
DictionaryVariables
280
     0
  1
96
  0
DICTIONARY
  5
1BFC
330
1BFB
100
AcDbDictionary
280
     1
  3
ACAD_XREC_ROUNDTRIP
360
3747
  3
BUMPTILE
360
1BFE
  3
DIFFUSETILE
360
1BFD
  3
OPACITYTILE
360
1C01
  3
REFLECTIONTILE
360
1C00
  3
REFRACTIONTILE
360
1C02
  3
SPECULARTILE
360
1BFF
  0
DICTIONARY
  5
1BF4
330
1BF3
100
AcDbDictionary
280
     1
  3
ACAD_XREC_ROUNDTRIP
360
3746
  3
BUMPTILE
360
1BF6
  3
DIFFUSETILE
360
1BF5
  3
OPACITYTILE
360
1BF9
  3
REFLECTIONTILE
360
1BF8
  3
REFRACTIONTILE
360
1BFA
  3
SPECULARTILE
360
1BF7
  0
DICTIONARY
  5
1C04
330
1C03
100
AcDbDictionary
280
     1
  3
ACAD_XREC_ROUNDTRIP
360
3748
  3
BUMPTILE
360
1C06
  3
DIFFUSETILE
360
1C05
  3
OPACITYTILE
360
1C09
  3
REFLECTIONTILE
360
1C08
  3
REFRACTIONTILE
360
1C0A
  3
SPECULARTILE
360
1C07
  0
DICTIONARY
  5
1C5E
330
1C1E
100
AcDbDictionary
280
     1
  3
ACAD_ROUNDTRIP_2008_TABLES
360
3734
  3
ACAD_XREC_ROUNDTRIP
360
3749
  0
XRECORD
  5
3747
102
{ACAD_REACTORS
330
1BFC
102
}
330
1BFC
100
AcDbXrecord
102
MATERIAL
148
0.0
149
0.0
149
0.0
 93
        0
 94
      127
282
     0
 72
     0
 77
     0
171
     0
175
     0
179
     0
273
     0
  0
XRECORD
  5
1BFE
102
{ACAD_REACTORS
330
1BFC
102
}
330
1BFC
100
AcDbXrecord
270
     1
271
     1
  0
XRECORD
  5
1BFD
102
{ACAD_REACTORS
330
1BFC
102
}
330
1BFC
100
AcDbXrecord
270
     1
271
     1
  0
XRECORD
  5
1C01
102
{ACAD_REACTORS
330
1BFC
102
}
330
1BFC
100
AcDbXrecord
270
     1
271
     1
  0
XRECORD
  5
1C00
102
{ACAD_REACTORS
330
1BFC
102
}
330
1BFC
100
AcDbXrecord
270
     1
271
     1
  0
XRECORD
  5
1C02
102
{ACAD_REACTORS
330
1BFC
102
}
330
1BFC
100
AcDbXrecord
270
     1
271
     1
  0
XRECORD
  5
1BFF
102
{ACAD_REACTORS
330
1BFC
102
}
330
1BFC
100
AcDbXrecord
270
     1
271
     1
  0
XRECORD
  5
3746
102
{ACAD_REACTORS
330
1BF4
102
}
330
1BF4
100
AcDbXrecord
102
MATERIAL
148
0.0
149
0.0
149
0.0
 93
        0
 94
      127
282
     0
 72
     0
 77
     0
171
     0
175
     0
179
     0
273
     0
  0
XRECORD
  5
1BF6
102
{ACAD_REACTORS
330
1BF4
102
}
330
1BF4
100
AcDbXrecord
270
     1
271
     1
  0
XRECORD
  5
1BF5
102
{ACAD_REACTORS
330
1BF4
102
}
330
1BF4
100
AcDbXrecord
270
     1
271
     1
  0
XRECORD
  5
1BF9
102
{ACAD_REACTORS
330
1BF4
102
}
330
1BF4
100
AcDbXrecord
270
     1
271
     1
  0
XRECORD
  5
1BF8
102
{ACAD_REACTORS
330
1BF4
102
}
330
1BF4
100
AcDbXrecord
270
     1
271
     1
  0
XRECORD
  5
1BFA
102
{ACAD_REACTORS
330
1BF4
102
}
330
1BF4
100
AcDbXrecord
270
     1
271
     1
  0
XRECORD
  5
1BF7
102
{ACAD_REACTORS
330
1BF4
102
}
330
1BF4
100
AcDbXrecord
270
     1
271
     1
  0
XRECORD
  5
3748
102
{ACAD_REACTORS
330
1C04
102
}
330
1C04
100
AcDbXrecord
102
MATERIAL
148
0.0
149
0.0
149
0.0
 93
        0
 94
      127
282
     0
 72
     0
 77
     0
171
     0
175
     0
179
     0
273
     0
  0
XRECORD
  5
1C06
102
{ACAD_REACTORS
330
1C04
102
}
330
1C04
100
AcDbXrecord
270
     1
271
     1
  0
XRECORD
  5
1C05
102
{ACAD_REACTORS
330
1C04
102
}
330
1C04
100
AcDbXrecord
270
     1
271
     1
  0
XRECORD
  5
1C09
102
{ACAD_REACTORS
330
1C04
102
}
330
1C04
100
AcDbXrecord
270
     1
271
     1
  0
XRECORD
  5
1C08
102
{ACAD_REACTORS
330
1C04
102
}
330
1C04
100
AcDbXrecord
270
     1
271
     1
  0
XRECORD
  5
1C0A
102
{ACAD_REACTORS
330
1C04
102
}
330
1C04
100
AcDbXrecord
270
     1
271
     1
  0
XRECORD
  5
1C07
102
{ACAD_REACTORS
330
1C04
102
}
330
1C04
100
AcDbXrecord
270
     1
271
     1
  0
ACAD_PROXY_OBJECT
  5
3734
102
{ACAD_REACTORS
330
1C5E
102
}
330
1C5E
100
AcDbProxyObject
 90
      499
 91
      510
 93
     5304
310
40D054060020000020000003200101A000080002A5058000000C100000000000000340FD012E07A17AD46E2B8FCB81E85EB51B8AE3F2E07A17AD46E2B8FCB81E85EB51B8AE3F02B5E8DC0F42B1CFC0AD7A3703D0AC73F419019018000000C1003FBFFFFFE02B5E8DC0F42A9CFD029018000000C1003FBFFFFFE02B5E8DC0F4
310
2A9CFD049018000000C1003FBFFFFFE02B5E8DC0F42A9CFD089018000000C1003FBFFFFFE02B5E8DC0F42A9CFD109018000000C1003FBFFFFFE02B5E8DC0F42A9CFD209018000000C1003FBFFFFFE02B5E8DC0F42A9CFD01405075F5449544C450041501A8000000C800406800020000A9416000000304000AD7A3703D0AC7
310
3F404B81E85EB51B8AE3F2E07A17AD46E2B8FCB81E85EB51B8AE3F2E07A17AD46E2B8FC0AD7A3703D0AC73F02B5E8DC0F42B1CFD0640640600000030400FEFFFFFF80AD7A3703D0AA73F40A40600000030400FEFFFFFF80AD7A3703D0AA73F41240600000030400FEFFFFFF80AD7A3703D0AA73F42240600000030400FEFFF
310
FFF80AD7A3703D0AA73F44240600000030400FEFFFFFF80AD7A3703D0AA73F48240600000030400FEFFFFFF80AD7A3703D0AA73F409014217D2115051115480105406A0000003200101A000080002A5028000000C10002B5E8DC0F42B1CFD012E07A17AD46E2B8FCB81E85EB51B8AE3F2E07A17AD46E2B8FCB81E85EB51B8A
310
E3F02B5E8DC0F42B1CFC0AD7A3703D0AC73F419019018000000C1003FBFFFFFE02B5E8DC0F42A9CFD029018000000C1003FBFFFFFE02B5E8DC0F42A9CFD049018000000C1003FBFFFFFE02B5E8DC0F42A9CFD089018000000C1003FBFFFFFE02B5E8DC0F42A9CFD109018000000C1003FBFFFFFE02B5E8DC0F42A9CFD20901
310
8000000C1003FBFFFFFE02B5E8DC0F42A9CFD03409065F444154410000
340
16
340
0
340
0
340
0
340
0
340
0
340
0
340
16
340
0
340
0
340
0
340
0
340
0
340
0
340
16
340
0
340
0
340
0
340
0
340
0
340
0
 94
        0
1001
ACAD
1000
AcadProxyRoundTripData
1071
      509
1071
   655383
1070
     0
  0
XRECORD
  5
3749
102
{ACAD_REACTORS
330
1C5E
102
}
330
1C5E
100
AcDbXrecord
102
ACAD_ROUNDTRIP_PRE2007_TABLESTYLE
 90
      512
 91
        0
  1

 92
      512
 93
        0
  2

 94
      512
 95
        0
  3

  0
ENDSEC
  0
EOF
