  0
SECTION
  2
HEADER
  9
$ACADVER
  1
AC1014
  9
$ACADMAINTVER
 70
     9
  9
$DWGCODEPAGE
  3
ANSI_932
  9
$INSBASE
 10
0.0
 20
0.0
 30
0.0
  9
$EXTMIN
 10
56.93540353574326
 20
79.97742630183137
 30
0.0
  9
$EXTMAX
 10
998.2762643935513
 20
458.6794976649593
 30
0.0
  9
$LIMMIN
 10
0.0
 20
0.0
  9
$LIMMAX
 10
297.0
 20
210.0
  9
$ORTHOMODE
 70
     1
  9
$REGENMODE
 70
     1
  9
$FILLMODE
 70
     1
  9
$QTEXTMODE
 70
     0
  9
$MIRRTEXT
 70
     0
  9
$DRAGMODE
 70
     2
  9
$LTSCALE
 40
3.0
  9
$OSMODE
 70
    37
  9
$ATTMODE
 70
     1
  9
$TEXTSIZE
 40
2.0
  9
$TRACEWID
 40
1.0
  9
$TEXTSTYLE
  7
STANDARD
  9
$CLAYER
  8
0
  9
$CELTYPE
  6
BYLAYER
  9
$CECOLOR
 62
   256
  9
$CELTSCALE
 40
1.0
  9
$DELOBJ
 70
     1
  9
$DISPSILH
 70
     0
  9
$DIMSCALE
 40
3.0
  9
$DIMASZ
 40
1.8
  9
$DIMEXO
 40
0.625
  9
$DIMDLI
 40
3.75
  9
$DIMRND
 40
0.0
  9
$DIMDLE
 40
0.0
  9
$DIMEXE
 40
0.8
  9
$DIMTP
 40
0.0
  9
$DIMTM
 40
0.0
  9
$DIMTXT
 40
1.8
  9
$DIMCEN
 40
2.5
  9
$DIMTSZ
 40
0.0
  9
$DIMTOL
 70
     0
  9
$DIMLIM
 70
     0
  9
$DIMTIH
 70
     0
  9
$DIMTOH
 70
     0
  9
$DIMSE1
 70
     0
  9
$DIMSE2
 70
     0
  9
$DIMTAD
 70
     1
  9
$DIMZIN
 70
     8
  9
$DIMBLK
  1

  9
$DIMASO
 70
     1
  9
$DIMSHO
 70
     1
  9
$DIMPOST
  1

  9
$DIMAPOST
  1

  9
$DIMALT
 70
     0
  9
$DIMALTD
 70
     4
  9
$DIMALTF
 40
0.0394
  9
$DIMLFAC
 40
1.0
  9
$DIMTOFL
 70
     1
  9
$DIMTVP
 40
0.0
  9
$DIMTIX
 70
     0
  9
$DIMSOXD
 70
     0
  9
$DIMSAH
 70
     0
  9
$DIMBLK1
  1

  9
$DIMBLK2
  1

  9
$DIMSTYLE
  2
STANDARD
  9
$DIMCLRD
 70
     0
  9
$DIMCLRE
 70
     0
  9
$DIMCLRT
 70
     0
  9
$DIMTFAC
 40
1.0
  9
$DIMGAP
 40
0.75
  9
$DIMJUST
 70
     0
  9
$DIMSD1
 70
     0
  9
$DIMSD2
 70
     0
  9
$DIMTOLJ
 70
     1
  9
$DIMTZIN
 70
     0
  9
$DIMALTZ
 70
     0
  9
$DIMALTTZ
 70
     0
  9
$DIMFIT
 70
     3
  9
$DIMUPT
 70
     0
  9
$DIMUNIT
 70
     8
  9
$DIMDEC
 70
     2
  9
$DIMTDEC
 70
     2
  9
$DIMALTU
 70
     8
  9
$DIMALTTD
 70
     4
  9
$DIMTXSTY
  7
STANDARD
  9
$DIMAUNIT
 70
     0
  9
$LUNITS
 70
     2
  9
$LUPREC
 70
     3
  9
$SKETCHINC
 40
1.0
  9
$FILLETRAD
 40
2.0
  9
$AUNITS
 70
     0
  9
$AUPREC
 70
     2
  9
$MENU
  1
.
  9
$ELEVATION
 40
0.0
  9
$PELEVATION
 40
0.0
  9
$THICKNESS
 40
0.0
  9
$LIMCHECK
 70
     0
  9
$BLIPMODE
 70
     0
  9
$CHAMFERA
 40
0.0
  9
$CHAMFERB
 40
0.0
  9
$CHAMFERC
 40
20.0
  9
$CHAMFERD
 40
0.0
  9
$SKPOLY
 70
     0
  9
$TDCREATE
 40
2454411.541237881
  9
$TDUPDATE
 40
2454426.372658228
  9
$TDINDWG
 40
0.0508799653
  9
$TDUSRTIMER
 40
0.0508799653
  9
$USRTIMER
 70
     1
  9
$ANGBASE
 50
0.0
  9
$ANGDIR
 70
     0
  9
$PDMODE
 70
     0
  9
$PDSIZE
 40
-10.0
  9
$PLINEWID
 40
0.0
  9
$COORDS
 70
     0
  9
$SPLFRAME
 70
     0
  9
$SPLINETYPE
 70
     6
  9
$SPLINESEGS
 70
     8
  9
$ATTDIA
 70
     0
  9
$ATTREQ
 70
     1
  9
$HANDLING
 70
-16383
  9
$HANDSEED
  5
2CBD
  9
$SURFTAB1
 70
     6
  9
$SURFTAB2
 70
     6
  9
$SURFTYPE
 70
     6
  9
$SURFU
 70
     6
  9
$SURFV
 70
     6
  9
$UCSNAME
  2

  9
$UCSORG
 10
0.0
 20
0.0
 30
0.0
  9
$UCSXDIR
 10
1.0
 20
0.0
 30
0.0
  9
$UCSYDIR
 10
0.0
 20
1.0
 30
0.0
  9
$PUCSNAME
  2

  9
$PUCSORG
 10
0.0
 20
0.0
 30
0.0
  9
$PUCSXDIR
 10
1.0
 20
0.0
 30
0.0
  9
$PUCSYDIR
 10
0.0
 20
1.0
 30
0.0
  9
$USERI1
 70
     0
  9
$USERI2
 70
     0
  9
$USERI3
 70
     0
  9
$USERI4
 70
     0
  9
$USERI5
 70
     0
  9
$USERR1
 40
0.0
  9
$USERR2
 40
0.0
  9
$USERR3
 40
0.0
  9
$USERR4
 40
0.0
  9
$USERR5
 40
0.0
  9
$WORLDVIEW
 70
     1
  9
$SHADEDGE
 70
     3
  9
$SHADEDIF
 70
    70
  9
$TILEMODE
 70
     1
  9
$MAXACTVP
 70
    48
  9
$PINSBASE
 10
0.0
 20
0.0
 30
0.0
  9
$PLIMCHECK
 70
     0
  9
$PEXTMIN
 10
0.0
 20
0.0
 30
0.0
  9
$PEXTMAX
 10
0.0
 20
0.0
 30
0.0
  9
$PLIMMIN
 10
0.0
 20
0.0
  9
$PLIMMAX
 10
12.0
 20
9.0
  9
$UNITMODE
 70
     0
  9
$VISRETAIN
 70
     1
  9
$PLINEGEN
 70
     0
  9
$PSLTSCALE
 70
     1
  9
$TREEDEPTH
 70
  3020
  9
$PICKSTYLE
 70
     1
  9
$CMLSTYLE
  2
STANDARD
  9
$CMLJUST
 70
     0
  9
$CMLSCALE
 40
1.0
  9
$PROXYGRAPHICS
 70
     1
  9
$MEASUREMENT
 70
     0
  0
ENDSEC
  0
SECTION
  2
CLASSES
  0
CLASS
  1
DICTIONARYVAR
  2
AcDbDictionaryVar
  3
AutoCAD 2000
 90
        0
280
     0
281
     0
  0
CLASS
  1
ACDBDICTIONARYWDFLT
  2
AcDbDictionaryWithDefault
  3
AutoCAD 2000
 90
        0
280
     0
281
     0
  0
CLASS
  1
ACDBPLACEHOLDER
  2
AcDbPlaceHolder
  3
AutoCAD 2000
 90
        0
280
     0
281
     0
  0
CLASS
  1
LAYOUT
  2
AcDbLayout
  3
AutoCAD 2000
 90
        0
280
     0
281
     0
  0
CLASS
  1
MATERIAL
  2
AcDbMaterial
  3
ObjectDBX Classes
 90
     1153
280
     0
281
     0
  0
CLASS
  1
VISUALSTYLE
  2
AcDbVisualStyle
  3
ObjectDBX Classes
 90
     4095
280
     0
281
     0
  0
CLASS
  1
TABLESTYLE
  2
AcDbTableStyle
  3
ObjectDBX Classes
 90
     4095
280
     0
281
     0
  0
CLASS
  1
SCALE
  2
AcDbScale
  3
ObjectDBX Classes
 90
     1153
280
     0
281
     0
  0
CLASS
  1
MLEADERSTYLE
  2
AcDbMLeaderStyle
  3
ACDB_MLEADERSTYLE_CLASS
 90
     4095
280
     0
281
     0
  0
CLASS
  1
CELLSTYLEMAP
  2
AcDbCellStyleMap
  3
ObjectDBX Classes
 90
     1152
280
     0
281
     0
  0
CLASS
  1
ACAD_PROXY_OBJECT_WRAPPER
  2
AcDbProxyObjectWrapper
  3
AutoCAD 2000
 90
        0
280
     0
281
     0
  0
CLASS
  1
LONG_TRANSACTION
  2
AcDbLongTransaction
  3
AutoCAD 2000
 90
        0
280
     0
281
     0
  0
CLASS
  1
LWPOLYLINE
  2
AcDbPolyline
  3
AutoCAD 2000
 90
        0
280
     0
281
     1
  0
CLASS
  1
HATCH
  2
AcDbHatch
  3
AutoCAD 2000
 90
        0
280
     0
281
     1
  0
CLASS
  1
XRECORD
  2
AcDbXrecord
  3
AutoCAD 2000
 90
        0
280
     0
281
     0
  0
ENDSEC
  0
SECTION
  2
TABLES
  0
TABLE
  2
VPORT
  5
6E
102
{ACAD_XDICTIONARY
360
1AE8
102
}
330
0
100
AcDbSymbolTable
 70
     2
  0
VPORT
  5
2C97
330
6E
100
AcDbSymbolTableRecord
100
AcDbViewportTableRecord
  2
*ACTIVE
 70
     0
 10
0.0
 20
0.0
 11
1.0
 21
1.0
 12
590.9637549498669
 22
260.1913454056399
 13
0.0
 23
0.0
 14
10.0
 24
10.0
 15
10.0
 25
10.0
 16
0.0
 26
0.0
 36
1.0
 17
0.0
 27
0.0
 37
0.0
 40
611.8834697231443
 41
1.753504672897196
 42
50.0
 43
0.0
 44
0.0
 50
0.0
 51
0.0
 71
     0
 72
   100
 73
     1
 74
     3
 75
     0
 76
     0
 77
     0
 78
     0
  0
ENDTAB
  0
TABLE
  2
LTYPE
  5
69
330
0
100
AcDbSymbolTable
 70
     5
  0
LTYPE
  5
6A
330
69
100
AcDbSymbolTableRecord
100
AcDbLinetypeTableRecord
  2
BYBLOCK
 70
     0
  3

 72
    65
 73
     0
 40
0.0
  0
LTYPE
  5
6B
330
69
100
AcDbSymbolTableRecord
100
AcDbLinetypeTableRecord
  2
BYLAYER
 70
     0
  3

 72
    65
 73
     0
 40
0.0
  0
LTYPE
  5
8
330
69
100
AcDbSymbolTableRecord
100
AcDbLinetypeTableRecord
  2
CONTINUOUS
 70
     0
  3
Solid line
 72
    65
 73
     0
 40
0.0
  0
LTYPE
  5
27C
330
69
100
AcDbSymbolTableRecord
100
AcDbLinetypeTableRecord
  2
SEKKEI_A2_
 70
     0
  3
center(A2)  ____ _ ____ _ ____ _ ____ _ ____ _ 
 72
    65
 73
     4
 40
14.28749999999999
 49
9.525
 74
     0
 49
-1.587499999999999
 74
     0
 49
1.587499999999999
 74
     0
 49
-1.587499999999999
 74
     0
  0
LTYPE
  5
7F0
330
69
100
AcDbSymbolTableRecord
100
AcDbLinetypeTableRecord
  2
HIDDEN3
 70
     0
  3
Hidden (.3x) _ _ _ _ _ _ _ _ _ _ _ _ _ _ _ _ _
 72
    65
 73
     2
 40
2.857499999999999
 49
1.905
 74
     0
 49
-0.9525
 74
     0
  0
LTYPE
  5
B0F
330
69
100
AcDbSymbolTableRecord
100
AcDbLinetypeTableRecord
  2
CENS
 70
     0
  3
(一点鎖線１)---- - ---- - ---- - ---- - ---- - 
 72
    65
 73
     4
 40
7.0
 49
4.0
 74
     0
 49
-1.0
 74
     0
 49
1.0
 74
     0
 49
-1.0
 74
     0
  0
ENDTAB
  0
TABLE
  2
LAYER
  5
66
102
{ACAD_XDICTIONARY
360
B10
102
}
330
0
100
AcDbSymbolTable
 70
     9
  0
LAYER
  5
5E
102
{ACAD_XDICTIONARY
360
1A8C
102
}
330
66
100
AcDbSymbolTableRecord
100
AcDbLayerTableRecord
  2
0
 70
     0
 62
     7
  6
CONTINUOUS
  0
LAYER
  5
3E
102
{ACAD_XDICTIONARY
360
1A8E
102
}
330
66
100
AcDbSymbolTableRecord
100
AcDbLayerTableRecord
  2
CENTER
 70
     0
 62
     3
  6
SEKKEI_A2_
  0
LAYER
  5
2B5
102
{ACAD_XDICTIONARY
360
1A94
102
}
330
66
100
AcDbSymbolTableRecord
100
AcDbLayerTableRecord
  2
HIDS
 70
     0
 62
     1
  6
HIDDEN3
  0
LAYER
  5
2BA
102
{ACAD_XDICTIONARY
360
1A96
102
}
330
66
100
AcDbSymbolTableRecord
100
AcDbLayerTableRecord
  2
HOJO
 70
     0
 62
     4
  6
CONTINUOUS
  0
LAYER
  5
2C59
102
{ACAD_XDICTIONARY
360
2C5A
102
}
330
66
100
AcDbSymbolTableRecord
100
AcDbLayerTableRecord
  2
TITLE
 70
     0
 62
     4
  6
CONTINUOUS
  0
ENDTAB
  0
TABLE
  2
STYLE
  5
67
330
0
100
AcDbSymbolTable
 70
     2
  0
STYLE
  5
16
330
67
100
AcDbSymbolTableRecord
100
AcDbTextStyleTableRecord
  2
STANDARD
 70
     0
 40
0.0
 41
1.0
 50
0.0
 71
     0
 42
2.0
  3
simplex.shx
  4
extfont.shx
  0
ENDTAB
  0
TABLE
  2
VIEW
  5
6C
330
0
100
AcDbSymbolTable
 70
     0
  0
ENDTAB
  0
TABLE
  2
UCS
  5
6D
330
0
100
AcDbSymbolTable
 70
     0
  0
ENDTAB
  0
TABLE
  2
APPID
  5
70
330
0
100
AcDbSymbolTable
 70
     3
  0
APPID
  5
71
330
70
100
AcDbSymbolTableRecord
100
AcDbRegAppTableRecord
  2
ACAD
 70
     0
  0
APPID
  5
1A80
330
70
100
AcDbSymbolTableRecord
100
AcDbRegAppTableRecord
  2
ACAD_MLEADERVER
 70
     0
  0
APPID
  5
1B84
330
70
100
AcDbSymbolTableRecord
100
AcDbRegAppTableRecord
  2
ACAD_DSTYLE_DIMRADIAL_EXTENSION
 70
     0
  0
ENDTAB
  0
TABLE
  2
DIMSTYLE
  5
72
330
0
100
AcDbSymbolTable
 70
     1
  0
DIMSTYLE
105
73
330
72
100
AcDbSymbolTableRecord
100
AcDbDimStyleTableRecord
  2
STANDARD
 70
     0
  3

  4

  5

  6

  7

 40
3.0
 41
1.8
 42
0.625
 43
3.75
 44
0.8
 45
0.0
 46
0.0
 47
0.0
 48
0.0
140
1.8
141
2.5
142
0.0
143
0.0394
144
1.0
145
0.0
146
1.0
147
0.75
 71
     0
 72
     0
 73
     0
 74
     0
 75
     0
 76
     0
 77
     1
 78
     8
170
     0
171
     4
172
     1
173
     0
174
     0
175
     0
176
     0
177
     0
178
     0
270
     8
271
     2
272
     2
273
     8
274
     4
340
16
275
     0
280
     0
281
     0
282
     0
283
     1
284
     0
285
     0
286
     0
287
     3
288
     0
  0
ENDTAB
  0
TABLE
  2
BLOCK_RECORD
  5
1
330
0
100
AcDbSymbolTable
 70
    47
  0
BLOCK_RECORD
  5
2
102
{ACAD_XDICTIONARY
360
2CB9
102
}
330
1
100
AcDbSymbolTableRecord
100
AcDbBlockTableRecord
  2
*MODEL_SPACE
  0
BLOCK_RECORD
  5
2C92
102
{ACAD_XDICTIONARY
360
2CBB
102
}
330
1
100
AcDbSymbolTableRecord
100
AcDbBlockTableRecord
  2
*PAPER_SPACE
  0
ENDTAB
  0
ENDSEC
  0
SECTION
  2
BLOCKS
  0
BLOCK
  5
5D
330
2
100
AcDbEntity
  8
0
100
AcDbBlockBegin
  2
*MODEL_SPACE
 70
     0
 10
0.0
 20
0.0
 30
0.0
  3
*MODEL_SPACE
  1

  0
ENDBLK
  5
5F
330
2
100
AcDbEntity
  8
0
100
AcDbBlockEnd
  0
BLOCK
  5
2C94
330
2C92
100
AcDbEntity
 67
     1
  8
0
100
AcDbBlockBegin
  2
*PAPER_SPACE
 70
     0
 10
0.0
 20
0.0
 30
0.0
  3
*PAPER_SPACE
  1

  0
ENDBLK
  5
2C95
330
2C92
100
AcDbEntity
 67
     1
  8
0
100
AcDbBlockEnd
  0
ENDSEC
  0
SECTION
  2
ENTITIES
  0
TEXT
  5
FBF
330
2
100
AcDbEntity
  8
TITLE
100
AcDbText
 10
333.8435490445519
 20
403.4641292635771
 30
0.0
 40
7.5
  1
AFCZ15L-10~30M100S3
100
AcDbText
  0
TEXT
  5
FC0
330
2
100
AcDbEntity
  8
TITLE
100
AcDbText
 10
333.8435490445519
 20
392.2141292635771
 30
0.0
 40
7.5
  1
AFCZ15L-10~30L100S3
100
AcDbText
  0
LINE
  5
FC2
330
2
100
AcDbEntity
  8
0
100
AcDbLine
 10
969.2762643936038
 20
169.97742630183
 30
0.0
 11
969.2762643936035
 21
162.0667120161271
 31
0.0
  0
LINE
  5
FC3
330
2
100
AcDbEntity
  8
CENTER
100
AcDbLine
 10
946.276264393604
 20
179.7767083426426
 30
0.0
 11
946.276264393604
 21
88.17814426101739
 31
0.0
  0
LINE
  5
FC4
330
2
100
AcDbEntity
  8
0
100
AcDbLine
 10
916.2762643936034
 20
169.5149023089199
 30
0.0
 11
916.2762643936016
 21
98.43995029474008
 31
0.0
  0
LINE
  5
FC5
330
2
100
AcDbEntity
  8
CENTER
100
AcDbLine
 10
856.2762643936038
 20
133.97742630183
 30
0.0
 11
998.2762643935513
 21
133.97742630183
 31
0.0
  0
LINE
  5
FC6
330
2
100
AcDbEntity
  8
0
100
AcDbLine
 10
911.2762643936038
 20
163.9774258408617
 30
0.0
 11
911.2762643936038
 21
103.9774258408617
 31
0.0
  0
LINE
  5
FC7
330
2
100
AcDbEntity
  8
0
100
AcDbLine
 10
916.2762643936039
 20
163.9774258408617
 30
0.0
 11
911.2762643936038
 21
163.9774258408617
 31
0.0
  0
LINE
  5
FC8
330
2
100
AcDbEntity
  8
0
100
AcDbLine
 10
916.2762643936039
 20
103.9774258408617
 30
0.0
 11
911.2762643936038
 21
103.9774258408617
 31
0.0
  0
LINE
  5
FC9
330
2
100
AcDbEntity
  8
0
100
AcDbLine
 10
969.2762643935997
 20
105.8881405875346
 30
0.0
 11
969.2762643935994
 21
97.97742630183002
 31
0.0
  0
LINE
  5
FCA
330
2
100
AcDbEntity
  8
0
100
AcDbLine
 10
969.2762643936038
 20
169.97742630183
 30
0.0
 11
916.2762643936034
 21
169.5149023089199
 31
0.0
  0
LINE
  5
FCB
330
2
100
AcDbEntity
  8
0
100
AcDbLine
 10
969.2762643935994
 20
97.97742630183002
 30
0.0
 11
916.2762643936016
 21
98.43995029474008
 31
0.0
  0
LINE
  5
FCC
330
2
100
AcDbEntity
  8
0
100
AcDbLine
 10
898.2762643936039
 20
156.0460482912478
 30
0.0
 11
898.276264393603
 21
111.9088033904756
 31
0.0
  0
LINE
  5
FCD
330
2
100
AcDbEntity
  8
0
100
AcDbLine
 10
909.3460633870085
 20
158.3639917398306
 30
0.0
 11
900.2064654001983
 21
158.0448299452856
 31
0.0
  0
ARC
  5
FCE
330
2
100
AcDbEntity
  8
0
100
AcDbCircle
 10
909.2762643936039
 20
160.3627733938685
 30
0.0
 40
2.0
100
AcDbArc
 50
272.0000000000036
 51
0.0
  0
ARC
  5
FCF
330
2
100
AcDbEntity
  8
0
100
AcDbCircle
 10
900.2762643936039
 20
156.0460482912478
 30
0.0
 40
2.0
100
AcDbArc
 50
92.00000000000365
 51
180.0
  0
LINE
  5
FD0
330
2
100
AcDbEntity
  8
0
100
AcDbLine
 10
909.3460633870085
 20
109.5908599418909
 30
0.0
 11
900.2064654001983
 21
109.9100217364359
 31
0.0
  0
ARC
  5
FD1
330
2
100
AcDbEntity
  8
0
100
AcDbCircle
 10
909.2762643936039
 20
107.5920782878531
 30
0.0
 40
2.0
100
AcDbArc
 50
0.0
 51
87.99999999999636
  0
ARC
  5
FD2
330
2
100
AcDbEntity
  8
0
100
AcDbCircle
 10
900.2762643936039
 20
111.9088033904756
 30
0.0
 40
2.0
100
AcDbArc
 50
180.0
 51
267.9999999999963
  0
LINE
  5
FD3
330
2
100
AcDbEntity
  8
0
100
AcDbLine
 10
946.3361983041822
 20
162.4763560534398
 30
0.0
 11
971.3298272828669
 21
162.0300412502476
 31
0.0
  0
LINE
  5
FD4
330
2
100
AcDbEntity
  8
0
100
AcDbLine
 10
918.2762643936161
 20
108.9243331514464
 30
0.0
 11
918.2762643936166
 21
159.0305194522117
 31
0.0
  0
ARC
  5
FD5
330
2
100
AcDbEntity
  8
0
100
AcDbCircle
 10
921.2762643936162
 20
159.0305194522117
 30
0.0
 40
3.0
100
AcDbArc
 50
91.02303018866145
 51
180.0
  0
LINE
  5
FD6
330
2
100
AcDbEntity
  8
0
100
AcDbLine
 10
974.2762643936162
 20
159.0305194522117
 30
0.0
 11
974.2762643936167
 21
108.9243331514718
 31
0.0
  0
ARC
  5
FD7
330
2
100
AcDbEntity
  8
0
100
AcDbCircle
 10
971.2762643936162
 20
159.0305194522117
 30
0.0
 40
3.0
100
AcDbArc
 50
0.0
 51
88.97696981131245
  0
LINE
  5
FD8
330
2
100
AcDbEntity
  8
0
100
AcDbLine
 10
921.2227015043653
 20
162.0300412502476
 30
0.0
 11
929.770490929247
 21
162.1826803471209
 31
0.0
  0
ARC
  5
FD9
330
2
100
AcDbEntity
  8
0
100
AcDbCircle
 10
971.2762643936185
 20
108.92433315145
 30
0.0
 40
3.0
100
AcDbArc
 50
271.0230301886614
 51
0.0
  0
LINE
  5
FDA
330
2
100
AcDbEntity
  8
0
100
AcDbLine
 10
946.2762643936189
 20
105.4774263018172
 30
0.0
 11
971.3298272828692
 21
105.9248113534142
 31
0.0
  0
LINE
  5
FDB
330
2
100
AcDbEntity
  8
0
100
AcDbLine
 10
921.2227015043682
 20
105.9248113534105
 30
0.0
 11
946.2762643936189
 21
105.4774263018172
 31
0.0
  0
ARC
  5
FDC
330
2
100
AcDbEntity
  8
0
100
AcDbCircle
 10
921.2762643936185
 20
108.9243331514464
 30
0.0
 40
3.0
100
AcDbArc
 50
180.0
 51
268.9769698113385
  0
LINE
  5
FDD
330
2
100
AcDbEntity
  8
0
100
AcDbLine
 10
969.2762643936038
 20
164.97742630183
 30
0.0
 11
917.2762643936035
 21
164.97742630183
 31
0.0
  0
LINE
  5
FDE
330
2
100
AcDbEntity
  8
0
100
AcDbLine
 10
969.2762643936038
 20
102.9774263018282
 30
0.0
 11
917.2762643936016
 21
102.9774263018282
 31
0.0
  0
LINE
  5
FDF
330
2
100
AcDbEntity
  8
0
100
AcDbLine
 10
969.2762643936067
 20
97.97742630183002
 30
0.0
 11
969.2762643936058
 21
105.8881405875346
 31
0.0
  0
LINE
  5
FE0
330
2
100
AcDbEntity
  8
0
100
AcDbLine
 10
969.2762643936012
 20
162.0667120161271
 30
0.0
 11
969.2762643936003
 21
169.97742630183
 31
0.0
  0
LINE
  5
FE1
330
2
100
AcDbEntity
  8
0
100
AcDbLine
 10
969.2762643936029
 20
97.97742630183002
 30
0.0
 11
969.2762643936029
 21
105.8881405875346
 31
0.0
  0
LINE
  5
FE2
330
2
100
AcDbEntity
  8
0
100
AcDbLine
 10
969.2762643936035
 20
162.0667120161271
 30
0.0
 11
969.2762643936035
 21
169.97742630183
 31
0.0
  0
LINE
  5
FE3
330
2
100
AcDbEntity
  8
0
100
AcDbLine
 10
969.2762643936035
 20
97.97742630183002
 30
0.0
 11
969.2762643936035
 21
105.8881405875346
 31
0.0
  0
LINE
  5
FE4
330
2
100
AcDbEntity
  8
0
100
AcDbLine
 10
969.2762643936035
 20
162.0667120161271
 30
0.0
 11
969.2762643936035
 21
169.97742630183
 31
0.0
  0
LINE
  5
FE5
330
2
100
AcDbEntity
  8
0
100
AcDbLine
 10
969.2762643936067
 20
169.97742630183
 30
0.0
 11
969.2762643936058
 21
162.0667120161271
 31
0.0
  0
LINE
  5
FE6
330
2
100
AcDbEntity
  8
0
100
AcDbLine
 10
969.2762643936012
 20
105.8881405875346
 30
0.0
 11
969.2762643936003
 21
97.97742630183002
 31
0.0
  0
LINE
  5
FE7
330
2
100
AcDbEntity
  8
0
100
AcDbLine
 10
979.7762643935511
 20
115.22742630183
 30
0.0
 11
979.7762643935511
 21
152.72742630183
 31
0.0
  0
LINE
  5
FE8
330
2
100
AcDbEntity
  8
0
100
AcDbLine
 10
969.2762643936035
 20
97.97742630183002
 30
0.0
 11
977.7849909290976
 21
98.05168083337248
 31
0.0
  0
LINE
  5
FE9
330
2
100
AcDbEntity
  8
0
100
AcDbLine
 10
985.9762643935509
 20
110.9774263018281
 30
0.0
 11
987.2762643935507
 21
110.9774263018281
 31
0.0
  0
LINE
  5
FEA
330
2
100
AcDbEntity
  8
0
100
AcDbLine
 10
982.0762643936523
 20
110.9774263018281
 30
0.0
 11
983.5762643935504
 21
110.9774263018281
 31
0.0
  0
LINE
  5
FEB
330
2
100
AcDbEntity
  8
0
100
AcDbLine
 10
988.2762643935512
 20
111.5547765710181
 30
0.0
 11
987.2762643935507
 21
110.9774263018281
 31
0.0
  0
LINE
  5
FEC
330
2
100
AcDbEntity
  8
0
100
AcDbLine
 10
985.9762643935509
 20
156.97742630183
 30
0.0
 11
987.2762643935512
 21
156.97742630183
 31
0.0
  0
LINE
  5
FED
330
2
100
AcDbEntity
  8
0
100
AcDbLine
 10
982.0762643936523
 20
156.97742630183
 30
0.0
 11
983.5762643935508
 21
156.97742630183
 31
0.0
  0
LINE
  5
FEE
330
2
100
AcDbEntity
  8
0
100
AcDbLine
 10
980.2762643935512
 20
115.22742630183
 30
0.0
 11
980.2762643935512
 21
152.72742630183
 31
0.0
  0
LINE
  5
FEF
330
2
100
AcDbEntity
  8
0
100
AcDbLine
 10
988.2762643935512
 20
156.40007603264
 30
0.0
 11
987.2762643935512
 21
156.97742630183
 31
0.0
  0
LINE
  5
FF0
330
2
100
AcDbEntity
  8
0
100
AcDbLine
 10
978.7762643935993
 20
99.05164275643636
 30
0.0
 11
978.7762643935993
 21
106.7274263018281
 31
0.0
  0
LINE
  5
FF1
330
2
100
AcDbEntity
  8
0
100
AcDbLine
 10
978.7762643935993
 20
161.2274263018299
 30
0.0
 11
978.7762643935993
 21
168.97742630183
 31
0.0
  0
ARC
  5
FF2
330
2
100
AcDbEntity
  8
0
100
AcDbCircle
 10
977.7762643935993
 20
99.05164275643636
 30
0.0
 40
1.0
100
AcDbArc
 50
270.4999999999915
 51
0.0
  0
LINE
  5
FF3
330
2
100
AcDbEntity
  8
0
100
AcDbLine
 10
969.2762643936035
 20
169.97742630183
 30
0.0
 11
969.2762643936035
 21
162.0667120161271
 31
0.0
  0
LINE
  5
FF4
330
2
100
AcDbEntity
  8
0
100
AcDbLine
 10
969.2762643936035
 20
105.8881405875346
 30
0.0
 11
969.2762643936035
 21
97.97742630183002
 31
0.0
  0
LINE
  5
FF5
330
2
100
AcDbEntity
  8
0
100
AcDbLine
 10
985.7762643935503
 20
111.1774263018289
 30
0.0
 11
985.7762643935512
 21
156.7774263018292
 31
0.0
  0
LINE
  5
FF6
330
2
100
AcDbEntity
  8
0
100
AcDbLine
 10
983.9762643935509
 20
156.2774263018292
 30
0.0
 11
985.5762643935513
 21
156.2774263018292
 31
0.0
  0
LINE
  5
FF7
330
2
100
AcDbEntity
  8
0
100
AcDbLine
 10
983.7762643935507
 20
111.1774263018289
 30
0.0
 11
983.7762643935507
 21
156.7774263018292
 31
0.0
  0
ARC
  5
FF8
330
2
100
AcDbEntity
  8
0
100
AcDbCircle
 10
985.9762643935509
 20
156.7774263018292
 30
0.0
 40
0.2
100
AcDbArc
 50
90.0
 51
180.0
  0
ARC
  5
FF9
330
2
100
AcDbEntity
  8
0
100
AcDbCircle
 10
985.5762643935513
 20
156.47742630183
 30
0.0
 40
0.2
100
AcDbArc
 50
270.0
 51
0.0
  0
ARC
  5
FFA
330
2
100
AcDbEntity
  8
0
100
AcDbCircle
 10
983.9762643935509
 20
156.47742630183
 30
0.0
 40
0.2
100
AcDbArc
 50
180.0
 51
270.0
  0
LINE
  5
FFB
330
2
100
AcDbEntity
  8
0
100
AcDbLine
 10
983.7762643935507
 20
156.7774263018292
 30
0.0
 11
983.5762643935508
 21
156.97742630183
 31
0.0
  0
LINE
  5
FFC
330
2
100
AcDbEntity
  8
0
100
AcDbLine
 10
983.7762643935507
 20
111.1774263018289
 30
0.0
 11
983.5762643935508
 21
110.97742630183
 31
0.0
  0
LINE
  5
FFD
330
2
100
AcDbEntity
  8
0
100
AcDbLine
 10
983.9762643935509
 20
111.6774263018289
 30
0.0
 11
985.5762643935509
 21
111.6774263018289
 31
0.0
  0
ARC
  5
FFE
330
2
100
AcDbEntity
  8
0
100
AcDbCircle
 10
983.9762643935509
 20
111.47742630183
 30
0.0
 40
0.2
100
AcDbArc
 50
90.0
 51
180.0
  0
ARC
  5
FFF
330
2
100
AcDbEntity
  8
0
100
AcDbCircle
 10
985.5762643935509
 20
111.47742630183
 30
0.0
 40
0.2
100
AcDbArc
 50
0.0
 51
90.0
  0
ARC
  5
1000
330
2
100
AcDbEntity
  8
0
100
AcDbCircle
 10
985.9762643935509
 20
111.1774263018289
 30
0.0
 40
0.2
100
AcDbArc
 50
180.0
 51
270.0
  0
LINE
  5
1001
330
2
100
AcDbEntity
  8
0
100
AcDbLine
 10
983.5762643935508
 20
156.97742630183
 30
0.0
 11
983.5762643935504
 21
110.9774263018281
 31
0.0
  0
LINE
  5
1002
330
2
100
AcDbEntity
  8
0
100
AcDbLine
 10
987.2762643935507
 20
110.9774263018281
 30
0.0
 11
987.2762643935512
 21
156.97742630183
 31
0.0
  0
LINE
  5
1003
330
2
100
AcDbEntity
  8
0
100
AcDbLine
 10
971.9490723773997
 20
161.9541010599243
 30
0.0
 11
975.7849909291017
 21
161.920625505869
 31
0.0
  0
LINE
  5
1004
330
2
100
AcDbEntity
  8
0
100
AcDbLine
 10
978.7762643935993
 20
168.9032098472236
 30
0.0
 11
978.7762643935993
 21
161.2274263018299
 31
0.0
  0
LINE
  5
1005
330
2
100
AcDbEntity
  8
0
100
AcDbLine
 10
978.7762643935993
 20
152.72742630183
 30
0.0
 11
978.7762643935993
 21
115.22742630183
 31
0.0
  0
LINE
  5
1006
330
2
100
AcDbEntity
  8
0
100
AcDbLine
 10
978.7762643935993
 20
106.7274263018281
 30
0.0
 11
978.7762643935993
 21
99.05164275643636
 31
0.0
  0
LINE
  5
1007
330
2
100
AcDbEntity
  8
0
100
AcDbLine
 10
969.2762643936035
 20
169.97742630183
 30
0.0
 11
969.2762643936035
 21
162.0667120161271
 31
0.0
  0
LINE
  5
1008
330
2
100
AcDbEntity
  8
0
100
AcDbLine
 10
969.2762643936035
 20
105.8881405875346
 30
0.0
 11
969.2762643936035
 21
97.97742630183002
 31
0.0
  0
LINE
  5
1009
330
2
100
AcDbEntity
  8
0
100
AcDbLine
 10
988.2762643935512
 20
156.40007603264
 30
0.0
 11
988.2762643935512
 21
111.5547765710181
 31
0.0
  0
LINE
  5
100A
330
2
100
AcDbEntity
  8
0
100
AcDbLine
 10
969.2762643936035
 20
169.97742630183
 30
0.0
 11
977.7849909290976
 21
169.9031717702875
 31
0.0
  0
ARC
  5
100B
330
2
100
AcDbEntity
  8
0
100
AcDbCircle
 10
977.7762643935993
 20
168.9032098472236
 30
0.0
 40
1.0
100
AcDbArc
 50
0.0
 51
89.50000000000846
  0
LINE
  5
100C
330
2
100
AcDbEntity
  8
0
100
AcDbLine
 10
976.2719011259028
 20
151.5211748737657
 30
0.0
 11
976.7762643936034
 21
151.5167733622112
 31
0.0
  0
LINE
  5
100D
330
2
100
AcDbEntity
  8
0
100
AcDbLine
 10
975.7762643936521
 20
152.021155835295
 30
0.0
 11
975.7762643936521
 21
160.9293904505941
 31
0.0
  0
ARC
  5
100E
330
2
100
AcDbEntity
  8
0
100
AcDbCircle
 10
974.7762643936521
 20
160.9293904505941
 30
0.0
 40
1.0
100
AcDbArc
 50
0.0
 51
89.50000000000846
  0
ARC
  5
100F
330
2
100
AcDbEntity
  8
0
100
AcDbCircle
 10
976.2762643936522
 20
152.021155835295
 30
0.0
 40
0.5
100
AcDbArc
 50
180.0
 51
269.5000000000084
  0
ARC
  5
1010
330
2
100
AcDbEntity
  8
0
100
AcDbCircle
 10
975.7762643936034
 20
160.9206635828033
 30
0.0
 40
1.0
100
AcDbArc
 50
17.86424478095049
 51
89.50000000000846
  0
LINE
  5
1011
330
2
100
AcDbEntity
  8
0
100
AcDbLine
 10
971.9490723773869
 20
106.0007515437338
 30
0.0
 11
975.7849909291017
 21
106.0342270977909
 31
0.0
  0
LINE
  5
1012
330
2
100
AcDbEntity
  8
0
100
AcDbLine
 10
976.2719011259028
 20
116.4336777298923
 30
0.0
 11
976.7762643936034
 21
116.4380792414487
 31
0.0
  0
LINE
  5
1013
330
2
100
AcDbEntity
  8
0
100
AcDbLine
 10
975.7762643936521
 20
115.9336967683631
 30
0.0
 11
975.7762643936521
 21
107.025462153064
 31
0.0
  0
ARC
  5
1014
330
2
100
AcDbEntity
  8
0
100
AcDbCircle
 10
974.7762643936521
 20
107.025462153064
 30
0.0
 40
1.0
100
AcDbArc
 50
270.4999999999915
 51
0.0
  0
ARC
  5
1015
330
2
100
AcDbEntity
  8
0
100
AcDbCircle
 10
976.2762643936522
 20
115.9336967683631
 30
0.0
 40
0.5
100
AcDbArc
 50
90.49999999999155
 51
180.0
  0
ARC
  5
1016
330
2
100
AcDbEntity
  8
0
100
AcDbCircle
 10
975.7762643936034
 20
107.0341890208548
 30
0.0
 40
1.0
100
AcDbArc
 50
270.4999999999915
 51
342.1357552190495
  0
LINE
  5
1017
330
2
100
AcDbEntity
  8
0
100
AcDbLine
 10
976.7762643936034
 20
152.72742630183
 30
0.0
 11
976.7762643936034
 21
115.22742630183
 31
0.0
  0
LINE
  5
1018
330
2
100
AcDbEntity
  8
CENTER
  6
CENS
100
AcDbLine
 10
984.9973758575179
 20
156.97742630183
 30
0.0
 11
965.2060077898978
 21
156.97742630183
 31
0.0
  0
LINE
  5
1019
330
2
100
AcDbEntity
  8
0
100
AcDbLine
 10
977.0762643936523
 20
161.2274263018299
 30
0.0
 11
977.0762643936523
 21
152.72742630183
 31
0.0
  0
LINE
  5
101A
330
2
100
AcDbEntity
  8
0
100
AcDbLine
 10
981.7762643936521
 20
161.2274263018299
 30
0.0
 11
981.7762643936521
 21
152.72742630183
 31
0.0
  0
LINE
  5
101B
330
2
100
AcDbEntity
  8
0
100
AcDbLine
 10
982.0762643936523
 20
160.7078110595595
 30
0.0
 11
982.0762643936523
 21
153.2470415441004
 31
0.0
  0
LINE
  5
101C
330
2
100
AcDbEntity
  8
0
100
AcDbLine
 10
981.7762643936521
 20
161.2274263018299
 30
0.0
 11
982.0762643936523
 21
160.7078110595595
 31
0.0
  0
LINE
  5
101D
330
2
100
AcDbEntity
  8
0
100
AcDbLine
 10
981.7762643936521
 20
161.2274263018299
 30
0.0
 11
975.7762643936521
 21
161.2274263018299
 31
0.0
  0
LINE
  5
101E
330
2
100
AcDbEntity
  8
0
100
AcDbLine
 10
981.7762643936521
 20
152.72742630183
 30
0.0
 11
975.7762643936521
 21
152.72742630183
 31
0.0
  0
LINE
  5
101F
330
2
100
AcDbEntity
  8
0
100
AcDbLine
 10
981.7762643936521
 20
152.72742630183
 30
0.0
 11
982.0762643936523
 21
153.2470415441004
 31
0.0
  0
LINE
  5
1020
330
2
100
AcDbEntity
  8
CENTER
  6
CENS
100
AcDbLine
 10
984.9973758575179
 20
110.97742630183
 30
0.0
 11
965.2060077898978
 21
110.97742630183
 31
0.0
  0
LINE
  5
1021
330
2
100
AcDbEntity
  8
0
100
AcDbLine
 10
977.0762643936523
 20
106.72742630183
 30
0.0
 11
977.0762643936523
 21
115.22742630183
 31
0.0
  0
LINE
  5
1022
330
2
100
AcDbEntity
  8
0
100
AcDbLine
 10
981.7762643936521
 20
106.72742630183
 30
0.0
 11
981.7762643936521
 21
115.22742630183
 31
0.0
  0
LINE
  5
1023
330
2
100
AcDbEntity
  8
0
100
AcDbLine
 10
982.0762643936523
 20
107.2470415441004
 30
0.0
 11
982.0762643936523
 21
114.7078110595577
 31
0.0
  0
LINE
  5
1024
330
2
100
AcDbEntity
  8
0
100
AcDbLine
 10
981.7762643936521
 20
106.72742630183
 30
0.0
 11
982.0762643936523
 21
107.2470415441004
 31
0.0
  0
LINE
  5
1025
330
2
100
AcDbEntity
  8
0
100
AcDbLine
 10
981.7762643936521
 20
106.72742630183
 30
0.0
 11
975.7762643936521
 21
106.72742630183
 31
0.0
  0
LINE
  5
1026
330
2
100
AcDbEntity
  8
0
100
AcDbLine
 10
981.7762643936521
 20
115.22742630183
 30
0.0
 11
975.7762643936521
 21
115.22742630183
 31
0.0
  0
LINE
  5
1027
330
2
100
AcDbEntity
  8
0
100
AcDbLine
 10
981.7762643936521
 20
115.22742630183
 30
0.0
 11
982.0762643936523
 21
114.7078110595577
 31
0.0
  0
LINE
  5
102E
330
2
100
AcDbEntity
  8
0
100
AcDbLine
 10
981.7762643936498
 20
160.7274263018427
 30
0.0
 11
981.7762643936498
 21
169.2274263018427
 31
0.0
  0
LINE
  5
102F
330
2
100
AcDbEntity
  8
0
100
AcDbLine
 10
982.07626439365
 20
161.2470415441132
 30
0.0
 11
982.07626439365
 21
168.7078110595722
 31
0.0
  0
LINE
  5
1030
330
2
100
AcDbEntity
  8
0
100
AcDbLine
 10
981.9206019609451
 20
160.9774263018382
 30
0.0
 11
982.07626439365
 21
161.2470415441132
 31
0.0
  0
LINE
  5
1031
330
2
100
AcDbEntity
  8
0
100
AcDbLine
 10
981.7762643936498
 20
169.2274263018427
 30
0.0
 11
978.722247316571
 21
169.2274263018427
 31
0.0
  0
LINE
  5
1032
330
2
100
AcDbEntity
  8
0
100
AcDbLine
 10
981.7762643936498
 20
169.2274263018427
 30
0.0
 11
982.07626439365
 21
168.7078110595722
 31
0.0
  0
LINE
  5
1033
330
2
100
AcDbEntity
  8
0
100
AcDbLine
 10
981.7762643936498
 20
107.2274263018172
 30
0.0
 11
981.7762643936498
 21
98.72742630181727
 31
0.0
  0
LINE
  5
1034
330
2
100
AcDbEntity
  8
0
100
AcDbLine
 10
982.07626439365
 20
106.7078110595468
 30
0.0
 11
982.07626439365
 21
99.24704154408772
 31
0.0
  0
LINE
  5
1035
330
2
100
AcDbEntity
  8
0
100
AcDbLine
 10
981.9206019609451
 20
106.9774263018218
 30
0.0
 11
982.07626439365
 21
106.7078110595468
 31
0.0
  0
LINE
  5
1036
330
2
100
AcDbEntity
  8
0
100
AcDbLine
 10
981.7762643936498
 20
98.72742630181727
 30
0.0
 11
978.722247316571
 21
98.72742630181727
 31
0.0
  0
LINE
  5
1037
330
2
100
AcDbEntity
  8
0
100
AcDbLine
 10
981.7762643936498
 20
98.72742630181727
 30
0.0
 11
982.07626439365
 21
99.24704154408772
 31
0.0
  0
LINE
  5
1038
330
2
100
AcDbEntity
  8
CENTER
  6
CENS
100
AcDbLine
 10
965.1153735996226
 20
164.97742630183
 30
0.0
 11
985.849785889648
 21
164.97742630183
 31
0.0
  0
LINE
  5
1039
330
2
100
AcDbEntity
  8
CENTER
  6
CENS
100
AcDbLine
 10
965.1153735996226
 20
102.9774263018045
 30
0.0
 11
985.849785889648
 21
102.9774263018045
 31
0.0
  0
LINE
  5
103B
330
2
100
AcDbEntity
  8
CENTER
100
AcDbLine
 10
559.4739590712054
 20
406.6794976650139
 30
0.0
 11
745.0731986626086
 21
406.6794976650139
 31
0.0
  0
LINE
  5
103C
330
2
100
AcDbEntity
  8
CENTER
100
AcDbLine
 10
242.7354039967121
 20
133.9774263018313
 30
0.0
 11
56.93540353574326
 21
133.9774263018313
 31
0.0
  0
LINE
  5
103E
330
2
100
AcDbEntity
  8
CENTER
100
AcDbLine
 10
551.2732411120177
 20
133.9774263018313
 30
0.0
 11
745.0731986626078
 21
133.9774263018313
 31
0.0
  0
LINE
  5
104B
330
2
100
AcDbEntity
  8
0
100
AcDbLine
 10
104.9354035357432
 20
105.4774263018313
 30
0.0
 11
104.9354035357432
 21
162.4774263018313
 31
0.0
  0
LINE
  5
1054
330
2
100
AcDbEntity
  8
0
100
AcDbLine
 10
697.0732415729876
 20
162.4774263018313
 30
0.0
 11
697.0732415729876
 21
105.4774263018313
 31
0.0
  0
LINE
  5
1080
330
2
100
AcDbEntity
  8
0
100
AcDbLine
 10
697.0732415729862
 20
434.6794976650138
 30
0.0
 11
697.0732415729862
 21
378.6794976650138
 31
0.0
  0
LINE
  5
133F
330
2
100
AcDbEntity
  8
CENTER
  6
CENS
100
AcDbLine
 10
723.0732415729876
 20
169.4042934843379
 30
0.0
 11
723.0732415729876
 21
147.3500328177357
 31
0.0
  0
LINE
  5
1340
330
2
100
AcDbEntity
  8
0
100
AcDbLine
 10
735.0732415729876
 20
153.9774263018313
 30
0.0
 11
735.0732415729876
 21
113.9774263018313
 31
0.0
  0
LINE
  5
1341
330
2
100
AcDbEntity
  8
0
100
AcDbLine
 10
710.0731986626101
 20
160.3614384770959
 30
0.0
 11
730.1081463858631
 21
160.0117271637533
 31
0.0
  0
ARC
  5
1342
330
2
100
AcDbEntity
  8
0
100
AcDbCircle
 10
730.0732415729876
 20
158.0120317734396
 30
0.0
 40
2.0
100
AcDbArc
 50
0.0
 51
89.0000000000243
  0
ARC
  5
1343
330
2
100
AcDbEntity
  8
0
100
AcDbCircle
 10
734.0732415729876
 20
155.9951860228472
 30
0.0
 40
2.0
100
AcDbArc
 50
180.0
 51
269.0000000000242
  0
LINE
  5
1344
330
2
100
AcDbEntity
  8
0
100
AcDbLine
 10
735.0732415729876
 20
153.9774263018313
 30
0.0
 11
734.0383367601138
 21
153.9954906325344
 31
0.0
  0
LINE
  5
1345
330
2
100
AcDbEntity
  8
0
100
AcDbLine
 10
732.0732415729876
 20
158.0120317734396
 30
0.0
 11
732.0732415729876
 21
151.1426263176869
 31
0.0
  0
LINE
  5
1346
330
2
100
AcDbEntity
  8
0
100
AcDbLine
 10
732.0732415729876
 20
133.9774263018313
 30
0.0
 11
732.0732415729876
 21
109.942820830223
 31
0.0
  0
LINE
  5
1347
330
2
100
AcDbEntity
  8
0
100
AcDbLine
 10
697.0732415729876
 20
161.9774262992465
 30
0.0
 11
704.0819251981088
 21
161.9162624438628
 31
0.0
  0
ARC
  5
1348
330
2
100
AcDbEntity
  8
0
100
AcDbCircle
 10
946.2762643936049
 20
133.9774263018313
 30
0.0
 40
27.00000000000004
100
AcDbArc
 50
313.6028189726618
 51
73.73979529164896
  0
CIRCLE
  5
1349
330
2
100
AcDbEntity
  8
HIDS
100
AcDbCircle
 10
946.2762643936049
 20
133.9774263018313
 30
0.0
 40
17.49999999999926
  0
CIRCLE
  5
134A
330
2
100
AcDbEntity
  8
0
100
AcDbCircle
 10
946.2762643936049
 20
133.9774263018313
 30
0.0
 40
15.0
  0
LINE
  5
134B
330
2
100
AcDbEntity
  8
0
100
AcDbLine
 10
930.2762643936048
 20
153.9774263018313
 30
0.0
 11
962.2762643936049
 21
153.9774263018313
 31
0.0
  0
LINE
  5
134C
330
2
100
AcDbEntity
  8
CENTER
  6
CENS
100
AcDbLine
 10
938.2762643936048
 20
169.4042934843379
 30
0.0
 11
938.2762643936048
 21
121.7608614867946
 31
0.0
  0
LINE
  5
134D
330
2
100
AcDbEntity
  8
HIDS
100
AcDbLine
 10
932.5262643936047
 20
159.9774263018313
 30
0.0
 11
932.5262643936047
 21
144.802743849135
 31
0.0
  0
ARC
  5
134E
330
2
100
AcDbEntity
  8
0
100
AcDbCircle
 10
946.2762643936049
 20
133.9774263018313
 30
0.0
 40
27.00000000000004
100
AcDbArc
 50
133.6028189726618
 51
253.7397952916489
  0
ARC
  5
134F
330
2
100
AcDbEntity
  8
0
100
AcDbCircle
 10
930.2762643936048
 20
157.9774263018313
 30
0.0
 40
2.0
100
AcDbArc
 50
90.0
 51
180.0
  0
ARC
  5
1350
330
2
100
AcDbEntity
  8
0
100
AcDbCircle
 10
926.2762643936047
 20
154.9774263018313
 30
0.0
 40
2.0
100
AcDbArc
 50
313.6028189726618
 51
0.0
  0
ARC
  5
1351
330
2
100
AcDbEntity
  8
0
100
AcDbCircle
 10
930.2762643936048
 20
149.9774263018313
 30
0.0
 40
4.0
100
AcDbArc
 50
90.0
 51
180.0
  0
LINE
  5
1352
330
2
100
AcDbEntity
  8
0
100
AcDbLine
 10
953.2762643936058
 20
159.9774263018313
 30
0.0
 11
929.1512661054612
 21
159.9774263018313
 31
0.0
  0
LINE
  5
1353
330
2
100
AcDbEntity
  8
0
100
AcDbLine
 10
928.2762643936049
 20
157.9774263018313
 30
0.0
 11
928.2762643936049
 21
154.9774263018313
 31
0.0
  0
LINE
  5
1354
330
2
100
AcDbEntity
  8
HIDS
100
AcDbLine
 10
944.0262643936048
 20
151.3321806936389
 30
0.0
 11
944.0262643936048
 21
159.9774263018313
 31
0.0
  0
ARC
  5
1355
330
2
100
AcDbEntity
  8
0
100
AcDbCircle
 10
953.2762643936058
 20
157.9774263018313
 30
0.0
 40
2.0
100
AcDbArc
 50
73.73979529164896
 51
90.0
  0
LINE
  5
1356
330
2
100
AcDbEntity
  8
0
100
AcDbLine
 10
966.2762643936048
 20
149.9774263018313
 30
0.0
 11
966.2762643936048
 21
117.9774263018313
 31
0.0
  0
ARC
  5
1357
330
2
100
AcDbEntity
  8
0
100
AcDbCircle
 10
971.2762643936049
 20
158.9774263018313
 30
0.0
 40
3.0
100
AcDbArc
 50
0.0
 51
90.0
  0
ARC
  5
1358
330
2
100
AcDbEntity
  8
0
100
AcDbCircle
 10
962.2762643936049
 20
149.9774263018313
 30
0.0
 40
4.0
100
AcDbArc
 50
0.0
 51
90.0
  0
LINE
  5
1359
330
2
100
AcDbEntity
  8
0
100
AcDbLine
 10
939.2762643936048
 20
107.9774263018313
 30
0.0
 11
962.2762643936049
 21
107.9774263018313
 31
0.0
  0
LINE
  5
135A
330
2
100
AcDbEntity
  8
0
100
AcDbLine
 10
921.2762643936049
 20
105.9774263018313
 30
0.0
 11
971.2762643936049
 21
105.9774263018313
 31
0.0
  0
LINE
  5
135B
330
2
100
AcDbEntity
  8
0
100
AcDbLine
 10
962.2762643936049
 20
113.9774263018313
 30
0.0
 11
930.2762643936048
 21
113.9774263018313
 31
0.0
  0
LINE
  5
135C
330
2
100
AcDbEntity
  8
0
100
AcDbLine
 10
926.2762643936047
 20
117.9774263018313
 30
0.0
 11
926.2762643936047
 21
149.9774263018313
 31
0.0
  0
ARC
  5
135D
330
2
100
AcDbEntity
  8
0
100
AcDbCircle
 10
930.2762643936048
 20
117.9774263018313
 30
0.0
 40
4.0
100
AcDbArc
 50
180.0
 51
270.0
  0
ARC
  5
135E
330
2
100
AcDbEntity
  8
0
100
AcDbCircle
 10
921.2762643936049
 20
108.9774263018313
 30
0.0
 40
3.0
100
AcDbArc
 50
180.0
 51
270.0
  0
ARC
  5
135F
330
2
100
AcDbEntity
  8
0
100
AcDbCircle
 10
939.2762643936048
 20
109.9774263018313
 30
0.0
 40
2.0
100
AcDbArc
 50
253.7397952916489
 51
270.0
  0
ARC
  5
1360
330
2
100
AcDbEntity
  8
0
100
AcDbCircle
 10
921.2762643936049
 20
158.9774263018313
 30
0.0
 40
3.0
100
AcDbArc
 50
90.0
 51
180.0
  0
ARC
  5
1361
330
2
100
AcDbEntity
  8
0
100
AcDbCircle
 10
966.2762643936048
 20
112.9774263018313
 30
0.0
 40
2.0
100
AcDbArc
 50
133.6028189726618
 51
180.0
  0
ARC
  5
1362
330
2
100
AcDbEntity
  8
0
100
AcDbCircle
 10
962.2762643936049
 20
117.9774263018313
 30
0.0
 40
4.0
100
AcDbArc
 50
270.0
 51
0.0
  0
ARC
  5
1363
330
2
100
AcDbEntity
  8
0
100
AcDbCircle
 10
962.2762643936049
 20
109.9774263018313
 30
0.0
 40
2.0
100
AcDbArc
 50
270.0
 51
0.0
  0
LINE
  5
1364
330
2
100
AcDbEntity
  8
0
100
AcDbLine
 10
964.2762643936048
 20
109.9774263018313
 30
0.0
 11
964.2762643936048
 21
112.9774263018313
 31
0.0
  0
ARC
  5
1365
330
2
100
AcDbEntity
  8
0
100
AcDbCircle
 10
971.2762643936049
 20
108.9774263018313
 30
0.0
 40
3.0
100
AcDbArc
 50
270.0
 51
0.0
  0
LINE
  5
1366
330
2
100
AcDbEntity
  8
0
100
AcDbLine
 10
921.2762643936049
 20
161.9774263018313
 30
0.0
 11
929.6533013125927
 21
161.9774263018313
 31
0.0
  0
LINE
  5
1367
330
2
100
AcDbEntity
  8
0
100
AcDbLine
 10
946.6492274746165
 20
161.9774263018313
 30
0.0
 11
971.2762643936057
 21
161.9774263018313
 31
0.0
  0
LINE
  5
1368
330
2
100
AcDbEntity
  8
CENTER
100
AcDbLine
 10
970.6714483445411
 20
104.7072423508959
 30
0.0
 11
970.6714483445411
 21
114.4572423508959
 31
0.0
  0
LINE
  5
1369
330
2
100
AcDbEntity
  8
CENTER
100
AcDbLine
 10
965.7964483445411
 20
109.5822423508959
 30
0.0
 11
975.5464483445411
 21
109.5822423508959
 31
0.0
  0
LINE
  5
136A
330
2
100
AcDbEntity
  8
CENTER
100
AcDbLine
 10
921.8810804426693
 20
104.7072423508959
 30
0.0
 11
921.8810804426693
 21
114.4572423508959
 31
0.0
  0
LINE
  5
136B
330
2
100
AcDbEntity
  8
CENTER
100
AcDbLine
 10
917.0060804426693
 20
109.5822423508959
 30
0.0
 11
926.7560804426693
 21
109.5822423508959
 31
0.0
  0
LINE
  5
136C
330
2
100
AcDbEntity
  8
CENTER
100
AcDbLine
 10
921.8810804426693
 20
153.4976102527668
 30
0.0
 11
921.8810804426693
 21
163.2476102527668
 31
0.0
  0
LINE
  5
136D
330
2
100
AcDbEntity
  8
CENTER
100
AcDbLine
 10
917.0060804426693
 20
158.3726102527668
 30
0.0
 11
926.7560804426693
 21
158.3726102527668
 31
0.0
  0
LINE
  5
136E
330
2
100
AcDbEntity
  8
CENTER
100
AcDbLine
 10
970.6714483445411
 20
153.4976102527668
 30
0.0
 11
970.6714483445411
 21
163.2476102527668
 31
0.0
  0
LINE
  5
136F
330
2
100
AcDbEntity
  8
CENTER
100
AcDbLine
 10
965.7964483445411
 20
158.3726102527668
 30
0.0
 11
975.5464483445411
 21
158.3726102527668
 31
0.0
  0
LINE
  5
1370
330
2
100
AcDbEntity
  8
0
100
AcDbLine
 10
732.0731986626078
 20
381.6448921912455
 30
0.0
 11
732.0731986626086
 21
431.7141031387822
 31
0.0
  0
LINE
  5
1371
330
2
100
AcDbEntity
  8
0
100
AcDbLine
 10
705.0731986626086
 20
378.784263500393
 30
0.0
 11
705.0731986626086
 21
434.5747318296356
 31
0.0
  0
LINE
  5
1372
330
2
100
AcDbEntity
  8
0
100
AcDbLine
 10
735.0731986626087
 20
426.6794976650148
 30
0.0
 11
735.0731986626087
 21
386.6794976650139
 31
0.0
  0
LINE
  5
1373
330
2
100
AcDbEntity
  8
CENTER
  6
CENS
100
AcDbLine
 10
723.0732415729861
 20
385.6843120692471
 30
0.0
 11
723.0732415729861
 21
411.6746832607818
 31
0.0
  0
LINE
  5
1374
330
2
100
AcDbEntity
  8
0
100
AcDbLine
 10
710.0683039192825
 20
434.0635945314974
 30
0.0
 11
730.1081034754842
 21
433.7137985290959
 31
0.0
  0
ARC
  5
1375
330
2
100
AcDbEntity
  8
0
100
AcDbCircle
 10
730.0731986626086
 20
431.7141031387822
 30
0.0
 40
2.0
100
AcDbArc
 50
0.0
 51
89.0000000000243
  0
ARC
  5
1376
330
2
100
AcDbEntity
  8
0
100
AcDbCircle
 10
734.0731986626086
 20
428.7063691715651
 30
0.0
 40
2.0
100
AcDbArc
 50
180.0
 51
268.5000000000103
  0
LINE
  5
1377
330
2
100
AcDbEntity
  8
0
100
AcDbLine
 10
735.0731986626087
 20
426.6794976650148
 30
0.0
 11
734.0208447659932
 21
426.7070545216141
 31
0.0
  0
LINE
  5
1378
330
2
100
AcDbEntity
  8
0
100
AcDbLine
 10
710.0683039192825
 20
379.2954007985312
 30
0.0
 11
730.1081034754832
 21
379.6451968009327
 31
0.0
  0
LINE
  5
1379
330
2
100
AcDbEntity
  8
0
100
AcDbLine
 10
730.1081034754842
 20
388.6451968009327
 30
0.0
 11
707.0382938497349
 21
388.2425117760334
 31
0.0
  0
LINE
  5
137A
330
2
100
AcDbEntity
  8
CENTER
  6
CENS
100
AcDbLine
 10
736.0684271687529
 20
398.6794976650139
 30
0.0
 11
710.0780559772194
 21
398.6794976650139
 31
0.0
  0
ARC
  5
137B
330
2
100
AcDbEntity
  8
0
100
AcDbCircle
 10
730.0731986626086
 20
390.6448921912455
 30
0.0
 40
2.0
100
AcDbArc
 50
270.9999999999757
 51
0.0
  0
ARC
  5
137C
330
2
100
AcDbEntity
  8
0
100
AcDbCircle
 10
734.0731986626086
 20
384.6526261584626
 30
0.0
 40
2.0
100
AcDbArc
 50
91.49999999998968
 51
180.0
  0
LINE
  5
137D
330
2
100
AcDbEntity
  8
0
100
AcDbLine
 10
735.0731986626087
 20
386.6794976650139
 30
0.0
 11
734.0208447659932
 21
386.6519408084144
 31
0.0
  0
ARC
  5
137E
330
2
100
AcDbEntity
  8
0
100
AcDbCircle
 10
730.0731986626086
 20
381.6448921912455
 30
0.0
 40
2.0
100
AcDbArc
 50
270.9999999999757
 51
0.0
  0
ARC
  5
137F
330
2
100
AcDbEntity
  8
0
100
AcDbCircle
 10
707.0731986626086
 20
386.2428163857206
 30
0.0
 40
2.0
100
AcDbArc
 50
90.99999999997569
 51
180.0
  0
LINE
  5
1380
330
2
100
AcDbEntity
  8
0
100
AcDbLine
 10
707.0731986626086
 20
413.9594976650136
 30
0.0
 11
730.0731986626077
 21
413.9594976650136
 31
0.0
  0
LINE
  5
1381
330
2
100
AcDbEntity
  8
0
100
AcDbLine
 10
697.0732415729862
 20
378.6794976650138
 30
0.0
 11
704.0819251981073
 21
378.7406615203976
 31
0.0
  0
ARC
  5
1382
330
2
100
AcDbEntity
  8
0
100
AcDbCircle
 10
704.0731986626086
 20
379.7406234434624
 30
0.0
 40
1.0
100
AcDbArc
 50
270.4999999999654
 51
0.0
  0
ARC
  5
1383
330
2
100
AcDbEntity
  8
0
100
AcDbCircle
 10
705.6981545631259
 20
377.218814901686
 30
0.0
 40
2.0
100
AcDbArc
 50
108.208626904574
 51
122.7961663449128
  0
LINE
  5
1384
330
2
100
AcDbEntity
  8
0
100
AcDbLine
 10
697.0732415729862
 20
434.6794976650138
 30
0.0
 11
704.0819251981073
 21
434.618333809631
 31
0.0
  0
ARC
  5
1385
330
2
100
AcDbEntity
  8
0
100
AcDbCircle
 10
704.0731986626086
 20
433.6183718865662
 30
0.0
 40
1.0
100
AcDbArc
 50
0.0
 51
89.5000000000345
  0
ARC
  5
1386
330
2
100
AcDbEntity
  8
0
100
AcDbCircle
 10
705.6981545631259
 20
436.1401804283426
 30
0.0
 40
2.0
100
AcDbArc
 50
237.2038336550871
 51
251.791373095426
  0
LINE
  5
1387
330
2
100
AcDbEntity
  8
0
100
AcDbLine
 10
697.0732415729876
 20
105.9774263044161
 30
0.0
 11
704.081968111263
 21
106.038590534297
 31
0.0
  0
LINE
  5
1388
330
2
100
AcDbEntity
  8
0
100
AcDbLine
 10
710.0731986626101
 20
107.5934141265667
 30
0.0
 11
730.1081463858631
 21
107.9431254399093
 31
0.0
  0
ARC
  5
1389
330
2
100
AcDbEntity
  8
0
100
AcDbCircle
 10
730.0732415729876
 20
109.942820830223
 30
0.0
 40
2.0
100
AcDbArc
 50
270.9999999999757
 51
0.0
  0
ARC
  5
138A
330
2
100
AcDbEntity
  8
0
100
AcDbCircle
 10
734.0732415729876
 20
111.9596665808155
 30
0.0
 40
2.0
100
AcDbArc
 50
90.99999999997569
 51
180.0
  0
LINE
  5
138B
330
2
100
AcDbEntity
  8
0
100
AcDbLine
 10
735.0732415729876
 20
113.9774263018313
 30
0.0
 11
734.0383367601138
 21
113.9593619711283
 31
0.0
  0
LINE
  5
138C
330
2
100
AcDbEntity
  8
0
100
AcDbLine
 10
705.073198662611
 20
160.9163005207989
 30
0.0
 11
705.073198662611
 21
139.1751695194577
 31
0.0
  0
ARC
  5
138D
330
2
100
AcDbEntity
  8
0
100
AcDbCircle
 10
704.073198662611
 20
160.9163005207989
 30
0.0
 40
1.0
100
AcDbArc
 50
0.0
 51
89.5000000000345
  0
ARC
  5
138E
330
2
100
AcDbEntity
  8
0
100
AcDbCircle
 10
706.66845556412
 20
162.421173145032
 30
0.0
 40
2.0
100
AcDbArc
 50
210.107515045055
 51
217.095770873056
  0
ARC
  5
138F
330
2
100
AcDbEntity
  8
0
100
AcDbCircle
 10
704.073198662611
 20
107.0385520828637
 30
0.0
 40
1.0
100
AcDbArc
 50
270.4999999999654
 51
0.0
  0
ARC
  5
1390
330
2
100
AcDbEntity
  8
0
100
AcDbCircle
 10
706.66845556412
 20
105.5336794586307
 30
0.0
 40
2.0
100
AcDbArc
 50
142.9042291269439
 51
149.8924849550032
  0
LINE
  5
1391
330
2
100
AcDbEntity
  8
0
100
AcDbLine
 10
706.0731986626101
 20
161.8726604664531
 30
0.0
 11
705.0731986626101
 21
161.8726604664531
 31
0.0
  0
LINE
  5
1392
330
2
100
AcDbEntity
  8
0
100
AcDbLine
 10
705.0731986626101
 20
161.8726604664531
 30
0.0
 11
705.0731986626101
 21
154.8726604664531
 31
0.0
  0
LINE
  5
1393
330
2
100
AcDbEntity
  8
0
100
AcDbLine
 10
705.0731986626101
 20
154.8726604664531
 30
0.0
 11
706.0731986626101
 21
154.8726604664531
 31
0.0
  0
LINE
  5
1394
330
2
100
AcDbEntity
  8
0
100
AcDbLine
 10
706.0731986626101
 20
154.8726604664531
 30
0.0
 11
706.0731986626101
 21
161.8726604664531
 31
0.0
  0
LINE
  5
1395
330
2
100
AcDbEntity
  8
0
100
AcDbLine
 10
710.0731986626101
 20
161.3530452241818
 30
0.0
 11
710.0731986626101
 21
155.3922757087236
 31
0.0
  0
LINE
  5
1396
330
2
100
AcDbEntity
  8
0
100
AcDbLine
 10
709.7731986626099
 20
154.8726604664531
 30
0.0
 11
709.7731986626099
 21
161.8726604664531
 31
0.0
  0
LINE
  5
1397
330
2
100
AcDbEntity
  8
0
100
AcDbLine
 10
709.7731986626099
 20
154.8726604664531
 30
0.0
 11
706.0731986626101
 21
154.8726604664531
 31
0.0
  0
LINE
  5
1398
330
2
100
AcDbEntity
  8
0
100
AcDbLine
 10
709.7731986626099
 20
154.8726604664531
 30
0.0
 11
710.0731986626101
 21
155.3922757087236
 31
0.0
  0
LINE
  5
1399
330
2
100
AcDbEntity
  8
0
100
AcDbLine
 10
710.0731986626101
 20
161.3530452241818
 30
0.0
 11
709.7731986626099
 21
161.8726604664531
 31
0.0
  0
LINE
  5
139A
330
2
100
AcDbEntity
  8
0
100
AcDbLine
 10
706.0731986626101
 20
161.8726604664531
 30
0.0
 11
709.7731986626099
 21
161.8726604664531
 31
0.0
  0
LINE
  5
139B
330
2
100
AcDbEntity
  8
0
100
AcDbLine
 10
706.0731986626101
 20
106.0821921372095
 30
0.0
 11
705.0731986626101
 21
106.0821921372095
 31
0.0
  0
LINE
  5
139C
330
2
100
AcDbEntity
  8
0
100
AcDbLine
 10
705.0731986626101
 20
113.0821921372095
 30
0.0
 11
706.0731986626101
 21
113.0821921372095
 31
0.0
  0
LINE
  5
139D
330
2
100
AcDbEntity
  8
0
100
AcDbLine
 10
706.0731986626101
 20
113.0821921372095
 30
0.0
 11
706.0731986626101
 21
106.0821921372095
 31
0.0
  0
LINE
  5
139E
330
2
100
AcDbEntity
  8
0
100
AcDbLine
 10
710.0731986626101
 20
106.6018073794809
 30
0.0
 11
710.0731986626101
 21
112.5625768949391
 31
0.0
  0
LINE
  5
139F
330
2
100
AcDbEntity
  8
0
100
AcDbLine
 10
709.7731986626099
 20
113.0821921372095
 30
0.0
 11
709.7731986626099
 21
106.0821921372095
 31
0.0
  0
LINE
  5
13A0
330
2
100
AcDbEntity
  8
0
100
AcDbLine
 10
709.7731986626099
 20
113.0821921372095
 30
0.0
 11
706.0731986626101
 21
113.0821921372095
 31
0.0
  0
LINE
  5
13A1
330
2
100
AcDbEntity
  8
0
100
AcDbLine
 10
709.7731986626099
 20
113.0821921372095
 30
0.0
 11
710.0731986626101
 21
112.5625768949391
 31
0.0
  0
LINE
  5
13A2
330
2
100
AcDbEntity
  8
0
100
AcDbLine
 10
710.0731986626101
 20
106.6018073794809
 30
0.0
 11
709.7731986626099
 21
106.0821921372095
 31
0.0
  0
LINE
  5
13A3
330
2
100
AcDbEntity
  8
0
100
AcDbLine
 10
706.0731986626101
 20
106.0821921372095
 30
0.0
 11
709.7731986626099
 21
106.0821921372095
 31
0.0
  0
LINE
  5
13A4
330
2
100
AcDbEntity
  8
0
100
AcDbLine
 10
705.0731986626101
 20
106.0821921372095
 30
0.0
 11
705.0731986626101
 21
113.0821921372095
 31
0.0
  0
LINE
  5
13A5
330
2
100
AcDbEntity
  8
0
100
AcDbLine
 10
731.0732415729876
 20
149.1101378148802
 30
0.0
 11
731.0732415729876
 21
133.9774263018313
 31
0.0
  0
LINE
  5
13A6
330
2
100
AcDbEntity
  8
0
100
AcDbLine
 10
735.0732415729876
 20
148.9774263018313
 30
0.0
 11
731.0732272457794
 21
148.9774263018313
 31
0.0
  0
ARC
  5
13A7
330
2
100
AcDbEntity
  8
0
100
AcDbCircle
 10
729.0732415729876
 20
149.0970448540953
 30
0.0
 40
2.0
100
AcDbArc
 50
0.0
 51
52.22196899348428
  0
LINE
  5
13A8
330
2
100
AcDbEntity
  8
0
100
AcDbLine
 10
718.5732415729876
 20
137.9774263018313
 30
0.0
 11
729.5732415729876
 21
137.9774263018313
 31
0.0
  0
LINE
  5
13A9
330
2
100
AcDbEntity
  8
0
100
AcDbLine
 10
718.5732415729876
 20
133.9774263018313
 30
0.0
 11
718.5732415729876
 21
142.4282171696174
 31
0.0
  0
LINE
  5
13AA
330
2
100
AcDbEntity
  8
0
100
AcDbLine
 10
725.1298034007072
 20
146.2274263018313
 30
0.0
 11
730.5732415729876
 21
146.2274263018313
 31
0.0
  0
LINE
  5
13AB
330
2
100
AcDbEntity
  8
0
100
AcDbLine
 10
730.5732415729876
 20
146.2274263018313
 30
0.0
 11
730.5732415729876
 21
133.9774263018313
 31
0.0
  0
LINE
  5
13AC
330
2
100
AcDbEntity
  8
0
100
AcDbLine
 10
729.5732415729876
 20
137.9774263018313
 30
0.0
 11
730.5732415729876
 21
138.5547765710213
 31
0.0
  0
LINE
  5
13AD
330
2
100
AcDbEntity
  8
0
100
AcDbLine
 10
716.5732415729876
 20
142.3203518155275
 30
0.0
 11
716.5732415729876
 21
133.9774263018313
 31
0.0
  0
LINE
  5
13AE
330
2
100
AcDbEntity
  8
0
100
AcDbLine
 10
710.0732415729876
 20
137.9774263018313
 30
0.0
 11
716.5732415729876
 21
137.9774263018313
 31
0.0
  0
LINE
  5
13AF
330
2
100
AcDbEntity
  8
0
100
AcDbLine
 10
712.0732415729876
 20
137.9774263018313
 30
0.0
 11
716.5732415729876
 21
137.9774263018313
 31
0.0
  0
LINE
  5
13B0
330
2
100
AcDbEntity
  8
0
100
AcDbLine
 10
706.5732415729875
 20
136.9774263018313
 30
0.0
 11
704.8411907654195
 21
133.9774263018313
 31
0.0
  0
LINE
  5
13B1
330
2
100
AcDbEntity
  8
0
100
AcDbLine
 10
706.5732415729875
 20
138.2274263018313
 30
0.0
 11
706.5732415729875
 21
133.9774263018313
 31
0.0
  0
LINE
  5
13B2
330
2
100
AcDbEntity
  8
0
100
AcDbLine
 10
710.0732415729876
 20
137.9774263018313
 30
0.0
 11
710.0732415729876
 21
133.9774263018313
 31
0.0
  0
LINE
  5
13B3
330
2
100
AcDbEntity
  8
0
100
AcDbLine
 10
710.0732415729876
 20
138.2274263018313
 30
0.0
 11
706.5732415729875
 21
138.2274263018313
 31
0.0
  0
LINE
  5
13B4
330
2
100
AcDbEntity
  8
0
100
AcDbLine
 10
710.0732415729876
 20
137.9774263018313
 30
0.0
 11
710.0732415729876
 21
138.2274263018313
 31
0.0
  0
SPLINE
  5
13B5
330
2
100
AcDbEntity
  8
HOJO
100
AcDbSpline
210
0.0
220
0.0
230
1.0
 70
     8
 71
     3
 72
    16
 73
    12
 74
     0
 42
0.0000000001
 43
0.0000000001
 40
1.229586671925319
 40
1.229586671925319
 40
1.229586671925319
 40
1.229586671925319
 40
9.059721493801909
 40
14.01454332224558
 40
17.68854249089321
 40
25.49282471102274
 40
30.81266567978604
 40
35.19147887412627
 40
39.07871238777226
 40
41.42088313435808
 40
41.93957356983536
 40
41.93957356983536
 40
41.93957356983536
 40
41.93957356983536
 10
735.0732415729957
 20
151.5495889787322
 30
0.0
 10
732.2631021620095
 20
151.2823986903874
 30
0.0
 10
727.8544843806616
 20
150.5832747974924
 30
0.0
 10
724.9628375980242
 20
145.612152682968
 30
0.0
 10
720.6233370010872
 20
141.9273798405199
 30
0.0
 10
714.589841862908
 20
142.6922158429185
 30
0.0
 10
708.9178603778496
 20
141.1476853307055
 30
0.0
 10
704.9175416570756
 20
139.1581112315795
 30
0.0
 10
701.7014457876152
 20
137.2025703920114
 30
0.0
 10
701.0008744479332
 20
134.9927598662167
 30
0.0
 10
700.5820349816644
 20
134.1316183025516
 30
0.0
 10
700.5029785884394
 20
133.9774263018313
 30
0.0
  0
LINE
  5
13B6
330
2
100
AcDbEntity
  8
0
100
AcDbLine
 10
705.073198662611
 20
107.0385520828637
 30
0.0
 11
705.073198662611
 21
133.9774263018313
 31
0.0
  0
LINE
  5
13B7
330
2
100
AcDbEntity
  8
0
100
AcDbLine
 10
729.5732415729876
 20
137.9774263018313
 30
0.0
 11
729.5732415729876
 21
133.9774263018313
 31
0.0
  0
LINE
  5
13B8
330
2
100
AcDbEntity
  8
0
100
AcDbLine
 10
706.0731986626087
 20
378.784263500393
 30
0.0
 11
705.0731986626086
 21
378.784263500393
 31
0.0
  0
LINE
  5
13B9
330
2
100
AcDbEntity
  8
0
100
AcDbLine
 10
705.0731986626086
 20
385.784263500393
 30
0.0
 11
706.0731986626087
 21
385.784263500393
 31
0.0
  0
LINE
  5
13BA
330
2
100
AcDbEntity
  8
0
100
AcDbLine
 10
706.0731986626087
 20
385.784263500393
 30
0.0
 11
706.0731986626087
 21
378.784263500393
 31
0.0
  0
LINE
  5
13BB
330
2
100
AcDbEntity
  8
0
100
AcDbLine
 10
710.0731986626087
 20
379.3038787426634
 30
0.0
 11
710.0731986626087
 21
385.2646482581225
 31
0.0
  0
LINE
  5
13BC
330
2
100
AcDbEntity
  8
0
100
AcDbLine
 10
709.7731986626094
 20
385.784263500393
 30
0.0
 11
709.7731986626094
 21
378.784263500393
 31
0.0
  0
LINE
  5
13BD
330
2
100
AcDbEntity
  8
0
100
AcDbLine
 10
709.7731986626094
 20
385.784263500393
 30
0.0
 11
706.0731986626087
 21
385.784263500393
 31
0.0
  0
LINE
  5
13BE
330
2
100
AcDbEntity
  8
0
100
AcDbLine
 10
709.7731986626094
 20
385.784263500393
 30
0.0
 11
710.0731986626087
 21
385.2646482581225
 31
0.0
  0
LINE
  5
13BF
330
2
100
AcDbEntity
  8
0
100
AcDbLine
 10
710.0731986626087
 20
379.3038787426634
 30
0.0
 11
709.7731986626094
 21
378.784263500393
 31
0.0
  0
LINE
  5
13C0
330
2
100
AcDbEntity
  8
0
100
AcDbLine
 10
706.0731986626087
 20
378.784263500393
 30
0.0
 11
709.7731986626094
 21
378.784263500393
 31
0.0
  0
LINE
  5
13C1
330
2
100
AcDbEntity
  8
0
100
AcDbLine
 10
706.0731986626087
 20
434.5747318296356
 30
0.0
 11
705.0731986626086
 21
434.5747318296356
 31
0.0
  0
LINE
  5
13C2
330
2
100
AcDbEntity
  8
0
100
AcDbLine
 10
705.0731986626086
 20
427.5747318296357
 30
0.0
 11
706.0731986626087
 21
427.5747318296357
 31
0.0
  0
LINE
  5
13C3
330
2
100
AcDbEntity
  8
0
100
AcDbLine
 10
706.0731986626087
 20
427.5747318296357
 30
0.0
 11
706.0731986626087
 21
434.5747318296356
 31
0.0
  0
LINE
  5
13C4
330
2
100
AcDbEntity
  8
0
100
AcDbLine
 10
710.0731986626087
 20
434.0551165873643
 30
0.0
 11
710.0731986626087
 21
428.0943470719061
 31
0.0
  0
LINE
  5
13C5
330
2
100
AcDbEntity
  8
0
100
AcDbLine
 10
709.7731986626094
 20
427.5747318296357
 30
0.0
 11
709.7731986626094
 21
434.5747318296356
 31
0.0
  0
LINE
  5
13C6
330
2
100
AcDbEntity
  8
0
100
AcDbLine
 10
709.7731986626094
 20
427.5747318296357
 30
0.0
 11
706.0731986626087
 21
427.5747318296357
 31
0.0
  0
LINE
  5
13C7
330
2
100
AcDbEntity
  8
0
100
AcDbLine
 10
709.7731986626094
 20
427.5747318296357
 30
0.0
 11
710.0731986626087
 21
428.0943470719061
 31
0.0
  0
LINE
  5
13C8
330
2
100
AcDbEntity
  8
0
100
AcDbLine
 10
710.0731986626087
 20
434.0551165873643
 30
0.0
 11
709.7731986626094
 21
434.5747318296356
 31
0.0
  0
LINE
  5
13C9
330
2
100
AcDbEntity
  8
0
100
AcDbLine
 10
706.0731986626087
 20
434.5747318296356
 30
0.0
 11
709.7731986626094
 21
434.5747318296356
 31
0.0
  0
CIRCLE
  5
13CA
330
2
100
AcDbEntity
  8
0
100
AcDbCircle
 10
946.2762643936049
 20
133.9774263018313
 30
0.0
 40
12.25000000258501
  0
ARC
  5
13CB
330
2
100
AcDbEntity
  8
0
100
AcDbCircle
 10
946.2762643936049
 20
133.9774263018313
 30
0.0
 40
4.577350271774776
100
AcDbArc
 50
9.430449844968528
 51
170.5695501550314
  0
ARC
  5
13CC
330
2
100
AcDbEntity
  8
0
100
AcDbCircle
 10
946.2762643936049
 20
133.9774263018313
 30
0.0
 40
4.577350271774776
100
AcDbArc
 50
189.4304498449685
 51
350.5695501550314
  0
CIRCLE
  5
13CD
330
2
100
AcDbEntity
  8
0
100
AcDbCircle
 10
946.2762643936049
 20
133.9774263018313
 30
0.0
 40
4.000000002585125
  0
CIRCLE
  5
13CE
330
2
100
AcDbEntity
  8
0
100
AcDbCircle
 10
921.8810804426693
 20
158.3726102527668
 30
0.0
 40
1.732050807568871
  0
LWPOLYLINE
  5
13CF
330
2
100
AcDbEntity
  8
0
100
AcDbPolyline
 90
        6
 70
     1
 43
0.0
 10
923.3810804426694
 20
159.2386356565518
 10
921.8810804426693
 20
160.1046610603368
 10
920.3810804426693
 20
159.2386356565518
 10
920.3810804426693
 20
157.5065848489827
 10
921.8810804426693
 20
156.6405594451986
 10
923.3810804426694
 20
157.5065848489827
  0
CIRCLE
  5
13D0
330
2
100
AcDbEntity
  8
0
100
AcDbCircle
 10
921.8810804426693
 20
158.3726102527668
 30
0.0
 40
3.499999999999717
  0
CIRCLE
  5
13D1
330
2
100
AcDbEntity
  8
0
100
AcDbCircle
 10
921.8810804426693
 20
158.3726102527668
 30
0.0
 40
2.980384757729353
  0
CIRCLE
  5
13D2
330
2
100
AcDbEntity
  8
0
100
AcDbCircle
 10
970.6714483445411
 20
158.3726102527668
 30
0.0
 40
1.732050807568871
  0
LWPOLYLINE
  5
13D3
330
2
100
AcDbEntity
  8
0
100
AcDbPolyline
 90
        6
 70
     1
 43
0.0
 10
972.1714483445412
 20
159.2386356565518
 10
970.6714483445411
 20
160.1046610603358
 10
969.1714483445412
 20
159.2386356565518
 10
969.1714483445412
 20
157.5065848489827
 10
970.6714483445411
 20
156.6405594451986
 10
972.1714483445412
 20
157.5065848489827
  0
CIRCLE
  5
13D4
330
2
100
AcDbEntity
  8
0
100
AcDbCircle
 10
970.6714483445411
 20
158.3726102527668
 30
0.0
 40
3.499999999999717
  0
CIRCLE
  5
13D5
330
2
100
AcDbEntity
  8
0
100
AcDbCircle
 10
970.6714483445411
 20
158.3726102527668
 30
0.0
 40
2.980384757729353
  0
CIRCLE
  5
13D6
330
2
100
AcDbEntity
  8
0
100
AcDbCircle
 10
970.6714483445411
 20
109.5822423508959
 30
0.0
 40
1.732050807568871
  0
LWPOLYLINE
  5
13D7
330
2
100
AcDbEntity
  8
0
100
AcDbPolyline
 90
        6
 70
     1
 43
0.0
 10
972.1714483445412
 20
110.4482677546799
 10
970.6714483445411
 20
111.314293158464
 10
969.1714483445412
 20
110.4482677546799
 10
969.1714483445412
 20
108.7162169471109
 10
970.6714483445411
 20
107.8501915433268
 10
972.1714483445412
 20
108.7162169471109
  0
CIRCLE
  5
13D8
330
2
100
AcDbEntity
  8
0
100
AcDbCircle
 10
970.6714483445411
 20
109.5822423508959
 30
0.0
 40
3.499999999999717
  0
CIRCLE
  5
13D9
330
2
100
AcDbEntity
  8
0
100
AcDbCircle
 10
970.6714483445411
 20
109.5822423508959
 30
0.0
 40
2.980384757729353
  0
CIRCLE
  5
13DA
330
2
100
AcDbEntity
  8
0
100
AcDbCircle
 10
921.8810804426693
 20
109.5822423508959
 30
0.0
 40
1.732050807568871
  0
LWPOLYLINE
  5
13DB
330
2
100
AcDbEntity
  8
0
100
AcDbPolyline
 90
        6
 70
     1
 43
0.0
 10
923.3810804426694
 20
110.4482677546799
 10
921.8810804426693
 20
111.314293158464
 10
920.3810804426693
 20
110.4482677546799
 10
920.3810804426693
 20
108.7162169471109
 10
921.8810804426693
 20
107.8501915433268
 10
923.3810804426694
 20
108.7162169471109
  0
CIRCLE
  5
13DC
330
2
100
AcDbEntity
  8
0
100
AcDbCircle
 10
921.8810804426693
 20
109.5822423508959
 30
0.0
 40
3.499999999999717
  0
CIRCLE
  5
13DD
330
2
100
AcDbEntity
  8
0
100
AcDbCircle
 10
921.8810804426693
 20
109.5822423508959
 30
0.0
 40
2.980384757729353
  0
LINE
  5
13DE
330
2
100
AcDbEntity
  8
HIDS
100
AcDbLine
 10
942.2762643936057
 20
145.5559624787408
 30
0.0
 11
942.2762643936057
 21
138.9774263018313
 31
0.0
  0
LINE
  5
13DF
330
2
100
AcDbEntity
  8
0
100
AcDbLine
 10
958.5032836542431
 20
133.2274263018313
 30
0.0
 11
950.2053228049808
 21
133.2274263018313
 31
0.0
  0
LINE
  5
13E0
330
2
100
AcDbEntity
  8
0
100
AcDbLine
 10
950.2053228049808
 20
134.7274263018313
 30
0.0
 11
958.5032836542431
 21
134.7274263018313
 31
0.0
  0
LINE
  5
13E1
330
2
100
AcDbEntity
  8
HIDS
100
AcDbLine
 10
936.2762643936058
 20
133.2274263018313
 30
0.0
 11
936.2762643936058
 21
126.9019404527886
 31
0.0
  0
LINE
  5
13E2
330
2
100
AcDbEntity
  8
HIDS
100
AcDbLine
 10
940.2762643936057
 20
133.2274263018313
 30
0.0
 11
940.2762643936057
 21
123.2974216201843
 31
0.0
  0
LINE
  5
13E3
330
2
100
AcDbEntity
  8
HIDS
100
AcDbLine
 10
935.0931297704327
 20
138.9774263018313
 30
0.0
 11
942.2762643936057
 21
138.9774263018313
 31
0.0
  0
LINE
  5
13E4
330
2
100
AcDbEntity
  8
0
100
AcDbLine
 10
934.0492451329682
 20
134.7274263018313
 30
0.0
 11
942.3472059822298
 21
134.7274263018313
 31
0.0
  0
LINE
  5
13E5
330
2
100
AcDbEntity
  8
0
100
AcDbLine
 10
934.0492451329682
 20
133.2274263018313
 30
0.0
 11
942.3472059822298
 21
133.2274263018313
 31
0.0
  0
LINE
  5
13E6
330
2
100
AcDbEntity
  8
HIDS
100
AcDbLine
 10
940.7762643936058
 20
138.9774263018313
 30
0.0
 11
940.7762643936058
 21
134.7274263018313
 31
0.0
  0
LINE
  5
13E7
330
2
100
AcDbEntity
  8
HIDS
100
AcDbLine
 10
935.7762643936057
 20
138.9774263018313
 30
0.0
 11
935.7762643936057
 21
134.7274263018313
 31
0.0
  0
LINE
  5
13E8
330
2
100
AcDbEntity
  8
HIDS
100
AcDbLine
 10
941.2566491513352
 20
142.9774263018313
 30
0.0
 11
937.9658793243079
 21
142.9774263018313
 31
0.0
  0
LINE
  5
13E9
330
2
100
AcDbEntity
  8
0
100
AcDbLine
 10
934.7762643936057
 20
142.6774263018312
 30
0.0
 11
937.6523151822521
 21
142.6774263018312
 31
0.0
  0
LINE
  5
13EA
330
2
100
AcDbEntity
  8
0
100
AcDbLine
 10
934.7762643936057
 20
138.9774263018313
 30
0.0
 11
935.0931297704327
 21
138.9774263018313
 31
0.0
  0
LINE
  5
13EB
330
2
100
AcDbEntity
  8
0
100
AcDbLine
 10
934.7762643936057
 20
142.6774263018312
 30
0.0
 11
935.2958796358761
 21
142.9774263018313
 31
0.0
  0
LINE
  5
13EC
330
2
100
AcDbEntity
  8
0
100
AcDbLine
 10
934.7762643936057
 20
142.6774263018312
 30
0.0
 11
934.7762643936057
 21
138.9774263018313
 31
0.0
  0
LINE
  5
13ED
330
2
100
AcDbEntity
  8
HIDS
100
AcDbLine
 10
941.2566491513352
 20
142.9774263018313
 30
0.0
 11
941.7762643936057
 21
142.6774263018312
 31
0.0
  0
LINE
  5
13EE
330
2
100
AcDbEntity
  8
HIDS
100
AcDbLine
 10
941.7762643936057
 20
138.9774263018313
 30
0.0
 11
941.7762643936057
 21
142.6774263018312
 31
0.0
  0
LINE
  5
13EF
330
2
100
AcDbEntity
  8
HIDS
100
AcDbLine
 10
937.6523151822521
 20
142.6774263018312
 30
0.0
 11
941.7762643936057
 21
142.6774263018312
 31
0.0
  0
LINE
  5
13F0
330
2
100
AcDbEntity
  8
0
100
AcDbLine
 10
937.9658793243079
 20
142.9774263018313
 30
0.0
 11
935.2958796358761
 21
142.9774263018313
 31
0.0
  0
LINE
  5
13F1
330
2
100
AcDbEntity
  8
HIDS
100
AcDbLine
 10
935.0931297704327
 20
138.9774263018313
 30
0.0
 11
941.7762643936057
 21
138.9774263018313
 31
0.0
  0
LINE
  5
13F2
330
2
100
AcDbEntity
  8
HIDS
100
AcDbLine
 10
936.2762643936058
 20
138.9774263018313
 30
0.0
 11
936.2762643936058
 21
134.7274263018313
 31
0.0
  0
LINE
  5
13F3
330
2
100
AcDbEntity
  8
HIDS
100
AcDbLine
 10
940.2762643936057
 20
138.9774263018313
 30
0.0
 11
940.2762643936057
 21
134.7274263018313
 31
0.0
  0
LINE
  5
13F4
330
2
100
AcDbEntity
  8
HIDS
100
AcDbLine
 10
940.2762643936057
 20
138.9774263018313
 30
0.0
 11
939.9429310602718
 21
137.3107596351653
 31
0.0
  0
LINE
  5
13F5
330
2
100
AcDbEntity
  8
HIDS
100
AcDbLine
 10
936.2762643936058
 20
138.9774263018313
 30
0.0
 11
936.6095977269388
 21
137.3107596351653
 31
0.0
  0
LINE
  5
13F6
330
2
100
AcDbEntity
  8
0
100
AcDbLine
 10
937.076264393605
 20
123.9774263018313
 30
0.0
 11
939.200778544562
 21
123.9774263018313
 31
0.0
  0
LINE
  5
13F7
330
2
100
AcDbEntity
  8
0
100
AcDbLine
 10
936.2762643936058
 20
124.7774263018315
 30
0.0
 11
938.1878467486021
 21
124.7774263018315
 31
0.0
  0
LINE
  5
13F8
330
2
100
AcDbEntity
  8
HIDS
100
AcDbLine
 10
940.2762643936057
 20
137.3107596351653
 30
0.0
 11
936.2762643936058
 21
137.3107596351653
 31
0.0
  0
LINE
  5
13F9
330
2
100
AcDbEntity
  8
HIDS
100
AcDbLine
 10
936.6095977269388
 20
137.3107596351653
 30
0.0
 11
936.6095977269388
 21
134.7274263018313
 31
0.0
  0
LINE
  5
13FA
330
2
100
AcDbEntity
  8
0
100
AcDbLine
 10
936.2762643936058
 20
124.7774263018315
 30
0.0
 11
937.076264393605
 21
123.9774263018313
 31
0.0
  0
LINE
  5
13FB
330
2
100
AcDbEntity
  8
HIDS
100
AcDbLine
 10
939.9429310602718
 20
137.3107596351653
 30
0.0
 11
939.9429310602718
 21
134.7274263018313
 31
0.0
  0
LINE
  5
13FC
330
2
100
AcDbEntity
  8
HIDS
100
AcDbLine
 10
940.2762643936057
 20
124.7774263018315
 30
0.0
 11
938.2762643936057
 21
124.7774263018315
 31
0.0
  0
LINE
  5
13FD
330
2
100
AcDbEntity
  8
0
100
AcDbLine
 10
939.4762643936056
 20
123.9774263018313
 30
0.0
 11
939.200778544562
 21
123.9774263018313
 31
0.0
  0
LINE
  5
13FE
330
2
100
AcDbEntity
  8
HIDS
100
AcDbLine
 10
940.2762643936057
 20
124.7774263018315
 30
0.0
 11
939.4762643936056
 21
123.9774263018313
 31
0.0
  0
LINE
  5
13FF
330
2
100
AcDbEntity
  8
0
100
AcDbLine
 10
940.2762643936057
 20
134.7274263018313
 30
0.0
 11
940.2762643936057
 21
133.2274263018313
 31
0.0
  0
LINE
  5
1400
330
2
100
AcDbEntity
  8
HOJO
100
AcDbLine
 10
939.9429310602718
 20
134.7274263018313
 30
0.0
 11
939.9429310602718
 21
133.2274263018313
 31
0.0
  0
LINE
  5
1401
330
2
100
AcDbEntity
  8
HOJO
100
AcDbLine
 10
936.6095977269388
 20
134.7274263018313
 30
0.0
 11
936.6095977269388
 21
133.2274263018313
 31
0.0
  0
LINE
  5
1402
330
2
100
AcDbEntity
  8
0
100
AcDbLine
 10
936.2762643936058
 20
134.7274263018313
 30
0.0
 11
936.2762643936058
 21
133.2274263018313
 31
0.0
  0
LINE
  5
1403
330
2
100
AcDbEntity
  8
HIDS
100
AcDbLine
 10
936.6095977269388
 20
133.2274263018313
 30
0.0
 11
936.6095977269388
 21
126.4529292717595
 31
0.0
  0
LINE
  5
1404
330
2
100
AcDbEntity
  8
HIDS
100
AcDbLine
 10
936.2762643936058
 20
133.2274263018313
 30
0.0
 11
936.2762643936058
 21
126.9019404527886
 31
0.0
  0
LINE
  5
1405
330
2
100
AcDbEntity
  8
HIDS
100
AcDbLine
 10
939.9429310602718
 20
133.2274263018313
 30
0.0
 11
939.9429310602718
 21
124.4440929684985
 31
0.0
  0
LINE
  5
1406
330
2
100
AcDbEntity
  8
HIDS
100
AcDbLine
 10
940.2762643936057
 20
133.2274263018313
 30
0.0
 11
940.2762643936057
 21
124.7774263018315
 31
0.0
  0
LINE
  5
1407
330
2
100
AcDbEntity
  8
0
100
AcDbLine
 10
938.1878467486021
 20
124.7774263018315
 30
0.0
 11
938.2762643936057
 21
124.7774263018315
 31
0.0
  0
LINE
  5
1408
330
2
100
AcDbEntity
  8
HOJO
100
AcDbLine
 10
936.6095977269388
 20
126.4529292717595
 30
0.0
 11
936.6095977269388
 21
124.4440929684985
 31
0.0
  0
LINE
  5
1409
330
2
100
AcDbEntity
  8
0
100
AcDbLine
 10
936.2762643936058
 20
126.9019404527886
 30
0.0
 11
936.2762643936058
 21
124.7774263018315
 31
0.0
  0
LINE
  5
140A
330
2
100
AcDbEntity
  8
0
100
AcDbLine
 10
728.0026278709615
 20
164.0490876893106
 30
0.0
 11
718.0041509193966
 21
164.2236117536828
 31
0.0
  0
ARC
  5
140B
330
2
100
AcDbEntity
  8
0
100
AcDbCircle
 10
717.9343412936473
 20
160.2242209730572
 30
0.0
 40
3.999999999999995
100
AcDbArc
 50
89.0000000000243
 51
178.9999999999982
  0
LINE
  5
140C
330
2
100
AcDbEntity
  8
0
100
AcDbLine
 10
713.9349505130226
 20
160.2940305988065
 30
0.0
 11
731.9322090258379
 21
159.9798872829357
 31
0.0
  0
LINE
  5
140D
330
2
100
AcDbEntity
  8
0
100
AcDbLine
 10
731.9322090258379
 20
159.9798872829357
 30
0.0
 11
731.9322090258379
 21
159.9798872829357
 31
0.0
  0
ARC
  5
140E
330
2
100
AcDbEntity
  8
0
100
AcDbCircle
 10
727.9328182452123
 20
160.049696908685
 30
0.0
 40
3.999999999999995
100
AcDbArc
 50
358.9999999999982
 51
89.0000000000243
  0
CIRCLE
  5
140F
330
2
100
AcDbEntity
  8
0
100
AcDbCircle
 10
723.0732415729861
 20
398.6794976650139
 30
0.0
 40
8.858967452849583
  0
LINE
  5
1410
330
2
100
AcDbEntity
  8
0
100
AcDbLine
 10
947.2762643936057
 20
159.9774263018313
 30
0.0
 11
947.2762643936057
 21
159.9774263018313
 31
0.0
  0
LINE
  5
1411
330
2
100
AcDbEntity
  8
CENTER
  6
CENS
100
AcDbLine
 10
715.0731986626087
 20
382.284263500393
 30
0.0
 11
692.0732415729861
 21
382.284263500393
 31
0.0
  0
LINE
  5
1412
330
2
100
AcDbEntity
  8
CENTER
  6
CENS
100
AcDbLine
 10
715.0731986626087
 20
431.0747318296357
 30
0.0
 11
692.0732415729861
 21
431.0747318296357
 31
0.0
  0
LINE
  5
1413
330
2
100
AcDbEntity
  8
CENTER
  6
CENS
100
AcDbLine
 10
715.0731986626101
 20
158.3726604664531
 30
0.0
 11
692.0732415729876
 21
158.3726604664531
 31
0.0
  0
LINE
  5
1414
330
2
100
AcDbEntity
  8
CENTER
  6
CENS
100
AcDbLine
 10
715.0731986626101
 20
109.5821921372095
 30
0.0
 11
692.0732415729876
 21
109.5821921372095
 31
0.0
  0
LINE
  5
1415
330
2
100
AcDbEntity
  8
CENTER
100
AcDbLine
 10
962.1862168180824
 20
152.8873288785286
 30
0.0
 11
962.1862168180824
 21
146.8873288785286
 31
0.0
  0
CIRCLE
  5
1416
330
2
100
AcDbEntity
  8
HOJO
100
AcDbCircle
 10
962.1862168180824
 20
149.8873324107313
 30
0.0
 40
1.5
  0
CIRCLE
  5
1417
330
2
100
AcDbEntity
  8
0
100
AcDbCircle
 10
962.1862168180824
 20
149.8873324107313
 30
0.0
 40
1.25
  0
CIRCLE
  5
1418
330
2
100
AcDbEntity
  8
CENTER
100
AcDbCircle
 10
946.2762643936049
 20
133.9774263018313
 30
0.0
 40
22.50003524773091
  0
LINE
  5
1419
330
2
100
AcDbEntity
  8
CENTER
100
AcDbLine
 10
959.1862168180822
 20
149.8873288785286
 30
0.0
 11
965.1862168180823
 21
149.8873288785286
 31
0.0
  0
LINE
  5
141A
330
2
100
AcDbEntity
  8
CENTER
100
AcDbLine
 10
930.3663618169075
 20
146.8873822585434
 30
0.0
 11
930.3663618169075
 21
152.8873822585434
 31
0.0
  0
CIRCLE
  5
141B
330
2
100
AcDbEntity
  8
HOJO
100
AcDbCircle
 10
930.3663618169075
 20
149.8875066370198
 30
0.0
 40
1.5
  0
CIRCLE
  5
141C
330
2
100
AcDbEntity
  8
0
100
AcDbCircle
 10
930.3663618169075
 20
149.8875066370198
 30
0.0
 40
1.25
  0
LINE
  5
141D
330
2
100
AcDbEntity
  8
CENTER
100
AcDbLine
 10
927.3663618169075
 20
149.8873822585434
 30
0.0
 11
933.3663618169076
 21
149.8873822585434
 31
0.0
  0
LINE
  5
141E
330
2
100
AcDbEntity
  8
CENTER
100
AcDbLine
 10
933.3663618169076
 20
118.0676445713394
 30
0.0
 11
927.3663618169075
 21
118.0676445713394
 31
0.0
  0
CIRCLE
  5
141F
330
2
100
AcDbEntity
  8
HOJO
100
AcDbCircle
 10
930.3663618169075
 20
118.067523725134
 30
0.0
 40
1.5
  0
CIRCLE
  5
1420
330
2
100
AcDbEntity
  8
0
100
AcDbCircle
 10
930.3663618169075
 20
118.067523725134
 30
0.0
 40
1.25
  0
LINE
  5
1421
330
2
100
AcDbEntity
  8
CENTER
100
AcDbLine
 10
930.3663618169075
 20
115.0676445713394
 30
0.0
 11
930.3663618169075
 21
121.0676445713394
 31
0.0
  0
LINE
  5
1422
330
2
100
AcDbEntity
  8
CENTER
100
AcDbLine
 10
962.1861669703021
 20
121.067523725134
 30
0.0
 11
962.1861669703021
 21
115.067523725134
 31
0.0
  0
CIRCLE
  5
1423
330
2
100
AcDbEntity
  8
0
100
AcDbCircle
 10
962.1861669703021
 20
118.067523725134
 30
0.0
 40
1.25
  0
CIRCLE
  5
1424
330
2
100
AcDbEntity
  8
HOJO
100
AcDbCircle
 10
962.1861669703021
 20
118.067523725134
 30
0.0
 40
1.5
  0
LINE
  5
1425
330
2
100
AcDbEntity
  8
CENTER
100
AcDbLine
 10
965.1861669703022
 20
118.067523725134
 30
0.0
 11
959.1861669703021
 21
118.067523725134
 31
0.0
  0
LINE
  5
1427
330
2
100
AcDbEntity
  8
0
100
AcDbLine
 10
933.4012643936048
 20
164.2236117536828
 30
0.0
 11
943.1512643936049
 21
164.2236117536828
 31
0.0
  0
ARC
  5
1428
330
2
100
AcDbEntity
  8
0
100
AcDbCircle
 10
933.4012643936048
 20
159.9736117536828
 30
0.0
 40
4.25
100
AcDbArc
 50
90.0
 51
179.948574696702
  0
ARC
  5
1429
330
2
100
AcDbEntity
  8
0
100
AcDbCircle
 10
942.9012643936047
 20
159.9736117536828
 30
0.0
 40
4.25
100
AcDbArc
 50
0.0
 51
90.0
  0
LINE
  5
142A
330
2
100
AcDbEntity
  8
CENTER
  6
CENS
100
AcDbLine
 10
78.93540353574326
 20
169.4042934843379
 30
0.0
 11
78.93540353574326
 21
147.3500328177357
 31
0.0
  0
LINE
  5
142B
330
2
100
AcDbEntity
  8
0
100
AcDbLine
 10
66.93540353574326
 20
153.9774263018313
 30
0.0
 11
66.93540353574326
 21
113.9774263018313
 31
0.0
  0
LINE
  5
142C
330
2
100
AcDbEntity
  8
0
100
AcDbLine
 10
91.93544644612074
 20
160.3614384770959
 30
0.0
 11
71.90049872286772
 21
160.0117271637533
 31
0.0
  0
ARC
  5
142D
330
2
100
AcDbEntity
  8
0
100
AcDbCircle
 10
71.93540353574326
 20
158.0120317734396
 30
0.0
 40
2.0
100
AcDbArc
 50
90.99999999997569
 51
180.0
  0
ARC
  5
142E
330
2
100
AcDbEntity
  8
0
100
AcDbCircle
 10
67.93540353574326
 20
155.9951860228472
 30
0.0
 40
2.0
100
AcDbArc
 50
270.9999999999757
 51
0.0
  0
LINE
  5
142F
330
2
100
AcDbEntity
  8
0
100
AcDbLine
 10
66.93540353574326
 20
153.9774263018313
 30
0.0
 11
67.97030834861698
 21
153.9954906325344
 31
0.0
  0
LINE
  5
1430
330
2
100
AcDbEntity
  8
0
100
AcDbLine
 10
69.93540353574326
 20
158.0120317734396
 30
0.0
 11
69.93540353574326
 21
109.942820830223
 31
0.0
  0
LINE
  5
1431
330
2
100
AcDbEntity
  8
0
100
AcDbLine
 10
104.9354035357432
 20
161.9774262992465
 30
0.0
 11
97.92671991062206
 21
161.9162624438628
 31
0.0
  0
LINE
  5
1432
330
2
100
AcDbEntity
  8
0
100
AcDbLine
 10
104.9354035357432
 20
105.9774263044161
 30
0.0
 11
97.9266769974679
 21
106.038590534297
 31
0.0
  0
LINE
  5
1433
330
2
100
AcDbEntity
  8
0
100
AcDbLine
 10
91.93544644612074
 20
107.5934141265667
 30
0.0
 11
71.90049872286772
 21
107.9431254399093
 31
0.0
  0
ARC
  5
1434
330
2
100
AcDbEntity
  8
0
100
AcDbCircle
 10
71.93540353574326
 20
109.942820830223
 30
0.0
 40
2.0
100
AcDbArc
 50
180.0
 51
269.0000000000242
  0
ARC
  5
1435
330
2
100
AcDbEntity
  8
0
100
AcDbCircle
 10
67.93540353574326
 20
111.9596665808155
 30
0.0
 40
2.0
100
AcDbArc
 50
0.0
 51
89.0000000000243
  0
LINE
  5
1436
330
2
100
AcDbEntity
  8
0
100
AcDbLine
 10
66.93540353574326
 20
113.9774263018313
 30
0.0
 11
67.97030834861698
 21
113.9593619711283
 31
0.0
  0
ARC
  5
1437
330
2
100
AcDbEntity
  8
0
100
AcDbCircle
 10
97.93544644611984
 20
160.9163005207989
 30
0.0
 40
1.0
100
AcDbArc
 50
90.49999999996549
 51
180.0
  0
ARC
  5
1438
330
2
100
AcDbEntity
  8
0
100
AcDbCircle
 10
95.34018954461089
 20
162.421173145032
 30
0.0
 40
2.0
100
AcDbArc
 50
322.904229126944
 51
329.8924849549449
  0
ARC
  5
1439
330
2
100
AcDbEntity
  8
0
100
AcDbCircle
 10
97.93544644611984
 20
107.0385520828637
 30
0.0
 40
1.0
100
AcDbArc
 50
180.0
 51
269.5000000000345
  0
ARC
  5
143A
330
2
100
AcDbEntity
  8
0
100
AcDbCircle
 10
95.34018954461089
 20
105.5336794586307
 30
0.0
 40
2.0
100
AcDbArc
 50
30.1075150449967
 51
37.09577087305602
  0
LINE
  5
143B
330
2
100
AcDbEntity
  8
0
100
AcDbLine
 10
95.93544644612075
 20
161.8726604664531
 30
0.0
 11
96.93544644612074
 21
161.8726604664531
 31
0.0
  0
LINE
  5
143C
330
2
100
AcDbEntity
  8
0
100
AcDbLine
 10
96.93544644612074
 20
161.8726604664531
 30
0.0
 11
96.93544644612074
 21
154.8726604664531
 31
0.0
  0
LINE
  5
143D
330
2
100
AcDbEntity
  8
0
100
AcDbLine
 10
96.93544644612074
 20
154.8726604664531
 30
0.0
 11
95.93544644612075
 21
154.8726604664531
 31
0.0
  0
LINE
  5
143E
330
2
100
AcDbEntity
  8
0
100
AcDbLine
 10
95.93544644612075
 20
154.8726604664531
 30
0.0
 11
95.93544644612075
 21
161.8726604664531
 31
0.0
  0
LINE
  5
143F
330
2
100
AcDbEntity
  8
0
100
AcDbLine
 10
91.93544644612074
 20
161.3530452241818
 30
0.0
 11
91.93544644612074
 21
155.3922757087236
 31
0.0
  0
LINE
  5
1440
330
2
100
AcDbEntity
  8
0
100
AcDbLine
 10
92.23544644612093
 20
154.8726604664531
 30
0.0
 11
92.23544644612093
 21
161.8726604664531
 31
0.0
  0
LINE
  5
1441
330
2
100
AcDbEntity
  8
0
100
AcDbLine
 10
92.23544644612093
 20
154.8726604664531
 30
0.0
 11
95.93544644612075
 21
154.8726604664531
 31
0.0
  0
LINE
  5
1442
330
2
100
AcDbEntity
  8
0
100
AcDbLine
 10
92.23544644612093
 20
154.8726604664531
 30
0.0
 11
91.93544644612074
 21
155.3922757087236
 31
0.0
  0
LINE
  5
1443
330
2
100
AcDbEntity
  8
0
100
AcDbLine
 10
91.93544644612074
 20
161.3530452241818
 30
0.0
 11
92.23544644612093
 21
161.8726604664531
 31
0.0
  0
LINE
  5
1444
330
2
100
AcDbEntity
  8
0
100
AcDbLine
 10
95.93544644612075
 20
161.8726604664531
 30
0.0
 11
92.23544644612093
 21
161.8726604664531
 31
0.0
  0
LINE
  5
1445
330
2
100
AcDbEntity
  8
0
100
AcDbLine
 10
95.93544644612075
 20
106.0821921372095
 30
0.0
 11
96.93544644612074
 21
106.0821921372095
 31
0.0
  0
LINE
  5
1446
330
2
100
AcDbEntity
  8
0
100
AcDbLine
 10
96.93544644612074
 20
113.0821921372095
 30
0.0
 11
95.93544644612075
 21
113.0821921372095
 31
0.0
  0
LINE
  5
1447
330
2
100
AcDbEntity
  8
0
100
AcDbLine
 10
95.93544644612075
 20
113.0821921372095
 30
0.0
 11
95.93544644612075
 21
106.0821921372095
 31
0.0
  0
LINE
  5
1448
330
2
100
AcDbEntity
  8
0
100
AcDbLine
 10
91.93544644612074
 20
106.6018073794809
 30
0.0
 11
91.93544644612074
 21
112.5625768949391
 31
0.0
  0
LINE
  5
1449
330
2
100
AcDbEntity
  8
0
100
AcDbLine
 10
92.23544644612093
 20
113.0821921372095
 30
0.0
 11
92.23544644612093
 21
106.0821921372095
 31
0.0
  0
LINE
  5
144A
330
2
100
AcDbEntity
  8
0
100
AcDbLine
 10
92.23544644612093
 20
113.0821921372095
 30
0.0
 11
95.93544644612075
 21
113.0821921372095
 31
0.0
  0
LINE
  5
144B
330
2
100
AcDbEntity
  8
0
100
AcDbLine
 10
92.23544644612093
 20
113.0821921372095
 30
0.0
 11
91.93544644612074
 21
112.5625768949391
 31
0.0
  0
LINE
  5
144C
330
2
100
AcDbEntity
  8
0
100
AcDbLine
 10
91.93544644612074
 20
106.6018073794809
 30
0.0
 11
92.23544644612093
 21
106.0821921372095
 31
0.0
  0
LINE
  5
144D
330
2
100
AcDbEntity
  8
0
100
AcDbLine
 10
95.93544644612075
 20
106.0821921372095
 30
0.0
 11
92.23544644612093
 21
106.0821921372095
 31
0.0
  0
LINE
  5
144E
330
2
100
AcDbEntity
  8
0
100
AcDbLine
 10
96.93544644612074
 20
106.0821921372095
 30
0.0
 11
96.93544644612074
 21
113.0821921372095
 31
0.0
  0
LINE
  5
144F
330
2
100
AcDbEntity
  8
0
100
AcDbLine
 10
96.93544644611984
 20
107.0385520828637
 30
0.0
 11
96.93544644611984
 21
160.9163005207989
 31
0.0
  0
LINE
  5
1450
330
2
100
AcDbEntity
  8
0
100
AcDbLine
 10
74.00601723776936
 20
164.0490876893106
 30
0.0
 11
84.00449418933431
 21
164.2236117536828
 31
0.0
  0
ARC
  5
1451
330
2
100
AcDbEntity
  8
0
100
AcDbCircle
 10
84.07430381508357
 20
160.2242209730572
 30
0.0
 40
3.999999999999995
100
AcDbArc
 50
1.000000000001775
 51
90.99999999997569
  0
LINE
  5
1452
330
2
100
AcDbEntity
  8
0
100
AcDbLine
 10
88.07369459570827
 20
160.2940305988065
 30
0.0
 11
70.07643608289299
 21
159.9798872829357
 31
0.0
  0
LINE
  5
1453
330
2
100
AcDbEntity
  8
0
100
AcDbLine
 10
70.07643608289299
 20
159.9798872829357
 30
0.0
 11
70.07643608289299
 21
159.9798872829357
 31
0.0
  0
ARC
  5
1454
330
2
100
AcDbEntity
  8
0
100
AcDbCircle
 10
74.07582686351862
 20
160.049696908685
 30
0.0
 40
3.999999999999995
100
AcDbArc
 50
90.99999999997569
 51
181.0000000000017
  0
LINE
  5
1455
330
2
100
AcDbEntity
  8
0
100
AcDbLine
 10
95.93544644611984
 20
113.8528145043334
 30
0.0
 11
70.93635546077212
 21
114.0709782662512
 31
0.0
  0
LINE
  5
1456
330
2
100
AcDbEntity
  8
CENTER
  6
CENS
100
AcDbLine
 10
86.93544644612074
 20
158.3726604664531
 30
0.0
 11
109.9354035357432
 21
158.3726604664531
 31
0.0
  0
LINE
  5
1457
330
2
100
AcDbEntity
  8
CENTER
  6
CENS
100
AcDbLine
 10
86.93544644612074
 20
109.5821921372095
 30
0.0
 11
109.9354035357432
 21
109.5821921372095
 31
0.0
  0
LINE
  5
1458
330
2
100
AcDbEntity
  8
0
100
AcDbLine
 10
706.073198662611
 20
154.1020380993292
 30
0.0
 11
731.0722896479587
 21
153.8838743374114
 31
0.0
  0
LINE
  5
213F
330
2
100
AcDbEntity
  8
CENTER
100
AcDbLine
 10
565.7879597377822
 20
173.4627076760713
 30
0.0
 11
644.7585224862528
 21
94.4921449275891
 31
0.0
  0
LINE
  5
2140
330
2
100
AcDbEntity
  8
CENTER
100
AcDbLine
 10
644.7585224862571
 20
173.4627076760697
 30
0.0
 11
565.7879597377798
 21
94.49214492759365
 31
0.0
  0
LINE
  5
2141
330
2
100
AcDbEntity
  8
0
100
AcDbLine
 10
575.2732415729859
 20
371.6794976650139
 30
0.0
 11
635.2732415729859
 21
371.6794976650139
 31
0.0
  0
LINE
  5
2142
330
2
100
AcDbEntity
  8
0
100
AcDbLine
 10
583.2046186616316
 20
358.6794976650139
 30
0.0
 11
627.3418635624038
 21
358.6794976650139
 31
0.0
  0
LINE
  5
2147
330
2
100
AcDbEntity
  8
0
100
AcDbLine
 10
569.7357651049277
 20
376.6794976650139
 30
0.0
 11
640.8063536852076
 21
376.6794976650121
 31
0.0
  0
ARC
  5
2148
330
2
100
AcDbEntity
  8
0
100
AcDbCircle
 10
605.2732411120191
 20
9.977426301829552
 30
0.0
 40
160.0
100
AcDbArc
 50
84.07091451212378
 51
95.92908548787621
  0
CIRCLE
  5
214A
330
2
100
AcDbEntity
  8
0
100
AcDbCircle
 10
605.2732411120191
 20
133.9774263018313
 30
0.0
 40
19.0
  0
ARC
  5
214E
330
2
100
AcDbEntity
  8
0
100
AcDbCircle
 10
605.2732411120191
 20
257.9774263018295
 30
0.0
 40
160.0
100
AcDbArc
 50
264.0709145121237
 51
275.9290854878762
  0
CIRCLE
  5
2150
330
2
100
AcDbEntity
  8
0
100
AcDbCircle
 10
605.2732411120191
 20
133.9774263018313
 30
0.0
 40
30.0
  0
CIRCLE
  5
2151
330
2
100
AcDbEntity
  8
0
100
AcDbCircle
 10
605.2732411120191
 20
133.9774263018313
 30
0.0
 40
24.0
  0
CIRCLE
  5
2152
330
2
100
AcDbEntity
  8
CENTER
100
AcDbCircle
 10
605.2732411120173
 20
133.9774263018313
 30
0.0
 40
44.0
  0
LINE
  5
2155
330
2
100
AcDbEntity
  8
0
100
AcDbLine
 10
324.9150990045275
 20
97.97742630183144
 30
0.0
 11
324.9150990045275
 21
169.9774263018314
 31
0.0
  0
LINE
  5
2156
330
2
100
AcDbEntity
  8
0
100
AcDbLine
 10
306.9150990045802
 20
156.9774263018314
 30
0.0
 11
306.9150990045802
 21
110.9774263018314
 31
0.0
  0
LINE
  5
2157
330
2
100
AcDbEntity
  8
0
100
AcDbLine
 10
310.61509900458
 20
110.9774263018314
 30
0.0
 11
310.615099004581
 21
156.9774263018314
 31
0.0
  0
LINE
  5
2158
330
2
100
AcDbEntity
  8
0
100
AcDbLine
 10
310.4150990045802
 20
156.7774263018307
 30
0.0
 11
310.4150990045802
 21
111.1774263018303
 31
0.0
  0
LINE
  5
2159
330
2
100
AcDbEntity
  8
0
100
AcDbLine
 10
308.4150990045802
 20
156.7774263018307
 30
0.0
 11
308.4150990045802
 21
111.1774263018303
 31
0.0
  0
LINE
  5
215A
330
2
100
AcDbEntity
  8
0
100
AcDbLine
 10
315.4150990045316
 20
160.7274263018441
 30
0.0
 11
315.4150990045316
 21
107.2274263018186
 31
0.0
  0
LINE
  5
215B
330
2
100
AcDbEntity
  8
0
100
AcDbLine
 10
313.9150990045798
 20
158.9774263018314
 30
0.0
 11
313.9150990045798
 21
108.9774263018314
 31
0.0
  0
LINE
  5
215C
330
2
100
AcDbEntity
  8
0
100
AcDbLine
 10
314.4150990045798
 20
160.5632127394581
 30
0.0
 11
314.4150990045798
 21
107.3916398642047
 31
0.0
  0
LINE
  5
215D
330
2
100
AcDbEntity
  8
0
100
AcDbLine
 10
382.9150990045247
 20
103.9774267627997
 30
0.0
 11
382.9150990045247
 21
163.9774267627997
 31
0.0
  0
LINE
  5
215E
330
2
100
AcDbEntity
  8
0
100
AcDbLine
 10
377.9150990045248
 20
98.4399502947415
 30
0.0
 11
377.9150990045266
 21
169.5149023089213
 31
0.0
  0
LINE
  5
215F
330
2
100
AcDbEntity
  8
0
100
AcDbLine
 10
305.9150990045802
 20
156.4000760326414
 30
0.0
 11
305.9150990045802
 21
111.5547765710195
 31
0.0
  0
LINE
  5
2160
330
2
100
AcDbEntity
  8
0
100
AcDbLine
 10
395.9150990045248
 20
111.9088043124136
 30
0.0
 11
395.9150990045252
 21
156.0460492131858
 31
0.0
  0
LINE
  5
2161
330
2
100
AcDbEntity
  8
CENTER
100
AcDbLine
 10
347.9150990045248
 20
88.17814426101881
 30
0.0
 11
347.9150990045252
 21
179.776708342644
 31
0.0
  0
LINE
  5
2168
330
2
100
AcDbEntity
  8
CENTER
100
AcDbLine
 10
196.7354039967117
 20
87.97742630183137
 30
0.0
 11
196.7354039967117
 21
179.9774263018313
 31
0.0
  0
ARC
  5
2169
330
2
100
AcDbEntity
  8
0
100
AcDbCircle
 10
729.2732411120191
 20
133.9774263018295
 30
0.0
 40
160.0
100
AcDbArc
 50
174.0709145121237
 51
185.9290854878762
  0
ARC
  5
216A
330
2
100
AcDbEntity
  8
0
100
AcDbCircle
 10
72.73540399671219
 20
133.9774263018313
 30
0.0
 40
160.0
100
AcDbArc
 50
354.0709145121237
 51
5.929085487876228
  0
LINE
  5
216B
330
2
100
AcDbEntity
  8
CENTER
100
AcDbLine
 10
227.2354039967112
 20
149.3677896849509
 30
0.0
 11
227.2354039967112
 21
160.5870629187117
 31
0.0
  0
ARC
  5
216C
330
2
100
AcDbEntity
  8
0
100
AcDbCircle
 10
211.7354039967117
 20
148.9774263018313
 30
0.0
 40
13.0
100
AcDbArc
 50
0.0
 51
90.0
  0
ARC
  5
216D
330
2
100
AcDbEntity
  8
0
100
AcDbCircle
 10
211.7354039967117
 20
148.9774263018313
 30
0.0
 40
12.0
100
AcDbArc
 50
0.0
 51
90.0
  0
ARC
  5
216E
330
2
100
AcDbEntity
  8
0
100
AcDbCircle
 10
134.7354039967112
 20
149.4774263018313
 30
0.0
 40
2.0
100
AcDbArc
 50
90.0
 51
180.0
  0
LINE
  5
216F
330
2
100
AcDbEntity
  8
CENTER
100
AcDbLine
 10
137.7354039967112
 20
164.2274263018313
 30
0.0
 11
137.7354039967108
 21
149.7274263018313
 31
0.0
  0
LINE
  5
2170
330
2
100
AcDbEntity
  8
0
100
AcDbLine
 10
123.4354035357441
 20
154.4774263018295
 30
0.0
 11
123.4354035357441
 21
113.4774263018295
 31
0.0
  0
ARC
  5
2171
330
2
100
AcDbEntity
  8
0
100
AcDbCircle
 10
181.7354039967117
 20
148.9774263018313
 30
0.0
 40
13.0
100
AcDbArc
 50
90.0
 51
180.0
  0
ARC
  5
2172
330
2
100
AcDbEntity
  8
0
100
AcDbCircle
 10
181.7354039967117
 20
148.9774263018313
 30
0.0
 40
12.0
100
AcDbArc
 50
90.0
 51
180.0
  0
CIRCLE
  5
2173
330
2
100
AcDbEntity
  8
0
100
AcDbCircle
 10
196.7354039967117
 20
133.9774263018313
 30
0.0
 40
19.0
  0
CIRCLE
  5
2174
330
2
100
AcDbEntity
  8
0
100
AcDbCircle
 10
196.7354039967117
 20
133.9774263018313
 30
0.0
 40
19.5774
  0
CIRCLE
  5
2175
330
2
100
AcDbEntity
  8
0
100
AcDbCircle
 10
196.7354039967117
 20
133.9774263018313
 30
0.0
 40
22.42259999999999
  0
LINE
  5
2176
330
2
100
AcDbEntity
  8
0
100
AcDbLine
 10
112.9354035357437
 20
107.4774263018313
 30
0.0
 11
112.9354035357432
 21
160.4774263018313
 31
0.0
  0
LINE
  5
2177
330
2
100
AcDbEntity
  8
0
100
AcDbLine
 10
160.7354039967122
 20
102.9774263018313
 30
0.0
 11
160.7354039967131
 21
164.9774263018313
 31
0.0
  0
LINE
  5
2178
330
2
100
AcDbEntity
  8
0
100
AcDbLine
 10
132.7354039967112
 20
110.9774263018313
 30
0.0
 11
132.7354039967112
 21
156.9774263018313
 31
0.0
  0
CIRCLE
  5
2179
330
2
100
AcDbEntity
  8
0
100
AcDbCircle
 10
196.7354039967117
 20
133.9774263018313
 30
0.0
 40
25.5
  0
CIRCLE
  5
217A
330
2
100
AcDbEntity
  8
0
100
AcDbCircle
 10
196.7354039967117
 20
133.9774263018313
 30
0.0
 40
25.0
  0
CIRCLE
  5
217B
330
2
100
AcDbEntity
  8
0
100
AcDbCircle
 10
196.7354039967117
 20
133.9774263018313
 30
0.0
 40
23.0
  0
ARC
  5
217E
330
2
100
AcDbEntity
  8
0
100
AcDbCircle
 10
145.2354039967126
 20
107.9774263018313
 30
0.0
 40
2.0
100
AcDbArc
 50
180.0
 51
270.0
  0
LINE
  5
217F
330
2
100
AcDbEntity
  8
CENTER
100
AcDbLine
 10
130.4854039967112
 20
110.9774263018313
 30
0.0
 11
144.9854039967112
 21
110.9774263018313
 31
0.0
  0
LINE
  5
2180
330
2
100
AcDbEntity
  8
0
100
AcDbLine
 10
157.7354039967121
 20
105.9774263018313
 30
0.0
 11
137.7354039967112
 21
105.9774263018313
 31
0.0
  0
LINE
  5
2181
330
2
100
AcDbEntity
  8
CENTER
100
AcDbLine
 10
143.6342991557135
 20
110.4774263018295
 30
0.0
 11
151.8365088377095
 21
110.4774263018295
 31
0.0
  0
ARC
  5
2182
330
2
100
AcDbEntity
  8
0
100
AcDbCircle
 10
137.7354039967112
 20
110.9774263018313
 30
0.0
 40
5.0
100
AcDbArc
 50
180.0
 51
270.0
  0
LINE
  5
2183
330
2
100
AcDbEntity
  8
0
100
AcDbLine
 10
143.2354039967126
 20
107.9774263018313
 30
0.0
 11
143.2354039967122
 21
110.9774263018313
 31
0.0
  0
LINE
  5
2184
330
2
100
AcDbEntity
  8
0
100
AcDbLine
 10
139.7354039967112
 20
109.8227257634514
 30
0.0
 11
137.7354039967112
 21
108.6680252250713
 31
0.0
  0
LINE
  5
2185
330
2
100
AcDbEntity
  8
0
100
AcDbLine
 10
135.7354039967112
 20
109.8227257634514
 30
0.0
 11
137.7354039967108
 21
108.6680252250713
 31
0.0
  0
LINE
  5
2186
330
2
100
AcDbEntity
  8
CENTER
100
AcDbLine
 10
137.7354039967112
 20
103.7274263018295
 30
0.0
 11
137.7354039967108
 21
118.2274263018313
 31
0.0
  0
CIRCLE
  5
2187
330
2
100
AcDbEntity
  8
0
100
AcDbCircle
 10
137.7354039967112
 20
110.9774263018313
 30
0.0
 40
3.730384757729268
  0
CIRCLE
  5
2188
330
2
100
AcDbEntity
  8
0
100
AcDbCircle
 10
137.7354039967112
 20
110.9774263018313
 30
0.0
 40
4.250000000000085
  0
ARC
  5
2189
330
2
100
AcDbEntity
  8
0
100
AcDbCircle
 10
117.863606766019
 20
106.4774263018295
 30
0.0
 40
5.0
100
AcDbArc
 50
90.0
 51
171.7867892982766
  0
LINE
  5
218A
330
2
100
AcDbEntity
  8
0
100
AcDbLine
 10
104.9354035357432
 20
105.9774263018313
 30
0.0
 11
110.9354035357437
 21
105.9774263018313
 31
0.0
  0
LINE
  5
218B
330
2
100
AcDbEntity
  8
0
100
AcDbLine
 10
104.9354035357432
 20
105.4774263018313
 30
0.0
 11
110.9354035357437
 21
105.4774263018313
 31
0.0
  0
ARC
  5
218C
330
2
100
AcDbEntity
  8
0
100
AcDbCircle
 10
110.9354035357437
 20
107.9774263018313
 30
0.0
 40
2.0
100
AcDbArc
 50
270.0
 51
0.0
  0
ARC
  5
218D
330
2
100
AcDbEntity
  8
0
100
AcDbCircle
 10
110.9354035357437
 20
107.4774263018313
 30
0.0
 40
2.0
100
AcDbArc
 50
270.0
 51
0.0
  0
ARC
  5
218E
330
2
100
AcDbEntity
  8
0
100
AcDbCircle
 10
130.7354039967117
 20
111.4774263018295
 30
0.0
 40
2.0
100
AcDbArc
 50
0.0
 51
90.0
  0
ARC
  5
218F
330
2
100
AcDbEntity
  8
0
100
AcDbCircle
 10
124.8995051508813
 20
111.4774263018295
 30
0.0
 40
2.0
100
AcDbArc
 50
90.0
 51
149.9999999999994
  0
LINE
  5
2190
330
2
100
AcDbEntity
  8
0
100
AcDbLine
 10
124.8995051508813
 20
113.4774263018295
 30
0.0
 11
130.7354039967117
 21
113.4774263018295
 31
0.0
  0
LINE
  5
2191
330
2
100
AcDbEntity
  8
0
100
AcDbLine
 10
121.4354035357441
 20
111.4774263018295
 30
0.0
 11
117.863606766019
 21
111.4774263018295
 31
0.0
  0
LINE
  5
2192
330
2
100
AcDbEntity
  8
0
100
AcDbLine
 10
134.7354039967121
 20
116.4774263018313
 30
0.0
 11
137.7354039967117
 21
116.4774263018313
 31
0.0
  0
ARC
  5
2193
330
2
100
AcDbEntity
  8
0
100
AcDbCircle
 10
134.7354039967117
 20
118.4774263018313
 30
0.0
 40
2.0
100
AcDbArc
 50
180.0
 51
270.0
  0
LINE
  5
2194
330
2
100
AcDbEntity
  8
0
100
AcDbLine
 10
137.7354039967108
 20
113.2868273785895
 30
0.0
 11
139.7354039967112
 21
112.1321268402095
 31
0.0
  0
LINE
  5
2195
330
2
100
AcDbEntity
  8
0
100
AcDbLine
 10
137.7354039967108
 20
113.2868273785895
 30
0.0
 11
135.7354039967112
 21
112.1321268402095
 31
0.0
  0
ARC
  5
2196
330
2
100
AcDbEntity
  8
0
100
AcDbCircle
 10
121.4354035357441
 20
113.4774263018295
 30
0.0
 40
2.0
100
AcDbArc
 50
270.0
 51
0.0
  0
ARC
  5
2197
330
2
100
AcDbEntity
  8
0
100
AcDbCircle
 10
137.7354039967122
 20
110.9774263018313
 30
0.0
 40
5.5
100
AcDbArc
 50
0.0
 51
90.0
  0
LINE
  5
2198
330
2
100
AcDbEntity
  8
0
100
AcDbLine
 10
135.7354039967112
 20
112.1321268402095
 30
0.0
 11
135.7354039967112
 21
109.8227257634514
 31
0.0
  0
LINE
  5
2199
330
2
100
AcDbEntity
  8
0
100
AcDbLine
 10
139.7354039967112
 20
112.1321268402095
 30
0.0
 11
139.7354039967112
 21
109.8227257634514
 31
0.0
  0
ARC
  5
219A
330
2
100
AcDbEntity
  8
0
100
AcDbCircle
 10
216.3619236766935
 20
68.99382985692472
 30
0.0
 40
30.0
100
AcDbArc
 50
76.15817568162241
 51
95.92908548785031
  0
ARC
  5
219B
330
2
100
AcDbEntity
  8
0
100
AcDbCircle
 10
211.7354039967117
 20
118.9774263018313
 30
0.0
 40
13.0
100
AcDbArc
 50
270.0
 51
0.0
  0
ARC
  5
219C
330
2
100
AcDbEntity
  8
0
100
AcDbCircle
 10
211.7354039967117
 20
118.9774263018313
 30
0.0
 40
12.0
100
AcDbArc
 50
270.0
 51
0.0
  0
ARC
  5
219D
330
2
100
AcDbEntity
  8
0
100
AcDbCircle
 10
181.7354039967117
 20
118.9774263018313
 30
0.0
 40
13.0
100
AcDbArc
 50
180.0
 51
270.0
  0
ARC
  5
219E
330
2
100
AcDbEntity
  8
0
100
AcDbCircle
 10
181.7354039967117
 20
118.9774263018313
 30
0.0
 40
12.0
100
AcDbArc
 50
180.0
 51
270.0
  0
CIRCLE
  5
219F
330
2
100
AcDbEntity
  8
0
100
AcDbCircle
 10
147.7354039967112
 20
110.4774263018295
 30
0.0
 40
1.6
  0
LINE
  5
21A0
330
2
100
AcDbEntity
  8
CENTER
100
AcDbLine
 10
147.7354039967112
 20
106.3763214608313
 30
0.0
 11
147.7354039967112
 21
114.5785311428277
 31
0.0
  0
CIRCLE
  5
21A1
330
2
100
AcDbEntity
  8
HOJO
100
AcDbCircle
 10
147.7354039967112
 20
110.4774263018295
 30
0.0
 40
2.0
  0
ARC
  5
21A2
330
2
100
AcDbEntity
  8
0
100
AcDbCircle
 10
177.1088843167303
 20
68.99382985692472
 30
0.0
 40
30.0
100
AcDbArc
 50
84.0709145121497
 51
103.8418243183775
  0
ARC
  5
21A3
330
2
100
AcDbEntity
  8
0
100
AcDbCircle
 10
157.7354039967121
 20
102.9774263018313
 30
0.0
 40
3.0
100
AcDbArc
 50
0.0
 51
90.0
  0
ARC
  5
21A4
330
2
100
AcDbEntity
  8
0
100
AcDbCircle
 10
165.7354039967122
 20
102.9774263018313
 30
0.0
 40
5.0
100
AcDbArc
 50
180.0
 51
270.0
  0
LINE
  5
21A5
330
2
100
AcDbEntity
  8
0
100
AcDbLine
 10
168.7354039967122
 20
97.97742630183137
 30
0.0
 11
165.7354039967122
 21
97.97742630183137
 31
0.0
  0
ARC
  5
21A6
330
2
100
AcDbEntity
  8
0
100
AcDbCircle
 10
168.7354039967122
 20
102.9774263018313
 30
0.0
 40
5.0
100
AcDbArc
 50
270.0
 51
283.8418243183775
  0
LINE
  5
21A7
330
2
100
AcDbEntity
  8
0
100
AcDbLine
 10
211.7354039967117
 20
105.9774263018313
 30
0.0
 11
181.7354039967117
 21
105.9774263018313
 31
0.0
  0
LINE
  5
21A8
330
2
100
AcDbEntity
  8
0
100
AcDbLine
 10
211.7354039967117
 20
106.9774263018313
 30
0.0
 11
181.7354039967117
 21
106.9774263018313
 31
0.0
  0
ARC
  5
21A9
330
2
100
AcDbEntity
  8
0
100
AcDbCircle
 10
196.7354039967117
 20
257.9774263018313
 30
0.0
 40
160.0
100
AcDbArc
 50
264.0709145121496
 51
275.9290854878502
  0
LINE
  5
21AA
330
2
100
AcDbEntity
  8
0
100
AcDbLine
 10
168.7354039967117
 20
148.9774263018313
 30
0.0
 11
168.7354039967117
 21
118.9774263018313
 31
0.0
  0
LINE
  5
21AB
330
2
100
AcDbEntity
  8
0
100
AcDbLine
 10
169.7354039967117
 20
148.9774263018313
 30
0.0
 11
169.7354039967117
 21
118.9774263018313
 31
0.0
  0
LINE
  5
21AC
330
2
100
AcDbEntity
  8
0
100
AcDbLine
 10
172.5430158412868
 20
109.7850381464065
 30
0.0
 11
173.2501226224731
 21
110.4921449275931
 31
0.0
  0
ARC
  5
21AD
330
2
100
AcDbEntity
  8
0
100
AcDbCircle
 10
227.7354039967117
 20
102.9774263018313
 30
0.0
 40
5.5
100
AcDbArc
 50
90.0
 51
180.0
  0
ARC
  5
21AE
330
2
100
AcDbEntity
  8
0
100
AcDbCircle
 10
229.9543006915746
 20
110.4774263018313
 30
0.0
 40
2.0
100
AcDbArc
 50
270.0
 51
6.95248905059621
  0
LINE
  5
21AF
330
2
100
AcDbEntity
  8
CENTER
100
AcDbLine
 10
227.7354039967126
 20
95.72742630183137
 30
0.0
 11
227.7354039967121
 21
110.2274263018313
 31
0.0
  0
ARC
  5
21B0
330
2
100
AcDbEntity
  8
0
100
AcDbCircle
 10
261.7190004416183
 20
114.35090662185
 30
0.0
 40
30.0
100
AcDbArc
 50
174.0709145121237
 51
193.841824318421
  0
LINE
  5
21B1
330
2
100
AcDbEntity
  8
CENTER
100
AcDbLine
 10
227.2354039967112
 20
118.5870629187117
 30
0.0
 11
227.2354039967112
 21
107.3677896849509
 31
0.0
  0
LINE
  5
21B2
330
2
100
AcDbEntity
  8
CENTER
100
AcDbLine
 10
234.9854039967117
 20
102.9774263018313
 30
0.0
 11
220.4854039967117
 21
102.9774263018313
 31
0.0
  0
LINE
  5
21B3
330
2
100
AcDbEntity
  8
0
100
AcDbLine
 10
227.7354039967117
 20
97.97742630183137
 30
0.0
 11
224.7354039967117
 21
97.97742630183137
 31
0.0
  0
ARC
  5
21B4
330
2
100
AcDbEntity
  8
0
100
AcDbCircle
 10
227.7354039967117
 20
102.9774263018313
 30
0.0
 40
5.0
100
AcDbArc
 50
270.0
 51
0.0
  0
LINE
  5
21B5
330
2
100
AcDbEntity
  8
0
100
AcDbLine
 10
227.7354039967117
 20
108.4774263018313
 30
0.0
 11
229.9543006915746
 21
108.4774263018313
 31
0.0
  0
ARC
  5
21B6
330
2
100
AcDbEntity
  8
0
100
AcDbCircle
 10
227.7354039967117
 20
105.9774263018313
 30
0.0
 40
5.0
100
AcDbArc
 50
0.0
 51
13.84182431842102
  0
LINE
  5
21B7
330
2
100
AcDbEntity
  8
0
100
AcDbLine
 10
232.7354039967117
 20
102.9774263018313
 30
0.0
 11
232.7354039967117
 21
105.9774263018313
 31
0.0
  0
ARC
  5
21B8
330
2
100
AcDbEntity
  8
0
100
AcDbCircle
 10
220.2354039967117
 20
100.758529606968
 30
0.0
 40
2.0
100
AcDbArc
 50
263.04751094943
 51
0.0
  0
LINE
  5
21B9
330
2
100
AcDbEntity
  8
0
100
AcDbLine
 10
222.2354039967117
 20
102.9774263018313
 30
0.0
 11
222.2354039967117
 21
100.758529606968
 31
0.0
  0
ARC
  5
21BA
330
2
100
AcDbEntity
  8
0
100
AcDbCircle
 10
224.7354039967117
 20
102.9774263018313
 30
0.0
 40
5.0
100
AcDbArc
 50
256.1581756815821
 51
270.0
  0
LINE
  5
21BB
330
2
100
AcDbEntity
  8
0
100
AcDbLine
 10
225.7354039967121
 20
104.1321268402095
 30
0.0
 11
225.7354039967121
 21
101.8227257634513
 31
0.0
  0
LINE
  5
21BC
330
2
100
AcDbEntity
  8
0
100
AcDbLine
 10
229.7354039967121
 20
104.1321268402095
 30
0.0
 11
229.7354039967121
 21
101.8227257634513
 31
0.0
  0
CIRCLE
  5
21BD
330
2
100
AcDbEntity
  8
0
100
AcDbCircle
 10
227.7354039967121
 20
102.9774263018313
 30
0.0
 40
3.730384757729268
  0
CIRCLE
  5
21BE
330
2
100
AcDbEntity
  8
0
100
AcDbCircle
 10
227.7354039967121
 20
102.9774263018313
 30
0.0
 40
4.250000000000085
  0
LINE
  5
21BF
330
2
100
AcDbEntity
  8
0
100
AcDbLine
 10
229.7354039967121
 20
101.8227257634513
 30
0.0
 11
227.7354039967121
 21
100.6680252250732
 31
0.0
  0
LINE
  5
21C0
330
2
100
AcDbEntity
  8
0
100
AcDbLine
 10
225.7354039967121
 20
101.8227257634513
 30
0.0
 11
227.7354039967121
 21
100.6680252250732
 31
0.0
  0
LINE
  5
21C1
330
2
100
AcDbEntity
  8
0
100
AcDbLine
 10
227.7354039967121
 20
105.2868273785895
 30
0.0
 11
229.7354039967121
 21
104.1321268402095
 31
0.0
  0
LINE
  5
21C2
330
2
100
AcDbEntity
  8
0
100
AcDbLine
 10
227.7354039967121
 20
105.2868273785895
 30
0.0
 11
225.7354039967121
 21
104.1321268402095
 31
0.0
  0
CIRCLE
  5
21C3
330
2
100
AcDbEntity
  8
0
100
AcDbCircle
 10
227.2354039967117
 20
112.9774263018313
 30
0.0
 40
1.6
  0
LINE
  5
21C4
330
2
100
AcDbEntity
  8
CENTER
100
AcDbLine
 10
221.6257673798309
 20
112.9774263018313
 30
0.0
 11
232.8450406135916
 21
112.9774263018313
 31
0.0
  0
LINE
  5
21C5
330
2
100
AcDbEntity
  8
0
100
AcDbLine
 10
224.7354039967117
 20
148.9774263018313
 30
0.0
 11
224.7354039967117
 21
118.9774263018313
 31
0.0
  0
LINE
  5
21C6
330
2
100
AcDbEntity
  8
0
100
AcDbLine
 10
223.7354039967117
 20
148.9774263018313
 30
0.0
 11
223.7354039967117
 21
118.9774263018313
 31
0.0
  0
LINE
  5
21C7
330
2
100
AcDbEntity
  8
0
100
AcDbLine
 10
220.927792152137
 20
109.7850381464065
 30
0.0
 11
220.2206853709503
 21
110.4921449275931
 31
0.0
  0
CIRCLE
  5
21C8
330
2
100
AcDbEntity
  8
HOJO
100
AcDbCircle
 10
227.2354039967112
 20
112.9774263018313
 30
0.0
 40
2.0
  0
CIRCLE
  5
21C9
330
2
100
AcDbEntity
  8
0
100
AcDbCircle
 10
227.2354039967117
 20
112.9774263018313
 30
0.0
 40
2.5
  0
CIRCLE
  5
21CA
330
2
100
AcDbEntity
  8
0
100
AcDbCircle
 10
227.2354039967117
 20
112.9774263018313
 30
0.0
 40
3.0
  0
LINE
  5
21CB
330
2
100
AcDbEntity
  8
CENTER
100
AcDbLine
 10
437.9150990045257
 20
133.9774263018312
 30
0.0
 11
295.9150990045802
 21
133.9774263018314
 31
0.0
  0
LINE
  5
21CE
330
2
100
AcDbEntity
  8
0
100
AcDbLine
 10
324.9150990045297
 20
105.9774263018187
 30
0.0
 11
376.9150990045247
 21
105.9774263018187
 31
0.0
  0
LINE
  5
21CF
330
2
100
AcDbEntity
  8
0
100
AcDbLine
 10
324.9150990045302
 20
102.9774263018168
 30
0.0
 11
376.9150990045247
 21
102.9774263018168
 31
0.0
  0
LINE
  5
21D0
330
2
100
AcDbEntity
  8
0
100
AcDbLine
 10
324.9150990045243
 20
97.97742630183144
 30
0.0
 11
377.9150990045248
 21
98.4399502947415
 31
0.0
  0
LINE
  5
21D1
330
2
100
AcDbEntity
  8
0
100
AcDbLine
 10
324.9150990045289
 20
117.4498307818355
 30
0.0
 11
376.9150990045252
 21
117.4498307818355
 31
0.0
  0
LINE
  5
21D2
330
2
100
AcDbEntity
  8
0
100
AcDbLine
 10
324.9150990045279
 20
97.97742630183144
 30
0.0
 11
324.9150990045275
 21
121.4773803018304
 31
0.0
  0
LINE
  5
21D3
330
2
100
AcDbEntity
  8
0
100
AcDbLine
 10
324.9150990045243
 20
97.97742630183144
 30
0.0
 11
324.9150990045265
 21
122.5627705043677
 31
0.0
  0
ARC
  5
21D4
330
2
100
AcDbEntity
  8
0
100
AcDbCircle
 10
316.4150990045316
 20
109.4949181157969
 30
0.0
 40
1.0
100
AcDbArc
 50
180.0
 51
269.5000000000084
  0
LINE
  5
21D5
330
2
100
AcDbEntity
  8
0
100
AcDbLine
 10
312.1150990044764
 20
107.2470415441018
 30
0.0
 11
312.1150990044759
 21
110.9774263018314
 31
0.0
  0
LINE
  5
21D6
330
2
100
AcDbEntity
  8
0
100
AcDbLine
 10
312.4150990044765
 20
106.7274263018314
 30
0.0
 11
312.4150990044765
 21
110.9774263018314
 31
0.0
  0
LINE
  5
21D7
330
2
100
AcDbEntity
  8
0
100
AcDbLine
 10
324.9150990045275
 20
97.97742630183144
 30
0.0
 11
316.4063724690334
 21
98.0516808333739
 31
0.0
  0
LINE
  5
21D8
330
2
100
AcDbEntity
  8
0
100
AcDbLine
 10
324.9150990045275
 20
105.9774263018314
 30
0.0
 11
319.4063724689806
 21
105.9774263018314
 31
0.0
  0
LINE
  5
21D9
330
2
100
AcDbEntity
  8
0
100
AcDbLine
 10
324.9150990045275
 20
102.9774263018314
 30
0.0
 11
319.4063724689806
 21
102.9774263018314
 31
0.0
  0
LINE
  5
21DA
330
2
100
AcDbEntity
  8
CENTER
  6
CENS
100
AcDbLine
 10
308.2509433182078
 20
102.9774263018186
 30
0.0
 11
328.9853556082332
 21
102.9774263018186
 31
0.0
  0
ARC
  5
21DB
330
2
100
AcDbEntity
  8
0
100
AcDbCircle
 10
316.4150990045316
 20
99.05164275643778
 30
0.0
 40
1.0
100
AcDbArc
 50
198.9181108946889
 51
269.5000000000084
  0
ARC
  5
21DC
330
2
100
AcDbEntity
  8
HIDS
100
AcDbCircle
 10
316.4150990045316
 20
99.05164275643778
 30
0.0
 40
1.0
100
AcDbArc
 50
180.0
 51
198.9181108946889
  0
ARC
  5
21DD
330
2
100
AcDbEntity
  8
HIDS
100
AcDbCircle
 10
314.4150990045316
 20
105.5632127395072
 30
0.0
 40
1.0
100
AcDbArc
 50
0.0
 51
45.00000000000921
  0
ARC
  5
21DE
330
2
100
AcDbEntity
  8
HIDS
100
AcDbCircle
 10
315.4150990045798
 20
107.3916398642047
 30
0.0
 40
1.0
100
AcDbArc
 50
189.4515517656347
 51
225.0000000000091
  0
ARC
  5
21DF
330
2
100
AcDbEntity
  8
0
100
AcDbCircle
 10
315.4150990045798
 20
107.3916398642047
 30
0.0
 40
1.0
100
AcDbArc
 50
180.0
 51
189.4515517656347
  0
LINE
  5
21E0
330
2
100
AcDbEntity
  8
HIDS
100
AcDbLine
 10
314.7079922233936
 20
106.6845330830181
 30
0.0
 11
315.1222057857182
 21
106.2703195206938
 31
0.0
  0
LINE
  5
21E1
330
2
100
AcDbEntity
  8
HIDS
100
AcDbLine
 10
315.4150990045316
 20
107.2274263018186
 30
0.0
 11
315.4150990045316
 21
99.05164275643778
 31
0.0
  0
LINE
  5
21E2
330
2
100
AcDbEntity
  8
0
100
AcDbLine
 10
313.9150990045798
 20
108.9774263018314
 30
0.0
 11
314.4150990045798
 21
108.4774263018314
 31
0.0
  0
LINE
  5
21E3
330
2
100
AcDbEntity
  8
0
100
AcDbLine
 10
317.1150990044786
 20
107.2274263018186
 30
0.0
 11
317.1150990044786
 21
98.72742630181869
 31
0.0
  0
ARC
  5
21E4
330
2
100
AcDbEntity
  8
0
100
AcDbCircle
 10
319.4150990044788
 20
99.02546215306552
 30
0.0
 40
1.0
100
AcDbArc
 50
180.0
 51
269.5000000000084
  0
ARC
  5
21E5
330
2
100
AcDbEntity
  8
0
100
AcDbCircle
 10
317.9150990044788
 20
107.9817706965366
 30
0.0
 40
0.5
100
AcDbArc
 50
0.0
 51
89.50000000000846
  0
LINE
  5
21E6
330
2
100
AcDbEntity
  8
0
100
AcDbLine
 10
318.4150990044788
 20
107.9817706965366
 30
0.0
 11
318.4150990044788
 21
98.72742630181869
 31
0.0
  0
LINE
  5
21E7
330
2
100
AcDbEntity
  8
0
100
AcDbLine
 10
317.9194622722282
 20
108.4817516580658
 30
0.0
 11
316.4063724690334
 21
108.494956192733
 31
0.0
  0
LINE
  5
21E8
330
2
100
AcDbEntity
  8
0
100
AcDbLine
 10
312.2707614371836
 20
106.9774263018232
 30
0.0
 11
312.1150990044764
 21
107.2470415441018
 31
0.0
  0
LINE
  5
21E9
330
2
100
AcDbEntity
  8
0
100
AcDbLine
 10
312.4150990044788
 20
98.72742630181869
 30
0.0
 11
312.1150990044786
 21
99.24704154408914
 31
0.0
  0
LINE
  5
21EA
330
2
100
AcDbEntity
  8
0
100
AcDbLine
 10
312.4150990044788
 20
107.2274263018186
 30
0.0
 11
312.1150990044786
 21
106.7078110595482
 31
0.0
  0
LINE
  5
21EB
330
2
100
AcDbEntity
  8
0
100
AcDbLine
 10
312.1150990044786
 20
106.7078110595482
 30
0.0
 11
312.1150990044786
 21
99.24704154408914
 31
0.0
  0
LINE
  5
21EC
330
2
100
AcDbEntity
  8
0
100
AcDbLine
 10
312.4150990044788
 20
107.2274263018186
 30
0.0
 11
312.4150990044788
 21
98.72742630181869
 31
0.0
  0
LINE
  5
21ED
330
2
100
AcDbEntity
  8
0
100
AcDbLine
 10
312.4150990044788
 20
98.72742630181869
 30
0.0
 11
318.4150990044788
 21
98.72742630181869
 31
0.0
  0
LINE
  5
21EE
330
2
100
AcDbEntity
  8
0
100
AcDbLine
 10
312.4150990044788
 20
107.2274263018186
 30
0.0
 11
318.4150990044788
 21
107.2274263018186
 31
0.0
  0
LINE
  5
21EF
330
2
100
AcDbEntity
  8
0
100
AcDbLine
 10
324.9150990045275
 20
117.4498307818482
 30
0.0
 11
316.4063724690334
 21
117.4498307818482
 31
0.0
  0
LINE
  5
21F0
330
2
100
AcDbEntity
  8
0
100
AcDbLine
 10
305.9150990045798
 20
111.5547765710195
 30
0.0
 11
306.9150990045802
 21
110.9774263018314
 31
0.0
  0
LINE
  5
21F1
330
2
100
AcDbEntity
  8
0
100
AcDbLine
 10
310.4150990045802
 20
111.1774263018303
 30
0.0
 11
310.61509900458
 21
110.9774263018314
 31
0.0
  0
ARC
  5
21F2
330
2
100
AcDbEntity
  8
0
100
AcDbCircle
 10
308.2150990045799
 20
111.1774263018303
 30
0.0
 40
0.2
100
AcDbArc
 50
270.0
 51
0.0
  0
LINE
  5
21F3
330
2
100
AcDbEntity
  8
0
100
AcDbLine
 10
308.2150990045799
 20
110.9774263018314
 30
0.0
 11
306.9150990045802
 21
110.9774263018314
 31
0.0
  0
LINE
  5
21F4
330
2
100
AcDbEntity
  8
0
100
AcDbLine
 10
305.9150990045798
 20
111.5547765710195
 30
0.0
 11
305.9150990045798
 21
121.9774723018306
 31
0.0
  0
ARC
  5
21F5
330
2
100
AcDbEntity
  8
0
100
AcDbCircle
 10
310.2150990045799
 20
111.4774263018314
 30
0.0
 40
0.2
100
AcDbArc
 50
0.0
 51
90.0
  0
ARC
  5
21F6
330
2
100
AcDbEntity
  8
0
100
AcDbCircle
 10
308.61509900458
 20
111.4774263018314
 30
0.0
 40
0.2
100
AcDbArc
 50
90.0
 51
180.0
  0
LINE
  5
21F7
330
2
100
AcDbEntity
  8
0
100
AcDbLine
 10
310.2150990045799
 20
111.6774263018303
 30
0.0
 11
308.61509900458
 21
111.6774263018303
 31
0.0
  0
LINE
  5
21F8
330
2
100
AcDbEntity
  8
0
100
AcDbLine
 10
313.9150990045798
 20
110.9774263018314
 30
0.0
 11
310.61509900458
 21
110.9774263018314
 31
0.0
  0
ARC
  5
21F9
330
2
100
AcDbEntity
  8
0
100
AcDbCircle
 10
384.9150990045247
 20
107.5920792097911
 30
0.0
 40
2.0
100
AcDbArc
 50
92.00000000000361
 51
180.0
  0
LINE
  5
21FA
330
2
100
AcDbEntity
  8
0
100
AcDbLine
 10
377.9150990045248
 20
103.9774267627997
 30
0.0
 11
382.9150990045247
 21
103.9774267627997
 31
0.0
  0
LINE
  5
21FB
330
2
100
AcDbEntity
  8
0
100
AcDbLine
 10
384.8453000111201
 20
109.5908608638289
 30
0.0
 11
393.9848979979304
 21
109.9100226583739
 31
0.0
  0
ARC
  5
21FC
330
2
100
AcDbEntity
  8
0
100
AcDbCircle
 10
393.9150990045248
 20
111.9088043124136
 30
0.0
 40
2.0
100
AcDbArc
 50
272.0000000000035
 51
0.0
  0
LINE
  5
220C
330
2
100
AcDbEntity
  8
CENTER
100
AcDbLine
 10
574.1605427398094
 20
109.3647279296234
 30
0.0
 11
574.1605427398094
 21
96.36472792962349
 31
0.0
  0
ARC
  5
220D
330
2
100
AcDbEntity
  8
0
100
AcDbCircle
 10
540.2896446671125
 20
114.3509066218481
 30
0.0
 40
30.0
100
AcDbArc
 50
346.1581756815789
 51
5.929085487876228
  0
ARC
  5
220E
330
2
100
AcDbEntity
  8
0
100
AcDbCircle
 10
585.6467214320377
 20
68.9938298569229
 30
0.0
 40
30.0
100
AcDbArc
 50
84.07091451212378
 51
103.8418243183641
  0
ARC
  5
220F
330
2
100
AcDbEntity
  8
0
100
AcDbCircle
 10
577.2732411120191
 20
102.9774263018295
 30
0.0
 40
5.0
100
AcDbArc
 50
270.0
 51
283.8418243183641
  0
CIRCLE
  5
2210
330
2
100
AcDbEntity
  8
HOJO
100
AcDbCircle
 10
574.1605427398112
 20
102.8647279296234
 30
0.0
 40
2.5
  0
CIRCLE
  5
2211
330
2
100
AcDbEntity
  8
0
100
AcDbCircle
 10
574.1605427398112
 20
102.8647279296234
 30
0.0
 40
2.0
  0
LINE
  5
2212
330
2
100
AcDbEntity
  8
0
100
AcDbLine
 10
574.2732411120191
 20
97.97742630183137
 30
0.0
 11
577.2732411120191
 21
97.97742630183137
 31
0.0
  0
LINE
  5
2213
330
2
100
AcDbEntity
  8
0
100
AcDbLine
 10
569.2732411120191
 20
105.9774263018295
 30
0.0
 11
569.2732411120191
 21
102.9774263018313
 31
0.0
  0
ARC
  5
2214
330
2
100
AcDbEntity
  8
0
100
AcDbCircle
 10
574.2732411120191
 20
105.9774263018295
 30
0.0
 40
5.0
100
AcDbArc
 50
166.1581756815789
 51
180.0
  0
ARC
  5
2215
330
2
100
AcDbEntity
  8
0
100
AcDbCircle
 10
574.2732411120191
 20
102.9774263018313
 30
0.0
 40
5.0
100
AcDbArc
 50
180.0
 51
270.0
  0
LINE
  5
2216
330
2
100
AcDbEntity
  8
CENTER
100
AcDbLine
 10
580.6605427398094
 20
102.8647279296234
 30
0.0
 11
567.6605427398094
 21
102.8647279296234
 31
0.0
  0
LINE
  5
2218
330
2
100
AcDbEntity
  8
CENTER
100
AcDbLine
 10
130.4854039967112
 20
156.9774263018313
 30
0.0
 11
144.9854039967112
 21
156.9774263018313
 31
0.0
  0
ARC
  5
2219
330
2
100
AcDbEntity
  8
0
100
AcDbCircle
 10
145.2354039967112
 20
159.9774263018313
 30
0.0
 40
2.0
100
AcDbArc
 50
90.0
 51
180.0
  0
LINE
  5
221A
330
2
100
AcDbEntity
  8
0
100
AcDbLine
 10
157.7354039967131
 20
161.9774263018313
 30
0.0
 11
137.7354039967112
 21
161.9774263018313
 31
0.0
  0
LINE
  5
221B
330
2
100
AcDbEntity
  8
CENTER
100
AcDbLine
 10
143.6342991557135
 20
157.4774263018331
 30
0.0
 11
151.8365088377095
 21
157.4774263018331
 31
0.0
  0
LINE
  5
221C
330
2
100
AcDbEntity
  8
0
100
AcDbLine
 10
104.9354035357432
 20
161.9774263018313
 30
0.0
 11
110.9354035357432
 21
161.9774263018313
 31
0.0
  0
LINE
  5
221D
330
2
100
AcDbEntity
  8
0
100
AcDbLine
 10
104.9354035357432
 20
162.4774263018313
 30
0.0
 11
110.9354035357432
 21
162.4774263018313
 31
0.0
  0
ARC
  5
221E
330
2
100
AcDbEntity
  8
0
100
AcDbCircle
 10
130.7354039967117
 20
156.4774263018295
 30
0.0
 40
2.0
100
AcDbArc
 50
270.0
 51
0.0
  0
ARC
  5
221F
330
2
100
AcDbEntity
  8
0
100
AcDbCircle
 10
121.4354035357441
 20
154.4774263018295
 30
0.0
 40
2.0
100
AcDbArc
 50
0.0
 51
90.0
  0
ARC
  5
2220
330
2
100
AcDbEntity
  8
0
100
AcDbCircle
 10
124.8995051508813
 20
156.4774263018295
 30
0.0
 40
2.0
100
AcDbArc
 50
210.0000000000004
 51
270.0
  0
LINE
  5
2221
330
2
100
AcDbEntity
  8
0
100
AcDbLine
 10
121.4354035357441
 20
156.4774263018295
 30
0.0
 11
117.863606766019
 21
156.4774263018295
 31
0.0
  0
LINE
  5
2222
330
2
100
AcDbEntity
  8
0
100
AcDbLine
 10
124.8995051508813
 20
154.4774263018295
 30
0.0
 11
130.7354039967117
 21
154.4774263018295
 31
0.0
  0
LINE
  5
2223
330
2
100
AcDbEntity
  8
0
100
AcDbLine
 10
143.2354039967112
 20
159.9774263018313
 30
0.0
 11
143.2354039967112
 21
156.9774263018313
 31
0.0
  0
ARC
  5
2224
330
2
100
AcDbEntity
  8
0
100
AcDbCircle
 10
137.7354039967112
 20
156.9774263018313
 30
0.0
 40
5.0
100
AcDbArc
 50
90.0
 51
180.0
  0
LINE
  5
2225
330
2
100
AcDbEntity
  8
0
100
AcDbLine
 10
135.7354039967112
 20
158.1321268402113
 30
0.0
 11
135.7354039967112
 21
155.8227257634514
 31
0.0
  0
LINE
  5
2226
330
2
100
AcDbEntity
  8
0
100
AcDbLine
 10
139.7354039967112
 20
158.1321268402113
 30
0.0
 11
139.7354039967112
 21
155.8227257634514
 31
0.0
  0
LINE
  5
2227
330
2
100
AcDbEntity
  8
0
100
AcDbLine
 10
139.7354039967112
 20
155.8227257634514
 30
0.0
 11
137.7354039967112
 21
154.6680252250732
 31
0.0
  0
LINE
  5
2228
330
2
100
AcDbEntity
  8
0
100
AcDbLine
 10
135.7354039967112
 20
155.8227257634514
 30
0.0
 11
137.7354039967108
 21
154.6680252250732
 31
0.0
  0
LINE
  5
2229
330
2
100
AcDbEntity
  8
0
100
AcDbLine
 10
137.7354039967108
 20
159.2868273785895
 30
0.0
 11
139.7354039967112
 21
158.1321268402113
 31
0.0
  0
LINE
  5
222A
330
2
100
AcDbEntity
  8
0
100
AcDbLine
 10
137.7354039967108
 20
159.2868273785895
 30
0.0
 11
135.7354039967112
 21
158.1321268402113
 31
0.0
  0
ARC
  5
222B
330
2
100
AcDbEntity
  8
0
100
AcDbCircle
 10
110.9354035357432
 20
159.9774263018313
 30
0.0
 40
2.0
100
AcDbArc
 50
0.0
 51
90.0
  0
ARC
  5
222C
330
2
100
AcDbEntity
  8
0
100
AcDbCircle
 10
110.9354035357432
 20
160.4774263018313
 30
0.0
 40
2.0
100
AcDbArc
 50
0.0
 51
90.0
  0
ARC
  5
222D
330
2
100
AcDbEntity
  8
0
100
AcDbCircle
 10
117.863606766019
 20
161.4774263018295
 30
0.0
 40
5.0
100
AcDbArc
 50
188.2132107017233
 51
270.0
  0
LINE
  5
222E
330
2
100
AcDbEntity
  8
0
100
AcDbLine
 10
134.7354039967112
 20
151.4774263018313
 30
0.0
 11
137.7354039967112
 21
151.4774263018313
 31
0.0
  0
ARC
  5
222F
330
2
100
AcDbEntity
  8
0
100
AcDbCircle
 10
137.7354039967112
 20
156.9774263018313
 30
0.0
 40
5.5
100
AcDbArc
 50
270.0
 51
0.0
  0
CIRCLE
  5
2230
330
2
100
AcDbEntity
  8
0
100
AcDbCircle
 10
137.7354039967112
 20
156.9774263018313
 30
0.0
 40
3.730384757729268
  0
CIRCLE
  5
2231
330
2
100
AcDbEntity
  8
0
100
AcDbCircle
 10
137.7354039967112
 20
156.9774263018313
 30
0.0
 40
4.250000000000085
  0
ARC
  5
2232
330
2
100
AcDbEntity
  8
0
100
AcDbCircle
 10
216.3619236766935
 20
198.961022746738
 30
0.0
 40
30.0
100
AcDbArc
 50
264.0709145121496
 51
283.8418243183775
  0
ARC
  5
2233
330
2
100
AcDbEntity
  8
0
100
AcDbCircle
 10
177.1088843167303
 20
198.961022746738
 30
0.0
 40
30.0
100
AcDbArc
 50
256.1581756815821
 51
275.9290854878502
  0
ARC
  5
2234
330
2
100
AcDbEntity
  8
0
100
AcDbCircle
 10
168.7354039967122
 20
164.9774263018313
 30
0.0
 40
5.0
100
AcDbArc
 50
76.15817568162241
 51
90.0
  0
LINE
  5
2235
330
2
100
AcDbEntity
  8
0
100
AcDbLine
 10
168.7354039967122
 20
169.9774263018313
 30
0.0
 11
165.7354039967131
 21
169.9774263018313
 31
0.0
  0
ARC
  5
2236
330
2
100
AcDbEntity
  8
0
100
AcDbCircle
 10
157.7354039967131
 20
164.9774263018313
 30
0.0
 40
3.0
100
AcDbArc
 50
270.0
 51
0.0
  0
LINE
  5
2237
330
2
100
AcDbEntity
  8
0
100
AcDbLine
 10
173.2501226224731
 20
157.4627076760695
 30
0.0
 11
172.5430158412868
 21
158.1698144572562
 31
0.0
  0
ARC
  5
2238
330
2
100
AcDbEntity
  8
0
100
AcDbCircle
 10
165.7354039967131
 20
164.9774263018313
 30
0.0
 40
5.0
100
AcDbArc
 50
90.0
 51
180.0
  0
CIRCLE
  5
2239
330
2
100
AcDbEntity
  8
0
100
AcDbCircle
 10
147.7354039967112
 20
157.4774263018331
 30
0.0
 40
1.6
  0
CIRCLE
  5
223A
330
2
100
AcDbEntity
  8
HOJO
100
AcDbCircle
 10
147.7354039967112
 20
157.4774263018331
 30
0.0
 40
2.0
  0
LINE
  5
223B
330
2
100
AcDbEntity
  8
CENTER
100
AcDbLine
 10
147.7354039967112
 20
161.5785311428314
 30
0.0
 11
147.7354039967112
 21
153.3763214608349
 31
0.0
  0
LINE
  5
223C
330
2
100
AcDbEntity
  8
0
100
AcDbLine
 10
211.7354039967117
 20
161.9774263018313
 30
0.0
 11
181.7354039967117
 21
161.9774263018313
 31
0.0
  0
LINE
  5
223D
330
2
100
AcDbEntity
  8
0
100
AcDbLine
 10
211.7354039967117
 20
160.9774263018313
 30
0.0
 11
181.7354039967117
 21
160.9774263018313
 31
0.0
  0
ARC
  5
223E
330
2
100
AcDbEntity
  8
0
100
AcDbCircle
 10
196.7354039967117
 20
9.977426301831371
 30
0.0
 40
160.0
100
AcDbArc
 50
84.0709145121497
 51
95.92908548785031
  0
LINE
  5
223F
330
2
100
AcDbEntity
  8
0
100
AcDbLine
 10
227.7354039967117
 20
169.9774263018313
 30
0.0
 11
224.7354039967117
 21
169.9774263018313
 31
0.0
  0
ARC
  5
2240
330
2
100
AcDbEntity
  8
0
100
AcDbCircle
 10
224.7354039967117
 20
164.9774263018313
 30
0.0
 40
5.0
100
AcDbArc
 50
90.0
 51
103.8418243183775
  0
LINE
  5
2241
330
2
100
AcDbEntity
  8
CENTER
100
AcDbLine
 10
234.9854039967117
 20
164.9774263018313
 30
0.0
 11
220.4854039967117
 21
164.9774263018313
 31
0.0
  0
ARC
  5
2242
330
2
100
AcDbEntity
  8
0
100
AcDbCircle
 10
229.9543006915746
 20
157.4774263018313
 30
0.0
 40
2.0
100
AcDbArc
 50
353.0475109494037
 51
90.0
  0
ARC
  5
2243
330
2
100
AcDbEntity
  8
0
100
AcDbCircle
 10
227.7354039967117
 20
164.9774263018313
 30
0.0
 40
5.5
100
AcDbArc
 50
180.0
 51
270.0
  0
ARC
  5
2244
330
2
100
AcDbEntity
  8
0
100
AcDbCircle
 10
227.7354039967117
 20
161.9774263018313
 30
0.0
 40
5.0
100
AcDbArc
 50
346.1581756815789
 51
0.0
  0
LINE
  5
2245
330
2
100
AcDbEntity
  8
0
100
AcDbLine
 10
232.7354039967117
 20
161.9774263018313
 30
0.0
 11
232.7354039967117
 21
164.9774263018313
 31
0.0
  0
LINE
  5
2246
330
2
100
AcDbEntity
  8
0
100
AcDbLine
 10
227.7354039967117
 20
159.4774263018313
 30
0.0
 11
229.9543006915746
 21
159.4774263018313
 31
0.0
  0
LINE
  5
2247
330
2
100
AcDbEntity
  8
0
100
AcDbLine
 10
222.2354039967117
 20
164.9774263018313
 30
0.0
 11
222.2354039967117
 21
167.1963229966947
 31
0.0
  0
LINE
  5
2248
330
2
100
AcDbEntity
  8
0
100
AcDbLine
 10
220.2206853709503
 20
157.4627076760695
 30
0.0
 11
220.927792152137
 21
158.1698144572562
 31
0.0
  0
LINE
  5
2249
330
2
100
AcDbEntity
  8
0
100
AcDbLine
 10
225.7354039967117
 20
166.1321268402095
 30
0.0
 11
225.7354039967117
 21
163.8227257634513
 31
0.0
  0
LINE
  5
224A
330
2
100
AcDbEntity
  8
0
100
AcDbLine
 10
229.7354039967117
 20
166.1321268402095
 30
0.0
 11
229.7354039967117
 21
163.8227257634513
 31
0.0
  0
LINE
  5
224B
330
2
100
AcDbEntity
  8
0
100
AcDbLine
 10
229.7354039967117
 20
163.8227257634513
 30
0.0
 11
227.7354039967117
 21
162.6680252250732
 31
0.0
  0
LINE
  5
224C
330
2
100
AcDbEntity
  8
0
100
AcDbLine
 10
225.7354039967117
 20
163.8227257634513
 30
0.0
 11
227.7354039967117
 21
162.6680252250732
 31
0.0
  0
LINE
  5
224D
330
2
100
AcDbEntity
  8
0
100
AcDbLine
 10
227.7354039967117
 20
167.2868273785895
 30
0.0
 11
229.7354039967117
 21
166.1321268402095
 31
0.0
  0
LINE
  5
224E
330
2
100
AcDbEntity
  8
0
100
AcDbLine
 10
227.7354039967117
 20
167.2868273785895
 30
0.0
 11
225.7354039967117
 21
166.1321268402095
 31
0.0
  0
LINE
  5
224F
330
2
100
AcDbEntity
  8
CENTER
100
AcDbLine
 10
221.6257673798309
 20
154.9774263018313
 30
0.0
 11
232.8450406135916
 21
154.9774263018313
 31
0.0
  0
ARC
  5
2250
330
2
100
AcDbEntity
  8
0
100
AcDbCircle
 10
227.7354039967117
 20
164.9774263018313
 30
0.0
 40
5.0
100
AcDbArc
 50
0.0
 51
90.0
  0
ARC
  5
2251
330
2
100
AcDbEntity
  8
0
100
AcDbCircle
 10
220.2354039967117
 20
167.1963229966947
 30
0.0
 40
2.0
100
AcDbArc
 50
0.0
 51
96.95248905056994
  0
LINE
  5
2252
330
2
100
AcDbEntity
  8
CENTER
100
AcDbLine
 10
227.7354039967117
 20
172.2274263018313
 30
0.0
 11
227.7354039967117
 21
157.7274263018313
 31
0.0
  0
CIRCLE
  5
2253
330
2
100
AcDbEntity
  8
0
100
AcDbCircle
 10
227.7354039967117
 20
164.9774263018313
 30
0.0
 40
3.730384757729268
  0
CIRCLE
  5
2254
330
2
100
AcDbEntity
  8
0
100
AcDbCircle
 10
227.7354039967117
 20
164.9774263018313
 30
0.0
 40
4.250000000000085
  0
CIRCLE
  5
2255
330
2
100
AcDbEntity
  8
HOJO
100
AcDbCircle
 10
227.2354039967112
 20
154.9774263018313
 30
0.0
 40
2.0
  0
ARC
  5
2256
330
2
100
AcDbEntity
  8
0
100
AcDbCircle
 10
261.7190004416183
 20
153.6039459818127
 30
0.0
 40
30.0
100
AcDbArc
 50
166.1581756815789
 51
185.9290854878762
  0
CIRCLE
  5
2257
330
2
100
AcDbEntity
  8
0
100
AcDbCircle
 10
227.2354039967117
 20
154.9774263018313
 30
0.0
 40
3.0
  0
CIRCLE
  5
2258
330
2
100
AcDbEntity
  8
0
100
AcDbCircle
 10
227.2354039967117
 20
154.9774263018313
 30
0.0
 40
2.5
  0
CIRCLE
  5
2259
330
2
100
AcDbEntity
  8
0
100
AcDbCircle
 10
227.2354039967117
 20
154.9774263018313
 30
0.0
 40
1.6
  0
LINE
  5
225D
330
2
100
AcDbEntity
  8
0
100
AcDbLine
 10
324.9150990045289
 20
150.5050218218254
 30
0.0
 11
376.9150990045261
 21
150.5050218218254
 31
0.0
  0
LINE
  5
225E
330
2
100
AcDbEntity
  8
0
100
AcDbLine
 10
324.9150990045297
 20
161.9774263018423
 30
0.0
 11
376.9150990045265
 21
161.9774263018423
 31
0.0
  0
LINE
  5
225F
330
2
100
AcDbEntity
  8
0
100
AcDbLine
 10
324.9150990045302
 20
164.9774263018441
 30
0.0
 11
376.9150990045265
 21
164.9774263018441
 31
0.0
  0
LINE
  5
2260
330
2
100
AcDbEntity
  8
0
100
AcDbLine
 10
324.9150990045307
 20
169.9774263018314
 30
0.0
 11
377.9150990045266
 21
169.5149023089213
 31
0.0
  0
LINE
  5
2261
330
2
100
AcDbEntity
  8
0
100
AcDbLine
 10
324.9150990045275
 20
150.5050218218145
 30
0.0
 11
316.4063724690334
 21
150.5050218218145
 31
0.0
  0
LINE
  5
2262
330
2
100
AcDbEntity
  8
0
100
AcDbLine
 10
324.9150990045275
 20
161.9774263018314
 30
0.0
 11
319.4063724689806
 21
161.9774263018314
 31
0.0
  0
LINE
  5
2263
330
2
100
AcDbEntity
  8
0
100
AcDbLine
 10
324.9150990045275
 20
164.9774263018314
 30
0.0
 11
319.4063724689806
 21
164.9774263018314
 31
0.0
  0
LINE
  5
2264
330
2
100
AcDbEntity
  8
0
100
AcDbLine
 10
324.9150990045275
 20
169.9774263018314
 30
0.0
 11
316.4063724690334
 21
169.9031717702889
 31
0.0
  0
LINE
  5
2265
330
2
100
AcDbEntity
  8
CENTER
  6
CENS
100
AcDbLine
 10
308.2509433182078
 20
164.9774263018441
 30
0.0
 11
328.9853556082332
 21
164.9774263018441
 31
0.0
  0
ARC
  5
2266
330
2
100
AcDbEntity
  8
0
100
AcDbCircle
 10
316.4150990045316
 20
158.459934487864
 30
0.0
 40
1.0
100
AcDbArc
 50
90.49999999999155
 51
180.0
  0
ARC
  5
2267
330
2
100
AcDbEntity
  8
0
100
AcDbCircle
 10
316.4150990045316
 20
168.903209847225
 30
0.0
 40
1.0
100
AcDbArc
 50
90.49999999999155
 51
161.0818891053111
  0
LINE
  5
2268
330
2
100
AcDbEntity
  8
HIDS
100
AcDbLine
 10
315.4150990045316
 20
168.903209847225
 30
0.0
 11
315.4150990045316
 21
160.7274263018441
 31
0.0
  0
ARC
  5
2269
330
2
100
AcDbEntity
  8
HIDS
100
AcDbCircle
 10
314.4150990045798
 20
162.3916398642047
 30
0.0
 40
1.0
100
AcDbArc
 50
314.9999999999907
 51
0.0
  0
ARC
  5
226A
330
2
100
AcDbEntity
  8
0
100
AcDbCircle
 10
315.4150990045798
 20
160.5632127394581
 30
0.0
 40
1.0
100
AcDbArc
 50
170.5484482344706
 51
180.0
  0
ARC
  5
226B
330
2
100
AcDbEntity
  8
HIDS
100
AcDbCircle
 10
315.4150990045798
 20
160.5632127394581
 30
0.0
 40
1.0
100
AcDbArc
 50
134.9999999999907
 51
170.5484482344706
  0
LINE
  5
226C
330
2
100
AcDbEntity
  8
0
100
AcDbLine
 10
313.9150990045798
 20
158.9774263018314
 30
0.0
 11
314.4150990045798
 21
159.4774263018314
 31
0.0
  0
LINE
  5
226D
330
2
100
AcDbEntity
  8
HIDS
100
AcDbLine
 10
314.7079922233936
 20
161.2703195206447
 30
0.0
 11
315.1222057857665
 21
161.684533083018
 31
0.0
  0
ARC
  5
226E
330
2
100
AcDbEntity
  8
HIDS
100
AcDbCircle
 10
316.4150990045316
 20
168.903209847225
 30
0.0
 40
1.0
100
AcDbArc
 50
161.0818891053111
 51
180.0
  0
LINE
  5
226F
330
2
100
AcDbEntity
  8
0
100
AcDbLine
 10
318.4150990044788
 20
169.2274263018441
 30
0.0
 11
318.4150990044788
 21
160.7274263018441
 31
0.0
  0
LINE
  5
2270
330
2
100
AcDbEntity
  8
0
100
AcDbLine
 10
317.1150990044786
 20
160.7274263018441
 30
0.0
 11
317.1150990044786
 21
169.2274263018441
 31
0.0
  0
LINE
  5
2271
330
2
100
AcDbEntity
  8
0
100
AcDbLine
 10
318.4150990044788
 20
159.9730819071262
 30
0.0
 11
318.4150990044788
 21
168.9293904505955
 31
0.0
  0
ARC
  5
2272
330
2
100
AcDbEntity
  8
0
100
AcDbCircle
 10
317.9150990044788
 20
159.9730819071262
 30
0.0
 40
0.5
100
AcDbArc
 50
270.4999999999915
 51
0.0
  0
LINE
  5
2273
330
2
100
AcDbEntity
  8
0
100
AcDbLine
 10
317.9194622722282
 20
159.473100945597
 30
0.0
 11
316.4063724690334
 21
159.4598964109279
 31
0.0
  0
ARC
  5
2274
330
2
100
AcDbEntity
  8
0
100
AcDbCircle
 10
319.4150990044788
 20
168.9293904505955
 30
0.0
 40
1.0
100
AcDbArc
 50
90.49999999999155
 51
180.0
  0
LINE
  5
2275
330
2
100
AcDbEntity
  8
0
100
AcDbLine
 10
312.1150990044786
 20
161.2470415441146
 30
0.0
 11
312.1150990044786
 21
168.7078110595737
 31
0.0
  0
LINE
  5
2276
330
2
100
AcDbEntity
  8
0
100
AcDbLine
 10
312.4150990044788
 20
160.7274263018441
 30
0.0
 11
312.4150990044788
 21
169.2274263018441
 31
0.0
  0
LINE
  5
2277
330
2
100
AcDbEntity
  8
0
100
AcDbLine
 10
312.2707614371831
 20
160.9774263018396
 30
0.0
 11
312.1150990044764
 21
160.7078110595609
 31
0.0
  0
LINE
  5
2278
330
2
100
AcDbEntity
  8
0
100
AcDbLine
 10
312.1150990044764
 20
160.7078110595609
 30
0.0
 11
312.1150990044759
 21
156.9774263018314
 31
0.0
  0
LINE
  5
2279
330
2
100
AcDbEntity
  8
0
100
AcDbLine
 10
312.4150990044765
 20
161.2274263018314
 30
0.0
 11
312.4150990044765
 21
156.9774263018314
 31
0.0
  0
LINE
  5
227A
330
2
100
AcDbEntity
  8
0
100
AcDbLine
 10
312.4150990044788
 20
160.7274263018441
 30
0.0
 11
312.1150990044786
 21
161.2470415441146
 31
0.0
  0
ARC
  5
227B
330
2
100
AcDbEntity
  8
0
100
AcDbCircle
 10
308.2150990045804
 20
156.7774263018307
 30
0.0
 40
0.2
100
AcDbArc
 50
0.0
 51
90.0
  0
ARC
  5
227C
330
2
100
AcDbEntity
  8
0
100
AcDbCircle
 10
308.61509900458
 20
156.4774263018314
 30
0.0
 40
0.2
100
AcDbArc
 50
180.0
 51
270.0
  0
ARC
  5
227D
330
2
100
AcDbEntity
  8
0
100
AcDbCircle
 10
310.2150990045799
 20
156.4774263018314
 30
0.0
 40
0.2
100
AcDbArc
 50
270.0
 51
0.0
  0
LINE
  5
227E
330
2
100
AcDbEntity
  8
0
100
AcDbLine
 10
310.2150990045799
 20
156.2774263018306
 30
0.0
 11
308.61509900458
 21
156.2774263018306
 31
0.0
  0
LINE
  5
227F
330
2
100
AcDbEntity
  8
0
100
AcDbLine
 10
310.4150990045802
 20
156.7774263018307
 30
0.0
 11
310.61509900458
 21
156.9774263018314
 31
0.0
  0
LINE
  5
2280
330
2
100
AcDbEntity
  8
0
100
AcDbLine
 10
305.9150990045802
 20
156.4000760326414
 30
0.0
 11
306.9150990045802
 21
156.9774263018314
 31
0.0
  0
LINE
  5
2281
330
2
100
AcDbEntity
  8
0
100
AcDbLine
 10
308.2150990045804
 20
156.9774263018314
 30
0.0
 11
306.9150990045802
 21
156.9774263018314
 31
0.0
  0
LINE
  5
2282
330
2
100
AcDbEntity
  8
0
100
AcDbLine
 10
312.4150990044788
 20
169.2274263018441
 30
0.0
 11
312.1150990044786
 21
168.7078110595737
 31
0.0
  0
LINE
  5
2283
330
2
100
AcDbEntity
  8
0
100
AcDbLine
 10
312.4150990044788
 20
160.7274263018441
 30
0.0
 11
318.4150990044788
 21
160.7274263018441
 31
0.0
  0
LINE
  5
2284
330
2
100
AcDbEntity
  8
0
100
AcDbLine
 10
312.4150990044788
 20
169.2274263018441
 30
0.0
 11
318.4150990044788
 21
169.2274263018441
 31
0.0
  0
LINE
  5
2285
330
2
100
AcDbEntity
  8
0
100
AcDbLine
 10
313.9150990045798
 20
156.9774263018314
 30
0.0
 11
310.6150990045805
 21
156.9774263018314
 31
0.0
  0
LINE
  5
2288
330
2
100
AcDbEntity
  8
0
100
AcDbLine
 10
384.8453000111201
 20
158.3639926617686
 30
0.0
 11
393.9848979979304
 21
158.0448308672237
 31
0.0
  0
ARC
  5
2289
330
2
100
AcDbEntity
  8
0
100
AcDbCircle
 10
384.9150990045247
 20
160.3627743158065
 30
0.0
 40
2.0
100
AcDbArc
 50
180.0
 51
267.9999999999963
  0
LINE
  5
228A
330
2
100
AcDbEntity
  8
0
100
AcDbLine
 10
377.9150990045248
 20
163.9774267627997
 30
0.0
 11
382.9150990045247
 21
163.9774267627997
 31
0.0
  0
ARC
  5
228B
330
2
100
AcDbEntity
  8
0
100
AcDbCircle
 10
393.9150990045248
 20
156.0460492131858
 30
0.0
 40
2.0
100
AcDbArc
 50
0.0
 51
87.9999999999964
  0
ARC
  5
228D
330
2
100
AcDbEntity
  8
0
100
AcDbCircle
 10
585.6467214320377
 20
198.9610227467362
 30
0.0
 40
30.0
100
AcDbArc
 50
256.1581756815821
 51
275.9290854878762
  0
ARC
  5
228E
330
2
100
AcDbEntity
  8
0
100
AcDbCircle
 10
577.2732411120191
 20
164.9774263018295
 30
0.0
 40
5.0
100
AcDbArc
 50
76.15817568163585
 51
90.0
  0
LINE
  5
228F
330
2
100
AcDbEntity
  8
0
100
AcDbLine
 10
574.2732411120191
 20
169.9774263018313
 30
0.0
 11
577.2732411120191
 21
169.9774263018313
 31
0.0
  0
CIRCLE
  5
2290
330
2
100
AcDbEntity
  8
HOJO
100
AcDbCircle
 10
574.1605427398112
 20
165.0901246740392
 30
0.0
 40
2.5
  0
CIRCLE
  5
2291
330
2
100
AcDbEntity
  8
0
100
AcDbCircle
 10
574.1605427398112
 20
165.0901246740392
 30
0.0
 40
2.0
  0
LINE
  5
2292
330
2
100
AcDbEntity
  8
CENTER
100
AcDbLine
 10
574.1605427398094
 20
171.5901246740392
 30
0.0
 11
574.1605427398094
 21
158.5901246740392
 31
0.0
  0
ARC
  5
2293
330
2
100
AcDbEntity
  8
0
100
AcDbCircle
 10
574.2732411120191
 20
161.9774263018295
 30
0.0
 40
5.0
100
AcDbArc
 50
180.0
 51
193.841824318421
  0
LINE
  5
2294
330
2
100
AcDbEntity
  8
0
100
AcDbLine
 10
569.2732411120191
 20
164.9774263018313
 30
0.0
 11
569.2732411120191
 21
161.9774263018295
 31
0.0
  0
ARC
  5
2295
330
2
100
AcDbEntity
  8
0
100
AcDbCircle
 10
540.2896446671125
 20
153.6039459818109
 30
0.0
 40
30.0
100
AcDbArc
 50
354.0709145121237
 51
13.84182431842102
  0
LINE
  5
2296
330
2
100
AcDbEntity
  8
CENTER
100
AcDbLine
 10
580.6605427398094
 20
165.0901246740392
 30
0.0
 11
567.6605427398094
 21
165.0901246740392
 31
0.0
  0
ARC
  5
2297
330
2
100
AcDbEntity
  8
0
100
AcDbCircle
 10
574.2732411120191
 20
164.9774263018313
 30
0.0
 40
5.0
100
AcDbArc
 50
90.0
 51
180.0
  0
LINE
  5
2299
330
2
100
AcDbEntity
  8
0
100
AcDbLine
 10
580.8866752130487
 20
369.749296658419
 30
0.0
 11
581.2058370075937
 21
360.6096986716087
 31
0.0
  0
ARC
  5
229A
330
2
100
AcDbEntity
  8
0
100
AcDbCircle
 10
583.2046186616316
 20
360.6794976650139
 30
0.0
 40
2.0
100
AcDbArc
 50
182.0000000000036
 51
270.0
  0
LINE
  5
229F
330
2
100
AcDbEntity
  8
0
100
AcDbLine
 10
575.2732415729859
 20
376.6794976650139
 30
0.0
 11
575.2732415729859
 21
371.6794976650139
 31
0.0
  0
ARC
  5
22A0
330
2
100
AcDbEntity
  8
0
100
AcDbCircle
 10
578.8878935590108
 20
369.6794976650139
 30
0.0
 40
2.0
100
AcDbArc
 50
2.000000000003612
 51
90.0
  0
LINE
  5
22A2
330
2
100
AcDbEntity
  8
CENTER
100
AcDbLine
 10
605.2732411120173
 20
187.9774263018313
 30
0.0
 11
605.2732411120173
 21
79.97742630183137
 31
0.0
  0
LINE
  5
22B1
330
2
100
AcDbEntity
  8
0
100
AcDbLine
 10
678.5732415729767
 20
113.477426301835
 30
0.0
 11
678.5732415729767
 21
154.477426301835
 31
0.0
  0
LINE
  5
22B2
330
2
100
AcDbEntity
  8
0
100
AcDbLine
 10
641.2732411120182
 20
164.9774263018313
 30
0.0
 11
641.2732411120182
 21
102.9774263018313
 31
0.0
  0
LINE
  5
22B3
330
2
100
AcDbEntity
  8
0
100
AcDbLine
 10
689.0732415729876
 20
160.4774263018313
 30
0.0
 11
689.0732415729876
 21
107.4774263018313
 31
0.0
  0
LINE
  5
22B5
330
2
100
AcDbEntity
  8
0
100
AcDbLine
 10
669.27324111202
 20
156.9774263018313
 30
0.0
 11
669.27324111202
 21
110.9774263018313
 31
0.0
  0
ARC
  5
22B7
330
2
100
AcDbEntity
  8
0
100
AcDbCircle
 10
671.2732411120091
 20
111.477426301835
 30
0.0
 40
2.0
100
AcDbArc
 50
90.0
 51
180.0
  0
ARC
  5
22B8
330
2
100
AcDbEntity
  8
0
100
AcDbCircle
 10
664.27324111202
 20
110.9774263018313
 30
0.0
 40
5.0
100
AcDbArc
 50
270.0
 51
0.0
  0
LINE
  5
22B9
330
2
100
AcDbEntity
  8
CENTER
100
AcDbLine
 10
636.3859394842261
 20
109.3647279296234
 30
0.0
 11
636.3859394842261
 21
96.36472792962349
 31
0.0
  0
CIRCLE
  5
22BA
330
2
100
AcDbEntity
  8
0
100
AcDbCircle
 10
636.3859394842279
 20
102.8647279296234
 30
0.0
 40
2.0
  0
CIRCLE
  5
22BB
330
2
100
AcDbEntity
  8
HOJO
100
AcDbCircle
 10
636.3859394842279
 20
102.8647279296234
 30
0.0
 40
2.5
  0
LINE
  5
22BC
330
2
100
AcDbEntity
  8
0
100
AcDbLine
 10
633.2732411120191
 20
97.97742630183137
 30
0.0
 11
636.2732411120182
 21
97.97742630183137
 31
0.0
  0
LINE
  5
22BD
330
2
100
AcDbEntity
  8
CENTER
100
AcDbLine
 10
642.8859394842261
 20
102.8647279296234
 30
0.0
 11
629.8859394842261
 21
102.8647279296234
 31
0.0
  0
ARC
  5
22BE
330
2
100
AcDbEntity
  8
0
100
AcDbCircle
 10
624.8997607920005
 20
68.9938298569229
 30
0.0
 40
30.0
100
AcDbArc
 50
76.15817568163585
 51
95.92908548787621
  0
ARC
  5
22BF
330
2
100
AcDbEntity
  8
0
100
AcDbCircle
 10
633.2732411120191
 20
102.9774263018295
 30
0.0
 40
5.0
100
AcDbArc
 50
256.1581756815821
 51
270.0
  0
ARC
  5
22C0
330
2
100
AcDbEntity
  8
0
100
AcDbCircle
 10
606.3664150137315
 20
106.6274263018182
 30
0.0
 40
0.8499999999992269
100
AcDbArc
 50
307.5189678668129
 51
90.0
  0
LINE
  5
22C1
330
2
100
AcDbEntity
  8
0
100
AcDbLine
 10
606.8840854448749
 20
105.9532473013147
 30
0.0
 11
607.5050444698277
 21
104.9774263018204
 31
0.0
  0
LINE
  5
22C2
330
2
100
AcDbEntity
  8
0
100
AcDbLine
 10
606.605044081914
 20
104.9774263018204
 30
0.0
 11
607.5050444698277
 21
104.9774263018204
 31
0.0
  0
LINE
  5
22C3
330
2
100
AcDbEntity
  8
0
100
AcDbLine
 10
605.6226877512322
 20
106.5211763018193
 30
0.0
 11
606.605044081914
 21
104.9774263018204
 31
0.0
  0
LINE
  5
22C4
330
2
100
AcDbEntity
  8
0
100
AcDbLine
 10
605.5164150137329
 20
106.6274263018182
 30
0.0
 11
605.5164150137329
 21
104.9774263018204
 31
0.0
  0
LINE
  5
22C5
330
2
100
AcDbEntity
  8
0
100
AcDbLine
 10
605.5164150137329
 20
106.6274263018182
 30
0.0
 11
606.3133127512315
 21
106.6274263018182
 31
0.0
  0
LINE
  5
22C6
330
2
100
AcDbEntity
  8
0
100
AcDbLine
 10
605.6226877512322
 20
106.5211763018193
 30
0.0
 11
606.3133127512315
 21
106.5211763018193
 31
0.0
  0
ARC
  5
22C7
330
2
100
AcDbEntity
  8
0
100
AcDbCircle
 10
606.3133127512315
 20
106.5743013018179
 30
0.0
 40
0.0531249999999517
100
AcDbArc
 50
270.0
 51
90.0
  0
LINE
  5
22C8
330
2
100
AcDbEntity
  8
0
100
AcDbLine
 10
603.0414377512347
 20
104.9774263018204
 30
0.0
 11
603.9414381391493
 21
104.9774263018204
 31
0.0
  0
LINE
  5
22C9
330
2
100
AcDbEntity
  8
0
100
AcDbLine
 10
604.2914377512338
 20
107.4774263018168
 30
0.0
 11
603.0414377512347
 21
104.9774263018204
 31
0.0
  0
LINE
  5
22CA
330
2
100
AcDbEntity
  8
0
100
AcDbLine
 10
604.1289381391493
 20
105.3524263018204
 30
0.0
 11
603.9414381391493
 21
104.9774263018204
 31
0.0
  0
LINE
  5
22CB
330
2
100
AcDbEntity
  8
0
100
AcDbLine
 10
604.1289381391493
 20
105.3524263018204
 30
0.0
 11
604.7664377512333
 21
105.3524263018204
 31
0.0
  0
LINE
  5
22CC
330
2
100
AcDbEntity
  8
0
100
AcDbLine
 10
604.7664377512333
 20
105.3524263018204
 30
0.0
 11
604.7664377512333
 21
104.9774263018204
 31
0.0
  0
LINE
  5
22CD
330
2
100
AcDbEntity
  8
0
100
AcDbLine
 10
604.528938139149
 20
106.1524263018197
 30
0.0
 11
604.7664377512333
 21
106.1524263018197
 31
0.0
  0
LINE
  5
22CE
330
2
100
AcDbEntity
  8
0
100
AcDbLine
 10
604.7664377512333
 20
106.6274255259883
 30
0.0
 11
604.7664377512333
 21
106.1524263018197
 31
0.0
  0
LINE
  5
22CF
330
2
100
AcDbEntity
  8
0
100
AcDbLine
 10
604.7664377512333
 20
106.6274255259883
 30
0.0
 11
604.528938139149
 21
106.1524263018197
 31
0.0
  0
LINE
  5
22D0
330
2
100
AcDbEntity
  8
0
100
AcDbLine
 10
604.7664377512333
 20
104.9774263018204
 30
0.0
 11
605.5164150137329
 21
104.9774263018204
 31
0.0
  0
LINE
  5
22D1
330
2
100
AcDbEntity
  8
0
100
AcDbLine
 10
604.2914377512338
 20
107.4774263018168
 30
0.0
 11
606.3664150137315
 21
107.4774263018168
 31
0.0
  0
LINE
  5
22D2
330
2
100
AcDbEntity
  8
0
100
AcDbLine
 10
644.2732411120182
 20
105.9774263018313
 30
0.0
 11
664.27324111202
 21
105.9774263018313
 31
0.0
  0
ARC
  5
22D3
330
2
100
AcDbEntity
  8
0
100
AcDbCircle
 10
644.2732411120182
 20
102.9774263018295
 30
0.0
 40
3.0
100
AcDbArc
 50
90.0
 51
180.0
  0
ARC
  5
22D4
330
2
100
AcDbEntity
  8
0
100
AcDbCircle
 10
636.2732411120182
 20
102.9774263018313
 30
0.0
 40
5.0
100
AcDbArc
 50
270.0
 51
0.0
  0
ARC
  5
22D5
330
2
100
AcDbEntity
  8
0
100
AcDbCircle
 10
684.1450383427122
 20
106.477426301835
 30
0.0
 40
5.0
100
AcDbArc
 50
8.213210701723296
 51
90.0
  0
LINE
  5
22D6
330
2
100
AcDbEntity
  8
0
100
AcDbLine
 10
697.0732415729876
 20
105.9774263018313
 30
0.0
 11
691.0732415729876
 21
105.9774263018313
 31
0.0
  0
ARC
  5
22D7
330
2
100
AcDbEntity
  8
0
100
AcDbCircle
 10
691.0732415729876
 20
107.9774263018313
 30
0.0
 40
2.0
100
AcDbArc
 50
180.0
 51
270.0
  0
ARC
  5
22D8
330
2
100
AcDbEntity
  8
0
100
AcDbCircle
 10
691.0732415729876
 20
107.4774263018313
 30
0.0
 40
2.0
100
AcDbArc
 50
180.0
 51
270.0
  0
LINE
  5
22D9
330
2
100
AcDbEntity
  8
0
100
AcDbLine
 10
697.0732415729876
 20
105.4774263018313
 30
0.0
 11
691.0732415729876
 21
105.4774263018313
 31
0.0
  0
LINE
  5
22DA
330
2
100
AcDbEntity
  8
0
100
AcDbLine
 10
680.5732415729766
 20
111.477426301835
 30
0.0
 11
684.1450383427122
 21
111.477426301835
 31
0.0
  0
ARC
  5
22DB
330
2
100
AcDbEntity
  8
0
100
AcDbCircle
 10
677.1091399578395
 20
111.477426301835
 30
0.0
 40
2.0
100
AcDbArc
 50
30.00000000001508
 51
90.0
  0
LINE
  5
22DC
330
2
100
AcDbEntity
  8
0
100
AcDbLine
 10
677.1091399578395
 20
113.477426301835
 30
0.0
 11
671.2732411120091
 21
113.477426301835
 31
0.0
  0
ARC
  5
22DD
330
2
100
AcDbEntity
  8
0
100
AcDbCircle
 10
680.5732415729766
 20
113.477426301835
 30
0.0
 40
2.0
100
AcDbArc
 50
180.0
 51
270.0
  0
ARC
  5
2322
330
2
100
AcDbEntity
  8
0
100
AcDbCircle
 10
664.27324111202
 20
156.9774263018313
 30
0.0
 40
5.0
100
AcDbArc
 50
0.0
 51
90.0
  0
ARC
  5
2323
330
2
100
AcDbEntity
  8
0
100
AcDbCircle
 10
671.2732411120091
 20
156.477426301835
 30
0.0
 40
2.0
100
AcDbArc
 50
180.0
 51
270.0
  0
LINE
  5
2324
330
2
100
AcDbEntity
  8
0
100
AcDbLine
 10
633.2732411120191
 20
169.9774263018313
 30
0.0
 11
636.2732411120182
 21
169.9774263018313
 31
0.0
  0
CIRCLE
  5
2325
330
2
100
AcDbEntity
  8
HOJO
100
AcDbCircle
 10
636.3859394842279
 20
165.0901246740392
 30
0.0
 40
2.5
  0
CIRCLE
  5
2326
330
2
100
AcDbEntity
  8
0
100
AcDbCircle
 10
636.3859394842279
 20
165.0901246740392
 30
0.0
 40
2.0
  0
LINE
  5
2327
330
2
100
AcDbEntity
  8
CENTER
100
AcDbLine
 10
642.8859394842261
 20
165.0901246740392
 30
0.0
 11
629.8859394842261
 21
165.0901246740392
 31
0.0
  0
ARC
  5
2328
330
2
100
AcDbEntity
  8
0
100
AcDbCircle
 10
624.8997607920014
 20
198.9610227467362
 30
0.0
 40
30.0
100
AcDbArc
 50
264.0709145121237
 51
283.8418243183641
  0
ARC
  5
2329
330
2
100
AcDbEntity
  8
0
100
AcDbCircle
 10
633.2732411120191
 20
164.9774263018295
 30
0.0
 40
5.0
100
AcDbArc
 50
90.0
 51
103.8418243183641
  0
LINE
  5
232A
330
2
100
AcDbEntity
  8
0
100
AcDbLine
 10
644.2732411120182
 20
161.9774263018313
 30
0.0
 11
664.27324111202
 21
161.9774263018313
 31
0.0
  0
ARC
  5
232B
330
2
100
AcDbEntity
  8
0
100
AcDbCircle
 10
644.2732411120182
 20
164.9774263018313
 30
0.0
 40
3.0
100
AcDbArc
 50
180.0
 51
270.0
  0
LINE
  5
232C
330
2
100
AcDbEntity
  8
CENTER
100
AcDbLine
 10
636.3859394842261
 20
171.5901246740392
 30
0.0
 11
636.3859394842261
 21
158.5901246740392
 31
0.0
  0
ARC
  5
232D
330
2
100
AcDbEntity
  8
0
100
AcDbCircle
 10
636.2732411120182
 20
164.9774263018313
 30
0.0
 40
5.0
100
AcDbArc
 50
0.0
 51
90.0
  0
LINE
  5
232F
330
2
100
AcDbEntity
  8
0
100
AcDbLine
 10
697.0732415729876
 20
161.9774263018313
 30
0.0
 11
691.0732415729876
 21
161.9774263018313
 31
0.0
  0
ARC
  5
2330
330
2
100
AcDbEntity
  8
0
100
AcDbCircle
 10
691.0732415729876
 20
159.9774263018313
 30
0.0
 40
2.0
100
AcDbArc
 50
90.0
 51
180.0
  0
LINE
  5
2331
330
2
100
AcDbEntity
  8
0
100
AcDbLine
 10
680.5732415729766
 20
156.477426301835
 30
0.0
 11
684.1450383427122
 21
156.477426301835
 31
0.0
  0
ARC
  5
2332
330
2
100
AcDbEntity
  8
0
100
AcDbCircle
 10
691.0732415729876
 20
160.4774263018313
 30
0.0
 40
2.0
100
AcDbArc
 50
90.0
 51
180.0
  0
LINE
  5
2333
330
2
100
AcDbEntity
  8
0
100
AcDbLine
 10
697.0732415729876
 20
162.4774263018313
 30
0.0
 11
691.0732415729876
 21
162.4774263018313
 31
0.0
  0
ARC
  5
2334
330
2
100
AcDbEntity
  8
0
100
AcDbCircle
 10
684.1450383427122
 20
161.477426301835
 30
0.0
 40
5.0
100
AcDbArc
 50
270.0
 51
351.7867892982767
  0
ARC
  5
2335
330
2
100
AcDbEntity
  8
0
100
AcDbCircle
 10
677.1091399578395
 20
156.477426301835
 30
0.0
 40
2.0
100
AcDbArc
 50
270.0
 51
329.9999999999849
  0
ARC
  5
2336
330
2
100
AcDbEntity
  8
0
100
AcDbCircle
 10
680.5732415729766
 20
154.477426301835
 30
0.0
 40
2.0
100
AcDbArc
 50
90.0
 51
180.0
  0
LINE
  5
2337
330
2
100
AcDbEntity
  8
0
100
AcDbLine
 10
677.1091399578395
 20
154.477426301835
 30
0.0
 11
671.2732411120091
 21
154.477426301835
 31
0.0
  0
ARC
  5
2338
330
2
100
AcDbEntity
  8
0
100
AcDbCircle
 10
671.2732411120176
 20
384.1794976650139
 30
0.0
 40
2.0
100
AcDbArc
 50
90.0
 51
180.0
  0
LINE
  5
233A
330
2
100
AcDbEntity
  8
0
100
AcDbLine
 10
629.6598070109884
 20
369.749296658419
 30
0.0
 11
629.3406452164434
 21
360.6096986716087
 31
0.0
  0
ARC
  5
233B
330
2
100
AcDbEntity
  8
0
100
AcDbCircle
 10
627.3418635624038
 20
360.6794976650139
 30
0.0
 40
2.0
100
AcDbArc
 50
270.0
 51
357.9999999999964
  0
ARC
  5
2340
330
2
100
AcDbEntity
  8
0
100
AcDbCircle
 10
631.6585886650263
 20
369.6794976650139
 30
0.0
 40
2.0
100
AcDbArc
 50
90.0
 51
177.9999999999963
  0
ARC
  5
2341
330
2
100
AcDbEntity
  8
0
100
AcDbCircle
 10
642.3107742366863
 20
377.1794976650139
 30
0.0
 40
1.5
100
AcDbArc
 50
90.0
 51
179.4999999994091
  0
LINE
  5
2342
330
2
100
AcDbEntity
  8
0
100
AcDbLine
 10
642.3107742366863
 20
378.6794976650138
 30
0.0
 11
667.246984351874
 21
378.6794976650138
 31
0.0
  0
LINE
  5
2343
330
2
100
AcDbEntity
  8
0
100
AcDbLine
 10
635.2732415729859
 20
376.6794976650139
 30
0.0
 11
635.2732415729859
 21
371.6794976650139
 31
0.0
  0
ARC
  5
2344
330
2
100
AcDbEntity
  8
0
100
AcDbCircle
 10
684.1841581492388
 20
379.1794976650139
 30
0.0
 40
5.0
100
AcDbArc
 50
12.37362511621879
 51
90.0
  0
LINE
  5
2345
330
2
100
AcDbEntity
  8
0
100
AcDbLine
 10
684.1841581492388
 20
384.1794976650139
 30
0.0
 11
680.5215553165133
 21
384.1794976650139
 31
0.0
  0
LINE
  5
2346
330
2
100
AcDbEntity
  8
0
100
AcDbLine
 10
697.0732415729862
 20
378.6794976650138
 30
0.0
 11
691.0215553148272
 21
378.6794976650138
 31
0.0
  0
ARC
  5
2347
330
2
100
AcDbEntity
  8
0
100
AcDbCircle
 10
691.0215553148272
 20
380.6794976650138
 30
0.0
 40
2.0
100
AcDbArc
 50
181.4999999999897
 51
270.0
  0
ARC
  5
2348
330
2
100
AcDbEntity
  8
0
100
AcDbCircle
 10
677.0574537013762
 20
384.1794976650139
 30
0.0
 40
2.0
100
AcDbArc
 50
30.00000000001508
 51
90.0
  0
ARC
  5
2349
330
2
100
AcDbEntity
  8
0
100
AcDbCircle
 10
680.5215553165133
 20
386.1794976650139
 30
0.0
 40
2.0
100
AcDbArc
 50
181.4999999999897
 51
270.0
  0
LINE
  5
234A
330
2
100
AcDbEntity
  8
0
100
AcDbLine
 10
671.2732411120176
 20
386.1794976650139
 30
0.0
 11
677.0574537013762
 21
386.1794976650139
 31
0.0
  0
LINE
  5
237F
330
2
100
AcDbEntity
  8
0
100
AcDbLine
 10
578.68745467439
 20
440.1794976649593
 30
0.0
 11
631.8590275496443
 21
440.1794976649593
 31
0.0
  0
LINE
  5
2380
330
2
100
AcDbEntity
  8
0
100
AcDbLine
 10
582.8505913812076
 20
448.6794976649593
 30
0.0
 11
627.6958908428285
 21
448.6794976649593
 31
0.0
  0
LINE
  5
2381
330
2
100
AcDbEntity
  8
0
100
AcDbLine
 10
580.2732411120176
 20
440.6794976649593
 30
0.0
 11
630.2732411120176
 21
440.6794976649593
 31
0.0
  0
LINE
  5
2382
330
2
100
AcDbEntity
  8
0
100
AcDbLine
 10
582.4732411120175
 20
446.1794976649593
 30
0.0
 11
628.0732411120178
 21
446.1794976649593
 31
0.0
  0
LINE
  5
2383
330
2
100
AcDbEntity
  8
0
100
AcDbLine
 10
582.4732411120175
 20
444.1794976649593
 30
0.0
 11
628.0732411120178
 21
444.1794976649593
 31
0.0
  0
LINE
  5
2384
330
2
100
AcDbEntity
  8
0
100
AcDbLine
 10
628.2732411120177
 20
443.9794976649586
 30
0.0
 11
582.2732411120177
 21
443.9794976649586
 31
0.0
  0
LINE
  5
2385
330
2
100
AcDbEntity
  8
0
100
AcDbLine
 10
582.2732411120177
 20
447.6794976649593
 30
0.0
 11
628.2732411120177
 21
447.6794976649593
 31
0.0
  0
LINE
  5
2386
330
2
100
AcDbEntity
  8
0
100
AcDbLine
 10
578.5232411120176
 20
439.1794976650066
 30
0.0
 11
640.2732411120176
 21
439.1794976650066
 31
0.0
  0
LINE
  5
2387
330
2
100
AcDbEntity
  8
0
100
AcDbLine
 10
569.2732411120176
 20
429.6794976650139
 30
0.0
 11
669.273241112024
 21
429.6794976650066
 31
0.0
  0
LINE
  5
2388
330
2
100
AcDbEntity
  8
0
100
AcDbLine
 10
588.7456455920345
 20
429.6794976650121
 30
0.0
 11
588.7456455920345
 21
378.1794976650139
 31
0.0
  0
LINE
  5
2389
330
2
100
AcDbEntity
  8
0
100
AcDbLine
 10
574.2732411120186
 20
378.1794976650139
 30
0.0
 11
574.2732411120203
 21
429.6794976650103
 31
0.0
  0
LINE
  5
238A
330
2
100
AcDbEntity
  8
0
100
AcDbLine
 10
577.2732411120204
 20
378.1794976650139
 30
0.0
 11
577.2732411120195
 21
429.6794976650103
 31
0.0
  0
LINE
  5
238B
330
2
100
AcDbEntity
  8
0
100
AcDbLine
 10
569.7357651049277
 20
376.6794976650139
 30
0.0
 11
569.2732411120176
 21
429.6794976650139
 31
0.0
  0
LINE
  5
238C
330
2
100
AcDbEntity
  8
HIDS
100
AcDbLine
 10
577.9803478932034
 20
439.886604446146
 30
0.0
 11
577.566134330831
 21
439.4723908837726
 31
0.0
  0
LINE
  5
238D
330
2
100
AcDbEntity
  8
0
100
AcDbLine
 10
580.2732411120176
 20
440.6794976649593
 30
0.0
 11
579.7732411120176
 21
440.1794976649593
 31
0.0
  0
LINE
  5
238E
330
2
100
AcDbEntity
  8
0
100
AcDbLine
 10
582.2732411120177
 20
446.3794976649582
 30
0.0
 11
582.2732411120177
 21
447.6794976649593
 31
0.0
  0
LINE
  5
238F
330
2
100
AcDbEntity
  8
0
100
AcDbLine
 10
582.2732411120177
 20
440.6794976649593
 30
0.0
 11
582.2732411120177
 21
443.9794976649586
 31
0.0
  0
LINE
  5
2390
330
2
100
AcDbEntity
  8
0
100
AcDbLine
 10
582.8505913812067
 20
448.6794976649593
 30
0.0
 11
582.2732411120177
 21
447.6794976649593
 31
0.0
  0
ARC
  5
2391
330
2
100
AcDbEntity
  8
0
100
AcDbCircle
 10
578.68745467439
 20
439.1794976649593
 30
0.0
 40
1.0
100
AcDbArc
 50
90.0
 51
99.45155176478614
  0
ARC
  5
2392
330
2
100
AcDbEntity
  8
HIDS
100
AcDbCircle
 10
578.68745467439
 20
439.1794976649593
 30
0.0
 40
1.0
100
AcDbArc
 50
99.45155176478614
 51
135.0000000000092
  0
ARC
  5
2393
330
2
100
AcDbEntity
  8
HIDS
100
AcDbCircle
 10
576.8590275496443
 20
440.1794976649593
 30
0.0
 40
1.0
100
AcDbArc
 50
270.0
 51
315.0000000000092
  0
LINE
  5
2394
330
2
100
AcDbEntity
  8
0
100
AcDbLine
 10
582.4732411120175
 20
444.1794976649593
 30
0.0
 11
582.2732411120177
 21
443.9794976649586
 31
0.0
  0
LINE
  5
2395
330
2
100
AcDbEntity
  8
0
100
AcDbLine
 10
582.9732411120175
 20
444.3794976649583
 30
0.0
 11
582.9732411120175
 21
445.9794976649586
 31
0.0
  0
ARC
  5
2396
330
2
100
AcDbEntity
  8
0
100
AcDbCircle
 10
582.7732411120177
 20
444.3794976649583
 30
0.0
 40
0.2
100
AcDbArc
 50
270.0
 51
0.0
  0
ARC
  5
2397
330
2
100
AcDbEntity
  8
0
100
AcDbCircle
 10
582.7732411120177
 20
445.9794976649586
 30
0.0
 40
0.2
100
AcDbArc
 50
0.0
 51
90.0
  0
ARC
  5
2398
330
2
100
AcDbEntity
  8
0
100
AcDbCircle
 10
582.4732411120175
 20
446.3794976649582
 30
0.0
 40
0.2
100
AcDbArc
 50
180.0
 51
270.0
  0
LINE
  5
2399
330
2
100
AcDbEntity
  8
0
100
AcDbLine
 10
579.7775664682521
 20
436.6751343973113
 30
0.0
 11
579.7907710029202
 21
438.1882242005062
 31
0.0
  0
ARC
  5
239A
330
2
100
AcDbEntity
  8
0
100
AcDbCircle
 10
579.2775855067228
 20
436.6794976650593
 30
0.0
 40
0.5
100
AcDbArc
 50
270.0
 51
359.5000000000345
  0
ARC
  5
239B
330
2
100
AcDbEntity
  8
0
100
AcDbCircle
 10
580.790732925984
 20
438.1794976650084
 30
0.0
 40
1.0
100
AcDbArc
 50
89.99999999994789
 51
179.5000000000344
  0
LINE
  5
239C
330
2
100
AcDbEntity
  8
0
100
AcDbLine
 10
578.5232411120176
 20
442.1794976650594
 30
0.0
 11
578.5232411120176
 21
436.1794976650593
 31
0.0
  0
LINE
  5
239D
330
2
100
AcDbEntity
  8
0
100
AcDbLine
 10
578.5232411120176
 20
442.1794976650594
 30
0.0
 11
578.0036258697472
 21
442.4794976650605
 31
0.0
  0
LINE
  5
239E
330
2
100
AcDbEntity
  8
0
100
AcDbLine
 10
574.2732411120177
 20
429.6794976650121
 30
0.0
 11
574.2732411120177
 21
435.1882242005589
 31
0.0
  0
LINE
  5
239F
330
2
100
AcDbEntity
  8
0
100
AcDbLine
 10
577.2732411120176
 20
429.6794976650121
 30
0.0
 11
577.2732411120176
 21
435.1882242005589
 31
0.0
  0
LINE
  5
23A0
330
2
100
AcDbEntity
  8
0
100
AcDbLine
 10
588.7456455920345
 20
429.6794976650121
 30
0.0
 11
588.7456455920345
 21
438.1794976649593
 31
0.0
  0
LINE
  5
23A1
330
2
100
AcDbEntity
  8
CENTER
  6
CENS
100
AcDbLine
 10
574.2732411120177
 20
446.3436533513317
 30
0.0
 11
574.2732411120177
 21
425.6092410613049
 31
0.0
  0
ARC
  5
23A2
330
2
100
AcDbEntity
  8
HIDS
100
AcDbCircle
 10
570.347457566624
 20
438.1794976650066
 30
0.0
 40
1.0
100
AcDbArc
 50
90.0
 51
108.9181108939143
  0
ARC
  5
23A3
330
2
100
AcDbEntity
  8
0
100
AcDbCircle
 10
570.347457566624
 20
438.1794976650066
 30
0.0
 40
1.0
100
AcDbArc
 50
108.9181108939143
 51
179.5000000000344
  0
ARC
  5
23A4
330
2
100
AcDbEntity
  8
0
100
AcDbCircle
 10
570.3212769632527
 20
435.1794976650594
 30
0.0
 40
1.0
100
AcDbArc
 50
90.0
 51
179.5000000000344
  0
LINE
  5
23A5
330
2
100
AcDbEntity
  8
0
100
AcDbLine
 10
570.0232411120176
 20
442.1794976650594
 30
0.0
 11
570.5428563542881
 21
442.4794976650605
 31
0.0
  0
LINE
  5
23A6
330
2
100
AcDbEntity
  8
0
100
AcDbLine
 10
570.0232411120176
 20
442.1794976650594
 30
0.0
 11
570.0232411120176
 21
436.1794976650593
 31
0.0
  0
LINE
  5
23A7
330
2
100
AcDbEntity
  8
0
100
AcDbLine
 10
569.2732411120176
 20
429.6794976650121
 30
0.0
 11
569.3474956435601
 21
438.1882242005062
 31
0.0
  0
LINE
  5
23A8
330
2
100
AcDbEntity
  8
HIDS
100
AcDbLine
 10
570.347457566624
 20
439.1794976650066
 30
0.0
 11
578.5232411120176
 21
439.1794976650066
 31
0.0
  0
LINE
  5
23A9
330
2
100
AcDbEntity
  8
0
100
AcDbLine
 10
579.2775855067228
 20
436.1794976650593
 30
0.0
 11
570.3212769632527
 21
436.1794976650593
 31
0.0
  0
LINE
  5
23AA
330
2
100
AcDbEntity
  8
0
100
AcDbLine
 10
570.0232411120176
 20
437.4794976650604
 30
0.0
 11
578.5232411120176
 21
437.4794976650604
 31
0.0
  0
LINE
  5
23AB
330
2
100
AcDbEntity
  8
0
100
AcDbLine
 10
570.0232411120176
 20
442.1794976650594
 30
0.0
 11
578.5232411120176
 21
442.1794976650594
 31
0.0
  0
LINE
  5
23AC
330
2
100
AcDbEntity
  8
0
100
AcDbLine
 10
570.5428563542881
 20
442.4794976650605
 30
0.0
 11
578.0036258697472
 21
442.4794976650605
 31
0.0
  0
LINE
  5
23AD
330
2
100
AcDbEntity
  8
CENTER
100
AcDbLine
 10
605.2732411120172
 20
316.6794976650129
 30
0.0
 11
605.2732411120181
 21
458.6794976649593
 31
0.0
  0
LINE
  5
23AE
330
2
100
AcDbEntity
  8
0
100
AcDbLine
 10
688.3400357690469
 20
406.6794976650139
 30
0.0
 11
689.0222406648762
 21
432.7318515616292
 31
0.0
  0
LINE
  5
23AF
330
2
100
AcDbEntity
  8
0
100
AcDbLine
 10
664.2863340728053
 20
429.6794976650084
 30
0.0
 11
664.8631098149152
 21
407.6533207167026
 31
0.0
  0
LINE
  5
23B0
330
2
100
AcDbEntity
  8
0
100
AcDbLine
 10
669.2732411120176
 20
429.6794976650066
 30
0.0
 11
669.4739590712004
 21
406.6794976650139
 31
0.0
  0
LINE
  5
23B1
330
2
100
AcDbEntity
  8
0
100
AcDbLine
 10
677.9840583393641
 20
406.6794976650139
 30
0.0
 11
678.5222406665624
 21
427.2318515616293
 31
0.0
  0
LINE
  5
23B3
330
2
100
AcDbEntity
  8
0
100
AcDbLine
 10
621.8008366320017
 20
429.6794976650103
 30
0.0
 11
621.8008366320017
 21
378.179497665012
 31
0.0
  0
LINE
  5
23B4
330
2
100
AcDbEntity
  8
0
100
AcDbLine
 10
633.3859395101561
 20
378.179497665012
 30
0.0
 11
633.3859395101561
 21
429.6794976650103
 31
0.0
  0
LINE
  5
23B5
330
2
100
AcDbEntity
  8
0
100
AcDbLine
 10
636.3859395101552
 20
378.179497665012
 30
0.0
 11
636.3859395101561
 21
429.6794976650103
 31
0.0
  0
LINE
  5
23B6
330
2
100
AcDbEntity
  8
0
100
AcDbLine
 10
640.8063536852076
 20
376.6794976650121
 30
0.0
 11
641.2688776786479
 21
429.6794976650084
 31
0.0
  0
LINE
  5
23B7
330
2
100
AcDbEntity
  8
0
100
AcDbLine
 10
665.8627671398907
 20
406.6794976650139
 30
0.0
 11
669.2732411120176
 21
406.6794976650139
 31
0.0
  0
ARC
  5
23B8
330
2
100
AcDbEntity
  8
0
100
AcDbCircle
 10
665.8627671398907
 20
407.6794976650139
 30
0.0
 40
1.0
100
AcDbArc
 50
181.5000000001981
 51
270.0
  0
LINE
  5
23B9
330
2
100
AcDbEntity
  8
0
100
AcDbLine
 10
688.3400357690469
 20
406.6794976650139
 30
0.0
 11
697.0732415729862
 21
406.6794976650139
 31
0.0
  0
LINE
  5
23BA
330
2
100
AcDbEntity
  8
0
100
AcDbLine
 10
677.9840583393641
 20
406.6794976650139
 30
0.0
 11
678.5222406665624
 21
386.1271437683985
 31
0.0
  0
LINE
  5
23BB
330
2
100
AcDbEntity
  8
0
100
AcDbLine
 10
688.3400357690469
 20
406.6794976650139
 30
0.0
 11
689.0222406648762
 21
380.6271437683985
 31
0.0
  0
LINE
  5
23BC
330
2
100
AcDbEntity
  8
0
100
AcDbLine
 10
669.2469081980024
 20
380.6620445940175
 30
0.0
 11
669.4739590712004
 21
406.6794976650139
 31
0.0
  0
ARC
  5
23BD
330
2
100
AcDbEntity
  8
0
100
AcDbCircle
 10
668.216478392991
 20
436.1794976650593
 30
0.0
 40
1.0
100
AcDbArc
 50
0.4999999999654926
 51
72.13575521904565
  0
ARC
  5
23BE
330
2
100
AcDbEntity
  8
0
100
AcDbCircle
 10
668.2252052607817
 20
435.1794976650594
 30
0.0
 40
1.0
100
AcDbArc
 50
0.4999999999654926
 51
90.0
  0
ARC
  5
23BF
330
2
100
AcDbEntity
  8
0
100
AcDbCircle
 10
671.2776807026847
 20
429.1794976650138
 30
0.0
 40
2.0
100
AcDbArc
 50
180.4999999999655
 51
270.0
  0
LINE
  5
23C0
330
2
100
AcDbEntity
  8
0
100
AcDbLine
 10
628.2732411120177
 20
446.3794976649582
 30
0.0
 11
628.2732411120177
 21
447.6794976649593
 31
0.0
  0
LINE
  5
23C1
330
2
100
AcDbEntity
  8
0
100
AcDbLine
 10
630.2732411120176
 20
440.6794976649593
 30
0.0
 11
630.7732411120176
 21
440.1794976649593
 31
0.0
  0
LINE
  5
23C2
330
2
100
AcDbEntity
  8
0
100
AcDbLine
 10
628.2732411120177
 20
440.6794976649593
 30
0.0
 11
628.2732411120177
 21
443.9794976649586
 31
0.0
  0
LINE
  5
23C3
330
2
100
AcDbEntity
  8
0
100
AcDbLine
 10
627.6958908428285
 20
448.6794976649593
 30
0.0
 11
628.2732411120177
 21
447.6794976649593
 31
0.0
  0
LINE
  5
23C4
330
2
100
AcDbEntity
  8
0
100
AcDbLine
 10
632.5661343308309
 20
439.886604446146
 30
0.0
 11
632.9803478931552
 21
439.4723908838217
 31
0.0
  0
ARC
  5
23C5
330
2
100
AcDbEntity
  8
0
100
AcDbCircle
 10
631.8590275496443
 20
439.1794976649593
 30
0.0
 40
1.0
100
AcDbArc
 50
44.99999999999078
 51
90.0
  0
ARC
  5
23C6
330
2
100
AcDbEntity
  8
0
100
AcDbCircle
 10
633.6874546743419
 20
440.1794976650066
 30
0.0
 40
1.0
100
AcDbArc
 50
224.9999999999908
 51
270.0
  0
LINE
  5
23C7
330
2
100
AcDbEntity
  8
0
100
AcDbLine
 10
627.5732411120178
 20
444.3794976649583
 30
0.0
 11
627.5732411120178
 21
445.9794976649586
 31
0.0
  0
ARC
  5
23C8
330
2
100
AcDbEntity
  8
0
100
AcDbCircle
 10
628.0732411120178
 20
446.3794976649582
 30
0.0
 40
0.2
100
AcDbArc
 50
270.0
 51
0.0
  0
ARC
  5
23C9
330
2
100
AcDbEntity
  8
0
100
AcDbCircle
 10
627.7732411120176
 20
445.9794976649586
 30
0.0
 40
0.2
100
AcDbArc
 50
90.0
 51
180.0
  0
ARC
  5
23CA
330
2
100
AcDbEntity
  8
0
100
AcDbCircle
 10
627.7732411120176
 20
444.3794976649583
 30
0.0
 40
0.2
100
AcDbArc
 50
180.0
 51
270.0
  0
LINE
  5
23CB
330
2
100
AcDbEntity
  8
0
100
AcDbLine
 10
628.0732411120178
 20
444.1794976649593
 30
0.0
 11
628.2732411120177
 21
443.9794976649586
 31
0.0
  0
LINE
  5
23CC
330
2
100
AcDbEntity
  8
0
100
AcDbLine
 10
633.2732411120177
 20
429.6794976650121
 30
0.0
 11
633.2732411120177
 21
438.1794976649593
 31
0.0
  0
LINE
  5
23CD
330
2
100
AcDbEntity
  8
0
100
AcDbLine
 10
621.8008366320008
 20
429.6794976650121
 30
0.0
 11
621.8008366320008
 21
438.1794976649593
 31
0.0
  0
LINE
  5
23CE
330
2
100
AcDbEntity
  8
0
100
AcDbLine
 10
659.2132973424667
 20
436.1794976650593
 30
0.0
 11
668.2252052607817
 21
436.1794976650593
 31
0.0
  0
ARC
  5
23CF
330
2
100
AcDbEntity
  8
0
100
AcDbCircle
 10
657.7990837800934
 20
436.1794976650648
 30
0.0
 40
1.0
100
AcDbArc
 50
19.47122063451354
 51
90.0
  0
ARC
  5
23D0
330
2
100
AcDbEntity
  8
0
100
AcDbCircle
 10
659.2132973424667
 20
436.6794976650666
 30
0.0
 40
0.5
100
AcDbArc
 50
199.4712206345135
 51
270.0
  0
LINE
  5
23D1
330
2
100
AcDbEntity
  8
0
100
AcDbLine
 10
660.0232411120185
 20
437.4794976650604
 30
0.0
 11
668.5232411120185
 21
437.4794976650604
 31
0.0
  0
LINE
  5
23D2
330
2
100
AcDbEntity
  8
0
100
AcDbLine
 10
660.0232411120185
 20
442.1794976650594
 30
0.0
 11
668.5232411120185
 21
442.1794976650594
 31
0.0
  0
LINE
  5
23D3
330
2
100
AcDbEntity
  8
0
100
AcDbLine
 10
660.542856354289
 20
442.4794976650605
 30
0.0
 11
668.0036258697472
 21
442.4794976650605
 31
0.0
  0
LINE
  5
23D4
330
2
100
AcDbEntity
  8
0
100
AcDbLine
 10
660.0232411120185
 20
442.1794976650594
 30
0.0
 11
660.542856354289
 21
442.4794976650605
 31
0.0
  0
LINE
  5
23D5
330
2
100
AcDbEntity
  8
0
100
AcDbLine
 10
660.0232411120185
 20
442.1794976650594
 30
0.0
 11
660.0232411120185
 21
436.1794976650593
 31
0.0
  0
LINE
  5
23D6
330
2
100
AcDbEntity
  8
0
100
AcDbLine
 10
668.5232411120185
 20
442.1794976650594
 30
0.0
 11
668.5232411120185
 21
436.1794976650593
 31
0.0
  0
LINE
  5
23D7
330
2
100
AcDbEntity
  8
0
100
AcDbLine
 10
668.5232411120185
 20
442.1794976650594
 30
0.0
 11
668.0036258697472
 21
442.4794976650605
 31
0.0
  0
ARC
  5
23D8
330
2
100
AcDbEntity
  8
0
100
AcDbCircle
 10
642.2732411120176
 20
438.1794976650594
 30
0.0
 40
1.0
100
AcDbArc
 50
180.000000001459
 51
270.0
  0
ARC
  5
23D9
330
2
100
AcDbEntity
  8
0
100
AcDbCircle
 10
640.2732411120176
 20
438.1794976650066
 30
0.0
 40
1.0
100
AcDbArc
 50
0.0000000015633062
 51
90.0
  0
LINE
  5
23DA
330
2
100
AcDbEntity
  8
0
100
AcDbLine
 10
641.2732411120177
 20
438.1794976650103
 30
0.0
 11
641.2732411120177
 21
438.1794976650066
 31
0.0
  0
LINE
  5
23DB
330
2
100
AcDbEntity
  8
0
100
AcDbLine
 10
642.2732411120176
 20
437.1794976650593
 30
0.0
 11
660.0232411120185
 21
437.1794976650593
 31
0.0
  0
LINE
  5
23DC
330
2
100
AcDbEntity
  8
0
100
AcDbLine
 10
641.2732411120177
 20
429.6794976650121
 30
0.0
 11
641.2732411120177
 21
438.1794976650066
 31
0.0
  0
LINE
  5
23DD
330
2
100
AcDbEntity
  8
CENTER
  6
CENS
100
AcDbLine
 10
664.2732411120185
 20
446.3436533513317
 30
0.0
 11
664.2732411120185
 21
425.6092410613049
 31
0.0
  0
LINE
  5
23DE
330
2
100
AcDbEntity
  8
0
100
AcDbLine
 10
636.2732411120177
 20
429.6794976650121
 30
0.0
 11
636.2732411120177
 21
438.1794976649593
 31
0.0
  0
LINE
  5
23DF
330
2
100
AcDbEntity
  8
0
100
AcDbLine
 10
697.0732415729862
 20
434.6794976650139
 30
0.0
 11
691.0215553148272
 21
434.6794976650139
 31
0.0
  0
LINE
  5
23E0
330
2
100
AcDbEntity
  8
CENTER
100
AcDbLine
 10
691.038636099215
 20
434.6794976650139
 30
0.0
 11
691.0215553148272
 21
434.6794976650139
 31
0.0
  0
ARC
  5
23E1
330
2
100
AcDbEntity
  8
0
100
AcDbCircle
 10
684.1841581492388
 20
434.1794976650139
 30
0.0
 40
5.0
100
AcDbArc
 50
270.0
 51
347.6263748837812
  0
LINE
  5
23E2
330
2
100
AcDbEntity
  8
0
100
AcDbLine
 10
684.1841581492388
 20
429.1794976650138
 30
0.0
 11
680.5215553165133
 21
429.1794976650138
 31
0.0
  0
ARC
  5
23E3
330
2
100
AcDbEntity
  8
0
100
AcDbCircle
 10
691.0215553148272
 20
432.6794976650139
 30
0.0
 40
2.0
100
AcDbArc
 50
90.0
 51
178.5000000000102
  0
ARC
  5
23E4
330
2
100
AcDbEntity
  8
0
100
AcDbCircle
 10
677.0574537013762
 20
429.1794976650138
 30
0.0
 40
2.0
100
AcDbArc
 50
270.0
 51
329.9999999999849
  0
ARC
  5
23E5
330
2
100
AcDbEntity
  8
0
100
AcDbCircle
 10
680.5215553165133
 20
427.1794976650139
 30
0.0
 40
2.0
100
AcDbArc
 50
90.0
 51
178.5000000000102
  0
LINE
  5
23E6
330
2
100
AcDbEntity
  8
0
100
AcDbLine
 10
669.2732411120176
 20
429.6794976650121
 30
0.0
 11
669.2164403160549
 21
436.188224200559
 31
0.0
  0
LINE
  5
23E7
330
2
100
AcDbEntity
  8
0
100
AcDbLine
 10
671.2776807026847
 20
427.1794976650139
 30
0.0
 11
677.0574537013762
 21
427.1794976650139
 31
0.0
  0
ARC
  5
2A32
330
2
100
AcDbEntity
  8
0
100
AcDbCircle
 10
605.2732411120131
 20
133.97742630183
 30
0.0
 40
7.500057200868525
100
AcDbArc
 50
199.4710661391139
 51
160.528933860886
  0
ARC
  5
2A33
330
2
100
AcDbEntity
  8
0
100
AcDbCircle
 10
605.2732411120131
 20
133.97742630183
 30
0.0
 40
8.500057200868525
100
AcDbArc
 50
197.1045165256766
 51
162.8954834743377
  0
ARC
  5
2A34
330
2
100
AcDbEntity
  8
0
100
AcDbCircle
 10
605.2732411120131
 20
133.97742630183
 30
0.0
 40
9.077407470058233
100
AcDbArc
 50
195.986391246479
 51
164.0136087535209
  0
CIRCLE
  5
2A35
330
2
100
AcDbEntity
  8
0
100
AcDbCircle
 10
605.2732411120131
 20
133.97742630183
 30
0.0
 40
12.00005720086858
  0
LINE
  5
2A38
330
2
100
AcDbEntity
  8
0
100
AcDbLine
 10
616.4845659774229
 20
357.6794976650162
 30
0.0
 11
594.0619162466124
 21
357.6794976650162
 31
0.0
  0
LINE
  5
2A39
330
2
100
AcDbEntity
  8
0
100
AcDbLine
 10
613.7732983129027
 20
356.6794976650161
 30
0.0
 11
596.7732983129027
 21
356.6794976650161
 31
0.0
  0
LINE
  5
2A3A
330
2
100
AcDbEntity
  8
0
100
AcDbLine
 10
612.2732983129027
 20
326.6794976650162
 30
0.0
 11
595.7732983128981
 21
326.6794976650166
 31
0.0
  0
LINE
  5
2A3B
330
2
100
AcDbEntity
  8
0
100
AcDbLine
 10
612.7732983129027
 20
327.1794976650161
 30
0.0
 11
598.2021126295104
 21
327.1794976650175
 31
0.0
  0
LINE
  5
2A3E
330
2
100
AcDbEntity
  8
0
100
AcDbLine
 10
397.9150990045227
 20
142.4774835027165
 30
0.0
 11
396.9150990045227
 21
143.054833771906
 31
0.0
  0
LINE
  5
2A3F
330
2
100
AcDbEntity
  8
0
100
AcDbLine
 10
397.9150990045227
 20
125.4773691009459
 30
0.0
 11
396.9150990045227
 21
124.9000188317564
 31
0.0
  0
LINE
  5
2A40
330
2
100
AcDbEntity
  8
0
100
AcDbLine
 10
396.9150990045227
 20
145.1887511672364
 30
0.0
 11
396.9150990045227
 21
122.766101436426
 31
0.0
  0
ARC
  5
2A41
330
2
100
AcDbEntity
  8
0
100
AcDbCircle
 10
396.4150990045227
 20
145.1887511672364
 30
0.0
 40
0.5
100
AcDbArc
 50
0.0
 51
60.00000000000109
  0
ARC
  5
2A42
330
2
100
AcDbEntity
  8
0
100
AcDbCircle
 10
395.5130761410364
 20
143.9774835027163
 30
0.0
 40
2.0
100
AcDbArc
 50
60.00000000000109
 51
78.40388896672376
  0
LINE
  5
2A43
330
2
100
AcDbEntity
  8
0
100
AcDbLine
 10
396.6650990045227
 20
145.6217638691285
 30
0.0
 11
396.5130761410364
 21
145.7095343102853
 31
0.0
  0
ARC
  5
2A44
330
2
100
AcDbEntity
  8
0
100
AcDbCircle
 10
396.4150990045227
 20
122.766101436426
 30
0.0
 40
0.5
100
AcDbArc
 50
299.9999999999989
 51
0.0
  0
ARC
  5
2A45
330
2
100
AcDbEntity
  8
0
100
AcDbCircle
 10
395.5130761410364
 20
123.9773691009461
 30
0.0
 40
2.0
100
AcDbArc
 50
281.5961110332494
 51
299.9999999999989
  0
LINE
  5
2A46
330
2
100
AcDbEntity
  8
0
100
AcDbLine
 10
396.6650990045227
 20
122.3330887345339
 30
0.0
 11
396.5130761410364
 21
122.2453182933771
 31
0.0
  0
LINE
  5
2A47
330
2
100
AcDbEntity
  8
0
100
AcDbLine
 10
397.9150990045227
 20
142.4774835027165
 30
0.0
 11
397.9150990045227
 21
125.4774835027165
 31
0.0
  0
LINE
  5
2A48
330
2
100
AcDbEntity
  8
0
100
AcDbLine
 10
397.9150990045227
 20
141.4774835027165
 30
0.0
 11
427.4150990045227
 21
141.4774835027165
 31
0.0
  0
LINE
  5
2A49
330
2
100
AcDbEntity
  8
0
100
AcDbLine
 10
427.9150990045227
 20
140.9774835027165
 30
0.0
 11
427.4150990045227
 21
141.4774835027165
 31
0.0
  0
LINE
  5
2A4A
330
2
100
AcDbEntity
  8
0
100
AcDbLine
 10
427.9150990045227
 20
140.9774835027165
 30
0.0
 11
427.9150990045223
 21
126.9774835027176
 31
0.0
  0
LINE
  5
2A4B
330
2
100
AcDbEntity
  8
0
100
AcDbLine
 10
427.4150990045223
 20
126.4774835027177
 30
0.0
 11
427.9150990045223
 21
126.9774835027176
 31
0.0
  0
LINE
  5
2A4C
330
2
100
AcDbEntity
  8
0
100
AcDbLine
 10
397.9150990045227
 20
126.4774835027167
 30
0.0
 11
427.4150990045223
 21
126.4774835027177
 31
0.0
  0
LINE
  5
2A4D
330
2
100
AcDbEntity
  8
0
100
AcDbLine
 10
427.4150990045227
 20
141.4774835027165
 30
0.0
 11
427.4150990045223
 21
136.4774294838533
 31
0.0
  0
LINE
  5
2A4E
330
2
100
AcDbEntity
  8
0
100
AcDbLine
 10
427.4150990045223
 20
131.4774294931306
 30
0.0
 11
427.4150990045223
 21
126.4774835027177
 31
0.0
  0
LINE
  5
2A4F
330
2
100
AcDbEntity
  8
0
100
AcDbLine
 10
406.4150990045223
 20
136.4774263018312
 30
0.0
 11
427.9150990045223
 21
136.477429559616
 31
0.0
  0
ARC
  5
2A50
330
2
100
AcDbEntity
  8
0
100
AcDbCircle
 10
406.4150990045223
 20
133.9774263018312
 30
0.0
 40
2.5
100
AcDbArc
 50
90.0
 51
270.0
  0
LINE
  5
2A51
330
2
100
AcDbEntity
  8
0
100
AcDbLine
 10
406.4136870472593
 20
131.477426700556
 30
0.0
 11
427.9150990045223
 21
131.477429559616
 31
0.0
  0
LINE
  5
2A54
330
2
100
AcDbEntity
  8
0
100
AcDbLine
 10
595.7732983128825
 20
131.47742630183
 30
0.0
 11
600.773298312882
 21
131.47742630183
 31
0.0
  0
LINE
  5
2A55
330
2
100
AcDbEntity
  8
0
100
AcDbLine
 10
595.7732983128806
 20
136.47742630183
 30
0.0
 11
600.7732983128811
 21
136.47742630183
 31
0.0
  0
LINE
  5
2A56
330
2
100
AcDbEntity
  8
0
100
AcDbLine
 10
600.7732983128811
 20
136.47742630183
 30
0.0
 11
600.773298312882
 21
131.47742630183
 31
0.0
  0
LINE
  5
2A57
330
2
100
AcDbEntity
  8
0
100
AcDbLine
 10
595.7732983128806
 20
136.47742630183
 30
0.0
 11
595.7732983128825
 21
131.47742630183
 31
0.0
  0
LINE
  5
2A58
330
2
100
AcDbEntity
  8
0
100
AcDbLine
 10
597.7732983129032
 20
356.6794976650161
 30
0.0
 11
597.7732983129032
 21
350.6794976650166
 31
0.0
  0
LINE
  5
2A59
330
2
100
AcDbEntity
  8
0
100
AcDbLine
 10
596.7731839111321
 20
356.6794976650161
 30
0.0
 11
596.1958336419426
 21
357.6794976650162
 31
0.0
  0
ARC
  5
2A5A
330
2
100
AcDbEntity
  8
0
100
AcDbCircle
 10
594.0619162466124
 20
358.1794976650161
 30
0.0
 40
0.5
100
AcDbArc
 50
210.0000000000004
 51
270.0
  0
ARC
  5
2A5B
330
2
100
AcDbEntity
  8
0
100
AcDbCircle
 10
595.2731839111321
 20
359.0815205285025
 30
0.0
 40
2.0
100
AcDbArc
 50
191.5961110332487
 51
210.0000000000004
  0
LINE
  5
2A5C
330
2
100
AcDbEntity
  8
0
100
AcDbLine
 10
593.6289035447199
 20
357.9294976650162
 30
0.0
 11
593.5411331035635
 21
358.0815205285024
 31
0.0
  0
LINE
  5
2A5D
330
2
100
AcDbEntity
  8
0
100
AcDbLine
 10
595.7732983128981
 20
326.6794976650166
 30
0.0
 11
595.7732983128981
 21
350.6794976650166
 31
0.0
  0
LINE
  5
2A5E
330
2
100
AcDbEntity
  8
0
100
AcDbLine
 10
598.2021126295109
 20
326.6794976650166
 30
0.0
 11
598.2021126295109
 21
348.1809096222795
 31
0.0
  0
LINE
  5
2A5F
330
2
100
AcDbEntity
  8
0
100
AcDbLine
 10
597.7732983129027
 20
350.6794976650166
 30
0.0
 11
595.7732983128981
 21
350.6794976650166
 31
0.0
  0
LINE
  5
2A60
330
2
100
AcDbEntity
  8
0
100
AcDbLine
 10
597.7732983129027
 20
350.6794976650166
 30
0.0
 11
598.2021126295109
 21
348.1809096222795
 31
0.0
  0
LINE
  5
2A62
330
2
100
AcDbEntity
  8
0
100
AcDbLine
 10
896.2762643936057
 20
126.4773691009447
 30
0.0
 11
866.7762643936057
 21
126.4773691009447
 31
0.0
  0
LINE
  5
2A63
330
2
100
AcDbEntity
  8
0
100
AcDbLine
 10
896.2762643936057
 20
141.4773691009442
 30
0.0
 11
866.7762643936068
 21
141.4773691009442
 31
0.0
  0
LINE
  5
2A64
330
2
100
AcDbEntity
  8
0
100
AcDbLine
 10
866.2762643936058
 20
126.9773691009447
 30
0.0
 11
866.7762643936057
 21
126.4773691009447
 31
0.0
  0
LINE
  5
2A65
330
2
100
AcDbEntity
  8
0
100
AcDbLine
 10
866.2762643936058
 20
126.9773691009447
 30
0.0
 11
866.2762643936067
 21
140.9773691009442
 31
0.0
  0
LINE
  5
2A66
330
2
100
AcDbEntity
  8
0
100
AcDbLine
 10
866.7762643936068
 20
141.4773691009442
 30
0.0
 11
866.2762643936067
 21
140.9773691009442
 31
0.0
  0
LINE
  5
2A67
330
2
100
AcDbEntity
  8
0
100
AcDbLine
 10
866.7762643936057
 20
126.4773691009447
 30
0.0
 11
866.7762643936072
 21
141.4773691009442
 31
0.0
  0
LINE
  5
2A69
330
2
100
AcDbEntity
  8
0
100
AcDbLine
 10
897.2762643936057
 20
122.7661014364245
 30
0.0
 11
897.2762643936057
 21
145.188751167235
 31
0.0
  0
ARC
  5
2A6A
330
2
100
AcDbEntity
  8
0
100
AcDbCircle
 10
897.7762643936058
 20
122.7661014364245
 30
0.0
 40
0.5
100
AcDbArc
 50
180.0
 51
240.000000000001
  0
ARC
  5
2A6B
330
2
100
AcDbEntity
  8
0
100
AcDbCircle
 10
898.678287257092
 20
123.9773691009447
 30
0.0
 40
2.0
100
AcDbArc
 50
240.000000000001
 51
258.4038889667506
  0
LINE
  5
2A6C
330
2
100
AcDbEntity
  8
0
100
AcDbLine
 10
896.2762643936057
 20
125.4773691009447
 30
0.0
 11
896.2762643936057
 21
142.4773691009447
 31
0.0
  0
LINE
  5
2A6D
330
2
100
AcDbEntity
  8
0
100
AcDbLine
 10
896.2762643936057
 20
125.4773691009447
 30
0.0
 11
897.2762643936057
 21
124.9000188317551
 31
0.0
  0
LINE
  5
2A6E
330
2
100
AcDbEntity
  8
0
100
AcDbLine
 10
896.2762643936057
 20
142.4774835027152
 30
0.0
 11
897.2762643936057
 21
143.0548337719048
 31
0.0
  0
LINE
  5
2A6F
330
2
100
AcDbEntity
  8
0
100
AcDbLine
 10
897.5262643936057
 20
122.3330887345325
 30
0.0
 11
897.678287257092
 21
122.2453182933756
 31
0.0
  0
ARC
  5
2A70
330
2
100
AcDbEntity
  8
0
100
AcDbCircle
 10
897.7762643936058
 20
145.188751167235
 30
0.0
 40
0.5
100
AcDbArc
 50
119.9999999999989
 51
180.0
  0
ARC
  5
2A71
330
2
100
AcDbEntity
  8
0
100
AcDbCircle
 10
898.678287257092
 20
143.9774835027153
 30
0.0
 40
2.0
100
AcDbArc
 50
101.5961110332493
 51
119.9999999999989
  0
LINE
  5
2A72
330
2
100
AcDbEntity
  8
0
100
AcDbLine
 10
897.5262643936057
 20
145.6217638691275
 30
0.0
 11
897.678287257092
 21
145.7095343102839
 31
0.0
  0
ARC
  5
2A73
330
2
100
AcDbEntity
  8
0
100
AcDbCircle
 10
616.4845659774229
 20
358.1794976650161
 30
0.0
 40
0.5
100
AcDbArc
 50
270.0
 51
329.9999999999994
  0
ARC
  5
2A74
330
2
100
AcDbEntity
  8
0
100
AcDbCircle
 10
615.2732983129027
 20
359.0815205285025
 30
0.0
 40
2.0
100
AcDbArc
 50
329.9999999999994
 51
348.4038889667512
  0
LINE
  5
2A75
330
2
100
AcDbEntity
  8
0
100
AcDbLine
 10
612.7732983129027
 20
356.6794976650161
 30
0.0
 11
612.7732983129027
 21
327.1794976650161
 31
0.0
  0
LINE
  5
2A76
330
2
100
AcDbEntity
  8
0
100
AcDbLine
 10
612.2732983129027
 20
326.6794976650162
 30
0.0
 11
612.7732983129027
 21
327.1794976650161
 31
0.0
  0
LINE
  5
2A77
330
2
100
AcDbEntity
  8
0
100
AcDbLine
 10
613.7732983129027
 20
356.6794976650161
 30
0.0
 11
614.3506485820922
 21
357.6794976650162
 31
0.0
  0
LINE
  5
2A78
330
2
100
AcDbEntity
  8
0
100
AcDbLine
 10
616.9175786793149
 20
357.9294976650162
 30
0.0
 11
617.0053491204718
 21
358.0815205285024
 31
0.0
  0
CIRCLE
  5
2C4F
330
2
100
AcDbEntity
  8
0
100
AcDbCircle
 10
605.2732411120191
 20
133.9774263018313
 30
0.0
 40
19.5774
  0
ARC
  5
2C54
330
2
100
AcDbEntity
  8
0
100
AcDbCircle
 10
667.246984351874
 20
380.6794976650138
 30
0.0
 40
2.0
100
AcDbArc
 50
270.0
 51
359.5000000000105
  0
ENDSEC
  0
SECTION
  2
OBJECTS
  0
DICTIONARY
  5
7
330
0
100
AcDbDictionary
  3
ACAD_COLOR
350
1A59
  3
ACAD_GROUP
350
75
  3
ACAD_LAYOUT
350
61
  3
ACAD_MATERIAL
350
1A2F
  3
ACAD_MLEADERSTYLE
350
1A7E
  3
ACAD_MLINESTYLE
350
76
  3
ACAD_PLOTSETTINGS
350
77
  3
ACAD_PLOTSTYLENAME
350
6
  3
ACAD_SCALELIST
350
1A5C
  3
ACAD_TABLESTYLE
350
1A5A
  3
ACAD_VISUALSTYLE
350
1A48
  3
ACADDIM
350
480
  3
ACDB_RECOMPOSE_DATA
350
1ADF
  3
ACDBHEADERROUNDTRIPXREC
350
2C98
  3
ACDBVARIABLEDICTIONARY
350
102
  3
DWGPROPS
350
2C62
  0
DICTIONARY
  5
1AE8
330
6E
100
AcDbDictionary
280
     1
  3
ACAD_XREC_ROUNDTRIP
360
2C6A
  0
DICTIONARY
  5
B10
330
66
100
AcDbDictionary
280
     1
  3
ACAD_LAYERSTATES
360
B11
  0
DICTIONARY
  5
1A8C
330
5E
100
AcDbDictionary
280
     1
  3
ACAD_XREC_ROUNDTRIP
360
2C65
  3
ADSK_XREC_LAYER_RECONCILED
360
1A8D
  0
DICTIONARY
  5
1A8E
330
3E
100
AcDbDictionary
280
     1
  3
ACAD_XREC_ROUNDTRIP
360
2C64
  3
ADSK_XREC_LAYER_RECONCILED
360
1A8F
  0
DICTIONARY
  5
1A94
330
2B5
100
AcDbDictionary
280
     1
  3
ACAD_XREC_ROUNDTRIP
360
2C70
  3
ADSK_XREC_LAYER_RECONCILED
360
1A95
  0
DICTIONARY
  5
1A96
330
2BA
100
AcDbDictionary
280
     1
  3
ACAD_XREC_ROUNDTRIP
360
2C71
  3
ADSK_XREC_LAYER_RECONCILED
360
1A97
  0
DICTIONARY
  5
2C5A
330
2C59
100
AcDbDictionary
280
     1
  3
ACAD_XREC_ROUNDTRIP
360
2C7F
  0
DICTIONARY
  5
2CB9
330
2
100
AcDbDictionary
280
     1
  3
ACAD_LAYOUTSELFREF
360
2CBA
  0
DICTIONARY
  5
2CBB
330
2C92
100
AcDbDictionary
280
     1
  3
ACAD_LAYOUTSELFREF
360
2CBC
  0
DICTIONARY
  5
1A59
102
{ACAD_REACTORS
330
7
102
}
330
7
100
AcDbDictionary
  0
DICTIONARY
  5
75
102
{ACAD_REACTORS
330
7
102
}
330
7
100
AcDbDictionary
  0
DICTIONARY
  5
61
102
{ACAD_REACTORS
330
7
102
}
330
7
100
AcDbDictionary
  0
DICTIONARY
  5
1A2F
102
{ACAD_REACTORS
330
7
102
}
330
7
100
AcDbDictionary
  3
BYBLOCK
350
1A38
  3
BYLAYER
350
1A30
  3
GLOBAL
350
1A40
  0
DICTIONARY
  5
1A7E
102
{ACAD_REACTORS
330
7
102
}
330
7
100
AcDbDictionary
  3
STANDARD
350
1A7F
  0
DICTIONARY
  5
76
102
{ACAD_REACTORS
330
7
102
}
330
7
100
AcDbDictionary
  3
STANDARD
350
78
  0
DICTIONARY
  5
77
102
{ACAD_REACTORS
330
7
102
}
330
7
100
AcDbDictionary
  0
ACDBDICTIONARYWDFLT
  5
6
102
{ACAD_REACTORS
330
7
102
}
330
7
100
AcDbDictionary
281
     1
  3
Normal
350
5
100
AcDbDictionaryWithDefault
340
5
  0
DICTIONARY
  5
1A5C
102
{ACAD_REACTORS
330
7
102
}
330
7
100
AcDbDictionary
  3
A0
350
1A5D
  3
A1
350
1A5E
  3
A2
350
1A5F
  3
A3
350
1A60
  3
A4
350
1A61
  3
A5
350
1A62
  3
A6
350
1A63
  3
A7
350
1A64
  3
A8
350
1A65
  3
A9
350
1A66
  3
B0
350
1A67
  3
B1
350
1A68
  3
B2
350
1A69
  3
B3
350
1A6A
  3
B4
350
1A6B
  3
B5
350
1A6C
  3
B6
350
1A6D
  3
B7
350
1A6E
  3
B8
350
1A6F
  3
B9
350
1A70
  3
C0
350
1A71
  3
C1
350
1A72
  3
C2
350
1A73
  3
C3
350
1A74
  3
C4
350
1A75
  3
C5
350
1A76
  3
C6
350
1A77
  3
C7
350
1A78
  3
C8
350
1A79
  3
C9
350
1A7A
  3
D0
350
1A7B
  3
D1
350
1A7C
  3
D2
350
1A7D
  0
DICTIONARY
  5
1A5A
102
{ACAD_REACTORS
330
7
102
}
330
7
100
AcDbDictionary
  3
STANDARD
350
1A5B
  0
DICTIONARY
  5
1A48
102
{ACAD_REACTORS
330
7
102
}
330
7
100
AcDbDictionary
  3
2DWIREFRAME
350
1A4E
  3
3D_HIDDEN
350
1A50
  3
3DWIREFRAME
350
1A4F
  3
BASIC
350
1A4D
  3
BRIGHTEN
350
1A54
  3
COLORCHANGE
350
1A58
  3
CONCEPTUAL
350
1A51
  3
DIM
350
1A53
  3
FACEPATTERN
350
1A57
  3
FLAT
350
1A49
  3
FLATWITHEDGES
350
1A4A
  3
GOURAUD
350
1A4B
  3
GOURAUDWITHEDGES
350
1A4C
  3
LINEPATTERN
350
1A56
  3
REALISTIC
350
1A52
  3
THICKEN
350
1A55
  0
XRECORD
  5
480
102
{ACAD_REACTORS
330
7
102
}
330
7
100
AcDbXrecord
 90
   990106
  3

 60
     0
 61
     0
 62
     1
 63
     3
 64
     1
 65
     0
 66
     0
 67
     3
 68
     1
 69
     0
 70
     0
 71
     0
 72
     0
 40
0.0
170
     2
340
0
  0
XRECORD
  5
1ADF
102
{ACAD_REACTORS
330
7
102
}
330
7
100
AcDbXrecord
 90
        1
330
1A5B
  0
DICTIONARY
  5
2C98
102
{ACAD_REACTORS
330
7
102
}
330
7
100
AcDbDictionary
  3
CEPSNTYPE
350
2CA2
  3
DIMSTYLEDATA
350
2CA6
  3
FINGERPRINTGUID
350
2CA3
  3
HYPERLINKBASE
350
2C9B
  3
INSUNITS
350
2CA1
  3
LAYOUTDICT
350
2C9D
  3
LWETCUNION
350
2CA0
  3
PLOTSETDICT
350
2C9E
  3
PLOTSTYLNAMDICT
350
2C9F
  3
PSVPSCALE
350
2CA5
  3
PUCSBASE
350
2CA9
  3
PUCSORGBACK
350
2CAF
  3
PUCSORGBOTTOM
350
2CAB
  3
PUCSORGFRONT
350
2CAE
  3
PUCSORGLEFT
350
2CAC
  3
PUCSORGRIGHT
350
2CAD
  3
PUCSORGTOP
350
2CAA
  3
PUCSORTHOREF
350
2CA7
  3
PUCSORTHOVIEW
350
2CA8
  3
STYLESHEET
350
2C9C
  3
TSTACKALIGN
350
2C99
  3
TSTACKSIZE
350
2C9A
  3
UCSBASE
350
2CB2
  3
UCSORGBACK
350
2CB8
  3
UCSORGBOTTOM
350
2CB4
  3
UCSORGFRONT
350
2CB7
  3
UCSORGLEFT
350
2CB5
  3
UCSORGRIGHT
350
2CB6
  3
UCSORGTOP
350
2CB3
  3
UCSORTHOREF
350
2CB0
  3
UCSORTHOVIEW
350
2CB1
  3
VERSIONGUID
350
2CA4
  0
DICTIONARY
  5
102
102
{ACAD_REACTORS
330
7
102
}
330
7
100
AcDbDictionary
  3
CANNOSCALE
350
1B01
  3
CMLEADERSTYLE
350
1B00
  3
CTABLESTYLE
350
1AFF
  3
DIMASSOC
350
103
  3
INDEXCTL
350
1B02
  3
SORTENTS
350
549
  0
XRECORD
  5
2C62
102
{ACAD_REACTORS
330
7
102
}
330
7
100
AcDbXrecord
  1
DWGPROPS COOKIE
  2

  3

  4

  6

  7

  8
ymorima
  9

300
=
301
=
302
=
303
=
304
=
305
=
306
=
307
=
308
=
309
=
 40
0.0506918865740741
 41
2454411.541237881
 42
2454426.372127453
  1

 90
        0
  0
XRECORD
  5
2C6A
102
{ACAD_REACTORS
330
1AE8
102
}
330
1AE8
100
AcDbXrecord
102
VTR_0.000_0.000_1.000_1.000_VISUALSTYLE
340
1A4E
102
VTR_0.000_0.000_1.000_1.000_GRIDDISPLAY
 70
     3
102
VTR_0.000_0.000_1.000_1.000_GRIDMAJOR
 70
     5
102
VTR_0.000_0.000_1.000_1.000_DEFAULTLIGHTING
280
     1
102
VTR_0.000_0.000_1.000_1.000_DEFAULTLIGHTINGTYPE
 70
     1
102
VTR_0.000_0.000_1.000_1.000_BRIGHTNESS
141
0.0
102
VTR_0.000_0.000_1.000_1.000_CONTRAST
142
0.0
  0
DICTIONARY
  5
B11
102
{ACAD_REACTORS
330
B10
102
}
330
B10
100
AcDbDictionary
  0
XRECORD
  5
2C65
102
{ACAD_REACTORS
330
1A8C
102
}
330
1A8C
100
AcDbXrecord
102
MATERIAL
340
1A40
  0
XRECORD
  5
1A8D
102
{ACAD_REACTORS
330
1A8C
102
}
330
1A8C
100
AcDbXrecord
290
     1
  0
XRECORD
  5
2C64
102
{ACAD_REACTORS
330
1A8E
102
}
330
1A8E
100
AcDbXrecord
102
MATERIAL
340
1A40
  0
XRECORD
  5
1A8F
102
{ACAD_REACTORS
330
1A8E
102
}
330
1A8E
100
AcDbXrecord
290
     1
  0
XRECORD
  5
2C70
102
{ACAD_REACTORS
330
1A94
102
}
330
1A94
100
AcDbXrecord
102
MATERIAL
340
1A40
  0
XRECORD
  5
1A95
102
{ACAD_REACTORS
330
1A94
102
}
330
1A94
100
AcDbXrecord
290
     1
  0
XRECORD
  5
2C71
102
{ACAD_REACTORS
330
1A96
102
}
330
1A96
100
AcDbXrecord
102
MATERIAL
340
1A40
  0
XRECORD
  5
1A97
102
{ACAD_REACTORS
330
1A96
102
}
330
1A96
100
AcDbXrecord
290
     1
  0
XRECORD
  5
2C7F
102
{ACAD_REACTORS
330
2C5A
102
}
330
2C5A
100
AcDbXrecord
102
MATERIAL
340
1A40
  0
XRECORD
  5
2CBA
102
{ACAD_REACTORS
330
2CB9
102
}
330
2CB9
100
AcDbXrecord
340
2
  0
XRECORD
  5
2CBC
102
{ACAD_REACTORS
330
2CBB
102
}
330
2CBB
100
AcDbXrecord
340
2C92
  0
ACAD_PROXY_OBJECT
  5
1A38
102
{ACAD_XDICTIONARY
360
1A39
102
}
102
{ACAD_REACTORS
330
1A2F
102
}
330
1A2F
100
AcDbProxyObject
 90
      499
 91
      510
 93
     1340
310
42109E509B1BD8DAC02004014080404555555555555953FAA155555555555654FEA9AA400014080404555555555555953FAA155555555555654FEA9AA400000000000000E03F4080404555555555555953FAA155555555555654FEA9AA4014080404555555555555953FAA155555555555654FEA9AA4010201011555555555
310
55654FEA8555555555555953FAA6A9005020101155555555555654FEA8555555555555953FAA6A9000
 94
        0
1001
ACAD
1000
AcadProxyRoundTripData
1071
      504
1071
   655383
1070
     0
  0
ACAD_PROXY_OBJECT
  5
1A30
102
{ACAD_XDICTIONARY
360
1A31
102
}
102
{ACAD_REACTORS
330
1A2F
102
}
330
1A2F
100
AcDbProxyObject
 90
      499
 91
      510
 93
     1340
310
42109E53185E595C802004014080404555555555555953FAA155555555555654FEA9AA400014080404555555555555953FAA155555555555654FEA9AA400000000000000E03F4080404555555555555953FAA155555555555654FEA9AA4014080404555555555555953FAA155555555555654FEA9AA4010201011555555555
310
55654FEA8555555555555953FAA6A9005020101155555555555654FEA8555555555555953FAA6A9000
 94
        0
1001
ACAD
1000
AcadProxyRoundTripData
1071
      504
1071
   655383
1070
     0
  0
ACAD_PROXY_OBJECT
  5
1A40
102
{ACAD_XDICTIONARY
360
1A41
102
}
102
{ACAD_REACTORS
330
1A2F
102
}
330
1A2F
100
AcDbProxyObject
 90
      499
 91
      510
 93
     1332
310
41D1DB1BD8985B002004014080404555555555555953FAA155555555555654FEA9AA400014080404555555555555953FAA155555555555654FEA9AA400000000000000E03F4080404555555555555953FAA155555555555654FEA9AA4014080404555555555555953FAA155555555555654FEA9AA401020101155555555555
310
654FEA8555555555555953FAA6A9005020101155555555555654FEA8555555555555953FAA6A9000
 94
        0
1001
ACAD
1000
AcadProxyRoundTripData
1071
      504
1071
   655383
1070
     0
  0
ACAD_PROXY_OBJECT
  5
1A7F
102
{ACAD_REACTORS
330
1A7E
102
}
330
1A7E
100
AcDbProxyObject
 90
      499
 91
      510
 93
      618
310
40901902A4063FBFFFFFE056BD1B81E855B9FC0AD7A3703D0AD73F4254DD185B99185C990000AD7A3703D0AC73F90141901A02B5E8DC0F42B1CFC02B5E8DC0F42B1CFE5764000000000000300FC6
340
6A
340
0
340
16
340
0
 94
        0
1001
ACAD_MLEADERVER
1070
     2
1001
ACAD
1000
AcadProxyRoundTripData
1071
      508
1071
   655383
1070
     0
  0
MLINESTYLE
  5
78
102
{ACAD_REACTORS
330
76
102
}
330
76
100
AcDbMlineStyle
  2
STANDARD
 70
     0
  3

 62
     0
 51
90.0
 52
90.0
 71
     2
 49
0.5
 62
   256
  6
BYLAYER
 49
-0.5
 62
   256
  6
BYLAYER
  0
ACDBPLACEHOLDER
  5
5
102
{ACAD_REACTORS
330
6
102
}
330
6
100
AcDbPlaceHolder
280
     0
  0
ACAD_PROXY_OBJECT
  5
1A5D
102
{ACAD_REACTORS
330
1A5C
102
}
330
1A5C
100
AcDbProxyObject
 90
      499
 91
      510
 93
       49
310
904313A3100598
 94
        0
1001
ACAD
1000
AcadProxyRoundTripData
1071
      507
1071
   655383
1070
     0
  0
ACAD_PROXY_OBJECT
  5
1A5E
102
{ACAD_REACTORS
330
1A5C
102
}
330
1A5C
100
AcDbProxyObject
 90
      499
 91
      510
 93
      113
310
904313A3200400000000000000406B
 94
        0
1001
ACAD
1000
AcadProxyRoundTripData
1071
      507
1071
   655383
1070
     0
  0
ACAD_PROXY_OBJECT
  5
1A5F
102
{ACAD_REACTORS
330
1A5C
102
}
330
1A5C
100
AcDbProxyObject
 90
      499
 91
      510
 93
      113
310
904313A3400400000000000010406B
 94
        0
1001
ACAD
1000
AcadProxyRoundTripData
1071
      507
1071
   655383
1070
     0
  0
ACAD_PROXY_OBJECT
  5
1A60
102
{ACAD_REACTORS
330
1A5C
102
}
330
1A5C
100
AcDbProxyObject
 90
      499
 91
      510
 93
      113
310
904313A3500400000000000014406B
 94
        0
1001
ACAD
1000
AcadProxyRoundTripData
1071
      507
1071
   655383
1070
     0
  0
ACAD_PROXY_OBJECT
  5
1A61
102
{ACAD_REACTORS
330
1A5C
102
}
330
1A5C
100
AcDbProxyObject
 90
      499
 91
      510
 93
      113
310
904313A3800400000000000020406B
 94
        0
1001
ACAD
1000
AcadProxyRoundTripData
1071
      507
1071
   655383
1070
     0
  0
ACAD_PROXY_OBJECT
  5
1A62
102
{ACAD_REACTORS
330
1A5C
102
}
330
1A5C
100
AcDbProxyObject
 90
      499
 91
      510
 93
      121
310
905313A3130004000000000000244051
 94
        0
1001
ACAD
1000
AcadProxyRoundTripData
1071
      507
1071
   655383
1070
     0
  0
ACAD_PROXY_OBJECT
  5
1A63
102
{ACAD_REACTORS
330
1A5C
102
}
330
1A5C
100
AcDbProxyObject
 90
      499
 91
      510
 93
      121
310
905313A3136004000000000000304051
 94
        0
1001
ACAD
1000
AcadProxyRoundTripData
1071
      507
1071
   655383
1070
     0
  0
ACAD_PROXY_OBJECT
  5
1A64
102
{ACAD_REACTORS
330
1A5C
102
}
330
1A5C
100
AcDbProxyObject
 90
      499
 91
      510
 93
      121
310
905313A3230004000000000000344051
 94
        0
1001
ACAD
1000
AcadProxyRoundTripData
1071
      507
1071
   655383
1070
     0
  0
ACAD_PROXY_OBJECT
  5
1A65
102
{ACAD_REACTORS
330
1A5C
102
}
330
1A5C
100
AcDbProxyObject
 90
      499
 91
      510
 93
      121
310
905313A33300040000000000003E4051
 94
        0
1001
ACAD
1000
AcadProxyRoundTripData
1071
      507
1071
   655383
1070
     0
  0
ACAD_PROXY_OBJECT
  5
1A66
102
{ACAD_REACTORS
330
1A5C
102
}
330
1A5C
100
AcDbProxyObject
 90
      499
 91
      510
 93
      121
310
905313A3430004000000000000444051
 94
        0
1001
ACAD
1000
AcadProxyRoundTripData
1071
      507
1071
   655383
1070
     0
  0
ACAD_PROXY_OBJECT
  5
1A67
102
{ACAD_REACTORS
330
1A5C
102
}
330
1A5C
100
AcDbProxyObject
 90
      499
 91
      510
 93
      121
310
905313A3530004000000000000494051
 94
        0
1001
ACAD
1000
AcadProxyRoundTripData
1071
      507
1071
   655383
1070
     0
  0
ACAD_PROXY_OBJECT
  5
1A68
102
{ACAD_REACTORS
330
1A5C
102
}
330
1A5C
100
AcDbProxyObject
 90
      499
 91
      510
 93
      129
310
906313A313030004000000000000594038
 94
        0
1001
ACAD
1000
AcadProxyRoundTripData
1071
      507
1071
   655383
1070
     0
  0
ACAD_PROXY_OBJECT
  5
1A69
102
{ACAD_REACTORS
330
1A5C
102
}
330
1A5C
100
AcDbProxyObject
 90
      499
 91
      510
 93
      113
310
904323A31000000000000000010159
 94
        0
1001
ACAD
1000
AcadProxyRoundTripData
1071
      507
1071
   655383
1070
     0
  0
ACAD_PROXY_OBJECT
  5
1A6A
102
{ACAD_REACTORS
330
1A5C
102
}
330
1A5C
100
AcDbProxyObject
 90
      499
 91
      510
 93
      113
310
904343A31000000000000000410159
 94
        0
1001
ACAD
1000
AcadProxyRoundTripData
1071
      507
1071
   655383
1070
     0
  0
ACAD_PROXY_OBJECT
  5
1A6B
102
{ACAD_REACTORS
330
1A5C
102
}
330
1A5C
100
AcDbProxyObject
 90
      499
 91
      510
 93
      113
310
904383A31000000000000000810159
 94
        0
1001
ACAD
1000
AcadProxyRoundTripData
1071
      507
1071
   655383
1070
     0
  0
ACAD_PROXY_OBJECT
  5
1A6C
102
{ACAD_REACTORS
330
1A5C
102
}
330
1A5C
100
AcDbProxyObject
 90
      499
 91
      510
 93
      121
310
90531303A31000000000000000910140
 94
        0
1001
ACAD
1000
AcadProxyRoundTripData
1071
      507
1071
   655383
1070
     0
  0
ACAD_PROXY_OBJECT
  5
1A6D
102
{ACAD_REACTORS
330
1A5C
102
}
330
1A5C
100
AcDbProxyObject
 90
      499
 91
      510
 93
      129
310
9063130303A31000000000000001650138
 94
        0
1001
ACAD
1000
AcadProxyRoundTripData
1071
      507
1071
   655383
1070
     0
  0
ACAD_PROXY_OBJECT
  5
1A6E
102
{ACAD_REACTORS
330
1A5C
102
}
330
1A5C
100
AcDbProxyObject
 90
      499
 91
      510
 93
      265
310
90F312F31323822203D2031272D302200000000000000200FC00000000000028402B
 94
        0
1001
ACAD
1000
AcadProxyRoundTripData
1071
      507
1071
   655383
1070
     0
  0
ACAD_PROXY_OBJECT
  5
1A6F
102
{ACAD_REACTORS
330
1A5C
102
}
330
1A5C
100
AcDbProxyObject
 90
      499
 91
      510
 93
      257
310
90E312F363422203D2031272D302200000000000000240FC000000000000284040
 94
        0
1001
ACAD
1000
AcadProxyRoundTripData
1071
      507
1071
   655383
1070
     0
  0
ACAD_PROXY_OBJECT
  5
1A70
102
{ACAD_REACTORS
330
1A5C
102
}
330
1A5C
100
AcDbProxyObject
 90
      499
 91
      510
 93
      257
310
90E312F333222203D2031272D302200000000000000280FC000000000000284040
 94
        0
1001
ACAD
1000
AcadProxyRoundTripData
1071
      507
1071
   655383
1070
     0
  0
ACAD_PROXY_OBJECT
  5
1A71
102
{ACAD_REACTORS
330
1A5C
102
}
330
1A5C
100
AcDbProxyObject
 90
      499
 91
      510
 93
      257
310
90E312F313622203D2031272D3022000000000000002C0FC000000000000284040
 94
        0
1001
ACAD
1000
AcadProxyRoundTripData
1071
      507
1071
   655383
1070
     0
  0
ACAD_PROXY_OBJECT
  5
1A72
102
{ACAD_REACTORS
330
1A5C
102
}
330
1A5C
100
AcDbProxyObject
 90
      499
 91
      510
 93
      257
310
90E332F333222203D2031272D3022000000000000002E0FC000000000000284040
 94
        0
1001
ACAD
1000
AcadProxyRoundTripData
1071
      507
1071
   655383
1070
     0
  0
ACAD_PROXY_OBJECT
  5
1A73
102
{ACAD_REACTORS
330
1A5C
102
}
330
1A5C
100
AcDbProxyObject
 90
      499
 91
      510
 93
      249
310
90D312F3822203D2031272D302200000000000000300FC000000000000284040
 94
        0
1001
ACAD
1000
AcadProxyRoundTripData
1071
      507
1071
   655383
1070
     0
  0
ACAD_PROXY_OBJECT
  5
1A74
102
{ACAD_REACTORS
330
1A5C
102
}
330
1A5C
100
AcDbProxyObject
 90
      499
 91
      510
 93
      257
310
90E332F313622203D2031272D302200000000000000320FC000000000000284040
 94
        0
1001
ACAD
1000
AcadProxyRoundTripData
1071
      507
1071
   655383
1070
     0
  0
ACAD_PROXY_OBJECT
  5
1A75
102
{ACAD_REACTORS
330
1A5C
102
}
330
1A5C
100
AcDbProxyObject
 90
      499
 91
      510
 93
      249
310
90D312F3422203D2031272D302200000000000000340FC000000000000284040
 94
        0
1001
ACAD
1000
AcadProxyRoundTripData
1071
      507
1071
   655383
1070
     0
  0
ACAD_PROXY_OBJECT
  5
1A76
102
{ACAD_REACTORS
330
1A5C
102
}
330
1A5C
100
AcDbProxyObject
 90
      499
 91
      510
 93
      249
310
90D332F3822203D2031272D302200000000000000360FC000000000000284040
 94
        0
1001
ACAD
1000
AcadProxyRoundTripData
1071
      507
1071
   655383
1070
     0
  0
ACAD_PROXY_OBJECT
  5
1A77
102
{ACAD_REACTORS
330
1A5C
102
}
330
1A5C
100
AcDbProxyObject
 90
      499
 91
      510
 93
      249
310
90D312F3222203D2031272D302200000000000000380FC000000000000284040
 94
        0
1001
ACAD
1000
AcadProxyRoundTripData
1071
      507
1071
   655383
1070
     0
  0
ACAD_PROXY_OBJECT
  5
1A78
102
{ACAD_REACTORS
330
1A5C
102
}
330
1A5C
100
AcDbProxyObject
 90
      499
 91
      510
 93
      249
310
90D332F3422203D2031272D3022000000000000003A0FC000000000000284040
 94
        0
1001
ACAD
1000
AcadProxyRoundTripData
1071
      507
1071
   655383
1070
     0
  0
ACAD_PROXY_OBJECT
  5
1A79
102
{ACAD_REACTORS
330
1A5C
102
}
330
1A5C
100
AcDbProxyObject
 90
      499
 91
      510
 93
      169
310
90B3122203D2031272D3022004000000000000284020
 94
        0
1001
ACAD
1000
AcadProxyRoundTripData
1071
      507
1071
   655383
1070
     0
  0
ACAD_PROXY_OBJECT
  5
1A7A
102
{ACAD_REACTORS
330
1A5C
102
}
330
1A5C
100
AcDbProxyObject
 90
      499
 91
      510
 93
      265
310
90F312D312F3222203D2031272D3022000000000000003E0FC00000000000028402B
 94
        0
1001
ACAD
1000
AcadProxyRoundTripData
1071
      507
1071
   655383
1070
     0
  0
ACAD_PROXY_OBJECT
  5
1A7B
102
{ACAD_REACTORS
330
1A5C
102
}
330
1A5C
100
AcDbProxyObject
 90
      499
 91
      510
 93
      233
310
90B3322203D2031272D30220000000000000002100000000000000284000
 94
        0
1001
ACAD
1000
AcadProxyRoundTripData
1071
      507
1071
   655383
1070
     0
  0
ACAD_PROXY_OBJECT
  5
1A7C
102
{ACAD_REACTORS
330
1A5C
102
}
330
1A5C
100
AcDbProxyObject
 90
      499
 91
      510
 93
      233
310
90B3622203D2031272D30220000000000000006100000000000000284000
 94
        0
1001
ACAD
1000
AcadProxyRoundTripData
1071
      507
1071
   655383
1070
     0
  0
ACAD_PROXY_OBJECT
  5
1A7D
102
{ACAD_REACTORS
330
1A5C
102
}
330
1A5C
100
AcDbProxyObject
 90
      499
 91
      510
 93
      257
310
90E31272D3022203D2031272D3022000000000000000A100000000000000284040
 94
        0
1001
ACAD
1000
AcadProxyRoundTripData
1071
      507
1071
   655383
1070
     0
  0
ACAD_PROXY_OBJECT
  5
1A5B
102
{ACAD_XDICTIONARY
360
1ADD
102
}
102
{ACAD_REACTORS
330
1A5A
102
}
330
1A5A
100
AcDbProxyObject
 90
      499
 91
      510
 93
     1849
310
4254DD185B99185C990028B81E85EB51B8AE3F2E07A17AD46E2B8FC02B5E8DC0F42B1CFD028000000C1008070000C3001FDFF8000000C1003FBFF000000182007F7FE00000030400FEFFC00000060801FDFF8000000C1003FBFF00000018200000000000000681FA0B0000001820100E000186003FBFF000000182007F7FE0
310
0000030400FEFFC00000060801FDFF8000000C1003FBFF000000182007F7FE000000304000AD7A3703D0AC73F4160000003040201C00030C007F7FE00000030400FEFFC00000060801FDFF8000000C1003FBFF000000182007F7FE00000030400FEFFC000000608000
340
16
340
16
340
16
 94
        0
1001
ACAD
1000
AcadProxyRoundTripData
1071
      506
1071
   655383
1070
     0
  0
ACAD_PROXY_OBJECT
  5
1A4E
102
{ACAD_REACTORS
330
1A48
102
}
330
1A48
100
AcDbProxyObject
 90
      499
 91
      510
 93
      444
310
430C9915DA5C99599C985B59401049028333333333333E3BF0000000000000FB0107901411070040501600405405064090741402480A0340
 94
        0
1001
ACAD
1000
AcDbSavedByObjectVersion
1070
     0
1000
AcadProxyRoundTripData
1071
      505
1071
   655383
1070
     0
  0
ACAD_PROXY_OBJECT
  5
1A50
102
{ACAD_REACTORS
330
1A48
102
}
330
1A48
100
AcDbProxyObject
 90
      499
 91
      510
 93
      508
310
428CD108121A5919195B8010640502408333333333333E3BF0000000000000FB01079024090700405020000000000001110200405405064090740C02480A0340
 94
        0
1001
ACAD
1000
AcDbSavedByObjectVersion
1070
     0
1000
AcadProxyRoundTripData
1071
      505
1071
   655383
1070
     0
  0
ACAD_PROXY_OBJECT
  5
1A4F
102
{ACAD_REACTORS
330
1A48
102
}
330
1A48
100
AcDbProxyObject
 90
      499
 91
      510
 93
      444
310
430CD915DA5C99599C985B59401059028333333333333E3BF0000000000000FB0107901411070040501600405405064090741402480A0340
 94
        0
1001
ACAD
1000
AcDbSavedByObjectVersion
1070
     0
1000
AcadProxyRoundTripData
1071
      505
1071
   655383
1070
     0
  0
ACAD_PROXY_OBJECT
  5
1A4D
102
{ACAD_REACTORS
330
1A48
102
}
330
1A48
100
AcDbProxyObject
 90
      499
 91
      510
 93
      396
310
4190985CDA58C0107406404333333333333E3BF0000000000000FB0107A41107004050150841D405064090741402480A0356
 94
        0
1001
ACAD
1000
AcDbSavedByObjectVersion
1070
     0
1000
AcadProxyRoundTripData
1071
      505
1071
   655383
1070
     0
  0
ACAD_PROXY_OBJECT
  5
1A54
102
{ACAD_REACTORS
330
1A48
102
}
330
1A48
100
AcDbProxyObject
 90
      499
 91
      510
 93
      436
310
42509C9A59DA1D195B8010C409028333333333333E3BF0000000000000FB010790141107004050150841D405064090741402480A029956
 94
        0
1001
ACAD
1000
AcDbSavedByObjectVersion
1070
     0
1000
AcadProxyRoundTripData
1071
      505
1071
   655383
1070
     0
  0
ACAD_PROXY_OBJECT
  5
1A58
102
{ACAD_REACTORS
330
1A48
102
}
330
1A48
100
AcDbProxyObject
 90
      499
 91
      510
 93
      460
310
4310DBDB1BDC90DA185B99D9401104090240C333333333333E3BF0000000000000FB0108901411070040501508421405064090741402480A0354
 94
        0
1001
ACAD
1000
AcDbSavedByObjectVersion
1070
     0
1000
AcadProxyRoundTripData
1071
      505
1071
   655383
1070
     0
  0
ACAD_PROXY_OBJECT
  5
1A51
102
{ACAD_REACTORS
330
1A48
102
}
330
1A48
100
AcDbProxyObject
 90
      499
 91
      510
 93
      508
310
42D0DBDB98D95C1D1D585B0010940D028333333333333E3BF0000000000000FB0107902409070040501000000000000111010841D405064090740C02480A0340
 94
        0
1001
ACAD
1000
AcDbSavedByObjectVersion
1070
     0
1000
AcadProxyRoundTripData
1071
      505
1071
   655383
1070
     0
  0
ACAD_PROXY_OBJECT
  5
1A53
102
{ACAD_REACTORS
330
1A48
102
}
330
1A48
100
AcDbProxyObject
 90
      499
 91
      510
 93
      420
310
41111A5B4010B409028333333333333E3BF0000000000000FB010790141107004050150841D405064090741402480A02677FFFFFDB
 94
        0
1001
ACAD
1000
AcDbSavedByObjectVersion
1070
     0
1000
AcadProxyRoundTripData
1071
      505
1071
   655383
1070
     0
  0
ACAD_PROXY_OBJECT
  5
1A57
102
{ACAD_REACTORS
330
1A48
102
}
330
1A48
100
AcDbProxyObject
 90
      499
 91
      510
 93
      452
310
43119858D95C185D1D195C9B8010F409028333333333333E3BF0000000000000FB010790141107004050150841D405064090741402480A0350
 94
        0
1001
ACAD
1000
AcDbSavedByObjectVersion
1070
     0
1000
AcadProxyRoundTripData
1071
      505
1071
   655383
1070
     0
  0
ACAD_PROXY_OBJECT
  5
1A49
102
{ACAD_REACTORS
330
1A48
102
}
330
1A48
100
AcDbProxyObject
 90
      499
 91
      510
 93
      396
310
41519B185D00240901404333333333333E3BF0000000000000F9010740A41107004050150841D405064090741402480A1B55
 94
        0
1001
ACAD
1000
AcDbSavedByObjectVersion
1070
     0
1000
AcadProxyRoundTripData
1071
      505
1071
   655383
1070
     0
  0
ACAD_PROXY_OBJECT
  5
1A4A
102
{ACAD_REACTORS
330
1A48
102
}
330
1A48
100
AcDbProxyObject
 90
      499
 91
      510
 93
      484
310
43919B185D15DA5D1A115919D95CC010140901404333333333333E3BF0000000000000F9010740901411070040501600405405064090741402480A1B50
 94
        0
1001
ACAD
1000
AcDbSavedByObjectVersion
1070
     0
1000
AcadProxyRoundTripData
1071
      505
1071
   655383
1070
     0
  0
ACAD_PROXY_OBJECT
  5
1A4B
102
{ACAD_REACTORS
330
1A48
102
}
330
1A48
100
AcDbProxyObject
 90
      499
 91
      510
 93
      420
310
4211DBDD5C985D590010240902404333333333333E3BF0000000000000F9010740A411070040501641D405064090741402480A1B50
 94
        0
1001
ACAD
1000
AcDbSavedByObjectVersion
1070
     0
1000
AcadProxyRoundTripData
1071
      505
1071
   655383
1070
     0
  0
ACAD_PROXY_OBJECT
  5
1A4C
102
{ACAD_REACTORS
330
1A48
102
}
330
1A48
100
AcDbProxyObject
 90
      499
 91
      510
 93
      508
310
4451DBDD5C985D5915DA5D1A115919D95CC010340902404333333333333E3BF0000000000000F9010740901411070040501600405405064090741402480A1B50
 94
        0
1001
ACAD
1000
AcDbSavedByObjectVersion
1070
     0
1000
AcadProxyRoundTripData
1071
      505
1071
   655383
1070
     0
  0
ACAD_PROXY_OBJECT
  5
1A56
102
{ACAD_REACTORS
330
1A48
102
}
330
1A48
100
AcDbProxyObject
 90
      499
 91
      510
 93
      452
310
43131A5B995C185D1D195C9B8010E409028333333333333E3BF0000000000000FB010790141107004050750841D405064090741402483A0350
 94
        0
1001
ACAD
1000
AcDbSavedByObjectVersion
1070
     0
1000
AcadProxyRoundTripData
1071
      505
1071
   655383
1070
     0
  0
ACAD_PROXY_OBJECT
  5
1A52
102
{ACAD_REACTORS
330
1A48
102
}
330
1A48
100
AcDbProxyObject
 90
      499
 91
      510
 93
      428
310
429499585B1A5CDD1A58C0108409028333333333333E3BF0000000000000FB01079019070040501508421405064090741402480A1B45
 94
        0
1001
ACAD
1000
AcDbSavedByObjectVersion
1070
     0
1000
AcadProxyRoundTripData
1071
      505
1071
   655383
1070
     0
  0
ACAD_PROXY_OBJECT
  5
1A55
102
{ACAD_REACTORS
330
1A48
102
}
330
1A48
100
AcDbProxyObject
 90
      499
 91
      510
 93
      420
310
42151A1A58DAD95B8010D409028333333333333E3BF0000000000000FB010790141107004050150C41D405064090741402480A0352
 94
        0
1001
ACAD
1000
AcDbSavedByObjectVersion
1070
     0
1000
AcadProxyRoundTripData
1071
      505
1071
   655383
1070
     0
  0
XRECORD
  5
2CA2
102
{ACAD_REACTORS
330
2C98
102
}
330
2C98
100
AcDbXrecord
 90
        0
  0
XRECORD
  5
2CA6
102
{ACAD_REACTORS
330
2C98
102
}
330
2C98
100
AcDbXrecord
1000
DSTYLE
1002
{
1070
   179
 70
     2
1070
   277
 70
     6
1002
}
  0
XRECORD
  5
2CA3
102
{ACAD_REACTORS
330
2C98
102
}
330
2C98
100
AcDbXrecord
  1
{6385560B-F4B1-4644-A7C2-A3E32AC3D232}
  0
XRECORD
  5
2C9B
102
{ACAD_REACTORS
330
2C98
102
}
330
2C98
100
AcDbXrecord
  1

  0
XRECORD
  5
2CA1
102
{ACAD_REACTORS
330
2C98
102
}
330
2C98
100
AcDbXrecord
 90
        0
  0
XRECORD
  5
2C9D
102
{ACAD_REACTORS
330
2C98
102
}
330
2C98
100
AcDbXrecord
340
61
  0
XRECORD
  5
2CA0
102
{ACAD_REACTORS
330
2C98
102
}
330
2C98
100
AcDbXrecord
 90
    10781
  0
XRECORD
  5
2C9E
102
{ACAD_REACTORS
330
2C98
102
}
330
2C98
100
AcDbXrecord
340
77
  0
XRECORD
  5
2C9F
102
{ACAD_REACTORS
330
2C98
102
}
330
2C98
100
AcDbXrecord
340
6
  0
XRECORD
  5
2CA5
102
{ACAD_REACTORS
330
2C98
102
}
330
2C98
100
AcDbXrecord
 40
0.0
  0
XRECORD
  5
2CA9
102
{ACAD_REACTORS
330
2C98
102
}
330
2C98
100
AcDbXrecord
340
0
  0
XRECORD
  5
2CAF
102
{ACAD_REACTORS
330
2C98
102
}
330
2C98
100
AcDbXrecord
 10
0.0
 20
0.0
 30
0.0
  0
XRECORD
  5
2CAB
102
{ACAD_REACTORS
330
2C98
102
}
330
2C98
100
AcDbXrecord
 10
0.0
 20
0.0
 30
0.0
  0
XRECORD
  5
2CAE
102
{ACAD_REACTORS
330
2C98
102
}
330
2C98
100
AcDbXrecord
 10
0.0
 20
0.0
 30
0.0
  0
XRECORD
  5
2CAC
102
{ACAD_REACTORS
330
2C98
102
}
330
2C98
100
AcDbXrecord
 10
0.0
 20
0.0
 30
0.0
  0
XRECORD
  5
2CAD
102
{ACAD_REACTORS
330
2C98
102
}
330
2C98
100
AcDbXrecord
 10
0.0
 20
0.0
 30
0.0
  0
XRECORD
  5
2CAA
102
{ACAD_REACTORS
330
2C98
102
}
330
2C98
100
AcDbXrecord
 10
0.0
 20
0.0
 30
0.0
  0
XRECORD
  5
2CA7
102
{ACAD_REACTORS
330
2C98
102
}
330
2C98
100
AcDbXrecord
340
0
  0
XRECORD
  5
2CA8
102
{ACAD_REACTORS
330
2C98
102
}
330
2C98
100
AcDbXrecord
 70
     0
  0
XRECORD
  5
2C9C
102
{ACAD_REACTORS
330
2C98
102
}
330
2C98
100
AcDbXrecord
  1
Sekkei.ctb
  0
XRECORD
  5
2C99
102
{ACAD_REACTORS
330
2C98
102
}
330
2C98
100
AcDbXrecord
 90
        1
  0
XRECORD
  5
2C9A
102
{ACAD_REACTORS
330
2C98
102
}
330
2C98
100
AcDbXrecord
 90
       70
  0
XRECORD
  5
2CB2
102
{ACAD_REACTORS
330
2C98
102
}
330
2C98
100
AcDbXrecord
340
0
  0
XRECORD
  5
2CB8
102
{ACAD_REACTORS
330
2C98
102
}
330
2C98
100
AcDbXrecord
 10
0.0
 20
0.0
 30
0.0
  0
XRECORD
  5
2CB4
102
{ACAD_REACTORS
330
2C98
102
}
330
2C98
100
AcDbXrecord
 10
0.0
 20
0.0
 30
0.0
  0
XRECORD
  5
2CB7
102
{ACAD_REACTORS
330
2C98
102
}
330
2C98
100
AcDbXrecord
 10
0.0
 20
0.0
 30
0.0
  0
XRECORD
  5
2CB5
102
{ACAD_REACTORS
330
2C98
102
}
330
2C98
100
AcDbXrecord
 10
0.0
 20
0.0
 30
0.0
  0
XRECORD
  5
2CB6
102
{ACAD_REACTORS
330
2C98
102
}
330
2C98
100
AcDbXrecord
 10
0.0
 20
0.0
 30
0.0
  0
XRECORD
  5
2CB3
102
{ACAD_REACTORS
330
2C98
102
}
330
2C98
100
AcDbXrecord
 10
0.0
 20
0.0
 30
0.0
  0
XRECORD
  5
2CB0
102
{ACAD_REACTORS
330
2C98
102
}
330
2C98
100
AcDbXrecord
340
0
  0
XRECORD
  5
2CB1
102
{ACAD_REACTORS
330
2C98
102
}
330
2C98
100
AcDbXrecord
 70
     0
  0
XRECORD
  5
2CA4
102
{ACAD_REACTORS
330
2C98
102
}
330
2C98
100
AcDbXrecord
  1
{7DC074F9-D402-4362-9C5A-3D33A09F9B32}
  0
DICTIONARYVAR
  5
1B01
102
{ACAD_REACTORS
330
102
102
}
330
102
100
DictionaryVariables
280
     0
  1
1:1
  0
DICTIONARYVAR
  5
1B00
102
{ACAD_REACTORS
330
102
102
}
330
102
100
DictionaryVariables
280
     0
  1
STANDARD
  0
DICTIONARYVAR
  5
1AFF
102
{ACAD_REACTORS
330
102
102
}
330
102
100
DictionaryVariables
280
     0
  1
STANDARD
  0
DICTIONARYVAR
  5
103
102
{ACAD_REACTORS
330
102
102
}
330
102
100
DictionaryVariables
280
     0
  1
1
  0
DICTIONARYVAR
  5
1B02
102
{ACAD_REACTORS
330
102
102
}
330
102
100
DictionaryVariables
280
     0
  1
0
  0
DICTIONARYVAR
  5
549
102
{ACAD_REACTORS
330
102
102
}
330
102
100
DictionaryVariables
280
     0
  1
96
  0
DICTIONARY
  5
1A39
330
1A38
100
AcDbDictionary
280
     1
  3
ACAD_XREC_ROUNDTRIP
360
2C74
  3
BUMPTILE
360
1A3B
  3
DIFFUSETILE
360
1A3A
  3
OPACITYTILE
360
1A3E
  3
REFLECTIONTILE
360
1A3D
  3
REFRACTIONTILE
360
1A3F
  3
SPECULARTILE
360
1A3C
  0
DICTIONARY
  5
1A31
330
1A30
100
AcDbDictionary
280
     1
  3
ACAD_XREC_ROUNDTRIP
360
2C73
  3
BUMPTILE
360
1A33
  3
DIFFUSETILE
360
1A32
  3
OPACITYTILE
360
1A36
  3
REFLECTIONTILE
360
1A35
  3
REFRACTIONTILE
360
1A37
  3
SPECULARTILE
360
1A34
  0
DICTIONARY
  5
1A41
330
1A40
100
AcDbDictionary
280
     1
  3
ACAD_XREC_ROUNDTRIP
360
2C75
  3
BUMPTILE
360
1A43
  3
DIFFUSETILE
360
1A42
  3
OPACITYTILE
360
1A46
  3
REFLECTIONTILE
360
1A45
  3
REFRACTIONTILE
360
1A47
  3
SPECULARTILE
360
1A44
  0
DICTIONARY
  5
1ADD
330
1A5B
100
AcDbDictionary
280
     1
  3
ACAD_ROUNDTRIP_2008_TABLES
360
2C61
  3
ACAD_XREC_ROUNDTRIP
360
2C76
  0
XRECORD
  5
2C74
102
{ACAD_REACTORS
330
1A39
102
}
330
1A39
100
AcDbXrecord
102
MATERIAL
148
0.0
149
0.0
149
0.0
 93
        0
 94
      127
282
     0
 72
     0
 77
     0
171
     0
175
     0
179
     0
273
     0
  0
XRECORD
  5
1A3B
102
{ACAD_REACTORS
330
1A39
102
}
330
1A39
100
AcDbXrecord
270
     1
271
     1
  0
XRECORD
  5
1A3A
102
{ACAD_REACTORS
330
1A39
102
}
330
1A39
100
AcDbXrecord
270
     1
271
     1
  0
XRECORD
  5
1A3E
102
{ACAD_REACTORS
330
1A39
102
}
330
1A39
100
AcDbXrecord
270
     1
271
     1
  0
XRECORD
  5
1A3D
102
{ACAD_REACTORS
330
1A39
102
}
330
1A39
100
AcDbXrecord
270
     1
271
     1
  0
XRECORD
  5
1A3F
102
{ACAD_REACTORS
330
1A39
102
}
330
1A39
100
AcDbXrecord
270
     1
271
     1
  0
XRECORD
  5
1A3C
102
{ACAD_REACTORS
330
1A39
102
}
330
1A39
100
AcDbXrecord
270
     1
271
     1
  0
XRECORD
  5
2C73
102
{ACAD_REACTORS
330
1A31
102
}
330
1A31
100
AcDbXrecord
102
MATERIAL
148
0.0
149
0.0
149
0.0
 93
        0
 94
      127
282
     0
 72
     0
 77
     0
171
     0
175
     0
179
     0
273
     0
  0
XRECORD
  5
1A33
102
{ACAD_REACTORS
330
1A31
102
}
330
1A31
100
AcDbXrecord
270
     1
271
     1
  0
XRECORD
  5
1A32
102
{ACAD_REACTORS
330
1A31
102
}
330
1A31
100
AcDbXrecord
270
     1
271
     1
  0
XRECORD
  5
1A36
102
{ACAD_REACTORS
330
1A31
102
}
330
1A31
100
AcDbXrecord
270
     1
271
     1
  0
XRECORD
  5
1A35
102
{ACAD_REACTORS
330
1A31
102
}
330
1A31
100
AcDbXrecord
270
     1
271
     1
  0
XRECORD
  5
1A37
102
{ACAD_REACTORS
330
1A31
102
}
330
1A31
100
AcDbXrecord
270
     1
271
     1
  0
XRECORD
  5
1A34
102
{ACAD_REACTORS
330
1A31
102
}
330
1A31
100
AcDbXrecord
270
     1
271
     1
  0
XRECORD
  5
2C75
102
{ACAD_REACTORS
330
1A41
102
}
330
1A41
100
AcDbXrecord
102
MATERIAL
148
0.0
149
0.0
149
0.0
 93
        0
 94
      127
282
     0
 72
     0
 77
     0
171
     0
175
     0
179
     0
273
     0
  0
XRECORD
  5
1A43
102
{ACAD_REACTORS
330
1A41
102
}
330
1A41
100
AcDbXrecord
270
     1
271
     1
  0
XRECORD
  5
1A42
102
{ACAD_REACTORS
330
1A41
102
}
330
1A41
100
AcDbXrecord
270
     1
271
     1
  0
XRECORD
  5
1A46
102
{ACAD_REACTORS
330
1A41
102
}
330
1A41
100
AcDbXrecord
270
     1
271
     1
  0
XRECORD
  5
1A45
102
{ACAD_REACTORS
330
1A41
102
}
330
1A41
100
AcDbXrecord
270
     1
271
     1
  0
XRECORD
  5
1A47
102
{ACAD_REACTORS
330
1A41
102
}
330
1A41
100
AcDbXrecord
270
     1
271
     1
  0
XRECORD
  5
1A44
102
{ACAD_REACTORS
330
1A41
102
}
330
1A41
100
AcDbXrecord
270
     1
271
     1
  0
ACAD_PROXY_OBJECT
  5
2C61
102
{ACAD_REACTORS
330
1ADD
102
}
330
1ADD
100
AcDbProxyObject
 90
      499
 91
      510
 93
     5304
310
40D054060020000020000003200101A000080002A5058000000C100000000000000340FD012E07A17AD46E2B8FCB81E85EB51B8AE3F2E07A17AD46E2B8FCB81E85EB51B8AE3F02B5E8DC0F42B1CFC0AD7A3703D0AC73F419019018000000C1003FBFFFFFE02B5E8DC0F42A9CFD029018000000C1003FBFFFFFE02B5E8DC0F4
310
2A9CFD049018000000C1003FBFFFFFE02B5E8DC0F42A9CFD089018000000C1003FBFFFFFE02B5E8DC0F42A9CFD109018000000C1003FBFFFFFE02B5E8DC0F42A9CFD209018000000C1003FBFFFFFE02B5E8DC0F42A9CFD01405075F5449544C450041501A8000000C800406800020000A9416000000304000AD7A3703D0AC7
310
3F404B81E85EB51B8AE3F2E07A17AD46E2B8FCB81E85EB51B8AE3F2E07A17AD46E2B8FC0AD7A3703D0AC73F02B5E8DC0F42B1CFD0640640600000030400FEFFFFFF80AD7A3703D0AA73F40A40600000030400FEFFFFFF80AD7A3703D0AA73F41240600000030400FEFFFFFF80AD7A3703D0AA73F42240600000030400FEFFF
310
FFF80AD7A3703D0AA73F44240600000030400FEFFFFFF80AD7A3703D0AA73F48240600000030400FEFFFFFF80AD7A3703D0AA73F409014217D2115051115480105406A0000003200101A000080002A5028000000C10002B5E8DC0F42B1CFD012E07A17AD46E2B8FCB81E85EB51B8AE3F2E07A17AD46E2B8FCB81E85EB51B8A
310
E3F02B5E8DC0F42B1CFC0AD7A3703D0AC73F419019018000000C1003FBFFFFFE02B5E8DC0F42A9CFD029018000000C1003FBFFFFFE02B5E8DC0F42A9CFD049018000000C1003FBFFFFFE02B5E8DC0F42A9CFD089018000000C1003FBFFFFFE02B5E8DC0F42A9CFD109018000000C1003FBFFFFFE02B5E8DC0F42A9CFD20901
310
8000000C1003FBFFFFFE02B5E8DC0F42A9CFD03409065F444154410000
340
16
340
0
340
0
340
0
340
0
340
0
340
0
340
16
340
0
340
0
340
0
340
0
340
0
340
0
340
16
340
0
340
0
340
0
340
0
340
0
340
0
 94
        0
1001
ACAD
1000
AcadProxyRoundTripData
1071
      509
1071
   655383
1070
     0
  0
XRECORD
  5
2C76
102
{ACAD_REACTORS
330
1ADD
102
}
330
1ADD
100
AcDbXrecord
102
ACAD_ROUNDTRIP_PRE2007_TABLESTYLE
 90
      512
 91
        0
  1

 92
      512
 93
        0
  2

 94
      512
 95
        0
  3

  0
ENDSEC
  0
EOF
