  0
SECTION
  2
HEADER
  9
$ACADVER
  1
AC1014
  9
$ACADMAINTVER
 70
     9
  9
$DWGCODEPAGE
  3
ANSI_932
  9
$INSBASE
 10
0.0
 20
0.0
 30
0.0
  9
$EXTMIN
 10
39.0982170539255
 20
56.74229556810212
 30
0.0
  9
$EXTMAX
 10
947.4165748929808
 20
444.3552626911584
 30
0.0
  9
$LIMMIN
 10
-56.5108642886596
 20
-22.13034402960465
  9
$LIMMAX
 10
841.9843092024146
 20
508.2646664180988
  9
$ORTHOMODE
 70
     1
  9
$REGENMODE
 70
     1
  9
$FILLMODE
 70
     1
  9
$QTEXTMODE
 70
     0
  9
$MIRRTEXT
 70
     0
  9
$DRAGMODE
 70
     2
  9
$LTSCALE
 40
3.0
  9
$OSMODE
 70
    37
  9
$ATTMODE
 70
     1
  9
$TEXTSIZE
 40
2.0
  9
$TRACEWID
 40
1.0
  9
$TEXTSTYLE
  7
STANDARD
  9
$CLAYER
  8
0
  9
$CELTYPE
  6
BYLAYER
  9
$CECOLOR
 62
   256
  9
$CELTSCALE
 40
1.0
  9
$DELOBJ
 70
     1
  9
$DISPSILH
 70
     0
  9
$DIMSCALE
 40
3.0
  9
$DIMASZ
 40
1.8
  9
$DIMEXO
 40
0.625
  9
$DIMDLI
 40
3.75
  9
$DIMRND
 40
0.0
  9
$DIMDLE
 40
0.0
  9
$DIMEXE
 40
0.8
  9
$DIMTP
 40
0.0
  9
$DIMTM
 40
0.0
  9
$DIMTXT
 40
1.8
  9
$DIMCEN
 40
2.5
  9
$DIMTSZ
 40
0.0
  9
$DIMTOL
 70
     0
  9
$DIMLIM
 70
     0
  9
$DIMTIH
 70
     0
  9
$DIMTOH
 70
     0
  9
$DIMSE1
 70
     0
  9
$DIMSE2
 70
     0
  9
$DIMTAD
 70
     1
  9
$DIMZIN
 70
     8
  9
$DIMBLK
  1

  9
$DIMASO
 70
     1
  9
$DIMSHO
 70
     1
  9
$DIMPOST
  1

  9
$DIMAPOST
  1

  9
$DIMALT
 70
     0
  9
$DIMALTD
 70
     4
  9
$DIMALTF
 40
0.0394
  9
$DIMLFAC
 40
1.0
  9
$DIMTOFL
 70
     1
  9
$DIMTVP
 40
0.0
  9
$DIMTIX
 70
     0
  9
$DIMSOXD
 70
     0
  9
$DIMSAH
 70
     0
  9
$DIMBLK1
  1

  9
$DIMBLK2
  1

  9
$DIMSTYLE
  2
STANDARD
  9
$DIMCLRD
 70
     0
  9
$DIMCLRE
 70
     0
  9
$DIMCLRT
 70
     0
  9
$DIMTFAC
 40
1.0
  9
$DIMGAP
 40
0.75
  9
$DIMJUST
 70
     0
  9
$DIMSD1
 70
     0
  9
$DIMSD2
 70
     0
  9
$DIMTOLJ
 70
     1
  9
$DIMTZIN
 70
     0
  9
$DIMALTZ
 70
     0
  9
$DIMALTTZ
 70
     0
  9
$DIMFIT
 70
     3
  9
$DIMUPT
 70
     0
  9
$DIMUNIT
 70
     8
  9
$DIMDEC
 70
     2
  9
$DIMTDEC
 70
     2
  9
$DIMALTU
 70
     8
  9
$DIMALTTD
 70
     4
  9
$DIMTXSTY
  7
STANDARD
  9
$DIMAUNIT
 70
     0
  9
$LUNITS
 70
     2
  9
$LUPREC
 70
     3
  9
$SKETCHINC
 40
1.0
  9
$FILLETRAD
 40
10.0
  9
$AUNITS
 70
     0
  9
$AUPREC
 70
     2
  9
$MENU
  1
.
  9
$ELEVATION
 40
0.0
  9
$PELEVATION
 40
0.0
  9
$THICKNESS
 40
0.0
  9
$LIMCHECK
 70
     0
  9
$BLIPMODE
 70
     0
  9
$CHAMFERA
 40
0.0
  9
$CHAMFERB
 40
0.0
  9
$CHAMFERC
 40
20.0
  9
$CHAMFERD
 40
0.0
  9
$SKPOLY
 70
     0
  9
$TDCREATE
 40
2454410.548017025
  9
$TDUPDATE
 40
2454425.764811377
  9
$TDINDWG
 40
0.0659871991
  9
$TDUSRTIMER
 40
0.0659871991
  9
$USRTIMER
 70
     1
  9
$ANGBASE
 50
0.0
  9
$ANGDIR
 70
     0
  9
$PDMODE
 70
     0
  9
$PDSIZE
 40
-10.0
  9
$PLINEWID
 40
0.0
  9
$COORDS
 70
     0
  9
$SPLFRAME
 70
     0
  9
$SPLINETYPE
 70
     6
  9
$SPLINESEGS
 70
     8
  9
$ATTDIA
 70
     0
  9
$ATTREQ
 70
     1
  9
$HANDLING
 70
-16383
  9
$HANDSEED
  5
3EAB
  9
$SURFTAB1
 70
     6
  9
$SURFTAB2
 70
     6
  9
$SURFTYPE
 70
     6
  9
$SURFU
 70
     6
  9
$SURFV
 70
     6
  9
$UCSNAME
  2

  9
$UCSORG
 10
0.0
 20
0.0
 30
0.0
  9
$UCSXDIR
 10
1.0
 20
0.0
 30
0.0
  9
$UCSYDIR
 10
0.0
 20
1.0
 30
0.0
  9
$PUCSNAME
  2

  9
$PUCSORG
 10
0.0
 20
0.0
 30
0.0
  9
$PUCSXDIR
 10
1.0
 20
0.0
 30
0.0
  9
$PUCSYDIR
 10
0.0
 20
1.0
 30
0.0
  9
$USERI1
 70
     0
  9
$USERI2
 70
     0
  9
$USERI3
 70
     0
  9
$USERI4
 70
     0
  9
$USERI5
 70
     0
  9
$USERR1
 40
0.0
  9
$USERR2
 40
0.0
  9
$USERR3
 40
0.0
  9
$USERR4
 40
0.0
  9
$USERR5
 40
0.0
  9
$WORLDVIEW
 70
     1
  9
$SHADEDGE
 70
     3
  9
$SHADEDIF
 70
    70
  9
$TILEMODE
 70
     1
  9
$MAXACTVP
 70
    48
  9
$PINSBASE
 10
0.0
 20
0.0
 30
0.0
  9
$PLIMCHECK
 70
     0
  9
$PEXTMIN
 10
0.0
 20
0.0
 30
0.0
  9
$PEXTMAX
 10
0.0
 20
0.0
 30
0.0
  9
$PLIMMIN
 10
0.0
 20
0.0
  9
$PLIMMAX
 10
12.0
 20
9.0
  9
$UNITMODE
 70
     0
  9
$VISRETAIN
 70
     1
  9
$PLINEGEN
 70
     0
  9
$PSLTSCALE
 70
     1
  9
$TREEDEPTH
 70
  3020
  9
$PICKSTYLE
 70
     1
  9
$CMLSTYLE
  2
STANDARD
  9
$CMLJUST
 70
     0
  9
$CMLSCALE
 40
1.0
  9
$PROXYGRAPHICS
 70
     1
  9
$MEASUREMENT
 70
     0
  0
ENDSEC
  0
SECTION
  2
CLASSES
  0
CLASS
  1
DICTIONARYVAR
  2
AcDbDictionaryVar
  3
AutoCAD 2000
 90
        0
280
     0
281
     0
  0
CLASS
  1
ACDBDICTIONARYWDFLT
  2
AcDbDictionaryWithDefault
  3
AutoCAD 2000
 90
        0
280
     0
281
     0
  0
CLASS
  1
ACDBPLACEHOLDER
  2
AcDbPlaceHolder
  3
AutoCAD 2000
 90
        0
280
     0
281
     0
  0
CLASS
  1
LAYOUT
  2
AcDbLayout
  3
AutoCAD 2000
 90
        0
280
     0
281
     0
  0
CLASS
  1
MATERIAL
  2
AcDbMaterial
  3
ObjectDBX Classes
 90
     1153
280
     0
281
     0
  0
CLASS
  1
VISUALSTYLE
  2
AcDbVisualStyle
  3
ObjectDBX Classes
 90
     4095
280
     0
281
     0
  0
CLASS
  1
TABLESTYLE
  2
AcDbTableStyle
  3
ObjectDBX Classes
 90
     4095
280
     0
281
     0
  0
CLASS
  1
SCALE
  2
AcDbScale
  3
ObjectDBX Classes
 90
     1153
280
     0
281
     0
  0
CLASS
  1
MLEADERSTYLE
  2
AcDbMLeaderStyle
  3
ACDB_MLEADERSTYLE_CLASS
 90
     4095
280
     0
281
     0
  0
CLASS
  1
CELLSTYLEMAP
  2
AcDbCellStyleMap
  3
ObjectDBX Classes
 90
     1152
280
     0
281
     0
  0
CLASS
  1
ACAD_PROXY_OBJECT_WRAPPER
  2
AcDbProxyObjectWrapper
  3
AutoCAD 2000
 90
        0
280
     0
281
     0
  0
CLASS
  1
LONG_TRANSACTION
  2
AcDbLongTransaction
  3
AutoCAD 2000
 90
        0
280
     0
281
     0
  0
CLASS
  1
LWPOLYLINE
  2
AcDbPolyline
  3
AutoCAD 2000
 90
        0
280
     0
281
     1
  0
CLASS
  1
HATCH
  2
AcDbHatch
  3
AutoCAD 2000
 90
        0
280
     0
281
     1
  0
CLASS
  1
XRECORD
  2
AcDbXrecord
  3
AutoCAD 2000
 90
        0
280
     0
281
     0
  0
ENDSEC
  0
SECTION
  2
TABLES
  0
TABLE
  2
VPORT
  5
6E
102
{ACAD_XDICTIONARY
360
1FD9
102
}
330
0
100
AcDbSymbolTable
 70
     2
  0
VPORT
  5
3E85
330
6E
100
AcDbSymbolTableRecord
100
AcDbViewportTableRecord
  2
*ACTIVE
 70
     0
 10
0.0
 20
0.0
 11
1.0
 21
1.0
 12
560.7858158296258
 22
240.7201386070119
 13
0.0
 23
0.0
 14
10.0
 24
10.0
 15
18.0
 25
18.0
 16
0.0
 26
0.0
 36
1.0
 17
0.0
 27
0.0
 37
0.0
 40
597.8939836033695
 41
1.753504672897196
 42
50.0
 43
0.0
 44
0.0
 50
0.0
 51
0.0
 71
     0
 72
   100
 73
     1
 74
     3
 75
     0
 76
     0
 77
     0
 78
     0
  0
ENDTAB
  0
TABLE
  2
LTYPE
  5
69
330
0
100
AcDbSymbolTable
 70
     5
  0
LTYPE
  5
6A
330
69
100
AcDbSymbolTableRecord
100
AcDbLinetypeTableRecord
  2
BYBLOCK
 70
     0
  3

 72
    65
 73
     0
 40
0.0
  0
LTYPE
  5
6B
330
69
100
AcDbSymbolTableRecord
100
AcDbLinetypeTableRecord
  2
BYLAYER
 70
     0
  3

 72
    65
 73
     0
 40
0.0
  0
LTYPE
  5
8
330
69
100
AcDbSymbolTableRecord
100
AcDbLinetypeTableRecord
  2
CONTINUOUS
 70
     0
  3
Solid line
 72
    65
 73
     0
 40
0.0
  0
LTYPE
  5
27C
330
69
100
AcDbSymbolTableRecord
100
AcDbLinetypeTableRecord
  2
SEKKEI_A2_
 70
     0
  3
center(A2)  ____ _ ____ _ ____ _ ____ _ ____ _ 
 72
    65
 73
     4
 40
14.28749999999999
 49
9.525
 74
     0
 49
-1.587499999999999
 74
     0
 49
1.587499999999999
 74
     0
 49
-1.587499999999999
 74
     0
  0
LTYPE
  5
7F0
330
69
100
AcDbSymbolTableRecord
100
AcDbLinetypeTableRecord
  2
HIDDEN3
 70
     0
  3
Hidden (.3x) _ _ _ _ _ _ _ _ _ _ _ _ _ _ _ _ _
 72
    65
 73
     2
 40
2.857499999999999
 49
1.905
 74
     0
 49
-0.9525
 74
     0
  0
LTYPE
  5
AE4
330
69
100
AcDbSymbolTableRecord
100
AcDbLinetypeTableRecord
  2
CENS
 70
     0
  3
(一点鎖線１)---- - ---- - ---- - ---- - ---- - 
 72
    65
 73
     4
 40
7.0
 49
4.0
 74
     0
 49
-1.0
 74
     0
 49
1.0
 74
     0
 49
-1.0
 74
     0
  0
ENDTAB
  0
TABLE
  2
LAYER
  5
66
102
{ACAD_XDICTIONARY
360
AE5
102
}
330
0
100
AcDbSymbolTable
 70
     9
  0
LAYER
  5
5E
102
{ACAD_XDICTIONARY
360
1F71
102
}
330
66
100
AcDbSymbolTableRecord
100
AcDbLayerTableRecord
  2
0
 70
     0
 62
     7
  6
CONTINUOUS
  0
LAYER
  5
3E
102
{ACAD_XDICTIONARY
360
1F73
102
}
330
66
100
AcDbSymbolTableRecord
100
AcDbLayerTableRecord
  2
CENTER
 70
     0
 62
     3
  6
SEKKEI_A2_
  0
LAYER
  5
2B5
102
{ACAD_XDICTIONARY
360
1F79
102
}
330
66
100
AcDbSymbolTableRecord
100
AcDbLayerTableRecord
  2
HIDS
 70
     0
 62
     1
  6
HIDDEN3
  0
LAYER
  5
2BA
102
{ACAD_XDICTIONARY
360
1F7B
102
}
330
66
100
AcDbSymbolTableRecord
100
AcDbLayerTableRecord
  2
HOJO
 70
     0
 62
     4
  6
CONTINUOUS
  0
LAYER
  5
3FA
102
{ACAD_XDICTIONARY
360
1F7F
102
}
330
66
100
AcDbSymbolTableRecord
100
AcDbLayerTableRecord
  2
TITLE
 70
     0
 62
     4
  6
CONTINUOUS
  0
ENDTAB
  0
TABLE
  2
STYLE
  5
67
330
0
100
AcDbSymbolTable
 70
     2
  0
STYLE
  5
16
330
67
100
AcDbSymbolTableRecord
100
AcDbTextStyleTableRecord
  2
STANDARD
 70
     0
 40
0.0
 41
1.0
 50
0.0
 71
     0
 42
2.0
  3
simplex.shx
  4
extfont.shx
  0
ENDTAB
  0
TABLE
  2
VIEW
  5
6C
330
0
100
AcDbSymbolTable
 70
     0
  0
ENDTAB
  0
TABLE
  2
UCS
  5
6D
330
0
100
AcDbSymbolTable
 70
     0
  0
ENDTAB
  0
TABLE
  2
APPID
  5
70
330
0
100
AcDbSymbolTable
 70
     4
  0
APPID
  5
71
330
70
100
AcDbSymbolTableRecord
100
AcDbRegAppTableRecord
  2
ACAD
 70
     0
  0
APPID
  5
1A27
330
70
100
AcDbSymbolTableRecord
100
AcDbRegAppTableRecord
  2
ACAD_MLEADERVER
 70
     0
  0
APPID
  5
1F69
330
70
100
AcDbSymbolTableRecord
100
AcDbRegAppTableRecord
  2
ACAD_EXEMPT_FROM_CAD_STANDARDS
 70
     0
  0
APPID
  5
2017
330
70
100
AcDbSymbolTableRecord
100
AcDbRegAppTableRecord
  2
ACAD_DSTYLE_DIMRADIAL_EXTENSION
 70
     0
  0
ENDTAB
  0
TABLE
  2
DIMSTYLE
  5
72
330
0
100
AcDbSymbolTable
 70
     1
  0
DIMSTYLE
105
73
102
{ACAD_REACTORS
330
1350
330
1357
330
1366
102
}
330
72
100
AcDbSymbolTableRecord
100
AcDbDimStyleTableRecord
  2
STANDARD
 70
     0
  3

  4

  5

  6

  7

 40
3.0
 41
1.8
 42
0.625
 43
3.75
 44
0.8
 45
0.0
 46
0.0
 47
0.0
 48
0.0
140
1.8
141
2.5
142
0.0
143
0.0394
144
1.0
145
0.0
146
1.0
147
0.75
 71
     0
 72
     0
 73
     0
 74
     0
 75
     0
 76
     0
 77
     1
 78
     8
170
     0
171
     4
172
     1
173
     0
174
     0
175
     0
176
     0
177
     0
178
     0
270
     8
271
     2
272
     2
273
     8
274
     4
340
16
275
     0
280
     0
281
     0
282
     0
283
     1
284
     0
285
     0
286
     0
287
     3
288
     0
  0
ENDTAB
  0
TABLE
  2
BLOCK_RECORD
  5
1
330
0
100
AcDbSymbolTable
 70
    47
  0
BLOCK_RECORD
  5
2
102
{ACAD_XDICTIONARY
360
3EA7
102
}
330
1
100
AcDbSymbolTableRecord
100
AcDbBlockTableRecord
  2
*MODEL_SPACE
  0
BLOCK_RECORD
  5
3E80
102
{ACAD_XDICTIONARY
360
3EA9
102
}
330
1
100
AcDbSymbolTableRecord
100
AcDbBlockTableRecord
  2
*PAPER_SPACE
  0
ENDTAB
  0
ENDSEC
  0
SECTION
  2
BLOCKS
  0
BLOCK
  5
5D
330
2
100
AcDbEntity
  8
0
100
AcDbBlockBegin
  2
*MODEL_SPACE
 70
     0
 10
0.0
 20
0.0
 30
0.0
  3
*MODEL_SPACE
  1

  0
ENDBLK
  5
5F
330
2
100
AcDbEntity
  8
0
100
AcDbBlockEnd
  0
BLOCK
  5
3E82
330
3E80
100
AcDbEntity
 67
     1
  8
0
100
AcDbBlockBegin
  2
*PAPER_SPACE
 70
     0
 10
0.0
 20
0.0
 30
0.0
  3
*PAPER_SPACE
  1

  0
ENDBLK
  5
3E83
330
3E80
100
AcDbEntity
 67
     1
  8
0
100
AcDbBlockEnd
  0
ENDSEC
  0
SECTION
  2
ENTITIES
  0
LINE
  5
F32
330
2
100
AcDbEntity
  8
CENTER
100
AcDbLine
 10
516.4227715541725
 20
110.7422955681021
 30
0.0
 11
695.4227715541709
 21
110.7422955681021
 31
0.0
  0
LINE
  5
F34
330
2
100
AcDbEntity
  8
CENTER
100
AcDbLine
 10
947.4165748929808
 20
110.7422955680918
 30
0.0
 11
801.4165748926886
 21
110.7422955680918
 31
0.0
  0
LINE
  5
F35
330
2
100
AcDbEntity
  8
CENTER
100
AcDbLine
 10
899.4165748926928
 20
157.24229556809
 30
0.0
 11
899.4165748926922
 21
64.24229556809368
 31
0.0
  0
LINE
  5
F39
330
2
100
AcDbEntity
  8
0
100
AcDbLine
 10
642.4227715498014
 20
432.3552626908648
 30
0.0
 11
642.4227715498014
 21
360.3552626908648
 31
0.0
  0
LINE
  5
F3E
330
2
100
AcDbEntity
  8
CENTER
100
AcDbLine
 10
524.6060357777788
 20
396.3552626908648
 30
0.0
 11
695.4227715541707
 21
396.355262690865
 31
0.0
  0
LINE
  5
F4B
330
2
100
AcDbEntity
  8
0
100
AcDbLine
 10
642.4227715541706
 20
147.2422955681016
 30
0.0
 11
642.4227715541706
 21
74.24229556810186
 31
0.0
  0
LINE
  5
F5F
330
2
100
AcDbEntity
  8
0
100
AcDbLine
 10
861.4165748926891
 20
146.2230469345396
 30
0.0
 11
861.4165748926883
 21
75.26154420164411
 31
0.0
  0
LINE
  5
F60
330
2
100
AcDbEntity
  8
0
100
AcDbLine
 10
856.41657489269
 20
140.7422955680884
 30
0.0
 11
856.41657489269
 21
80.74229556808868
 31
0.0
  0
LINE
  5
F61
330
2
100
AcDbEntity
  8
0
100
AcDbLine
 10
861.41657489269
 20
140.7422955680884
 30
0.0
 11
856.41657489269
 21
140.7422955680884
 31
0.0
  0
LINE
  5
F62
330
2
100
AcDbEntity
  8
0
100
AcDbLine
 10
861.41657489269
 20
80.74229556808868
 30
0.0
 11
856.41657489269
 21
80.74229556808868
 31
0.0
  0
LINE
  5
FA2
330
2
100
AcDbEntity
  8
0
100
AcDbLine
 10
843.4165748926863
 20
132.8109180184857
 30
0.0
 11
843.4165748926863
 21
88.67367311771349
 31
0.0
  0
LINE
  5
FA3
330
2
100
AcDbEntity
  8
0
100
AcDbLine
 10
854.4863738860914
 20
135.1288614670685
 30
0.0
 11
845.3467758992813
 21
134.8096996725236
 31
0.0
  0
LINE
  5
FA4
330
2
100
AcDbEntity
  8
0
100
AcDbLine
 10
854.4863738860914
 20
86.35572966913159
 30
0.0
 11
845.3467758992813
 21
86.67489146367561
 31
0.0
  0
ARC
  5
FA5
330
2
100
AcDbEntity
  8
0
100
AcDbCircle
 10
845.4165748926865
 20
132.8109180184857
 30
0.0
 40
2.0
100
AcDbArc
 50
92.00000000000365
 51
180.0
  0
ARC
  5
FA6
330
2
100
AcDbEntity
  8
0
100
AcDbCircle
 10
845.4165748926865
 20
88.67367311771349
 30
0.0
 40
2.0
100
AcDbArc
 50
180.0
 51
267.9999999999963
  0
ARC
  5
FA7
330
2
100
AcDbEntity
  8
0
100
AcDbCircle
 10
854.4165748926864
 20
84.3569480150937
 30
0.0
 40
2.0
100
AcDbArc
 50
0.0
 51
87.99999999999636
  0
ARC
  5
FA8
330
2
100
AcDbEntity
  8
0
100
AcDbCircle
 10
854.4165748926864
 20
137.1276431211064
 30
0.0
 40
2.0
100
AcDbArc
 50
272.0000000000036
 51
0.0
  0
LINE
  5
FB0
330
2
100
AcDbEntity
  8
0
100
AcDbLine
 10
866.0408307200571
 20
75.22118893240949
 30
0.0
 11
861.4165748926883
 21
75.26154420164411
 31
0.0
  0
LINE
  5
FB1
330
2
100
AcDbEntity
  8
0
100
AcDbLine
 10
866.1427030591514
 20
146.2642912302086
 30
0.0
 11
861.4165748926891
 21
146.2230469345396
 31
0.0
  0
ARC
  5
FB2
330
2
100
AcDbEntity
  8
0
100
AcDbCircle
 10
930.4165748926937
 20
141.8112577827047
 30
0.0
 40
5.0
100
AcDbArc
 50
44.44120087725375
 51
89.20427644728171
  0
LINE
  5
FB3
330
2
100
AcDbEntity
  8
0
100
AcDbLine
 10
930.4860126401464
 20
146.8107755993775
 30
0.0
 11
899.4165748926937
 21
147.24229556809
 31
0.0
  0
LINE
  5
FB4
330
2
100
AcDbEntity
  8
0
100
AcDbLine
 10
868.3471371452453
 20
146.8107755993766
 30
0.0
 11
899.4165748926919
 21
147.24229556809
 31
0.0
  0
ARC
  5
FB5
330
2
100
AcDbEntity
  8
0
100
AcDbCircle
 10
868.4165748926991
 20
141.8112577827038
 30
0.0
 40
5.0
100
AcDbArc
 50
90.79572355271826
 51
135.5587991197476
  0
ARC
  5
FB6
330
2
100
AcDbEntity
  8
0
100
AcDbCircle
 10
930.4165748926937
 20
79.67333335347902
 30
0.0
 40
5.0
100
AcDbArc
 50
270.7957235527183
 51
315.5587991214058
  0
LINE
  5
FB7
330
2
100
AcDbEntity
  8
0
100
AcDbLine
 10
930.4860126401464
 20
74.67381553680624
 30
0.0
 11
899.4165748926937
 21
74.24229556809368
 31
0.0
  0
LINE
  5
FB8
330
2
100
AcDbEntity
  8
0
100
AcDbLine
 10
868.3471371452453
 20
74.67381553680715
 30
0.0
 11
899.4165748926919
 21
74.24229556809368
 31
0.0
  0
ARC
  5
FB9
330
2
100
AcDbEntity
  8
0
100
AcDbCircle
 10
868.4165748926991
 20
79.67333335347993
 30
0.0
 40
5.0
100
AcDbArc
 50
224.4412008815881
 51
269.2042764472816
  0
LINE
  5
FE4
330
2
100
AcDbEntity
  8
CENTER
100
AcDbLine
 10
210.0982170539219
 20
110.7422955681021
 30
0.0
 11
39.0982170539255
 21
110.7422955681019
 31
0.0
  0
LINE
  5
FE6
330
2
100
AcDbEntity
  8
0
100
AcDbLine
 10
92.09821705392561
 20
74.24229556810212
 30
0.0
 11
92.09821705392561
 21
147.2422955681021
 31
0.0
  0
LINE
  5
1120
330
2
100
AcDbEntity
  8
0
100
AcDbLine
 10
936.416574892981
 20
133.7422955680928
 30
0.0
 11
937.416574892982
 21
133.164945298903
 31
0.0
  0
LINE
  5
1121
330
2
100
AcDbEntity
  8
0
100
AcDbLine
 10
936.4165748929819
 20
133.7422955680928
 30
0.0
 11
935.5971304482483
 21
133.7422955680925
 31
0.0
  0
LINE
  5
1122
330
2
100
AcDbEntity
  8
0
100
AcDbLine
 10
937.416574892981
 20
88.31964583728003
 30
0.0
 11
937.4165748929801
 21
133.1649452989039
 31
0.0
  0
LINE
  5
1123
330
2
100
AcDbEntity
  8
0
100
AcDbLine
 10
936.416574892981
 20
87.74229556809094
 30
0.0
 11
937.416574892982
 21
88.3196458372805
 31
0.0
  0
LINE
  5
1124
330
2
100
AcDbEntity
  8
0
100
AcDbLine
 10
936.4165748929819
 20
87.74229556809094
 30
0.0
 11
935.5971304482483
 21
87.74229556809094
 31
0.0
  0
LINE
  5
1125
330
2
100
AcDbEntity
  8
0
100
AcDbLine
 10
936.416574892981
 20
133.7422955680928
 30
0.0
 11
936.4165748929819
 21
87.74229556809094
 31
0.0
  0
TEXT
  5
1213
330
2
100
AcDbEntity
  8
TITLE
100
AcDbText
 10
294.3558565288436
 20
388.0155413026347
 30
0.0
 40
7.5
  1
AFCZ15L-7~10M200S1
100
AcDbText
  0
TEXT
  5
1214
330
2
100
AcDbEntity
  8
TITLE
100
AcDbText
 10
294.3558565288436
 20
375.2655413026348
 30
0.0
 40
7.5
  1
AFCZ15L-7~10L200S1
100
AcDbText
  0
LINE
  5
1216
330
2
100
AcDbEntity
  8
0
100
AcDbLine
 10
659.6539285101986
 20
137.6022955681022
 30
0.0
 11
654.9539285101997
 21
137.6022955681022
 31
0.0
  0
LINE
  5
1217
330
2
100
AcDbEntity
  8
0
100
AcDbLine
 10
654.9539285101997
 20
146.1022955681022
 30
0.0
 11
659.6539285101986
 21
146.1022955681022
 31
0.0
  0
LINE
  5
1218
330
2
100
AcDbEntity
  8
CENTER
  6
CENS
100
AcDbLine
 10
637.4227715541707
 20
141.8522955681022
 30
0.0
 11
664.8797444842545
 21
141.8522955681022
 31
0.0
  0
LINE
  5
1219
330
2
100
AcDbEntity
  8
0
100
AcDbLine
 10
659.9539285101997
 20
145.5826803258318
 30
0.0
 11
659.9539285101997
 21
138.1219108103727
 31
0.0
  0
LINE
  5
121A
330
2
100
AcDbEntity
  8
0
100
AcDbLine
 10
659.6539285101986
 20
137.6022955681022
 30
0.0
 11
659.6539285101986
 21
146.1022955681022
 31
0.0
  0
LINE
  5
121B
330
2
100
AcDbEntity
  8
0
100
AcDbLine
 10
659.6539285101986
 20
137.6022955681022
 30
0.0
 11
659.9539285101997
 21
138.1219108103727
 31
0.0
  0
LINE
  5
121C
330
2
100
AcDbEntity
  8
0
100
AcDbLine
 10
659.9539285101997
 20
145.5826803258318
 30
0.0
 11
659.6539285101986
 21
146.1022955681022
 31
0.0
  0
LINE
  5
121D
330
2
100
AcDbEntity
  8
0
100
AcDbLine
 10
654.9539285101997
 20
146.1022955681022
 30
0.0
 11
653.9539285101997
 21
146.1022955681022
 31
0.0
  0
LINE
  5
121E
330
2
100
AcDbEntity
  8
0
100
AcDbLine
 10
653.9539285101997
 20
146.1022955681022
 30
0.0
 11
653.9539285101997
 21
137.6022955681022
 31
0.0
  0
LINE
  5
121F
330
2
100
AcDbEntity
  8
0
100
AcDbLine
 10
653.9539285101997
 20
137.6022955681022
 30
0.0
 11
654.9539285101997
 21
137.6022955681022
 31
0.0
  0
LINE
  5
1220
330
2
100
AcDbEntity
  8
0
100
AcDbLine
 10
654.9539285101997
 20
137.6022955681022
 30
0.0
 11
654.9539285101997
 21
146.1022955681022
 31
0.0
  0
LINE
  5
1221
330
2
100
AcDbEntity
  8
0
100
AcDbLine
 10
654.9539285101997
 20
137.6022955681022
 30
0.0
 11
654.9539285101997
 21
146.1022955681022
 31
0.0
  0
ARC
  5
1222
330
2
100
AcDbEntity
  8
0
100
AcDbCircle
 10
658.7571979208002
 20
75.74229556810164
 30
0.0
 40
5.0
100
AcDbArc
 50
163.8741378563956
 51
171.7867892982579
  0
LINE
  5
1223
330
2
100
AcDbEntity
  8
0
100
AcDbLine
 10
653.8286900808358
 20
76.70739075522746
 30
0.0
 11
654.4227715541707
 21
110.7422955681021
 31
0.0
  0
LINE
  5
1224
330
2
100
AcDbEntity
  8
0
100
AcDbLine
 10
642.4227715541706
 20
74.74229556810209
 30
0.0
 11
651.8289946905239
 21
74.74229556810209
 31
0.0
  0
ARC
  5
1225
330
2
100
AcDbEntity
  8
0
100
AcDbCircle
 10
651.8289946905239
 20
76.74229556810209
 30
0.0
 40
2.0
100
AcDbArc
 50
270.0
 51
358.9999999999982
  0
LINE
  5
1226
330
2
100
AcDbEntity
  8
CENTER
  6
CENS
100
AcDbLine
 10
671.4227715541706
 20
121.1422955681022
 30
0.0
 11
671.4227715541706
 21
149.4214771685841
 31
0.0
  0
LINE
  5
1227
330
2
100
AcDbEntity
  8
0
100
AcDbLine
 10
653.8286900808358
 20
144.7772003809762
 30
0.0
 11
654.2828298367745
 21
118.7595511882467
 31
0.0
  0
LINE
  5
1228
330
2
100
AcDbEntity
  8
0
100
AcDbLine
 10
670.8939865279786
 20
137.7381833373245
 30
0.0
 11
670.6764435174441
 21
125.2751526108344
 31
0.0
  0
LINE
  5
1229
330
2
100
AcDbEntity
  8
0
100
AcDbLine
 10
642.4227715541706
 20
110.7422955681021
 30
0.0
 11
642.882810907358
 21
110.7422955681021
 31
0.0
  0
LINE
  5
122A
330
2
100
AcDbEntity
  8
0
100
AcDbLine
 10
659.9539285101997
 20
80.74229556810209
 30
0.0
 11
685.4227715541707
 21
80.74229556810209
 31
0.0
  0
LINE
  5
122B
330
2
100
AcDbEntity
  8
0
100
AcDbLine
 10
670.8939865279786
 20
83.74640779887963
 30
0.0
 11
670.4227715541707
 21
110.7422955681021
 31
0.0
  0
ARC
  5
122C
330
2
100
AcDbEntity
  8
0
100
AcDbCircle
 10
673.8945152913653
 20
83.7422955681021
 30
0.0
 40
3.0
100
AcDbArc
 50
181.0000000000017
 51
270.0
  0
ARC
  5
122D
330
2
100
AcDbEntity
  8
0
100
AcDbCircle
 10
658.330986504781
 20
135.5101142136453
 30
0.0
 40
3.0
100
AcDbArc
 50
270.0
 51
358.9999999999721
  0
LINE
  5
122E
330
2
100
AcDbEntity
  8
0
100
AcDbLine
 10
667.8022732578425
 20
132.5101142136453
 30
0.0
 11
658.330986504781
 21
132.5101142136458
 31
0.0
  0
LINE
  5
122F
330
2
100
AcDbEntity
  8
0
100
AcDbLine
 10
661.3305295902497
 20
135.4577569943334
 30
0.0
 11
661.3884706900895
 21
138.7772003809767
 31
0.0
  0
ARC
  5
1230
330
2
100
AcDbEntity
  8
0
100
AcDbCircle
 10
663.3881660804032
 20
138.7422955681021
 30
0.0
 40
2.0
100
AcDbArc
 50
90.0
 51
178.9999999999721
  0
LINE
  5
1231
330
2
100
AcDbEntity
  8
0
100
AcDbLine
 10
659.9539285101997
 20
140.7422955681025
 30
0.0
 11
685.4227715541707
 21
140.7422955681021
 31
0.0
  0
ARC
  5
1232
330
2
100
AcDbEntity
  8
0
100
AcDbCircle
 10
673.8945152913653
 20
137.7422955681021
 30
0.0
 40
3.0
100
AcDbArc
 50
90.0
 51
178.9999999999982
  0
ARC
  5
1233
330
2
100
AcDbEntity
  8
0
100
AcDbCircle
 10
651.8289946905239
 20
144.7422955681021
 30
0.0
 40
2.0
100
AcDbArc
 50
1.000000000001775
 51
90.0
  0
LINE
  5
1234
330
2
100
AcDbEntity
  8
0
100
AcDbLine
 10
642.4227715541706
 20
146.7422955681021
 30
0.0
 11
651.8289946905239
 21
146.7422955681021
 31
0.0
  0
ARC
  5
1235
330
2
100
AcDbEntity
  8
0
100
AcDbCircle
 10
658.7571979208002
 20
145.7422955681025
 30
0.0
 40
5.0
100
AcDbArc
 50
188.213210701742
 51
196.1258621436043
  0
LINE
  5
1236
330
2
100
AcDbEntity
  8
0
100
AcDbLine
 10
685.4227715541707
 20
80.74229556810209
 30
0.0
 11
685.4227715541707
 21
140.7422955681021
 31
0.0
  0
LINE
  5
1237
330
2
100
AcDbEntity
  8
0
100
AcDbLine
 10
659.6539285101986
 20
83.88229556810196
 30
0.0
 11
654.9539285101997
 21
83.88229556810196
 31
0.0
  0
LINE
  5
1238
330
2
100
AcDbEntity
  8
0
100
AcDbLine
 10
654.9539285101997
 20
75.38229556810197
 30
0.0
 11
659.6539285101986
 21
75.38229556810197
 31
0.0
  0
LINE
  5
1239
330
2
100
AcDbEntity
  8
CENTER
  6
CENS
100
AcDbLine
 10
637.4227715541707
 20
79.63229556810197
 30
0.0
 11
664.8797444842545
 21
79.63229556810197
 31
0.0
  0
LINE
  5
123A
330
2
100
AcDbEntity
  8
0
100
AcDbLine
 10
659.9539285101997
 20
75.90191081037241
 30
0.0
 11
659.9539285101997
 21
83.36268032583152
 31
0.0
  0
LINE
  5
123B
330
2
100
AcDbEntity
  8
0
100
AcDbLine
 10
659.6539285101986
 20
83.88229556810196
 30
0.0
 11
659.6539285101986
 21
75.38229556810197
 31
0.0
  0
LINE
  5
123C
330
2
100
AcDbEntity
  8
0
100
AcDbLine
 10
659.6539285101986
 20
83.88229556810196
 30
0.0
 11
659.9539285101997
 21
83.36268032583152
 31
0.0
  0
LINE
  5
123D
330
2
100
AcDbEntity
  8
0
100
AcDbLine
 10
659.9539285101997
 20
75.90191081037241
 30
0.0
 11
659.6539285101986
 21
75.38229556810197
 31
0.0
  0
LINE
  5
123E
330
2
100
AcDbEntity
  8
0
100
AcDbLine
 10
654.9539285101997
 20
75.38229556810197
 30
0.0
 11
653.9539285101997
 21
75.38229556810197
 31
0.0
  0
LINE
  5
123F
330
2
100
AcDbEntity
  8
0
100
AcDbLine
 10
653.9539285101997
 20
75.38229556810197
 30
0.0
 11
653.9539285101997
 21
83.88229556810196
 31
0.0
  0
LINE
  5
1240
330
2
100
AcDbEntity
  8
0
100
AcDbLine
 10
653.9539285101997
 20
83.88229556810196
 30
0.0
 11
654.9539285101997
 21
83.88229556810196
 31
0.0
  0
LINE
  5
1241
330
2
100
AcDbEntity
  8
0
100
AcDbLine
 10
654.9539285101997
 20
83.88229556810196
 30
0.0
 11
654.9539285101997
 21
75.38229556810197
 31
0.0
  0
LINE
  5
1242
330
2
100
AcDbEntity
  8
0
100
AcDbLine
 10
654.9539285101997
 20
83.88229556810196
 30
0.0
 11
654.9539285101997
 21
75.38229556810197
 31
0.0
  0
LINE
  5
1243
330
2
100
AcDbEntity
  8
0
100
AcDbLine
 10
675.9227609451206
 20
116.2422955681025
 30
0.0
 11
665.9227609451205
 21
116.2422955681025
 31
0.0
  0
LINE
  5
1244
330
2
100
AcDbEntity
  8
0
100
AcDbLine
 10
675.9227609451206
 20
116.2422955681021
 30
0.0
 11
675.9227609451206
 21
110.7422955681021
 31
0.0
  0
LINE
  5
1245
330
2
100
AcDbEntity
  8
0
100
AcDbLine
 10
677.9227609451205
 20
117.3969961064816
 30
0.0
 11
675.9227609451206
 21
116.2422955681021
 31
0.0
  0
LINE
  5
1246
330
2
100
AcDbEntity
  8
0
100
AcDbLine
 10
648.9227609451205
 20
116.4922955681021
 30
0.0
 11
648.9227609451205
 21
110.7422955681021
 31
0.0
  0
LINE
  5
1247
330
2
100
AcDbEntity
  8
0
100
AcDbLine
 10
675.9227609451206
 20
116.2422955681025
 30
0.0
 11
665.9227609451205
 21
116.2422955681025
 31
0.0
  0
LINE
  5
1248
330
2
100
AcDbEntity
  8
0
100
AcDbLine
 10
670.8349751237943
 20
125.4922955681025
 30
0.0
 11
677.9227609451205
 21
125.4922955681025
 31
0.0
  0
LINE
  5
1249
330
2
100
AcDbEntity
  8
0
100
AcDbLine
 10
677.9227609451205
 20
125.4922955681025
 30
0.0
 11
677.9227609451205
 21
110.7422955681021
 31
0.0
  0
LINE
  5
124A
330
2
100
AcDbEntity
  8
0
100
AcDbLine
 10
663.9227609451205
 20
121.0269767548255
 30
0.0
 11
663.9227609451205
 21
110.7422955681021
 31
0.0
  0
LINE
  5
124B
330
2
100
AcDbEntity
  8
0
100
AcDbLine
 10
665.9227609451205
 20
121.5523769022569
 30
0.0
 11
665.9227609451205
 21
110.7422955681021
 31
0.0
  0
LINE
  5
124C
330
2
100
AcDbEntity
  8
0
100
AcDbLine
 10
656.9227609451205
 20
116.4922955681021
 30
0.0
 11
648.9227609451205
 21
116.4922955681021
 31
0.0
  0
LINE
  5
124D
330
2
100
AcDbEntity
  8
0
100
AcDbLine
 10
656.9227609451205
 20
110.7422955681021
 30
0.0
 11
656.9227609451205
 21
116.4922955681021
 31
0.0
  0
LINE
  5
124E
330
2
100
AcDbEntity
  8
0
100
AcDbLine
 10
663.9227609451205
 20
116.2422955681021
 30
0.0
 11
656.9227609451205
 21
116.2422955681021
 31
0.0
  0
LINE
  5
124F
330
2
100
AcDbEntity
  8
0
100
AcDbLine
 10
646.0360095991724
 20
110.7422955681021
 30
0.0
 11
648.9227609451205
 21
115.7422955681021
 31
0.0
  0
SPLINE
  5
1250
330
2
100
AcDbEntity
  8
HOJO
100
AcDbSpline
210
0.0
220
0.0
230
1.0
 70
     8
 71
     3
 72
    20
 73
    16
 74
     0
 42
0.0000000001
 43
0.0000000001
 40
0.0
 40
0.0
 40
0.0
 40
0.0
 40
5.311626210389601
 40
7.954639692924123
 40
10.24579206730457
 40
14.18281221953265
 40
18.83794314114633
 40
26.54246833222011
 40
31.19712602527561
 40
34.95638115537181
 40
42.12378530287149
 40
45.78553747213095
 40
50.20353689726185
 40
53.26513166942802
 40
54.23175360515262
 40
54.23175360515262
 40
54.23175360515262
 40
54.23175360515262
 10
685.4227715541707
 20
137.4297442901182
 30
0.0
 10
683.7097923882826
 20
137.3217022398919
 30
0.0
 10
681.1444514688716
 20
137.1598995174875
 30
0.0
 10
677.372697581795
 20
136.9077668453203
 30
0.0
 10
676.0535563656609
 20
133.9753253603533
 30
0.0
 10
673.618346997369
 20
131.3208165370577
 30
0.0
 10
671.7802986542189
 20
126.1695211038939
 30
0.0
 10
667.6554622447435
 20
121.4597737522683
 30
0.0
 10
662.1778147417368
 20
120.8224423178492
 30
0.0
 10
657.2644292321707
 20
119.1361233711416
 30
0.0
 10
652.4304298854127
 20
118.5161362791671
 30
0.0
 10
647.3927031207728
 20
117.5609122615058
 30
0.0
 10
644.3215524994045
 20
115.0267004187551
 30
0.0
 10
643.3215782046787
 20
112.3484598978655
 30
0.0
 10
642.9655386794453
 20
111.0534468677945
 30
0.0
 10
642.882810907358
 20
110.742295568102
 30
0.0
  0
LINE
  5
1251
330
2
100
AcDbEntity
  8
0
100
AcDbLine
 10
685.4227715541707
 20
135.7422955681025
 30
0.0
 11
678.4227715541707
 21
135.7422955681025
 31
0.0
  0
LINE
  5
1252
330
2
100
AcDbEntity
  8
0
100
AcDbLine
 10
678.4227715541707
 20
135.7422955681025
 30
0.0
 11
678.4227715541707
 21
110.7422955681021
 31
0.0
  0
LINE
  5
1253
330
2
100
AcDbEntity
  8
0
100
AcDbLine
 10
676.4227777253578
 20
144.7422955681021
 30
0.0
 11
666.4227777253578
 21
144.7422955681021
 31
0.0
  0
ARC
  5
1254
330
2
100
AcDbEntity
  8
0
100
AcDbCircle
 10
666.4227777253578
 20
140.7422955681021
 30
0.0
 40
4.0
100
AcDbArc
 50
90.0
 51
180.0
  0
ARC
  5
1255
330
2
100
AcDbEntity
  8
0
100
AcDbCircle
 10
676.4227777253578
 20
140.7422955681021
 30
0.0
 40
4.0
100
AcDbArc
 50
0.0
 51
90.0
  0
LINE
  5
1257
330
2
100
AcDbEntity
  8
0
100
AcDbLine
 10
74.8670600978977
 20
137.6022955681022
 30
0.0
 11
79.56706009789662
 21
137.6022955681022
 31
0.0
  0
LINE
  5
1258
330
2
100
AcDbEntity
  8
0
100
AcDbLine
 10
79.56706009789662
 20
146.1022955681022
 30
0.0
 11
74.8670600978977
 21
146.1022955681022
 31
0.0
  0
LINE
  5
1259
330
2
100
AcDbEntity
  8
CENTER
  6
CENS
100
AcDbLine
 10
97.09821705392563
 20
141.8522955681022
 30
0.0
 11
69.64124412384172
 21
141.8522955681022
 31
0.0
  0
LINE
  5
125A
330
2
100
AcDbEntity
  8
0
100
AcDbLine
 10
74.56706009789662
 20
145.5826803258318
 30
0.0
 11
74.56706009789662
 21
138.1219108103727
 31
0.0
  0
LINE
  5
125B
330
2
100
AcDbEntity
  8
0
100
AcDbLine
 10
74.8670600978977
 20
137.6022955681022
 30
0.0
 11
74.8670600978977
 21
146.1022955681022
 31
0.0
  0
LINE
  5
125C
330
2
100
AcDbEntity
  8
0
100
AcDbLine
 10
74.8670600978977
 20
137.6022955681022
 30
0.0
 11
74.56706009789662
 21
138.1219108103727
 31
0.0
  0
LINE
  5
125D
330
2
100
AcDbEntity
  8
0
100
AcDbLine
 10
74.56706009789662
 20
145.5826803258318
 30
0.0
 11
74.8670600978977
 21
146.1022955681022
 31
0.0
  0
LINE
  5
125E
330
2
100
AcDbEntity
  8
0
100
AcDbLine
 10
79.56706009789662
 20
146.1022955681022
 30
0.0
 11
80.56706009789662
 21
146.1022955681022
 31
0.0
  0
LINE
  5
125F
330
2
100
AcDbEntity
  8
0
100
AcDbLine
 10
80.56706009789662
 20
146.1022955681022
 30
0.0
 11
80.56706009789662
 21
137.6022955681022
 31
0.0
  0
LINE
  5
1260
330
2
100
AcDbEntity
  8
0
100
AcDbLine
 10
80.56706009789662
 20
137.6022955681022
 30
0.0
 11
79.56706009789662
 21
137.6022955681022
 31
0.0
  0
LINE
  5
1261
330
2
100
AcDbEntity
  8
0
100
AcDbLine
 10
79.56706009789662
 20
137.6022955681022
 30
0.0
 11
79.56706009789662
 21
146.1022955681022
 31
0.0
  0
LINE
  5
1262
330
2
100
AcDbEntity
  8
0
100
AcDbLine
 10
79.56706009789662
 20
137.6022955681022
 30
0.0
 11
79.56706009789662
 21
146.1022955681022
 31
0.0
  0
ARC
  5
1263
330
2
100
AcDbEntity
  8
0
100
AcDbCircle
 10
75.76379068729614
 20
75.74229556810166
 30
0.0
 40
5.0
100
AcDbArc
 50
8.213210701742065
 51
16.12586214360434
  0
LINE
  5
1264
330
2
100
AcDbEntity
  8
0
100
AcDbLine
 10
80.69229852726051
 20
76.7073907552275
 30
0.0
 11
80.09821705392562
 21
110.7422955681021
 31
0.0
  0
LINE
  5
1265
330
2
100
AcDbEntity
  8
0
100
AcDbLine
 10
92.09821705392561
 20
74.74229556810212
 30
0.0
 11
82.6919939175724
 21
74.74229556810212
 31
0.0
  0
ARC
  5
1266
330
2
100
AcDbEntity
  8
0
100
AcDbCircle
 10
82.6919939175724
 20
76.74229556810212
 30
0.0
 40
2.0
100
AcDbArc
 50
181.0000000000017
 51
270.0
  0
LINE
  5
1267
330
2
100
AcDbEntity
  8
CENTER
  6
CENS
100
AcDbLine
 10
63.0982170539255
 20
121.1422955681022
 30
0.0
 11
63.0982170539255
 21
149.4214771685841
 31
0.0
  0
LINE
  5
1268
330
2
100
AcDbEntity
  8
0
100
AcDbLine
 10
80.69229852726051
 20
144.7772003809763
 30
0.0
 11
80.09821705392608
 21
110.7422955681021
 31
0.0
  0
LINE
  5
1269
330
2
100
AcDbEntity
  8
0
100
AcDbLine
 10
63.62700208011756
 20
137.7381833373246
 30
0.0
 11
64.09821705392642
 21
110.7422955681021
 31
0.0
  0
LINE
  5
126A
330
2
100
AcDbEntity
  8
0
100
AcDbLine
 10
92.09821705392561
 20
110.7422955681021
 30
0.0
 11
49.09821705392551
 21
110.7422955681021
 31
0.0
  0
LINE
  5
126B
330
2
100
AcDbEntity
  8
0
100
AcDbLine
 10
74.56706009789662
 20
80.74229556810212
 30
0.0
 11
49.09821705392551
 21
80.74229556810212
 31
0.0
  0
LINE
  5
126C
330
2
100
AcDbEntity
  8
0
100
AcDbLine
 10
63.62700208011756
 20
83.74640779887966
 30
0.0
 11
64.09821705392551
 21
110.7422955681021
 31
0.0
  0
ARC
  5
126D
330
2
100
AcDbEntity
  8
0
100
AcDbCircle
 10
60.62647331673088
 20
83.74229556810211
 30
0.0
 40
3.0
100
AcDbArc
 50
270.0
 51
358.9999999999982
  0
ARC
  5
126E
330
2
100
AcDbEntity
  8
0
100
AcDbCircle
 10
76.19000210331535
 20
85.97447692255888
 30
0.0
 40
3.0
100
AcDbArc
 50
90.0
 51
178.9999999999721
  0
LINE
  5
126F
330
2
100
AcDbEntity
  8
0
100
AcDbLine
 10
66.71871535025366
 20
88.97447692255889
 30
0.0
 11
76.19000210331535
 21
88.97447692255843
 31
0.0
  0
LINE
  5
1270
330
2
100
AcDbEntity
  8
0
100
AcDbLine
 10
73.19045901784659
 20
86.02683414187083
 30
0.0
 11
73.13251791800678
 21
82.70739075522749
 31
0.0
  0
ARC
  5
1271
330
2
100
AcDbEntity
  8
0
100
AcDbCircle
 10
71.13282252769295
 20
82.74229556810212
 30
0.0
 40
2.0
100
AcDbArc
 50
270.0
 51
358.9999999999721
  0
LINE
  5
1272
330
2
100
AcDbEntity
  8
0
100
AcDbLine
 10
74.56706009789662
 20
140.7422955681026
 30
0.0
 11
49.09821705392551
 21
140.7422955681021
 31
0.0
  0
ARC
  5
1273
330
2
100
AcDbEntity
  8
0
100
AcDbCircle
 10
60.62647331673088
 20
137.7422955681021
 30
0.0
 40
3.0
100
AcDbArc
 50
1.000000000001775
 51
90.0
  0
ARC
  5
1274
330
2
100
AcDbEntity
  8
0
100
AcDbCircle
 10
82.6919939175724
 20
144.7422955681021
 30
0.0
 40
2.0
100
AcDbArc
 50
90.0
 51
178.9999999999982
  0
LINE
  5
1275
330
2
100
AcDbEntity
  8
0
100
AcDbLine
 10
92.09821705392561
 20
146.7422955681021
 30
0.0
 11
82.6919939175724
 21
146.7422955681021
 31
0.0
  0
ARC
  5
1276
330
2
100
AcDbEntity
  8
0
100
AcDbCircle
 10
75.76379068729614
 20
145.7422955681026
 30
0.0
 40
5.0
100
AcDbArc
 50
343.8741378563956
 51
351.7867892982579
  0
LINE
  5
1277
330
2
100
AcDbEntity
  8
0
100
AcDbLine
 10
49.09821705392551
 20
80.74229556810212
 30
0.0
 11
49.09821705392551
 21
140.7422955681021
 31
0.0
  0
LINE
  5
1278
330
2
100
AcDbEntity
  8
0
100
AcDbLine
 10
74.8670600978977
 20
83.882295568102
 30
0.0
 11
79.56706009789662
 21
83.882295568102
 31
0.0
  0
LINE
  5
1279
330
2
100
AcDbEntity
  8
0
100
AcDbLine
 10
79.56706009789662
 20
75.382295568102
 30
0.0
 11
74.8670600978977
 21
75.382295568102
 31
0.0
  0
LINE
  5
127A
330
2
100
AcDbEntity
  8
CENTER
  6
CENS
100
AcDbLine
 10
97.09821705392563
 20
79.63229556810199
 30
0.0
 11
69.64124412384172
 21
79.63229556810199
 31
0.0
  0
LINE
  5
127B
330
2
100
AcDbEntity
  8
0
100
AcDbLine
 10
74.56706009789662
 20
75.90191081037244
 30
0.0
 11
74.56706009789662
 21
83.36268032583154
 31
0.0
  0
LINE
  5
127C
330
2
100
AcDbEntity
  8
0
100
AcDbLine
 10
74.8670600978977
 20
83.882295568102
 30
0.0
 11
74.8670600978977
 21
75.382295568102
 31
0.0
  0
LINE
  5
127D
330
2
100
AcDbEntity
  8
0
100
AcDbLine
 10
74.8670600978977
 20
83.882295568102
 30
0.0
 11
74.56706009789662
 21
83.36268032583154
 31
0.0
  0
LINE
  5
127E
330
2
100
AcDbEntity
  8
0
100
AcDbLine
 10
74.56706009789662
 20
75.90191081037244
 30
0.0
 11
74.8670600978977
 21
75.382295568102
 31
0.0
  0
LINE
  5
127F
330
2
100
AcDbEntity
  8
0
100
AcDbLine
 10
79.56706009789662
 20
75.382295568102
 30
0.0
 11
80.56706009789662
 21
75.382295568102
 31
0.0
  0
LINE
  5
1280
330
2
100
AcDbEntity
  8
0
100
AcDbLine
 10
80.56706009789662
 20
75.382295568102
 30
0.0
 11
80.56706009789662
 21
83.882295568102
 31
0.0
  0
LINE
  5
1281
330
2
100
AcDbEntity
  8
0
100
AcDbLine
 10
80.56706009789662
 20
83.882295568102
 30
0.0
 11
79.56706009789662
 21
83.882295568102
 31
0.0
  0
LINE
  5
1282
330
2
100
AcDbEntity
  8
0
100
AcDbLine
 10
79.56706009789662
 20
83.882295568102
 30
0.0
 11
79.56706009789662
 21
75.382295568102
 31
0.0
  0
LINE
  5
1283
330
2
100
AcDbEntity
  8
0
100
AcDbLine
 10
79.56706009789662
 20
83.882295568102
 30
0.0
 11
79.56706009789662
 21
75.382295568102
 31
0.0
  0
LINE
  5
1284
330
2
100
AcDbEntity
  8
0
100
AcDbLine
 10
58.09821088273839
 20
144.7422955681021
 30
0.0
 11
68.09821088273839
 21
144.7422955681021
 31
0.0
  0
ARC
  5
1285
330
2
100
AcDbEntity
  8
0
100
AcDbCircle
 10
68.09821088273839
 20
140.7422955681021
 30
0.0
 40
4.0
100
AcDbArc
 50
0.0
 51
90.0
  0
ARC
  5
1286
330
2
100
AcDbEntity
  8
0
100
AcDbCircle
 10
58.09821088273839
 20
140.7422955681021
 30
0.0
 40
4.0
100
AcDbArc
 50
90.0
 51
180.0
  0
LINE
  5
1287
330
2
100
AcDbEntity
  8
0
100
AcDbLine
 10
675.3221048825536
 20
133.2422955681021
 30
0.0
 11
678.4227715541707
 21
133.2422955681021
 31
0.0
  0
ARC
  5
1288
330
2
100
AcDbEntity
  8
0
100
AcDbCircle
 10
652.4227715498015
 20
430.3552626908648
 30
0.0
 40
2.0
100
AcDbArc
 50
40.04151653423844
 51
90.0
  0
ARC
  5
1289
330
2
100
AcDbEntity
  8
0
100
AcDbCircle
 10
652.4227715498015
 20
362.3552626908648
 30
0.0
 40
2.0
100
AcDbArc
 50
270.0
 51
319.9584834657615
  0
LINE
  5
128A
330
2
100
AcDbEntity
  8
0
100
AcDbLine
 10
661.4227715498015
 20
393.3552626908643
 30
0.0
 11
661.4227715498015
 21
378.8552626908643
 31
0.0
  0
LINE
  5
128B
330
2
100
AcDbEntity
  8
0
100
AcDbLine
 10
654.4227715498014
 20
423.2152626908649
 30
0.0
 11
654.4227715498014
 21
369.4952626908647
 31
0.0
  0
LINE
  5
128C
330
2
100
AcDbEntity
  8
CENTER
  6
CENS
100
AcDbLine
 10
671.4227715498014
 20
398.7552626908648
 30
0.0
 11
671.4227715498014
 21
372.9552626908648
 31
0.0
  0
LINE
  5
128D
330
2
100
AcDbEntity
  8
0
100
AcDbLine
 10
670.4227715498014
 20
423.3552626908648
 30
0.0
 11
670.4227715498014
 21
399.3552626908648
 31
0.0
  0
LINE
  5
128E
330
2
100
AcDbEntity
  8
0
100
AcDbLine
 10
659.9539285058305
 20
426.3552626908648
 30
0.0
 11
685.4227715498015
 21
426.3552626908648
 31
0.0
  0
ARC
  5
128F
330
2
100
AcDbEntity
  8
0
100
AcDbCircle
 10
673.4227715498015
 20
423.3552626908648
 30
0.0
 40
3.0
100
AcDbArc
 50
90.0
 51
180.0
  0
ARC
  5
1290
330
2
100
AcDbEntity
  8
0
100
AcDbCircle
 10
667.4227715498014
 20
399.3552626908648
 30
0.0
 40
3.0
100
AcDbArc
 50
270.0
 51
0.0
  0
ARC
  5
1291
330
2
100
AcDbEntity
  8
0
100
AcDbCircle
 10
664.4227715498015
 20
393.3552626908643
 30
0.0
 40
3.0
100
AcDbArc
 50
90.0
 51
180.0
  0
LINE
  5
1292
330
2
100
AcDbEntity
  8
0
100
AcDbLine
 10
664.4227715498015
 20
396.3552626908648
 30
0.0
 11
667.4227715498014
 21
396.3552626908648
 31
0.0
  0
LINE
  5
1293
330
2
100
AcDbEntity
  8
0
100
AcDbLine
 10
659.9539285058305
 20
366.3552626908648
 30
0.0
 11
685.4227715498015
 21
366.3552626908648
 31
0.0
  0
LINE
  5
1294
330
2
100
AcDbEntity
  8
CENTER
  6
CENS
100
AcDbLine
 10
658.5227715498015
 20
385.8552626908648
 30
0.0
 11
684.3227715498015
 21
385.8552626908648
 31
0.0
  0
ARC
  5
1295
330
2
100
AcDbEntity
  8
0
100
AcDbCircle
 10
664.4227715498015
 20
378.8552626908643
 30
0.0
 40
3.0
100
AcDbArc
 50
180.0
 51
270.0
  0
ARC
  5
1296
330
2
100
AcDbEntity
  8
0
100
AcDbCircle
 10
667.4227715498014
 20
372.8552626908648
 30
0.0
 40
3.0
100
AcDbArc
 50
0.0
 51
90.0
  0
LINE
  5
1297
330
2
100
AcDbEntity
  8
0
100
AcDbLine
 10
664.4227715498015
 20
375.8552626908648
 30
0.0
 11
667.4227715498014
 21
375.8552626908648
 31
0.0
  0
LINE
  5
1298
330
2
100
AcDbEntity
  8
0
100
AcDbLine
 10
670.4227715498014
 20
372.8552626908648
 30
0.0
 11
670.4227715498014
 21
369.3552626908648
 31
0.0
  0
ARC
  5
1299
330
2
100
AcDbEntity
  8
0
100
AcDbCircle
 10
673.4227715498015
 20
369.3552626908648
 30
0.0
 40
3.0
100
AcDbArc
 50
180.0
 51
270.0
  0
LINE
  5
129A
330
2
100
AcDbEntity
  8
0
100
AcDbLine
 10
642.4227715498014
 20
432.3552626908648
 30
0.0
 11
652.4227715498015
 21
432.3552626908648
 31
0.0
  0
LINE
  5
129B
330
2
100
AcDbEntity
  8
0
100
AcDbLine
 10
642.4227715498014
 20
360.3552626908648
 30
0.0
 11
652.4227715498015
 21
360.3552626908648
 31
0.0
  0
LINE
  5
129C
330
2
100
AcDbEntity
  8
0
100
AcDbLine
 10
685.4227715498015
 20
426.3552626908648
 30
0.0
 11
685.4227715498015
 21
366.3552626908648
 31
0.0
  0
LINE
  5
129D
330
2
100
AcDbEntity
  8
0
100
AcDbLine
 10
659.6539285058294
 20
369.4952626908647
 30
0.0
 11
654.9539285058305
 21
369.4952626908647
 31
0.0
  0
LINE
  5
129E
330
2
100
AcDbEntity
  8
0
100
AcDbLine
 10
654.9539285058305
 20
360.9952626908647
 30
0.0
 11
659.6539285058294
 21
360.9952626908647
 31
0.0
  0
LINE
  5
129F
330
2
100
AcDbEntity
  8
CENTER
  6
CENS
100
AcDbLine
 10
637.4227715498014
 20
365.2452626908647
 30
0.0
 11
664.8797444798852
 21
365.2452626908647
 31
0.0
  0
LINE
  5
12A0
330
2
100
AcDbEntity
  8
0
100
AcDbLine
 10
659.9539285058305
 20
361.5148779331351
 30
0.0
 11
659.9539285058305
 21
368.9756474485942
 31
0.0
  0
LINE
  5
12A1
330
2
100
AcDbEntity
  8
0
100
AcDbLine
 10
659.6539285058294
 20
369.4952626908647
 30
0.0
 11
659.6539285058294
 21
360.9952626908647
 31
0.0
  0
LINE
  5
12A2
330
2
100
AcDbEntity
  8
0
100
AcDbLine
 10
659.6539285058294
 20
369.4952626908647
 30
0.0
 11
659.9539285058305
 21
368.9756474485942
 31
0.0
  0
LINE
  5
12A3
330
2
100
AcDbEntity
  8
0
100
AcDbLine
 10
659.9539285058305
 20
361.5148779331351
 30
0.0
 11
659.6539285058294
 21
360.9952626908647
 31
0.0
  0
LINE
  5
12A4
330
2
100
AcDbEntity
  8
0
100
AcDbLine
 10
654.9539285058305
 20
360.9952626908647
 30
0.0
 11
653.9539285058305
 21
360.9952626908647
 31
0.0
  0
LINE
  5
12A5
330
2
100
AcDbEntity
  8
0
100
AcDbLine
 10
653.9539285058305
 20
360.9952626908647
 30
0.0
 11
653.9539285058305
 21
369.4952626908647
 31
0.0
  0
LINE
  5
12A6
330
2
100
AcDbEntity
  8
0
100
AcDbLine
 10
653.9539285058305
 20
369.4952626908647
 30
0.0
 11
654.9539285058305
 21
369.4952626908647
 31
0.0
  0
LINE
  5
12A7
330
2
100
AcDbEntity
  8
0
100
AcDbLine
 10
654.9539285058305
 20
369.4952626908647
 30
0.0
 11
654.9539285058305
 21
360.9952626908647
 31
0.0
  0
LINE
  5
12A8
330
2
100
AcDbEntity
  8
0
100
AcDbLine
 10
654.9539285058305
 20
369.4952626908647
 30
0.0
 11
654.9539285058305
 21
360.9952626908647
 31
0.0
  0
LINE
  5
12A9
330
2
100
AcDbEntity
  8
0
100
AcDbLine
 10
659.6539285058294
 20
423.2152626908649
 30
0.0
 11
654.9539285058305
 21
423.2152626908649
 31
0.0
  0
LINE
  5
12AA
330
2
100
AcDbEntity
  8
0
100
AcDbLine
 10
654.9539285058305
 20
431.7152626908649
 30
0.0
 11
659.6539285058294
 21
431.7152626908649
 31
0.0
  0
LINE
  5
12AB
330
2
100
AcDbEntity
  8
CENTER
  6
CENS
100
AcDbLine
 10
637.4227715498014
 20
427.4652626908649
 30
0.0
 11
664.8797444798852
 21
427.4652626908649
 31
0.0
  0
LINE
  5
12AC
330
2
100
AcDbEntity
  8
0
100
AcDbLine
 10
659.9539285058305
 20
431.1956474485945
 30
0.0
 11
659.9539285058305
 21
423.7348779331354
 31
0.0
  0
LINE
  5
12AD
330
2
100
AcDbEntity
  8
0
100
AcDbLine
 10
659.6539285058294
 20
423.2152626908649
 30
0.0
 11
659.6539285058294
 21
431.7152626908649
 31
0.0
  0
LINE
  5
12AE
330
2
100
AcDbEntity
  8
0
100
AcDbLine
 10
659.6539285058294
 20
423.2152626908649
 30
0.0
 11
659.9539285058305
 21
423.7348779331354
 31
0.0
  0
LINE
  5
12AF
330
2
100
AcDbEntity
  8
0
100
AcDbLine
 10
659.9539285058305
 20
431.1956474485945
 30
0.0
 11
659.6539285058294
 21
431.7152626908649
 31
0.0
  0
LINE
  5
12B0
330
2
100
AcDbEntity
  8
0
100
AcDbLine
 10
654.9539285058305
 20
431.7152626908649
 30
0.0
 11
653.9539285058305
 21
431.7152626908649
 31
0.0
  0
LINE
  5
12B1
330
2
100
AcDbEntity
  8
0
100
AcDbLine
 10
653.9539285058305
 20
431.7152626908649
 30
0.0
 11
653.9539285058305
 21
423.2152626908649
 31
0.0
  0
LINE
  5
12B2
330
2
100
AcDbEntity
  8
0
100
AcDbLine
 10
653.9539285058305
 20
423.2152626908649
 30
0.0
 11
654.9539285058305
 21
423.2152626908649
 31
0.0
  0
LINE
  5
12B3
330
2
100
AcDbEntity
  8
0
100
AcDbLine
 10
654.9539285058305
 20
423.2152626908649
 30
0.0
 11
654.9539285058305
 21
431.7152626908649
 31
0.0
  0
LINE
  5
12B4
330
2
100
AcDbEntity
  8
0
100
AcDbLine
 10
654.9539285058305
 20
423.2152626908649
 30
0.0
 11
654.9539285058305
 21
431.7152626908649
 31
0.0
  0
CIRCLE
  5
12B5
330
2
100
AcDbEntity
  8
0
100
AcDbCircle
 10
671.4227715498014
 20
385.8552626908648
 30
0.0
 40
9.000006171187123
  0
LINE
  5
12B6
330
2
100
AcDbEntity
  8
0
100
AcDbLine
 10
868.3476126780808
 20
74.74229556809049
 30
0.0
 11
930.4855371073056
 21
74.74229556809049
 31
0.0
  0
CIRCLE
  5
12B7
330
2
100
AcDbEntity
  8
HIDS
100
AcDbCircle
 10
899.4165748926928
 20
110.7422955680905
 30
0.0
 40
30.0
  0
ARC
  5
12B8
330
2
100
AcDbEntity
  8
0
100
AcDbCircle
 10
874.4893183040343
 20
85.74229556809095
 30
0.0
 40
5.0
100
AcDbArc
 50
180.1666666666621
 51
270.0
  0
LINE
  5
12B9
330
2
100
AcDbEntity
  8
CENTER
100
AcDbLine
 10
879.6665748926928
 20
135.4922955680905
 30
0.0
 11
869.6665748926928
 21
135.4922955680905
 31
0.0
  0
LINE
  5
12BA
330
2
100
AcDbEntity
  8
CENTER
100
AcDbLine
 10
879.6665748926928
 20
85.99229556809049
 30
0.0
 11
869.6665748926928
 21
85.99229556809049
 31
0.0
  0
ARC
  5
12BB
330
2
100
AcDbEntity
  8
0
100
AcDbCircle
 10
874.4893183040343
 20
135.74229556809
 30
0.0
 40
5.0
100
AcDbArc
 50
90.0
 51
179.8333333333378
  0
LINE
  5
12BC
330
2
100
AcDbEntity
  8
0
100
AcDbLine
 10
863.348094861408
 20
79.67285782063626
 30
0.0
 11
862.9165748926828
 21
110.7422955680918
 31
0.0
  0
LINE
  5
12BD
330
2
100
AcDbEntity
  8
0
100
AcDbLine
 10
869.489339458007
 20
85.72775117816954
 30
0.0
 11
869.4165748926927
 21
110.7422955680905
 31
0.0
  0
ARC
  5
12BE
330
2
100
AcDbEntity
  8
0
100
AcDbCircle
 10
868.3476126780808
 20
79.74229556809004
 30
0.0
 40
5.0
100
AcDbArc
 50
180.7957235527443
 51
270.0
  0
LINE
  5
12BF
330
2
100
AcDbEntity
  8
0
100
AcDbLine
 10
863.348094861408
 20
141.8117333155443
 30
0.0
 11
862.9165748926832
 21
110.7422955680918
 31
0.0
  0
LINE
  5
12C0
330
2
100
AcDbEntity
  8
0
100
AcDbLine
 10
869.489339458007
 20
135.7568399580114
 30
0.0
 11
869.4165748926927
 21
110.7422955680905
 31
0.0
  0
LINE
  5
12C1
330
2
100
AcDbEntity
  8
0
100
AcDbLine
 10
869.4165748926927
 20
110.7422955680905
 30
0.0
 11
862.9165748926928
 21
110.74229556809
 31
0.0
  0
ARC
  5
12C2
330
2
100
AcDbEntity
  8
0
100
AcDbCircle
 10
868.3476126780808
 20
141.7422955680905
 30
0.0
 40
5.0
100
AcDbArc
 50
90.0
 51
179.2042764472556
  0
LINE
  5
12C3
330
2
100
AcDbEntity
  8
0
100
AcDbLine
 10
935.4850549239783
 20
79.67285782063626
 30
0.0
 11
935.9165748926923
 21
110.7422955680918
 31
0.0
  0
LINE
  5
12C4
330
2
100
AcDbEntity
  8
0
100
AcDbLine
 10
929.3438103273794
 20
85.72775117816954
 30
0.0
 11
929.4165748926927
 21
110.7422955680905
 31
0.0
  0
LINE
  5
12C5
330
2
100
AcDbEntity
  8
0
100
AcDbLine
 10
924.3438314813522
 20
80.74229556809049
 30
0.0
 11
874.4893183040343
 21
80.74229556809049
 31
0.0
  0
LINE
  5
12C6
330
2
100
AcDbEntity
  8
CENTER
100
AcDbLine
 10
874.6665748926927
 20
90.99229556809049
 30
0.0
 11
874.6665748926927
 21
80.99229556809049
 31
0.0
  0
LINE
  5
12C7
330
2
100
AcDbEntity
  8
HIDS
100
AcDbLine
 10
919.9508757567748
 20
82.70739075521587
 30
0.0
 11
920.038913506489
 21
87.75107005845402
 31
0.0
  0
ARC
  5
12C8
330
2
100
AcDbEntity
  8
0
100
AcDbCircle
 10
924.3438314813522
 20
85.74229556809095
 30
0.0
 40
5.0
100
AcDbArc
 50
270.0
 51
359.8333333333378
  0
LINE
  5
12C9
330
2
100
AcDbEntity
  8
CENTER
100
AcDbLine
 10
924.1665748926928
 20
90.99229556809049
 30
0.0
 11
924.1665748926928
 21
80.99229556809049
 31
0.0
  0
ARC
  5
12CA
330
2
100
AcDbEntity
  8
0
100
AcDbCircle
 10
930.4855371073056
 20
79.74229556809004
 30
0.0
 40
4.999999999999999
100
AcDbArc
 50
270.0
 51
359.2042764472556
  0
ARC
  5
12CB
330
2
100
AcDbEntity
  8
HIDS
100
AcDbCircle
 10
917.9511803664611
 20
82.7422955680905
 30
0.0
 40
2.0
100
AcDbArc
 50
270.0
 51
358.9999999999982
  0
LINE
  5
12CC
330
2
100
AcDbEntity
  8
CENTER
100
AcDbLine
 10
929.1665748926927
 20
85.99229556809049
 30
0.0
 11
919.1665748926928
 21
85.99229556809049
 31
0.0
  0
ARC
  5
12CD
330
2
100
AcDbEntity
  8
HIDS
100
AcDbCircle
 10
923.0384565919587
 20
87.69871283914161
 30
0.0
 40
3.0
100
AcDbArc
 50
135.7099981688253
 51
178.9999999999982
  0
LINE
  5
12CE
330
2
100
AcDbEntity
  8
0
100
AcDbLine
 10
924.3438314813522
 20
140.7422955680905
 30
0.0
 11
874.4893183040343
 21
140.74229556809
 31
0.0
  0
LINE
  5
12CF
330
2
100
AcDbEntity
  8
HIDS
100
AcDbLine
 10
883.1665748926937
 20
140.74229556809
 30
0.0
 11
883.4141430113698
 21
126.5591275480945
 31
0.0
  0
LINE
  5
12D0
330
2
100
AcDbEntity
  8
CENTER
100
AcDbLine
 10
874.6665748926927
 20
140.4922955680905
 30
0.0
 11
874.6665748926927
 21
130.4922955680905
 31
0.0
  0
ARC
  5
12D1
330
2
100
AcDbEntity
  8
HIDS
100
AcDbCircle
 10
875.7946931934277
 20
133.7858782970394
 30
0.0
 40
3.0
100
AcDbArc
 50
315.7099981688253
 51
358.9999999999982
  0
ARC
  5
12D2
330
2
100
AcDbEntity
  8
HIDS
100
AcDbCircle
 10
880.8819694189244
 20
138.74229556809
 30
0.0
 40
2.0
100
AcDbArc
 50
90.0
 51
178.9999999999982
  0
LINE
  5
12D3
330
2
100
AcDbEntity
  8
HIDS
100
AcDbLine
 10
878.8822740286116
 20
138.7772003809647
 30
0.0
 11
878.7942362788966
 21
133.733521077727
 31
0.0
  0
LINE
  5
12D4
330
2
100
AcDbEntity
  8
HIDS
100
AcDbLine
 10
894.6665748926928
 20
140.7422955680905
 30
0.0
 11
894.5262732688476
 21
132.7044209212487
 31
0.0
  0
LINE
  5
12D5
330
2
100
AcDbEntity
  8
0
100
AcDbLine
 10
935.4850549239783
 20
141.8117333155443
 30
0.0
 11
935.9165748926928
 21
110.7422955680918
 31
0.0
  0
LINE
  5
12D6
330
2
100
AcDbEntity
  8
0
100
AcDbLine
 10
929.3438103273794
 20
135.7568399580114
 30
0.0
 11
929.4165748926927
 21
110.7422955680905
 31
0.0
  0
LINE
  5
12D7
330
2
100
AcDbEntity
  8
CENTER
100
AcDbLine
 10
924.1665748926928
 20
140.4922955680905
 30
0.0
 11
924.1665748926928
 21
130.4922955680905
 31
0.0
  0
LINE
  5
12D8
330
2
100
AcDbEntity
  8
0
100
AcDbLine
 10
929.4165748926927
 20
110.7422955680905
 30
0.0
 11
935.9165748926937
 21
110.7422955680905
 31
0.0
  0
ARC
  5
12D9
330
2
100
AcDbEntity
  8
0
100
AcDbCircle
 10
930.4855371073056
 20
141.7422955680905
 30
0.0
 40
4.999999999999999
100
AcDbArc
 50
0.7957235527443399
 51
90.0
  0
ARC
  5
12DA
330
2
100
AcDbEntity
  8
0
100
AcDbCircle
 10
924.3438314813522
 20
135.74229556809
 30
0.0
 40
5.0
100
AcDbArc
 50
0.1666666666621044
 51
90.0
  0
LINE
  5
12DB
330
2
100
AcDbEntity
  8
CENTER
100
AcDbLine
 10
929.1665748926927
 20
135.4922955680905
 30
0.0
 11
919.1665748926928
 21
135.4922955680905
 31
0.0
  0
CIRCLE
  5
12DC
330
2
100
AcDbEntity
  8
0
100
AcDbCircle
 10
899.4165748926928
 20
110.7422955680905
 30
0.0
 40
25.00000000022851
  0
LINE
  5
12DD
330
2
100
AcDbEntity
  8
0
100
AcDbLine
 10
868.3476126780808
 20
146.7422955680905
 30
0.0
 11
930.4855371073056
 21
146.7422955680905
 31
0.0
  0
CIRCLE
  5
12DE
330
2
100
AcDbEntity
  8
0
100
AcDbCircle
 10
868.3065748926932
 20
79.63229556809037
 30
0.0
 40
2.75
  0
CIRCLE
  5
12DF
330
2
100
AcDbEntity
  8
0
100
AcDbCircle
 10
930.5265748926924
 20
141.8522955680906
 30
0.0
 40
2.75
  0
CIRCLE
  5
12E0
330
2
100
AcDbEntity
  8
0
100
AcDbCircle
 10
930.5265748926924
 20
79.63229556809082
 30
0.0
 40
2.75
  0
ARC
  5
12E1
330
2
100
AcDbEntity
  8
0
100
AcDbCircle
 10
868.3065748926932
 20
141.8522955680906
 30
0.0
 40
4.25000000000019
100
AcDbArc
 50
337.0991355555478
 51
293.5789623545194
  0
ARC
  5
12E2
330
2
100
AcDbEntity
  8
0
100
AcDbCircle
 10
868.3065748926932
 20
141.8522955680906
 30
0.0
 40
3.730384757729381
100
AcDbArc
 50
321.5287333511405
 51
309.1493645588748
  0
LWPOLYLINE
  5
12E3
330
2
100
AcDbEntity
  8
0
100
AcDbPolyline
 90
        6
 70
     1
 43
0.0
 10
870.3065748926931
 20
143.0069961064696
 10
868.3065748926932
 20
144.1616966448492
 10
866.306574892693
 20
143.0069961064696
 10
866.306574892693
 20
140.6975950297115
 10
868.3065748926932
 20
139.5428944913319
 10
870.3065748926931
 20
140.6975950297115
  0
CIRCLE
  5
12E4
330
2
100
AcDbEntity
  8
0
100
AcDbCircle
 10
868.3065748926932
 20
141.8522955680906
 30
0.0
 40
2.3094010767585
  0
LINE
  5
12E5
330
2
100
AcDbEntity
  8
CENTER
100
AcDbLine
 10
868.3065748926912
 20
147.8107258153846
 30
0.0
 11
868.3065748926912
 21
135.8938653207966
 31
0.0
  0
LINE
  5
12E6
330
2
100
AcDbEntity
  8
CENTER
100
AcDbLine
 10
862.3481446453972
 20
141.8522955680906
 30
0.0
 11
874.2650051399852
 21
141.8522955680906
 31
0.0
  0
ARC
  5
12E7
330
2
100
AcDbEntity
  8
0
100
AcDbCircle
 10
930.5265748926942
 20
141.8522955680906
 30
0.0
 40
4.25000000000019
100
AcDbArc
 50
246.4210376454805
 51
202.9008644444513
  0
ARC
  5
12E8
330
2
100
AcDbEntity
  8
0
100
AcDbCircle
 10
930.5265748926942
 20
141.8522955680906
 30
0.0
 40
3.730384757729381
100
AcDbArc
 50
230.8506354409951
 51
218.4712666488647
  0
LWPOLYLINE
  5
12E9
330
2
100
AcDbEntity
  8
0
100
AcDbPolyline
 90
        6
 70
     1
 43
0.0
 10
932.5265748926943
 20
143.0069961064696
 10
930.5265748926942
 20
144.1616966448492
 10
928.5265748926942
 20
143.0069961064696
 10
928.5265748926942
 20
140.6975950297115
 10
930.5265748926942
 20
139.5428944913319
 10
932.5265748926943
 20
140.6975950297115
  0
CIRCLE
  5
12EA
330
2
100
AcDbEntity
  8
0
100
AcDbCircle
 10
930.5265748926942
 20
141.8522955680906
 30
0.0
 40
2.3094010767585
  0
LINE
  5
12EB
330
2
100
AcDbEntity
  8
CENTER
100
AcDbLine
 10
930.5265748926924
 20
147.8107258153846
 30
0.0
 11
930.5265748926924
 21
135.8938653207966
 31
0.0
  0
LINE
  5
12EC
330
2
100
AcDbEntity
  8
CENTER
100
AcDbLine
 10
924.5681446453984
 20
141.8522955680906
 30
0.0
 11
936.4850051399864
 21
141.8522955680906
 31
0.0
  0
ARC
  5
12ED
330
2
100
AcDbEntity
  8
0
100
AcDbCircle
 10
930.5265748926942
 20
79.63229556809082
 30
0.0
 40
4.25000000000019
100
AcDbArc
 50
157.0991355555478
 51
113.5789623545196
  0
ARC
  5
12EE
330
2
100
AcDbEntity
  8
0
100
AcDbCircle
 10
930.5265748926942
 20
79.63229556809082
 30
0.0
 40
3.730384757729381
100
AcDbArc
 50
141.5287333511352
 51
129.1493645588748
  0
LWPOLYLINE
  5
12EF
330
2
100
AcDbEntity
  8
0
100
AcDbPolyline
 90
        6
 70
     1
 43
0.0
 10
932.5265748926943
 20
80.78699610646987
 10
930.5265748926942
 20
81.9416966448494
 10
928.5265748926942
 20
80.78699610646987
 10
928.5265748926942
 20
78.47759502971172
 10
930.5265748926942
 20
77.32289449133219
 10
932.5265748926943
 20
78.47759502971172
  0
CIRCLE
  5
12F0
330
2
100
AcDbEntity
  8
0
100
AcDbCircle
 10
930.5265748926942
 20
79.63229556809082
 30
0.0
 40
2.3094010767585
  0
LINE
  5
12F1
330
2
100
AcDbEntity
  8
CENTER
100
AcDbLine
 10
930.5265748926924
 20
85.59072581538485
 30
0.0
 11
930.5265748926924
 21
73.67386532079681
 31
0.0
  0
LINE
  5
12F2
330
2
100
AcDbEntity
  8
CENTER
100
AcDbLine
 10
924.5681446453984
 20
79.63229556809082
 30
0.0
 11
936.4850051399864
 21
79.63229556809082
 31
0.0
  0
ARC
  5
12F3
330
2
100
AcDbEntity
  8
0
100
AcDbCircle
 10
868.306574892694
 20
79.63229556809037
 30
0.0
 40
4.25000000000019
100
AcDbArc
 50
66.42103764559411
 51
22.90086444441672
  0
ARC
  5
12F4
330
2
100
AcDbEntity
  8
0
100
AcDbCircle
 10
868.306574892694
 20
79.63229556809037
 30
0.0
 40
3.730384757729381
100
AcDbArc
 50
50.85063544125946
 51
38.47126664869841
  0
LWPOLYLINE
  5
12F5
330
2
100
AcDbEntity
  8
0
100
AcDbPolyline
 90
        6
 70
     1
 43
0.0
 10
870.306574892694
 20
80.78699610646987
 10
868.306574892694
 20
81.94169664484894
 10
866.3065748926939
 20
80.78699610646987
 10
866.3065748926939
 20
78.47759502971126
 10
868.306574892694
 20
77.32289449133219
 10
870.306574892694
 20
78.47759502971126
  0
CIRCLE
  5
12F6
330
2
100
AcDbEntity
  8
0
100
AcDbCircle
 10
868.306574892694
 20
79.63229556809037
 30
0.0
 40
2.3094010767585
  0
LINE
  5
12F7
330
2
100
AcDbEntity
  8
CENTER
100
AcDbLine
 10
868.3065748926932
 20
85.59072581538439
 30
0.0
 11
868.3065748926932
 21
73.67386532079635
 31
0.0
  0
LINE
  5
12F8
330
2
100
AcDbEntity
  8
CENTER
100
AcDbLine
 10
862.3481446453991
 20
79.63229556809037
 30
0.0
 11
874.2650051399872
 21
79.63229556809037
 31
0.0
  0
LINE
  5
12F9
330
2
100
AcDbEntity
  8
HIDS
100
AcDbLine
 10
890.9165748926927
 20
109.9922955680905
 30
0.0
 11
890.9165748926927
 21
101.5422955680902
 31
0.0
  0
LINE
  5
12FA
330
2
100
AcDbEntity
  8
HIDS
100
AcDbLine
 10
890.5832415593597
 20
109.9922955680905
 30
0.0
 11
890.5832415593597
 21
101.2089622347571
 31
0.0
  0
LINE
  5
12FB
330
2
100
AcDbEntity
  8
HIDS
100
AcDbLine
 10
887.2499082260258
 20
109.9922955680905
 30
0.0
 11
887.2499082260258
 21
102.4035473273639
 31
0.0
  0
LINE
  5
12FC
330
2
100
AcDbEntity
  8
HIDS
100
AcDbLine
 10
886.9165748926928
 20
109.9922955680905
 30
0.0
 11
886.9165748926928
 21
102.9120656864075
 31
0.0
  0
LINE
  5
12FD
330
2
100
AcDbEntity
  8
CENTER
  6
CENS
100
AcDbLine
 10
888.9165748926927
 20
149.4214771685725
 30
0.0
 11
888.9165748926927
 21
99.29004522353361
 31
0.0
  0
LINE
  5
12FE
330
2
100
AcDbEntity
  8
HIDS
100
AcDbLine
 10
890.9165748926927
 20
109.9922955680905
 30
0.0
 11
890.9165748926927
 21
98.6877321168491
 31
0.0
  0
LINE
  5
12FF
330
2
100
AcDbEntity
  8
HIDS
100
AcDbLine
 10
887.8873728387782
 20
101.5422955680902
 30
0.0
 11
888.9165748926927
 21
101.5422955680902
 31
0.0
  0
LINE
  5
1300
330
2
100
AcDbEntity
  8
0
100
AcDbLine
 10
887.7165748926929
 20
100.7422955680904
 30
0.0
 11
888.5739506715919
 21
100.7422955680904
 31
0.0
  0
LINE
  5
1301
330
2
100
AcDbEntity
  8
0
100
AcDbLine
 10
886.9165748926928
 20
102.9120656864075
 30
0.0
 11
886.9165748926928
 21
101.5422955680902
 31
0.0
  0
LINE
  5
1302
330
2
100
AcDbEntity
  8
HOJO
100
AcDbLine
 10
887.2499082260258
 20
102.4035473273639
 30
0.0
 11
887.2499082260258
 21
101.2089622347571
 31
0.0
  0
LINE
  5
1303
330
2
100
AcDbEntity
  8
0
100
AcDbLine
 10
886.9165748926928
 20
101.5422955680902
 30
0.0
 11
887.8873728387782
 21
101.5422955680902
 31
0.0
  0
LINE
  5
1304
330
2
100
AcDbEntity
  8
0
100
AcDbLine
 10
886.9165748926928
 20
101.5422955680902
 30
0.0
 11
887.7165748926929
 21
100.7422955680904
 31
0.0
  0
LINE
  5
1305
330
2
100
AcDbEntity
  8
HIDS
100
AcDbLine
 10
888.5739506715919
 20
100.7422955680904
 30
0.0
 11
888.9165748926927
 21
100.7422955680904
 31
0.0
  0
LINE
  5
1306
330
2
100
AcDbEntity
  8
HIDS
100
AcDbLine
 10
890.9165748926927
 20
101.5422955680902
 30
0.0
 11
890.1165748926926
 21
100.7422955680904
 31
0.0
  0
LINE
  5
1307
330
2
100
AcDbEntity
  8
HIDS
100
AcDbLine
 10
890.1165748926926
 20
100.7422955680904
 30
0.0
 11
888.9165748926927
 21
100.7422955680904
 31
0.0
  0
LINE
  5
1308
330
2
100
AcDbEntity
  8
HIDS
100
AcDbLine
 10
890.9165748926927
 20
101.5422955680902
 30
0.0
 11
888.9165748926927
 21
101.5422955680902
 31
0.0
  0
LINE
  5
1309
330
2
100
AcDbEntity
  8
HIDS
100
AcDbLine
 10
890.5832415593597
 20
101.2089622347571
 30
0.0
 11
890.5832415593597
 21
98.9298139396511
 31
0.0
  0
LINE
  5
130A
330
2
100
AcDbEntity
  8
HIDS
100
AcDbLine
 10
885.5398858063146
 20
115.7422955680905
 30
0.0
 11
892.4165748926927
 21
115.7422955680905
 31
0.0
  0
LINE
  5
130B
330
2
100
AcDbEntity
  8
HIDS
100
AcDbLine
 10
887.5055505874536
 20
119.4422955680908
 30
0.0
 11
892.4165748926927
 21
119.4422955680908
 31
0.0
  0
LINE
  5
130C
330
2
100
AcDbEntity
  8
HIDS
100
AcDbLine
 10
891.8969596504224
 20
119.7422955680905
 30
0.0
 11
887.7305790001722
 21
119.7422955680905
 31
0.0
  0
LINE
  5
130D
330
2
100
AcDbEntity
  8
HIDS
100
AcDbLine
 10
890.9165748926927
 20
114.075628901424
 30
0.0
 11
886.9165748926928
 21
114.075628901424
 31
0.0
  0
LINE
  5
130E
330
2
100
AcDbEntity
  8
HIDS
100
AcDbLine
 10
885.5398858063146
 20
115.7422955680905
 30
0.0
 11
892.9165748926928
 21
115.7422955680905
 31
0.0
  0
LINE
  5
130F
330
2
100
AcDbEntity
  8
0
100
AcDbLine
 10
884.6856550300365
 20
111.4922955680905
 30
0.0
 11
888.9165748926927
 21
111.4922955680905
 31
0.0
  0
LINE
  5
1310
330
2
100
AcDbEntity
  8
0
100
AcDbLine
 10
884.6856550300365
 20
109.9922955680905
 30
0.0
 11
888.9165748926927
 21
109.9922955680905
 31
0.0
  0
LINE
  5
1311
330
2
100
AcDbEntity
  8
0
100
AcDbLine
 10
885.4165748926927
 20
119.4422955680908
 30
0.0
 11
885.4165748926927
 21
115.7422955680905
 31
0.0
  0
LINE
  5
1312
330
2
100
AcDbEntity
  8
0
100
AcDbLine
 10
886.9165748926928
 20
111.4922955680905
 30
0.0
 11
886.9165748926928
 21
109.9922955680905
 31
0.0
  0
LINE
  5
1313
330
2
100
AcDbEntity
  8
HOJO
100
AcDbLine
 10
887.2499082260258
 20
111.4922955680905
 30
0.0
 11
887.2499082260258
 21
109.9922955680905
 31
0.0
  0
LINE
  5
1314
330
2
100
AcDbEntity
  8
HIDS
100
AcDbLine
 10
886.9165748926928
 20
115.7422955680905
 30
0.0
 11
887.2499082260258
 21
114.075628901424
 31
0.0
  0
LINE
  5
1315
330
2
100
AcDbEntity
  8
0
100
AcDbLine
 10
885.4165748926927
 20
115.7422955680905
 30
0.0
 11
885.5398858063146
 21
115.7422955680905
 31
0.0
  0
LINE
  5
1316
330
2
100
AcDbEntity
  8
HIDS
100
AcDbLine
 10
887.2499082260258
 20
114.075628901424
 30
0.0
 11
887.2499082260258
 21
111.4922955680905
 31
0.0
  0
LINE
  5
1317
330
2
100
AcDbEntity
  8
HIDS
100
AcDbLine
 10
886.9165748926928
 20
115.7422955680905
 30
0.0
 11
886.9165748926928
 21
111.4922955680905
 31
0.0
  0
LINE
  5
1318
330
2
100
AcDbEntity
  8
HIDS
100
AcDbLine
 10
886.4165748926927
 20
115.7422955680905
 30
0.0
 11
886.4165748926927
 21
111.4922955680905
 31
0.0
  0
LINE
  5
1319
330
2
100
AcDbEntity
  8
0
100
AcDbLine
 10
887.7305790001722
 20
119.7422955680905
 30
0.0
 11
885.9361901349641
 21
119.7422955680905
 31
0.0
  0
LINE
  5
131A
330
2
100
AcDbEntity
  8
0
100
AcDbLine
 10
885.4165748926927
 20
119.4422955680908
 30
0.0
 11
885.9361901349641
 21
119.7422955680905
 31
0.0
  0
LINE
  5
131B
330
2
100
AcDbEntity
  8
0
100
AcDbLine
 10
885.4165748926927
 20
119.4422955680908
 30
0.0
 11
887.5055505874536
 21
119.4422955680908
 31
0.0
  0
LINE
  5
131C
330
2
100
AcDbEntity
  8
HIDS
100
AcDbLine
 10
892.4165748926927
 20
115.7422955680905
 30
0.0
 11
892.4165748926927
 21
119.4422955680908
 31
0.0
  0
LINE
  5
131D
330
2
100
AcDbEntity
  8
HIDS
100
AcDbLine
 10
892.9165748926928
 20
123.9828582449559
 30
0.0
 11
892.9165748926928
 21
115.7422955680905
 31
0.0
  0
LINE
  5
131E
330
2
100
AcDbEntity
  8
HOJO
100
AcDbLine
 10
890.5832415593597
 20
111.4922955680905
 30
0.0
 11
890.5832415593597
 21
109.9922955680905
 31
0.0
  0
LINE
  5
131F
330
2
100
AcDbEntity
  8
0
100
AcDbLine
 10
890.9165748926927
 20
111.4922955680905
 30
0.0
 11
890.9165748926927
 21
109.9922955680905
 31
0.0
  0
LINE
  5
1320
330
2
100
AcDbEntity
  8
0
100
AcDbLine
 10
888.9165748926927
 20
109.9922955680905
 30
0.0
 11
893.9679512132672
 21
109.9922955680905
 31
0.0
  0
LINE
  5
1321
330
2
100
AcDbEntity
  8
0
100
AcDbLine
 10
888.9165748926927
 20
111.4922955680905
 30
0.0
 11
893.9679512132672
 21
111.4922955680905
 31
0.0
  0
LINE
  5
1322
330
2
100
AcDbEntity
  8
HIDS
100
AcDbLine
 10
890.9165748926927
 20
115.7422955680905
 30
0.0
 11
890.5832415593597
 21
114.075628901424
 31
0.0
  0
LINE
  5
1323
330
2
100
AcDbEntity
  8
HIDS
100
AcDbLine
 10
890.9165748926927
 20
115.7422955680905
 30
0.0
 11
890.9165748926927
 21
111.4922955680905
 31
0.0
  0
LINE
  5
1324
330
2
100
AcDbEntity
  8
HIDS
100
AcDbLine
 10
890.5832415593597
 20
114.075628901424
 30
0.0
 11
890.5832415593597
 21
111.4922955680905
 31
0.0
  0
LINE
  5
1325
330
2
100
AcDbEntity
  8
HIDS
100
AcDbLine
 10
891.4165748926928
 20
115.7422955680905
 30
0.0
 11
891.4165748926928
 21
111.4922955680905
 31
0.0
  0
LINE
  5
1326
330
2
100
AcDbEntity
  8
CENTER
100
AcDbLine
 10
899.4165748926928
 20
108.2422955680905
 30
0.0
 11
899.4165748926928
 21
113.2422955680905
 31
0.0
  0
LINE
  5
1327
330
2
100
AcDbEntity
  8
CENTER
100
AcDbLine
 10
896.9165748926927
 20
110.7422955680905
 30
0.0
 11
901.9165748926928
 21
110.7422955680905
 31
0.0
  0
LINE
  5
1328
330
2
100
AcDbEntity
  8
HIDS
100
AcDbLine
 10
891.8969596504224
 20
119.7422955680905
 30
0.0
 11
892.4165748926927
 21
119.4422955680908
 31
0.0
  0
LINE
  5
1329
330
2
100
AcDbEntity
  8
0
100
AcDbLine
 10
913.4165748926928
 20
109.9922955680905
 30
0.0
 11
904.8651985721191
 21
109.9922955680905
 31
0.0
  0
LINE
  5
132A
330
2
100
AcDbEntity
  8
0
100
AcDbLine
 10
904.8651985721191
 20
111.4922955680905
 30
0.0
 11
913.4165748926928
 21
111.4922955680905
 31
0.0
  0
LINE
  5
132B
330
2
100
AcDbEntity
  8
0
100
AcDbLine
 10
913.4165748926928
 20
111.4922955680905
 30
0.0
 11
913.4165748926928
 21
109.9922955680905
 31
0.0
  0
LINE
  5
132C
330
2
100
AcDbEntity
  8
CENTER
100
AcDbLine
 10
896.9165748926927
 20
110.7422955680905
 30
0.0
 11
901.9165748926928
 21
110.7422955680905
 31
0.0
  0
LINE
  5
132D
330
2
100
AcDbEntity
  8
CENTER
100
AcDbLine
 10
899.4165748926928
 20
108.2422955680905
 30
0.0
 11
899.4165748926928
 21
113.2422955680905
 31
0.0
  0
CIRCLE
  5
132E
330
2
100
AcDbEntity
  8
0
100
AcDbCircle
 10
899.4165748926928
 20
110.7422955680918
 30
0.0
 40
5.5
  0
ARC
  5
132F
330
2
100
AcDbEntity
  8
0
100
AcDbCircle
 10
899.416574892691
 20
110.7422955680905
 30
0.0
 40
6.654700538379415
100
AcDbArc
 50
6.471114411175151
 51
173.5288855888248
  0
ARC
  5
1330
330
2
100
AcDbEntity
  8
0
100
AcDbCircle
 10
899.416574892691
 20
110.7422955680905
 30
0.0
 40
6.654700538379415
100
AcDbArc
 50
186.4711144111751
 51
353.5288855888248
  0
LINE
  5
1331
330
2
100
AcDbEntity
  8
0
100
AcDbLine
 10
883.9165687215055
 20
144.7422934325164
 30
0.0
 11
893.9165687215057
 21
144.7422934325164
 31
0.0
  0
ARC
  5
1332
330
2
100
AcDbEntity
  8
0
100
AcDbCircle
 10
893.9165687215057
 20
140.7422934325164
 30
0.0
 40
4.0
100
AcDbArc
 50
0.0
 51
90.0
  0
LINE
  5
1333
330
2
100
AcDbEntity
  8
0
100
AcDbLine
 10
897.9165687215056
 20
140.7422934325164
 30
0.0
 11
897.9165687215056
 21
140.7422934325164
 31
0.0
  0
ARC
  5
1334
330
2
100
AcDbEntity
  8
0
100
AcDbCircle
 10
883.9165687215055
 20
140.7422934325164
 30
0.0
 40
4.0
100
AcDbArc
 50
90.0
 51
180.0
  0
CIRCLE
  5
1335
330
2
100
AcDbEntity
  8
CENTER
100
AcDbCircle
 10
899.416574892691
 20
110.7422955680932
 30
0.0
 40
35.00178566873169
  0
CIRCLE
  5
1336
330
2
100
AcDbEntity
  8
0
100
AcDbCircle
 10
899.4165748926928
 20
110.7422955680918
 30
0.0
 40
14.75
  0
CIRCLE
  5
1337
330
2
100
AcDbEntity
  8
HOJO
100
AcDbCircle
 10
874.6665748926927
 20
135.4922955680905
 30
0.0
 40
2.5
  0
CIRCLE
  5
1338
330
2
100
AcDbEntity
  8
0
100
AcDbCircle
 10
874.6665748926927
 20
135.4922955680905
 30
0.0
 40
2.0
  0
CIRCLE
  5
1339
330
2
100
AcDbEntity
  8
0
100
AcDbCircle
 10
874.6665748926927
 20
85.99229556809049
 30
0.0
 40
2.0
  0
CIRCLE
  5
133A
330
2
100
AcDbEntity
  8
HOJO
100
AcDbCircle
 10
874.6665748926927
 20
85.99229556809049
 30
0.0
 40
2.5
  0
CIRCLE
  5
133B
330
2
100
AcDbEntity
  8
0
100
AcDbCircle
 10
924.1665748926928
 20
85.99229556809049
 30
0.0
 40
2.0
  0
CIRCLE
  5
133C
330
2
100
AcDbEntity
  8
HOJO
100
AcDbCircle
 10
924.1665748926928
 20
85.99229556809049
 30
0.0
 40
2.5
  0
CIRCLE
  5
133D
330
2
100
AcDbEntity
  8
0
100
AcDbCircle
 10
924.1665748926928
 20
135.4922955680905
 30
0.0
 40
2.0
  0
CIRCLE
  5
133E
330
2
100
AcDbEntity
  8
HOJO
100
AcDbCircle
 10
924.1665748926928
 20
135.4922955680905
 30
0.0
 40
2.5
  0
CIRCLE
  5
133F
330
2
100
AcDbEntity
  8
0
100
AcDbCircle
 10
899.416574892691
 20
110.7422955680905
 30
0.0
 40
22.5
  0
LINE
  5
2A52
330
2
100
AcDbEntity
  8
CENTER
100
AcDbLine
 10
530.937490179945
 20
150.2275769423286
 30
0.0
 11
609.9080529284214
 21
71.25701419385046
 31
0.0
  0
LINE
  5
2A53
330
2
100
AcDbEntity
  8
CENTER
100
AcDbLine
 10
609.9080529283968
 20
150.2275769423275
 30
0.0
 11
530.937490179919
 21
71.2570141938512
 31
0.0
  0
CIRCLE
  5
2A54
330
2
100
AcDbEntity
  8
CENTER
100
AcDbCircle
 10
570.4227715541725
 20
110.7422955681021
 30
0.0
 40
44.0
  0
CIRCLE
  5
2A55
330
2
100
AcDbEntity
  8
0
100
AcDbCircle
 10
570.4227715541725
 20
110.7422955681032
 30
0.0
 40
30.0
  0
CIRCLE
  5
2A56
330
2
100
AcDbEntity
  8
0
100
AcDbCircle
 10
570.4227715541725
 20
110.7422955681032
 30
0.0
 40
24.00000000000017
  0
CIRCLE
  5
2A57
330
2
100
AcDbEntity
  8
0
100
AcDbCircle
 10
570.4227715541725
 20
110.7422955681032
 30
0.0
 40
19.0
  0
ARC
  5
2A58
330
2
100
AcDbEntity
  8
0
100
AcDbCircle
 10
570.4227715541734
 20
234.742295568102
 30
0.0
 40
160.0
100
AcDbArc
 50
264.0709145121202
 51
275.9290854878797
  0
ARC
  5
2A59
330
2
100
AcDbEntity
  8
0
100
AcDbCircle
 10
570.4227715541743
 20
-13.25770443189787
 30
0.0
 40
160.0
100
AcDbArc
 50
84.07091451212021
 51
95.92908548787979
  0
LINE
  5
2A5E
330
2
100
AcDbEntity
  8
0
100
AcDbLine
 10
114.598217053921
 20
83.24229556810607
 30
0.0
 11
125.0982170539219
 21
83.24229556810653
 31
0.0
  0
LINE
  5
2A5F
330
2
100
AcDbEntity
  8
0
100
AcDbLine
 10
113.598217053921
 20
101.4686770726063
 30
0.0
 11
128.0982170539219
 21
101.4686770726063
 31
0.0
  0
LINE
  5
2A60
330
2
100
AcDbEntity
  8
0
100
AcDbLine
 10
125.0982170539219
 20
88.24229556810198
 30
0.0
 11
116.598217053921
 21
88.24229556810198
 31
0.0
  0
LINE
  5
2A61
330
2
100
AcDbEntity
  8
0
100
AcDbLine
 10
113.5982170539201
 20
120.0159140635973
 30
0.0
 11
128.0982170539219
 21
120.015914063598
 31
0.0
  0
LINE
  5
2A62
330
2
100
AcDbEntity
  8
0
100
AcDbLine
 10
114.598217053921
 20
138.2422955680981
 30
0.0
 11
125.0982170539219
 21
138.2422955680976
 31
0.0
  0
LINE
  5
2A63
330
2
100
AcDbEntity
  8
0
100
AcDbLine
 10
125.0982170539219
 20
133.2422955681019
 30
0.0
 11
116.5982170539147
 21
133.2422955681019
 31
0.0
  0
LINE
  5
2A64
330
2
100
AcDbEntity
  8
0
100
AcDbLine
 10
113.5982170539147
 20
137.2422955680985
 30
0.0
 11
113.598217053921
 21
84.24229556810606
 31
0.0
  0
LINE
  5
2A65
330
2
100
AcDbEntity
  8
0
100
AcDbLine
 10
104.0982170539256
 20
76.24229556810198
 30
0.0
 11
104.0982170539274
 21
145.2422955681019
 31
0.0
  0
ARC
  5
2A67
330
2
100
AcDbEntity
  8
0
100
AcDbCircle
 10
114.598217053921
 20
80.24229556810608
 30
0.0
 40
3.0
100
AcDbArc
 50
90.0
 51
126.8698976458212
  0
ARC
  5
2A68
330
2
100
AcDbEntity
  8
0
100
AcDbCircle
 10
107.0982170539265
 20
79.24229556810562
 30
0.0
 40
3.0
100
AcDbArc
 50
90.0
 51
180.0
  0
ARC
  5
2A69
330
2
100
AcDbEntity
  8
0
100
AcDbCircle
 10
111.598217053921
 20
84.24229556810585
 30
0.0
 40
2.0
100
AcDbArc
 50
270.0
 51
0.0
  0
LINE
  5
2A6A
330
2
100
AcDbEntity
  8
0
100
AcDbLine
 10
92.09821705392561
 20
74.24229556810198
 30
0.0
 11
102.0982170539256
 21
74.24229556810198
 31
0.0
  0
LINE
  5
2A6B
330
2
100
AcDbEntity
  8
0
100
AcDbLine
 10
92.09821705392561
 20
74.74229556810198
 30
0.0
 11
102.0982170539256
 21
74.74229556810198
 31
0.0
  0
ARC
  5
2A6C
330
2
100
AcDbEntity
  8
0
100
AcDbCircle
 10
102.0982170539256
 20
76.24229556810198
 30
0.0
 40
2.0
100
AcDbArc
 50
270.0
 51
0.0
  0
LINE
  5
2A6D
330
2
100
AcDbEntity
  8
0
100
AcDbLine
 10
107.0982170539256
 20
82.24229556810561
 30
0.0
 11
111.598217053921
 21
82.24229556810584
 31
0.0
  0
ARC
  5
2A6E
330
2
100
AcDbEntity
  8
0
100
AcDbCircle
 10
102.0982170539256
 20
76.74229556810198
 30
0.0
 40
2.0
100
AcDbArc
 50
270.0
 51
0.0
  0
ARC
  5
2A6F
330
2
100
AcDbEntity
  8
0
100
AcDbCircle
 10
116.598217053921
 20
85.24229556810198
 30
0.0
 40
3.0
100
AcDbArc
 50
90.0
 51
180.0
  0
ARC
  5
2A70
330
2
100
AcDbEntity
  8
0
100
AcDbCircle
 10
116.5982170539147
 20
136.2422955681019
 30
0.0
 40
3.0
100
AcDbArc
 50
180.0
 51
270.0
  0
LINE
  5
2A71
330
2
100
AcDbEntity
  8
0
100
AcDbLine
 10
102.0982170539256
 20
147.2422955681019
 30
0.0
 11
92.09821705392561
 21
147.2422955681019
 31
0.0
  0
LINE
  5
2A72
330
2
100
AcDbEntity
  8
0
100
AcDbLine
 10
102.0982170539256
 20
146.7422955681019
 30
0.0
 11
92.09821705392561
 21
146.7422955681019
 31
0.0
  0
ARC
  5
2A73
330
2
100
AcDbEntity
  8
0
100
AcDbCircle
 10
102.0982170539256
 20
145.2422955681019
 30
0.0
 40
2.0
100
AcDbArc
 50
0.0
 51
90.0
  0
ARC
  5
2A74
330
2
100
AcDbEntity
  8
0
100
AcDbCircle
 10
102.0982170539256
 20
144.7422955681019
 30
0.0
 40
2.0
100
AcDbArc
 50
0.0
 51
90.0
  0
ARC
  5
2A75
330
2
100
AcDbEntity
  8
0
100
AcDbCircle
 10
114.598217053921
 20
141.2422955680981
 30
0.0
 40
3.0
100
AcDbArc
 50
233.1301023541299
 51
270.0
  0
ARC
  5
2A76
330
2
100
AcDbEntity
  8
0
100
AcDbCircle
 10
111.598217053921
 20
137.2422955680983
 30
0.0
 40
2.0
100
AcDbArc
 50
0.0
 51
90.0
  0
LINE
  5
2A77
330
2
100
AcDbEntity
  8
0
100
AcDbLine
 10
107.0982170539256
 20
139.2422955680983
 30
0.0
 11
111.598217053921
 21
139.2422955680983
 31
0.0
  0
ARC
  5
2A78
330
2
100
AcDbEntity
  8
0
100
AcDbCircle
 10
107.0982170539265
 20
142.2422955680985
 30
0.0
 40
3.0
100
AcDbArc
 50
180.0
 51
270.0
  0
LINE
  5
2A79
330
2
100
AcDbEntity
  8
CENTER
100
AcDbLine
 10
164.0982170539219
 20
64.74229556810124
 30
0.0
 11
164.0982170539215
 21
156.7422955681015
 31
0.0
  0
LINE
  5
2A7A
330
2
100
AcDbEntity
  8
CENTER
100
AcDbLine
 10
124.6129356796703
 20
150.2275769423522
 30
0.0
 11
203.583498428149
 21
71.25701419387613
 31
0.0
  0
LINE
  5
2A7B
330
2
100
AcDbEntity
  8
CENTER
100
AcDbLine
 10
203.5834984281731
 20
150.2275769423524
 30
0.0
 11
124.6129356796958
 21
71.25701419387573
 31
0.0
  0
ARC
  5
2A7C
330
2
100
AcDbEntity
  8
0
100
AcDbCircle
 10
229.0818134988286
 20
130.3688152480865
 30
0.0
 40
30.0
100
AcDbArc
 50
166.1581756815789
 51
185.9290854878501
  0
LINE
  5
2A7D
330
2
100
AcDbEntity
  8
CENTER
100
AcDbLine
 10
195.0982170539201
 20
148.9922955681026
 30
0.0
 11
195.098217053921
 21
134.4922955681024
 31
0.0
  0
LINE
  5
2A7E
330
2
100
AcDbEntity
  8
0
100
AcDbLine
 10
135.0626831479895
 20
131.2042363452273
 30
0.0
 11
143.6362762767968
 21
139.7778294740348
 31
0.0
  0
CIRCLE
  5
2A7F
330
2
100
AcDbEntity
  8
0
100
AcDbCircle
 10
132.5982170539219
 20
135.242295568101
 30
0.0
 40
1.6
  0
CIRCLE
  5
2A80
330
2
100
AcDbEntity
  8
HOJO
100
AcDbCircle
 10
132.5982170539219
 20
135.242295568101
 30
0.0
 40
2.0
  0
LINE
  5
2A81
330
2
100
AcDbEntity
  8
CENTER
100
AcDbLine
 10
132.598217053921
 20
140.4155006488581
 30
0.0
 11
132.5982170539219
 21
130.069090487344
 31
0.0
  0
LINE
  5
2A82
330
2
100
AcDbEntity
  8
CENTER
100
AcDbLine
 10
133.0982170539238
 20
148.9922955681024
 30
0.0
 11
133.0982170539229
 21
134.4922955681019
 31
0.0
  0
LINE
  5
2A83
330
2
100
AcDbEntity
  8
0
100
AcDbLine
 10
133.6484695856162
 20
132.6184499076004
 30
0.0
 11
142.2220627144243
 21
141.1920430364079
 31
0.0
  0
LINE
  5
2A84
330
2
100
AcDbEntity
  8
0
100
AcDbLine
 10
194.5479645222286
 20
132.6184499076004
 30
0.0
 11
185.9743713934204
 21
141.1920430364081
 31
0.0
  0
LINE
  5
2A85
330
2
100
AcDbEntity
  8
0
100
AcDbLine
 10
193.1337509598553
 20
131.2042363452275
 30
0.0
 11
184.560157831048
 21
139.7778294740348
 31
0.0
  0
LINE
  5
2A86
330
2
100
AcDbEntity
  8
0
100
AcDbLine
 10
128.4682170539237
 20
79.74229556810198
 30
0.0
 11
128.4682170539218
 21
141.7422955681019
 31
0.0
  0
LINE
  5
2A87
330
2
100
AcDbEntity
  8
0
100
AcDbLine
 10
128.0982170539219
 20
79.74229556812699
 30
0.0
 11
128.0982170539147
 21
141.7422955681258
 31
0.0
  0
CIRCLE
  5
2A88
330
2
100
AcDbEntity
  8
0
100
AcDbCircle
 10
195.0982170539219
 20
79.74229556810221
 30
0.0
 40
3.730384757729268
  0
CIRCLE
  5
2A89
330
2
100
AcDbEntity
  8
0
100
AcDbCircle
 10
195.0982170539219
 20
79.74229556810221
 30
0.0
 40
4.250000000000085
  0
LINE
  5
2A8A
330
2
100
AcDbEntity
  8
CENTER
100
AcDbLine
 10
200.7714221346797
 20
86.24229556810243
 30
0.0
 11
190.4250119731651
 21
86.24229556810243
 31
0.0
  0
LINE
  5
2A8B
330
2
100
AcDbEntity
  8
CENTER
100
AcDbLine
 10
202.348217053922
 20
79.74229556810221
 30
0.0
 11
187.8482170539219
 21
79.74229556810221
 31
0.0
  0
LINE
  5
2A8C
330
2
100
AcDbEntity
  8
0
100
AcDbLine
 10
194.5479645222286
 20
88.8661412286037
 30
0.0
 11
185.9743713934204
 21
80.29254809979622
 31
0.0
  0
LINE
  5
2A8D
330
2
100
AcDbEntity
  8
0
100
AcDbLine
 10
192.0982170539219
 20
74.7422955681047
 30
0.0
 11
195.0982170539219
 21
74.7422955681047
 31
0.0
  0
LINE
  5
2A8E
330
2
100
AcDbEntity
  8
0
100
AcDbLine
 10
193.1337509598553
 20
90.28035479097681
 30
0.0
 11
184.560157831048
 21
81.70676166216933
 31
0.0
  0
LINE
  5
2A8F
330
2
100
AcDbEntity
  8
0
100
AcDbLine
 10
131.5982170539219
 20
127.6687024392947
 30
0.0
 11
131.5982170539219
 21
93.8158886969097
 31
0.0
  0
LINE
  5
2A90
330
2
100
AcDbEntity
  8
0
100
AcDbLine
 10
133.5982170539219
 20
127.6687024392947
 30
0.0
 11
133.5982170539219
 21
93.8158886969097
 31
0.0
  0
CIRCLE
  5
2A91
330
2
100
AcDbEntity
  8
0
100
AcDbCircle
 10
164.0982170539219
 20
110.7422955681022
 30
0.0
 40
19.0
  0
CIRCLE
  5
2A92
330
2
100
AcDbEntity
  8
0
100
AcDbCircle
 10
164.0982170539219
 20
110.7422955681022
 30
0.0
 40
19.5774
  0
CIRCLE
  5
2A93
330
2
100
AcDbEntity
  8
0
100
AcDbCircle
 10
164.0982170539219
 20
110.7422955681022
 30
0.0
 40
23.0
  0
CIRCLE
  5
2A94
330
2
100
AcDbEntity
  8
0
100
AcDbCircle
 10
164.0982170539219
 20
110.7422955681022
 30
0.0
 40
22.42259999999999
  0
CIRCLE
  5
2A95
330
2
100
AcDbEntity
  8
0
100
AcDbCircle
 10
164.0982170539219
 20
110.7422955681022
 30
0.0
 40
25.0
  0
CIRCLE
  5
2A96
330
2
100
AcDbEntity
  8
0
100
AcDbCircle
 10
164.0982170539219
 20
110.7422955681022
 30
0.0
 40
25.5
  0
LINE
  5
2A97
330
2
100
AcDbEntity
  8
0
100
AcDbLine
 10
147.1718101827292
 20
78.24229556810198
 30
0.0
 11
181.0246239251147
 21
78.24229556810175
 31
0.0
  0
LINE
  5
2A98
330
2
100
AcDbEntity
  8
0
100
AcDbLine
 10
147.1718101827292
 20
80.24229556810198
 30
0.0
 11
181.0246239251147
 21
80.24229556810198
 31
0.0
  0
ARC
  5
2A99
330
2
100
AcDbEntity
  8
0
100
AcDbCircle
 10
164.0982170539183
 20
234.7422955681012
 30
0.0
 40
160.0
100
AcDbArc
 50
264.0709145121202
 51
275.9290854878797
  0
ARC
  5
2A9A
330
2
100
AcDbEntity
  8
0
100
AcDbCircle
 10
133.4682170539236
 20
79.74229556810221
 30
0.0
 40
5.0
100
AcDbArc
 50
180.0
 51
270.0
  0
LINE
  5
2A9B
330
2
100
AcDbEntity
  8
CENTER
100
AcDbLine
 10
125.8482170539219
 20
79.74229556810129
 30
0.0
 11
140.3482170539229
 21
79.74229556810175
 31
0.0
  0
ARC
  5
2A9C
330
2
100
AcDbEntity
  8
0
100
AcDbCircle
 10
125.0982170539219
 20
80.24229556810652
 30
0.0
 40
3.0
100
AcDbArc
 50
0.0
 51
90.0
  0
ARC
  5
2A9D
330
2
100
AcDbEntity
  8
0
100
AcDbCircle
 10
125.0982170539219
 20
85.24229556810198
 30
0.0
 40
3.0
100
AcDbArc
 50
0.0
 51
90.0
  0
ARC
  5
2A9E
330
2
100
AcDbEntity
  8
0
100
AcDbCircle
 10
133.0982170539219
 20
79.74229556812699
 30
0.0
 40
5.0
100
AcDbArc
 50
180.0
 51
270.0
  0
CIRCLE
  5
2A9F
330
2
100
AcDbEntity
  8
0
100
AcDbCircle
 10
133.0982170539219
 20
79.74229556810221
 30
0.0
 40
3.730384757729268
  0
CIRCLE
  5
2AA0
330
2
100
AcDbEntity
  8
0
100
AcDbCircle
 10
133.0982170539219
 20
79.74229556810221
 30
0.0
 40
4.250000000000085
  0
LINE
  5
2AA1
330
2
100
AcDbEntity
  8
CENTER
100
AcDbLine
 10
133.0982170539229
 20
72.49229556810175
 30
0.0
 11
133.0982170539229
 21
86.99229556810198
 31
0.0
  0
LINE
  5
2AA2
330
2
100
AcDbEntity
  8
0
100
AcDbLine
 10
135.0626831479895
 20
90.28035479097681
 30
0.0
 11
143.6362762767968
 21
81.70676166216933
 31
0.0
  0
LINE
  5
2AA3
330
2
100
AcDbEntity
  8
0
100
AcDbLine
 10
133.6484695856162
 20
88.8661412286037
 30
0.0
 11
142.2220627144243
 21
80.29254809979622
 31
0.0
  0
LINE
  5
2AA4
330
2
100
AcDbEntity
  8
0
100
AcDbLine
 10
131.0982170539219
 20
80.89699610648152
 30
0.0
 11
131.0982170539219
 21
78.58759502972313
 31
0.0
  0
LINE
  5
2AA5
330
2
100
AcDbEntity
  8
0
100
AcDbLine
 10
133.0982170539219
 20
82.05169664486081
 30
0.0
 11
135.0982170539219
 21
80.89699610648152
 31
0.0
  0
LINE
  5
2AA6
330
2
100
AcDbEntity
  8
0
100
AcDbLine
 10
135.0982170539219
 20
78.5875950297229
 30
0.0
 11
133.0982170539219
 21
77.43289449134383
 31
0.0
  0
LINE
  5
2AA7
330
2
100
AcDbEntity
  8
0
100
AcDbLine
 10
135.0982170539219
 20
80.89699610648152
 30
0.0
 11
135.0982170539219
 21
78.5875950297229
 31
0.0
  0
LINE
  5
2AA8
330
2
100
AcDbEntity
  8
0
100
AcDbLine
 10
133.0982170539219
 20
82.05169664486058
 30
0.0
 11
131.0982170539219
 21
80.89699610648152
 31
0.0
  0
LINE
  5
2AA9
330
2
100
AcDbEntity
  8
0
100
AcDbLine
 10
131.0982170539219
 20
78.58759502972313
 30
0.0
 11
133.0982170539219
 21
77.43289449134383
 31
0.0
  0
LINE
  5
2AAA
330
2
100
AcDbEntity
  8
0
100
AcDbLine
 10
145.258393020904
 20
80.62289790554538
 30
0.0
 11
144.493026156174
 21
78.77513884052266
 31
0.0
  0
ARC
  5
2AAB
330
2
100
AcDbEntity
  8
0
100
AcDbCircle
 10
147.1718101827292
 20
85.24229556810198
 30
0.0
 40
5.0
100
AcDbArc
 50
224.9999999999769
 51
270.0
  0
ARC
  5
2AAC
330
2
100
AcDbEntity
  8
0
100
AcDbCircle
 10
147.1718101827292
 20
85.24229556810198
 30
0.0
 40
7.0
100
AcDbArc
 50
224.9999999999769
 51
270.0
  0
LINE
  5
2AAD
330
2
100
AcDbEntity
  8
0
100
AcDbLine
 10
136.0982170539228
 20
74.74229556810221
 30
0.0
 11
133.4682170539236
 21
74.74229556810221
 31
0.0
  0
ARC
  5
2AAE
330
2
100
AcDbEntity
  8
0
100
AcDbCircle
 10
136.0982170539219
 20
79.7422955681047
 30
0.0
 40
5.0
100
AcDbArc
 50
270.0
 51
283.841824318421
  0
LINE
  5
2AAF
330
2
100
AcDbEntity
  8
0
100
AcDbLine
 10
136.0982170539219
 20
74.7422955681047
 30
0.0
 11
133.0982170539219
 21
74.7422955681047
 31
0.0
  0
ARC
  5
2AB0
330
2
100
AcDbEntity
  8
0
100
AcDbCircle
 10
144.4716973739406
 20
45.75869912319828
 30
0.0
 40
30.0
100
AcDbArc
 50
84.07091451212021
 51
103.841824318421
  0
LINE
  5
2AB1
330
2
100
AcDbEntity
  8
0
100
AcDbLine
 10
133.9788193913656
 20
91.902471535084
 30
0.0
 11
132.1310603263428
 21
91.13710467035364
 31
0.0
  0
ARC
  5
2AB2
330
2
100
AcDbEntity
  8
0
100
AcDbCircle
 10
138.5982170539219
 20
93.8158886969097
 30
0.0
 40
5.0
100
AcDbArc
 50
180.0
 51
224.9999999999769
  0
ARC
  5
2AB3
330
2
100
AcDbEntity
  8
0
100
AcDbCircle
 10
138.5982170539219
 20
93.8158886969097
 30
0.0
 40
7.0
100
AcDbArc
 50
180.0
 51
224.9999999999769
  0
LINE
  5
2AB4
330
2
100
AcDbEntity
  8
0
100
AcDbLine
 10
182.9380410869408
 20
80.62289790554538
 30
0.0
 11
183.7034079516707
 21
78.77513884052288
 31
0.0
  0
ARC
  5
2AB5
330
2
100
AcDbEntity
  8
0
100
AcDbCircle
 10
181.0246239251147
 20
85.24229556810198
 30
0.0
 40
7.0
100
AcDbArc
 50
270.0
 51
315.000000000023
  0
ARC
  5
2AB6
330
2
100
AcDbEntity
  8
0
100
AcDbCircle
 10
181.0246239251147
 20
85.24229556810198
 30
0.0
 40
5.0
100
AcDbArc
 50
270.0
 51
315.000000000023
  0
ARC
  5
2AB7
330
2
100
AcDbEntity
  8
0
100
AcDbCircle
 10
183.7247367339042
 20
45.75869912319828
 30
0.0
 40
30.0
100
AcDbArc
 50
76.15817568157897
 51
95.92908548787979
  0
ARC
  5
2AB8
330
2
100
AcDbEntity
  8
0
100
AcDbCircle
 10
192.0982170539219
 20
79.7422955681047
 30
0.0
 40
5.0
100
AcDbArc
 50
256.1581756815789
 51
270.0
  0
LINE
  5
2AB9
330
2
100
AcDbEntity
  8
0
100
AcDbLine
 10
127.5982170539219
 20
101.4686770726063
 30
0.0
 11
127.5982170539219
 21
120.015914063598
 31
0.0
  0
LINE
  5
2ABA
330
2
100
AcDbEntity
  8
CENTER
100
AcDbLine
 10
127.4250119731642
 20
135.2422955681008
 30
0.0
 11
137.7714221346788
 21
135.2422955681013
 31
0.0
  0
ARC
  5
2ABB
330
2
100
AcDbEntity
  8
0
100
AcDbCircle
 10
125.0982170539219
 20
136.2422955681019
 30
0.0
 40
3.0
100
AcDbArc
 50
270.0
 51
0.0
  0
LINE
  5
2ABC
330
2
100
AcDbEntity
  8
0
100
AcDbLine
 10
133.9788193913656
 20
129.5821196011199
 30
0.0
 11
132.1310603263428
 21
130.3474864658501
 31
0.0
  0
ARC
  5
2ABD
330
2
100
AcDbEntity
  8
0
100
AcDbCircle
 10
138.5982170539219
 20
127.6687024392947
 30
0.0
 40
7.0
100
AcDbArc
 50
135.000000000023
 51
180.0
  0
ARC
  5
2ABE
330
2
100
AcDbEntity
  8
0
100
AcDbCircle
 10
138.5982170539219
 20
127.6687024392947
 30
0.0
 40
5.0
100
AcDbArc
 50
135.000000000023
 51
180.0
  0
LINE
  5
2ABF
330
2
100
AcDbEntity
  8
0
100
AcDbLine
 10
196.5982170539229
 20
93.8158886969097
 30
0.0
 11
196.5982170539229
 21
127.6687024392947
 31
0.0
  0
LINE
  5
2AC0
330
2
100
AcDbEntity
  8
0
100
AcDbLine
 10
194.5982170539229
 20
93.8158886969097
 30
0.0
 11
194.5982170539229
 21
127.6687024392947
 31
0.0
  0
ARC
  5
2AC1
330
2
100
AcDbEntity
  8
0
100
AcDbCircle
 10
40.09821705392186
 20
110.7422955681049
 30
0.0
 40
160.0
100
AcDbArc
 50
354.0709145121498
 51
5.929085487850143
  0
LINE
  5
2AC2
330
2
100
AcDbEntity
  8
0
100
AcDbLine
 10
195.0982170539219
 20
82.05169664486081
 30
0.0
 11
193.0982170539219
 21
80.89699610648152
 31
0.0
  0
LINE
  5
2AC3
330
2
100
AcDbEntity
  8
0
100
AcDbLine
 10
193.0982170539219
 20
78.5875950297229
 30
0.0
 11
195.0982170539219
 21
77.43289449134383
 31
0.0
  0
ARC
  5
2AC4
330
2
100
AcDbEntity
  8
0
100
AcDbCircle
 10
189.5982170539219
 20
93.8158886969097
 30
0.0
 40
5.0
100
AcDbArc
 50
315.000000000023
 51
0.0
  0
CIRCLE
  5
2AC5
330
2
100
AcDbEntity
  8
HOJO
100
AcDbCircle
 10
195.5982170539219
 20
86.24229556810243
 30
0.0
 40
2.0
  0
LINE
  5
2AC6
330
2
100
AcDbEntity
  8
0
100
AcDbLine
 10
193.0982170539219
 20
80.89699610648152
 30
0.0
 11
193.0982170539219
 21
78.5875950297229
 31
0.0
  0
ARC
  5
2AC7
330
2
100
AcDbEntity
  8
0
100
AcDbCircle
 10
195.0982170539219
 20
79.7422955681263
 30
0.0
 40
5.0
100
AcDbArc
 50
270.0
 51
0.0
  0
LINE
  5
2AC8
330
2
100
AcDbEntity
  8
CENTER
100
AcDbLine
 10
195.5982170539219
 20
81.06909048734539
 30
0.0
 11
195.5982170539219
 21
91.41550064885947
 31
0.0
  0
LINE
  5
2AC9
330
2
100
AcDbEntity
  8
CENTER
100
AcDbLine
 10
195.0982170539219
 20
72.49229556810198
 30
0.0
 11
195.0982170539219
 21
86.99229556810221
 31
0.0
  0
LINE
  5
2ACA
330
2
100
AcDbEntity
  8
0
100
AcDbLine
 10
197.0982170539219
 20
80.89699610648152
 30
0.0
 11
197.0982170539219
 21
78.58759502972313
 31
0.0
  0
LINE
  5
2ACB
330
2
100
AcDbEntity
  8
0
100
AcDbLine
 10
195.0982170539219
 20
82.05169664486058
 30
0.0
 11
197.0982170539219
 21
80.89699610648152
 31
0.0
  0
LINE
  5
2ACC
330
2
100
AcDbEntity
  8
0
100
AcDbLine
 10
197.0982170539219
 20
78.58759502972313
 30
0.0
 11
195.0982170539219
 21
77.43289449134383
 31
0.0
  0
LINE
  5
2ACD
330
2
100
AcDbEntity
  8
0
100
AcDbLine
 10
194.2176147164792
 20
91.90247153508423
 30
0.0
 11
196.065373781502
 21
91.13710467035408
 31
0.0
  0
ARC
  5
2ACE
330
2
100
AcDbEntity
  8
0
100
AcDbCircle
 10
189.5982170539219
 20
93.8158886969097
 30
0.0
 40
7.0
100
AcDbArc
 50
315.000000000023
 51
0.0
  0
CIRCLE
  5
2ACF
330
2
100
AcDbEntity
  8
0
100
AcDbCircle
 10
195.5982170539219
 20
86.24229556810243
 30
0.0
 40
1.6
  0
ARC
  5
2AD0
330
2
100
AcDbEntity
  8
0
100
AcDbCircle
 10
195.0982170539219
 20
82.74229556810471
 30
0.0
 40
5.0
100
AcDbArc
 50
0.0
 51
13.84182431842102
  0
LINE
  5
2AD1
330
2
100
AcDbEntity
  8
0
100
AcDbLine
 10
200.0982170539219
 20
82.74229556810471
 30
0.0
 11
200.0982170539219
 21
79.7422955681263
 31
0.0
  0
ARC
  5
2AD2
330
2
100
AcDbEntity
  8
0
100
AcDbCircle
 10
229.0818134988286
 20
91.1157758881229
 30
0.0
 40
30.0
100
AcDbArc
 50
174.0709145121498
 51
193.841824318421
  0
ARC
  5
2AD3
330
2
100
AcDbEntity
  8
0
100
AcDbCircle
 10
189.5982170539219
 20
127.6687024392947
 30
0.0
 40
5.0
100
AcDbArc
 50
0.0
 51
44.99999999997696
  0
LINE
  5
2AD4
330
2
100
AcDbEntity
  8
0
100
AcDbLine
 10
194.2176147164792
 20
129.5821196011201
 30
0.0
 11
196.065373781502
 21
130.3474864658503
 31
0.0
  0
ARC
  5
2AD5
330
2
100
AcDbEntity
  8
0
100
AcDbCircle
 10
189.5982170539219
 20
127.6687024392947
 30
0.0
 40
7.0
100
AcDbArc
 50
0.0
 51
44.99999999997696
  0
CIRCLE
  5
2AD6
330
2
100
AcDbEntity
  8
0
100
AcDbCircle
 10
195.098217053921
 20
141.7422955681006
 30
0.0
 40
3.730384757729268
  0
CIRCLE
  5
2AD7
330
2
100
AcDbEntity
  8
0
100
AcDbCircle
 10
195.098217053921
 20
141.7422955681006
 30
0.0
 40
4.250000000000085
  0
LINE
  5
2AD8
330
2
100
AcDbEntity
  8
CENTER
100
AcDbLine
 10
202.348217053921
 20
141.7422955681028
 30
0.0
 11
187.848217053921
 21
141.7422955681022
 31
0.0
  0
LINE
  5
2AD9
330
2
100
AcDbEntity
  8
0
100
AcDbLine
 10
192.0982170539219
 20
146.7422955681049
 30
0.0
 11
195.0982170539219
 21
146.7422955681049
 31
0.0
  0
LINE
  5
2ADA
330
2
100
AcDbEntity
  8
0
100
AcDbLine
 10
147.1718101827292
 20
141.2422955681022
 30
0.0
 11
181.0246239251147
 21
141.2422955681022
 31
0.0
  0
LINE
  5
2ADB
330
2
100
AcDbEntity
  8
0
100
AcDbLine
 10
147.1718101827292
 20
143.2422955681022
 30
0.0
 11
181.0246239251147
 21
143.2422955681024
 31
0.0
  0
ARC
  5
2ADC
330
2
100
AcDbEntity
  8
0
100
AcDbCircle
 10
164.0982170539192
 20
-13.25770443189847
 30
0.0
 40
160.0
100
AcDbArc
 50
84.07091451212021
 51
95.92908548787979
  0
ARC
  5
2ADD
330
2
100
AcDbEntity
  8
0
100
AcDbCircle
 10
133.4682170539218
 20
141.7422955681022
 30
0.0
 40
5.0
100
AcDbArc
 50
90.0
 51
180.0
  0
LINE
  5
2ADE
330
2
100
AcDbEntity
  8
CENTER
100
AcDbLine
 10
125.8482170539229
 20
141.7422955681033
 30
0.0
 11
140.3482170539238
 21
141.7422955681026
 31
0.0
  0
ARC
  5
2ADF
330
2
100
AcDbEntity
  8
0
100
AcDbCircle
 10
133.0982170539219
 20
141.7422955681265
 30
0.0
 40
5.0
100
AcDbArc
 50
90.0
 51
180.0
  0
LINE
  5
2AE0
330
2
100
AcDbEntity
  8
0
100
AcDbLine
 10
133.0982170539238
 20
144.0516966448592
 30
0.0
 11
135.0982170539237
 21
142.8969961064799
 31
0.0
  0
LINE
  5
2AE1
330
2
100
AcDbEntity
  8
0
100
AcDbLine
 10
133.0982170539238
 20
144.0516966448589
 30
0.0
 11
131.0982170539238
 21
142.8969961064799
 31
0.0
  0
ARC
  5
2AE2
330
2
100
AcDbEntity
  8
0
100
AcDbCircle
 10
147.1718101827292
 20
136.2422955681024
 30
0.0
 40
7.0
100
AcDbArc
 50
90.0
 51
135.000000000023
  0
LINE
  5
2AE3
330
2
100
AcDbEntity
  8
0
100
AcDbLine
 10
136.0982170539228
 20
146.7422955681022
 30
0.0
 11
133.4682170539218
 21
146.7422955681022
 31
0.0
  0
ARC
  5
2AE4
330
2
100
AcDbEntity
  8
0
100
AcDbCircle
 10
136.0982170539219
 20
141.7422955681049
 30
0.0
 40
5.0
100
AcDbArc
 50
76.15817568157897
 51
90.0
  0
LINE
  5
2AE5
330
2
100
AcDbEntity
  8
0
100
AcDbLine
 10
136.0982170539219
 20
146.7422955681049
 30
0.0
 11
133.0982170539219
 21
146.7422955681049
 31
0.0
  0
ARC
  5
2AE6
330
2
100
AcDbEntity
  8
0
100
AcDbCircle
 10
144.4716973739406
 20
175.7258920130113
 30
0.0
 40
30.0
100
AcDbArc
 50
256.1581756815789
 51
275.9290854878797
  0
LINE
  5
2AE7
330
2
100
AcDbEntity
  8
0
100
AcDbLine
 10
135.0982170539237
 20
140.5875950297213
 30
0.0
 11
133.0982170539238
 21
139.4328944913422
 31
0.0
  0
LINE
  5
2AE8
330
2
100
AcDbEntity
  8
0
100
AcDbLine
 10
131.0982170539238
 20
140.5875950297215
 30
0.0
 11
133.0982170539238
 21
139.4328944913422
 31
0.0
  0
ARC
  5
2AE9
330
2
100
AcDbEntity
  8
0
100
AcDbCircle
 10
125.0982170539219
 20
141.2422955680976
 30
0.0
 40
3.0
100
AcDbArc
 50
270.0
 51
0.0
  0
LINE
  5
2AEA
330
2
100
AcDbEntity
  8
0
100
AcDbLine
 10
131.0982170539238
 20
142.8969961064799
 30
0.0
 11
131.0982170539238
 21
140.5875950297215
 31
0.0
  0
LINE
  5
2AEB
330
2
100
AcDbEntity
  8
0
100
AcDbLine
 10
135.0982170539237
 20
142.8969961064799
 30
0.0
 11
135.0982170539237
 21
140.5875950297213
 31
0.0
  0
CIRCLE
  5
2AEC
330
2
100
AcDbEntity
  8
0
100
AcDbCircle
 10
133.0982170539238
 20
141.7422955681006
 30
0.0
 40
3.730384757729268
  0
CIRCLE
  5
2AED
330
2
100
AcDbEntity
  8
0
100
AcDbCircle
 10
133.0982170539238
 20
141.7422955681006
 30
0.0
 40
4.250000000000085
  0
LINE
  5
2AEE
330
2
100
AcDbEntity
  8
0
100
AcDbLine
 10
145.258393020904
 20
140.8616932306585
 30
0.0
 11
144.493026156174
 21
142.709452295681
 31
0.0
  0
ARC
  5
2AEF
330
2
100
AcDbEntity
  8
0
100
AcDbCircle
 10
147.1718101827292
 20
136.2422955681024
 30
0.0
 40
5.0
100
AcDbArc
 50
90.0
 51
135.000000000023
  0
ARC
  5
2AF0
330
2
100
AcDbEntity
  8
0
100
AcDbCircle
 10
181.0246239251147
 20
136.2422955681024
 30
0.0
 40
7.0
100
AcDbArc
 50
44.99999999997696
 51
90.0
  0
ARC
  5
2AF1
330
2
100
AcDbEntity
  8
0
100
AcDbCircle
 10
192.0982170539219
 20
141.7422955681049
 30
0.0
 40
5.0
100
AcDbArc
 50
90.0
 51
103.841824318421
  0
ARC
  5
2AF2
330
2
100
AcDbEntity
  8
0
100
AcDbCircle
 10
183.7247367339042
 20
175.7258920130113
 30
0.0
 40
30.0
100
AcDbArc
 50
264.0709145121202
 51
283.841824318421
  0
LINE
  5
2AF3
330
2
100
AcDbEntity
  8
0
100
AcDbLine
 10
182.9380410869408
 20
140.8616932306587
 30
0.0
 11
183.7034079516707
 21
142.7094522956813
 31
0.0
  0
ARC
  5
2AF4
330
2
100
AcDbEntity
  8
0
100
AcDbCircle
 10
181.0246239251147
 20
136.2422955681024
 30
0.0
 40
5.0
100
AcDbArc
 50
44.99999999997696
 51
90.0
  0
LINE
  5
2AF5
330
2
100
AcDbEntity
  8
0
100
AcDbLine
 10
195.0982170539201
 20
144.0516966448592
 30
0.0
 11
193.098217053921
 21
142.8969961064799
 31
0.0
  0
ARC
  5
2AF6
330
2
100
AcDbEntity
  8
0
100
AcDbCircle
 10
195.0982170539219
 20
141.7422955681263
 30
0.0
 40
5.0
100
AcDbArc
 50
0.0
 51
90.0
  0
LINE
  5
2AF7
330
2
100
AcDbEntity
  8
0
100
AcDbLine
 10
195.0982170539201
 20
144.0516966448589
 30
0.0
 11
197.098217053921
 21
142.8969961064799
 31
0.0
  0
LINE
  5
2AF8
330
2
100
AcDbEntity
  8
0
100
AcDbLine
 10
193.098217053921
 20
140.5875950297213
 30
0.0
 11
195.0982170539201
 21
139.4328944913422
 31
0.0
  0
LINE
  5
2AF9
330
2
100
AcDbEntity
  8
0
100
AcDbLine
 10
197.098217053921
 20
140.5875950297215
 30
0.0
 11
195.098217053921
 21
139.4328944913422
 31
0.0
  0
ARC
  5
2AFA
330
2
100
AcDbEntity
  8
0
100
AcDbCircle
 10
195.0982170539219
 20
138.7422955681051
 30
0.0
 40
5.0
100
AcDbArc
 50
346.1581756815789
 51
0.0
  0
LINE
  5
2AFB
330
2
100
AcDbEntity
  8
0
100
AcDbLine
 10
193.098217053921
 20
142.8969961064799
 30
0.0
 11
193.098217053921
 21
140.5875950297213
 31
0.0
  0
LINE
  5
2AFC
330
2
100
AcDbEntity
  8
0
100
AcDbLine
 10
197.098217053921
 20
142.8969961064799
 30
0.0
 11
197.098217053921
 21
140.5875950297215
 31
0.0
  0
LINE
  5
2AFD
330
2
100
AcDbEntity
  8
0
100
AcDbLine
 10
200.0982170539219
 20
138.7422955681051
 30
0.0
 11
200.0982170539219
 21
141.7422955681263
 31
0.0
  0
LINE
  5
2B02
330
2
100
AcDbEntity
  8
CENTER
100
AcDbLine
 10
257.9715760977312
 20
110.7422955681021
 30
0.0
 11
403.9715760980254
 21
110.742295568102
 31
0.0
  0
LINE
  5
2B07
330
2
100
AcDbEntity
  8
CENTER
100
AcDbLine
 10
305.971576098025
 20
64.24229556810385
 30
0.0
 11
305.971576098025
 21
157.2422955681003
 31
0.0
  0
ARC
  5
2B08
330
2
100
AcDbEntity
  8
0
100
AcDbCircle
 10
350.9715760980282
 20
137.1276431211002
 30
0.0
 40
2.0
100
AcDbArc
 50
180.0
 51
267.9999999999963
  0
LINE
  5
2B09
330
2
100
AcDbEntity
  8
0
100
AcDbLine
 10
269.9715760980209
 20
141.8112577827149
 30
0.0
 11
269.9715760980209
 21
133.7422955681029
 31
0.0
  0
LINE
  5
2B0A
330
2
100
AcDbEntity
  8
0
100
AcDbLine
 10
276.4715760977253
 20
137.4922955680936
 30
0.0
 11
276.4715760977253
 21
83.9922955681105
 31
0.0
  0
LINE
  5
2B0B
330
2
100
AcDbEntity
  8
0
100
AcDbLine
 10
278.4715760977253
 20
145.9922955680932
 30
0.0
 11
278.4715760977253
 21
75.49229556811051
 31
0.0
  0
LINE
  5
2B0C
330
2
100
AcDbEntity
  8
0
100
AcDbLine
 10
284.9715760977299
 20
146.7379321341892
 30
0.0
 11
284.9715760977299
 21
74.74665900202203
 31
0.0
  0
LINE
  5
2B0D
330
2
100
AcDbEntity
  8
0
100
AcDbLine
 10
348.9715760980245
 20
80.7422955681055
 30
0.0
 11
348.9715760980245
 21
140.7422955681052
 31
0.0
  0
LINE
  5
2B0E
330
2
100
AcDbEntity
  8
0
100
AcDbLine
 10
343.9715760980254
 20
75.25718076773464
 30
0.0
 11
343.9715760980263
 21
146.2274103684627
 31
0.0
  0
LINE
  5
2B0F
330
2
100
AcDbEntity
  8
0
100
AcDbLine
 10
343.9715760980263
 20
127.2698910880984
 30
0.0
 11
284.9715760977299
 21
127.2698910880984
 31
0.0
  0
LINE
  5
2B10
330
2
100
AcDbEntity
  8
0
100
AcDbLine
 10
343.9715760980263
 20
94.21470004810576
 30
0.0
 11
284.9715760977299
 21
94.21470004810576
 31
0.0
  0
LINE
  5
2B11
330
2
100
AcDbEntity
  8
0
100
AcDbLine
 10
343.9715760980263
 20
79.7422955681105
 30
0.0
 11
284.9715760977299
 21
79.7422955681105
 31
0.0
  0
LINE
  5
2B12
330
2
100
AcDbEntity
  8
0
100
AcDbLine
 10
343.9715760980263
 20
82.74229556808867
 30
0.0
 11
284.9715760977299
 21
82.74229556808867
 31
0.0
  0
LINE
  5
2B13
330
2
100
AcDbEntity
  8
0
100
AcDbLine
 10
284.9715760977299
 20
74.74229556810209
 30
0.0
 11
343.9715760980254
 21
75.25718076773464
 31
0.0
  0
LINE
  5
2B14
330
2
100
AcDbEntity
  8
0
100
AcDbLine
 10
337.0410138454692
 20
74.67381553681739
 30
0.0
 11
305.9715760980227
 21
74.24229556810391
 31
0.0
  0
LINE
  5
2B15
330
2
100
AcDbEntity
  8
0
100
AcDbLine
 10
268.9715760977299
 20
133.7422955681029
 30
0.0
 11
268.9715760977307
 21
87.74229556810118
 31
0.0
  0
LINE
  5
2B16
330
2
100
AcDbEntity
  8
0
100
AcDbLine
 10
267.9715760977298
 20
133.1649452989139
 30
0.0
 11
267.9715760977317
 21
88.31964583729003
 31
0.0
  0
LINE
  5
2B17
330
2
100
AcDbEntity
  8
0
100
AcDbLine
 10
275.9715760977308
 20
130.6375518818243
 30
0.0
 11
275.9715760977308
 21
90.84703925437962
 31
0.0
  0
LINE
  5
2B18
330
2
100
AcDbEntity
  8
0
100
AcDbLine
 10
270.4715760977299
 20
87.94229556810146
 30
0.0
 11
270.4715760977808
 21
133.5422955681027
 31
0.0
  0
LINE
  5
2B19
330
2
100
AcDbEntity
  8
0
100
AcDbLine
 10
272.4715760977299
 20
87.94229556810169
 30
0.0
 11
272.4715760977299
 21
133.5422955681027
 31
0.0
  0
LINE
  5
2B1A
330
2
100
AcDbEntity
  8
0
100
AcDbLine
 10
275.9715760977244
 20
135.7422955680966
 30
0.0
 11
275.9715760977298
 21
85.74229556810209
 31
0.0
  0
LINE
  5
2B1B
330
2
100
AcDbEntity
  8
0
100
AcDbLine
 10
274.902138350568
 20
74.67381553681647
 30
0.0
 11
305.9715760980209
 21
74.24229556810391
 31
0.0
  0
LINE
  5
2B1C
330
2
100
AcDbEntity
  8
HIDS
100
AcDbLine
 10
276.4715760977253
 20
83.9922955681105
 30
0.0
 11
276.4715760977253
 21
81.07072269284808
 31
0.0
  0
LINE
  5
2B1D
330
2
100
AcDbEntity
  8
0
100
AcDbLine
 10
272.1715760977297
 20
83.47268032584006
 30
0.0
 11
272.1715760977297
 21
76.01191081038141
 31
0.0
  0
LINE
  5
2B1E
330
2
100
AcDbEntity
  8
0
100
AcDbLine
 10
272.4715760977299
 20
83.9922955681105
 30
0.0
 11
272.4715760977299
 21
75.49229556811051
 31
0.0
  0
LINE
  5
2B1F
330
2
100
AcDbEntity
  8
0
100
AcDbLine
 10
277.1715760977297
 20
83.9922955681105
 30
0.0
 11
277.1715760977297
 21
75.49229556811051
 31
0.0
  0
LINE
  5
2B20
330
2
100
AcDbEntity
  8
0
100
AcDbLine
 10
269.9715760980209
 20
87.74229556810141
 30
0.0
 11
269.9715760980209
 21
79.67333335348925
 31
0.0
  0
LINE
  5
2B21
330
2
100
AcDbEntity
  8
0
100
AcDbLine
 10
272.4715760977299
 20
75.49229556811051
 30
0.0
 11
272.1715760977297
 21
76.01191081038141
 31
0.0
  0
LINE
  5
2B22
330
2
100
AcDbEntity
  8
0
100
AcDbLine
 10
272.4715760977299
 20
75.49229556811051
 30
0.0
 11
278.4715760977253
 21
75.49229556811051
 31
0.0
  0
LINE
  5
2B23
330
2
100
AcDbEntity
  8
CENTER
  6
CENS
100
AcDbLine
 10
269.1715760977297
 20
79.74229556808459
 30
0.0
 11
288.7202775783264
 21
79.74229556808459
 31
0.0
  0
LINE
  5
2B24
330
2
100
AcDbEntity
  8
0
100
AcDbLine
 10
284.9715760977299
 20
82.74229556808867
 30
0.0
 11
279.4628495622266
 21
82.74229556808867
 31
0.0
  0
LINE
  5
2B25
330
2
100
AcDbEntity
  8
0
100
AcDbLine
 10
284.9715760977299
 20
79.7422955681105
 30
0.0
 11
279.4628495622266
 21
79.74229556808459
 31
0.0
  0
ARC
  5
2B26
330
2
100
AcDbEntity
  8
HIDS
100
AcDbCircle
 10
276.4715760977253
 20
77.41386844335565
 30
0.0
 40
2.0
100
AcDbArc
 50
0.0
 51
45.0000000000046
  0
ARC
  5
2B27
330
2
100
AcDbEntity
  8
HIDS
100
AcDbCircle
 10
278.4715760977253
 20
81.07072269284808
 30
0.0
 40
2.0
100
AcDbArc
 50
180.0
 51
225.0000000000046
  0
ARC
  5
2B28
330
2
100
AcDbEntity
  8
0
100
AcDbCircle
 10
279.4715760977253
 20
75.79033125318446
 30
0.0
 40
1.0
100
AcDbArc
 50
180.0
 51
269.4999999999824
  0
LINE
  5
2B29
330
2
100
AcDbEntity
  8
0
100
AcDbLine
 10
284.9715380200698
 20
74.74229573424835
 30
0.0
 11
279.4628495622266
 21
74.79036933012057
 31
0.0
  0
LINE
  5
2B2A
330
2
100
AcDbEntity
  8
HIDS
100
AcDbLine
 10
277.057362535352
 20
79.65650913047497
 30
0.0
 11
277.8857896600986
 21
78.82808200572876
 31
0.0
  0
ARC
  5
2B2B
330
2
100
AcDbEntity
  8
0
100
AcDbCircle
 10
274.9715760980209
 20
79.67333335348925
 30
0.0
 40
5.0
100
AcDbArc
 50
180.0
 51
269.2042764472296
  0
LINE
  5
2B2C
330
2
100
AcDbEntity
  8
0
100
AcDbLine
 10
272.4715760977299
 20
83.9922955681105
 30
0.0
 11
272.1715760977297
 21
83.47268032584006
 31
0.0
  0
LINE
  5
2B2D
330
2
100
AcDbEntity
  8
0
100
AcDbLine
 10
272.4715760977299
 20
83.9922955681105
 30
0.0
 11
278.4715760977298
 21
83.9922955681105
 31
0.0
  0
LINE
  5
2B2E
330
2
100
AcDbEntity
  8
0
100
AcDbLine
 10
284.9715760977299
 20
94.21470004810576
 30
0.0
 11
279.4628495622266
 21
94.21470004810599
 31
0.0
  0
ARC
  5
2B2F
330
2
100
AcDbEntity
  8
0
100
AcDbCircle
 10
272.2715760977291
 20
88.24229556810164
 30
0.0
 40
0.2
100
AcDbArc
 50
0.0
 51
90.0
  0
ARC
  5
2B30
330
2
100
AcDbEntity
  8
0
100
AcDbCircle
 10
270.6715760977297
 20
88.24229556810141
 30
0.0
 40
0.2
100
AcDbArc
 50
90.0
 51
179.9999999999218
  0
ARC
  5
2B31
330
2
100
AcDbEntity
  8
0
100
AcDbCircle
 10
270.2715760977291
 20
87.94229556810146
 30
0.0
 40
0.2
100
AcDbArc
 50
270.0
 51
359.9999999999218
  0
LINE
  5
2B32
330
2
100
AcDbEntity
  8
0
100
AcDbLine
 10
268.9715760977299
 20
87.74229556810118
 30
0.0
 11
270.2715760977291
 21
87.74229556810164
 31
0.0
  0
LINE
  5
2B33
330
2
100
AcDbEntity
  8
0
100
AcDbLine
 10
268.9715760977299
 20
87.74229556810118
 30
0.0
 11
267.9715760977298
 21
88.31964583729094
 31
0.0
  0
LINE
  5
2B34
330
2
100
AcDbEntity
  8
0
100
AcDbLine
 10
272.6715760977297
 20
87.74229556810164
 30
0.0
 11
275.9715760977298
 21
87.7422955681021
 31
0.0
  0
LINE
  5
2B35
330
2
100
AcDbEntity
  8
0
100
AcDbLine
 10
272.4715760977299
 20
87.94229556810169
 30
0.0
 11
272.6715760977297
 21
87.74229556810164
 31
0.0
  0
LINE
  5
2B36
330
2
100
AcDbEntity
  8
0
100
AcDbLine
 10
270.6715760977297
 20
88.44229556810146
 30
0.0
 11
272.2715760977291
 21
88.44229556810168
 31
0.0
  0
LINE
  5
2B37
330
2
100
AcDbEntity
  8
0
100
AcDbLine
 10
276.4715760977244
 20
85.24229556810755
 30
0.0
 11
276.4715760977244
 21
83.9922955681105
 31
0.0
  0
LINE
  5
2B38
330
2
100
AcDbEntity
  8
0
100
AcDbLine
 10
276.4715760977299
 20
85.24229556810254
 30
0.0
 11
275.9715760977298
 21
85.74229556810209
 31
0.0
  0
LINE
  5
2B39
330
2
100
AcDbEntity
  8
0
100
AcDbLine
 10
284.9715760977299
 20
127.2698910880984
 30
0.0
 11
279.4628495622266
 21
127.2698910880982
 31
0.0
  0
ARC
  5
2B3A
330
2
100
AcDbEntity
  8
0
100
AcDbCircle
 10
272.2715760977291
 20
133.2422955681027
 30
0.0
 40
0.2
100
AcDbArc
 50
270.0
 51
0.0
  0
ARC
  5
2B3B
330
2
100
AcDbEntity
  8
0
100
AcDbCircle
 10
270.6715760977297
 20
133.242295568103
 30
0.0
 40
0.2
100
AcDbArc
 50
180.0000000000521
 51
270.0
  0
ARC
  5
2B3C
330
2
100
AcDbEntity
  8
0
100
AcDbCircle
 10
270.2715760977291
 20
133.5422955681027
 30
0.0
 40
0.2
100
AcDbArc
 50
359.9999999999218
 51
90.0
  0
LINE
  5
2B3D
330
2
100
AcDbEntity
  8
0
100
AcDbLine
 10
276.4715760977299
 20
136.2422955681018
 30
0.0
 11
275.9715760977244
 21
135.7422955680966
 31
0.0
  0
LINE
  5
2B3E
330
2
100
AcDbEntity
  8
0
100
AcDbLine
 10
268.9715760977299
 20
133.7422955681029
 30
0.0
 11
270.2715760977291
 21
133.7422955681029
 31
0.0
  0
LINE
  5
2B3F
330
2
100
AcDbEntity
  8
0
100
AcDbLine
 10
268.9715760977299
 20
133.7422955681029
 30
0.0
 11
267.9715760977298
 21
133.1649452989134
 31
0.0
  0
LINE
  5
2B40
330
2
100
AcDbEntity
  8
0
100
AcDbLine
 10
272.6715760977297
 20
133.7422955681027
 30
0.0
 11
275.9715760977298
 21
133.7422955681023
 31
0.0
  0
LINE
  5
2B41
330
2
100
AcDbEntity
  8
0
100
AcDbLine
 10
272.4715760977299
 20
133.5422955681027
 30
0.0
 11
272.6715760977297
 21
133.7422955681027
 31
0.0
  0
LINE
  5
2B42
330
2
100
AcDbEntity
  8
0
100
AcDbLine
 10
270.6715760977297
 20
133.0422955681029
 30
0.0
 11
272.2715760977291
 21
133.0422955681027
 31
0.0
  0
LINE
  5
2B43
330
2
100
AcDbEntity
  8
0
100
AcDbLine
 10
361.9715760980282
 20
88.67367311770825
 30
0.0
 11
361.9715760980282
 21
132.8109180184804
 31
0.0
  0
LINE
  5
2B44
330
2
100
AcDbEntity
  8
0
100
AcDbLine
 10
350.901777104623
 20
86.35572966912546
 30
0.0
 11
360.0413750914333
 21
86.67489146367037
 31
0.0
  0
ARC
  5
2B45
330
2
100
AcDbEntity
  8
0
100
AcDbCircle
 10
336.9715760980154
 20
79.67333335349016
 30
0.0
 40
5.0
100
AcDbArc
 50
270.7957235527183
 51
297.0504175270681
  0
LINE
  5
2B46
330
2
100
AcDbEntity
  8
0
100
AcDbLine
 10
343.9715760980245
 20
80.7422955681055
 30
0.0
 11
348.9715760980245
 21
80.7422955681055
 31
0.0
  0
ARC
  5
2B47
330
2
100
AcDbEntity
  8
0
100
AcDbCircle
 10
350.9715760980282
 20
84.35694801508757
 30
0.0
 40
2.0
100
AcDbArc
 50
92.00000000000361
 51
180.0
  0
ARC
  5
2B48
330
2
100
AcDbEntity
  8
0
100
AcDbCircle
 10
359.9715760980282
 20
88.67367311770825
 30
0.0
 40
2.0
100
AcDbArc
 50
272.0000000000035
 51
0.0
  0
LINE
  5
2B49
330
2
100
AcDbEntity
  8
0
100
AcDbLine
 10
350.901777104623
 20
135.1288614670623
 30
0.0
 11
360.0413750914333
 21
134.8096996725183
 31
0.0
  0
ARC
  5
2B4A
330
2
100
AcDbEntity
  8
0
100
AcDbCircle
 10
359.9715760980282
 20
132.8109180184804
 30
0.0
 40
2.0
100
AcDbArc
 50
0.0
 51
87.9999999999964
  0
LINE
  5
2B56
330
2
100
AcDbEntity
  8
0
100
AcDbLine
 10
343.9715760980263
 20
141.7422955680936
 30
0.0
 11
284.9715760977299
 21
141.7422955680936
 31
0.0
  0
LINE
  5
2B57
330
2
100
AcDbEntity
  8
0
100
AcDbLine
 10
343.9715760980263
 20
138.7422955681155
 30
0.0
 11
284.9715760977299
 21
138.7422955681155
 31
0.0
  0
LINE
  5
2B58
330
2
100
AcDbEntity
  8
0
100
AcDbLine
 10
284.9715760977299
 20
146.7422955681018
 30
0.0
 11
343.9715760980263
 21
146.2274103684627
 31
0.0
  0
LINE
  5
2B59
330
2
100
AcDbEntity
  8
0
100
AcDbLine
 10
337.0410138454692
 20
146.8107755993868
 30
0.0
 11
305.9715760980227
 21
147.2422955681002
 31
0.0
  0
LINE
  5
2B5B
330
2
100
AcDbEntity
  8
0
100
AcDbLine
 10
274.902138350568
 20
146.8107755993877
 30
0.0
 11
305.9715760980209
 21
147.2422955681002
 31
0.0
  0
LINE
  5
2B5C
330
2
100
AcDbEntity
  8
0
100
AcDbLine
 10
284.9715760977299
 20
141.7422955680936
 30
0.0
 11
279.4628495622266
 21
141.7422955681155
 31
0.0
  0
LINE
  5
2B5D
330
2
100
AcDbEntity
  8
0
100
AcDbLine
 10
272.4715760977299
 20
145.9922955680936
 30
0.0
 11
272.1715760977297
 21
145.4726803258227
 31
0.0
  0
LINE
  5
2B5E
330
2
100
AcDbEntity
  8
0
100
AcDbLine
 10
272.4715760977299
 20
145.9922955680936
 30
0.0
 11
278.4715760977253
 21
145.9922955680932
 31
0.0
  0
LINE
  5
2B5F
330
2
100
AcDbEntity
  8
CENTER
  6
CENS
100
AcDbLine
 10
269.1715760977297
 20
141.7422955681196
 30
0.0
 11
288.7202775783264
 21
141.7422955681196
 31
0.0
  0
ARC
  5
2B60
330
2
100
AcDbEntity
  8
0
100
AcDbCircle
 10
279.4715760977253
 20
145.6942598830197
 30
0.0
 40
1.0
100
AcDbArc
 50
90.50000000001761
 51
180.0
  0
ARC
  5
2B61
330
2
100
AcDbEntity
  8
HIDS
100
AcDbCircle
 10
276.4715760977244
 20
144.0707226928485
 30
0.0
 40
2.0
100
AcDbArc
 50
314.9999999999954
 51
0.0
  0
ARC
  5
2B62
330
2
100
AcDbEntity
  8
0
100
AcDbCircle
 10
279.4715760977244
 20
145.742295568102
 30
0.0
 40
1.0
100
AcDbArc
 50
180.0
 51
180.0
  0
LINE
  5
2B63
330
2
100
AcDbEntity
  8
0
100
AcDbLine
 10
284.9715380200698
 20
146.7422954019558
 30
0.0
 11
279.4628495622266
 21
146.694221806084
 31
0.0
  0
LINE
  5
2B64
330
2
100
AcDbEntity
  8
HIDS
100
AcDbLine
 10
277.057362535352
 20
141.8280820057292
 30
0.0
 11
277.8857896600977
 21
142.6565091304754
 31
0.0
  0
ARC
  5
2B65
330
2
100
AcDbEntity
  8
0
100
AcDbCircle
 10
274.9715760980209
 20
141.8112577827149
 30
0.0
 40
5.0
100
AcDbArc
 50
90.79572355271826
 51
180.0
  0
LINE
  5
2B66
330
2
100
AcDbEntity
  8
HIDS
100
AcDbLine
 10
276.4715760977244
 20
140.4138684433561
 30
0.0
 11
276.4715760977253
 21
137.4922955680936
 31
0.0
  0
LINE
  5
2B67
330
2
100
AcDbEntity
  8
0
100
AcDbLine
 10
272.4715760977299
 20
137.4922955680936
 30
0.0
 11
272.1715760977297
 21
138.0119108103641
 31
0.0
  0
LINE
  5
2B68
330
2
100
AcDbEntity
  8
0
100
AcDbLine
 10
272.4715760977299
 20
137.4922955680936
 30
0.0
 11
278.4715760977298
 21
137.4922955680936
 31
0.0
  0
LINE
  5
2B69
330
2
100
AcDbEntity
  8
0
100
AcDbLine
 10
284.9715760977299
 20
138.7422955681155
 30
0.0
 11
279.4628495622266
 21
138.7422955681155
 31
0.0
  0
LINE
  5
2B6A
330
2
100
AcDbEntity
  8
0
100
AcDbLine
 10
272.1715760977297
 20
138.0119108103641
 30
0.0
 11
272.1715760977297
 21
145.4726803258227
 31
0.0
  0
LINE
  5
2B6B
330
2
100
AcDbEntity
  8
0
100
AcDbLine
 10
272.4715760977299
 20
137.4922955680936
 30
0.0
 11
272.4715760977299
 21
145.9922955680936
 31
0.0
  0
LINE
  5
2B6C
330
2
100
AcDbEntity
  8
0
100
AcDbLine
 10
277.1715760977297
 20
137.4922955680936
 30
0.0
 11
277.1715760977297
 21
145.9922955680936
 31
0.0
  0
ARC
  5
2B6D
330
2
100
AcDbEntity
  8
HIDS
100
AcDbCircle
 10
278.4715760977244
 20
140.4138684433561
 30
0.0
 40
2.0
100
AcDbArc
 50
134.9999999999953
 51
180.0
  0
ARC
  5
2B6F
330
2
100
AcDbEntity
  8
0
100
AcDbCircle
 10
336.9715760980154
 20
141.811257782714
 30
0.0
 40
5.0
100
AcDbArc
 50
62.94958247299161
 51
89.20427644728171
  0
LINE
  5
2B70
330
2
100
AcDbEntity
  8
0
100
AcDbLine
 10
343.9715760980245
 20
140.7422955681052
 30
0.0
 11
348.9715760980245
 21
140.7422955681052
 31
0.0
  0
LINE
  5
2B72
330
2
100
AcDbEntity
  8
CENTER
100
AcDbLine
 10
570.4227715541707
 20
164.7422955681021
 30
0.0
 11
570.4227715541707
 21
56.74229556810212
 31
0.0
  0
ARC
  5
2B73
330
2
100
AcDbEntity
  8
0
100
AcDbCircle
 10
505.439175109264
 20
130.3688152480805
 30
0.0
 40
30.0
100
AcDbArc
 50
354.0709145121498
 51
13.84182431842102
  0
LINE
  5
2B74
330
2
100
AcDbEntity
  8
CENTER
100
AcDbLine
 10
539.3100731819646
 20
148.3549939403106
 30
0.0
 11
539.3100731819646
 21
135.3549939403106
 31
0.0
  0
ARC
  5
2B79
330
2
100
AcDbEntity
  8
0
100
AcDbCircle
 10
694.4227715541707
 20
110.7422955680987
 30
0.0
 40
160.0
100
AcDbArc
 50
174.0709145121498
 51
185.9290854878501
  0
ARC
  5
2B7A
330
2
100
AcDbEntity
  8
0
100
AcDbCircle
 10
550.7962518741893
 20
45.75869912319205
 30
0.0
 40
30.0
100
AcDbArc
 50
84.07091451212021
 51
103.841824318421
  0
ARC
  5
2B7B
330
2
100
AcDbEntity
  8
0
100
AcDbCircle
 10
539.4227715541707
 20
82.74229556809848
 30
0.0
 40
5.0
100
AcDbArc
 50
166.1581756815789
 51
180.0
  0
LINE
  5
2B7C
330
2
100
AcDbEntity
  8
CENTER
100
AcDbLine
 10
539.3100731819646
 20
86.12959719589559
 30
0.0
 11
539.3100731819646
 21
73.1295971958956
 31
0.0
  0
LINE
  5
2B7D
330
2
100
AcDbEntity
  8
0
100
AcDbLine
 10
534.4227715541706
 20
82.74229556809848
 30
0.0
 11
534.4227715541706
 21
79.74229556807711
 31
0.0
  0
ARC
  5
2B7E
330
2
100
AcDbEntity
  8
0
100
AcDbCircle
 10
539.4227715541707
 20
79.74229556807711
 30
0.0
 40
5.0
100
AcDbArc
 50
180.0
 51
270.0
  0
LINE
  5
2B7F
330
2
100
AcDbEntity
  8
0
100
AcDbLine
 10
542.4227715541706
 20
74.74229556809849
 30
0.0
 11
539.4227715541707
 21
74.74229556809849
 31
0.0
  0
ARC
  5
2B80
330
2
100
AcDbEntity
  8
0
100
AcDbCircle
 10
542.4227715541706
 20
79.74229556809849
 30
0.0
 40
5.0
100
AcDbArc
 50
270.0
 51
283.841824318421
  0
LINE
  5
2B81
330
2
100
AcDbEntity
  8
CENTER
100
AcDbLine
 10
545.8100731819646
 20
79.6295971958956
 30
0.0
 11
532.8100731819646
 21
79.6295971958956
 31
0.0
  0
CIRCLE
  5
2B82
330
2
100
AcDbEntity
  8
HOJO
100
AcDbCircle
 10
539.3100731819628
 20
79.6295971958956
 30
0.0
 40
2.5
  0
CIRCLE
  5
2B83
330
2
100
AcDbEntity
  8
0
100
AcDbCircle
 10
539.3100731819646
 20
79.62959719589514
 30
0.0
 40
2.1
  0
ARC
  5
2B84
330
2
100
AcDbEntity
  8
0
100
AcDbCircle
 10
505.439175109264
 20
91.11577588811689
 30
0.0
 40
30.0
100
AcDbArc
 50
346.1581756815789
 51
5.929085487850143
  0
LINE
  5
2B85
330
2
100
AcDbEntity
  8
0
100
AcDbLine
 10
570.6659454558827
 20
83.39229556809199
 30
0.0
 11
570.6659454558827
 21
81.74229556809349
 31
0.0
  0
LINE
  5
2B86
330
2
100
AcDbEntity
  8
0
100
AcDbLine
 10
570.7722181933819
 20
83.28604556809215
 30
0.0
 11
571.7545745240637
 21
81.74229556809349
 31
0.0
  0
ARC
  5
2B87
330
2
100
AcDbEntity
  8
0
100
AcDbCircle
 10
571.5159454558812
 20
83.39229556809199
 30
0.0
 40
0.8499999999992269
100
AcDbArc
 50
307.5189678667979
 51
90.0
  0
LINE
  5
2B88
330
2
100
AcDbEntity
  8
0
100
AcDbLine
 10
569.4409681933835
 20
84.24229556809121
 30
0.0
 11
568.1909681933844
 21
81.74229556809349
 31
0.0
  0
LINE
  5
2B89
330
2
100
AcDbEntity
  8
0
100
AcDbLine
 10
569.915968193383
 20
82.11729556809302
 30
0.0
 11
569.915968193383
 21
81.74229556809349
 31
0.0
  0
LINE
  5
2B8A
330
2
100
AcDbEntity
  8
0
100
AcDbLine
 10
569.278468581299
 20
82.11729556809302
 30
0.0
 11
569.915968193383
 21
82.11729556809302
 31
0.0
  0
LINE
  5
2B8B
330
2
100
AcDbEntity
  8
0
100
AcDbLine
 10
569.278468581299
 20
82.11729556809302
 30
0.0
 11
569.090968581299
 21
81.74229556809349
 31
0.0
  0
LINE
  5
2B8C
330
2
100
AcDbEntity
  8
0
100
AcDbLine
 10
569.915968193383
 20
81.74229556809349
 30
0.0
 11
570.6659454558827
 21
81.74229556809349
 31
0.0
  0
LINE
  5
2B8D
330
2
100
AcDbEntity
  8
0
100
AcDbLine
 10
571.7545745240637
 20
81.74229556809349
 30
0.0
 11
572.6545749119773
 21
81.74229556809349
 31
0.0
  0
LINE
  5
2B8E
330
2
100
AcDbEntity
  8
0
100
AcDbLine
 10
572.0336158870246
 20
82.71811656758893
 30
0.0
 11
572.6545749119773
 21
81.74229556809349
 31
0.0
  0
LINE
  5
2B8F
330
2
100
AcDbEntity
  8
0
100
AcDbLine
 10
568.1909681933844
 20
81.74229556809349
 30
0.0
 11
569.090968581299
 21
81.74229556809349
 31
0.0
  0
LINE
  5
2B90
330
2
100
AcDbEntity
  8
0
100
AcDbLine
 10
569.4409681933835
 20
84.24229556809121
 30
0.0
 11
571.5159454558812
 21
84.24229556809121
 31
0.0
  0
ARC
  5
2B91
330
2
100
AcDbEntity
  8
0
100
AcDbCircle
 10
571.4628431933812
 20
83.33917056809207
 30
0.0
 40
0.0531249999999517
100
AcDbArc
 50
270.0
 51
90.0
  0
LINE
  5
2B92
330
2
100
AcDbEntity
  8
0
100
AcDbLine
 10
570.7722181933819
 20
83.28604556809215
 30
0.0
 11
571.4628431933812
 21
83.28604556809215
 31
0.0
  0
LINE
  5
2B93
330
2
100
AcDbEntity
  8
0
100
AcDbLine
 10
570.6659454558827
 20
83.39229556809199
 30
0.0
 11
571.4628431933812
 21
83.39229556809199
 31
0.0
  0
LINE
  5
2B94
330
2
100
AcDbEntity
  8
0
100
AcDbLine
 10
569.915968193383
 20
83.39229479226185
 30
0.0
 11
569.6784685812986
 21
82.91729556809229
 31
0.0
  0
LINE
  5
2B95
330
2
100
AcDbEntity
  8
0
100
AcDbLine
 10
569.915968193383
 20
83.39229479226185
 30
0.0
 11
569.915968193383
 21
82.91729556809229
 31
0.0
  0
LINE
  5
2B96
330
2
100
AcDbEntity
  8
0
100
AcDbLine
 10
569.6784685812986
 20
82.91729556809229
 30
0.0
 11
569.915968193383
 21
82.91729556809229
 31
0.0
  0
ARC
  5
2B9B
330
2
100
AcDbEntity
  8
0
100
AcDbCircle
 10
550.7962518741893
 20
175.7258920130051
 30
0.0
 40
30.0
100
AcDbArc
 50
256.1581756815789
 51
275.9290854878797
  0
LINE
  5
2B9C
330
2
100
AcDbEntity
  8
0
100
AcDbLine
 10
542.4227715541706
 20
146.7422955680987
 30
0.0
 11
539.4227715541707
 21
146.7422955680987
 31
0.0
  0
ARC
  5
2B9D
330
2
100
AcDbEntity
  8
0
100
AcDbCircle
 10
542.4227715541706
 20
141.7422955680987
 30
0.0
 40
5.0
100
AcDbArc
 50
76.15817568157897
 51
90.0
  0
ARC
  5
2B9E
330
2
100
AcDbEntity
  8
0
100
AcDbCircle
 10
539.4227715541707
 20
141.7422955680771
 30
0.0
 40
5.0
100
AcDbArc
 50
90.0
 51
180.0
  0
LINE
  5
2B9F
330
2
100
AcDbEntity
  8
CENTER
100
AcDbLine
 10
545.8100731819646
 20
141.8549939403106
 30
0.0
 11
532.8100731819646
 21
141.8549939403106
 31
0.0
  0
ARC
  5
2BA0
330
2
100
AcDbEntity
  8
0
100
AcDbCircle
 10
539.4227715541707
 20
138.7422955680989
 30
0.0
 40
5.0
100
AcDbArc
 50
180.0
 51
193.841824318421
  0
LINE
  5
2BA1
330
2
100
AcDbEntity
  8
0
100
AcDbLine
 10
534.4227715541706
 20
138.7422955680989
 30
0.0
 11
534.4227715541706
 21
141.7422955680771
 31
0.0
  0
CIRCLE
  5
2BA2
330
2
100
AcDbEntity
  8
HOJO
100
AcDbCircle
 10
539.3100731819646
 20
141.8549939403104
 30
0.0
 40
2.5
  0
CIRCLE
  5
2BA3
330
2
100
AcDbEntity
  8
0
100
AcDbCircle
 10
539.3100731819646
 20
141.8549939403115
 30
0.0
 40
2.1
  0
LINE
  5
2BAC
330
2
100
AcDbEntity
  8
CENTER
100
AcDbLine
 10
601.5354699263795
 20
148.3549939403113
 30
0.0
 11
601.5354699263795
 21
135.3549939403113
 31
0.0
  0
LINE
  5
2BAD
330
2
100
AcDbEntity
  8
0
100
AcDbLine
 10
620.9227715541816
 20
84.24229556810553
 30
0.0
 11
620.9227715541752
 21
137.242295568098
 31
0.0
  0
LINE
  5
2BAE
330
2
100
AcDbEntity
  8
0
100
AcDbLine
 10
606.4227715541707
 20
141.7422955680764
 30
0.0
 11
606.4227715541707
 21
79.74229556807711
 31
0.0
  0
LINE
  5
2BB0
330
2
100
AcDbEntity
  8
0
100
AcDbLine
 10
630.4227715541716
 20
145.2422955681016
 30
0.0
 11
630.4227715541716
 21
76.24229556810189
 31
0.0
  0
ARC
  5
2BB2
330
2
100
AcDbEntity
  8
0
100
AcDbCircle
 10
619.9227715541752
 20
80.24229556810622
 30
0.0
 40
3.0
100
AcDbArc
 50
53.13010235412992
 51
90.0
  0
ARC
  5
2BB3
330
2
100
AcDbEntity
  8
0
100
AcDbCircle
 10
622.9227715541752
 20
84.24229556810576
 30
0.0
 40
2.0
100
AcDbArc
 50
180.0
 51
270.0
  0
ARC
  5
2BB4
330
2
100
AcDbEntity
  8
0
100
AcDbCircle
 10
617.9227715541816
 20
85.24229556810212
 30
0.0
 40
3.0
100
AcDbArc
 50
0.0
 51
90.0
  0
ARC
  5
2BB5
330
2
100
AcDbEntity
  8
0
100
AcDbCircle
 10
590.049291234152
 20
45.75869912319205
 30
0.0
 40
30.0
100
AcDbArc
 50
76.15817568157897
 51
95.92908548787979
  0
ARC
  5
2BB6
330
2
100
AcDbEntity
  8
0
100
AcDbCircle
 10
609.4227715541706
 20
80.24229556810643
 30
0.0
 40
3.0
100
AcDbArc
 50
90.0
 51
180.0
  0
LINE
  5
2BB7
330
2
100
AcDbEntity
  8
CENTER
100
AcDbLine
 10
601.5354699263813
 20
86.12959719589628
 30
0.0
 11
601.5354699263813
 21
73.12959719589628
 31
0.0
  0
ARC
  5
2BB8
330
2
100
AcDbEntity
  8
0
100
AcDbCircle
 10
601.4227715541707
 20
79.74229556807711
 30
0.0
 40
5.0
100
AcDbArc
 50
270.0
 51
0.0
  0
ARC
  5
2BB9
330
2
100
AcDbEntity
  8
0
100
AcDbCircle
 10
598.4227715541707
 20
79.74229556809849
 30
0.0
 40
5.0
100
AcDbArc
 50
256.1581756815789
 51
270.0
  0
LINE
  5
2BBA
330
2
100
AcDbEntity
  8
0
100
AcDbLine
 10
598.4227715541707
 20
74.74229556809849
 30
0.0
 11
601.4227715541707
 21
74.74229556809849
 31
0.0
  0
LINE
  5
2BBB
330
2
100
AcDbEntity
  8
CENTER
100
AcDbLine
 10
608.0354699263813
 20
79.62959719589628
 30
0.0
 11
595.0354699263812
 21
79.62959719589628
 31
0.0
  0
CIRCLE
  5
2BBC
330
2
100
AcDbEntity
  8
HOJO
100
AcDbCircle
 10
601.5354699263813
 20
79.62959719589605
 30
0.0
 40
2.5
  0
CIRCLE
  5
2BBD
330
2
100
AcDbEntity
  8
0
100
AcDbCircle
 10
601.5354699263804
 20
79.62959719589514
 30
0.0
 40
2.1
  0
LINE
  5
2BBE
330
2
100
AcDbEntity
  8
0
100
AcDbLine
 10
619.9227715541752
 20
83.24229556810621
 30
0.0
 11
609.4227715541706
 21
83.24229556810644
 31
0.0
  0
LINE
  5
2BBF
330
2
100
AcDbEntity
  8
0
100
AcDbLine
 10
609.4227715541743
 20
88.24229556810212
 30
0.0
 11
617.9227715541816
 21
88.24229556810212
 31
0.0
  0
ARC
  5
2BC0
330
2
100
AcDbEntity
  8
0
100
AcDbCircle
 10
609.4227715541743
 20
85.24229556810212
 30
0.0
 40
3.0
100
AcDbArc
 50
90.0
 51
180.0
  0
LINE
  5
2BC1
330
2
100
AcDbEntity
  8
0
100
AcDbLine
 10
627.4227715541707
 20
82.24229556810575
 30
0.0
 11
622.9227715541752
 21
82.24229556810575
 31
0.0
  0
ARC
  5
2BC2
330
2
100
AcDbEntity
  8
0
100
AcDbCircle
 10
627.4227715541707
 20
79.24229556810576
 30
0.0
 40
3.0
100
AcDbArc
 50
0.0
 51
90.0
  0
ARC
  5
2BC3
330
2
100
AcDbEntity
  8
0
100
AcDbCircle
 10
632.4227715541716
 20
76.24229556810189
 30
0.0
 40
2.0
100
AcDbArc
 50
180.0
 51
270.0
  0
LINE
  5
2BC4
330
2
100
AcDbEntity
  8
0
100
AcDbLine
 10
632.4227715541716
 20
74.24229556810189
 30
0.0
 11
642.4227715541716
 21
74.24229556810189
 31
0.0
  0
ARC
  5
2BC5
330
2
100
AcDbEntity
  8
0
100
AcDbCircle
 10
632.4227715541716
 20
76.74229556810189
 30
0.0
 40
2.0
100
AcDbArc
 50
180.0
 51
270.0
  0
LINE
  5
2BC6
330
2
100
AcDbEntity
  8
0
100
AcDbLine
 10
632.4227715541716
 20
74.7422955681019
 30
0.0
 11
642.4227715541716
 21
74.7422955681019
 31
0.0
  0
ARC
  5
2BC7
330
2
100
AcDbEntity
  8
0
100
AcDbCircle
 10
617.9227715541779
 20
105.2422955681018
 30
0.0
 40
3.0
100
AcDbArc
 50
0.0
 51
90.0
  0
ARC
  5
2BC8
330
2
100
AcDbEntity
  8
0
100
AcDbCircle
 10
617.9227715541779
 20
116.2422955681021
 30
0.0
 40
3.0
100
AcDbArc
 50
270.0
 51
0.0
  0
ARC
  5
2BC9
330
2
100
AcDbEntity
  8
0
100
AcDbCircle
 10
617.9227715541761
 20
136.2422955681021
 30
0.0
 40
3.0
100
AcDbArc
 50
270.0
 51
0.0
  0
LINE
  5
2BCA
330
2
100
AcDbEntity
  8
0
100
AcDbLine
 10
609.4227715541706
 20
108.2422955681016
 30
0.0
 11
617.9227715541779
 21
108.2422955681018
 31
0.0
  0
ARC
  5
2BCB
330
2
100
AcDbEntity
  8
0
100
AcDbCircle
 10
609.4227715541706
 20
105.2422955681016
 30
0.0
 40
3.0
100
AcDbArc
 50
90.0
 51
180.0
  0
ARC
  5
2BCC
330
2
100
AcDbEntity
  8
0
100
AcDbCircle
 10
609.4227715541706
 20
116.2422955681021
 30
0.0
 40
3.0
100
AcDbArc
 50
180.0
 51
270.0
  0
LINE
  5
2BCD
330
2
100
AcDbEntity
  8
0
100
AcDbLine
 10
609.4227715541706
 20
113.2422955681021
 30
0.0
 11
617.9227715541779
 21
113.2422955681021
 31
0.0
  0
LINE
  5
2BCE
330
2
100
AcDbEntity
  8
0
100
AcDbLine
 10
609.4227715541743
 20
133.2422955681021
 30
0.0
 11
617.9227715541761
 21
133.2422955681021
 31
0.0
  0
ARC
  5
2BCF
330
2
100
AcDbEntity
  8
0
100
AcDbCircle
 10
609.4227715541743
 20
136.2422955681021
 30
0.0
 40
3.0
100
AcDbArc
 50
180.0
 51
270.0
  0
ARC
  5
2BE6
330
2
100
AcDbEntity
  8
0
100
AcDbCircle
 10
619.9227715541752
 20
141.242295568098
 30
0.0
 40
3.0
100
AcDbArc
 50
270.0
 51
306.86989764587
  0
ARC
  5
2BE7
330
2
100
AcDbEntity
  8
0
100
AcDbCircle
 10
622.9227715541752
 20
137.2422955680984
 30
0.0
 40
2.0
100
AcDbArc
 50
90.0
 51
180.0
  0
ARC
  5
2BE8
330
2
100
AcDbEntity
  8
0
100
AcDbCircle
 10
590.049291234152
 20
175.7258920130051
 30
0.0
 40
30.0
100
AcDbArc
 50
264.0709145121202
 51
283.841824318421
  0
ARC
  5
2BE9
330
2
100
AcDbEntity
  8
0
100
AcDbCircle
 10
601.4227715541707
 20
141.7422955680764
 30
0.0
 40
5.0
100
AcDbArc
 50
0.0
 51
90.0
  0
ARC
  5
2BEA
330
2
100
AcDbEntity
  8
0
100
AcDbCircle
 10
598.4227715541707
 20
141.7422955680987
 30
0.0
 40
5.0
100
AcDbArc
 50
90.0
 51
103.841824318421
  0
LINE
  5
2BEB
330
2
100
AcDbEntity
  8
0
100
AcDbLine
 10
598.4227715541707
 20
146.7422955680987
 30
0.0
 11
601.4227715541707
 21
146.7422955680987
 31
0.0
  0
LINE
  5
2BEC
330
2
100
AcDbEntity
  8
CENTER
100
AcDbLine
 10
608.0354699263795
 20
141.8549939403113
 30
0.0
 11
595.0354699263795
 21
141.8549939403113
 31
0.0
  0
LINE
  5
2BED
330
2
100
AcDbEntity
  8
0
100
AcDbLine
 10
619.9227715541752
 20
138.242295568098
 30
0.0
 11
609.4227715541706
 21
138.2422955680977
 31
0.0
  0
ARC
  5
2BEE
330
2
100
AcDbEntity
  8
0
100
AcDbCircle
 10
609.4227715541706
 20
141.2422955680978
 30
0.0
 40
3.0
100
AcDbArc
 50
180.0
 51
270.0
  0
CIRCLE
  5
2BEF
330
2
100
AcDbEntity
  8
HOJO
100
AcDbCircle
 10
601.5354699263813
 20
141.8549939403122
 30
0.0
 40
2.5
  0
CIRCLE
  5
2BF0
330
2
100
AcDbEntity
  8
0
100
AcDbCircle
 10
601.5354699263804
 20
141.8549939403113
 30
0.0
 40
2.1
  0
ARC
  5
2BF1
330
2
100
AcDbEntity
  8
0
100
AcDbCircle
 10
632.4227715541716
 20
145.2422955681016
 30
0.0
 40
2.0
100
AcDbArc
 50
90.0
 51
180.0
  0
LINE
  5
2BF2
330
2
100
AcDbEntity
  8
0
100
AcDbLine
 10
642.4227715541716
 20
147.2422955681016
 30
0.0
 11
632.4227715541716
 21
147.2422955681016
 31
0.0
  0
ARC
  5
2BF3
330
2
100
AcDbEntity
  8
0
100
AcDbCircle
 10
632.4227715541716
 20
144.7422955681016
 30
0.0
 40
2.0
100
AcDbArc
 50
90.0
 51
180.0
  0
LINE
  5
2BF4
330
2
100
AcDbEntity
  8
0
100
AcDbLine
 10
642.4227715541716
 20
146.7422955681016
 30
0.0
 11
632.4227715541716
 21
146.7422955681016
 31
0.0
  0
LINE
  5
2BF5
330
2
100
AcDbEntity
  8
0
100
AcDbLine
 10
627.4227715541707
 20
139.2422955680984
 30
0.0
 11
622.9227715541752
 21
139.2422955680984
 31
0.0
  0
ARC
  5
2BF6
330
2
100
AcDbEntity
  8
0
100
AcDbCircle
 10
627.4227715541707
 20
142.2422955680984
 30
0.0
 40
3.0
100
AcDbArc
 50
270.0
 51
0.0
  0
LINE
  5
2C1B
330
2
100
AcDbEntity
  8
0
100
AcDbLine
 10
540.4227715541707
 20
353.3552626908647
 30
0.0
 11
600.4227715541706
 21
353.3552626908647
 31
0.0
  0
LINE
  5
2C1C
330
2
100
AcDbEntity
  8
0
100
AcDbLine
 10
548.3541491037827
 20
340.3552626908652
 30
0.0
 11
592.4913940045549
 21
340.355262690865
 31
0.0
  0
ARC
  5
2C1D
330
2
100
AcDbEntity
  8
0
100
AcDbCircle
 10
544.037424001162
 20
351.355262690865
 30
0.0
 40
2.0
100
AcDbArc
 50
2.000000000003669
 51
90.0
  0
ARC
  5
2C1E
330
2
100
AcDbEntity
  8
0
100
AcDbCircle
 10
548.3541491037827
 20
342.355262690865
 30
0.0
 40
2.0
100
AcDbArc
 50
182.0000000000036
 51
270.0
  0
LINE
  5
2C1F
330
2
100
AcDbEntity
  8
0
100
AcDbLine
 10
546.0362056551999
 20
351.4250616842699
 30
0.0
 11
546.3553674497449
 21
342.2854636974601
 31
0.0
  0
ARC
  5
2C2A
330
2
100
AcDbEntity
  8
0
100
AcDbCircle
 10
596.8081191071757
 20
351.355262690865
 30
0.0
 40
2.0
100
AcDbArc
 50
90.0
 51
177.9999999999963
  0
ARC
  5
2C2B
330
2
100
AcDbEntity
  8
0
100
AcDbCircle
 10
592.4913940045549
 20
342.355262690865
 30
0.0
 40
2.0
100
AcDbArc
 50
270.0
 51
357.9999999999963
  0
LINE
  5
2C2C
330
2
100
AcDbEntity
  8
0
100
AcDbLine
 10
594.8093374531378
 20
351.4250616842699
 30
0.0
 11
594.4901756585928
 21
342.2854636974601
 31
0.0
  0
LINE
  5
2C2D
330
2
100
AcDbEntity
  8
CENTER
100
AcDbLine
 10
570.4227715541711
 20
444.3552626911584
 30
0.0
 11
570.4227715541711
 21
298.3552626908638
 31
0.0
  0
LINE
  5
2C2F
330
2
100
AcDbEntity
  8
0
100
AcDbLine
 10
534.937656753827
 20
358.3552626908647
 30
0.0
 11
605.9011505781206
 21
358.3552626908638
 31
0.0
  0
LINE
  5
2C30
330
2
100
AcDbEntity
  8
0
100
AcDbLine
 10
597.1727715541616
 20
425.8552626911638
 30
0.0
 11
543.6727715541788
 21
425.8552626911638
 31
0.0
  0
LINE
  5
2C31
330
2
100
AcDbEntity
  8
0
100
AcDbLine
 10
605.6727715541616
 20
423.8552626911635
 30
0.0
 11
535.1727715541797
 21
423.855262691164
 31
0.0
  0
LINE
  5
2C33
330
2
100
AcDbEntity
  8
0
100
AcDbLine
 10
595.4227715541652
 20
426.3552626911646
 30
0.0
 11
545.4227715541707
 21
426.3552626911589
 31
0.0
  0
LINE
  5
2C35
330
2
100
AcDbEntity
  8
0
100
AcDbLine
 10
534.4227715541706
 20
417.3552626911597
 30
0.0
 11
606.0495073305616
 21
417.3552626911581
 31
0.0
  0
LINE
  5
2C36
330
2
100
AcDbEntity
  8
0
100
AcDbLine
 10
592.8454212849825
 20
434.355262691159
 30
0.0
 11
548.000121823358
 21
434.3552626911578
 31
0.0
  0
LINE
  5
2C37
330
2
100
AcDbEntity
  8
0
100
AcDbLine
 10
547.6227715541695
 20
431.8552626911596
 30
0.0
 11
593.2227715541708
 21
431.8552626911078
 31
0.0
  0
LINE
  5
2C38
330
2
100
AcDbEntity
  8
0
100
AcDbLine
 10
547.6227715541695
 20
429.8552626911594
 30
0.0
 11
593.2227715541708
 21
429.8552626911592
 31
0.0
  0
LINE
  5
2C39
330
2
100
AcDbEntity
  8
0
100
AcDbLine
 10
553.8951760341857
 20
416.8552626908647
 30
0.0
 11
553.8951760341857
 21
359.8552246139291
 31
0.0
  0
LINE
  5
2C3A
330
2
100
AcDbEntity
  8
0
100
AcDbLine
 10
539.4227715541707
 20
416.8552626908647
 30
0.0
 11
539.4227715541707
 21
359.8552246139291
 31
0.0
  0
LINE
  5
2C3B
330
2
100
AcDbEntity
  8
0
100
AcDbLine
 10
542.4227715541706
 20
416.8552626908647
 30
0.0
 11
542.4227715541706
 21
359.8552246139291
 31
0.0
  0
LINE
  5
2C3C
330
2
100
AcDbEntity
  8
0
100
AcDbLine
 10
534.4227715541706
 20
417.3552626911597
 30
0.0
 11
534.937656753827
 21
358.3552626908647
 31
0.0
  0
LINE
  5
2C3D
330
2
100
AcDbEntity
  8
0
100
AcDbLine
 10
540.4227715541707
 20
358.3552626908647
 30
0.0
 11
540.4227715541707
 21
353.3552626908647
 31
0.0
  0
LINE
  5
2C3E
330
2
100
AcDbEntity
  8
HIDS
100
AcDbLine
 10
543.6727715541788
 20
425.8552626911638
 30
0.0
 11
540.7511986789164
 21
425.8552626911638
 31
0.0
  0
LINE
  5
2C3F
330
2
100
AcDbEntity
  8
0
100
AcDbLine
 10
543.1531563119084
 20
430.1552626911593
 30
0.0
 11
535.6923867964503
 21
430.1552626911593
 31
0.0
  0
LINE
  5
2C40
330
2
100
AcDbEntity
  8
0
100
AcDbLine
 10
535.1727715541788
 20
429.8552626911592
 30
0.0
 11
535.6923867964503
 21
430.1552626911593
 31
0.0
  0
LINE
  5
2C41
330
2
100
AcDbEntity
  8
0
100
AcDbLine
 10
543.6727715541788
 20
429.8552626911592
 30
0.0
 11
543.1531563119084
 21
430.1552626911593
 31
0.0
  0
LINE
  5
2C42
330
2
100
AcDbEntity
  8
0
100
AcDbLine
 10
543.6727715541788
 20
429.8552626911592
 30
0.0
 11
535.1727715541788
 21
429.8552626911592
 31
0.0
  0
LINE
  5
2C43
330
2
100
AcDbEntity
  8
0
100
AcDbLine
 10
543.6727715541788
 20
425.1552626911593
 30
0.0
 11
535.1727715541788
 21
425.1552626911593
 31
0.0
  0
LINE
  5
2C44
330
2
100
AcDbEntity
  8
0
100
AcDbLine
 10
543.6727715541788
 20
429.8552626911592
 30
0.0
 11
543.6727715541788
 21
423.8552626911594
 31
0.0
  0
LINE
  5
2C45
330
2
100
AcDbEntity
  8
0
100
AcDbLine
 10
535.1727715541788
 20
429.8552626911592
 30
0.0
 11
535.1727715541797
 21
423.855262691164
 31
0.0
  0
ARC
  5
2C46
330
2
100
AcDbEntity
  8
HIDS
100
AcDbCircle
 10
537.094344429424
 20
425.8552626911638
 30
0.0
 40
2.0
100
AcDbArc
 50
270.0
 51
314.9999999999954
  0
ARC
  5
2C47
330
2
100
AcDbEntity
  8
HIDS
100
AcDbCircle
 10
540.7511986789164
 20
423.8552626911637
 30
0.0
 40
2.0
100
AcDbArc
 50
90.0
 51
134.9999999999953
  0
ARC
  5
2C48
330
2
100
AcDbEntity
  8
0
100
AcDbCircle
 10
535.4708074054047
 20
422.855262691164
 30
0.0
 40
1.0
100
AcDbArc
 50
90.0
 51
179.5000000000084
  0
LINE
  5
2C49
330
2
100
AcDbEntity
  8
HIDS
100
AcDbLine
 10
539.3369851165431
 20
425.2694762535369
 30
0.0
 11
538.5085579917974
 21
424.4410491287906
 31
0.0
  0
ARC
  5
2C4A
330
2
100
AcDbEntity
  8
0
100
AcDbCircle
 10
547.9227715541697
 20
430.0552626911595
 30
0.0
 40
0.2
100
AcDbArc
 50
270.0
 51
0.0
  0
ARC
  5
2C4B
330
2
100
AcDbEntity
  8
0
100
AcDbCircle
 10
547.9227715541697
 20
431.6552626911591
 30
0.0
 40
0.2
100
AcDbArc
 50
0.0
 51
89.99999999994789
  0
ARC
  5
2C4C
330
2
100
AcDbEntity
  8
0
100
AcDbCircle
 10
547.6227715541695
 20
432.0552626911594
 30
0.0
 40
0.2
100
AcDbArc
 50
180.0
 51
269.9999999999478
  0
LINE
  5
2C4D
330
2
100
AcDbEntity
  8
0
100
AcDbLine
 10
547.4227715541688
 20
433.3552626911594
 30
0.0
 11
547.4227715541697
 21
432.0552626911594
 31
0.0
  0
LINE
  5
2C4E
330
2
100
AcDbEntity
  8
0
100
AcDbLine
 10
547.4227715541688
 20
433.3552626911592
 30
0.0
 11
548.0001218233589
 21
434.3552626911594
 31
0.0
  0
LINE
  5
2C4F
330
2
100
AcDbEntity
  8
0
100
AcDbLine
 10
547.4227715541697
 20
429.6552626911593
 30
0.0
 11
547.4227715541707
 21
426.3552626911592
 31
0.0
  0
LINE
  5
2C50
330
2
100
AcDbEntity
  8
0
100
AcDbLine
 10
547.6227715541695
 20
429.8552626911594
 30
0.0
 11
547.4227715541697
 21
429.6552626911593
 31
0.0
  0
LINE
  5
2C51
330
2
100
AcDbEntity
  8
0
100
AcDbLine
 10
548.1227715541696
 20
431.6552626911594
 30
0.0
 11
548.1227715541696
 21
430.0552626911595
 31
0.0
  0
LINE
  5
2C52
330
2
100
AcDbEntity
  8
0
100
AcDbLine
 10
544.9227715541761
 20
425.8552626911642
 30
0.0
 11
543.6727715541788
 21
425.8552626911642
 31
0.0
  0
LINE
  5
2C53
330
2
100
AcDbEntity
  8
0
100
AcDbLine
 10
544.9227715541707
 20
425.8552626911592
 30
0.0
 11
545.4227715541707
 21
426.3552626911589
 31
0.0
  0
LINE
  5
2C54
330
2
100
AcDbEntity
  8
CENTER
  6
CENS
100
AcDbLine
 10
539.4227715541525
 20
433.1552626911594
 30
0.0
 11
539.4227715541525
 21
413.6065612105626
 31
0.0
  0
LINE
  5
2C55
330
2
100
AcDbEntity
  8
0
100
AcDbLine
 10
542.4227715541571
 20
417.3552626911587
 30
0.0
 11
542.4227715541571
 21
422.8639892266622
 31
0.0
  0
LINE
  5
2C56
330
2
100
AcDbEntity
  8
0
100
AcDbLine
 10
539.4227715541789
 20
417.3552626911587
 30
0.0
 11
539.4227715541789
 21
422.8639892266622
 31
0.0
  0
LINE
  5
2C57
330
2
100
AcDbEntity
  8
0
100
AcDbLine
 10
534.4227715541706
 20
417.3552626911587
 30
0.0
 11
534.4708454823408
 21
422.8639892266622
 31
0.0
  0
LINE
  5
2C58
330
2
100
AcDbEntity
  8
0
100
AcDbLine
 10
553.8951760341738
 20
417.3552626911587
 30
0.0
 11
553.8951760341738
 21
422.8639892266622
 31
0.0
  0
LINE
  5
2C59
330
2
100
AcDbEntity
  8
0
100
AcDbLine
 10
606.2327715541706
 20
396.3552626906558
 30
0.0
 11
606.0495073305607
 21
417.3552626911587
 31
0.0
  0
LINE
  5
2C5A
330
2
100
AcDbEntity
  8
0
100
AcDbLine
 10
598.4358645149464
 20
417.3552626911581
 30
0.0
 11
598.9602684138532
 21
397.329085742557
 31
0.0
  0
LINE
  5
2C5B
330
2
100
AcDbEntity
  8
0
100
AcDbLine
 10
620.8717706416942
 20
422.9076165874769
 30
0.0
 11
620.1764727850801
 21
396.355262690865
 31
0.0
  0
LINE
  5
2C5C
330
2
100
AcDbEntity
  8
0
100
AcDbLine
 10
630.3717706460625
 20
430.4076165874819
 30
0.0
 11
629.4800783776587
 21
396.355262690865
 31
0.0
  0
LINE
  5
2C5D
330
2
100
AcDbEntity
  8
0
100
AcDbLine
 10
586.9503670741538
 20
416.8552626908647
 30
0.0
 11
586.9503670741538
 21
359.8552246139291
 31
0.0
  0
LINE
  5
2C5F
330
2
100
AcDbEntity
  8
0
100
AcDbLine
 10
600.4227715541706
 20
358.3552626908647
 30
0.0
 11
600.4227715541706
 21
353.3552626908647
 31
0.0
  0
ARC
  5
2C60
330
2
100
AcDbEntity
  8
0
100
AcDbCircle
 10
617.3194669762375
 20
390.855262690865
 30
0.0
 40
3.0
100
AcDbArc
 50
1.500000000015761
 51
90.0
  0
ARC
  5
2C61
330
2
100
AcDbEntity
  8
0
100
AcDbCircle
 10
619.8710852916498
 20
365.855262690865
 30
0.0
 40
3.0
100
AcDbArc
 50
53.1301023542602
 51
90.0
  0
ARC
  5
2C62
330
2
100
AcDbEntity
  8
0
100
AcDbCircle
 10
617.843185407623
 20
370.8552626908647
 30
0.0
 40
3.0
100
AcDbArc
 50
1.499999999989672
 51
90.0
  0
ARC
  5
2C63
330
2
100
AcDbEntity
  8
0
100
AcDbCircle
 10
622.8710852916452
 20
369.8552626908686
 30
0.0
 40
2.0
100
AcDbArc
 50
181.4999999999896
 51
270.0
  0
LINE
  5
2C64
330
2
100
AcDbEntity
  8
0
100
AcDbLine
 10
620.8717706416942
 20
369.802908794253
 30
0.0
 11
620.1764727850801
 21
396.355262690865
 31
0.0
  0
ARC
  5
2C65
330
2
100
AcDbEntity
  8
0
100
AcDbCircle
 10
609.1848880164771
 20
390.8552626908647
 30
0.0
 40
3.0
100
AcDbArc
 50
90.0
 51
179.5000000000084
  0
LINE
  5
2C66
330
2
100
AcDbEntity
  8
0
100
AcDbLine
 10
609.1916237928704
 20
393.8552626908647
 30
0.0
 11
617.3194669762375
 21
393.8552626908649
 31
0.0
  0
ARC
  5
2C67
330
2
100
AcDbEntity
  8
0
100
AcDbCircle
 10
599.9599257388287
 20
397.355262690865
 30
0.0
 40
1.0
100
AcDbArc
 50
181.5000000000157
 51
270.0
  0
ARC
  5
2C68
330
2
100
AcDbEntity
  8
0
100
AcDbCircle
 10
608.9667163217082
 20
365.8552626908647
 30
0.0
 40
3.0
100
AcDbArc
 50
90.0
 51
179.5000000000084
  0
ARC
  5
2C69
330
2
100
AcDbEntity
  8
0
100
AcDbCircle
 10
609.010350660662
 20
370.8552626908647
 30
0.0
 40
3.0
100
AcDbArc
 50
90.0
 51
179.5000000000084
  0
LINE
  5
2C6A
330
2
100
AcDbEntity
  8
0
100
AcDbLine
 10
608.9667163217082
 20
368.8552626908647
 30
0.0
 11
619.8710852916498
 21
368.8552626908649
 31
0.0
  0
LINE
  5
2C6B
330
2
100
AcDbEntity
  8
0
100
AcDbLine
 10
609.010350660662
 20
373.8552626908647
 30
0.0
 11
617.843185407623
 21
373.8552626908647
 31
0.0
  0
LINE
  5
2C6C
330
2
100
AcDbEntity
  8
0
100
AcDbLine
 10
606.2327715541706
 20
396.3552626910741
 30
0.0
 11
605.9011505781206
 21
358.3552626908638
 31
0.0
  0
LINE
  5
2C6D
330
2
100
AcDbEntity
  8
0
100
AcDbLine
 10
601.4227715541689
 20
396.355262690865
 30
0.0
 11
601.4227715541707
 21
359.8552246139291
 31
0.0
  0
LINE
  5
2C6E
330
2
100
AcDbEntity
  8
0
100
AcDbLine
 10
598.4227715541707
 20
396.355262690865
 30
0.0
 11
598.4227715541707
 21
359.8552246139291
 31
0.0
  0
LINE
  5
2C6F
330
2
100
AcDbEntity
  8
0
100
AcDbLine
 10
629.4800783776587
 20
396.355262690865
 30
0.0
 11
642.4227715498014
 21
396.355262690865
 31
0.0
  0
LINE
  5
2C70
330
2
100
AcDbEntity
  8
0
100
AcDbLine
 10
622.8710852960135
 20
367.855262690865
 30
0.0
 11
627.3039065296358
 21
367.855262690865
 31
0.0
  0
ARC
  5
2C71
330
2
100
AcDbEntity
  8
0
100
AcDbCircle
 10
627.3039065296358
 20
364.8552626908649
 30
0.0
 40
3.0
100
AcDbArc
 50
1.500000000015761
 51
90.0
  0
ARC
  5
2C72
330
2
100
AcDbEntity
  8
0
100
AcDbCircle
 10
632.3710852960135
 20
362.3552626908649
 30
0.0
 40
2.0
100
AcDbArc
 50
181.5000000000157
 51
270.0
  0
LINE
  5
2C73
330
2
100
AcDbEntity
  8
0
100
AcDbLine
 10
632.3710852960135
 20
360.3552626908649
 30
0.0
 11
642.4227715498014
 21
360.3552626908649
 31
0.0
  0
LINE
  5
2C74
330
2
100
AcDbEntity
  8
0
100
AcDbLine
 10
630.3717706460625
 20
362.302908794248
 30
0.0
 11
629.4800783776587
 21
396.355262690865
 31
0.0
  0
ARC
  5
2C75
330
2
100
AcDbEntity
  8
0
100
AcDbCircle
 10
622.8710852916452
 20
422.8552626908613
 30
0.0
 40
2.0
100
AcDbArc
 50
90.0
 51
178.5000000000103
  0
ARC
  5
2C76
330
2
100
AcDbEntity
  8
0
100
AcDbCircle
 10
617.3194669762375
 20
401.855262690865
 30
0.0
 40
3.0
100
AcDbArc
 50
270.0
 51
358.4999999999841
  0
ARC
  5
2C77
330
2
100
AcDbEntity
  8
0
100
AcDbCircle
 10
617.7908135644853
 20
419.8552626909513
 30
0.0
 40
3.0
100
AcDbArc
 50
270.0
 51
358.4999999999841
  0
ARC
  5
2C78
330
2
100
AcDbEntity
  8
0
100
AcDbCircle
 10
592.9227715541706
 20
430.0552626911595
 30
0.0
 40
0.2
100
AcDbArc
 50
180.0
 51
270.0
  0
ARC
  5
2C79
330
2
100
AcDbEntity
  8
0
100
AcDbCircle
 10
592.9227715541706
 20
431.6552626911591
 30
0.0
 40
0.2
100
AcDbArc
 50
90.00000000005213
 51
180.0
  0
ARC
  5
2C7A
330
2
100
AcDbEntity
  8
0
100
AcDbCircle
 10
593.2227715541708
 20
432.0552626911594
 30
0.0
 40
0.2
100
AcDbArc
 50
269.9999999999478
 51
359.9999999999739
  0
LINE
  5
2C7B
330
2
100
AcDbEntity
  8
0
100
AcDbLine
 10
593.4227715541707
 20
433.3552626911594
 30
0.0
 11
593.4227715541707
 21
432.0552626911594
 31
0.0
  0
LINE
  5
2C7C
330
2
100
AcDbEntity
  8
0
100
AcDbLine
 10
593.4227715541707
 20
433.3552626911592
 30
0.0
 11
592.8454212849816
 21
434.3552626911594
 31
0.0
  0
LINE
  5
2C7D
330
2
100
AcDbEntity
  8
0
100
AcDbLine
 10
593.4227715541707
 20
429.6552626911593
 30
0.0
 11
593.4227715541707
 21
426.3552626911592
 31
0.0
  0
LINE
  5
2C7E
330
2
100
AcDbEntity
  8
0
100
AcDbLine
 10
593.2227715541708
 20
429.8552626911592
 30
0.0
 11
593.4227715541707
 21
429.6552626911593
 31
0.0
  0
LINE
  5
2C7F
330
2
100
AcDbEntity
  8
0
100
AcDbLine
 10
592.7227715541708
 20
431.6552626911594
 30
0.0
 11
592.7227715541708
 21
430.0552626911595
 31
0.0
  0
ARC
  5
2C80
330
2
100
AcDbEntity
  8
0
100
AcDbCircle
 10
605.0047357029358
 20
422.8552626911635
 30
0.0
 40
1.0
100
AcDbArc
 50
0.4999999999915467
 51
90.0
  0
LINE
  5
2C81
330
2
100
AcDbEntity
  8
HIDS
100
AcDbLine
 10
600.094344429424
 20
425.8552626911642
 30
0.0
 11
597.1727715541616
 21
425.8552626911638
 31
0.0
  0
LINE
  5
2C82
330
2
100
AcDbEntity
  8
0
100
AcDbLine
 10
597.6923867964321
 20
430.1552626911593
 30
0.0
 11
605.1531563118912
 21
430.1552626911593
 31
0.0
  0
LINE
  5
2C83
330
2
100
AcDbEntity
  8
0
100
AcDbLine
 10
605.6727715541616
 20
429.8552626911592
 30
0.0
 11
605.1531563118912
 21
430.1552626911593
 31
0.0
  0
LINE
  5
2C84
330
2
100
AcDbEntity
  8
0
100
AcDbLine
 10
597.1727715541616
 20
429.8552626911592
 30
0.0
 11
597.6923867964321
 21
430.1552626911593
 31
0.0
  0
LINE
  5
2C85
330
2
100
AcDbEntity
  8
0
100
AcDbLine
 10
597.1727715541616
 20
429.8552626911592
 30
0.0
 11
605.6727715541616
 21
429.8552626911592
 31
0.0
  0
LINE
  5
2C86
330
2
100
AcDbEntity
  8
0
100
AcDbLine
 10
597.1727715541616
 20
425.1552626911593
 30
0.0
 11
605.6727715541616
 21
425.1552626911593
 31
0.0
  0
LINE
  5
2C87
330
2
100
AcDbEntity
  8
0
100
AcDbLine
 10
597.1727715541616
 20
429.8552626911592
 30
0.0
 11
597.1727715541616
 21
423.8552626911594
 31
0.0
  0
LINE
  5
2C88
330
2
100
AcDbEntity
  8
0
100
AcDbLine
 10
605.6727715541616
 20
429.8552626911592
 30
0.0
 11
605.6727715541616
 21
423.8552626911635
 31
0.0
  0
ARC
  5
2C89
330
2
100
AcDbEntity
  8
HIDS
100
AcDbCircle
 10
603.7511986789164
 20
425.8552626911642
 30
0.0
 40
2.0
100
AcDbArc
 50
225.0000000000046
 51
270.0
  0
ARC
  5
2C8A
330
2
100
AcDbEntity
  8
HIDS
100
AcDbCircle
 10
600.094344429424
 20
423.8552626911642
 30
0.0
 40
2.0
100
AcDbArc
 50
45.0000000000046
 51
90.0
  0
ARC
  5
2C8B
330
2
100
AcDbEntity
  8
0
100
AcDbCircle
 10
605.4227715541706
 20
422.8552626911642
 30
0.0
 40
1.0
100
AcDbArc
 50
90.0
 51
90.0
  0
LINE
  5
2C8C
330
2
100
AcDbEntity
  8
0
100
AcDbLine
 10
595.9227715541698
 20
425.8552626911592
 30
0.0
 11
595.4227715541652
 21
426.3552626911646
 31
0.0
  0
LINE
  5
2C8D
330
2
100
AcDbEntity
  8
HIDS
100
AcDbLine
 10
601.5085579917974
 20
425.2694762535373
 30
0.0
 11
602.336985116544
 21
424.4410491287911
 31
0.0
  0
ARC
  5
2C8E
330
2
100
AcDbEntity
  8
0
100
AcDbCircle
 10
609.1848880164767
 20
401.855262690865
 30
0.0
 40
3.0
100
AcDbArc
 50
180.4999999999915
 51
270.0
  0
LINE
  5
2C8F
330
2
100
AcDbEntity
  8
0
100
AcDbLine
 10
609.1848880164767
 20
398.855262690865
 30
0.0
 11
617.3194669762375
 21
398.855262690865
 31
0.0
  0
LINE
  5
2C90
330
2
100
AcDbEntity
  8
0
100
AcDbLine
 10
617.7908135644862
 20
416.8552626909514
 30
0.0
 11
606.5495073307689
 21
416.8552626909507
 31
0.0
  0
LINE
  5
2C91
330
2
100
AcDbEntity
  8
0
100
AcDbLine
 10
606.0495073305607
 20
417.3552626911587
 30
0.0
 11
606.5495073307689
 21
416.8552626909507
 31
0.0
  0
LINE
  5
2C92
330
2
100
AcDbEntity
  8
CENTER
  6
CENS
100
AcDbLine
 10
601.4227715541879
 20
433.1552626911594
 30
0.0
 11
601.4227715541879
 21
413.6065612105626
 31
0.0
  0
LINE
  5
2C93
330
2
100
AcDbEntity
  8
0
100
AcDbLine
 10
586.9503670741665
 20
417.3552626911587
 30
0.0
 11
586.9503670741665
 21
422.8639892266622
 31
0.0
  0
LINE
  5
2C94
330
2
100
AcDbEntity
  8
0
100
AcDbLine
 10
606.0046976259997
 20
422.8639892266618
 30
0.0
 11
606.0527715541708
 21
417.3552626911578
 31
0.0
  0
LINE
  5
2C95
330
2
100
AcDbEntity
  8
0
100
AcDbLine
 10
601.4227715541616
 20
417.3552626911587
 30
0.0
 11
601.4227715541879
 21
422.8639892266622
 31
0.0
  0
LINE
  5
2C96
330
2
100
AcDbEntity
  8
0
100
AcDbLine
 10
598.4227715541834
 20
417.3552626911587
 30
0.0
 11
598.4227715541834
 21
422.8639892266622
 31
0.0
  0
LINE
  5
2C97
330
2
100
AcDbEntity
  8
0
100
AcDbLine
 10
622.8710852960135
 20
424.855262690865
 30
0.0
 11
627.3039065296358
 21
424.855262690865
 31
0.0
  0
ARC
  5
2C98
330
2
100
AcDbEntity
  8
0
100
AcDbCircle
 10
627.3039065296358
 20
427.8552626908649
 30
0.0
 40
3.0
100
AcDbArc
 50
270.0
 51
358.4999999999841
  0
ARC
  5
2C99
330
2
100
AcDbEntity
  8
0
100
AcDbCircle
 10
632.3710852960135
 20
430.355262690865
 30
0.0
 40
2.0
100
AcDbArc
 50
90.0
 51
178.4999999999842
  0
LINE
  5
2C9A
330
2
100
AcDbEntity
  8
0
100
AcDbLine
 10
632.3710852960135
 20
432.3552626908649
 30
0.0
 11
642.4227715498014
 21
432.3552626908649
 31
0.0
  0
LINE
  5
3C13
330
2
100
AcDbEntity
  8
0
100
AcDbLine
 10
363.9715760980259
 20
118.2423527689874
 30
0.0
 11
393.4715760980259
 21
118.2423527689874
 31
0.0
  0
LINE
  5
3C14
330
2
100
AcDbEntity
  8
0
100
AcDbLine
 10
363.9715760980259
 20
103.2423527689876
 30
0.0
 11
393.4715760980255
 21
103.2423527689885
 31
0.0
  0
LINE
  5
3C15
330
2
100
AcDbEntity
  8
0
100
AcDbLine
 10
372.4715760980255
 20
113.2422955681021
 30
0.0
 11
393.9715760980254
 21
113.2422988258869
 31
0.0
  0
LINE
  5
3C16
330
2
100
AcDbEntity
  8
0
100
AcDbLine
 10
372.4701641407625
 20
108.2422959668268
 30
0.0
 11
393.9715760980254
 21
108.2422988258869
 31
0.0
  0
LINE
  5
3C17
330
2
100
AcDbEntity
  8
0
100
AcDbLine
 10
362.9715760980259
 20
121.9536204335073
 30
0.0
 11
362.9715760980259
 21
99.5309707026969
 31
0.0
  0
ARC
  5
3C18
330
2
100
AcDbEntity
  8
0
100
AcDbCircle
 10
362.4715760980259
 20
121.9536204335073
 30
0.0
 40
0.5
100
AcDbArc
 50
0.0
 51
59.99999999999946
  0
ARC
  5
3C19
330
2
100
AcDbEntity
  8
0
100
AcDbCircle
 10
361.5695532345396
 20
120.7423527689874
 30
0.0
 40
2.0
100
AcDbArc
 50
59.99999999999946
 51
78.40388896673717
  0
LINE
  5
3C1A
330
2
100
AcDbEntity
  8
0
100
AcDbLine
 10
363.9715760980259
 20
119.2423527689874
 30
0.0
 11
363.9715760980259
 21
102.2423527689874
 31
0.0
  0
LINE
  5
3C1B
330
2
100
AcDbEntity
  8
0
100
AcDbLine
 10
363.9715760980259
 20
119.2423527689874
 30
0.0
 11
362.9715760980259
 21
119.8197030381769
 31
0.0
  0
LINE
  5
3C1C
330
2
100
AcDbEntity
  8
0
100
AcDbLine
 10
363.9715760980259
 20
102.2422383672168
 30
0.0
 11
362.9715760980259
 21
101.6648880980272
 31
0.0
  0
LINE
  5
3C1D
330
2
100
AcDbEntity
  8
0
100
AcDbLine
 10
362.7215760980259
 20
122.3866331353996
 30
0.0
 11
362.5695532345396
 21
122.4744035765562
 31
0.0
  0
ARC
  5
3C1E
330
2
100
AcDbEntity
  8
0
100
AcDbCircle
 10
362.4715760980259
 20
99.5309707026969
 30
0.0
 40
0.5
100
AcDbArc
 50
300.0000000000005
 51
0.0
  0
ARC
  5
3C1F
330
2
100
AcDbEntity
  8
0
100
AcDbCircle
 10
361.5695532345396
 20
100.742238367217
 30
0.0
 40
2.0
100
AcDbArc
 50
281.5961110332628
 51
300.0000000000005
  0
LINE
  5
3C20
330
2
100
AcDbEntity
  8
0
100
AcDbLine
 10
362.7215760980259
 20
99.09795800080486
 30
0.0
 11
362.5695532345396
 21
99.01018755964821
 31
0.0
  0
ARC
  5
3C21
330
2
100
AcDbEntity
  8
0
100
AcDbCircle
 10
372.4715760980255
 20
110.7422955681021
 30
0.0
 40
2.5
100
AcDbArc
 50
90.0
 51
270.0
  0
LINE
  5
3C22
330
2
100
AcDbEntity
  8
0
100
AcDbLine
 10
393.9715760980259
 20
117.7423527689874
 30
0.0
 11
393.4715760980259
 21
118.2423527689874
 31
0.0
  0
LINE
  5
3C23
330
2
100
AcDbEntity
  8
0
100
AcDbLine
 10
393.9715760980259
 20
117.7423527689874
 30
0.0
 11
393.9715760980254
 21
103.7423527689885
 31
0.0
  0
LINE
  5
3C24
330
2
100
AcDbEntity
  8
0
100
AcDbLine
 10
393.4715760980255
 20
103.2423527689885
 30
0.0
 11
393.9715760980254
 21
103.7423527689885
 31
0.0
  0
LINE
  5
3C25
330
2
100
AcDbEntity
  8
0
100
AcDbLine
 10
393.4715760980259
 20
118.2423527689874
 30
0.0
 11
393.4715760980255
 21
113.2422987501244
 31
0.0
  0
LINE
  5
3C26
330
2
100
AcDbEntity
  8
0
100
AcDbLine
 10
393.4715760980255
 20
108.2422987594014
 30
0.0
 11
393.4715760980255
 21
103.2423527689885
 31
0.0
  0
ARC
  5
3C28
330
2
100
AcDbEntity
  8
0
100
AcDbCircle
 10
570.422771554167
 20
110.7422955680999
 30
0.0
 40
7.500057200868525
100
AcDbArc
 50
199.471066139117
 51
160.5289338608829
  0
ARC
  5
3C29
330
2
100
AcDbEntity
  8
0
100
AcDbCircle
 10
570.422771554167
 20
110.7422955680999
 30
0.0
 40
8.500057200868525
100
AcDbArc
 50
197.1045165256734
 51
162.8954834743296
  0
ARC
  5
3C2A
330
2
100
AcDbEntity
  8
0
100
AcDbCircle
 10
570.422771554167
 20
110.7422955680997
 30
0.0
 40
9.077407470058233
100
AcDbArc
 50
195.986391246479
 51
164.0136087535209
  0
CIRCLE
  5
3C2B
330
2
100
AcDbEntity
  8
0
100
AcDbCircle
 10
570.422771554167
 20
110.7422955680997
 30
0.0
 40
12.00005720086858
  0
LINE
  5
3C2D
330
2
100
AcDbEntity
  8
0
100
AcDbLine
 10
560.9228287550364
 20
108.2422955680996
 30
0.0
 11
565.922828755036
 21
108.2422955680996
 31
0.0
  0
LINE
  5
3C2E
330
2
100
AcDbEntity
  8
0
100
AcDbLine
 10
560.9228287550346
 20
113.2422955680999
 30
0.0
 11
565.9228287550351
 21
113.2422955680999
 31
0.0
  0
LINE
  5
3C2F
330
2
100
AcDbEntity
  8
0
100
AcDbLine
 10
565.9228287550351
 20
113.2422955680999
 30
0.0
 11
565.922828755036
 21
108.2422955680996
 31
0.0
  0
LINE
  5
3C30
330
2
100
AcDbEntity
  8
0
100
AcDbLine
 10
560.9228287550346
 20
113.2422955680999
 30
0.0
 11
560.9228287550364
 21
108.2422955680996
 31
0.0
  0
LINE
  5
3C32
330
2
100
AcDbEntity
  8
0
100
AcDbLine
 10
577.9228287550564
 20
338.3552626908674
 30
0.0
 11
577.9228287550564
 21
308.8552626908674
 31
0.0
  0
LINE
  5
3C33
330
2
100
AcDbEntity
  8
0
100
AcDbLine
 10
560.9228287550519
 20
308.3552626908681
 30
0.0
 11
560.9228287550519
 21
332.3552626908679
 31
0.0
  0
LINE
  5
3C34
330
2
100
AcDbEntity
  8
0
100
AcDbLine
 10
563.3516430716646
 20
308.3552626908679
 30
0.0
 11
563.3516430716646
 21
329.8566746481308
 31
0.0
  0
LINE
  5
3C35
330
2
100
AcDbEntity
  8
0
100
AcDbLine
 10
577.4228287550564
 20
308.3552626908674
 30
0.0
 11
560.9228287550519
 21
308.3552626908681
 31
0.0
  0
LINE
  5
3C36
330
2
100
AcDbEntity
  8
0
100
AcDbLine
 10
577.9228287550564
 20
308.8552626908674
 30
0.0
 11
563.3516430716642
 21
308.8552626908688
 31
0.0
  0
LINE
  5
3C37
330
2
100
AcDbEntity
  8
0
100
AcDbLine
 10
577.4228287550564
 20
308.3552626908674
 30
0.0
 11
577.9228287550564
 21
308.8552626908674
 31
0.0
  0
LINE
  5
3C39
330
2
100
AcDbEntity
  8
0
100
AcDbLine
 10
581.6340964195766
 20
339.3552626908674
 30
0.0
 11
559.2114466887661
 21
339.3552626908674
 31
0.0
  0
LINE
  5
3C3A
330
2
100
AcDbEntity
  8
0
100
AcDbLine
 10
578.9228287550564
 20
338.3552626908674
 30
0.0
 11
561.9228287550564
 21
338.3552626908674
 31
0.0
  0
LINE
  5
3C3B
330
2
100
AcDbEntity
  8
0
100
AcDbLine
 10
562.9228287550569
 20
338.3552626908674
 30
0.0
 11
562.9228287550569
 21
332.3552626908681
 31
0.0
  0
LINE
  5
3C3C
330
2
100
AcDbEntity
  8
0
100
AcDbLine
 10
561.9227143532858
 20
338.3552626908674
 30
0.0
 11
561.3453640840963
 21
339.3552626908674
 31
0.0
  0
ARC
  5
3C3D
330
2
100
AcDbEntity
  8
0
100
AcDbCircle
 10
559.2114466887661
 20
339.8552626908674
 30
0.0
 40
0.5
100
AcDbArc
 50
210.0000000000004
 51
270.0
  0
ARC
  5
3C3E
330
2
100
AcDbEntity
  8
0
100
AcDbCircle
 10
560.4227143532859
 20
340.7572855543537
 30
0.0
 40
2.0
100
AcDbArc
 50
191.5961110332487
 51
210.0000000000004
  0
LINE
  5
3C3F
330
2
100
AcDbEntity
  8
0
100
AcDbLine
 10
558.7784339868736
 20
339.6052626908674
 30
0.0
 11
558.6906635457173
 21
339.7572855543537
 31
0.0
  0
LINE
  5
3C40
330
2
100
AcDbEntity
  8
0
100
AcDbLine
 10
562.9228287550565
 20
332.3552626908679
 30
0.0
 11
560.9228287550519
 21
332.3552626908679
 31
0.0
  0
LINE
  5
3C41
330
2
100
AcDbEntity
  8
0
100
AcDbLine
 10
562.9228287550565
 20
332.3552626908679
 30
0.0
 11
563.3516430716646
 21
329.8566746481308
 31
0.0
  0
ARC
  5
3C42
330
2
100
AcDbEntity
  8
0
100
AcDbCircle
 10
581.6340964195766
 20
339.8552626908674
 30
0.0
 40
0.5
100
AcDbArc
 50
270.0
 51
329.9999999999994
  0
ARC
  5
3C43
330
2
100
AcDbEntity
  8
0
100
AcDbCircle
 10
580.4228287550564
 20
340.7572855543537
 30
0.0
 40
2.0
100
AcDbArc
 50
329.9999999999994
 51
348.4038889667512
  0
LINE
  5
3C44
330
2
100
AcDbEntity
  8
0
100
AcDbLine
 10
578.9228287550564
 20
338.3552626908674
 30
0.0
 11
579.5001790242459
 21
339.3552626908674
 31
0.0
  0
LINE
  5
3C45
330
2
100
AcDbEntity
  8
0
100
AcDbLine
 10
582.0671091214686
 20
339.6052626908674
 30
0.0
 11
582.1548795626255
 21
339.7572855543537
 31
0.0
  0
LINE
  5
3C47
330
2
100
AcDbEntity
  8
0
100
AcDbLine
 10
841.4165748926887
 20
102.2422383672066
 30
0.0
 11
842.4165748926887
 21
101.664888098017
 31
0.0
  0
LINE
  5
3C48
330
2
100
AcDbEntity
  8
0
100
AcDbLine
 10
841.4165748926887
 20
119.2423527689771
 30
0.0
 11
842.4165748926887
 21
119.8197030381667
 31
0.0
  0
LINE
  5
3C49
330
2
100
AcDbEntity
  8
0
100
AcDbLine
 10
841.4165748926887
 20
102.2422383672066
 30
0.0
 11
841.4165748926887
 21
119.2422383672065
 31
0.0
  0
LINE
  5
3C4A
330
2
100
AcDbEntity
  8
0
100
AcDbLine
 10
841.4165748926887
 20
103.2422383672066
 30
0.0
 11
811.9165748926887
 21
103.2422383672066
 31
0.0
  0
LINE
  5
3C4B
330
2
100
AcDbEntity
  8
0
100
AcDbLine
 10
811.4165748926886
 20
103.7422383672065
 30
0.0
 11
811.9165748926887
 21
103.2422383672066
 31
0.0
  0
LINE
  5
3C4C
330
2
100
AcDbEntity
  8
0
100
AcDbLine
 10
811.4165748926886
 20
103.7422383672065
 30
0.0
 11
811.4165748926895
 21
117.7422383672061
 31
0.0
  0
LINE
  5
3C4D
330
2
100
AcDbEntity
  8
0
100
AcDbLine
 10
811.9165748926896
 20
118.2422383672061
 30
0.0
 11
811.4165748926895
 21
117.7422383672061
 31
0.0
  0
LINE
  5
3C4E
330
2
100
AcDbEntity
  8
0
100
AcDbLine
 10
841.4165748926887
 20
118.2422383672061
 30
0.0
 11
811.9165748926896
 21
118.2422383672061
 31
0.0
  0
LINE
  5
3C4F
330
2
100
AcDbEntity
  8
0
100
AcDbLine
 10
811.9165748926887
 20
103.2422383672066
 30
0.0
 11
811.9165748926899
 21
118.2422383672061
 31
0.0
  0
LINE
  5
3C51
330
2
100
AcDbEntity
  8
0
100
AcDbLine
 10
842.4165748926887
 20
99.53097070268643
 30
0.0
 11
842.4165748926887
 21
121.9536204334968
 31
0.0
  0
ARC
  5
3C52
330
2
100
AcDbEntity
  8
0
100
AcDbCircle
 10
842.9165748926887
 20
99.53097070268643
 30
0.0
 40
0.5
100
AcDbArc
 50
180.0
 51
239.9999999999994
  0
ARC
  5
3C53
330
2
100
AcDbEntity
  8
0
100
AcDbCircle
 10
843.8185977561749
 20
100.7422383672065
 30
0.0
 40
2.0
100
AcDbArc
 50
239.9999999999994
 51
258.4038889667506
  0
LINE
  5
3C54
330
2
100
AcDbEntity
  8
0
100
AcDbLine
 10
842.6665748926886
 20
99.09795800079439
 30
0.0
 11
842.8185977561749
 21
99.01018755963754
 31
0.0
  0
ARC
  5
3C55
330
2
100
AcDbEntity
  8
0
100
AcDbCircle
 10
842.9165748926887
 20
121.9536204334968
 30
0.0
 40
0.5
100
AcDbArc
 50
120.0000000000005
 51
180.0
  0
ARC
  5
3C56
330
2
100
AcDbEntity
  8
0
100
AcDbCircle
 10
843.8185977561749
 20
120.7423527689771
 30
0.0
 40
2.0
100
AcDbArc
 50
101.5961110332493
 51
120.0000000000005
  0
LINE
  5
3C57
330
2
100
AcDbEntity
  8
0
100
AcDbLine
 10
842.6665748926886
 20
122.3866331353893
 30
0.0
 11
842.8185977561749
 21
122.4744035765457
 31
0.0
  0
CIRCLE
  5
3E43
330
2
100
AcDbEntity
  8
0
100
AcDbCircle
 10
570.4227715541725
 20
110.7422955681032
 30
0.0
 40
19.5774
  0
ENDSEC
  0
SECTION
  2
OBJECTS
  0
DICTIONARY
  5
7
330
0
100
AcDbDictionary
  3
ACAD_COLOR
350
1F3E
  3
ACAD_GROUP
350
75
  3
ACAD_LAYOUT
350
61
  3
ACAD_MATERIAL
350
1F14
  3
ACAD_MLEADERSTYLE
350
1F63
  3
ACAD_MLINESTYLE
350
76
  3
ACAD_PLOTSETTINGS
350
77
  3
ACAD_PLOTSTYLENAME
350
6
  3
ACAD_SCALELIST
350
1F41
  3
ACAD_TABLESTYLE
350
1F3F
  3
ACAD_VISUALSTYLE
350
1F2D
  3
ACADDIM
350
480
  3
ACDB_RECOMPOSE_DATA
350
1FD0
  3
ACDBHEADERROUNDTRIPXREC
350
3E86
  3
ACDBVARIABLEDICTIONARY
350
102
  3
DWGPROPS
350
3E53
  0
DICTIONARY
  5
1FD9
330
6E
100
AcDbDictionary
280
     1
  3
ACAD_XREC_ROUNDTRIP
360
3E5A
  0
DICTIONARY
  5
AE5
330
66
100
AcDbDictionary
280
     1
  3
ACAD_LAYERSTATES
360
AE6
  0
DICTIONARY
  5
1F71
330
5E
100
AcDbDictionary
280
     1
  3
ACAD_XREC_ROUNDTRIP
360
3E56
  3
ADSK_XREC_LAYER_RECONCILED
360
1F72
  0
DICTIONARY
  5
1F73
330
3E
100
AcDbDictionary
280
     1
  3
ACAD_XREC_ROUNDTRIP
360
3E55
  3
ADSK_XREC_LAYER_RECONCILED
360
1F74
  0
DICTIONARY
  5
1F79
330
2B5
100
AcDbDictionary
280
     1
  3
ACAD_XREC_ROUNDTRIP
360
3E60
  3
ADSK_XREC_LAYER_RECONCILED
360
1F7A
  0
DICTIONARY
  5
1F7B
330
2BA
100
AcDbDictionary
280
     1
  3
ACAD_XREC_ROUNDTRIP
360
3E61
  3
ADSK_XREC_LAYER_RECONCILED
360
1F7C
  0
DICTIONARY
  5
1F7F
330
3FA
100
AcDbDictionary
280
     1
  3
ACAD_XREC_ROUNDTRIP
360
3E63
  3
ADSK_XREC_LAYER_RECONCILED
360
1F80
  0
DICTIONARY
  5
3EA7
330
2
100
AcDbDictionary
280
     1
  3
ACAD_LAYOUTSELFREF
360
3EA8
  0
DICTIONARY
  5
3EA9
330
3E80
100
AcDbDictionary
280
     1
  3
ACAD_LAYOUTSELFREF
360
3EAA
  0
DICTIONARY
  5
1F3E
102
{ACAD_REACTORS
330
7
102
}
330
7
100
AcDbDictionary
  0
DICTIONARY
  5
75
102
{ACAD_REACTORS
330
7
102
}
330
7
100
AcDbDictionary
  0
DICTIONARY
  5
61
102
{ACAD_REACTORS
330
7
102
}
330
7
100
AcDbDictionary
  0
DICTIONARY
  5
1F14
102
{ACAD_REACTORS
330
7
102
}
330
7
100
AcDbDictionary
  3
BYBLOCK
350
1F1D
  3
BYLAYER
350
1F15
  3
GLOBAL
350
1F25
  0
DICTIONARY
  5
1F63
102
{ACAD_REACTORS
330
7
102
}
330
7
100
AcDbDictionary
  3
STANDARD
350
1F64
  0
DICTIONARY
  5
76
102
{ACAD_REACTORS
330
7
102
}
330
7
100
AcDbDictionary
  3
STANDARD
350
78
  0
DICTIONARY
  5
77
102
{ACAD_REACTORS
330
7
102
}
330
7
100
AcDbDictionary
  0
ACDBDICTIONARYWDFLT
  5
6
102
{ACAD_REACTORS
330
7
102
}
330
7
100
AcDbDictionary
281
     1
  3
Normal
350
5
100
AcDbDictionaryWithDefault
340
5
  0
DICTIONARY
  5
1F41
102
{ACAD_REACTORS
330
7
102
}
330
7
100
AcDbDictionary
  3
A0
350
1F42
  3
A1
350
1F43
  3
A2
350
1F44
  3
A3
350
1F45
  3
A4
350
1F46
  3
A5
350
1F47
  3
A6
350
1F48
  3
A7
350
1F49
  3
A8
350
1F4A
  3
A9
350
1F4B
  3
B0
350
1F4C
  3
B1
350
1F4D
  3
B2
350
1F4E
  3
B3
350
1F4F
  3
B4
350
1F50
  3
B5
350
1F51
  3
B6
350
1F52
  3
B7
350
1F53
  3
B8
350
1F54
  3
B9
350
1F55
  3
C0
350
1F56
  3
C1
350
1F57
  3
C2
350
1F58
  3
C3
350
1F59
  3
C4
350
1F5A
  3
C5
350
1F5B
  3
C6
350
1F5C
  3
C7
350
1F5D
  3
C8
350
1F5E
  3
C9
350
1F5F
  3
D0
350
1F60
  3
D1
350
1F61
  3
D2
350
1F62
  0
DICTIONARY
  5
1F3F
102
{ACAD_REACTORS
330
7
102
}
330
7
100
AcDbDictionary
  3
STANDARD
350
1F40
  0
DICTIONARY
  5
1F2D
102
{ACAD_REACTORS
330
7
102
}
330
7
100
AcDbDictionary
  3
2DWIREFRAME
350
1F33
  3
3D_HIDDEN
350
1F35
  3
3DWIREFRAME
350
1F34
  3
BASIC
350
1F32
  3
BRIGHTEN
350
1F39
  3
COLORCHANGE
350
1F3D
  3
CONCEPTUAL
350
1F36
  3
DIM
350
1F38
  3
FACEPATTERN
350
1F3C
  3
FLAT
350
1F2E
  3
FLATWITHEDGES
350
1F2F
  3
GOURAUD
350
1F30
  3
GOURAUDWITHEDGES
350
1F31
  3
LINEPATTERN
350
1F3B
  3
REALISTIC
350
1F37
  3
THICKEN
350
1F3A
  0
XRECORD
  5
480
102
{ACAD_REACTORS
330
7
102
}
330
7
100
AcDbXrecord
 90
   990106
  3

 60
     0
 61
     0
 62
     1
 63
     3
 64
     1
 65
     0
 66
     0
 67
     3
 68
     1
 69
     0
 70
     0
 71
     0
 72
     0
 40
0.0
170
     2
340
0
  0
XRECORD
  5
1FD0
102
{ACAD_REACTORS
330
7
102
}
330
7
100
AcDbXrecord
 90
        1
330
1F40
  0
DICTIONARY
  5
3E86
102
{ACAD_REACTORS
330
7
102
}
330
7
100
AcDbDictionary
  3
CEPSNTYPE
350
3E90
  3
DIMSTYLEDATA
350
3E94
  3
FINGERPRINTGUID
350
3E91
  3
HYPERLINKBASE
350
3E89
  3
INSUNITS
350
3E8F
  3
LAYOUTDICT
350
3E8B
  3
LWETCUNION
350
3E8E
  3
PLOTSETDICT
350
3E8C
  3
PLOTSTYLNAMDICT
350
3E8D
  3
PSVPSCALE
350
3E93
  3
PUCSBASE
350
3E97
  3
PUCSORGBACK
350
3E9D
  3
PUCSORGBOTTOM
350
3E99
  3
PUCSORGFRONT
350
3E9C
  3
PUCSORGLEFT
350
3E9A
  3
PUCSORGRIGHT
350
3E9B
  3
PUCSORGTOP
350
3E98
  3
PUCSORTHOREF
350
3E95
  3
PUCSORTHOVIEW
350
3E96
  3
STYLESHEET
350
3E8A
  3
TSTACKALIGN
350
3E87
  3
TSTACKSIZE
350
3E88
  3
UCSBASE
350
3EA0
  3
UCSORGBACK
350
3EA6
  3
UCSORGBOTTOM
350
3EA2
  3
UCSORGFRONT
350
3EA5
  3
UCSORGLEFT
350
3EA3
  3
UCSORGRIGHT
350
3EA4
  3
UCSORGTOP
350
3EA1
  3
UCSORTHOREF
350
3E9E
  3
UCSORTHOVIEW
350
3E9F
  3
VERSIONGUID
350
3E92
  0
DICTIONARY
  5
102
102
{ACAD_REACTORS
330
7
102
}
330
7
100
AcDbDictionary
  3
CANNOSCALE
350
1FF1
  3
CMLEADERSTYLE
350
1FF0
  3
CTABLESTYLE
350
1FEF
  3
DIMASSOC
350
103
  3
INDEXCTL
350
1FF2
  3
SORTENTS
350
549
  0
XRECORD
  5
3E53
102
{ACAD_REACTORS
330
7
102
}
330
7
100
AcDbXrecord
  1
DWGPROPS COOKIE
  2

  3

  4

  6

  7

  8
ymorima
  9

300
=
301
=
302
=
303
=
304
=
305
=
306
=
307
=
308
=
309
=
 40
0.0658031018518519
 41
2454410.548017025
 42
2454425.754521655
  1

 90
        0
  0
XRECORD
  5
3E5A
102
{ACAD_REACTORS
330
1FD9
102
}
330
1FD9
100
AcDbXrecord
102
VTR_0.000_0.000_1.000_1.000_VISUALSTYLE
340
1F33
102
VTR_0.000_0.000_1.000_1.000_GRIDDISPLAY
 70
     3
102
VTR_0.000_0.000_1.000_1.000_GRIDMAJOR
 70
     5
102
VTR_0.000_0.000_1.000_1.000_DEFAULTLIGHTING
280
     1
102
VTR_0.000_0.000_1.000_1.000_DEFAULTLIGHTINGTYPE
 70
     1
102
VTR_0.000_0.000_1.000_1.000_BRIGHTNESS
141
0.0
102
VTR_0.000_0.000_1.000_1.000_CONTRAST
142
0.0
  0
DICTIONARY
  5
AE6
102
{ACAD_REACTORS
330
AE5
102
}
330
AE5
100
AcDbDictionary
  0
XRECORD
  5
3E56
102
{ACAD_REACTORS
330
1F71
102
}
330
1F71
100
AcDbXrecord
102
MATERIAL
340
1F25
  0
XRECORD
  5
1F72
102
{ACAD_REACTORS
330
1F71
102
}
330
1F71
100
AcDbXrecord
290
     1
  0
XRECORD
  5
3E55
102
{ACAD_REACTORS
330
1F73
102
}
330
1F73
100
AcDbXrecord
102
MATERIAL
340
1F25
  0
XRECORD
  5
1F74
102
{ACAD_REACTORS
330
1F73
102
}
330
1F73
100
AcDbXrecord
290
     1
  0
XRECORD
  5
3E60
102
{ACAD_REACTORS
330
1F79
102
}
330
1F79
100
AcDbXrecord
102
MATERIAL
340
1F25
  0
XRECORD
  5
1F7A
102
{ACAD_REACTORS
330
1F79
102
}
330
1F79
100
AcDbXrecord
290
     1
  0
XRECORD
  5
3E61
102
{ACAD_REACTORS
330
1F7B
102
}
330
1F7B
100
AcDbXrecord
102
MATERIAL
340
1F25
  0
XRECORD
  5
1F7C
102
{ACAD_REACTORS
330
1F7B
102
}
330
1F7B
100
AcDbXrecord
290
     1
  0
XRECORD
  5
3E63
102
{ACAD_REACTORS
330
1F7F
102
}
330
1F7F
100
AcDbXrecord
102
MATERIAL
340
1F25
  0
XRECORD
  5
1F80
102
{ACAD_REACTORS
330
1F7F
102
}
330
1F7F
100
AcDbXrecord
290
     1
  0
XRECORD
  5
3EA8
102
{ACAD_REACTORS
330
3EA7
102
}
330
3EA7
100
AcDbXrecord
340
2
  0
XRECORD
  5
3EAA
102
{ACAD_REACTORS
330
3EA9
102
}
330
3EA9
100
AcDbXrecord
340
3E80
  0
ACAD_PROXY_OBJECT
  5
1F1D
102
{ACAD_XDICTIONARY
360
1F1E
102
}
102
{ACAD_REACTORS
330
1F14
102
}
330
1F14
100
AcDbProxyObject
 90
      499
 91
      510
 93
     1340
310
42109E509B1BD8DAC02004014080404555555555555953FAA155555555555654FEA9AA400014080404555555555555953FAA155555555555654FEA9AA400000000000000E03F4080404555555555555953FAA155555555555654FEA9AA4014080404555555555555953FAA155555555555654FEA9AA4010201011555555555
310
55654FEA8555555555555953FAA6A9005020101155555555555654FEA8555555555555953FAA6A900E
 94
        0
1001
ACAD
1000
AcadProxyRoundTripData
1071
      504
1071
   655383
1070
     0
  0
ACAD_PROXY_OBJECT
  5
1F15
102
{ACAD_XDICTIONARY
360
1F16
102
}
102
{ACAD_REACTORS
330
1F14
102
}
330
1F14
100
AcDbProxyObject
 90
      499
 91
      510
 93
     1340
310
42109E53185E595C802004014080404555555555555953FAA155555555555654FEA9AA400014080404555555555555953FAA155555555555654FEA9AA400000000000000E03F4080404555555555555953FAA155555555555654FEA9AA4014080404555555555555953FAA155555555555654FEA9AA4010201011555555555
310
55654FEA8555555555555953FAA6A9005020101155555555555654FEA8555555555555953FAA6A900E
 94
        0
1001
ACAD
1000
AcadProxyRoundTripData
1071
      504
1071
   655383
1070
     0
  0
ACAD_PROXY_OBJECT
  5
1F25
102
{ACAD_XDICTIONARY
360
1F26
102
}
102
{ACAD_REACTORS
330
1F14
102
}
330
1F14
100
AcDbProxyObject
 90
      499
 91
      510
 93
     1332
310
41D1DB1BD8985B002004014080404555555555555953FAA155555555555654FEA9AA400014080404555555555555953FAA155555555555654FEA9AA400000000000000E03F4080404555555555555953FAA155555555555654FEA9AA4014080404555555555555953FAA155555555555654FEA9AA401020101155555555555
310
654FEA8555555555555953FAA6A9005020101155555555555654FEA8555555555555953FAA6A9000
 94
        0
1001
ACAD
1000
AcadProxyRoundTripData
1071
      504
1071
   655383
1070
     0
  0
ACAD_PROXY_OBJECT
  5
1F64
102
{ACAD_REACTORS
330
1F63
102
}
330
1F63
100
AcDbProxyObject
 90
      499
 91
      510
 93
      618
310
40901902A4063FBFFFFFE056BD1B81E855B9FC0AD7A3703D0AD73F4254DD185B99185C990000AD7A3703D0AC73F90141901A02B5E8DC0F42B1CFC02B5E8DC0F42B1CFE5764000000000000300FC6
340
6A
340
0
340
16
340
0
 94
        0
1001
ACAD_MLEADERVER
1070
     2
1001
ACAD
1000
AcadProxyRoundTripData
1071
      508
1071
   655383
1070
     0
  0
MLINESTYLE
  5
78
102
{ACAD_REACTORS
330
76
102
}
330
76
100
AcDbMlineStyle
  2
STANDARD
 70
     0
  3

 62
     0
 51
90.0
 52
90.0
 71
     2
 49
0.5
 62
   256
  6
BYLAYER
 49
-0.5
 62
   256
  6
BYLAYER
  0
ACDBPLACEHOLDER
  5
5
102
{ACAD_REACTORS
330
6
102
}
330
6
100
AcDbPlaceHolder
280
     0
  0
ACAD_PROXY_OBJECT
  5
1F42
102
{ACAD_REACTORS
330
1F41
102
}
330
1F41
100
AcDbProxyObject
 90
      499
 91
      510
 93
       49
310
904313A3100598
 94
        0
1001
ACAD
1000
AcadProxyRoundTripData
1071
      507
1071
   655383
1070
     0
  0
ACAD_PROXY_OBJECT
  5
1F43
102
{ACAD_REACTORS
330
1F41
102
}
330
1F41
100
AcDbProxyObject
 90
      499
 91
      510
 93
      113
310
904313A3200400000000000000406B
 94
        0
1001
ACAD
1000
AcadProxyRoundTripData
1071
      507
1071
   655383
1070
     0
  0
ACAD_PROXY_OBJECT
  5
1F44
102
{ACAD_REACTORS
330
1F41
102
}
330
1F41
100
AcDbProxyObject
 90
      499
 91
      510
 93
      113
310
904313A3400400000000000010406B
 94
        0
1001
ACAD
1000
AcadProxyRoundTripData
1071
      507
1071
   655383
1070
     0
  0
ACAD_PROXY_OBJECT
  5
1F45
102
{ACAD_REACTORS
330
1F41
102
}
330
1F41
100
AcDbProxyObject
 90
      499
 91
      510
 93
      113
310
904313A3500400000000000014406B
 94
        0
1001
ACAD
1000
AcadProxyRoundTripData
1071
      507
1071
   655383
1070
     0
  0
ACAD_PROXY_OBJECT
  5
1F46
102
{ACAD_REACTORS
330
1F41
102
}
330
1F41
100
AcDbProxyObject
 90
      499
 91
      510
 93
      113
310
904313A3800400000000000020406B
 94
        0
1001
ACAD
1000
AcadProxyRoundTripData
1071
      507
1071
   655383
1070
     0
  0
ACAD_PROXY_OBJECT
  5
1F47
102
{ACAD_REACTORS
330
1F41
102
}
330
1F41
100
AcDbProxyObject
 90
      499
 91
      510
 93
      121
310
905313A3130004000000000000244051
 94
        0
1001
ACAD
1000
AcadProxyRoundTripData
1071
      507
1071
   655383
1070
     0
  0
ACAD_PROXY_OBJECT
  5
1F48
102
{ACAD_REACTORS
330
1F41
102
}
330
1F41
100
AcDbProxyObject
 90
      499
 91
      510
 93
      121
310
905313A3136004000000000000304051
 94
        0
1001
ACAD
1000
AcadProxyRoundTripData
1071
      507
1071
   655383
1070
     0
  0
ACAD_PROXY_OBJECT
  5
1F49
102
{ACAD_REACTORS
330
1F41
102
}
330
1F41
100
AcDbProxyObject
 90
      499
 91
      510
 93
      121
310
905313A3230004000000000000344051
 94
        0
1001
ACAD
1000
AcadProxyRoundTripData
1071
      507
1071
   655383
1070
     0
  0
ACAD_PROXY_OBJECT
  5
1F4A
102
{ACAD_REACTORS
330
1F41
102
}
330
1F41
100
AcDbProxyObject
 90
      499
 91
      510
 93
      121
310
905313A33300040000000000003E4051
 94
        0
1001
ACAD
1000
AcadProxyRoundTripData
1071
      507
1071
   655383
1070
     0
  0
ACAD_PROXY_OBJECT
  5
1F4B
102
{ACAD_REACTORS
330
1F41
102
}
330
1F41
100
AcDbProxyObject
 90
      499
 91
      510
 93
      121
310
905313A3430004000000000000444051
 94
        0
1001
ACAD
1000
AcadProxyRoundTripData
1071
      507
1071
   655383
1070
     0
  0
ACAD_PROXY_OBJECT
  5
1F4C
102
{ACAD_REACTORS
330
1F41
102
}
330
1F41
100
AcDbProxyObject
 90
      499
 91
      510
 93
      121
310
905313A3530004000000000000494051
 94
        0
1001
ACAD
1000
AcadProxyRoundTripData
1071
      507
1071
   655383
1070
     0
  0
ACAD_PROXY_OBJECT
  5
1F4D
102
{ACAD_REACTORS
330
1F41
102
}
330
1F41
100
AcDbProxyObject
 90
      499
 91
      510
 93
      129
310
906313A313030004000000000000594038
 94
        0
1001
ACAD
1000
AcadProxyRoundTripData
1071
      507
1071
   655383
1070
     0
  0
ACAD_PROXY_OBJECT
  5
1F4E
102
{ACAD_REACTORS
330
1F41
102
}
330
1F41
100
AcDbProxyObject
 90
      499
 91
      510
 93
      113
310
904323A31000000000000000010159
 94
        0
1001
ACAD
1000
AcadProxyRoundTripData
1071
      507
1071
   655383
1070
     0
  0
ACAD_PROXY_OBJECT
  5
1F4F
102
{ACAD_REACTORS
330
1F41
102
}
330
1F41
100
AcDbProxyObject
 90
      499
 91
      510
 93
      113
310
904343A31000000000000000410159
 94
        0
1001
ACAD
1000
AcadProxyRoundTripData
1071
      507
1071
   655383
1070
     0
  0
ACAD_PROXY_OBJECT
  5
1F50
102
{ACAD_REACTORS
330
1F41
102
}
330
1F41
100
AcDbProxyObject
 90
      499
 91
      510
 93
      113
310
904383A31000000000000000810159
 94
        0
1001
ACAD
1000
AcadProxyRoundTripData
1071
      507
1071
   655383
1070
     0
  0
ACAD_PROXY_OBJECT
  5
1F51
102
{ACAD_REACTORS
330
1F41
102
}
330
1F41
100
AcDbProxyObject
 90
      499
 91
      510
 93
      121
310
90531303A31000000000000000910140
 94
        0
1001
ACAD
1000
AcadProxyRoundTripData
1071
      507
1071
   655383
1070
     0
  0
ACAD_PROXY_OBJECT
  5
1F52
102
{ACAD_REACTORS
330
1F41
102
}
330
1F41
100
AcDbProxyObject
 90
      499
 91
      510
 93
      129
310
9063130303A31000000000000001650138
 94
        0
1001
ACAD
1000
AcadProxyRoundTripData
1071
      507
1071
   655383
1070
     0
  0
ACAD_PROXY_OBJECT
  5
1F53
102
{ACAD_REACTORS
330
1F41
102
}
330
1F41
100
AcDbProxyObject
 90
      499
 91
      510
 93
      265
310
90F312F31323822203D2031272D302200000000000000200FC00000000000028402B
 94
        0
1001
ACAD
1000
AcadProxyRoundTripData
1071
      507
1071
   655383
1070
     0
  0
ACAD_PROXY_OBJECT
  5
1F54
102
{ACAD_REACTORS
330
1F41
102
}
330
1F41
100
AcDbProxyObject
 90
      499
 91
      510
 93
      257
310
90E312F363422203D2031272D302200000000000000240FC000000000000284040
 94
        0
1001
ACAD
1000
AcadProxyRoundTripData
1071
      507
1071
   655383
1070
     0
  0
ACAD_PROXY_OBJECT
  5
1F55
102
{ACAD_REACTORS
330
1F41
102
}
330
1F41
100
AcDbProxyObject
 90
      499
 91
      510
 93
      257
310
90E312F333222203D2031272D302200000000000000280FC000000000000284040
 94
        0
1001
ACAD
1000
AcadProxyRoundTripData
1071
      507
1071
   655383
1070
     0
  0
ACAD_PROXY_OBJECT
  5
1F56
102
{ACAD_REACTORS
330
1F41
102
}
330
1F41
100
AcDbProxyObject
 90
      499
 91
      510
 93
      257
310
90E312F313622203D2031272D3022000000000000002C0FC000000000000284040
 94
        0
1001
ACAD
1000
AcadProxyRoundTripData
1071
      507
1071
   655383
1070
     0
  0
ACAD_PROXY_OBJECT
  5
1F57
102
{ACAD_REACTORS
330
1F41
102
}
330
1F41
100
AcDbProxyObject
 90
      499
 91
      510
 93
      257
310
90E332F333222203D2031272D3022000000000000002E0FC000000000000284040
 94
        0
1001
ACAD
1000
AcadProxyRoundTripData
1071
      507
1071
   655383
1070
     0
  0
ACAD_PROXY_OBJECT
  5
1F58
102
{ACAD_REACTORS
330
1F41
102
}
330
1F41
100
AcDbProxyObject
 90
      499
 91
      510
 93
      249
310
90D312F3822203D2031272D302200000000000000300FC000000000000284040
 94
        0
1001
ACAD
1000
AcadProxyRoundTripData
1071
      507
1071
   655383
1070
     0
  0
ACAD_PROXY_OBJECT
  5
1F59
102
{ACAD_REACTORS
330
1F41
102
}
330
1F41
100
AcDbProxyObject
 90
      499
 91
      510
 93
      257
310
90E332F313622203D2031272D302200000000000000320FC000000000000284040
 94
        0
1001
ACAD
1000
AcadProxyRoundTripData
1071
      507
1071
   655383
1070
     0
  0
ACAD_PROXY_OBJECT
  5
1F5A
102
{ACAD_REACTORS
330
1F41
102
}
330
1F41
100
AcDbProxyObject
 90
      499
 91
      510
 93
      249
310
90D312F3422203D2031272D302200000000000000340FC000000000000284040
 94
        0
1001
ACAD
1000
AcadProxyRoundTripData
1071
      507
1071
   655383
1070
     0
  0
ACAD_PROXY_OBJECT
  5
1F5B
102
{ACAD_REACTORS
330
1F41
102
}
330
1F41
100
AcDbProxyObject
 90
      499
 91
      510
 93
      249
310
90D332F3822203D2031272D302200000000000000360FC000000000000284040
 94
        0
1001
ACAD
1000
AcadProxyRoundTripData
1071
      507
1071
   655383
1070
     0
  0
ACAD_PROXY_OBJECT
  5
1F5C
102
{ACAD_REACTORS
330
1F41
102
}
330
1F41
100
AcDbProxyObject
 90
      499
 91
      510
 93
      249
310
90D312F3222203D2031272D302200000000000000380FC000000000000284040
 94
        0
1001
ACAD
1000
AcadProxyRoundTripData
1071
      507
1071
   655383
1070
     0
  0
ACAD_PROXY_OBJECT
  5
1F5D
102
{ACAD_REACTORS
330
1F41
102
}
330
1F41
100
AcDbProxyObject
 90
      499
 91
      510
 93
      249
310
90D332F3422203D2031272D3022000000000000003A0FC000000000000284040
 94
        0
1001
ACAD
1000
AcadProxyRoundTripData
1071
      507
1071
   655383
1070
     0
  0
ACAD_PROXY_OBJECT
  5
1F5E
102
{ACAD_REACTORS
330
1F41
102
}
330
1F41
100
AcDbProxyObject
 90
      499
 91
      510
 93
      169
310
90B3122203D2031272D3022004000000000000284020
 94
        0
1001
ACAD
1000
AcadProxyRoundTripData
1071
      507
1071
   655383
1070
     0
  0
ACAD_PROXY_OBJECT
  5
1F5F
102
{ACAD_REACTORS
330
1F41
102
}
330
1F41
100
AcDbProxyObject
 90
      499
 91
      510
 93
      265
310
90F312D312F3222203D2031272D3022000000000000003E0FC00000000000028402B
 94
        0
1001
ACAD
1000
AcadProxyRoundTripData
1071
      507
1071
   655383
1070
     0
  0
ACAD_PROXY_OBJECT
  5
1F60
102
{ACAD_REACTORS
330
1F41
102
}
330
1F41
100
AcDbProxyObject
 90
      499
 91
      510
 93
      233
310
90B3322203D2031272D30220000000000000002100000000000000284000
 94
        0
1001
ACAD
1000
AcadProxyRoundTripData
1071
      507
1071
   655383
1070
     0
  0
ACAD_PROXY_OBJECT
  5
1F61
102
{ACAD_REACTORS
330
1F41
102
}
330
1F41
100
AcDbProxyObject
 90
      499
 91
      510
 93
      233
310
90B3622203D2031272D30220000000000000006100000000000000284000
 94
        0
1001
ACAD
1000
AcadProxyRoundTripData
1071
      507
1071
   655383
1070
     0
  0
ACAD_PROXY_OBJECT
  5
1F62
102
{ACAD_REACTORS
330
1F41
102
}
330
1F41
100
AcDbProxyObject
 90
      499
 91
      510
 93
      257
310
90E31272D3022203D2031272D3022000000000000000A100000000000000284040
 94
        0
1001
ACAD
1000
AcadProxyRoundTripData
1071
      507
1071
   655383
1070
     0
  0
ACAD_PROXY_OBJECT
  5
1F40
102
{ACAD_XDICTIONARY
360
1FCE
102
}
102
{ACAD_REACTORS
330
1F3F
102
}
330
1F3F
100
AcDbProxyObject
 90
      499
 91
      510
 93
     1849
310
4254DD185B99185C990028B81E85EB51B8AE3F2E07A17AD46E2B8FC02B5E8DC0F42B1CFD028000000C1008070000C3001FDFF8000000C1003FBFF000000182007F7FE00000030400FEFFC00000060801FDFF8000000C1003FBFF00000018200000000000000681FA0B0000001820100E000186003FBFF000000182007F7FE0
310
0000030400FEFFC00000060801FDFF8000000C1003FBFF000000182007F7FE000000304000AD7A3703D0AC73F4160000003040201C00030C007F7FE00000030400FEFFC00000060801FDFF8000000C1003FBFF000000182007F7FE00000030400FEFFC000000608064
340
16
340
16
340
16
 94
        0
1001
ACAD
1000
AcadProxyRoundTripData
1071
      506
1071
   655383
1070
     0
  0
ACAD_PROXY_OBJECT
  5
1F33
102
{ACAD_REACTORS
330
1F2D
102
}
330
1F2D
100
AcDbProxyObject
 90
      499
 91
      510
 93
      444
310
430C9915DA5C99599C985B59401049028333333333333E3BF0000000000000FB0107901411070040501600405405064090741402480A0340
 94
        0
1001
ACAD
1000
AcDbSavedByObjectVersion
1070
     0
1000
AcadProxyRoundTripData
1071
      505
1071
   655383
1070
     0
  0
ACAD_PROXY_OBJECT
  5
1F35
102
{ACAD_REACTORS
330
1F2D
102
}
330
1F2D
100
AcDbProxyObject
 90
      499
 91
      510
 93
      508
310
428CD108121A5919195B8010640502408333333333333E3BF0000000000000FB01079024090700405020000000000001110200405405064090740C02480A0340
 94
        0
1001
ACAD
1000
AcDbSavedByObjectVersion
1070
     0
1000
AcadProxyRoundTripData
1071
      505
1071
   655383
1070
     0
  0
ACAD_PROXY_OBJECT
  5
1F34
102
{ACAD_REACTORS
330
1F2D
102
}
330
1F2D
100
AcDbProxyObject
 90
      499
 91
      510
 93
      444
310
430CD915DA5C99599C985B59401059028333333333333E3BF0000000000000FB0107901411070040501600405405064090741402480A0340
 94
        0
1001
ACAD
1000
AcDbSavedByObjectVersion
1070
     0
1000
AcadProxyRoundTripData
1071
      505
1071
   655383
1070
     0
  0
ACAD_PROXY_OBJECT
  5
1F32
102
{ACAD_REACTORS
330
1F2D
102
}
330
1F2D
100
AcDbProxyObject
 90
      499
 91
      510
 93
      396
310
4190985CDA58C0107406404333333333333E3BF0000000000000FB0107A41107004050150841D405064090741402480A0356
 94
        0
1001
ACAD
1000
AcDbSavedByObjectVersion
1070
     0
1000
AcadProxyRoundTripData
1071
      505
1071
   655383
1070
     0
  0
ACAD_PROXY_OBJECT
  5
1F39
102
{ACAD_REACTORS
330
1F2D
102
}
330
1F2D
100
AcDbProxyObject
 90
      499
 91
      510
 93
      436
310
42509C9A59DA1D195B8010C409028333333333333E3BF0000000000000FB010790141107004050150841D405064090741402480A029956
 94
        0
1001
ACAD
1000
AcDbSavedByObjectVersion
1070
     0
1000
AcadProxyRoundTripData
1071
      505
1071
   655383
1070
     0
  0
ACAD_PROXY_OBJECT
  5
1F3D
102
{ACAD_REACTORS
330
1F2D
102
}
330
1F2D
100
AcDbProxyObject
 90
      499
 91
      510
 93
      460
310
4310DBDB1BDC90DA185B99D9401104090240C333333333333E3BF0000000000000FB0108901411070040501508421405064090741402480A0354
 94
        0
1001
ACAD
1000
AcDbSavedByObjectVersion
1070
     0
1000
AcadProxyRoundTripData
1071
      505
1071
   655383
1070
     0
  0
ACAD_PROXY_OBJECT
  5
1F36
102
{ACAD_REACTORS
330
1F2D
102
}
330
1F2D
100
AcDbProxyObject
 90
      499
 91
      510
 93
      508
310
42D0DBDB98D95C1D1D585B0010940D028333333333333E3BF0000000000000FB0107902409070040501000000000000111010841D405064090740C02480A0340
 94
        0
1001
ACAD
1000
AcDbSavedByObjectVersion
1070
     0
1000
AcadProxyRoundTripData
1071
      505
1071
   655383
1070
     0
  0
ACAD_PROXY_OBJECT
  5
1F38
102
{ACAD_REACTORS
330
1F2D
102
}
330
1F2D
100
AcDbProxyObject
 90
      499
 91
      510
 93
      420
310
41111A5B4010B409028333333333333E3BF0000000000000FB010790141107004050150841D405064090741402480A02677FFFFFDB
 94
        0
1001
ACAD
1000
AcDbSavedByObjectVersion
1070
     0
1000
AcadProxyRoundTripData
1071
      505
1071
   655383
1070
     0
  0
ACAD_PROXY_OBJECT
  5
1F3C
102
{ACAD_REACTORS
330
1F2D
102
}
330
1F2D
100
AcDbProxyObject
 90
      499
 91
      510
 93
      452
310
43119858D95C185D1D195C9B8010F409028333333333333E3BF0000000000000FB010790141107004050150841D405064090741402480A0350
 94
        0
1001
ACAD
1000
AcDbSavedByObjectVersion
1070
     0
1000
AcadProxyRoundTripData
1071
      505
1071
   655383
1070
     0
  0
ACAD_PROXY_OBJECT
  5
1F2E
102
{ACAD_REACTORS
330
1F2D
102
}
330
1F2D
100
AcDbProxyObject
 90
      499
 91
      510
 93
      396
310
41519B185D00240901404333333333333E3BF0000000000000F9010740A41107004050150841D405064090741402480A1B55
 94
        0
1001
ACAD
1000
AcDbSavedByObjectVersion
1070
     0
1000
AcadProxyRoundTripData
1071
      505
1071
   655383
1070
     0
  0
ACAD_PROXY_OBJECT
  5
1F2F
102
{ACAD_REACTORS
330
1F2D
102
}
330
1F2D
100
AcDbProxyObject
 90
      499
 91
      510
 93
      484
310
43919B185D15DA5D1A115919D95CC010140901404333333333333E3BF0000000000000F9010740901411070040501600405405064090741402480A1B50
 94
        0
1001
ACAD
1000
AcDbSavedByObjectVersion
1070
     0
1000
AcadProxyRoundTripData
1071
      505
1071
   655383
1070
     0
  0
ACAD_PROXY_OBJECT
  5
1F30
102
{ACAD_REACTORS
330
1F2D
102
}
330
1F2D
100
AcDbProxyObject
 90
      499
 91
      510
 93
      420
310
4211DBDD5C985D590010240902404333333333333E3BF0000000000000F9010740A411070040501641D405064090741402480A1B50
 94
        0
1001
ACAD
1000
AcDbSavedByObjectVersion
1070
     0
1000
AcadProxyRoundTripData
1071
      505
1071
   655383
1070
     0
  0
ACAD_PROXY_OBJECT
  5
1F31
102
{ACAD_REACTORS
330
1F2D
102
}
330
1F2D
100
AcDbProxyObject
 90
      499
 91
      510
 93
      508
310
4451DBDD5C985D5915DA5D1A115919D95CC010340902404333333333333E3BF0000000000000F9010740901411070040501600405405064090741402480A1B50
 94
        0
1001
ACAD
1000
AcDbSavedByObjectVersion
1070
     0
1000
AcadProxyRoundTripData
1071
      505
1071
   655383
1070
     0
  0
ACAD_PROXY_OBJECT
  5
1F3B
102
{ACAD_REACTORS
330
1F2D
102
}
330
1F2D
100
AcDbProxyObject
 90
      499
 91
      510
 93
      452
310
43131A5B995C185D1D195C9B8010E409028333333333333E3BF0000000000000FB010790141107004050750841D405064090741402483A0350
 94
        0
1001
ACAD
1000
AcDbSavedByObjectVersion
1070
     0
1000
AcadProxyRoundTripData
1071
      505
1071
   655383
1070
     0
  0
ACAD_PROXY_OBJECT
  5
1F37
102
{ACAD_REACTORS
330
1F2D
102
}
330
1F2D
100
AcDbProxyObject
 90
      499
 91
      510
 93
      428
310
429499585B1A5CDD1A58C0108409028333333333333E3BF0000000000000FB01079019070040501508421405064090741402480A1B45
 94
        0
1001
ACAD
1000
AcDbSavedByObjectVersion
1070
     0
1000
AcadProxyRoundTripData
1071
      505
1071
   655383
1070
     0
  0
ACAD_PROXY_OBJECT
  5
1F3A
102
{ACAD_REACTORS
330
1F2D
102
}
330
1F2D
100
AcDbProxyObject
 90
      499
 91
      510
 93
      420
310
42151A1A58DAD95B8010D409028333333333333E3BF0000000000000FB010790141107004050150C41D405064090741402480A0352
 94
        0
1001
ACAD
1000
AcDbSavedByObjectVersion
1070
     0
1000
AcadProxyRoundTripData
1071
      505
1071
   655383
1070
     0
  0
XRECORD
  5
3E90
102
{ACAD_REACTORS
330
3E86
102
}
330
3E86
100
AcDbXrecord
 90
        0
  0
XRECORD
  5
3E94
102
{ACAD_REACTORS
330
3E86
102
}
330
3E86
100
AcDbXrecord
1000
DSTYLE
1002
{
1070
   179
 70
     2
1070
   277
 70
     6
1002
}
  0
XRECORD
  5
3E91
102
{ACAD_REACTORS
330
3E86
102
}
330
3E86
100
AcDbXrecord
  1
{6385560B-F4B1-4644-A7C2-A3E32AC3D232}
  0
XRECORD
  5
3E89
102
{ACAD_REACTORS
330
3E86
102
}
330
3E86
100
AcDbXrecord
  1

  0
XRECORD
  5
3E8F
102
{ACAD_REACTORS
330
3E86
102
}
330
3E86
100
AcDbXrecord
 90
        0
  0
XRECORD
  5
3E8B
102
{ACAD_REACTORS
330
3E86
102
}
330
3E86
100
AcDbXrecord
340
61
  0
XRECORD
  5
3E8E
102
{ACAD_REACTORS
330
3E86
102
}
330
3E86
100
AcDbXrecord
 90
    10781
  0
XRECORD
  5
3E8C
102
{ACAD_REACTORS
330
3E86
102
}
330
3E86
100
AcDbXrecord
340
77
  0
XRECORD
  5
3E8D
102
{ACAD_REACTORS
330
3E86
102
}
330
3E86
100
AcDbXrecord
340
6
  0
XRECORD
  5
3E93
102
{ACAD_REACTORS
330
3E86
102
}
330
3E86
100
AcDbXrecord
 40
0.0
  0
XRECORD
  5
3E97
102
{ACAD_REACTORS
330
3E86
102
}
330
3E86
100
AcDbXrecord
340
0
  0
XRECORD
  5
3E9D
102
{ACAD_REACTORS
330
3E86
102
}
330
3E86
100
AcDbXrecord
 10
0.0
 20
0.0
 30
0.0
  0
XRECORD
  5
3E99
102
{ACAD_REACTORS
330
3E86
102
}
330
3E86
100
AcDbXrecord
 10
0.0
 20
0.0
 30
0.0
  0
XRECORD
  5
3E9C
102
{ACAD_REACTORS
330
3E86
102
}
330
3E86
100
AcDbXrecord
 10
0.0
 20
0.0
 30
0.0
  0
XRECORD
  5
3E9A
102
{ACAD_REACTORS
330
3E86
102
}
330
3E86
100
AcDbXrecord
 10
0.0
 20
0.0
 30
0.0
  0
XRECORD
  5
3E9B
102
{ACAD_REACTORS
330
3E86
102
}
330
3E86
100
AcDbXrecord
 10
0.0
 20
0.0
 30
0.0
  0
XRECORD
  5
3E98
102
{ACAD_REACTORS
330
3E86
102
}
330
3E86
100
AcDbXrecord
 10
0.0
 20
0.0
 30
0.0
  0
XRECORD
  5
3E95
102
{ACAD_REACTORS
330
3E86
102
}
330
3E86
100
AcDbXrecord
340
0
  0
XRECORD
  5
3E96
102
{ACAD_REACTORS
330
3E86
102
}
330
3E86
100
AcDbXrecord
 70
     0
  0
XRECORD
  5
3E8A
102
{ACAD_REACTORS
330
3E86
102
}
330
3E86
100
AcDbXrecord
  1
Sekkei.ctb
  0
XRECORD
  5
3E87
102
{ACAD_REACTORS
330
3E86
102
}
330
3E86
100
AcDbXrecord
 90
        1
  0
XRECORD
  5
3E88
102
{ACAD_REACTORS
330
3E86
102
}
330
3E86
100
AcDbXrecord
 90
       70
  0
XRECORD
  5
3EA0
102
{ACAD_REACTORS
330
3E86
102
}
330
3E86
100
AcDbXrecord
340
0
  0
XRECORD
  5
3EA6
102
{ACAD_REACTORS
330
3E86
102
}
330
3E86
100
AcDbXrecord
 10
0.0
 20
0.0
 30
0.0
  0
XRECORD
  5
3EA2
102
{ACAD_REACTORS
330
3E86
102
}
330
3E86
100
AcDbXrecord
 10
0.0
 20
0.0
 30
0.0
  0
XRECORD
  5
3EA5
102
{ACAD_REACTORS
330
3E86
102
}
330
3E86
100
AcDbXrecord
 10
0.0
 20
0.0
 30
0.0
  0
XRECORD
  5
3EA3
102
{ACAD_REACTORS
330
3E86
102
}
330
3E86
100
AcDbXrecord
 10
0.0
 20
0.0
 30
0.0
  0
XRECORD
  5
3EA4
102
{ACAD_REACTORS
330
3E86
102
}
330
3E86
100
AcDbXrecord
 10
0.0
 20
0.0
 30
0.0
  0
XRECORD
  5
3EA1
102
{ACAD_REACTORS
330
3E86
102
}
330
3E86
100
AcDbXrecord
 10
0.0
 20
0.0
 30
0.0
  0
XRECORD
  5
3E9E
102
{ACAD_REACTORS
330
3E86
102
}
330
3E86
100
AcDbXrecord
340
0
  0
XRECORD
  5
3E9F
102
{ACAD_REACTORS
330
3E86
102
}
330
3E86
100
AcDbXrecord
 70
     0
  0
XRECORD
  5
3E92
102
{ACAD_REACTORS
330
3E86
102
}
330
3E86
100
AcDbXrecord
  1
{975A8066-C013-42AE-823A-1FC34CE19099}
  0
DICTIONARYVAR
  5
1FF1
102
{ACAD_REACTORS
330
102
102
}
330
102
100
DictionaryVariables
280
     0
  1
1:1
  0
DICTIONARYVAR
  5
1FF0
102
{ACAD_REACTORS
330
102
102
}
330
102
100
DictionaryVariables
280
     0
  1
STANDARD
  0
DICTIONARYVAR
  5
1FEF
102
{ACAD_REACTORS
330
102
102
}
330
102
100
DictionaryVariables
280
     0
  1
STANDARD
  0
DICTIONARYVAR
  5
103
102
{ACAD_REACTORS
330
102
102
}
330
102
100
DictionaryVariables
280
     0
  1
1
  0
DICTIONARYVAR
  5
1FF2
102
{ACAD_REACTORS
330
102
102
}
330
102
100
DictionaryVariables
280
     0
  1
0
  0
DICTIONARYVAR
  5
549
102
{ACAD_REACTORS
330
102
102
}
330
102
100
DictionaryVariables
280
     0
  1
96
  0
DICTIONARY
  5
1F1E
330
1F1D
100
AcDbDictionary
280
     1
  3
ACAD_XREC_ROUNDTRIP
360
3E65
  3
BUMPTILE
360
1F20
  3
DIFFUSETILE
360
1F1F
  3
OPACITYTILE
360
1F23
  3
REFLECTIONTILE
360
1F22
  3
REFRACTIONTILE
360
1F24
  3
SPECULARTILE
360
1F21
  0
DICTIONARY
  5
1F16
330
1F15
100
AcDbDictionary
280
     1
  3
ACAD_XREC_ROUNDTRIP
360
3E64
  3
BUMPTILE
360
1F18
  3
DIFFUSETILE
360
1F17
  3
OPACITYTILE
360
1F1B
  3
REFLECTIONTILE
360
1F1A
  3
REFRACTIONTILE
360
1F1C
  3
SPECULARTILE
360
1F19
  0
DICTIONARY
  5
1F26
330
1F25
100
AcDbDictionary
280
     1
  3
ACAD_XREC_ROUNDTRIP
360
3E66
  3
BUMPTILE
360
1F28
  3
DIFFUSETILE
360
1F27
  3
OPACITYTILE
360
1F2B
  3
REFLECTIONTILE
360
1F2A
  3
REFRACTIONTILE
360
1F2C
  3
SPECULARTILE
360
1F29
  0
DICTIONARY
  5
1FCE
330
1F40
100
AcDbDictionary
280
     1
  3
ACAD_ROUNDTRIP_2008_TABLES
360
3E52
  3
ACAD_XREC_ROUNDTRIP
360
3E67
  0
XRECORD
  5
3E65
102
{ACAD_REACTORS
330
1F1E
102
}
330
1F1E
100
AcDbXrecord
102
MATERIAL
148
0.0
149
0.0
149
0.0
 93
        0
 94
      127
282
     0
 72
     0
 77
     0
171
     0
175
     0
179
     0
273
     0
  0
XRECORD
  5
1F20
102
{ACAD_REACTORS
330
1F1E
102
}
330
1F1E
100
AcDbXrecord
270
     1
271
     1
  0
XRECORD
  5
1F1F
102
{ACAD_REACTORS
330
1F1E
102
}
330
1F1E
100
AcDbXrecord
270
     1
271
     1
  0
XRECORD
  5
1F23
102
{ACAD_REACTORS
330
1F1E
102
}
330
1F1E
100
AcDbXrecord
270
     1
271
     1
  0
XRECORD
  5
1F22
102
{ACAD_REACTORS
330
1F1E
102
}
330
1F1E
100
AcDbXrecord
270
     1
271
     1
  0
XRECORD
  5
1F24
102
{ACAD_REACTORS
330
1F1E
102
}
330
1F1E
100
AcDbXrecord
270
     1
271
     1
  0
XRECORD
  5
1F21
102
{ACAD_REACTORS
330
1F1E
102
}
330
1F1E
100
AcDbXrecord
270
     1
271
     1
  0
XRECORD
  5
3E64
102
{ACAD_REACTORS
330
1F16
102
}
330
1F16
100
AcDbXrecord
102
MATERIAL
148
0.0
149
0.0
149
0.0
 93
        0
 94
      127
282
     0
 72
     0
 77
     0
171
     0
175
     0
179
     0
273
     0
  0
XRECORD
  5
1F18
102
{ACAD_REACTORS
330
1F16
102
}
330
1F16
100
AcDbXrecord
270
     1
271
     1
  0
XRECORD
  5
1F17
102
{ACAD_REACTORS
330
1F16
102
}
330
1F16
100
AcDbXrecord
270
     1
271
     1
  0
XRECORD
  5
1F1B
102
{ACAD_REACTORS
330
1F16
102
}
330
1F16
100
AcDbXrecord
270
     1
271
     1
  0
XRECORD
  5
1F1A
102
{ACAD_REACTORS
330
1F16
102
}
330
1F16
100
AcDbXrecord
270
     1
271
     1
  0
XRECORD
  5
1F1C
102
{ACAD_REACTORS
330
1F16
102
}
330
1F16
100
AcDbXrecord
270
     1
271
     1
  0
XRECORD
  5
1F19
102
{ACAD_REACTORS
330
1F16
102
}
330
1F16
100
AcDbXrecord
270
     1
271
     1
  0
XRECORD
  5
3E66
102
{ACAD_REACTORS
330
1F26
102
}
330
1F26
100
AcDbXrecord
102
MATERIAL
148
0.0
149
0.0
149
0.0
 93
        0
 94
      127
282
     0
 72
     0
 77
     0
171
     0
175
     0
179
     0
273
     0
  0
XRECORD
  5
1F28
102
{ACAD_REACTORS
330
1F26
102
}
330
1F26
100
AcDbXrecord
270
     1
271
     1
  0
XRECORD
  5
1F27
102
{ACAD_REACTORS
330
1F26
102
}
330
1F26
100
AcDbXrecord
270
     1
271
     1
  0
XRECORD
  5
1F2B
102
{ACAD_REACTORS
330
1F26
102
}
330
1F26
100
AcDbXrecord
270
     1
271
     1
  0
XRECORD
  5
1F2A
102
{ACAD_REACTORS
330
1F26
102
}
330
1F26
100
AcDbXrecord
270
     1
271
     1
  0
XRECORD
  5
1F2C
102
{ACAD_REACTORS
330
1F26
102
}
330
1F26
100
AcDbXrecord
270
     1
271
     1
  0
XRECORD
  5
1F29
102
{ACAD_REACTORS
330
1F26
102
}
330
1F26
100
AcDbXrecord
270
     1
271
     1
  0
ACAD_PROXY_OBJECT
  5
3E52
102
{ACAD_REACTORS
330
1FCE
102
}
330
1FCE
100
AcDbProxyObject
 90
      499
 91
      510
 93
     5304
310
40D054060020000020000003200101A000080002A5058000000C100000000000000340FD012E07A17AD46E2B8FCB81E85EB51B8AE3F2E07A17AD46E2B8FCB81E85EB51B8AE3F02B5E8DC0F42B1CFC0AD7A3703D0AC73F419019018000000C1003FBFFFFFE02B5E8DC0F42A9CFD029018000000C1003FBFFFFFE02B5E8DC0F4
310
2A9CFD049018000000C1003FBFFFFFE02B5E8DC0F42A9CFD089018000000C1003FBFFFFFE02B5E8DC0F42A9CFD109018000000C1003FBFFFFFE02B5E8DC0F42A9CFD209018000000C1003FBFFFFFE02B5E8DC0F42A9CFD01405075F5449544C450041501A8000000C800406800020000A9416000000304000AD7A3703D0AC7
310
3F404B81E85EB51B8AE3F2E07A17AD46E2B8FCB81E85EB51B8AE3F2E07A17AD46E2B8FC0AD7A3703D0AC73F02B5E8DC0F42B1CFD0640640600000030400FEFFFFFF80AD7A3703D0AA73F40A40600000030400FEFFFFFF80AD7A3703D0AA73F41240600000030400FEFFFFFF80AD7A3703D0AA73F42240600000030400FEFFF
310
FFF80AD7A3703D0AA73F44240600000030400FEFFFFFF80AD7A3703D0AA73F48240600000030400FEFFFFFF80AD7A3703D0AA73F409014217D2115051115480105406A0000003200101A000080002A5028000000C10002B5E8DC0F42B1CFD012E07A17AD46E2B8FCB81E85EB51B8AE3F2E07A17AD46E2B8FCB81E85EB51B8A
310
E3F02B5E8DC0F42B1CFC0AD7A3703D0AC73F419019018000000C1003FBFFFFFE02B5E8DC0F42A9CFD029018000000C1003FBFFFFFE02B5E8DC0F42A9CFD049018000000C1003FBFFFFFE02B5E8DC0F42A9CFD089018000000C1003FBFFFFFE02B5E8DC0F42A9CFD109018000000C1003FBFFFFFE02B5E8DC0F42A9CFD20901
310
8000000C1003FBFFFFFE02B5E8DC0F42A9CFD03409065F444154410000
340
16
340
0
340
0
340
0
340
0
340
0
340
0
340
16
340
0
340
0
340
0
340
0
340
0
340
0
340
16
340
0
340
0
340
0
340
0
340
0
340
0
 94
        0
1001
ACAD
1000
AcadProxyRoundTripData
1071
      509
1071
   655383
1070
     0
  0
XRECORD
  5
3E67
102
{ACAD_REACTORS
330
1FCE
102
}
330
1FCE
100
AcDbXrecord
102
ACAD_ROUNDTRIP_PRE2007_TABLESTYLE
 90
      512
 91
        0
  1

 92
      512
 93
        0
  2

 94
      512
 95
        0
  3

  0
ENDSEC
  0
EOF
