  0
SECTION
  2
HEADER
  9
$ACADVER
  1
AC1014
  9
$ACADMAINTVER
 70
     9
  9
$DWGCODEPAGE
  3
ANSI_932
  9
$INSBASE
 10
0.0
 20
0.0
 30
0.0
  9
$EXTMIN
 10
39.09821705392539
 20
56.74229556810309
 30
0.0
  9
$EXTMAX
 10
947.4165748929804
 20
444.3552626911584
 30
0.0
  9
$LIMMIN
 10
0.0
 20
0.0
  9
$LIMMAX
 10
297.0
 20
210.0
  9
$ORTHOMODE
 70
     1
  9
$REGENMODE
 70
     1
  9
$FILLMODE
 70
     1
  9
$QTEXTMODE
 70
     0
  9
$MIRRTEXT
 70
     0
  9
$DRAGMODE
 70
     2
  9
$LTSCALE
 40
3.0
  9
$OSMODE
 70
    37
  9
$ATTMODE
 70
     1
  9
$TEXTSIZE
 40
2.0
  9
$TRACEWID
 40
1.0
  9
$TEXTSTYLE
  7
STANDARD
  9
$CLAYER
  8
0
  9
$CELTYPE
  6
BYLAYER
  9
$CECOLOR
 62
   256
  9
$CELTSCALE
 40
1.0
  9
$DELOBJ
 70
     1
  9
$DISPSILH
 70
     0
  9
$DIMSCALE
 40
3.0
  9
$DIMASZ
 40
1.8
  9
$DIMEXO
 40
0.625
  9
$DIMDLI
 40
3.75
  9
$DIMRND
 40
0.0
  9
$DIMDLE
 40
0.0
  9
$DIMEXE
 40
0.8
  9
$DIMTP
 40
0.0
  9
$DIMTM
 40
0.0
  9
$DIMTXT
 40
1.8
  9
$DIMCEN
 40
2.5
  9
$DIMTSZ
 40
0.0
  9
$DIMTOL
 70
     0
  9
$DIMLIM
 70
     0
  9
$DIMTIH
 70
     0
  9
$DIMTOH
 70
     0
  9
$DIMSE1
 70
     0
  9
$DIMSE2
 70
     0
  9
$DIMTAD
 70
     1
  9
$DIMZIN
 70
     8
  9
$DIMBLK
  1

  9
$DIMASO
 70
     1
  9
$DIMSHO
 70
     1
  9
$DIMPOST
  1

  9
$DIMAPOST
  1

  9
$DIMALT
 70
     0
  9
$DIMALTD
 70
     4
  9
$DIMALTF
 40
0.0394
  9
$DIMLFAC
 40
1.0
  9
$DIMTOFL
 70
     1
  9
$DIMTVP
 40
0.0
  9
$DIMTIX
 70
     0
  9
$DIMSOXD
 70
     0
  9
$DIMSAH
 70
     0
  9
$DIMBLK1
  1

  9
$DIMBLK2
  1

  9
$DIMSTYLE
  2
STANDARD
  9
$DIMCLRD
 70
     0
  9
$DIMCLRE
 70
     0
  9
$DIMCLRT
 70
     0
  9
$DIMTFAC
 40
1.0
  9
$DIMGAP
 40
0.75
  9
$DIMJUST
 70
     0
  9
$DIMSD1
 70
     0
  9
$DIMSD2
 70
     0
  9
$DIMTOLJ
 70
     1
  9
$DIMTZIN
 70
     0
  9
$DIMALTZ
 70
     0
  9
$DIMALTTZ
 70
     0
  9
$DIMFIT
 70
     3
  9
$DIMUPT
 70
     0
  9
$DIMUNIT
 70
     8
  9
$DIMDEC
 70
     2
  9
$DIMTDEC
 70
     2
  9
$DIMALTU
 70
     8
  9
$DIMALTTD
 70
     4
  9
$DIMTXSTY
  7
STANDARD
  9
$DIMAUNIT
 70
     0
  9
$LUNITS
 70
     2
  9
$LUPREC
 70
     3
  9
$SKETCHINC
 40
1.0
  9
$FILLETRAD
 40
10.0
  9
$AUNITS
 70
     0
  9
$AUPREC
 70
     2
  9
$MENU
  1
.
  9
$ELEVATION
 40
0.0
  9
$PELEVATION
 40
0.0
  9
$THICKNESS
 40
0.0
  9
$LIMCHECK
 70
     0
  9
$BLIPMODE
 70
     0
  9
$CHAMFERA
 40
0.0
  9
$CHAMFERB
 40
0.0
  9
$CHAMFERC
 40
20.0
  9
$CHAMFERD
 40
0.0
  9
$SKPOLY
 70
     0
  9
$TDCREATE
 40
2454410.560790104
  9
$TDUPDATE
 40
2454425.764612268
  9
$TDINDWG
 40
0.1113972222
  9
$TDUSRTIMER
 40
0.1113972222
  9
$USRTIMER
 70
     1
  9
$ANGBASE
 50
0.0
  9
$ANGDIR
 70
     0
  9
$PDMODE
 70
     0
  9
$PDSIZE
 40
-10.0
  9
$PLINEWID
 40
0.0
  9
$COORDS
 70
     0
  9
$SPLFRAME
 70
     0
  9
$SPLINETYPE
 70
     6
  9
$SPLINESEGS
 70
     8
  9
$ATTDIA
 70
     0
  9
$ATTREQ
 70
     1
  9
$HANDLING
 70
-16383
  9
$HANDSEED
  5
2DF4
  9
$SURFTAB1
 70
     6
  9
$SURFTAB2
 70
     6
  9
$SURFTYPE
 70
     6
  9
$SURFU
 70
     6
  9
$SURFV
 70
     6
  9
$UCSNAME
  2

  9
$UCSORG
 10
0.0
 20
0.0
 30
0.0
  9
$UCSXDIR
 10
1.0
 20
0.0
 30
0.0
  9
$UCSYDIR
 10
0.0
 20
1.0
 30
0.0
  9
$PUCSNAME
  2

  9
$PUCSORG
 10
0.0
 20
0.0
 30
0.0
  9
$PUCSXDIR
 10
1.0
 20
0.0
 30
0.0
  9
$PUCSYDIR
 10
0.0
 20
1.0
 30
0.0
  9
$USERI1
 70
     0
  9
$USERI2
 70
     0
  9
$USERI3
 70
     0
  9
$USERI4
 70
     0
  9
$USERI5
 70
     0
  9
$USERR1
 40
0.0
  9
$USERR2
 40
0.0
  9
$USERR3
 40
0.0
  9
$USERR4
 40
0.0
  9
$USERR5
 40
0.0
  9
$WORLDVIEW
 70
     1
  9
$SHADEDGE
 70
     3
  9
$SHADEDIF
 70
    70
  9
$TILEMODE
 70
     1
  9
$MAXACTVP
 70
    48
  9
$PINSBASE
 10
0.0
 20
0.0
 30
0.0
  9
$PLIMCHECK
 70
     0
  9
$PEXTMIN
 10
0.0
 20
0.0
 30
0.0
  9
$PEXTMAX
 10
0.0
 20
0.0
 30
0.0
  9
$PLIMMIN
 10
0.0
 20
0.0
  9
$PLIMMAX
 10
12.0
 20
9.0
  9
$UNITMODE
 70
     0
  9
$VISRETAIN
 70
     1
  9
$PLINEGEN
 70
     0
  9
$PSLTSCALE
 70
     1
  9
$TREEDEPTH
 70
  3020
  9
$PICKSTYLE
 70
     1
  9
$CMLSTYLE
  2
STANDARD
  9
$CMLJUST
 70
     0
  9
$CMLSCALE
 40
1.0
  9
$PROXYGRAPHICS
 70
     1
  9
$MEASUREMENT
 70
     0
  0
ENDSEC
  0
SECTION
  2
CLASSES
  0
CLASS
  1
DICTIONARYVAR
  2
AcDbDictionaryVar
  3
AutoCAD 2000
 90
        0
280
     0
281
     0
  0
CLASS
  1
ACDBDICTIONARYWDFLT
  2
AcDbDictionaryWithDefault
  3
AutoCAD 2000
 90
        0
280
     0
281
     0
  0
CLASS
  1
ACDBPLACEHOLDER
  2
AcDbPlaceHolder
  3
AutoCAD 2000
 90
        0
280
     0
281
     0
  0
CLASS
  1
LAYOUT
  2
AcDbLayout
  3
AutoCAD 2000
 90
        0
280
     0
281
     0
  0
CLASS
  1
MATERIAL
  2
AcDbMaterial
  3
ObjectDBX Classes
 90
     1153
280
     0
281
     0
  0
CLASS
  1
VISUALSTYLE
  2
AcDbVisualStyle
  3
ObjectDBX Classes
 90
     4095
280
     0
281
     0
  0
CLASS
  1
TABLESTYLE
  2
AcDbTableStyle
  3
ObjectDBX Classes
 90
     4095
280
     0
281
     0
  0
CLASS
  1
SCALE
  2
AcDbScale
  3
ObjectDBX Classes
 90
     1153
280
     0
281
     0
  0
CLASS
  1
MLEADERSTYLE
  2
AcDbMLeaderStyle
  3
ACDB_MLEADERSTYLE_CLASS
 90
     4095
280
     0
281
     0
  0
CLASS
  1
CELLSTYLEMAP
  2
AcDbCellStyleMap
  3
ObjectDBX Classes
 90
     1152
280
     0
281
     0
  0
CLASS
  1
ACAD_PROXY_OBJECT_WRAPPER
  2
AcDbProxyObjectWrapper
  3
AutoCAD 2000
 90
        0
280
     0
281
     0
  0
CLASS
  1
LONG_TRANSACTION
  2
AcDbLongTransaction
  3
AutoCAD 2000
 90
        0
280
     0
281
     0
  0
CLASS
  1
LWPOLYLINE
  2
AcDbPolyline
  3
AutoCAD 2000
 90
        0
280
     0
281
     1
  0
CLASS
  1
HATCH
  2
AcDbHatch
  3
AutoCAD 2000
 90
        0
280
     0
281
     1
  0
CLASS
  1
XRECORD
  2
AcDbXrecord
  3
AutoCAD 2000
 90
        0
280
     0
281
     0
  0
ENDSEC
  0
SECTION
  2
TABLES
  0
TABLE
  2
VPORT
  5
6E
102
{ACAD_XDICTIONARY
360
1A9C
102
}
330
0
100
AcDbSymbolTable
 70
     2
  0
VPORT
  5
2DCE
330
6E
100
AcDbSymbolTableRecord
100
AcDbViewportTableRecord
  2
*ACTIVE
 70
     0
 10
0.0
 20
0.0
 11
1.0
 21
1.0
 12
560.7550463088082
 22
240.7195584106256
 13
0.0
 23
0.0
 14
10.0
 24
10.0
 15
10.0
 25
10.0
 16
0.0
 26
0.0
 36
1.0
 17
0.0
 27
0.0
 37
0.0
 40
597.842449659273
 41
1.753504672897196
 42
50.0
 43
0.0
 44
0.0
 50
0.0
 51
0.0
 71
     0
 72
   100
 73
     1
 74
     3
 75
     0
 76
     0
 77
     0
 78
     0
  0
ENDTAB
  0
TABLE
  2
LTYPE
  5
69
330
0
100
AcDbSymbolTable
 70
     5
  0
LTYPE
  5
6A
330
69
100
AcDbSymbolTableRecord
100
AcDbLinetypeTableRecord
  2
BYBLOCK
 70
     0
  3

 72
    65
 73
     0
 40
0.0
  0
LTYPE
  5
6B
330
69
100
AcDbSymbolTableRecord
100
AcDbLinetypeTableRecord
  2
BYLAYER
 70
     0
  3

 72
    65
 73
     0
 40
0.0
  0
LTYPE
  5
8
330
69
100
AcDbSymbolTableRecord
100
AcDbLinetypeTableRecord
  2
CONTINUOUS
 70
     0
  3
Solid line
 72
    65
 73
     0
 40
0.0
  0
LTYPE
  5
27C
330
69
100
AcDbSymbolTableRecord
100
AcDbLinetypeTableRecord
  2
SEKKEI_A2_
 70
     0
  3
center(A2)  ____ _ ____ _ ____ _ ____ _ ____ _ 
 72
    65
 73
     4
 40
14.28749999999999
 49
9.525
 74
     0
 49
-1.587499999999999
 74
     0
 49
1.587499999999999
 74
     0
 49
-1.587499999999999
 74
     0
  0
LTYPE
  5
7F0
330
69
100
AcDbSymbolTableRecord
100
AcDbLinetypeTableRecord
  2
HIDDEN3
 70
     0
  3
Hidden (.3x) _ _ _ _ _ _ _ _ _ _ _ _ _ _ _ _ _
 72
    65
 73
     2
 40
2.857499999999999
 49
1.905
 74
     0
 49
-0.9525
 74
     0
  0
LTYPE
  5
AE4
330
69
100
AcDbSymbolTableRecord
100
AcDbLinetypeTableRecord
  2
CENS
 70
     0
  3
(一点鎖線１)---- - ---- - ---- - ---- - ---- - 
 72
    65
 73
     4
 40
7.0
 49
4.0
 74
     0
 49
-1.0
 74
     0
 49
1.0
 74
     0
 49
-1.0
 74
     0
  0
ENDTAB
  0
TABLE
  2
LAYER
  5
66
102
{ACAD_XDICTIONARY
360
AE5
102
}
330
0
100
AcDbSymbolTable
 70
     9
  0
LAYER
  5
5E
102
{ACAD_XDICTIONARY
360
1A4F
102
}
330
66
100
AcDbSymbolTableRecord
100
AcDbLayerTableRecord
  2
0
 70
     0
 62
     7
  6
CONTINUOUS
  0
LAYER
  5
3E
102
{ACAD_XDICTIONARY
360
1A51
102
}
330
66
100
AcDbSymbolTableRecord
100
AcDbLayerTableRecord
  2
CENTER
 70
     0
 62
     3
  6
SEKKEI_A2_
  0
LAYER
  5
2B5
102
{ACAD_XDICTIONARY
360
1A57
102
}
330
66
100
AcDbSymbolTableRecord
100
AcDbLayerTableRecord
  2
HIDS
 70
     0
 62
     1
  6
HIDDEN3
  0
LAYER
  5
2BA
102
{ACAD_XDICTIONARY
360
1A59
102
}
330
66
100
AcDbSymbolTableRecord
100
AcDbLayerTableRecord
  2
HOJO
 70
     0
 62
     4
  6
CONTINUOUS
  0
LAYER
  5
3FA
102
{ACAD_XDICTIONARY
360
1A5D
102
}
330
66
100
AcDbSymbolTableRecord
100
AcDbLayerTableRecord
  2
TITLE
 70
     0
 62
     4
  6
CONTINUOUS
  0
ENDTAB
  0
TABLE
  2
STYLE
  5
67
330
0
100
AcDbSymbolTable
 70
     2
  0
STYLE
  5
16
330
67
100
AcDbSymbolTableRecord
100
AcDbTextStyleTableRecord
  2
STANDARD
 70
     0
 40
0.0
 41
1.0
 50
0.0
 71
     0
 42
2.0
  3
simplex.shx
  4
extfont.shx
  0
ENDTAB
  0
TABLE
  2
VIEW
  5
6C
330
0
100
AcDbSymbolTable
 70
     0
  0
ENDTAB
  0
TABLE
  2
UCS
  5
6D
330
0
100
AcDbSymbolTable
 70
     0
  0
ENDTAB
  0
TABLE
  2
APPID
  5
70
330
0
100
AcDbSymbolTable
 70
     4
  0
APPID
  5
71
330
70
100
AcDbSymbolTableRecord
100
AcDbRegAppTableRecord
  2
ACAD
 70
     0
  0
APPID
  5
1A4C
330
70
100
AcDbSymbolTableRecord
100
AcDbRegAppTableRecord
  2
ACAD_MLEADERVER
 70
     0
  0
APPID
  5
1A88
330
70
100
AcDbSymbolTableRecord
100
AcDbRegAppTableRecord
  2
ACAD_EXEMPT_FROM_CAD_STANDARDS
 70
     0
  0
APPID
  5
1AE1
330
70
100
AcDbSymbolTableRecord
100
AcDbRegAppTableRecord
  2
ACAD_DSTYLE_DIMRADIAL_EXTENSION
 70
     0
  0
ENDTAB
  0
TABLE
  2
DIMSTYLE
  5
72
330
0
100
AcDbSymbolTable
 70
     1
  0
DIMSTYLE
105
73
330
72
100
AcDbSymbolTableRecord
100
AcDbDimStyleTableRecord
  2
STANDARD
 70
     0
  3

  4

  5

  6

  7

 40
3.0
 41
1.8
 42
0.625
 43
3.75
 44
0.8
 45
0.0
 46
0.0
 47
0.0
 48
0.0
140
1.8
141
2.5
142
0.0
143
0.0394
144
1.0
145
0.0
146
1.0
147
0.75
 71
     0
 72
     0
 73
     0
 74
     0
 75
     0
 76
     0
 77
     1
 78
     8
170
     0
171
     4
172
     1
173
     0
174
     0
175
     0
176
     0
177
     0
178
     0
270
     8
271
     2
272
     2
273
     8
274
     4
340
16
275
     0
280
     0
281
     0
282
     0
283
     1
284
     0
285
     0
286
     0
287
     3
288
     0
  0
ENDTAB
  0
TABLE
  2
BLOCK_RECORD
  5
1
330
0
100
AcDbSymbolTable
 70
    47
  0
BLOCK_RECORD
  5
2
102
{ACAD_XDICTIONARY
360
2DF0
102
}
330
1
100
AcDbSymbolTableRecord
100
AcDbBlockTableRecord
  2
*MODEL_SPACE
  0
BLOCK_RECORD
  5
2DC9
102
{ACAD_XDICTIONARY
360
2DF2
102
}
330
1
100
AcDbSymbolTableRecord
100
AcDbBlockTableRecord
  2
*PAPER_SPACE
  0
ENDTAB
  0
ENDSEC
  0
SECTION
  2
BLOCKS
  0
BLOCK
  5
5D
330
2
100
AcDbEntity
  8
0
100
AcDbBlockBegin
  2
*MODEL_SPACE
 70
     0
 10
0.0
 20
0.0
 30
0.0
  3
*MODEL_SPACE
  1

  0
ENDBLK
  5
5F
330
2
100
AcDbEntity
  8
0
100
AcDbBlockEnd
  0
BLOCK
  5
2DCB
330
2DC9
100
AcDbEntity
 67
     1
  8
0
100
AcDbBlockBegin
  2
*PAPER_SPACE
 70
     0
 10
0.0
 20
0.0
 30
0.0
  3
*PAPER_SPACE
  1

  0
ENDBLK
  5
2DCC
330
2DC9
100
AcDbEntity
 67
     1
  8
0
100
AcDbBlockEnd
  0
ENDSEC
  0
SECTION
  2
ENTITIES
  0
TEXT
  5
F34
330
2
100
AcDbEntity
  8
TITLE
100
AcDbText
 10
260.6629024533783
 20
396.0856233190873
 30
0.0
 40
7.5
  1
AFCZ15L-7~10M200S3
100
AcDbText
  0
TEXT
  5
F35
330
2
100
AcDbEntity
  8
TITLE
100
AcDbText
 10
260.6629024533783
 20
383.3356233190873
 30
0.0
 40
7.5
  1
AFCZ15L-7~10L200S3
100
AcDbText
  0
LINE
  5
F37
330
2
100
AcDbEntity
  8
CENTER
100
AcDbLine
 10
514.4227715541727
 20
110.742295568103
 30
0.0
 11
693.4227715541713
 21
110.742295568103
 31
0.0
  0
LINE
  5
F3C
330
2
100
AcDbEntity
  8
0
100
AcDbLine
 10
640.4227715498019
 20
432.3552626908647
 30
0.0
 11
640.4227715498019
 21
360.3552626908648
 31
0.0
  0
LINE
  5
F41
330
2
100
AcDbEntity
  8
CENTER
100
AcDbLine
 10
522.6060357777793
 20
396.3552626908648
 30
0.0
 11
693.4227715541712
 21
396.355262690865
 31
0.0
  0
LINE
  5
F4E
330
2
100
AcDbEntity
  8
0
100
AcDbLine
 10
640.4227715541709
 20
147.2422955681026
 30
0.0
 11
640.4227715541709
 21
74.24229556810286
 31
0.0
  0
LINE
  5
FD2
330
2
100
AcDbEntity
  8
CENTER
100
AcDbLine
 10
210.0982170539217
 20
110.7422955681011
 30
0.0
 11
39.09821705392539
 21
110.7422955681009
 31
0.0
  0
LINE
  5
FD4
330
2
100
AcDbEntity
  8
0
100
AcDbLine
 10
92.0982170539254
 20
74.24229556810115
 30
0.0
 11
92.0982170539254
 21
147.2422955681011
 31
0.0
  0
LINE
  5
122A
330
2
100
AcDbEntity
  8
CENTER
100
AcDbLine
 10
947.4165748929804
 20
110.7422955680843
 30
0.0
 11
801.4165748926913
 21
110.7422955680843
 31
0.0
  0
LINE
  5
122B
330
2
100
AcDbEntity
  8
CENTER
100
AcDbLine
 10
899.4165748926928
 20
157.2422955680825
 30
0.0
 11
899.4165748926922
 21
64.2422955680862
 31
0.0
  0
LINE
  5
122C
330
2
100
AcDbEntity
  8
0
100
AcDbLine
 10
861.4165748926891
 20
146.2230469345321
 30
0.0
 11
861.4165748926883
 21
75.26154420163663
 31
0.0
  0
LINE
  5
122D
330
2
100
AcDbEntity
  8
0
100
AcDbLine
 10
856.41657489269
 20
140.7422955680809
 30
0.0
 11
856.41657489269
 21
80.7422955680812
 31
0.0
  0
LINE
  5
122E
330
2
100
AcDbEntity
  8
0
100
AcDbLine
 10
861.41657489269
 20
140.7422955680809
 30
0.0
 11
856.41657489269
 21
140.7422955680809
 31
0.0
  0
LINE
  5
122F
330
2
100
AcDbEntity
  8
0
100
AcDbLine
 10
861.41657489269
 20
80.7422955680812
 30
0.0
 11
856.41657489269
 21
80.7422955680812
 31
0.0
  0
LINE
  5
1230
330
2
100
AcDbEntity
  8
0
100
AcDbLine
 10
843.4165748926863
 20
132.8109180184782
 30
0.0
 11
843.4165748926863
 21
88.67367311770602
 31
0.0
  0
LINE
  5
1231
330
2
100
AcDbEntity
  8
0
100
AcDbLine
 10
854.4863738860914
 20
135.128861467061
 30
0.0
 11
845.3467758992813
 21
134.8096996725161
 31
0.0
  0
LINE
  5
1232
330
2
100
AcDbEntity
  8
0
100
AcDbLine
 10
854.4863738860914
 20
86.35572966912411
 30
0.0
 11
845.3467758992813
 21
86.67489146366813
 31
0.0
  0
ARC
  5
1233
330
2
100
AcDbEntity
  8
0
100
AcDbCircle
 10
845.4165748926865
 20
132.8109180184782
 30
0.0
 40
2.0
100
AcDbArc
 50
92.00000000000365
 51
180.0
  0
ARC
  5
1234
330
2
100
AcDbEntity
  8
0
100
AcDbCircle
 10
845.4165748926865
 20
88.67367311770602
 30
0.0
 40
2.0
100
AcDbArc
 50
180.0
 51
267.9999999999963
  0
ARC
  5
1235
330
2
100
AcDbEntity
  8
0
100
AcDbCircle
 10
854.4165748926864
 20
84.35694801508622
 30
0.0
 40
2.0
100
AcDbArc
 50
0.0
 51
87.99999999999636
  0
ARC
  5
1236
330
2
100
AcDbEntity
  8
0
100
AcDbCircle
 10
854.4165748926864
 20
137.1276431210989
 30
0.0
 40
2.0
100
AcDbArc
 50
272.0000000000036
 51
0.0
  0
LINE
  5
1237
330
2
100
AcDbEntity
  8
0
100
AcDbLine
 10
866.0408307200571
 20
75.22118893240201
 30
0.0
 11
861.4165748926883
 21
75.26154420163663
 31
0.0
  0
LINE
  5
1238
330
2
100
AcDbEntity
  8
0
100
AcDbLine
 10
866.1427030591514
 20
146.2642912302011
 30
0.0
 11
861.4165748926891
 21
146.2230469345321
 31
0.0
  0
ARC
  5
1239
330
2
100
AcDbEntity
  8
0
100
AcDbCircle
 10
930.4165748926937
 20
141.8112577826972
 30
0.0
 40
5.0
100
AcDbArc
 50
44.44120088040897
 51
89.20427644728171
  0
LINE
  5
123A
330
2
100
AcDbEntity
  8
0
100
AcDbLine
 10
930.4860126401464
 20
146.81077559937
 30
0.0
 11
899.4165748926937
 21
147.2422955680825
 31
0.0
  0
LINE
  5
123B
330
2
100
AcDbEntity
  8
0
100
AcDbLine
 10
868.3471371452453
 20
146.8107755993691
 30
0.0
 11
899.4165748926919
 21
147.2422955680825
 31
0.0
  0
ARC
  5
123C
330
2
100
AcDbEntity
  8
0
100
AcDbCircle
 10
868.4165748926991
 20
141.8112577826963
 30
0.0
 40
5.0
100
AcDbArc
 50
90.79572355271826
 51
135.558799116601
  0
ARC
  5
123D
330
2
100
AcDbEntity
  8
0
100
AcDbCircle
 10
930.4165748926937
 20
79.67333335347155
 30
0.0
 40
5.0
100
AcDbArc
 50
270.7957235527183
 51
315.5587991245656
  0
LINE
  5
123E
330
2
100
AcDbEntity
  8
0
100
AcDbLine
 10
930.4860126401464
 20
74.67381553679877
 30
0.0
 11
899.4165748926937
 21
74.2422955680862
 31
0.0
  0
LINE
  5
123F
330
2
100
AcDbEntity
  8
0
100
AcDbLine
 10
868.3471371452453
 20
74.67381553679968
 30
0.0
 11
899.4165748926919
 21
74.2422955680862
 31
0.0
  0
ARC
  5
1240
330
2
100
AcDbEntity
  8
0
100
AcDbCircle
 10
868.4165748926991
 20
79.67333335347245
 30
0.0
 40
5.0
100
AcDbArc
 50
224.4412008784415
 51
269.2042764472816
  0
LINE
  5
1241
330
2
100
AcDbEntity
  8
0
100
AcDbLine
 10
936.416574892981
 20
133.7422955680853
 30
0.0
 11
937.416574892982
 21
133.1649452988955
 31
0.0
  0
LINE
  5
1242
330
2
100
AcDbEntity
  8
0
100
AcDbLine
 10
936.4165748929819
 20
133.7422955680853
 30
0.0
 11
935.5971304482489
 21
133.742295568085
 31
0.0
  0
LINE
  5
1243
330
2
100
AcDbEntity
  8
0
100
AcDbLine
 10
937.416574892981
 20
88.31964583727256
 30
0.0
 11
937.4165748929801
 21
133.1649452988964
 31
0.0
  0
LINE
  5
1244
330
2
100
AcDbEntity
  8
0
100
AcDbLine
 10
936.416574892981
 20
87.74229556808348
 30
0.0
 11
937.416574892982
 21
88.31964583727302
 31
0.0
  0
LINE
  5
1245
330
2
100
AcDbEntity
  8
0
100
AcDbLine
 10
936.4165748929819
 20
87.74229556808348
 30
0.0
 11
935.597130448248
 21
87.74229556808348
 31
0.0
  0
LINE
  5
1246
330
2
100
AcDbEntity
  8
0
100
AcDbLine
 10
936.416574892981
 20
133.7422955680853
 30
0.0
 11
936.4165748929819
 21
87.74229556808348
 31
0.0
  0
LINE
  5
1251
330
2
100
AcDbEntity
  8
0
100
AcDbLine
 10
74.86706009789748
 20
137.602295568101
 30
0.0
 11
79.56706009789638
 21
137.602295568101
 31
0.0
  0
LINE
  5
1252
330
2
100
AcDbEntity
  8
0
100
AcDbLine
 10
79.56706009789638
 20
146.102295568101
 30
0.0
 11
74.86706009789748
 21
146.102295568101
 31
0.0
  0
LINE
  5
1253
330
2
100
AcDbEntity
  8
CENTER
  6
CENS
100
AcDbLine
 10
97.0982170539254
 20
141.852295568101
 30
0.0
 11
69.6412441238416
 21
141.852295568101
 31
0.0
  0
LINE
  5
1254
330
2
100
AcDbEntity
  8
0
100
AcDbLine
 10
74.56706009789638
 20
145.5826803258306
 30
0.0
 11
74.56706009789638
 21
138.1219108103715
 31
0.0
  0
LINE
  5
1255
330
2
100
AcDbEntity
  8
0
100
AcDbLine
 10
74.86706009789748
 20
137.602295568101
 30
0.0
 11
74.86706009789748
 21
146.102295568101
 31
0.0
  0
LINE
  5
1256
330
2
100
AcDbEntity
  8
0
100
AcDbLine
 10
74.86706009789748
 20
137.602295568101
 30
0.0
 11
74.56706009789638
 21
138.1219108103715
 31
0.0
  0
LINE
  5
1257
330
2
100
AcDbEntity
  8
0
100
AcDbLine
 10
74.56706009789638
 20
145.5826803258306
 30
0.0
 11
74.86706009789748
 21
146.102295568101
 31
0.0
  0
LINE
  5
1258
330
2
100
AcDbEntity
  8
0
100
AcDbLine
 10
79.56706009789638
 20
146.102295568101
 30
0.0
 11
80.56706009789639
 21
146.102295568101
 31
0.0
  0
LINE
  5
1259
330
2
100
AcDbEntity
  8
0
100
AcDbLine
 10
80.56706009789639
 20
146.102295568101
 30
0.0
 11
80.56706009789639
 21
137.602295568101
 31
0.0
  0
LINE
  5
125A
330
2
100
AcDbEntity
  8
0
100
AcDbLine
 10
80.56706009789639
 20
137.602295568101
 30
0.0
 11
79.56706009789638
 21
137.602295568101
 31
0.0
  0
LINE
  5
125B
330
2
100
AcDbEntity
  8
0
100
AcDbLine
 10
79.56706009789638
 20
137.602295568101
 30
0.0
 11
79.56706009789638
 21
146.102295568101
 31
0.0
  0
LINE
  5
125C
330
2
100
AcDbEntity
  8
0
100
AcDbLine
 10
79.56706009789638
 20
137.602295568101
 30
0.0
 11
79.56706009789638
 21
146.102295568101
 31
0.0
  0
ARC
  5
125D
330
2
100
AcDbEntity
  8
0
100
AcDbCircle
 10
75.76379068729591
 20
75.74229556810047
 30
0.0
 40
5.0
100
AcDbArc
 50
8.213210701743676
 51
16.12586214360769
  0
LINE
  5
125E
330
2
100
AcDbEntity
  8
0
100
AcDbLine
 10
80.69229852726028
 20
76.7073907552263
 30
0.0
 11
80.09821705392539
 21
110.7422955681009
 31
0.0
  0
LINE
  5
125F
330
2
100
AcDbEntity
  8
0
100
AcDbLine
 10
92.0982170539254
 20
74.74229556810093
 30
0.0
 11
82.69199391757217
 21
74.74229556810093
 31
0.0
  0
ARC
  5
1260
330
2
100
AcDbEntity
  8
0
100
AcDbCircle
 10
82.69199391757217
 20
76.74229556810093
 30
0.0
 40
2.0
100
AcDbArc
 50
181.0000000000017
 51
270.0
  0
LINE
  5
1261
330
2
100
AcDbEntity
  8
CENTER
  6
CENS
100
AcDbLine
 10
63.0982170539254
 20
121.142295568101
 30
0.0
 11
63.0982170539254
 21
149.4214771685829
 31
0.0
  0
LINE
  5
1262
330
2
100
AcDbEntity
  8
0
100
AcDbLine
 10
80.69229852726028
 20
144.7772003809751
 30
0.0
 11
80.09821705392585
 21
110.7422955681009
 31
0.0
  0
LINE
  5
1263
330
2
100
AcDbEntity
  8
0
100
AcDbLine
 10
63.62700208011744
 20
137.7381833373233
 30
0.0
 11
64.0982170539263
 21
110.7422955681009
 31
0.0
  0
LINE
  5
1264
330
2
100
AcDbEntity
  8
0
100
AcDbLine
 10
92.0982170539254
 20
110.7422955681009
 30
0.0
 11
49.09821705392539
 21
110.7422955681009
 31
0.0
  0
LINE
  5
1265
330
2
100
AcDbEntity
  8
0
100
AcDbLine
 10
74.56706009789638
 20
80.74229556810093
 30
0.0
 11
49.09821705392539
 21
80.74229556810093
 31
0.0
  0
LINE
  5
1266
330
2
100
AcDbEntity
  8
0
100
AcDbLine
 10
63.62700208011744
 20
83.74640779887846
 30
0.0
 11
64.09821705392539
 21
110.7422955681009
 31
0.0
  0
ARC
  5
1267
330
2
100
AcDbEntity
  8
0
100
AcDbCircle
 10
60.62647331673076
 20
83.74229556810092
 30
0.0
 40
3.0
100
AcDbArc
 50
270.0
 51
358.9999999999982
  0
ARC
  5
1268
330
2
100
AcDbEntity
  8
0
100
AcDbCircle
 10
76.19000210331512
 20
85.97447692255769
 30
0.0
 40
3.0
100
AcDbArc
 50
90.0
 51
178.9999999999721
  0
LINE
  5
1269
330
2
100
AcDbEntity
  8
0
100
AcDbLine
 10
66.71871535025355
 20
88.9744769225577
 30
0.0
 11
76.19000210331512
 21
88.97447692255724
 31
0.0
  0
LINE
  5
126A
330
2
100
AcDbEntity
  8
0
100
AcDbLine
 10
73.19045901784637
 20
86.02683414186964
 30
0.0
 11
73.13251791800656
 21
82.7073907552263
 31
0.0
  0
ARC
  5
126B
330
2
100
AcDbEntity
  8
0
100
AcDbCircle
 10
71.13282252769284
 20
82.74229556810093
 30
0.0
 40
2.0
100
AcDbArc
 50
270.0
 51
358.9999999999721
  0
LINE
  5
126C
330
2
100
AcDbEntity
  8
0
100
AcDbLine
 10
74.56706009789638
 20
140.7422955681013
 30
0.0
 11
49.09821705392539
 21
140.7422955681009
 31
0.0
  0
ARC
  5
126D
330
2
100
AcDbEntity
  8
0
100
AcDbCircle
 10
60.62647331673076
 20
137.7422955681009
 30
0.0
 40
3.0
100
AcDbArc
 50
1.000000000001775
 51
90.0
  0
ARC
  5
126E
330
2
100
AcDbEntity
  8
0
100
AcDbCircle
 10
82.69199391757217
 20
144.7422955681009
 30
0.0
 40
2.0
100
AcDbArc
 50
90.0
 51
178.9999999999982
  0
LINE
  5
126F
330
2
100
AcDbEntity
  8
0
100
AcDbLine
 10
92.0982170539254
 20
146.7422955681009
 30
0.0
 11
82.69199391757217
 21
146.7422955681009
 31
0.0
  0
ARC
  5
1270
330
2
100
AcDbEntity
  8
0
100
AcDbCircle
 10
75.76379068729591
 20
145.7422955681013
 30
0.0
 40
5.0
100
AcDbArc
 50
343.8741378563923
 51
351.7867892982563
  0
LINE
  5
1271
330
2
100
AcDbEntity
  8
0
100
AcDbLine
 10
49.09821705392539
 20
80.74229556810093
 30
0.0
 11
49.09821705392539
 21
140.7422955681009
 31
0.0
  0
LINE
  5
1272
330
2
100
AcDbEntity
  8
0
100
AcDbLine
 10
74.86706009789748
 20
83.88229556810079
 30
0.0
 11
79.56706009789638
 21
83.88229556810079
 31
0.0
  0
LINE
  5
1273
330
2
100
AcDbEntity
  8
0
100
AcDbLine
 10
79.56706009789638
 20
75.3822955681008
 30
0.0
 11
74.86706009789748
 21
75.3822955681008
 31
0.0
  0
LINE
  5
1274
330
2
100
AcDbEntity
  8
CENTER
  6
CENS
100
AcDbLine
 10
97.0982170539254
 20
79.6322955681008
 30
0.0
 11
69.6412441238416
 21
79.6322955681008
 31
0.0
  0
LINE
  5
1275
330
2
100
AcDbEntity
  8
0
100
AcDbLine
 10
74.56706009789638
 20
75.90191081037125
 30
0.0
 11
74.56706009789638
 21
83.36268032583035
 31
0.0
  0
LINE
  5
1276
330
2
100
AcDbEntity
  8
0
100
AcDbLine
 10
74.86706009789748
 20
83.88229556810079
 30
0.0
 11
74.86706009789748
 21
75.3822955681008
 31
0.0
  0
LINE
  5
1277
330
2
100
AcDbEntity
  8
0
100
AcDbLine
 10
74.86706009789748
 20
83.88229556810079
 30
0.0
 11
74.56706009789638
 21
83.36268032583035
 31
0.0
  0
LINE
  5
1278
330
2
100
AcDbEntity
  8
0
100
AcDbLine
 10
74.56706009789638
 20
75.90191081037125
 30
0.0
 11
74.86706009789748
 21
75.3822955681008
 31
0.0
  0
LINE
  5
1279
330
2
100
AcDbEntity
  8
0
100
AcDbLine
 10
79.56706009789638
 20
75.3822955681008
 30
0.0
 11
80.56706009789639
 21
75.3822955681008
 31
0.0
  0
LINE
  5
127A
330
2
100
AcDbEntity
  8
0
100
AcDbLine
 10
80.56706009789639
 20
75.3822955681008
 30
0.0
 11
80.56706009789639
 21
83.88229556810079
 31
0.0
  0
LINE
  5
127B
330
2
100
AcDbEntity
  8
0
100
AcDbLine
 10
80.56706009789639
 20
83.88229556810079
 30
0.0
 11
79.56706009789638
 21
83.88229556810079
 31
0.0
  0
LINE
  5
127C
330
2
100
AcDbEntity
  8
0
100
AcDbLine
 10
79.56706009789638
 20
83.88229556810079
 30
0.0
 11
79.56706009789638
 21
75.3822955681008
 31
0.0
  0
LINE
  5
127D
330
2
100
AcDbEntity
  8
0
100
AcDbLine
 10
79.56706009789638
 20
83.88229556810079
 30
0.0
 11
79.56706009789638
 21
75.3822955681008
 31
0.0
  0
LINE
  5
127E
330
2
100
AcDbEntity
  8
0
100
AcDbLine
 10
58.09821088273827
 20
144.7422955681009
 30
0.0
 11
68.09821088273827
 21
144.7422955681009
 31
0.0
  0
ARC
  5
127F
330
2
100
AcDbEntity
  8
0
100
AcDbCircle
 10
68.09821088273827
 20
140.7422955681009
 30
0.0
 40
4.0
100
AcDbArc
 50
0.0
 51
90.0
  0
ARC
  5
1280
330
2
100
AcDbEntity
  8
0
100
AcDbCircle
 10
58.09821088273827
 20
140.7422955681009
 30
0.0
 40
4.0
100
AcDbArc
 50
90.0
 51
180.0
  0
LINE
  5
1281
330
2
100
AcDbEntity
  8
0
100
AcDbLine
 10
868.3476126780808
 20
74.74229556809053
 30
0.0
 11
930.4855371073056
 21
74.74229556809053
 31
0.0
  0
CIRCLE
  5
1282
330
2
100
AcDbEntity
  8
HIDS
100
AcDbCircle
 10
899.4165748926928
 20
110.7422955680905
 30
0.0
 40
30.0
  0
ARC
  5
1283
330
2
100
AcDbEntity
  8
0
100
AcDbCircle
 10
874.4893183040343
 20
85.74229556809099
 30
0.0
 40
5.0
100
AcDbArc
 50
180.1666666666621
 51
270.0
  0
LINE
  5
1284
330
2
100
AcDbEntity
  8
CENTER
100
AcDbLine
 10
879.6665748926928
 20
135.4922955680905
 30
0.0
 11
869.6665748926928
 21
135.4922955680905
 31
0.0
  0
LINE
  5
1285
330
2
100
AcDbEntity
  8
CENTER
100
AcDbLine
 10
879.6665748926928
 20
85.99229556809053
 30
0.0
 11
869.6665748926928
 21
85.99229556809053
 31
0.0
  0
ARC
  5
1286
330
2
100
AcDbEntity
  8
0
100
AcDbCircle
 10
874.4893183040343
 20
135.74229556809
 30
0.0
 40
5.0
100
AcDbArc
 50
90.0
 51
179.8333333333378
  0
LINE
  5
1287
330
2
100
AcDbEntity
  8
0
100
AcDbLine
 10
863.348094861408
 20
79.6728578206363
 30
0.0
 11
862.9165748926828
 21
110.7422955680918
 31
0.0
  0
LINE
  5
1288
330
2
100
AcDbEntity
  8
0
100
AcDbLine
 10
869.489339458007
 20
85.72775117816958
 30
0.0
 11
869.4165748926927
 21
110.7422955680905
 31
0.0
  0
ARC
  5
1289
330
2
100
AcDbEntity
  8
0
100
AcDbCircle
 10
868.3476126780808
 20
79.74229556809007
 30
0.0
 40
5.0
100
AcDbArc
 50
180.7957235527443
 51
270.0
  0
LINE
  5
128A
330
2
100
AcDbEntity
  8
0
100
AcDbLine
 10
863.348094861408
 20
141.8117333155443
 30
0.0
 11
862.9165748926832
 21
110.7422955680918
 31
0.0
  0
LINE
  5
128B
330
2
100
AcDbEntity
  8
0
100
AcDbLine
 10
869.489339458007
 20
135.7568399580114
 30
0.0
 11
869.4165748926927
 21
110.7422955680905
 31
0.0
  0
LINE
  5
128C
330
2
100
AcDbEntity
  8
0
100
AcDbLine
 10
869.4165748926927
 20
110.7422955680905
 30
0.0
 11
862.9165748926928
 21
110.74229556809
 31
0.0
  0
ARC
  5
128D
330
2
100
AcDbEntity
  8
0
100
AcDbCircle
 10
868.3476126780808
 20
141.7422955680905
 30
0.0
 40
5.0
100
AcDbArc
 50
90.0
 51
179.2042764472556
  0
LINE
  5
128E
330
2
100
AcDbEntity
  8
0
100
AcDbLine
 10
935.4850549239783
 20
79.6728578206363
 30
0.0
 11
935.9165748926923
 21
110.7422955680918
 31
0.0
  0
LINE
  5
128F
330
2
100
AcDbEntity
  8
0
100
AcDbLine
 10
929.3438103273794
 20
85.72775117816958
 30
0.0
 11
929.4165748926927
 21
110.7422955680905
 31
0.0
  0
LINE
  5
1290
330
2
100
AcDbEntity
  8
0
100
AcDbLine
 10
924.3438314813522
 20
80.74229556809052
 30
0.0
 11
874.4893183040343
 21
80.74229556809052
 31
0.0
  0
LINE
  5
1291
330
2
100
AcDbEntity
  8
CENTER
100
AcDbLine
 10
874.6665748926927
 20
90.99229556809053
 30
0.0
 11
874.6665748926927
 21
80.99229556809053
 31
0.0
  0
LINE
  5
1292
330
2
100
AcDbEntity
  8
HIDS
100
AcDbLine
 10
919.9508757567748
 20
82.70739075521589
 30
0.0
 11
920.038913506489
 21
87.75107005845404
 31
0.0
  0
ARC
  5
1293
330
2
100
AcDbEntity
  8
0
100
AcDbCircle
 10
924.3438314813522
 20
85.74229556809099
 30
0.0
 40
5.0
100
AcDbArc
 50
270.0
 51
359.8333333333378
  0
LINE
  5
1294
330
2
100
AcDbEntity
  8
CENTER
100
AcDbLine
 10
924.1665748926928
 20
90.99229556809053
 30
0.0
 11
924.1665748926928
 21
80.99229556809053
 31
0.0
  0
ARC
  5
1295
330
2
100
AcDbEntity
  8
0
100
AcDbCircle
 10
930.4855371073056
 20
79.74229556809007
 30
0.0
 40
4.999999999999999
100
AcDbArc
 50
270.0
 51
359.2042764472556
  0
ARC
  5
1296
330
2
100
AcDbEntity
  8
HIDS
100
AcDbCircle
 10
917.9511803664611
 20
82.74229556809052
 30
0.0
 40
2.0
100
AcDbArc
 50
270.0
 51
358.9999999999982
  0
LINE
  5
1297
330
2
100
AcDbEntity
  8
CENTER
100
AcDbLine
 10
929.1665748926927
 20
85.99229556809053
 30
0.0
 11
919.1665748926928
 21
85.99229556809053
 31
0.0
  0
ARC
  5
1298
330
2
100
AcDbEntity
  8
HIDS
100
AcDbCircle
 10
923.0384565919587
 20
87.69871283914165
 30
0.0
 40
3.0
100
AcDbArc
 50
135.7099981688253
 51
178.9999999999982
  0
LINE
  5
1299
330
2
100
AcDbEntity
  8
0
100
AcDbLine
 10
924.3438314813522
 20
140.7422955680905
 30
0.0
 11
874.4893183040343
 21
140.74229556809
 31
0.0
  0
LINE
  5
129A
330
2
100
AcDbEntity
  8
HIDS
100
AcDbLine
 10
883.1665748926937
 20
140.74229556809
 30
0.0
 11
883.4141430113698
 21
126.5591275480961
 31
0.0
  0
LINE
  5
129B
330
2
100
AcDbEntity
  8
CENTER
100
AcDbLine
 10
874.6665748926927
 20
140.4922955680905
 30
0.0
 11
874.6665748926927
 21
130.4922955680905
 31
0.0
  0
ARC
  5
129C
330
2
100
AcDbEntity
  8
HIDS
100
AcDbCircle
 10
875.7946931934277
 20
133.7858782970394
 30
0.0
 40
3.0
100
AcDbArc
 50
315.7099981688253
 51
358.9999999999982
  0
ARC
  5
129D
330
2
100
AcDbEntity
  8
HIDS
100
AcDbCircle
 10
880.8819694189244
 20
138.74229556809
 30
0.0
 40
2.0
100
AcDbArc
 50
90.0
 51
178.9999999999982
  0
LINE
  5
129E
330
2
100
AcDbEntity
  8
HIDS
100
AcDbLine
 10
878.8822740286116
 20
138.7772003809647
 30
0.0
 11
878.7942362788966
 21
133.733521077727
 31
0.0
  0
LINE
  5
129F
330
2
100
AcDbEntity
  8
HIDS
100
AcDbLine
 10
894.6665748926928
 20
140.7422955680905
 30
0.0
 11
894.5262732688481
 21
132.70442092125
 31
0.0
  0
LINE
  5
12A0
330
2
100
AcDbEntity
  8
0
100
AcDbLine
 10
935.4850549239783
 20
141.8117333155443
 30
0.0
 11
935.9165748926928
 21
110.7422955680918
 31
0.0
  0
LINE
  5
12A1
330
2
100
AcDbEntity
  8
0
100
AcDbLine
 10
929.3438103273794
 20
135.7568399580114
 30
0.0
 11
929.4165748926927
 21
110.7422955680905
 31
0.0
  0
LINE
  5
12A2
330
2
100
AcDbEntity
  8
CENTER
100
AcDbLine
 10
924.1665748926928
 20
140.4922955680905
 30
0.0
 11
924.1665748926928
 21
130.4922955680905
 31
0.0
  0
LINE
  5
12A3
330
2
100
AcDbEntity
  8
0
100
AcDbLine
 10
929.4165748926927
 20
110.7422955680905
 30
0.0
 11
935.9165748926937
 21
110.7422955680905
 31
0.0
  0
ARC
  5
12A4
330
2
100
AcDbEntity
  8
0
100
AcDbCircle
 10
930.4855371073056
 20
141.7422955680905
 30
0.0
 40
4.999999999999999
100
AcDbArc
 50
0.7957235527443399
 51
90.0
  0
ARC
  5
12A5
330
2
100
AcDbEntity
  8
0
100
AcDbCircle
 10
924.3438314813522
 20
135.74229556809
 30
0.0
 40
5.0
100
AcDbArc
 50
0.1666666666621044
 51
90.0
  0
LINE
  5
12A6
330
2
100
AcDbEntity
  8
CENTER
100
AcDbLine
 10
929.1665748926927
 20
135.4922955680905
 30
0.0
 11
919.1665748926928
 21
135.4922955680905
 31
0.0
  0
CIRCLE
  5
12A7
330
2
100
AcDbEntity
  8
0
100
AcDbCircle
 10
899.4165748926928
 20
110.7422955680905
 30
0.0
 40
25.00000000022851
  0
LINE
  5
12A8
330
2
100
AcDbEntity
  8
0
100
AcDbLine
 10
868.3476126780808
 20
146.7422955680905
 30
0.0
 11
930.4855371073056
 21
146.7422955680905
 31
0.0
  0
CIRCLE
  5
12A9
330
2
100
AcDbEntity
  8
0
100
AcDbCircle
 10
868.3065748926932
 20
79.63229556809039
 30
0.0
 40
2.75
  0
CIRCLE
  5
12AA
330
2
100
AcDbEntity
  8
0
100
AcDbCircle
 10
930.5265748926924
 20
141.8522955680906
 30
0.0
 40
2.75
  0
CIRCLE
  5
12AB
330
2
100
AcDbEntity
  8
0
100
AcDbCircle
 10
930.5265748926924
 20
79.63229556809086
 30
0.0
 40
2.75
  0
ARC
  5
12AC
330
2
100
AcDbEntity
  8
0
100
AcDbCircle
 10
868.3065748926932
 20
141.8522955680906
 30
0.0
 40
4.25000000000019
100
AcDbArc
 50
337.0991355555478
 51
293.5789623545196
  0
ARC
  5
12AD
330
2
100
AcDbEntity
  8
0
100
AcDbCircle
 10
868.3065748926932
 20
141.8522955680906
 30
0.0
 40
3.730384757729381
100
AcDbArc
 50
321.5287333511405
 51
309.1493645588748
  0
LWPOLYLINE
  5
12AE
330
2
100
AcDbEntity
  8
0
100
AcDbPolyline
 90
        6
 70
     1
 43
0.0
 10
870.3065748926931
 20
143.0069961064697
 10
868.3065748926932
 20
144.1616966448492
 10
866.306574892693
 20
143.0069961064697
 10
866.306574892693
 20
140.6975950297115
 10
868.3065748926932
 20
139.542894491332
 10
870.3065748926931
 20
140.6975950297115
  0
CIRCLE
  5
12AF
330
2
100
AcDbEntity
  8
0
100
AcDbCircle
 10
868.3065748926932
 20
141.8522955680906
 30
0.0
 40
2.3094010767585
  0
LINE
  5
12B0
330
2
100
AcDbEntity
  8
CENTER
100
AcDbLine
 10
868.3065748926912
 20
147.8107258153846
 30
0.0
 11
868.3065748926912
 21
135.8938653207966
 31
0.0
  0
LINE
  5
12B1
330
2
100
AcDbEntity
  8
CENTER
100
AcDbLine
 10
862.3481446453972
 20
141.8522955680906
 30
0.0
 11
874.2650051399852
 21
141.8522955680906
 31
0.0
  0
ARC
  5
12B2
330
2
100
AcDbEntity
  8
0
100
AcDbCircle
 10
930.5265748926942
 20
141.8522955680906
 30
0.0
 40
4.25000000000019
100
AcDbArc
 50
246.4210376454803
 51
202.9008644444513
  0
ARC
  5
12B3
330
2
100
AcDbEntity
  8
0
100
AcDbCircle
 10
930.5265748926942
 20
141.8522955680906
 30
0.0
 40
3.730384757729381
100
AcDbArc
 50
230.8506354409949
 51
218.4712666488647
  0
LWPOLYLINE
  5
12B4
330
2
100
AcDbEntity
  8
0
100
AcDbPolyline
 90
        6
 70
     1
 43
0.0
 10
932.5265748926943
 20
143.0069961064697
 10
930.5265748926942
 20
144.1616966448492
 10
928.5265748926942
 20
143.0069961064697
 10
928.5265748926942
 20
140.6975950297115
 10
930.5265748926942
 20
139.542894491332
 10
932.5265748926943
 20
140.6975950297115
  0
CIRCLE
  5
12B5
330
2
100
AcDbEntity
  8
0
100
AcDbCircle
 10
930.5265748926942
 20
141.8522955680906
 30
0.0
 40
2.3094010767585
  0
LINE
  5
12B6
330
2
100
AcDbEntity
  8
CENTER
100
AcDbLine
 10
930.5265748926924
 20
147.8107258153846
 30
0.0
 11
930.5265748926924
 21
135.8938653207966
 31
0.0
  0
LINE
  5
12B7
330
2
100
AcDbEntity
  8
CENTER
100
AcDbLine
 10
924.5681446453984
 20
141.8522955680906
 30
0.0
 11
936.4850051399864
 21
141.8522955680906
 31
0.0
  0
ARC
  5
12B8
330
2
100
AcDbEntity
  8
0
100
AcDbCircle
 10
930.5265748926942
 20
79.63229556809086
 30
0.0
 40
4.25000000000019
100
AcDbArc
 50
157.0991355555478
 51
113.5789623545196
  0
ARC
  5
12B9
330
2
100
AcDbEntity
  8
0
100
AcDbCircle
 10
930.5265748926942
 20
79.63229556809086
 30
0.0
 40
3.730384757729381
100
AcDbArc
 50
141.5287333511352
 51
129.1493645588748
  0
LWPOLYLINE
  5
12BA
330
2
100
AcDbEntity
  8
0
100
AcDbPolyline
 90
        6
 70
     1
 43
0.0
 10
932.5265748926943
 20
80.78699610646992
 10
930.5265748926942
 20
81.94169664484945
 10
928.5265748926942
 20
80.78699610646992
 10
928.5265748926942
 20
78.47759502971178
 10
930.5265748926942
 20
77.32289449133225
 10
932.5265748926943
 20
78.47759502971178
  0
CIRCLE
  5
12BB
330
2
100
AcDbEntity
  8
0
100
AcDbCircle
 10
930.5265748926942
 20
79.63229556809086
 30
0.0
 40
2.3094010767585
  0
LINE
  5
12BC
330
2
100
AcDbEntity
  8
CENTER
100
AcDbLine
 10
930.5265748926924
 20
85.59072581538487
 30
0.0
 11
930.5265748926924
 21
73.67386532079684
 31
0.0
  0
LINE
  5
12BD
330
2
100
AcDbEntity
  8
CENTER
100
AcDbLine
 10
924.5681446453984
 20
79.63229556809086
 30
0.0
 11
936.4850051399864
 21
79.63229556809086
 31
0.0
  0
ARC
  5
12BE
330
2
100
AcDbEntity
  8
0
100
AcDbCircle
 10
868.306574892694
 20
79.63229556809039
 30
0.0
 40
4.25000000000019
100
AcDbArc
 50
66.42103764559411
 51
22.90086444441159
  0
ARC
  5
12BF
330
2
100
AcDbEntity
  8
0
100
AcDbCircle
 10
868.306574892694
 20
79.63229556809039
 30
0.0
 40
3.730384757729381
100
AcDbArc
 50
50.85063544125946
 51
38.47126664869841
  0
LWPOLYLINE
  5
12C0
330
2
100
AcDbEntity
  8
0
100
AcDbPolyline
 90
        6
 70
     1
 43
0.0
 10
870.306574892694
 20
80.78699610646992
 10
868.306574892694
 20
81.94169664484901
 10
866.3065748926939
 20
80.78699610646992
 10
866.3065748926939
 20
78.47759502971133
 10
868.306574892694
 20
77.32289449133225
 10
870.306574892694
 20
78.47759502971133
  0
CIRCLE
  5
12C1
330
2
100
AcDbEntity
  8
0
100
AcDbCircle
 10
868.306574892694
 20
79.63229556809039
 30
0.0
 40
2.3094010767585
  0
LINE
  5
12C2
330
2
100
AcDbEntity
  8
CENTER
100
AcDbLine
 10
868.3065748926932
 20
85.59072581538442
 30
0.0
 11
868.3065748926932
 21
73.67386532079638
 31
0.0
  0
LINE
  5
12C3
330
2
100
AcDbEntity
  8
CENTER
100
AcDbLine
 10
862.3481446453991
 20
79.63229556809039
 30
0.0
 11
874.2650051399872
 21
79.63229556809039
 31
0.0
  0
LINE
  5
12C4
330
2
100
AcDbEntity
  8
HIDS
100
AcDbLine
 10
890.9165748926927
 20
109.9922955680905
 30
0.0
 11
890.9165748926927
 21
101.5422955680902
 31
0.0
  0
LINE
  5
12C5
330
2
100
AcDbEntity
  8
HIDS
100
AcDbLine
 10
890.5832415593597
 20
109.9922955680905
 30
0.0
 11
890.5832415593597
 21
101.2089622347572
 31
0.0
  0
LINE
  5
12C6
330
2
100
AcDbEntity
  8
HIDS
100
AcDbLine
 10
887.2499082260258
 20
109.9922955680905
 30
0.0
 11
887.2499082260258
 21
102.4035473273639
 31
0.0
  0
LINE
  5
12C7
330
2
100
AcDbEntity
  8
HIDS
100
AcDbLine
 10
886.9165748926928
 20
109.9922955680905
 30
0.0
 11
886.9165748926928
 21
102.9120656864075
 31
0.0
  0
LINE
  5
12C8
330
2
100
AcDbEntity
  8
CENTER
  6
CENS
100
AcDbLine
 10
888.9165748926927
 20
149.4214771685725
 30
0.0
 11
888.9165748926927
 21
99.29004522353364
 31
0.0
  0
LINE
  5
12C9
330
2
100
AcDbEntity
  8
HIDS
100
AcDbLine
 10
890.9165748926927
 20
109.9922955680905
 30
0.0
 11
890.9165748926927
 21
98.68773211684914
 31
0.0
  0
LINE
  5
12CA
330
2
100
AcDbEntity
  8
HIDS
100
AcDbLine
 10
887.8873728387782
 20
101.5422955680902
 30
0.0
 11
888.9165748926927
 21
101.5422955680902
 31
0.0
  0
LINE
  5
12CB
330
2
100
AcDbEntity
  8
0
100
AcDbLine
 10
887.7165748926929
 20
100.7422955680905
 30
0.0
 11
888.5739506715919
 21
100.7422955680905
 31
0.0
  0
LINE
  5
12CC
330
2
100
AcDbEntity
  8
0
100
AcDbLine
 10
886.9165748926928
 20
102.9120656864075
 30
0.0
 11
886.9165748926928
 21
101.5422955680902
 31
0.0
  0
LINE
  5
12CD
330
2
100
AcDbEntity
  8
HOJO
100
AcDbLine
 10
887.2499082260258
 20
102.4035473273639
 30
0.0
 11
887.2499082260258
 21
101.2089622347572
 31
0.0
  0
LINE
  5
12CE
330
2
100
AcDbEntity
  8
0
100
AcDbLine
 10
886.9165748926928
 20
101.5422955680902
 30
0.0
 11
887.8873728387782
 21
101.5422955680902
 31
0.0
  0
LINE
  5
12CF
330
2
100
AcDbEntity
  8
0
100
AcDbLine
 10
886.9165748926928
 20
101.5422955680902
 30
0.0
 11
887.7165748926929
 21
100.7422955680905
 31
0.0
  0
LINE
  5
12D0
330
2
100
AcDbEntity
  8
HIDS
100
AcDbLine
 10
888.5739506715919
 20
100.7422955680905
 30
0.0
 11
888.9165748926927
 21
100.7422955680905
 31
0.0
  0
LINE
  5
12D1
330
2
100
AcDbEntity
  8
HIDS
100
AcDbLine
 10
890.9165748926927
 20
101.5422955680902
 30
0.0
 11
890.1165748926926
 21
100.7422955680905
 31
0.0
  0
LINE
  5
12D2
330
2
100
AcDbEntity
  8
HIDS
100
AcDbLine
 10
890.1165748926926
 20
100.7422955680905
 30
0.0
 11
888.9165748926927
 21
100.7422955680905
 31
0.0
  0
LINE
  5
12D3
330
2
100
AcDbEntity
  8
HIDS
100
AcDbLine
 10
890.9165748926927
 20
101.5422955680902
 30
0.0
 11
888.9165748926927
 21
101.5422955680902
 31
0.0
  0
LINE
  5
12D4
330
2
100
AcDbEntity
  8
HIDS
100
AcDbLine
 10
890.5832415593597
 20
101.2089622347572
 30
0.0
 11
890.5832415593597
 21
98.92981393965113
 31
0.0
  0
LINE
  5
12D5
330
2
100
AcDbEntity
  8
HIDS
100
AcDbLine
 10
885.5398858063146
 20
115.7422955680905
 30
0.0
 11
892.4165748926927
 21
115.7422955680905
 31
0.0
  0
LINE
  5
12D6
330
2
100
AcDbEntity
  8
HIDS
100
AcDbLine
 10
887.5055505874536
 20
119.4422955680908
 30
0.0
 11
892.4165748926927
 21
119.4422955680908
 31
0.0
  0
LINE
  5
12D7
330
2
100
AcDbEntity
  8
HIDS
100
AcDbLine
 10
891.8969596504224
 20
119.7422955680905
 30
0.0
 11
887.7305790001722
 21
119.7422955680905
 31
0.0
  0
LINE
  5
12D8
330
2
100
AcDbEntity
  8
HIDS
100
AcDbLine
 10
890.9165748926927
 20
114.075628901424
 30
0.0
 11
886.9165748926928
 21
114.075628901424
 31
0.0
  0
LINE
  5
12D9
330
2
100
AcDbEntity
  8
HIDS
100
AcDbLine
 10
885.5398858063146
 20
115.7422955680905
 30
0.0
 11
892.9165748926928
 21
115.7422955680905
 31
0.0
  0
LINE
  5
12DA
330
2
100
AcDbEntity
  8
0
100
AcDbLine
 10
884.6856550300365
 20
111.4922955680905
 30
0.0
 11
888.9165748926927
 21
111.4922955680905
 31
0.0
  0
LINE
  5
12DB
330
2
100
AcDbEntity
  8
0
100
AcDbLine
 10
884.6856550300365
 20
109.9922955680905
 30
0.0
 11
888.9165748926927
 21
109.9922955680905
 31
0.0
  0
LINE
  5
12DC
330
2
100
AcDbEntity
  8
0
100
AcDbLine
 10
885.4165748926927
 20
119.4422955680908
 30
0.0
 11
885.4165748926927
 21
115.7422955680905
 31
0.0
  0
LINE
  5
12DD
330
2
100
AcDbEntity
  8
0
100
AcDbLine
 10
886.9165748926928
 20
111.4922955680905
 30
0.0
 11
886.9165748926928
 21
109.9922955680905
 31
0.0
  0
LINE
  5
12DE
330
2
100
AcDbEntity
  8
HOJO
100
AcDbLine
 10
887.2499082260258
 20
111.4922955680905
 30
0.0
 11
887.2499082260258
 21
109.9922955680905
 31
0.0
  0
LINE
  5
12DF
330
2
100
AcDbEntity
  8
HIDS
100
AcDbLine
 10
886.9165748926928
 20
115.7422955680905
 30
0.0
 11
887.2499082260258
 21
114.075628901424
 31
0.0
  0
LINE
  5
12E0
330
2
100
AcDbEntity
  8
0
100
AcDbLine
 10
885.4165748926927
 20
115.7422955680905
 30
0.0
 11
885.5398858063146
 21
115.7422955680905
 31
0.0
  0
LINE
  5
12E1
330
2
100
AcDbEntity
  8
HIDS
100
AcDbLine
 10
887.2499082260258
 20
114.075628901424
 30
0.0
 11
887.2499082260258
 21
111.4922955680905
 31
0.0
  0
LINE
  5
12E2
330
2
100
AcDbEntity
  8
HIDS
100
AcDbLine
 10
886.9165748926928
 20
115.7422955680905
 30
0.0
 11
886.9165748926928
 21
111.4922955680905
 31
0.0
  0
LINE
  5
12E3
330
2
100
AcDbEntity
  8
HIDS
100
AcDbLine
 10
886.4165748926927
 20
115.7422955680905
 30
0.0
 11
886.4165748926927
 21
111.4922955680905
 31
0.0
  0
LINE
  5
12E4
330
2
100
AcDbEntity
  8
0
100
AcDbLine
 10
887.7305790001722
 20
119.7422955680905
 30
0.0
 11
885.9361901349641
 21
119.7422955680905
 31
0.0
  0
LINE
  5
12E5
330
2
100
AcDbEntity
  8
0
100
AcDbLine
 10
885.4165748926927
 20
119.4422955680908
 30
0.0
 11
885.9361901349641
 21
119.7422955680905
 31
0.0
  0
LINE
  5
12E6
330
2
100
AcDbEntity
  8
0
100
AcDbLine
 10
885.4165748926927
 20
119.4422955680908
 30
0.0
 11
887.5055505874536
 21
119.4422955680908
 31
0.0
  0
LINE
  5
12E7
330
2
100
AcDbEntity
  8
HIDS
100
AcDbLine
 10
892.4165748926927
 20
115.7422955680905
 30
0.0
 11
892.4165748926927
 21
119.4422955680908
 31
0.0
  0
LINE
  5
12E8
330
2
100
AcDbEntity
  8
HIDS
100
AcDbLine
 10
892.9165748926928
 20
123.9828582449559
 30
0.0
 11
892.9165748926928
 21
115.7422955680905
 31
0.0
  0
LINE
  5
12E9
330
2
100
AcDbEntity
  8
HOJO
100
AcDbLine
 10
890.5832415593597
 20
111.4922955680905
 30
0.0
 11
890.5832415593597
 21
109.9922955680905
 31
0.0
  0
LINE
  5
12EA
330
2
100
AcDbEntity
  8
0
100
AcDbLine
 10
890.9165748926927
 20
111.4922955680905
 30
0.0
 11
890.9165748926927
 21
109.9922955680905
 31
0.0
  0
LINE
  5
12EB
330
2
100
AcDbEntity
  8
0
100
AcDbLine
 10
888.9165748926927
 20
109.9922955680905
 30
0.0
 11
893.9679512132672
 21
109.9922955680905
 31
0.0
  0
LINE
  5
12EC
330
2
100
AcDbEntity
  8
0
100
AcDbLine
 10
888.9165748926927
 20
111.4922955680905
 30
0.0
 11
893.9679512132672
 21
111.4922955680905
 31
0.0
  0
LINE
  5
12ED
330
2
100
AcDbEntity
  8
HIDS
100
AcDbLine
 10
890.9165748926927
 20
115.7422955680905
 30
0.0
 11
890.5832415593597
 21
114.075628901424
 31
0.0
  0
LINE
  5
12EE
330
2
100
AcDbEntity
  8
HIDS
100
AcDbLine
 10
890.9165748926927
 20
115.7422955680905
 30
0.0
 11
890.9165748926927
 21
111.4922955680905
 31
0.0
  0
LINE
  5
12EF
330
2
100
AcDbEntity
  8
HIDS
100
AcDbLine
 10
890.5832415593597
 20
114.075628901424
 30
0.0
 11
890.5832415593597
 21
111.4922955680905
 31
0.0
  0
LINE
  5
12F0
330
2
100
AcDbEntity
  8
HIDS
100
AcDbLine
 10
891.4165748926928
 20
115.7422955680905
 30
0.0
 11
891.4165748926928
 21
111.4922955680905
 31
0.0
  0
LINE
  5
12F1
330
2
100
AcDbEntity
  8
CENTER
100
AcDbLine
 10
899.4165748926928
 20
108.2422955680905
 30
0.0
 11
899.4165748926928
 21
113.2422955680905
 31
0.0
  0
LINE
  5
12F2
330
2
100
AcDbEntity
  8
CENTER
100
AcDbLine
 10
896.9165748926927
 20
110.7422955680905
 30
0.0
 11
901.9165748926928
 21
110.7422955680905
 31
0.0
  0
LINE
  5
12F3
330
2
100
AcDbEntity
  8
HIDS
100
AcDbLine
 10
891.8969596504224
 20
119.7422955680905
 30
0.0
 11
892.4165748926927
 21
119.4422955680908
 31
0.0
  0
LINE
  5
12F4
330
2
100
AcDbEntity
  8
0
100
AcDbLine
 10
913.4165748926928
 20
109.9922955680905
 30
0.0
 11
904.8651985721191
 21
109.9922955680905
 31
0.0
  0
LINE
  5
12F5
330
2
100
AcDbEntity
  8
0
100
AcDbLine
 10
904.8651985721191
 20
111.4922955680905
 30
0.0
 11
913.4165748926928
 21
111.4922955680905
 31
0.0
  0
LINE
  5
12F6
330
2
100
AcDbEntity
  8
0
100
AcDbLine
 10
913.4165748926928
 20
111.4922955680905
 30
0.0
 11
913.4165748926928
 21
109.9922955680905
 31
0.0
  0
LINE
  5
12F7
330
2
100
AcDbEntity
  8
CENTER
100
AcDbLine
 10
896.9165748926927
 20
110.7422955680905
 30
0.0
 11
901.9165748926928
 21
110.7422955680905
 31
0.0
  0
LINE
  5
12F8
330
2
100
AcDbEntity
  8
CENTER
100
AcDbLine
 10
899.4165748926928
 20
108.2422955680905
 30
0.0
 11
899.4165748926928
 21
113.2422955680905
 31
0.0
  0
CIRCLE
  5
12F9
330
2
100
AcDbEntity
  8
0
100
AcDbCircle
 10
899.4165748926928
 20
110.7422955680918
 30
0.0
 40
5.5
  0
ARC
  5
12FA
330
2
100
AcDbEntity
  8
0
100
AcDbCircle
 10
899.416574892691
 20
110.7422955680905
 30
0.0
 40
6.654700538379415
100
AcDbArc
 50
6.471114411175151
 51
173.5288855888248
  0
ARC
  5
12FB
330
2
100
AcDbEntity
  8
0
100
AcDbCircle
 10
899.416574892691
 20
110.7422955680905
 30
0.0
 40
6.654700538379415
100
AcDbArc
 50
186.4711144111751
 51
353.5288855888248
  0
LINE
  5
12FC
330
2
100
AcDbEntity
  8
0
100
AcDbLine
 10
883.9165687215055
 20
144.7422934325164
 30
0.0
 11
893.9165687215057
 21
144.7422934325164
 31
0.0
  0
ARC
  5
12FD
330
2
100
AcDbEntity
  8
0
100
AcDbCircle
 10
893.9165687215057
 20
140.7422934325164
 30
0.0
 40
4.0
100
AcDbArc
 50
0.0
 51
90.0
  0
LINE
  5
12FE
330
2
100
AcDbEntity
  8
0
100
AcDbLine
 10
897.9165687215056
 20
140.7422934325164
 30
0.0
 11
897.9165687215056
 21
140.7422934325164
 31
0.0
  0
ARC
  5
12FF
330
2
100
AcDbEntity
  8
0
100
AcDbCircle
 10
883.9165687215055
 20
140.7422934325164
 30
0.0
 40
4.0
100
AcDbArc
 50
90.0
 51
180.0
  0
CIRCLE
  5
1300
330
2
100
AcDbEntity
  8
HOJO
100
AcDbCircle
 10
924.1665748926937
 20
135.49229556809
 30
0.0
 40
2.0
  0
CIRCLE
  5
1301
330
2
100
AcDbEntity
  8
0
100
AcDbCircle
 10
924.1665748926937
 20
135.49229556809
 30
0.0
 40
1.6
  0
CIRCLE
  5
1302
330
2
100
AcDbEntity
  8
HOJO
100
AcDbCircle
 10
874.6665748926927
 20
135.4922955680905
 30
0.0
 40
2.0
  0
CIRCLE
  5
1303
330
2
100
AcDbEntity
  8
0
100
AcDbCircle
 10
874.6665748926927
 20
135.4922955680905
 30
0.0
 40
1.6
  0
CIRCLE
  5
1304
330
2
100
AcDbEntity
  8
HOJO
100
AcDbCircle
 10
874.6665748926927
 20
85.99229556809053
 30
0.0
 40
2.0
  0
CIRCLE
  5
1305
330
2
100
AcDbEntity
  8
0
100
AcDbCircle
 10
874.6665748926927
 20
85.99229556809053
 30
0.0
 40
1.6
  0
CIRCLE
  5
1306
330
2
100
AcDbEntity
  8
HOJO
100
AcDbCircle
 10
924.1665748926928
 20
85.99229556809053
 30
0.0
 40
2.0
  0
CIRCLE
  5
1307
330
2
100
AcDbEntity
  8
0
100
AcDbCircle
 10
924.1665748926928
 20
85.99229556809053
 30
0.0
 40
1.6
  0
CIRCLE
  5
1308
330
2
100
AcDbEntity
  8
CENTER
100
AcDbCircle
 10
899.416574892691
 20
110.7422955680932
 30
0.0
 40
35.00178566873169
  0
CIRCLE
  5
1309
330
2
100
AcDbEntity
  8
0
100
AcDbCircle
 10
899.4165748926928
 20
110.7422955680918
 30
0.0
 40
14.75
  0
CIRCLE
  5
130A
330
2
100
AcDbEntity
  8
0
100
AcDbCircle
 10
899.416574892691
 20
110.7422955680918
 30
0.0
 40
22.5
  0
LINE
  5
130B
330
2
100
AcDbEntity
  8
0
100
AcDbLine
 10
657.6539285101988
 20
137.6022955681032
 30
0.0
 11
652.9539285101999
 21
137.6022955681032
 31
0.0
  0
LINE
  5
130C
330
2
100
AcDbEntity
  8
0
100
AcDbLine
 10
652.9539285101999
 20
146.1022955681032
 30
0.0
 11
657.6539285101988
 21
146.1022955681032
 31
0.0
  0
LINE
  5
130D
330
2
100
AcDbEntity
  8
CENTER
  6
CENS
100
AcDbLine
 10
635.4227715541709
 20
141.8522955681032
 30
0.0
 11
662.8797444842547
 21
141.8522955681032
 31
0.0
  0
LINE
  5
130E
330
2
100
AcDbEntity
  8
0
100
AcDbLine
 10
657.9539285101999
 20
145.5826803258327
 30
0.0
 11
657.9539285101999
 21
138.1219108103736
 31
0.0
  0
LINE
  5
130F
330
2
100
AcDbEntity
  8
0
100
AcDbLine
 10
657.6539285101988
 20
137.6022955681032
 30
0.0
 11
657.6539285101988
 21
146.1022955681032
 31
0.0
  0
LINE
  5
1310
330
2
100
AcDbEntity
  8
0
100
AcDbLine
 10
657.6539285101988
 20
137.6022955681032
 30
0.0
 11
657.9539285101999
 21
138.1219108103736
 31
0.0
  0
LINE
  5
1311
330
2
100
AcDbEntity
  8
0
100
AcDbLine
 10
657.9539285101999
 20
145.5826803258327
 30
0.0
 11
657.6539285101988
 21
146.1022955681032
 31
0.0
  0
LINE
  5
1312
330
2
100
AcDbEntity
  8
0
100
AcDbLine
 10
652.9539285101999
 20
146.1022955681032
 30
0.0
 11
651.9539285101999
 21
146.1022955681032
 31
0.0
  0
LINE
  5
1313
330
2
100
AcDbEntity
  8
0
100
AcDbLine
 10
651.9539285101999
 20
146.1022955681032
 30
0.0
 11
651.9539285101999
 21
137.6022955681032
 31
0.0
  0
LINE
  5
1314
330
2
100
AcDbEntity
  8
0
100
AcDbLine
 10
651.9539285101999
 20
137.6022955681032
 30
0.0
 11
652.9539285101999
 21
137.6022955681032
 31
0.0
  0
LINE
  5
1315
330
2
100
AcDbEntity
  8
0
100
AcDbLine
 10
652.9539285101999
 20
137.6022955681032
 30
0.0
 11
652.9539285101999
 21
146.1022955681032
 31
0.0
  0
LINE
  5
1316
330
2
100
AcDbEntity
  8
0
100
AcDbLine
 10
652.9539285101999
 20
137.6022955681032
 30
0.0
 11
652.9539285101999
 21
146.1022955681032
 31
0.0
  0
ARC
  5
1317
330
2
100
AcDbEntity
  8
0
100
AcDbCircle
 10
656.7571979208004
 20
75.74229556810263
 30
0.0
 40
5.0
100
AcDbArc
 50
163.8741378563922
 51
171.7867892982563
  0
LINE
  5
1318
330
2
100
AcDbEntity
  8
0
100
AcDbLine
 10
651.8286900808361
 20
76.70739075522845
 30
0.0
 11
652.4227715541709
 21
110.742295568103
 31
0.0
  0
LINE
  5
1319
330
2
100
AcDbEntity
  8
0
100
AcDbLine
 10
640.4227715541709
 20
74.74229556810309
 30
0.0
 11
649.8289946905241
 21
74.74229556810309
 31
0.0
  0
ARC
  5
131A
330
2
100
AcDbEntity
  8
0
100
AcDbCircle
 10
649.8289946905241
 20
76.74229556810309
 30
0.0
 40
2.0
100
AcDbArc
 50
270.0
 51
358.9999999999982
  0
LINE
  5
131B
330
2
100
AcDbEntity
  8
CENTER
100
AcDbLine
 10
669.4227715541709
 20
121.1422955681031
 30
0.0
 11
669.4227715541709
 21
149.4214771685851
 31
0.0
  0
LINE
  5
131C
330
2
100
AcDbEntity
  8
0
100
AcDbLine
 10
651.8286900808361
 20
144.7772003809772
 30
0.0
 11
652.2828298367747
 21
118.7595511882477
 31
0.0
  0
LINE
  5
131D
330
2
100
AcDbEntity
  8
0
100
AcDbLine
 10
668.8939865279788
 20
137.7381833373255
 30
0.0
 11
668.6764435174445
 21
125.2751526108353
 31
0.0
  0
LINE
  5
131E
330
2
100
AcDbEntity
  8
0
100
AcDbLine
 10
640.4227715541709
 20
110.742295568103
 30
0.0
 11
640.8828109073582
 21
110.7422955681031
 31
0.0
  0
LINE
  5
131F
330
2
100
AcDbEntity
  8
0
100
AcDbLine
 10
657.9539285101999
 20
80.74229556810308
 30
0.0
 11
683.4227715541709
 21
80.74229556810308
 31
0.0
  0
LINE
  5
1320
330
2
100
AcDbEntity
  8
0
100
AcDbLine
 10
668.8939865279788
 20
83.74640779888062
 30
0.0
 11
668.4227715541709
 21
110.742295568103
 31
0.0
  0
ARC
  5
1321
330
2
100
AcDbEntity
  8
0
100
AcDbCircle
 10
671.8945152913655
 20
83.74229556810309
 30
0.0
 40
3.0
100
AcDbArc
 50
181.0000000000017
 51
270.0
  0
ARC
  5
1322
330
2
100
AcDbEntity
  8
0
100
AcDbCircle
 10
656.3309865047812
 20
135.5101142136463
 30
0.0
 40
3.0
100
AcDbArc
 50
270.0
 51
358.9999999999721
  0
LINE
  5
1323
330
2
100
AcDbEntity
  8
0
100
AcDbLine
 10
665.8022732578428
 20
132.5101142136463
 30
0.0
 11
656.3309865047812
 21
132.5101142136467
 31
0.0
  0
LINE
  5
1324
330
2
100
AcDbEntity
  8
0
100
AcDbLine
 10
659.3305295902499
 20
135.4577569943343
 30
0.0
 11
659.3884706900897
 21
138.7772003809777
 31
0.0
  0
ARC
  5
1325
330
2
100
AcDbEntity
  8
0
100
AcDbCircle
 10
661.3881660804034
 20
138.742295568103
 30
0.0
 40
2.0
100
AcDbArc
 50
90.0
 51
178.9999999999721
  0
LINE
  5
1326
330
2
100
AcDbEntity
  8
0
100
AcDbLine
 10
657.9539285101999
 20
140.7422955681035
 30
0.0
 11
683.4227715541709
 21
140.742295568103
 31
0.0
  0
ARC
  5
1327
330
2
100
AcDbEntity
  8
0
100
AcDbCircle
 10
671.8945152913655
 20
137.742295568103
 30
0.0
 40
3.0
100
AcDbArc
 50
90.0
 51
178.9999999999982
  0
ARC
  5
1328
330
2
100
AcDbEntity
  8
0
100
AcDbCircle
 10
649.8289946905241
 20
144.742295568103
 30
0.0
 40
2.0
100
AcDbArc
 50
1.000000000001775
 51
90.0
  0
LINE
  5
1329
330
2
100
AcDbEntity
  8
0
100
AcDbLine
 10
640.4227715541709
 20
146.7422955681031
 30
0.0
 11
649.8289946905241
 21
146.7422955681031
 31
0.0
  0
ARC
  5
132A
330
2
100
AcDbEntity
  8
0
100
AcDbCircle
 10
656.7571979208004
 20
145.7422955681035
 30
0.0
 40
5.0
100
AcDbArc
 50
188.2132107017437
 51
196.1258621436077
  0
LINE
  5
132B
330
2
100
AcDbEntity
  8
0
100
AcDbLine
 10
673.3221048825538
 20
133.242295568103
 30
0.0
 11
676.4227715541709
 21
133.242295568103
 31
0.0
  0
LINE
  5
132C
330
2
100
AcDbEntity
  8
0
100
AcDbLine
 10
683.4227715541709
 20
80.74229556810308
 30
0.0
 11
683.4227715541709
 21
140.742295568103
 31
0.0
  0
LINE
  5
132D
330
2
100
AcDbEntity
  8
0
100
AcDbLine
 10
657.6539285101988
 20
83.88229556810296
 30
0.0
 11
652.9539285101999
 21
83.88229556810296
 31
0.0
  0
LINE
  5
132E
330
2
100
AcDbEntity
  8
0
100
AcDbLine
 10
652.9539285101999
 20
75.38229556810296
 30
0.0
 11
657.6539285101988
 21
75.38229556810296
 31
0.0
  0
LINE
  5
132F
330
2
100
AcDbEntity
  8
CENTER
  6
CENS
100
AcDbLine
 10
635.4227715541709
 20
79.63229556810296
 30
0.0
 11
662.8797444842547
 21
79.63229556810296
 31
0.0
  0
LINE
  5
1330
330
2
100
AcDbEntity
  8
0
100
AcDbLine
 10
657.9539285101999
 20
75.90191081037341
 30
0.0
 11
657.9539285101999
 21
83.36268032583252
 31
0.0
  0
LINE
  5
1331
330
2
100
AcDbEntity
  8
0
100
AcDbLine
 10
657.6539285101988
 20
83.88229556810296
 30
0.0
 11
657.6539285101988
 21
75.38229556810296
 31
0.0
  0
LINE
  5
1332
330
2
100
AcDbEntity
  8
0
100
AcDbLine
 10
657.6539285101988
 20
83.88229556810296
 30
0.0
 11
657.9539285101999
 21
83.36268032583252
 31
0.0
  0
LINE
  5
1333
330
2
100
AcDbEntity
  8
0
100
AcDbLine
 10
657.9539285101999
 20
75.90191081037341
 30
0.0
 11
657.6539285101988
 21
75.38229556810296
 31
0.0
  0
LINE
  5
1334
330
2
100
AcDbEntity
  8
0
100
AcDbLine
 10
652.9539285101999
 20
75.38229556810296
 30
0.0
 11
651.9539285101999
 21
75.38229556810296
 31
0.0
  0
LINE
  5
1335
330
2
100
AcDbEntity
  8
0
100
AcDbLine
 10
651.9539285101999
 20
75.38229556810296
 30
0.0
 11
651.9539285101999
 21
83.88229556810296
 31
0.0
  0
LINE
  5
1336
330
2
100
AcDbEntity
  8
0
100
AcDbLine
 10
651.9539285101999
 20
83.88229556810296
 30
0.0
 11
652.9539285101999
 21
83.88229556810296
 31
0.0
  0
LINE
  5
1337
330
2
100
AcDbEntity
  8
0
100
AcDbLine
 10
652.9539285101999
 20
83.88229556810296
 30
0.0
 11
652.9539285101999
 21
75.38229556810296
 31
0.0
  0
LINE
  5
1338
330
2
100
AcDbEntity
  8
0
100
AcDbLine
 10
652.9539285101999
 20
83.88229556810296
 30
0.0
 11
652.9539285101999
 21
75.38229556810296
 31
0.0
  0
LINE
  5
1339
330
2
100
AcDbEntity
  8
0
100
AcDbLine
 10
673.9227609451208
 20
116.2422955681035
 30
0.0
 11
663.9227609451207
 21
116.2422955681035
 31
0.0
  0
LINE
  5
133A
330
2
100
AcDbEntity
  8
0
100
AcDbLine
 10
673.9227609451208
 20
116.242295568103
 30
0.0
 11
673.9227609451208
 21
110.742295568103
 31
0.0
  0
LINE
  5
133B
330
2
100
AcDbEntity
  8
0
100
AcDbLine
 10
675.9227609451207
 20
117.3969961064826
 30
0.0
 11
673.9227609451208
 21
116.242295568103
 31
0.0
  0
LINE
  5
133C
330
2
100
AcDbEntity
  8
0
100
AcDbLine
 10
646.9227609451207
 20
116.492295568103
 30
0.0
 11
646.9227609451207
 21
110.742295568103
 31
0.0
  0
LINE
  5
133D
330
2
100
AcDbEntity
  8
0
100
AcDbLine
 10
673.9227609451208
 20
116.2422955681035
 30
0.0
 11
663.9227609451207
 21
116.2422955681035
 31
0.0
  0
LINE
  5
133E
330
2
100
AcDbEntity
  8
0
100
AcDbLine
 10
668.8349751237946
 20
125.4922955681035
 30
0.0
 11
675.9227609451207
 21
125.4922955681035
 31
0.0
  0
LINE
  5
133F
330
2
100
AcDbEntity
  8
0
100
AcDbLine
 10
675.9227609451207
 20
125.4922955681035
 30
0.0
 11
675.9227609451207
 21
110.742295568103
 31
0.0
  0
LINE
  5
1340
330
2
100
AcDbEntity
  8
0
100
AcDbLine
 10
661.9227609451208
 20
121.0269767548265
 30
0.0
 11
661.9227609451208
 21
110.742295568103
 31
0.0
  0
LINE
  5
1341
330
2
100
AcDbEntity
  8
0
100
AcDbLine
 10
663.9227609451207
 20
121.5523769022578
 30
0.0
 11
663.9227609451207
 21
110.742295568103
 31
0.0
  0
LINE
  5
1342
330
2
100
AcDbEntity
  8
0
100
AcDbLine
 10
654.9227609451207
 20
116.492295568103
 30
0.0
 11
646.9227609451207
 21
116.492295568103
 31
0.0
  0
LINE
  5
1343
330
2
100
AcDbEntity
  8
0
100
AcDbLine
 10
654.9227609451207
 20
110.742295568103
 30
0.0
 11
654.9227609451207
 21
116.492295568103
 31
0.0
  0
LINE
  5
1344
330
2
100
AcDbEntity
  8
0
100
AcDbLine
 10
661.9227609451208
 20
116.242295568103
 30
0.0
 11
654.9227609451207
 21
116.242295568103
 31
0.0
  0
LINE
  5
1345
330
2
100
AcDbEntity
  8
0
100
AcDbLine
 10
644.0360095991726
 20
110.742295568103
 30
0.0
 11
646.9227609451207
 21
115.742295568103
 31
0.0
  0
SPLINE
  5
1346
330
2
100
AcDbEntity
  8
HOJO
100
AcDbSpline
210
0.0
220
0.0
230
1.0
 70
     8
 71
     3
 72
    20
 73
    16
 74
     0
 42
0.0000000001
 43
0.0000000001
 40
0.0
 40
0.0
 40
0.0
 40
0.0
 40
5.311626210389601
 40
7.954639692924123
 40
10.24579206730457
 40
14.18281221953265
 40
18.83794314114633
 40
26.54246833222011
 40
31.19712602527561
 40
34.95638115537181
 40
42.12378530287149
 40
45.78553747213095
 40
50.20353689726185
 40
53.26513166942802
 40
54.23175360515262
 40
54.23175360515262
 40
54.23175360515262
 40
54.23175360515262
 10
683.4227715541709
 20
137.4297442901192
 30
0.0
 10
681.7097923882828
 20
137.3217022398929
 30
0.0
 10
679.1444514688718
 20
137.1598995174885
 30
0.0
 10
675.3726975817953
 20
136.9077668453214
 30
0.0
 10
674.0535563656611
 20
133.9753253603543
 30
0.0
 10
671.6183469973692
 20
131.3208165370587
 30
0.0
 10
669.7802986542191
 20
126.1695211038949
 30
0.0
 10
665.6554622447437
 20
121.4597737522694
 30
0.0
 10
660.177814741737
 20
120.8224423178502
 30
0.0
 10
655.2644292321709
 20
119.1361233711426
 30
0.0
 10
650.430429885413
 20
118.5161362791681
 30
0.0
 10
645.392703120773
 20
117.5609122615068
 30
0.0
 10
642.3215524994047
 20
115.0267004187562
 30
0.0
 10
641.321578204679
 20
112.3484598978665
 30
0.0
 10
640.9655386794455
 20
111.0534468677955
 30
0.0
 10
640.8828109073582
 20
110.742295568103
 30
0.0
  0
LINE
  5
1347
330
2
100
AcDbEntity
  8
0
100
AcDbLine
 10
683.4227715541709
 20
135.7422955681035
 30
0.0
 11
676.4227715541709
 21
135.7422955681035
 31
0.0
  0
LINE
  5
1348
330
2
100
AcDbEntity
  8
0
100
AcDbLine
 10
676.4227715541709
 20
135.7422955681035
 30
0.0
 11
676.4227715541709
 21
110.742295568103
 31
0.0
  0
LINE
  5
1349
330
2
100
AcDbEntity
  8
0
100
AcDbLine
 10
674.4227777253581
 20
144.742295568103
 30
0.0
 11
664.422777725358
 21
144.742295568103
 31
0.0
  0
ARC
  5
134A
330
2
100
AcDbEntity
  8
0
100
AcDbCircle
 10
664.422777725358
 20
140.742295568103
 30
0.0
 40
4.0
100
AcDbArc
 50
90.0
 51
180.0
  0
ARC
  5
134B
330
2
100
AcDbEntity
  8
0
100
AcDbCircle
 10
674.4227777253581
 20
140.742295568103
 30
0.0
 40
4.0
100
AcDbArc
 50
0.0
 51
90.0
  0
ARC
  5
134D
330
2
100
AcDbEntity
  8
0
100
AcDbCircle
 10
650.4227715498019
 20
430.3552626908647
 30
0.0
 40
2.0
100
AcDbArc
 50
40.04151653423844
 51
90.0
  0
ARC
  5
134E
330
2
100
AcDbEntity
  8
0
100
AcDbCircle
 10
650.4227715498019
 20
362.3552626908648
 30
0.0
 40
2.0
100
AcDbArc
 50
270.0
 51
319.9584834657615
  0
LINE
  5
134F
330
2
100
AcDbEntity
  8
0
100
AcDbLine
 10
659.422771549802
 20
393.3552626908643
 30
0.0
 11
659.422771549802
 21
378.8552626908643
 31
0.0
  0
LINE
  5
1350
330
2
100
AcDbEntity
  8
0
100
AcDbLine
 10
652.4227715498019
 20
423.2152626908648
 30
0.0
 11
652.4227715498019
 21
369.4952626908647
 31
0.0
  0
LINE
  5
1351
330
2
100
AcDbEntity
  8
CENTER
  6
CENS
100
AcDbLine
 10
669.4227715498019
 20
398.7552626908648
 30
0.0
 11
669.4227715498019
 21
372.9552626908648
 31
0.0
  0
LINE
  5
1352
330
2
100
AcDbEntity
  8
0
100
AcDbLine
 10
668.4227715498019
 20
423.3552626908647
 30
0.0
 11
668.4227715498019
 21
399.3552626908648
 31
0.0
  0
LINE
  5
1353
330
2
100
AcDbEntity
  8
0
100
AcDbLine
 10
657.9539285058309
 20
426.3552626908647
 30
0.0
 11
683.4227715498019
 21
426.3552626908647
 31
0.0
  0
ARC
  5
1354
330
2
100
AcDbEntity
  8
0
100
AcDbCircle
 10
671.4227715498019
 20
423.3552626908647
 30
0.0
 40
3.0
100
AcDbArc
 50
90.0
 51
180.0
  0
ARC
  5
1355
330
2
100
AcDbEntity
  8
0
100
AcDbCircle
 10
665.4227715498019
 20
399.3552626908648
 30
0.0
 40
3.0
100
AcDbArc
 50
270.0
 51
0.0
  0
ARC
  5
1356
330
2
100
AcDbEntity
  8
0
100
AcDbCircle
 10
662.4227715498019
 20
393.3552626908643
 30
0.0
 40
3.0
100
AcDbArc
 50
90.0
 51
180.0
  0
LINE
  5
1357
330
2
100
AcDbEntity
  8
0
100
AcDbLine
 10
662.4227715498019
 20
396.3552626908648
 30
0.0
 11
665.4227715498019
 21
396.3552626908648
 31
0.0
  0
LINE
  5
1358
330
2
100
AcDbEntity
  8
0
100
AcDbLine
 10
657.9539285058309
 20
366.3552626908648
 30
0.0
 11
683.4227715498019
 21
366.3552626908648
 31
0.0
  0
LINE
  5
1359
330
2
100
AcDbEntity
  8
CENTER
  6
CENS
100
AcDbLine
 10
656.522771549802
 20
385.8552626908648
 30
0.0
 11
682.3227715498019
 21
385.8552626908648
 31
0.0
  0
ARC
  5
135A
330
2
100
AcDbEntity
  8
0
100
AcDbCircle
 10
662.4227715498019
 20
378.8552626908643
 30
0.0
 40
3.0
100
AcDbArc
 50
180.0
 51
270.0
  0
ARC
  5
135B
330
2
100
AcDbEntity
  8
0
100
AcDbCircle
 10
665.4227715498019
 20
372.8552626908648
 30
0.0
 40
3.0
100
AcDbArc
 50
0.0
 51
90.0
  0
LINE
  5
135C
330
2
100
AcDbEntity
  8
0
100
AcDbLine
 10
662.4227715498019
 20
375.8552626908648
 30
0.0
 11
665.4227715498019
 21
375.8552626908648
 31
0.0
  0
LINE
  5
135D
330
2
100
AcDbEntity
  8
0
100
AcDbLine
 10
668.4227715498019
 20
372.8552626908648
 30
0.0
 11
668.4227715498019
 21
369.3552626908648
 31
0.0
  0
ARC
  5
135E
330
2
100
AcDbEntity
  8
0
100
AcDbCircle
 10
671.4227715498019
 20
369.3552626908648
 30
0.0
 40
3.0
100
AcDbArc
 50
180.0
 51
270.0
  0
LINE
  5
135F
330
2
100
AcDbEntity
  8
0
100
AcDbLine
 10
640.4227715498019
 20
432.3552626908647
 30
0.0
 11
650.4227715498019
 21
432.3552626908647
 31
0.0
  0
LINE
  5
1360
330
2
100
AcDbEntity
  8
0
100
AcDbLine
 10
640.4227715498019
 20
360.3552626908648
 30
0.0
 11
650.4227715498019
 21
360.3552626908648
 31
0.0
  0
LINE
  5
1361
330
2
100
AcDbEntity
  8
0
100
AcDbLine
 10
683.4227715498019
 20
426.3552626908647
 30
0.0
 11
683.4227715498019
 21
366.3552626908648
 31
0.0
  0
LINE
  5
1362
330
2
100
AcDbEntity
  8
0
100
AcDbLine
 10
657.6539285058299
 20
369.4952626908647
 30
0.0
 11
652.953928505831
 21
369.4952626908647
 31
0.0
  0
LINE
  5
1363
330
2
100
AcDbEntity
  8
0
100
AcDbLine
 10
652.953928505831
 20
360.9952626908647
 30
0.0
 11
657.6539285058299
 21
360.9952626908647
 31
0.0
  0
LINE
  5
1364
330
2
100
AcDbEntity
  8
CENTER
  6
CENS
100
AcDbLine
 10
635.4227715498019
 20
365.2452626908647
 30
0.0
 11
662.8797444798857
 21
365.2452626908647
 31
0.0
  0
LINE
  5
1365
330
2
100
AcDbEntity
  8
0
100
AcDbLine
 10
657.9539285058309
 20
361.5148779331351
 30
0.0
 11
657.9539285058309
 21
368.9756474485942
 31
0.0
  0
LINE
  5
1366
330
2
100
AcDbEntity
  8
0
100
AcDbLine
 10
657.6539285058299
 20
369.4952626908647
 30
0.0
 11
657.6539285058299
 21
360.9952626908647
 31
0.0
  0
LINE
  5
1367
330
2
100
AcDbEntity
  8
0
100
AcDbLine
 10
657.6539285058299
 20
369.4952626908647
 30
0.0
 11
657.9539285058309
 21
368.9756474485942
 31
0.0
  0
LINE
  5
1368
330
2
100
AcDbEntity
  8
0
100
AcDbLine
 10
657.9539285058309
 20
361.5148779331351
 30
0.0
 11
657.6539285058299
 21
360.9952626908647
 31
0.0
  0
LINE
  5
1369
330
2
100
AcDbEntity
  8
0
100
AcDbLine
 10
652.953928505831
 20
360.9952626908647
 30
0.0
 11
651.9539285058309
 21
360.9952626908647
 31
0.0
  0
LINE
  5
136A
330
2
100
AcDbEntity
  8
0
100
AcDbLine
 10
651.9539285058309
 20
360.9952626908647
 30
0.0
 11
651.9539285058309
 21
369.4952626908647
 31
0.0
  0
LINE
  5
136B
330
2
100
AcDbEntity
  8
0
100
AcDbLine
 10
651.9539285058309
 20
369.4952626908647
 30
0.0
 11
652.953928505831
 21
369.4952626908647
 31
0.0
  0
LINE
  5
136C
330
2
100
AcDbEntity
  8
0
100
AcDbLine
 10
652.953928505831
 20
369.4952626908647
 30
0.0
 11
652.953928505831
 21
360.9952626908647
 31
0.0
  0
LINE
  5
136D
330
2
100
AcDbEntity
  8
0
100
AcDbLine
 10
652.953928505831
 20
369.4952626908647
 30
0.0
 11
652.953928505831
 21
360.9952626908647
 31
0.0
  0
LINE
  5
136E
330
2
100
AcDbEntity
  8
0
100
AcDbLine
 10
657.6539285058299
 20
423.2152626908648
 30
0.0
 11
652.953928505831
 21
423.2152626908648
 31
0.0
  0
LINE
  5
136F
330
2
100
AcDbEntity
  8
0
100
AcDbLine
 10
652.953928505831
 20
431.7152626908648
 30
0.0
 11
657.6539285058299
 21
431.7152626908648
 31
0.0
  0
LINE
  5
1370
330
2
100
AcDbEntity
  8
CENTER
  6
CENS
100
AcDbLine
 10
635.4227715498019
 20
427.4652626908648
 30
0.0
 11
662.8797444798857
 21
427.4652626908648
 31
0.0
  0
LINE
  5
1371
330
2
100
AcDbEntity
  8
0
100
AcDbLine
 10
657.9539285058309
 20
431.1956474485944
 30
0.0
 11
657.9539285058309
 21
423.7348779331353
 31
0.0
  0
LINE
  5
1372
330
2
100
AcDbEntity
  8
0
100
AcDbLine
 10
657.6539285058299
 20
423.2152626908648
 30
0.0
 11
657.6539285058299
 21
431.7152626908648
 31
0.0
  0
LINE
  5
1373
330
2
100
AcDbEntity
  8
0
100
AcDbLine
 10
657.6539285058299
 20
423.2152626908648
 30
0.0
 11
657.9539285058309
 21
423.7348779331353
 31
0.0
  0
LINE
  5
1374
330
2
100
AcDbEntity
  8
0
100
AcDbLine
 10
657.9539285058309
 20
431.1956474485944
 30
0.0
 11
657.6539285058299
 21
431.7152626908648
 31
0.0
  0
LINE
  5
1375
330
2
100
AcDbEntity
  8
0
100
AcDbLine
 10
652.953928505831
 20
431.7152626908648
 30
0.0
 11
651.9539285058309
 21
431.7152626908648
 31
0.0
  0
LINE
  5
1376
330
2
100
AcDbEntity
  8
0
100
AcDbLine
 10
651.9539285058309
 20
431.7152626908648
 30
0.0
 11
651.9539285058309
 21
423.2152626908648
 31
0.0
  0
LINE
  5
1377
330
2
100
AcDbEntity
  8
0
100
AcDbLine
 10
651.9539285058309
 20
423.2152626908648
 30
0.0
 11
652.953928505831
 21
423.2152626908648
 31
0.0
  0
LINE
  5
1378
330
2
100
AcDbEntity
  8
0
100
AcDbLine
 10
652.953928505831
 20
423.2152626908648
 30
0.0
 11
652.953928505831
 21
431.7152626908648
 31
0.0
  0
LINE
  5
1379
330
2
100
AcDbEntity
  8
0
100
AcDbLine
 10
652.953928505831
 20
423.2152626908648
 30
0.0
 11
652.953928505831
 21
431.7152626908648
 31
0.0
  0
CIRCLE
  5
137A
330
2
100
AcDbEntity
  8
0
100
AcDbCircle
 10
669.4227715498019
 20
385.8552626908648
 30
0.0
 40
9.000006171187123
  0
LINE
  5
1F14
330
2
100
AcDbEntity
  8
CENTER
100
AcDbLine
 10
528.9374901799452
 20
150.2275769423296
 30
0.0
 11
607.9080529284216
 21
71.25701419385143
 31
0.0
  0
LINE
  5
1F15
330
2
100
AcDbEntity
  8
CENTER
100
AcDbLine
 10
607.908052928397
 20
150.2275769423285
 30
0.0
 11
528.9374901799193
 21
71.25701419385217
 31
0.0
  0
CIRCLE
  5
1F16
330
2
100
AcDbEntity
  8
CENTER
100
AcDbCircle
 10
568.4227715541728
 20
110.742295568103
 30
0.0
 40
44.0
  0
CIRCLE
  5
1F17
330
2
100
AcDbEntity
  8
0
100
AcDbCircle
 10
568.4227715541728
 20
110.7422955681042
 30
0.0
 40
30.0
  0
CIRCLE
  5
1F18
330
2
100
AcDbEntity
  8
0
100
AcDbCircle
 10
568.4227715541728
 20
110.7422955681042
 30
0.0
 40
24.00000000000017
  0
CIRCLE
  5
1F19
330
2
100
AcDbEntity
  8
0
100
AcDbCircle
 10
568.4227715541728
 20
110.7422955681042
 30
0.0
 40
19.0
  0
ARC
  5
1F1A
330
2
100
AcDbEntity
  8
0
100
AcDbCircle
 10
568.4227715541736
 20
234.742295568103
 30
0.0
 40
160.0
100
AcDbArc
 50
264.0709145121236
 51
275.9290854878763
  0
ARC
  5
1F1B
330
2
100
AcDbEntity
  8
0
100
AcDbCircle
 10
568.4227715541745
 20
-13.25770443189691
 30
0.0
 40
160.0
100
AcDbArc
 50
84.07091451212361
 51
95.92908548787638
  0
LINE
  5
1F20
330
2
100
AcDbEntity
  8
0
100
AcDbLine
 10
114.5982170539208
 20
83.24229556810509
 30
0.0
 11
125.0982170539217
 21
83.24229556810555
 31
0.0
  0
LINE
  5
1F21
330
2
100
AcDbEntity
  8
0
100
AcDbLine
 10
113.5982170539208
 20
101.4686770726053
 30
0.0
 11
128.0982170539217
 21
101.4686770726053
 31
0.0
  0
LINE
  5
1F22
330
2
100
AcDbEntity
  8
0
100
AcDbLine
 10
125.0982170539217
 20
88.24229556810101
 30
0.0
 11
116.5982170539208
 21
88.24229556810101
 31
0.0
  0
LINE
  5
1F23
330
2
100
AcDbEntity
  8
0
100
AcDbLine
 10
113.5982170539199
 20
120.0159140635963
 30
0.0
 11
128.0982170539217
 21
120.015914063597
 31
0.0
  0
LINE
  5
1F24
330
2
100
AcDbEntity
  8
0
100
AcDbLine
 10
114.5982170539208
 20
138.2422955680971
 30
0.0
 11
125.0982170539217
 21
138.2422955680966
 31
0.0
  0
LINE
  5
1F25
330
2
100
AcDbEntity
  8
0
100
AcDbLine
 10
125.0982170539217
 20
133.2422955681009
 30
0.0
 11
116.5982170539144
 21
133.2422955681009
 31
0.0
  0
LINE
  5
1F26
330
2
100
AcDbEntity
  8
0
100
AcDbLine
 10
113.5982170539144
 20
137.2422955680975
 30
0.0
 11
113.5982170539208
 21
84.24229556810509
 31
0.0
  0
LINE
  5
1F27
330
2
100
AcDbEntity
  8
0
100
AcDbLine
 10
104.0982170539253
 20
76.24229556810099
 30
0.0
 11
104.0982170539272
 21
145.242295568101
 31
0.0
  0
ARC
  5
1F29
330
2
100
AcDbEntity
  8
0
100
AcDbCircle
 10
114.5982170539208
 20
80.24229556810508
 30
0.0
 40
3.0
100
AcDbArc
 50
90.0
 51
126.8698976458212
  0
ARC
  5
1F2A
330
2
100
AcDbEntity
  8
0
100
AcDbCircle
 10
107.0982170539263
 20
79.24229556810463
 30
0.0
 40
3.0
100
AcDbArc
 50
90.0
 51
180.0
  0
ARC
  5
1F2B
330
2
100
AcDbEntity
  8
0
100
AcDbCircle
 10
111.5982170539208
 20
84.24229556810486
 30
0.0
 40
2.0
100
AcDbArc
 50
270.0
 51
0.0
  0
LINE
  5
1F2C
330
2
100
AcDbEntity
  8
0
100
AcDbLine
 10
92.0982170539254
 20
74.242295568101
 30
0.0
 11
102.0982170539253
 21
74.242295568101
 31
0.0
  0
LINE
  5
1F2D
330
2
100
AcDbEntity
  8
0
100
AcDbLine
 10
92.0982170539254
 20
74.742295568101
 30
0.0
 11
102.0982170539253
 21
74.742295568101
 31
0.0
  0
ARC
  5
1F2E
330
2
100
AcDbEntity
  8
0
100
AcDbCircle
 10
102.0982170539253
 20
76.24229556810099
 30
0.0
 40
2.0
100
AcDbArc
 50
270.0
 51
0.0
  0
LINE
  5
1F2F
330
2
100
AcDbEntity
  8
0
100
AcDbLine
 10
107.0982170539253
 20
82.24229556810463
 30
0.0
 11
111.5982170539208
 21
82.24229556810486
 31
0.0
  0
ARC
  5
1F30
330
2
100
AcDbEntity
  8
0
100
AcDbCircle
 10
102.0982170539253
 20
76.742295568101
 30
0.0
 40
2.0
100
AcDbArc
 50
270.0
 51
0.0
  0
ARC
  5
1F31
330
2
100
AcDbEntity
  8
0
100
AcDbCircle
 10
116.5982170539208
 20
85.242295568101
 30
0.0
 40
3.0
100
AcDbArc
 50
90.0
 51
180.0
  0
ARC
  5
1F32
330
2
100
AcDbEntity
  8
0
100
AcDbCircle
 10
116.5982170539144
 20
136.2422955681009
 30
0.0
 40
3.0
100
AcDbArc
 50
180.0
 51
270.0
  0
LINE
  5
1F33
330
2
100
AcDbEntity
  8
0
100
AcDbLine
 10
102.0982170539253
 20
147.2422955681009
 30
0.0
 11
92.0982170539254
 21
147.2422955681009
 31
0.0
  0
LINE
  5
1F34
330
2
100
AcDbEntity
  8
0
100
AcDbLine
 10
102.0982170539253
 20
146.7422955681009
 30
0.0
 11
92.0982170539254
 21
146.7422955681009
 31
0.0
  0
ARC
  5
1F35
330
2
100
AcDbEntity
  8
0
100
AcDbCircle
 10
102.0982170539253
 20
145.242295568101
 30
0.0
 40
2.0
100
AcDbArc
 50
0.0
 51
90.0
  0
ARC
  5
1F36
330
2
100
AcDbEntity
  8
0
100
AcDbCircle
 10
102.0982170539253
 20
144.7422955681009
 30
0.0
 40
2.0
100
AcDbArc
 50
0.0
 51
90.0
  0
ARC
  5
1F37
330
2
100
AcDbEntity
  8
0
100
AcDbCircle
 10
114.5982170539208
 20
141.2422955680971
 30
0.0
 40
3.0
100
AcDbArc
 50
233.1301023541299
 51
270.0
  0
ARC
  5
1F38
330
2
100
AcDbEntity
  8
0
100
AcDbCircle
 10
111.5982170539208
 20
137.2422955680973
 30
0.0
 40
2.0
100
AcDbArc
 50
0.0
 51
90.0
  0
LINE
  5
1F39
330
2
100
AcDbEntity
  8
0
100
AcDbLine
 10
107.0982170539253
 20
139.2422955680973
 30
0.0
 11
111.5982170539208
 21
139.2422955680973
 31
0.0
  0
ARC
  5
1F3A
330
2
100
AcDbEntity
  8
0
100
AcDbCircle
 10
107.0982170539263
 20
142.2422955680975
 30
0.0
 40
3.0
100
AcDbArc
 50
180.0
 51
270.0
  0
LINE
  5
1F3B
330
2
100
AcDbEntity
  8
CENTER
100
AcDbLine
 10
164.0982170539217
 20
64.74229556810026
 30
0.0
 11
164.0982170539213
 21
156.7422955681005
 31
0.0
  0
LINE
  5
1F3C
330
2
100
AcDbEntity
  8
CENTER
100
AcDbLine
 10
124.6129356796701
 20
150.2275769423512
 30
0.0
 11
203.5834984281488
 21
71.25701419387517
 31
0.0
  0
LINE
  5
1F3D
330
2
100
AcDbEntity
  8
CENTER
100
AcDbLine
 10
203.5834984281728
 20
150.2275769423515
 30
0.0
 11
124.6129356796956
 21
71.25701419387475
 31
0.0
  0
ARC
  5
1F3E
330
2
100
AcDbEntity
  8
0
100
AcDbCircle
 10
229.0818134988284
 20
130.3688152480855
 30
0.0
 40
30.0
100
AcDbArc
 50
166.1581756815797
 51
185.9290854878502
  0
LINE
  5
1F3F
330
2
100
AcDbEntity
  8
CENTER
100
AcDbLine
 10
195.0982170539199
 20
148.9922955681016
 30
0.0
 11
195.0982170539208
 21
134.4922955681014
 31
0.0
  0
LINE
  5
1F40
330
2
100
AcDbEntity
  8
0
100
AcDbLine
 10
135.0626831479893
 20
131.2042363452263
 30
0.0
 11
143.6362762767966
 21
139.7778294740338
 31
0.0
  0
CIRCLE
  5
1F41
330
2
100
AcDbEntity
  8
0
100
AcDbCircle
 10
132.5982170539217
 20
135.2422955681
 30
0.0
 40
1.6
  0
CIRCLE
  5
1F42
330
2
100
AcDbEntity
  8
HOJO
100
AcDbCircle
 10
132.5982170539217
 20
135.2422955681
 30
0.0
 40
2.0
  0
LINE
  5
1F43
330
2
100
AcDbEntity
  8
CENTER
100
AcDbLine
 10
132.5982170539208
 20
140.4155006488571
 30
0.0
 11
132.5982170539217
 21
130.069090487343
 31
0.0
  0
LINE
  5
1F44
330
2
100
AcDbEntity
  8
CENTER
100
AcDbLine
 10
133.0982170539235
 20
148.9922955681014
 30
0.0
 11
133.0982170539226
 21
134.4922955681009
 31
0.0
  0
LINE
  5
1F45
330
2
100
AcDbEntity
  8
0
100
AcDbLine
 10
133.648469585616
 20
132.6184499075994
 30
0.0
 11
142.2220627144241
 21
141.1920430364069
 31
0.0
  0
LINE
  5
1F46
330
2
100
AcDbEntity
  8
0
100
AcDbLine
 10
194.5479645222284
 20
132.6184499075994
 30
0.0
 11
185.9743713934202
 21
141.1920430364071
 31
0.0
  0
LINE
  5
1F47
330
2
100
AcDbEntity
  8
0
100
AcDbLine
 10
193.133750959855
 20
131.2042363452265
 30
0.0
 11
184.5601578310478
 21
139.7778294740338
 31
0.0
  0
LINE
  5
1F48
330
2
100
AcDbEntity
  8
0
100
AcDbLine
 10
128.4682170539234
 20
79.742295568101
 30
0.0
 11
128.4682170539216
 21
141.7422955681009
 31
0.0
  0
LINE
  5
1F49
330
2
100
AcDbEntity
  8
0
100
AcDbLine
 10
128.0982170539217
 20
79.74229556812601
 30
0.0
 11
128.0982170539144
 21
141.7422955681248
 31
0.0
  0
CIRCLE
  5
1F4A
330
2
100
AcDbEntity
  8
0
100
AcDbCircle
 10
195.0982170539217
 20
79.74229556810122
 30
0.0
 40
3.730384757729268
  0
CIRCLE
  5
1F4B
330
2
100
AcDbEntity
  8
0
100
AcDbCircle
 10
195.0982170539217
 20
79.74229556810122
 30
0.0
 40
4.250000000000085
  0
LINE
  5
1F4C
330
2
100
AcDbEntity
  8
CENTER
100
AcDbLine
 10
200.7714221346794
 20
86.24229556810146
 30
0.0
 11
190.4250119731649
 21
86.24229556810146
 31
0.0
  0
LINE
  5
1F4D
330
2
100
AcDbEntity
  8
CENTER
100
AcDbLine
 10
202.3482170539217
 20
79.74229556810122
 30
0.0
 11
187.8482170539217
 21
79.74229556810122
 31
0.0
  0
LINE
  5
1F4E
330
2
100
AcDbEntity
  8
0
100
AcDbLine
 10
194.5479645222284
 20
88.86614122860272
 30
0.0
 11
185.9743713934202
 21
80.29254809979525
 31
0.0
  0
LINE
  5
1F4F
330
2
100
AcDbEntity
  8
0
100
AcDbLine
 10
192.0982170539217
 20
74.74229556810373
 30
0.0
 11
195.0982170539217
 21
74.74229556810373
 31
0.0
  0
LINE
  5
1F50
330
2
100
AcDbEntity
  8
0
100
AcDbLine
 10
193.133750959855
 20
90.28035479097583
 30
0.0
 11
184.5601578310478
 21
81.70676166216834
 31
0.0
  0
LINE
  5
1F51
330
2
100
AcDbEntity
  8
0
100
AcDbLine
 10
131.5982170539217
 20
127.6687024392937
 30
0.0
 11
131.5982170539217
 21
93.81588869690871
 31
0.0
  0
LINE
  5
1F52
330
2
100
AcDbEntity
  8
0
100
AcDbLine
 10
133.5982170539217
 20
127.6687024392937
 30
0.0
 11
133.5982170539217
 21
93.81588869690871
 31
0.0
  0
CIRCLE
  5
1F53
330
2
100
AcDbEntity
  8
0
100
AcDbCircle
 10
164.0982170539217
 20
110.7422955681012
 30
0.0
 40
19.0
  0
CIRCLE
  5
1F54
330
2
100
AcDbEntity
  8
0
100
AcDbCircle
 10
164.0982170539217
 20
110.7422955681012
 30
0.0
 40
19.5774
  0
CIRCLE
  5
1F55
330
2
100
AcDbEntity
  8
0
100
AcDbCircle
 10
164.0982170539217
 20
110.7422955681012
 30
0.0
 40
23.0
  0
CIRCLE
  5
1F56
330
2
100
AcDbEntity
  8
0
100
AcDbCircle
 10
164.0982170539217
 20
110.7422955681012
 30
0.0
 40
22.42259999999999
  0
CIRCLE
  5
1F57
330
2
100
AcDbEntity
  8
0
100
AcDbCircle
 10
164.0982170539217
 20
110.7422955681012
 30
0.0
 40
25.0
  0
CIRCLE
  5
1F58
330
2
100
AcDbEntity
  8
0
100
AcDbCircle
 10
164.0982170539217
 20
110.7422955681012
 30
0.0
 40
25.5
  0
LINE
  5
1F59
330
2
100
AcDbEntity
  8
0
100
AcDbLine
 10
147.171810182729
 20
78.242295568101
 30
0.0
 11
181.0246239251144
 21
78.24229556810077
 31
0.0
  0
LINE
  5
1F5A
330
2
100
AcDbEntity
  8
0
100
AcDbLine
 10
147.171810182729
 20
80.242295568101
 30
0.0
 11
181.0246239251144
 21
80.242295568101
 31
0.0
  0
ARC
  5
1F5B
330
2
100
AcDbEntity
  8
0
100
AcDbCircle
 10
164.0982170539181
 20
234.7422955681002
 30
0.0
 40
160.0
100
AcDbArc
 50
264.0709145121236
 51
275.9290854878763
  0
ARC
  5
1F5C
330
2
100
AcDbEntity
  8
0
100
AcDbCircle
 10
133.4682170539234
 20
79.74229556810122
 30
0.0
 40
5.0
100
AcDbArc
 50
180.0
 51
270.0
  0
LINE
  5
1F5D
330
2
100
AcDbEntity
  8
CENTER
100
AcDbLine
 10
125.8482170539217
 20
79.74229556810032
 30
0.0
 11
140.3482170539226
 21
79.74229556810077
 31
0.0
  0
ARC
  5
1F5E
330
2
100
AcDbEntity
  8
0
100
AcDbCircle
 10
125.0982170539217
 20
80.24229556810555
 30
0.0
 40
3.0
100
AcDbArc
 50
0.0
 51
90.0
  0
ARC
  5
1F5F
330
2
100
AcDbEntity
  8
0
100
AcDbCircle
 10
125.0982170539217
 20
85.242295568101
 30
0.0
 40
3.0
100
AcDbArc
 50
0.0
 51
90.0
  0
ARC
  5
1F60
330
2
100
AcDbEntity
  8
0
100
AcDbCircle
 10
133.0982170539217
 20
79.74229556812601
 30
0.0
 40
5.0
100
AcDbArc
 50
180.0
 51
270.0
  0
CIRCLE
  5
1F61
330
2
100
AcDbEntity
  8
0
100
AcDbCircle
 10
133.0982170539217
 20
79.74229556810122
 30
0.0
 40
3.730384757729268
  0
CIRCLE
  5
1F62
330
2
100
AcDbEntity
  8
0
100
AcDbCircle
 10
133.0982170539217
 20
79.74229556810122
 30
0.0
 40
4.250000000000085
  0
LINE
  5
1F63
330
2
100
AcDbEntity
  8
CENTER
100
AcDbLine
 10
133.0982170539226
 20
72.49229556810077
 30
0.0
 11
133.0982170539226
 21
86.99229556810101
 31
0.0
  0
LINE
  5
1F64
330
2
100
AcDbEntity
  8
0
100
AcDbLine
 10
135.0626831479893
 20
90.28035479097583
 30
0.0
 11
143.6362762767966
 21
81.70676166216834
 31
0.0
  0
LINE
  5
1F65
330
2
100
AcDbEntity
  8
0
100
AcDbLine
 10
133.648469585616
 20
88.86614122860272
 30
0.0
 11
142.2220627144241
 21
80.29254809979525
 31
0.0
  0
LINE
  5
1F66
330
2
100
AcDbEntity
  8
0
100
AcDbLine
 10
131.0982170539217
 20
80.89699610648052
 30
0.0
 11
131.0982170539217
 21
78.58759502972215
 31
0.0
  0
LINE
  5
1F67
330
2
100
AcDbEntity
  8
0
100
AcDbLine
 10
133.0982170539217
 20
82.05169664485984
 30
0.0
 11
135.0982170539217
 21
80.89699610648052
 31
0.0
  0
LINE
  5
1F68
330
2
100
AcDbEntity
  8
0
100
AcDbLine
 10
135.0982170539217
 20
78.58759502972192
 30
0.0
 11
133.0982170539217
 21
77.43289449134285
 31
0.0
  0
LINE
  5
1F69
330
2
100
AcDbEntity
  8
0
100
AcDbLine
 10
135.0982170539217
 20
80.89699610648052
 30
0.0
 11
135.0982170539217
 21
78.58759502972192
 31
0.0
  0
LINE
  5
1F6A
330
2
100
AcDbEntity
  8
0
100
AcDbLine
 10
133.0982170539217
 20
82.05169664485961
 30
0.0
 11
131.0982170539217
 21
80.89699610648052
 31
0.0
  0
LINE
  5
1F6B
330
2
100
AcDbEntity
  8
0
100
AcDbLine
 10
131.0982170539217
 20
78.58759502972215
 30
0.0
 11
133.0982170539217
 21
77.43289449134285
 31
0.0
  0
LINE
  5
1F6C
330
2
100
AcDbEntity
  8
0
100
AcDbLine
 10
145.2583930209037
 20
80.62289790554441
 30
0.0
 11
144.4930261561738
 21
78.77513884052167
 31
0.0
  0
ARC
  5
1F6D
330
2
100
AcDbEntity
  8
0
100
AcDbCircle
 10
147.171810182729
 20
85.242295568101
 30
0.0
 40
5.0
100
AcDbArc
 50
224.9999999999743
 51
270.0
  0
ARC
  5
1F6E
330
2
100
AcDbEntity
  8
0
100
AcDbCircle
 10
147.171810182729
 20
85.242295568101
 30
0.0
 40
7.0
100
AcDbArc
 50
224.9999999999743
 51
270.0
  0
LINE
  5
1F6F
330
2
100
AcDbEntity
  8
0
100
AcDbLine
 10
136.0982170539226
 20
74.74229556810122
 30
0.0
 11
133.4682170539234
 21
74.74229556810122
 31
0.0
  0
ARC
  5
1F70
330
2
100
AcDbEntity
  8
0
100
AcDbCircle
 10
136.0982170539217
 20
79.74229556810373
 30
0.0
 40
5.0
100
AcDbArc
 50
270.0
 51
283.841824318421
  0
LINE
  5
1F71
330
2
100
AcDbEntity
  8
0
100
AcDbLine
 10
136.0982170539217
 20
74.74229556810373
 30
0.0
 11
133.0982170539217
 21
74.74229556810373
 31
0.0
  0
ARC
  5
1F72
330
2
100
AcDbEntity
  8
0
100
AcDbCircle
 10
144.4716973739404
 20
45.7586991231973
 30
0.0
 40
30.0
100
AcDbArc
 50
84.07091451212361
 51
103.841824318421
  0
LINE
  5
1F73
330
2
100
AcDbEntity
  8
0
100
AcDbLine
 10
133.9788193913654
 20
91.90247153508302
 30
0.0
 11
132.1310603263426
 21
91.13710467035266
 31
0.0
  0
ARC
  5
1F74
330
2
100
AcDbEntity
  8
0
100
AcDbCircle
 10
138.5982170539217
 20
93.81588869690871
 30
0.0
 40
5.0
100
AcDbArc
 50
180.0
 51
224.9999999999743
  0
ARC
  5
1F75
330
2
100
AcDbEntity
  8
0
100
AcDbCircle
 10
138.5982170539217
 20
93.81588869690871
 30
0.0
 40
7.0
100
AcDbArc
 50
180.0
 51
224.9999999999743
  0
LINE
  5
1F76
330
2
100
AcDbEntity
  8
0
100
AcDbLine
 10
182.9380410869406
 20
80.62289790554441
 30
0.0
 11
183.7034079516705
 21
78.7751388405219
 31
0.0
  0
ARC
  5
1F77
330
2
100
AcDbEntity
  8
0
100
AcDbCircle
 10
181.0246239251144
 20
85.242295568101
 30
0.0
 40
7.0
100
AcDbArc
 50
270.0
 51
315.0000000000255
  0
ARC
  5
1F78
330
2
100
AcDbEntity
  8
0
100
AcDbCircle
 10
181.0246239251144
 20
85.242295568101
 30
0.0
 40
5.0
100
AcDbArc
 50
270.0
 51
315.0000000000255
  0
ARC
  5
1F79
330
2
100
AcDbEntity
  8
0
100
AcDbCircle
 10
183.724736733904
 20
45.7586991231973
 30
0.0
 40
30.0
100
AcDbArc
 50
76.15817568157897
 51
95.92908548787638
  0
ARC
  5
1F7A
330
2
100
AcDbEntity
  8
0
100
AcDbCircle
 10
192.0982170539217
 20
79.74229556810373
 30
0.0
 40
5.0
100
AcDbArc
 50
256.1581756815789
 51
270.0
  0
LINE
  5
1F7B
330
2
100
AcDbEntity
  8
0
100
AcDbLine
 10
127.5982170539217
 20
101.4686770726053
 30
0.0
 11
127.5982170539217
 21
120.015914063597
 31
0.0
  0
LINE
  5
1F7C
330
2
100
AcDbEntity
  8
CENTER
100
AcDbLine
 10
127.425011973164
 20
135.2422955680998
 30
0.0
 11
137.7714221346785
 21
135.2422955681003
 31
0.0
  0
ARC
  5
1F7D
330
2
100
AcDbEntity
  8
0
100
AcDbCircle
 10
125.0982170539217
 20
136.2422955681009
 30
0.0
 40
3.0
100
AcDbArc
 50
270.0
 51
0.0
  0
LINE
  5
1F7E
330
2
100
AcDbEntity
  8
0
100
AcDbLine
 10
133.9788193913654
 20
129.5821196011189
 30
0.0
 11
132.1310603263426
 21
130.3474864658491
 31
0.0
  0
ARC
  5
1F7F
330
2
100
AcDbEntity
  8
0
100
AcDbCircle
 10
138.5982170539217
 20
127.6687024392937
 30
0.0
 40
7.0
100
AcDbArc
 50
135.0000000000256
 51
180.0
  0
ARC
  5
1F80
330
2
100
AcDbEntity
  8
0
100
AcDbCircle
 10
138.5982170539217
 20
127.6687024392937
 30
0.0
 40
5.0
100
AcDbArc
 50
135.0000000000256
 51
180.0
  0
LINE
  5
1F81
330
2
100
AcDbEntity
  8
0
100
AcDbLine
 10
196.5982170539226
 20
93.81588869690871
 30
0.0
 11
196.5982170539226
 21
127.6687024392937
 31
0.0
  0
LINE
  5
1F82
330
2
100
AcDbEntity
  8
0
100
AcDbLine
 10
194.5982170539226
 20
93.81588869690871
 30
0.0
 11
194.5982170539226
 21
127.6687024392937
 31
0.0
  0
ARC
  5
1F83
330
2
100
AcDbEntity
  8
0
100
AcDbCircle
 10
40.09821705392176
 20
110.7422955681039
 30
0.0
 40
160.0
100
AcDbArc
 50
354.0709145121496
 51
5.92908548785031
  0
LINE
  5
1F84
330
2
100
AcDbEntity
  8
0
100
AcDbLine
 10
195.0982170539217
 20
82.05169664485984
 30
0.0
 11
193.0982170539217
 21
80.89699610648052
 31
0.0
  0
LINE
  5
1F85
330
2
100
AcDbEntity
  8
0
100
AcDbLine
 10
193.0982170539217
 20
78.58759502972192
 30
0.0
 11
195.0982170539217
 21
77.43289449134285
 31
0.0
  0
ARC
  5
1F86
330
2
100
AcDbEntity
  8
0
100
AcDbCircle
 10
189.5982170539217
 20
93.81588869690871
 30
0.0
 40
5.0
100
AcDbArc
 50
315.0000000000255
 51
0.0
  0
CIRCLE
  5
1F87
330
2
100
AcDbEntity
  8
HOJO
100
AcDbCircle
 10
195.5982170539217
 20
86.24229556810146
 30
0.0
 40
2.0
  0
LINE
  5
1F88
330
2
100
AcDbEntity
  8
0
100
AcDbLine
 10
193.0982170539217
 20
80.89699610648052
 30
0.0
 11
193.0982170539217
 21
78.58759502972192
 31
0.0
  0
ARC
  5
1F89
330
2
100
AcDbEntity
  8
0
100
AcDbCircle
 10
195.0982170539217
 20
79.74229556812533
 30
0.0
 40
5.0
100
AcDbArc
 50
270.0
 51
0.0
  0
LINE
  5
1F8A
330
2
100
AcDbEntity
  8
CENTER
100
AcDbLine
 10
195.5982170539217
 20
81.06909048734442
 30
0.0
 11
195.5982170539217
 21
91.4155006488585
 31
0.0
  0
LINE
  5
1F8B
330
2
100
AcDbEntity
  8
CENTER
100
AcDbLine
 10
195.0982170539217
 20
72.49229556810099
 30
0.0
 11
195.0982170539217
 21
86.99229556810122
 31
0.0
  0
LINE
  5
1F8C
330
2
100
AcDbEntity
  8
0
100
AcDbLine
 10
197.0982170539217
 20
80.89699610648052
 30
0.0
 11
197.0982170539217
 21
78.58759502972215
 31
0.0
  0
LINE
  5
1F8D
330
2
100
AcDbEntity
  8
0
100
AcDbLine
 10
195.0982170539217
 20
82.05169664485961
 30
0.0
 11
197.0982170539217
 21
80.89699610648052
 31
0.0
  0
LINE
  5
1F8E
330
2
100
AcDbEntity
  8
0
100
AcDbLine
 10
197.0982170539217
 20
78.58759502972215
 30
0.0
 11
195.0982170539217
 21
77.43289449134285
 31
0.0
  0
LINE
  5
1F8F
330
2
100
AcDbEntity
  8
0
100
AcDbLine
 10
194.217614716479
 20
91.90247153508325
 30
0.0
 11
196.0653737815017
 21
91.13710467035311
 31
0.0
  0
ARC
  5
1F90
330
2
100
AcDbEntity
  8
0
100
AcDbCircle
 10
189.5982170539217
 20
93.81588869690871
 30
0.0
 40
7.0
100
AcDbArc
 50
315.0000000000255
 51
0.0
  0
CIRCLE
  5
1F91
330
2
100
AcDbEntity
  8
0
100
AcDbCircle
 10
195.5982170539217
 20
86.24229556810146
 30
0.0
 40
1.6
  0
ARC
  5
1F92
330
2
100
AcDbEntity
  8
0
100
AcDbCircle
 10
195.0982170539217
 20
82.74229556810373
 30
0.0
 40
5.0
100
AcDbArc
 50
0.0
 51
13.84182431842025
  0
LINE
  5
1F93
330
2
100
AcDbEntity
  8
0
100
AcDbLine
 10
200.0982170539217
 20
82.74229556810373
 30
0.0
 11
200.0982170539217
 21
79.74229556812533
 31
0.0
  0
ARC
  5
1F94
330
2
100
AcDbEntity
  8
0
100
AcDbCircle
 10
229.0818134988284
 20
91.11577588812192
 30
0.0
 40
30.0
100
AcDbArc
 50
174.0709145121497
 51
193.8418243184202
  0
ARC
  5
1F95
330
2
100
AcDbEntity
  8
0
100
AcDbCircle
 10
189.5982170539217
 20
127.6687024392937
 30
0.0
 40
5.0
100
AcDbArc
 50
0.0
 51
44.99999999997438
  0
LINE
  5
1F96
330
2
100
AcDbEntity
  8
0
100
AcDbLine
 10
194.217614716479
 20
129.5821196011191
 30
0.0
 11
196.0653737815017
 21
130.3474864658493
 31
0.0
  0
ARC
  5
1F97
330
2
100
AcDbEntity
  8
0
100
AcDbCircle
 10
189.5982170539217
 20
127.6687024392937
 30
0.0
 40
7.0
100
AcDbArc
 50
0.0
 51
44.99999999997438
  0
CIRCLE
  5
1F98
330
2
100
AcDbEntity
  8
0
100
AcDbCircle
 10
195.0982170539208
 20
141.7422955680996
 30
0.0
 40
3.730384757729268
  0
CIRCLE
  5
1F99
330
2
100
AcDbEntity
  8
0
100
AcDbCircle
 10
195.0982170539208
 20
141.7422955680996
 30
0.0
 40
4.250000000000085
  0
LINE
  5
1F9A
330
2
100
AcDbEntity
  8
CENTER
100
AcDbLine
 10
202.3482170539208
 20
141.7422955681018
 30
0.0
 11
187.8482170539208
 21
141.7422955681012
 31
0.0
  0
LINE
  5
1F9B
330
2
100
AcDbEntity
  8
0
100
AcDbLine
 10
192.0982170539217
 20
146.7422955681039
 30
0.0
 11
195.0982170539217
 21
146.7422955681039
 31
0.0
  0
LINE
  5
1F9C
330
2
100
AcDbEntity
  8
0
100
AcDbLine
 10
147.171810182729
 20
141.2422955681012
 30
0.0
 11
181.0246239251144
 21
141.2422955681012
 31
0.0
  0
LINE
  5
1F9D
330
2
100
AcDbEntity
  8
0
100
AcDbLine
 10
147.171810182729
 20
143.2422955681012
 30
0.0
 11
181.0246239251144
 21
143.2422955681014
 31
0.0
  0
ARC
  5
1F9E
330
2
100
AcDbEntity
  8
0
100
AcDbCircle
 10
164.098217053919
 20
-13.25770443189945
 30
0.0
 40
160.0
100
AcDbArc
 50
84.07091451212361
 51
95.92908548787638
  0
ARC
  5
1F9F
330
2
100
AcDbEntity
  8
0
100
AcDbCircle
 10
133.4682170539216
 20
141.7422955681012
 30
0.0
 40
5.0
100
AcDbArc
 50
90.0
 51
180.0
  0
LINE
  5
1FA0
330
2
100
AcDbEntity
  8
CENTER
100
AcDbLine
 10
125.8482170539226
 20
141.7422955681023
 30
0.0
 11
140.3482170539235
 21
141.7422955681016
 31
0.0
  0
ARC
  5
1FA1
330
2
100
AcDbEntity
  8
0
100
AcDbCircle
 10
133.0982170539217
 20
141.7422955681255
 30
0.0
 40
5.0
100
AcDbArc
 50
90.0
 51
180.0
  0
LINE
  5
1FA2
330
2
100
AcDbEntity
  8
0
100
AcDbLine
 10
133.0982170539235
 20
144.0516966448582
 30
0.0
 11
135.0982170539235
 21
142.8969961064789
 31
0.0
  0
LINE
  5
1FA3
330
2
100
AcDbEntity
  8
0
100
AcDbLine
 10
133.0982170539235
 20
144.0516966448579
 30
0.0
 11
131.0982170539235
 21
142.8969961064789
 31
0.0
  0
ARC
  5
1FA4
330
2
100
AcDbEntity
  8
0
100
AcDbCircle
 10
147.171810182729
 20
136.2422955681014
 30
0.0
 40
7.0
100
AcDbArc
 50
90.0
 51
135.0000000000256
  0
LINE
  5
1FA5
330
2
100
AcDbEntity
  8
0
100
AcDbLine
 10
136.0982170539226
 20
146.7422955681012
 30
0.0
 11
133.4682170539216
 21
146.7422955681012
 31
0.0
  0
ARC
  5
1FA6
330
2
100
AcDbEntity
  8
0
100
AcDbCircle
 10
136.0982170539217
 20
141.7422955681039
 30
0.0
 40
5.0
100
AcDbArc
 50
76.15817568157897
 51
90.0
  0
LINE
  5
1FA7
330
2
100
AcDbEntity
  8
0
100
AcDbLine
 10
136.0982170539217
 20
146.7422955681039
 30
0.0
 11
133.0982170539217
 21
146.7422955681039
 31
0.0
  0
ARC
  5
1FA8
330
2
100
AcDbEntity
  8
0
100
AcDbCircle
 10
144.4716973739404
 20
175.7258920130103
 30
0.0
 40
30.0
100
AcDbArc
 50
256.1581756815789
 51
275.9290854878763
  0
LINE
  5
1FA9
330
2
100
AcDbEntity
  8
0
100
AcDbLine
 10
135.0982170539235
 20
140.5875950297203
 30
0.0
 11
133.0982170539235
 21
139.4328944913412
 31
0.0
  0
LINE
  5
1FAA
330
2
100
AcDbEntity
  8
0
100
AcDbLine
 10
131.0982170539235
 20
140.5875950297205
 30
0.0
 11
133.0982170539235
 21
139.4328944913412
 31
0.0
  0
ARC
  5
1FAB
330
2
100
AcDbEntity
  8
0
100
AcDbCircle
 10
125.0982170539217
 20
141.2422955680966
 30
0.0
 40
3.0
100
AcDbArc
 50
270.0
 51
0.0
  0
LINE
  5
1FAC
330
2
100
AcDbEntity
  8
0
100
AcDbLine
 10
131.0982170539235
 20
142.8969961064789
 30
0.0
 11
131.0982170539235
 21
140.5875950297205
 31
0.0
  0
LINE
  5
1FAD
330
2
100
AcDbEntity
  8
0
100
AcDbLine
 10
135.0982170539235
 20
142.8969961064789
 30
0.0
 11
135.0982170539235
 21
140.5875950297203
 31
0.0
  0
CIRCLE
  5
1FAE
330
2
100
AcDbEntity
  8
0
100
AcDbCircle
 10
133.0982170539235
 20
141.7422955680996
 30
0.0
 40
3.730384757729268
  0
CIRCLE
  5
1FAF
330
2
100
AcDbEntity
  8
0
100
AcDbCircle
 10
133.0982170539235
 20
141.7422955680996
 30
0.0
 40
4.250000000000085
  0
LINE
  5
1FB0
330
2
100
AcDbEntity
  8
0
100
AcDbLine
 10
145.2583930209037
 20
140.8616932306575
 30
0.0
 11
144.4930261561738
 21
142.70945229568
 31
0.0
  0
ARC
  5
1FB1
330
2
100
AcDbEntity
  8
0
100
AcDbCircle
 10
147.171810182729
 20
136.2422955681014
 30
0.0
 40
5.0
100
AcDbArc
 50
90.0
 51
135.0000000000256
  0
ARC
  5
1FB2
330
2
100
AcDbEntity
  8
0
100
AcDbCircle
 10
181.0246239251144
 20
136.2422955681014
 30
0.0
 40
7.0
100
AcDbArc
 50
44.99999999997438
 51
90.0
  0
ARC
  5
1FB3
330
2
100
AcDbEntity
  8
0
100
AcDbCircle
 10
192.0982170539217
 20
141.7422955681039
 30
0.0
 40
5.0
100
AcDbArc
 50
90.0
 51
103.841824318421
  0
ARC
  5
1FB4
330
2
100
AcDbEntity
  8
0
100
AcDbCircle
 10
183.724736733904
 20
175.7258920130103
 30
0.0
 40
30.0
100
AcDbArc
 50
264.0709145121236
 51
283.841824318421
  0
LINE
  5
1FB5
330
2
100
AcDbEntity
  8
0
100
AcDbLine
 10
182.9380410869406
 20
140.8616932306578
 30
0.0
 11
183.7034079516705
 21
142.7094522956803
 31
0.0
  0
ARC
  5
1FB6
330
2
100
AcDbEntity
  8
0
100
AcDbCircle
 10
181.0246239251144
 20
136.2422955681014
 30
0.0
 40
5.0
100
AcDbArc
 50
44.99999999997438
 51
90.0
  0
LINE
  5
1FB7
330
2
100
AcDbEntity
  8
0
100
AcDbLine
 10
195.0982170539199
 20
144.0516966448582
 30
0.0
 11
193.0982170539208
 21
142.8969961064789
 31
0.0
  0
ARC
  5
1FB8
330
2
100
AcDbEntity
  8
0
100
AcDbCircle
 10
195.0982170539217
 20
141.7422955681253
 30
0.0
 40
5.0
100
AcDbArc
 50
0.0
 51
90.0
  0
LINE
  5
1FB9
330
2
100
AcDbEntity
  8
0
100
AcDbLine
 10
195.0982170539199
 20
144.0516966448579
 30
0.0
 11
197.0982170539208
 21
142.8969961064789
 31
0.0
  0
LINE
  5
1FBA
330
2
100
AcDbEntity
  8
0
100
AcDbLine
 10
193.0982170539208
 20
140.5875950297203
 30
0.0
 11
195.0982170539199
 21
139.4328944913412
 31
0.0
  0
LINE
  5
1FBB
330
2
100
AcDbEntity
  8
0
100
AcDbLine
 10
197.0982170539208
 20
140.5875950297205
 30
0.0
 11
195.0982170539208
 21
139.4328944913412
 31
0.0
  0
ARC
  5
1FBC
330
2
100
AcDbEntity
  8
0
100
AcDbCircle
 10
195.0982170539217
 20
138.7422955681041
 30
0.0
 40
5.0
100
AcDbArc
 50
346.1581756815797
 51
0.0
  0
LINE
  5
1FBD
330
2
100
AcDbEntity
  8
0
100
AcDbLine
 10
193.0982170539208
 20
142.8969961064789
 30
0.0
 11
193.0982170539208
 21
140.5875950297203
 31
0.0
  0
LINE
  5
1FBE
330
2
100
AcDbEntity
  8
0
100
AcDbLine
 10
197.0982170539208
 20
142.8969961064789
 30
0.0
 11
197.0982170539208
 21
140.5875950297205
 31
0.0
  0
LINE
  5
1FBF
330
2
100
AcDbEntity
  8
0
100
AcDbLine
 10
200.0982170539217
 20
138.7422955681041
 30
0.0
 11
200.0982170539217
 21
141.7422955681253
 31
0.0
  0
LINE
  5
1FC4
330
2
100
AcDbEntity
  8
CENTER
100
AcDbLine
 10
257.9715760977312
 20
110.7422955681021
 30
0.0
 11
403.9715760980254
 21
110.742295568102
 31
0.0
  0
LINE
  5
1FC9
330
2
100
AcDbEntity
  8
CENTER
100
AcDbLine
 10
305.971576098025
 20
64.24229556810385
 30
0.0
 11
305.971576098025
 21
157.2422955681003
 31
0.0
  0
ARC
  5
1FCA
330
2
100
AcDbEntity
  8
0
100
AcDbCircle
 10
350.9715760980282
 20
137.1276431211002
 30
0.0
 40
2.0
100
AcDbArc
 50
180.0
 51
267.9999999999963
  0
LINE
  5
1FCB
330
2
100
AcDbEntity
  8
0
100
AcDbLine
 10
269.9715760980209
 20
141.8112577827149
 30
0.0
 11
269.9715760980209
 21
133.7422955681029
 31
0.0
  0
LINE
  5
1FCC
330
2
100
AcDbEntity
  8
0
100
AcDbLine
 10
276.4715760977253
 20
137.4922955680936
 30
0.0
 11
276.4715760977253
 21
83.9922955681105
 31
0.0
  0
LINE
  5
1FCD
330
2
100
AcDbEntity
  8
0
100
AcDbLine
 10
278.4715760977253
 20
145.9922955680932
 30
0.0
 11
278.4715760977253
 21
75.49229556811051
 31
0.0
  0
LINE
  5
1FCE
330
2
100
AcDbEntity
  8
0
100
AcDbLine
 10
284.9715760977299
 20
146.7379321341892
 30
0.0
 11
284.9715760977299
 21
74.74665900202203
 31
0.0
  0
LINE
  5
1FCF
330
2
100
AcDbEntity
  8
0
100
AcDbLine
 10
348.9715760980245
 20
80.7422955681055
 30
0.0
 11
348.9715760980245
 21
140.7422955681052
 31
0.0
  0
LINE
  5
1FD0
330
2
100
AcDbEntity
  8
0
100
AcDbLine
 10
343.9715760980254
 20
75.25718076773464
 30
0.0
 11
343.9715760980263
 21
146.2274103684627
 31
0.0
  0
LINE
  5
1FD1
330
2
100
AcDbEntity
  8
0
100
AcDbLine
 10
343.9715760980263
 20
127.2698910880984
 30
0.0
 11
284.9715760977299
 21
127.2698910880984
 31
0.0
  0
LINE
  5
1FD2
330
2
100
AcDbEntity
  8
0
100
AcDbLine
 10
343.9715760980263
 20
94.21470004810576
 30
0.0
 11
284.9715760977299
 21
94.21470004810576
 31
0.0
  0
LINE
  5
1FD3
330
2
100
AcDbEntity
  8
0
100
AcDbLine
 10
343.9715760980263
 20
79.7422955681105
 30
0.0
 11
284.9715760977299
 21
79.7422955681105
 31
0.0
  0
LINE
  5
1FD4
330
2
100
AcDbEntity
  8
0
100
AcDbLine
 10
343.9715760980263
 20
82.74229556808867
 30
0.0
 11
284.9715760977299
 21
82.74229556808867
 31
0.0
  0
LINE
  5
1FD5
330
2
100
AcDbEntity
  8
0
100
AcDbLine
 10
284.9715760977299
 20
74.74229556810209
 30
0.0
 11
343.9715760980254
 21
75.25718076773464
 31
0.0
  0
LINE
  5
1FD6
330
2
100
AcDbEntity
  8
0
100
AcDbLine
 10
337.0410138454692
 20
74.67381553681739
 30
0.0
 11
305.9715760980227
 21
74.24229556810391
 31
0.0
  0
LINE
  5
1FD7
330
2
100
AcDbEntity
  8
0
100
AcDbLine
 10
268.9715760977299
 20
133.7422955681029
 30
0.0
 11
268.9715760977307
 21
87.74229556810118
 31
0.0
  0
LINE
  5
1FD8
330
2
100
AcDbEntity
  8
0
100
AcDbLine
 10
267.9715760977298
 20
133.1649452989139
 30
0.0
 11
267.9715760977317
 21
88.31964583729003
 31
0.0
  0
LINE
  5
1FD9
330
2
100
AcDbEntity
  8
0
100
AcDbLine
 10
275.9715760977308
 20
130.6375518818243
 30
0.0
 11
275.9715760977308
 21
90.84703925437962
 31
0.0
  0
LINE
  5
1FDA
330
2
100
AcDbEntity
  8
0
100
AcDbLine
 10
270.4715760977299
 20
87.94229556810146
 30
0.0
 11
270.4715760977808
 21
133.5422955681027
 31
0.0
  0
LINE
  5
1FDB
330
2
100
AcDbEntity
  8
0
100
AcDbLine
 10
272.4715760977299
 20
87.94229556810169
 30
0.0
 11
272.4715760977299
 21
133.5422955681027
 31
0.0
  0
LINE
  5
1FDC
330
2
100
AcDbEntity
  8
0
100
AcDbLine
 10
275.9715760977244
 20
135.7422955680966
 30
0.0
 11
275.9715760977298
 21
85.74229556810209
 31
0.0
  0
LINE
  5
1FDD
330
2
100
AcDbEntity
  8
0
100
AcDbLine
 10
274.902138350568
 20
74.67381553681647
 30
0.0
 11
305.9715760980209
 21
74.24229556810391
 31
0.0
  0
LINE
  5
1FDE
330
2
100
AcDbEntity
  8
HIDS
100
AcDbLine
 10
276.4715760977253
 20
83.9922955681105
 30
0.0
 11
276.4715760977253
 21
81.07072269284808
 31
0.0
  0
LINE
  5
1FDF
330
2
100
AcDbEntity
  8
0
100
AcDbLine
 10
272.1715760977297
 20
83.47268032584006
 30
0.0
 11
272.1715760977297
 21
76.01191081038141
 31
0.0
  0
LINE
  5
1FE0
330
2
100
AcDbEntity
  8
0
100
AcDbLine
 10
272.4715760977299
 20
83.9922955681105
 30
0.0
 11
272.4715760977299
 21
75.49229556811051
 31
0.0
  0
LINE
  5
1FE1
330
2
100
AcDbEntity
  8
0
100
AcDbLine
 10
277.1715760977297
 20
83.9922955681105
 30
0.0
 11
277.1715760977297
 21
75.49229556811051
 31
0.0
  0
LINE
  5
1FE2
330
2
100
AcDbEntity
  8
0
100
AcDbLine
 10
269.9715760980209
 20
87.74229556810141
 30
0.0
 11
269.9715760980209
 21
79.67333335348925
 31
0.0
  0
LINE
  5
1FE3
330
2
100
AcDbEntity
  8
0
100
AcDbLine
 10
272.4715760977299
 20
75.49229556811051
 30
0.0
 11
272.1715760977297
 21
76.01191081038141
 31
0.0
  0
LINE
  5
1FE4
330
2
100
AcDbEntity
  8
0
100
AcDbLine
 10
272.4715760977299
 20
75.49229556811051
 30
0.0
 11
278.4715760977253
 21
75.49229556811051
 31
0.0
  0
LINE
  5
1FE5
330
2
100
AcDbEntity
  8
CENTER
  6
CENS
100
AcDbLine
 10
269.1715760977297
 20
79.74229556808459
 30
0.0
 11
288.7202775783264
 21
79.74229556808459
 31
0.0
  0
LINE
  5
1FE6
330
2
100
AcDbEntity
  8
0
100
AcDbLine
 10
284.9715760977299
 20
82.74229556808867
 30
0.0
 11
279.4628495622266
 21
82.74229556808867
 31
0.0
  0
LINE
  5
1FE7
330
2
100
AcDbEntity
  8
0
100
AcDbLine
 10
284.9715760977299
 20
79.7422955681105
 30
0.0
 11
279.4628495622266
 21
79.74229556808459
 31
0.0
  0
ARC
  5
1FE8
330
2
100
AcDbEntity
  8
HIDS
100
AcDbCircle
 10
276.4715760977253
 20
77.41386844335565
 30
0.0
 40
2.0
100
AcDbArc
 50
0.0
 51
45.0000000000069
  0
ARC
  5
1FE9
330
2
100
AcDbEntity
  8
HIDS
100
AcDbCircle
 10
278.4715760977253
 20
81.07072269284808
 30
0.0
 40
2.0
100
AcDbArc
 50
180.0
 51
225.0000000000069
  0
ARC
  5
1FEA
330
2
100
AcDbEntity
  8
0
100
AcDbCircle
 10
279.4715760977253
 20
75.79033125318446
 30
0.0
 40
1.0
100
AcDbArc
 50
180.0
 51
269.4999999999824
  0
LINE
  5
1FEB
330
2
100
AcDbEntity
  8
0
100
AcDbLine
 10
284.9715380200698
 20
74.74229573424835
 30
0.0
 11
279.4628495622266
 21
74.79036933012057
 31
0.0
  0
LINE
  5
1FEC
330
2
100
AcDbEntity
  8
HIDS
100
AcDbLine
 10
277.057362535352
 20
79.65650913047497
 30
0.0
 11
277.8857896600986
 21
78.82808200572876
 31
0.0
  0
ARC
  5
1FED
330
2
100
AcDbEntity
  8
0
100
AcDbCircle
 10
274.9715760980209
 20
79.67333335348925
 30
0.0
 40
5.0
100
AcDbArc
 50
180.0
 51
269.2042764472296
  0
LINE
  5
1FEE
330
2
100
AcDbEntity
  8
0
100
AcDbLine
 10
272.4715760977299
 20
83.9922955681105
 30
0.0
 11
272.1715760977297
 21
83.47268032584006
 31
0.0
  0
LINE
  5
1FEF
330
2
100
AcDbEntity
  8
0
100
AcDbLine
 10
272.4715760977299
 20
83.9922955681105
 30
0.0
 11
278.4715760977298
 21
83.9922955681105
 31
0.0
  0
LINE
  5
1FF0
330
2
100
AcDbEntity
  8
0
100
AcDbLine
 10
284.9715760977299
 20
94.21470004810576
 30
0.0
 11
279.4628495622266
 21
94.21470004810599
 31
0.0
  0
ARC
  5
1FF1
330
2
100
AcDbEntity
  8
0
100
AcDbCircle
 10
272.2715760977291
 20
88.24229556810164
 30
0.0
 40
0.2
100
AcDbArc
 50
0.0
 51
90.0
  0
ARC
  5
1FF2
330
2
100
AcDbEntity
  8
0
100
AcDbCircle
 10
270.6715760977297
 20
88.24229556810141
 30
0.0
 40
0.2
100
AcDbArc
 50
90.0
 51
179.9999999999218
  0
ARC
  5
1FF3
330
2
100
AcDbEntity
  8
0
100
AcDbCircle
 10
270.2715760977291
 20
87.94229556810146
 30
0.0
 40
0.2
100
AcDbArc
 50
270.0
 51
359.9999999999218
  0
LINE
  5
1FF4
330
2
100
AcDbEntity
  8
0
100
AcDbLine
 10
268.9715760977299
 20
87.74229556810118
 30
0.0
 11
270.2715760977291
 21
87.74229556810164
 31
0.0
  0
LINE
  5
1FF5
330
2
100
AcDbEntity
  8
0
100
AcDbLine
 10
268.9715760977299
 20
87.74229556810118
 30
0.0
 11
267.9715760977298
 21
88.31964583729094
 31
0.0
  0
LINE
  5
1FF6
330
2
100
AcDbEntity
  8
0
100
AcDbLine
 10
272.6715760977297
 20
87.74229556810164
 30
0.0
 11
275.9715760977298
 21
87.7422955681021
 31
0.0
  0
LINE
  5
1FF7
330
2
100
AcDbEntity
  8
0
100
AcDbLine
 10
272.4715760977299
 20
87.94229556810169
 30
0.0
 11
272.6715760977297
 21
87.74229556810164
 31
0.0
  0
LINE
  5
1FF8
330
2
100
AcDbEntity
  8
0
100
AcDbLine
 10
270.6715760977297
 20
88.44229556810146
 30
0.0
 11
272.2715760977291
 21
88.44229556810168
 31
0.0
  0
LINE
  5
1FF9
330
2
100
AcDbEntity
  8
0
100
AcDbLine
 10
276.4715760977244
 20
85.24229556810755
 30
0.0
 11
276.4715760977244
 21
83.9922955681105
 31
0.0
  0
LINE
  5
1FFA
330
2
100
AcDbEntity
  8
0
100
AcDbLine
 10
276.4715760977299
 20
85.24229556810254
 30
0.0
 11
275.9715760977298
 21
85.74229556810209
 31
0.0
  0
LINE
  5
1FFB
330
2
100
AcDbEntity
  8
0
100
AcDbLine
 10
284.9715760977299
 20
127.2698910880984
 30
0.0
 11
279.4628495622266
 21
127.2698910880982
 31
0.0
  0
ARC
  5
1FFC
330
2
100
AcDbEntity
  8
0
100
AcDbCircle
 10
272.2715760977291
 20
133.2422955681027
 30
0.0
 40
0.2
100
AcDbArc
 50
270.0
 51
0.0
  0
ARC
  5
1FFD
330
2
100
AcDbEntity
  8
0
100
AcDbCircle
 10
270.6715760977297
 20
133.242295568103
 30
0.0
 40
0.2
100
AcDbArc
 50
180.0000000000521
 51
270.0
  0
ARC
  5
1FFE
330
2
100
AcDbEntity
  8
0
100
AcDbCircle
 10
270.2715760977291
 20
133.5422955681027
 30
0.0
 40
0.2
100
AcDbArc
 50
359.9999999999218
 51
90.0
  0
LINE
  5
1FFF
330
2
100
AcDbEntity
  8
0
100
AcDbLine
 10
276.4715760977299
 20
136.2422955681018
 30
0.0
 11
275.9715760977244
 21
135.7422955680966
 31
0.0
  0
LINE
  5
2000
330
2
100
AcDbEntity
  8
0
100
AcDbLine
 10
268.9715760977299
 20
133.7422955681029
 30
0.0
 11
270.2715760977291
 21
133.7422955681029
 31
0.0
  0
LINE
  5
2001
330
2
100
AcDbEntity
  8
0
100
AcDbLine
 10
268.9715760977299
 20
133.7422955681029
 30
0.0
 11
267.9715760977298
 21
133.1649452989134
 31
0.0
  0
LINE
  5
2002
330
2
100
AcDbEntity
  8
0
100
AcDbLine
 10
272.6715760977297
 20
133.7422955681027
 30
0.0
 11
275.9715760977298
 21
133.7422955681023
 31
0.0
  0
LINE
  5
2003
330
2
100
AcDbEntity
  8
0
100
AcDbLine
 10
272.4715760977299
 20
133.5422955681027
 30
0.0
 11
272.6715760977297
 21
133.7422955681027
 31
0.0
  0
LINE
  5
2004
330
2
100
AcDbEntity
  8
0
100
AcDbLine
 10
270.6715760977297
 20
133.0422955681029
 30
0.0
 11
272.2715760977291
 21
133.0422955681027
 31
0.0
  0
LINE
  5
2005
330
2
100
AcDbEntity
  8
0
100
AcDbLine
 10
361.9715760980282
 20
88.67367311770825
 30
0.0
 11
361.9715760980282
 21
132.8109180184804
 31
0.0
  0
LINE
  5
2006
330
2
100
AcDbEntity
  8
0
100
AcDbLine
 10
350.901777104623
 20
86.35572966912546
 30
0.0
 11
360.0413750914333
 21
86.67489146367037
 31
0.0
  0
ARC
  5
2007
330
2
100
AcDbEntity
  8
0
100
AcDbCircle
 10
336.9715760980154
 20
79.67333335349016
 30
0.0
 40
5.0
100
AcDbArc
 50
270.7957235527183
 51
297.0504175270704
  0
LINE
  5
2008
330
2
100
AcDbEntity
  8
0
100
AcDbLine
 10
343.9715760980245
 20
80.7422955681055
 30
0.0
 11
348.9715760980245
 21
80.7422955681055
 31
0.0
  0
ARC
  5
2009
330
2
100
AcDbEntity
  8
0
100
AcDbCircle
 10
350.9715760980282
 20
84.35694801508757
 30
0.0
 40
2.0
100
AcDbArc
 50
92.00000000000365
 51
180.0
  0
ARC
  5
200A
330
2
100
AcDbEntity
  8
0
100
AcDbCircle
 10
359.9715760980282
 20
88.67367311770825
 30
0.0
 40
2.0
100
AcDbArc
 50
272.0000000000036
 51
0.0
  0
LINE
  5
200B
330
2
100
AcDbEntity
  8
0
100
AcDbLine
 10
350.901777104623
 20
135.1288614670623
 30
0.0
 11
360.0413750914333
 21
134.8096996725183
 31
0.0
  0
ARC
  5
200C
330
2
100
AcDbEntity
  8
0
100
AcDbCircle
 10
359.9715760980282
 20
132.8109180184804
 30
0.0
 40
2.0
100
AcDbArc
 50
0.0
 51
87.99999999999634
  0
LINE
  5
2018
330
2
100
AcDbEntity
  8
0
100
AcDbLine
 10
343.9715760980263
 20
141.7422955680936
 30
0.0
 11
284.9715760977299
 21
141.7422955680936
 31
0.0
  0
LINE
  5
2019
330
2
100
AcDbEntity
  8
0
100
AcDbLine
 10
343.9715760980263
 20
138.7422955681155
 30
0.0
 11
284.9715760977299
 21
138.7422955681155
 31
0.0
  0
LINE
  5
201A
330
2
100
AcDbEntity
  8
0
100
AcDbLine
 10
284.9715760977299
 20
146.7422955681018
 30
0.0
 11
343.9715760980263
 21
146.2274103684627
 31
0.0
  0
LINE
  5
201B
330
2
100
AcDbEntity
  8
0
100
AcDbLine
 10
337.0410138454692
 20
146.8107755993868
 30
0.0
 11
305.9715760980227
 21
147.2422955681002
 31
0.0
  0
LINE
  5
201D
330
2
100
AcDbEntity
  8
0
100
AcDbLine
 10
274.902138350568
 20
146.8107755993877
 30
0.0
 11
305.9715760980209
 21
147.2422955681002
 31
0.0
  0
LINE
  5
201E
330
2
100
AcDbEntity
  8
0
100
AcDbLine
 10
284.9715760977299
 20
141.7422955680936
 30
0.0
 11
279.4628495622266
 21
141.7422955681155
 31
0.0
  0
LINE
  5
201F
330
2
100
AcDbEntity
  8
0
100
AcDbLine
 10
272.4715760977299
 20
145.9922955680936
 30
0.0
 11
272.1715760977297
 21
145.4726803258227
 31
0.0
  0
LINE
  5
2020
330
2
100
AcDbEntity
  8
0
100
AcDbLine
 10
272.4715760977299
 20
145.9922955680936
 30
0.0
 11
278.4715760977253
 21
145.9922955680932
 31
0.0
  0
LINE
  5
2021
330
2
100
AcDbEntity
  8
CENTER
  6
CENS
100
AcDbLine
 10
269.1715760977297
 20
141.7422955681196
 30
0.0
 11
288.7202775783264
 21
141.7422955681196
 31
0.0
  0
ARC
  5
2022
330
2
100
AcDbEntity
  8
0
100
AcDbCircle
 10
279.4715760977253
 20
145.6942598830197
 30
0.0
 40
1.0
100
AcDbArc
 50
90.50000000001761
 51
180.0
  0
ARC
  5
2023
330
2
100
AcDbEntity
  8
HIDS
100
AcDbCircle
 10
276.4715760977244
 20
144.0707226928485
 30
0.0
 40
2.0
100
AcDbArc
 50
314.999999999993
 51
0.0
  0
ARC
  5
2024
330
2
100
AcDbEntity
  8
0
100
AcDbCircle
 10
279.4715760977244
 20
145.742295568102
 30
0.0
 40
1.0
100
AcDbArc
 50
180.0
 51
180.0
  0
LINE
  5
2025
330
2
100
AcDbEntity
  8
0
100
AcDbLine
 10
284.9715380200698
 20
146.7422954019558
 30
0.0
 11
279.4628495622266
 21
146.694221806084
 31
0.0
  0
LINE
  5
2026
330
2
100
AcDbEntity
  8
HIDS
100
AcDbLine
 10
277.057362535352
 20
141.8280820057292
 30
0.0
 11
277.8857896600977
 21
142.6565091304754
 31
0.0
  0
ARC
  5
2027
330
2
100
AcDbEntity
  8
0
100
AcDbCircle
 10
274.9715760980209
 20
141.8112577827149
 30
0.0
 40
5.0
100
AcDbArc
 50
90.79572355271826
 51
180.0
  0
LINE
  5
2028
330
2
100
AcDbEntity
  8
HIDS
100
AcDbLine
 10
276.4715760977244
 20
140.4138684433561
 30
0.0
 11
276.4715760977253
 21
137.4922955680936
 31
0.0
  0
LINE
  5
2029
330
2
100
AcDbEntity
  8
0
100
AcDbLine
 10
272.4715760977299
 20
137.4922955680936
 30
0.0
 11
272.1715760977297
 21
138.0119108103641
 31
0.0
  0
LINE
  5
202A
330
2
100
AcDbEntity
  8
0
100
AcDbLine
 10
272.4715760977299
 20
137.4922955680936
 30
0.0
 11
278.4715760977298
 21
137.4922955680936
 31
0.0
  0
LINE
  5
202B
330
2
100
AcDbEntity
  8
0
100
AcDbLine
 10
284.9715760977299
 20
138.7422955681155
 30
0.0
 11
279.4628495622266
 21
138.7422955681155
 31
0.0
  0
LINE
  5
202C
330
2
100
AcDbEntity
  8
0
100
AcDbLine
 10
272.1715760977297
 20
138.0119108103641
 30
0.0
 11
272.1715760977297
 21
145.4726803258227
 31
0.0
  0
LINE
  5
202D
330
2
100
AcDbEntity
  8
0
100
AcDbLine
 10
272.4715760977299
 20
137.4922955680936
 30
0.0
 11
272.4715760977299
 21
145.9922955680936
 31
0.0
  0
LINE
  5
202E
330
2
100
AcDbEntity
  8
0
100
AcDbLine
 10
277.1715760977297
 20
137.4922955680936
 30
0.0
 11
277.1715760977297
 21
145.9922955680936
 31
0.0
  0
ARC
  5
202F
330
2
100
AcDbEntity
  8
HIDS
100
AcDbCircle
 10
278.4715760977244
 20
140.4138684433561
 30
0.0
 40
2.0
100
AcDbArc
 50
134.999999999993
 51
180.0
  0
ARC
  5
2031
330
2
100
AcDbEntity
  8
0
100
AcDbCircle
 10
336.9715760980154
 20
141.811257782714
 30
0.0
 40
5.0
100
AcDbArc
 50
62.94958247298797
 51
89.20427644728171
  0
LINE
  5
2032
330
2
100
AcDbEntity
  8
0
100
AcDbLine
 10
343.9715760980245
 20
140.7422955681052
 30
0.0
 11
348.9715760980245
 21
140.7422955681052
 31
0.0
  0
LINE
  5
2034
330
2
100
AcDbEntity
  8
CENTER
100
AcDbLine
 10
568.4227715541709
 20
164.742295568103
 30
0.0
 11
568.4227715541709
 21
56.74229556810309
 31
0.0
  0
ARC
  5
2035
330
2
100
AcDbEntity
  8
0
100
AcDbCircle
 10
503.4391751092642
 20
130.3688152480814
 30
0.0
 40
30.0
100
AcDbArc
 50
354.0709145121496
 51
13.84182431842025
  0
LINE
  5
2036
330
2
100
AcDbEntity
  8
CENTER
100
AcDbLine
 10
537.3100731819648
 20
148.3549939403116
 30
0.0
 11
537.3100731819648
 21
135.3549939403116
 31
0.0
  0
ARC
  5
203B
330
2
100
AcDbEntity
  8
0
100
AcDbCircle
 10
692.4227715541709
 20
110.7422955680996
 30
0.0
 40
160.0
100
AcDbArc
 50
174.0709145121497
 51
185.9290854878502
  0
ARC
  5
203C
330
2
100
AcDbEntity
  8
0
100
AcDbCircle
 10
548.7962518741896
 20
45.75869912319302
 30
0.0
 40
30.0
100
AcDbArc
 50
84.07091451212361
 51
103.841824318421
  0
ARC
  5
203D
330
2
100
AcDbEntity
  8
0
100
AcDbCircle
 10
537.4227715541709
 20
82.74229556809945
 30
0.0
 40
5.0
100
AcDbArc
 50
166.1581756815797
 51
180.0
  0
LINE
  5
203E
330
2
100
AcDbEntity
  8
CENTER
100
AcDbLine
 10
537.3100731819648
 20
86.12959719589657
 30
0.0
 11
537.3100731819648
 21
73.12959719589656
 31
0.0
  0
LINE
  5
203F
330
2
100
AcDbEntity
  8
0
100
AcDbLine
 10
532.4227715541709
 20
82.74229556809945
 30
0.0
 11
532.4227715541709
 21
79.74229556807808
 31
0.0
  0
ARC
  5
2040
330
2
100
AcDbEntity
  8
0
100
AcDbCircle
 10
537.4227715541709
 20
79.74229556807808
 30
0.0
 40
5.0
100
AcDbArc
 50
180.0
 51
270.0
  0
LINE
  5
2041
330
2
100
AcDbEntity
  8
0
100
AcDbLine
 10
540.4227715541709
 20
74.74229556809945
 30
0.0
 11
537.4227715541709
 21
74.74229556809945
 31
0.0
  0
ARC
  5
2042
330
2
100
AcDbEntity
  8
0
100
AcDbCircle
 10
540.4227715541709
 20
79.74229556809945
 30
0.0
 40
5.0
100
AcDbArc
 50
270.0
 51
283.841824318421
  0
LINE
  5
2043
330
2
100
AcDbEntity
  8
CENTER
100
AcDbLine
 10
543.8100731819648
 20
79.62959719589656
 30
0.0
 11
530.8100731819648
 21
79.62959719589656
 31
0.0
  0
CIRCLE
  5
2044
330
2
100
AcDbEntity
  8
HOJO
100
AcDbCircle
 10
537.310073181963
 20
79.62959719589656
 30
0.0
 40
2.5
  0
CIRCLE
  5
2045
330
2
100
AcDbEntity
  8
0
100
AcDbCircle
 10
537.3100731819648
 20
79.62959719589611
 30
0.0
 40
2.1
  0
ARC
  5
2046
330
2
100
AcDbEntity
  8
0
100
AcDbCircle
 10
503.4391751092642
 20
91.11577588811787
 30
0.0
 40
30.0
100
AcDbArc
 50
346.1581756815797
 51
5.92908548785031
  0
LINE
  5
2047
330
2
100
AcDbEntity
  8
0
100
AcDbLine
 10
568.6659454558829
 20
83.39229556809295
 30
0.0
 11
568.6659454558829
 21
81.74229556809445
 31
0.0
  0
LINE
  5
2048
330
2
100
AcDbEntity
  8
0
100
AcDbLine
 10
568.7722181933821
 20
83.28604556809313
 30
0.0
 11
569.7545745240639
 21
81.74229556809445
 31
0.0
  0
ARC
  5
2049
330
2
100
AcDbEntity
  8
0
100
AcDbCircle
 10
569.5159454558814
 20
83.39229556809295
 30
0.0
 40
0.8499999999992269
100
AcDbArc
 50
307.5189678668015
 51
90.0
  0
LINE
  5
204A
330
2
100
AcDbEntity
  8
0
100
AcDbLine
 10
567.4409681933838
 20
84.24229556809217
 30
0.0
 11
566.1909681933847
 21
81.74229556809445
 31
0.0
  0
LINE
  5
204B
330
2
100
AcDbEntity
  8
0
100
AcDbLine
 10
567.9159681933832
 20
82.117295568094
 30
0.0
 11
567.9159681933832
 21
81.74229556809445
 31
0.0
  0
LINE
  5
204C
330
2
100
AcDbEntity
  8
0
100
AcDbLine
 10
567.2784685812993
 20
82.117295568094
 30
0.0
 11
567.9159681933832
 21
82.117295568094
 31
0.0
  0
LINE
  5
204D
330
2
100
AcDbEntity
  8
0
100
AcDbLine
 10
567.2784685812993
 20
82.117295568094
 30
0.0
 11
567.0909685812993
 21
81.74229556809445
 31
0.0
  0
LINE
  5
204E
330
2
100
AcDbEntity
  8
0
100
AcDbLine
 10
567.9159681933832
 20
81.74229556809445
 30
0.0
 11
568.6659454558829
 21
81.74229556809445
 31
0.0
  0
LINE
  5
204F
330
2
100
AcDbEntity
  8
0
100
AcDbLine
 10
569.7545745240639
 20
81.74229556809445
 30
0.0
 11
570.6545749119776
 21
81.74229556809445
 31
0.0
  0
LINE
  5
2050
330
2
100
AcDbEntity
  8
0
100
AcDbLine
 10
570.0336158870249
 20
82.71811656758989
 30
0.0
 11
570.6545749119776
 21
81.74229556809445
 31
0.0
  0
LINE
  5
2051
330
2
100
AcDbEntity
  8
0
100
AcDbLine
 10
566.1909681933847
 20
81.74229556809445
 30
0.0
 11
567.0909685812993
 21
81.74229556809445
 31
0.0
  0
LINE
  5
2052
330
2
100
AcDbEntity
  8
0
100
AcDbLine
 10
567.4409681933838
 20
84.24229556809217
 30
0.0
 11
569.5159454558814
 21
84.24229556809217
 31
0.0
  0
ARC
  5
2053
330
2
100
AcDbEntity
  8
0
100
AcDbCircle
 10
569.4628431933814
 20
83.33917056809303
 30
0.0
 40
0.0531249999999517
100
AcDbArc
 50
270.0
 51
90.0
  0
LINE
  5
2054
330
2
100
AcDbEntity
  8
0
100
AcDbLine
 10
568.7722181933821
 20
83.28604556809313
 30
0.0
 11
569.4628431933814
 21
83.28604556809313
 31
0.0
  0
LINE
  5
2055
330
2
100
AcDbEntity
  8
0
100
AcDbLine
 10
568.6659454558829
 20
83.39229556809295
 30
0.0
 11
569.4628431933814
 21
83.39229556809295
 31
0.0
  0
LINE
  5
2056
330
2
100
AcDbEntity
  8
0
100
AcDbLine
 10
567.9159681933832
 20
83.39229479226281
 30
0.0
 11
567.6784685812989
 21
82.91729556809327
 31
0.0
  0
LINE
  5
2057
330
2
100
AcDbEntity
  8
0
100
AcDbLine
 10
567.9159681933832
 20
83.39229479226281
 30
0.0
 11
567.9159681933832
 21
82.91729556809327
 31
0.0
  0
LINE
  5
2058
330
2
100
AcDbEntity
  8
0
100
AcDbLine
 10
567.6784685812989
 20
82.91729556809327
 30
0.0
 11
567.9159681933832
 21
82.91729556809327
 31
0.0
  0
ARC
  5
205D
330
2
100
AcDbEntity
  8
0
100
AcDbCircle
 10
548.7962518741896
 20
175.7258920130061
 30
0.0
 40
30.0
100
AcDbArc
 50
256.1581756815789
 51
275.9290854878763
  0
LINE
  5
205E
330
2
100
AcDbEntity
  8
0
100
AcDbLine
 10
540.4227715541709
 20
146.7422955680996
 30
0.0
 11
537.4227715541709
 21
146.7422955680996
 31
0.0
  0
ARC
  5
205F
330
2
100
AcDbEntity
  8
0
100
AcDbCircle
 10
540.4227715541709
 20
141.7422955680996
 30
0.0
 40
5.0
100
AcDbArc
 50
76.15817568157897
 51
90.0
  0
ARC
  5
2060
330
2
100
AcDbEntity
  8
0
100
AcDbCircle
 10
537.4227715541709
 20
141.742295568078
 30
0.0
 40
5.0
100
AcDbArc
 50
90.0
 51
180.0
  0
LINE
  5
2061
330
2
100
AcDbEntity
  8
CENTER
100
AcDbLine
 10
543.8100731819648
 20
141.8549939403116
 30
0.0
 11
530.8100731819648
 21
141.8549939403116
 31
0.0
  0
ARC
  5
2062
330
2
100
AcDbEntity
  8
0
100
AcDbCircle
 10
537.4227715541709
 20
138.7422955680999
 30
0.0
 40
5.0
100
AcDbArc
 50
180.0
 51
193.8418243184202
  0
LINE
  5
2063
330
2
100
AcDbEntity
  8
0
100
AcDbLine
 10
532.4227715541709
 20
138.7422955680999
 30
0.0
 11
532.4227715541709
 21
141.742295568078
 31
0.0
  0
CIRCLE
  5
2064
330
2
100
AcDbEntity
  8
HOJO
100
AcDbCircle
 10
537.3100731819648
 20
141.8549939403114
 30
0.0
 40
2.5
  0
CIRCLE
  5
2065
330
2
100
AcDbEntity
  8
0
100
AcDbCircle
 10
537.3100731819648
 20
141.8549939403125
 30
0.0
 40
2.1
  0
LINE
  5
206E
330
2
100
AcDbEntity
  8
CENTER
100
AcDbLine
 10
599.5354699263797
 20
148.3549939403123
 30
0.0
 11
599.5354699263797
 21
135.3549939403123
 31
0.0
  0
LINE
  5
206F
330
2
100
AcDbEntity
  8
0
100
AcDbLine
 10
618.9227715541818
 20
84.24229556810649
 30
0.0
 11
618.9227715541754
 21
137.2422955680989
 31
0.0
  0
LINE
  5
2070
330
2
100
AcDbEntity
  8
0
100
AcDbLine
 10
604.4227715541709
 20
141.7422955680773
 30
0.0
 11
604.4227715541709
 21
79.74229556807808
 31
0.0
  0
LINE
  5
2072
330
2
100
AcDbEntity
  8
0
100
AcDbLine
 10
628.4227715541718
 20
145.2422955681026
 30
0.0
 11
628.4227715541718
 21
76.24229556810286
 31
0.0
  0
ARC
  5
2074
330
2
100
AcDbEntity
  8
0
100
AcDbCircle
 10
617.9227715541754
 20
80.24229556810718
 30
0.0
 40
3.0
100
AcDbArc
 50
53.13010235412992
 51
90.0
  0
ARC
  5
2075
330
2
100
AcDbEntity
  8
0
100
AcDbCircle
 10
620.9227715541755
 20
84.24229556810672
 30
0.0
 40
2.0
100
AcDbArc
 50
180.0
 51
270.0
  0
ARC
  5
2076
330
2
100
AcDbEntity
  8
0
100
AcDbCircle
 10
615.9227715541818
 20
85.24229556810309
 30
0.0
 40
3.0
100
AcDbArc
 50
0.0
 51
90.0
  0
ARC
  5
2077
330
2
100
AcDbEntity
  8
0
100
AcDbCircle
 10
588.0492912341522
 20
45.75869912319302
 30
0.0
 40
30.0
100
AcDbArc
 50
76.15817568157897
 51
95.92908548787638
  0
ARC
  5
2078
330
2
100
AcDbEntity
  8
0
100
AcDbCircle
 10
607.4227715541709
 20
80.24229556810741
 30
0.0
 40
3.0
100
AcDbArc
 50
90.0
 51
180.0
  0
LINE
  5
2079
330
2
100
AcDbEntity
  8
CENTER
100
AcDbLine
 10
599.5354699263815
 20
86.12959719589724
 30
0.0
 11
599.5354699263815
 21
73.12959719589724
 31
0.0
  0
ARC
  5
207A
330
2
100
AcDbEntity
  8
0
100
AcDbCircle
 10
599.4227715541709
 20
79.74229556807808
 30
0.0
 40
5.0
100
AcDbArc
 50
270.0
 51
0.0
  0
ARC
  5
207B
330
2
100
AcDbEntity
  8
0
100
AcDbCircle
 10
596.4227715541709
 20
79.74229556809945
 30
0.0
 40
5.0
100
AcDbArc
 50
256.1581756815789
 51
270.0
  0
LINE
  5
207C
330
2
100
AcDbEntity
  8
0
100
AcDbLine
 10
596.4227715541709
 20
74.74229556809945
 30
0.0
 11
599.4227715541709
 21
74.74229556809945
 31
0.0
  0
LINE
  5
207D
330
2
100
AcDbEntity
  8
CENTER
100
AcDbLine
 10
606.0354699263815
 20
79.62959719589725
 30
0.0
 11
593.0354699263815
 21
79.62959719589725
 31
0.0
  0
CIRCLE
  5
207E
330
2
100
AcDbEntity
  8
HOJO
100
AcDbCircle
 10
599.5354699263815
 20
79.62959719589702
 30
0.0
 40
2.5
  0
CIRCLE
  5
207F
330
2
100
AcDbEntity
  8
0
100
AcDbCircle
 10
599.5354699263806
 20
79.62959719589611
 30
0.0
 40
2.1
  0
LINE
  5
2080
330
2
100
AcDbEntity
  8
0
100
AcDbLine
 10
617.9227715541754
 20
83.24229556810719
 30
0.0
 11
607.4227715541709
 21
83.2422955681074
 31
0.0
  0
LINE
  5
2081
330
2
100
AcDbEntity
  8
0
100
AcDbLine
 10
607.4227715541745
 20
88.24229556810308
 30
0.0
 11
615.9227715541818
 21
88.24229556810308
 31
0.0
  0
ARC
  5
2082
330
2
100
AcDbEntity
  8
0
100
AcDbCircle
 10
607.4227715541745
 20
85.24229556810309
 30
0.0
 40
3.0
100
AcDbArc
 50
90.0
 51
180.0
  0
LINE
  5
2083
330
2
100
AcDbEntity
  8
0
100
AcDbLine
 10
625.4227715541709
 20
82.24229556810673
 30
0.0
 11
620.9227715541755
 21
82.24229556810673
 31
0.0
  0
ARC
  5
2084
330
2
100
AcDbEntity
  8
0
100
AcDbCircle
 10
625.4227715541709
 20
79.24229556810672
 30
0.0
 40
3.0
100
AcDbArc
 50
0.0
 51
90.0
  0
ARC
  5
2085
330
2
100
AcDbEntity
  8
0
100
AcDbCircle
 10
630.4227715541718
 20
76.24229556810286
 30
0.0
 40
2.0
100
AcDbArc
 50
180.0
 51
270.0
  0
LINE
  5
2086
330
2
100
AcDbEntity
  8
0
100
AcDbLine
 10
630.4227715541718
 20
74.24229556810286
 30
0.0
 11
640.4227715541718
 21
74.24229556810286
 31
0.0
  0
ARC
  5
2087
330
2
100
AcDbEntity
  8
0
100
AcDbCircle
 10
630.4227715541718
 20
76.74229556810286
 30
0.0
 40
2.0
100
AcDbArc
 50
180.0
 51
270.0
  0
LINE
  5
2088
330
2
100
AcDbEntity
  8
0
100
AcDbLine
 10
630.4227715541718
 20
74.74229556810286
 30
0.0
 11
640.4227715541718
 21
74.74229556810286
 31
0.0
  0
ARC
  5
2089
330
2
100
AcDbEntity
  8
0
100
AcDbCircle
 10
615.9227715541781
 20
105.2422955681028
 30
0.0
 40
3.0
100
AcDbArc
 50
0.0
 51
90.0
  0
ARC
  5
208A
330
2
100
AcDbEntity
  8
0
100
AcDbCircle
 10
615.9227715541781
 20
116.242295568103
 30
0.0
 40
3.0
100
AcDbArc
 50
270.0
 51
0.0
  0
ARC
  5
208B
330
2
100
AcDbEntity
  8
0
100
AcDbCircle
 10
615.9227715541764
 20
136.2422955681031
 30
0.0
 40
3.0
100
AcDbArc
 50
270.0
 51
0.0
  0
LINE
  5
208C
330
2
100
AcDbEntity
  8
0
100
AcDbLine
 10
607.4227715541709
 20
108.2422955681026
 30
0.0
 11
615.9227715541781
 21
108.2422955681028
 31
0.0
  0
ARC
  5
208D
330
2
100
AcDbEntity
  8
0
100
AcDbCircle
 10
607.4227715541709
 20
105.2422955681026
 30
0.0
 40
3.0
100
AcDbArc
 50
90.0
 51
180.0
  0
ARC
  5
208E
330
2
100
AcDbEntity
  8
0
100
AcDbCircle
 10
607.4227715541709
 20
116.242295568103
 30
0.0
 40
3.0
100
AcDbArc
 50
180.0
 51
270.0
  0
LINE
  5
208F
330
2
100
AcDbEntity
  8
0
100
AcDbLine
 10
607.4227715541709
 20
113.2422955681031
 30
0.0
 11
615.9227715541781
 21
113.2422955681031
 31
0.0
  0
LINE
  5
2090
330
2
100
AcDbEntity
  8
0
100
AcDbLine
 10
607.4227715541745
 20
133.242295568103
 30
0.0
 11
615.9227715541764
 21
133.242295568103
 31
0.0
  0
ARC
  5
2091
330
2
100
AcDbEntity
  8
0
100
AcDbCircle
 10
607.4227715541745
 20
136.2422955681031
 30
0.0
 40
3.0
100
AcDbArc
 50
180.0
 51
270.0
  0
ARC
  5
20A8
330
2
100
AcDbEntity
  8
0
100
AcDbCircle
 10
617.9227715541754
 20
141.2422955680989
 30
0.0
 40
3.0
100
AcDbArc
 50
270.0
 51
306.86989764587
  0
ARC
  5
20A9
330
2
100
AcDbEntity
  8
0
100
AcDbCircle
 10
620.9227715541755
 20
137.2422955680994
 30
0.0
 40
2.0
100
AcDbArc
 50
90.0
 51
180.0
  0
ARC
  5
20AA
330
2
100
AcDbEntity
  8
0
100
AcDbCircle
 10
588.0492912341522
 20
175.7258920130061
 30
0.0
 40
30.0
100
AcDbArc
 50
264.0709145121236
 51
283.841824318421
  0
ARC
  5
20AB
330
2
100
AcDbEntity
  8
0
100
AcDbCircle
 10
599.4227715541709
 20
141.7422955680773
 30
0.0
 40
5.0
100
AcDbArc
 50
0.0
 51
90.0
  0
ARC
  5
20AC
330
2
100
AcDbEntity
  8
0
100
AcDbCircle
 10
596.4227715541709
 20
141.7422955680996
 30
0.0
 40
5.0
100
AcDbArc
 50
90.0
 51
103.841824318421
  0
LINE
  5
20AD
330
2
100
AcDbEntity
  8
0
100
AcDbLine
 10
596.4227715541709
 20
146.7422955680996
 30
0.0
 11
599.4227715541709
 21
146.7422955680996
 31
0.0
  0
LINE
  5
20AE
330
2
100
AcDbEntity
  8
CENTER
100
AcDbLine
 10
606.0354699263797
 20
141.8549939403123
 30
0.0
 11
593.0354699263797
 21
141.8549939403123
 31
0.0
  0
LINE
  5
20AF
330
2
100
AcDbEntity
  8
0
100
AcDbLine
 10
617.9227715541754
 20
138.2422955680989
 30
0.0
 11
607.4227715541709
 21
138.2422955680987
 31
0.0
  0
ARC
  5
20B0
330
2
100
AcDbEntity
  8
0
100
AcDbCircle
 10
607.4227715541709
 20
141.2422955680987
 30
0.0
 40
3.0
100
AcDbArc
 50
180.0
 51
270.0
  0
CIRCLE
  5
20B1
330
2
100
AcDbEntity
  8
HOJO
100
AcDbCircle
 10
599.5354699263815
 20
141.8549939403132
 30
0.0
 40
2.5
  0
CIRCLE
  5
20B2
330
2
100
AcDbEntity
  8
0
100
AcDbCircle
 10
599.5354699263806
 20
141.8549939403123
 30
0.0
 40
2.1
  0
ARC
  5
20B3
330
2
100
AcDbEntity
  8
0
100
AcDbCircle
 10
630.4227715541718
 20
145.2422955681026
 30
0.0
 40
2.0
100
AcDbArc
 50
90.0
 51
180.0
  0
LINE
  5
20B4
330
2
100
AcDbEntity
  8
0
100
AcDbLine
 10
640.4227715541718
 20
147.2422955681026
 30
0.0
 11
630.4227715541718
 21
147.2422955681026
 31
0.0
  0
ARC
  5
20B5
330
2
100
AcDbEntity
  8
0
100
AcDbCircle
 10
630.4227715541718
 20
144.7422955681026
 30
0.0
 40
2.0
100
AcDbArc
 50
90.0
 51
180.0
  0
LINE
  5
20B6
330
2
100
AcDbEntity
  8
0
100
AcDbLine
 10
640.4227715541718
 20
146.7422955681026
 30
0.0
 11
630.4227715541718
 21
146.7422955681026
 31
0.0
  0
LINE
  5
20B7
330
2
100
AcDbEntity
  8
0
100
AcDbLine
 10
625.4227715541709
 20
139.2422955680994
 30
0.0
 11
620.9227715541755
 21
139.2422955680994
 31
0.0
  0
ARC
  5
20B8
330
2
100
AcDbEntity
  8
0
100
AcDbCircle
 10
625.4227715541709
 20
142.2422955680994
 30
0.0
 40
3.0
100
AcDbArc
 50
270.0
 51
0.0
  0
LINE
  5
20DD
330
2
100
AcDbEntity
  8
0
100
AcDbLine
 10
532.9376567538275
 20
358.3552626908647
 30
0.0
 11
603.901150578121
 21
358.3552626908638
 31
0.0
  0
LINE
  5
20DE
330
2
100
AcDbEntity
  8
0
100
AcDbLine
 10
538.4227715541711
 20
353.3552626908647
 30
0.0
 11
598.4227715541711
 21
353.3552626908647
 31
0.0
  0
LINE
  5
20DF
330
2
100
AcDbEntity
  8
0
100
AcDbLine
 10
546.3541491037832
 20
340.3552626908652
 30
0.0
 11
590.4913940045554
 21
340.355262690865
 31
0.0
  0
LINE
  5
20E0
330
2
100
AcDbEntity
  8
0
100
AcDbLine
 10
538.4227715541711
 20
358.3552626908647
 30
0.0
 11
538.4227715541711
 21
353.3552626908647
 31
0.0
  0
ARC
  5
20E1
330
2
100
AcDbEntity
  8
0
100
AcDbCircle
 10
542.0374240011625
 20
351.355262690865
 30
0.0
 40
2.0
100
AcDbArc
 50
2.000000000003498
 51
90.0
  0
ARC
  5
20E2
330
2
100
AcDbEntity
  8
0
100
AcDbCircle
 10
546.3541491037832
 20
342.355262690865
 30
0.0
 40
2.0
100
AcDbArc
 50
182.0000000000034
 51
270.0
  0
LINE
  5
20E3
330
2
100
AcDbEntity
  8
0
100
AcDbLine
 10
544.0362056552004
 20
351.4250616842699
 30
0.0
 11
544.3553674497453
 21
342.2854636974601
 31
0.0
  0
LINE
  5
20EE
330
2
100
AcDbEntity
  8
0
100
AcDbLine
 10
598.4227715541711
 20
358.3552626908647
 30
0.0
 11
598.4227715541711
 21
353.3552626908647
 31
0.0
  0
ARC
  5
20EF
330
2
100
AcDbEntity
  8
0
100
AcDbCircle
 10
594.8081191071761
 20
351.355262690865
 30
0.0
 40
2.0
100
AcDbArc
 50
90.0
 51
177.9999999999965
  0
ARC
  5
20F0
330
2
100
AcDbEntity
  8
0
100
AcDbCircle
 10
590.4913940045554
 20
342.355262690865
 30
0.0
 40
2.0
100
AcDbArc
 50
270.0
 51
357.9999999999965
  0
LINE
  5
20F1
330
2
100
AcDbEntity
  8
0
100
AcDbLine
 10
592.8093374531382
 20
351.4250616842699
 30
0.0
 11
592.4901756585933
 21
342.2854636974601
 31
0.0
  0
ARC
  5
20F2
330
2
100
AcDbEntity
  8
0
100
AcDbCircle
 10
630.371085296014
 20
362.3552626908649
 30
0.0
 40
2.0
100
AcDbArc
 50
181.5000000000157
 51
270.0
  0
LINE
  5
20F3
330
2
100
AcDbEntity
  8
0
100
AcDbLine
 10
630.371085296014
 20
360.3552626908649
 30
0.0
 11
640.4227715498019
 21
360.3552626908649
 31
0.0
  0
LINE
  5
20F4
330
2
100
AcDbEntity
  8
CENTER
100
AcDbLine
 10
568.4227715541716
 20
444.3552626911584
 30
0.0
 11
568.4227715541716
 21
298.3552626908638
 31
0.0
  0
LINE
  5
20F6
330
2
100
AcDbEntity
  8
0
100
AcDbLine
 10
595.172771554162
 20
425.8552626911638
 30
0.0
 11
541.6727715541793
 21
425.8552626911638
 31
0.0
  0
LINE
  5
20F7
330
2
100
AcDbEntity
  8
0
100
AcDbLine
 10
603.672771554162
 20
423.8552626911635
 30
0.0
 11
533.1727715541802
 21
423.855262691164
 31
0.0
  0
LINE
  5
20F8
330
2
100
AcDbEntity
  8
0
100
AcDbLine
 10
604.0495073305615
 20
417.3552626911587
 30
0.0
 11
532.4227715541711
 21
417.3552626911587
 31
0.0
  0
LINE
  5
20F9
330
2
100
AcDbEntity
  8
0
100
AcDbLine
 10
593.4227715541656
 20
426.3552626911646
 30
0.0
 11
543.4227715541712
 21
426.3552626911589
 31
0.0
  0
LINE
  5
20FA
330
2
100
AcDbEntity
  8
0
100
AcDbLine
 10
590.845421284983
 20
434.355262691159
 30
0.0
 11
546.0001218233584
 21
434.3552626911578
 31
0.0
  0
LINE
  5
20FB
330
2
100
AcDbEntity
  8
0
100
AcDbLine
 10
545.62277155417
 20
431.8552626911596
 30
0.0
 11
591.2227715541713
 21
431.8552626911078
 31
0.0
  0
LINE
  5
20FC
330
2
100
AcDbEntity
  8
0
100
AcDbLine
 10
545.62277155417
 20
429.8552626911594
 30
0.0
 11
591.2227715541713
 21
429.8552626911592
 31
0.0
  0
LINE
  5
20FD
330
2
100
AcDbEntity
  8
0
100
AcDbLine
 10
551.8951760341861
 20
416.8552626908647
 30
0.0
 11
551.8951760341861
 21
359.8552246139291
 31
0.0
  0
LINE
  5
20FE
330
2
100
AcDbEntity
  8
0
100
AcDbLine
 10
537.4227715541711
 20
416.8552626908647
 30
0.0
 11
537.4227715541711
 21
359.8552246139291
 31
0.0
  0
LINE
  5
20FF
330
2
100
AcDbEntity
  8
0
100
AcDbLine
 10
540.4227715541711
 20
416.8552626908647
 30
0.0
 11
540.4227715541711
 21
359.8552246139291
 31
0.0
  0
LINE
  5
2100
330
2
100
AcDbEntity
  8
0
100
AcDbLine
 10
532.4227715541711
 20
417.3552626911597
 30
0.0
 11
532.9376567538275
 21
358.3552626908647
 31
0.0
  0
LINE
  5
2101
330
2
100
AcDbEntity
  8
HIDS
100
AcDbLine
 10
541.6727715541793
 20
425.8552626911638
 30
0.0
 11
538.7511986789169
 21
425.8552626911638
 31
0.0
  0
LINE
  5
2102
330
2
100
AcDbEntity
  8
0
100
AcDbLine
 10
541.1531563119089
 20
430.1552626911593
 30
0.0
 11
533.6923867964507
 21
430.1552626911593
 31
0.0
  0
LINE
  5
2103
330
2
100
AcDbEntity
  8
0
100
AcDbLine
 10
533.1727715541793
 20
429.8552626911592
 30
0.0
 11
533.6923867964507
 21
430.1552626911593
 31
0.0
  0
LINE
  5
2104
330
2
100
AcDbEntity
  8
0
100
AcDbLine
 10
541.6727715541793
 20
429.8552626911592
 30
0.0
 11
541.1531563119089
 21
430.1552626911593
 31
0.0
  0
LINE
  5
2105
330
2
100
AcDbEntity
  8
0
100
AcDbLine
 10
541.6727715541793
 20
429.8552626911592
 30
0.0
 11
533.1727715541793
 21
429.8552626911592
 31
0.0
  0
LINE
  5
2106
330
2
100
AcDbEntity
  8
0
100
AcDbLine
 10
541.6727715541793
 20
425.1552626911593
 30
0.0
 11
533.1727715541793
 21
425.1552626911593
 31
0.0
  0
LINE
  5
2107
330
2
100
AcDbEntity
  8
0
100
AcDbLine
 10
541.6727715541793
 20
429.8552626911592
 30
0.0
 11
541.6727715541793
 21
423.8552626911594
 31
0.0
  0
LINE
  5
2108
330
2
100
AcDbEntity
  8
0
100
AcDbLine
 10
533.1727715541793
 20
429.8552626911592
 30
0.0
 11
533.1727715541802
 21
423.855262691164
 31
0.0
  0
ARC
  5
2109
330
2
100
AcDbEntity
  8
HIDS
100
AcDbCircle
 10
535.0943444294244
 20
425.8552626911638
 30
0.0
 40
2.0
100
AcDbArc
 50
270.0
 51
314.999999999993
  0
ARC
  5
210A
330
2
100
AcDbEntity
  8
HIDS
100
AcDbCircle
 10
538.7511986789169
 20
423.8552626911637
 30
0.0
 40
2.0
100
AcDbArc
 50
90.0
 51
134.999999999993
  0
ARC
  5
210B
330
2
100
AcDbEntity
  8
0
100
AcDbCircle
 10
533.4708074054052
 20
422.855262691164
 30
0.0
 40
1.0
100
AcDbArc
 50
90.0
 51
179.5000000000084
  0
LINE
  5
210C
330
2
100
AcDbEntity
  8
HIDS
100
AcDbLine
 10
537.3369851165436
 20
425.2694762535369
 30
0.0
 11
536.5085579917978
 21
424.4410491287906
 31
0.0
  0
ARC
  5
210D
330
2
100
AcDbEntity
  8
0
100
AcDbCircle
 10
545.9227715541702
 20
430.0552626911595
 30
0.0
 40
0.2
100
AcDbArc
 50
270.0
 51
0.0
  0
ARC
  5
210E
330
2
100
AcDbEntity
  8
0
100
AcDbCircle
 10
545.9227715541702
 20
431.6552626911591
 30
0.0
 40
0.2
100
AcDbArc
 50
0.0
 51
89.99999999994789
  0
ARC
  5
210F
330
2
100
AcDbEntity
  8
0
100
AcDbCircle
 10
545.62277155417
 20
432.0552626911594
 30
0.0
 40
0.2
100
AcDbArc
 50
180.0
 51
269.9999999999478
  0
LINE
  5
2110
330
2
100
AcDbEntity
  8
0
100
AcDbLine
 10
545.4227715541693
 20
433.3552626911594
 30
0.0
 11
545.4227715541702
 21
432.0552626911594
 31
0.0
  0
LINE
  5
2111
330
2
100
AcDbEntity
  8
0
100
AcDbLine
 10
545.4227715541693
 20
433.3552626911592
 30
0.0
 11
546.0001218233593
 21
434.3552626911594
 31
0.0
  0
LINE
  5
2112
330
2
100
AcDbEntity
  8
0
100
AcDbLine
 10
545.4227715541702
 20
429.6552626911593
 30
0.0
 11
545.4227715541711
 21
426.3552626911592
 31
0.0
  0
LINE
  5
2113
330
2
100
AcDbEntity
  8
0
100
AcDbLine
 10
545.62277155417
 20
429.8552626911594
 30
0.0
 11
545.4227715541702
 21
429.6552626911593
 31
0.0
  0
LINE
  5
2114
330
2
100
AcDbEntity
  8
0
100
AcDbLine
 10
546.12277155417
 20
431.6552626911594
 30
0.0
 11
546.12277155417
 21
430.0552626911595
 31
0.0
  0
LINE
  5
2115
330
2
100
AcDbEntity
  8
0
100
AcDbLine
 10
542.9227715541766
 20
425.8552626911642
 30
0.0
 11
541.6727715541793
 21
425.8552626911642
 31
0.0
  0
LINE
  5
2116
330
2
100
AcDbEntity
  8
0
100
AcDbLine
 10
542.9227715541712
 20
425.8552626911592
 30
0.0
 11
543.4227715541712
 21
426.3552626911589
 31
0.0
  0
LINE
  5
2117
330
2
100
AcDbEntity
  8
CENTER
  6
CENS
100
AcDbLine
 10
537.4227715541529
 20
433.1552626911594
 30
0.0
 11
537.4227715541529
 21
413.6065612105626
 31
0.0
  0
LINE
  5
2118
330
2
100
AcDbEntity
  8
0
100
AcDbLine
 10
540.4227715541574
 20
417.3552626911587
 30
0.0
 11
540.4227715541574
 21
422.8639892266622
 31
0.0
  0
LINE
  5
2119
330
2
100
AcDbEntity
  8
0
100
AcDbLine
 10
537.4227715541793
 20
417.3552626911587
 30
0.0
 11
537.4227715541793
 21
422.8639892266622
 31
0.0
  0
LINE
  5
211A
330
2
100
AcDbEntity
  8
0
100
AcDbLine
 10
532.4227715541711
 20
417.3552626911587
 30
0.0
 11
532.4708454823413
 21
422.8639892266622
 31
0.0
  0
LINE
  5
211B
330
2
100
AcDbEntity
  8
0
100
AcDbLine
 10
551.8951760341743
 20
417.3552626911587
 30
0.0
 11
551.8951760341743
 21
422.8639892266622
 31
0.0
  0
LINE
  5
211C
330
2
100
AcDbEntity
  8
0
100
AcDbLine
 10
604.2327715541711
 20
396.3552626906558
 30
0.0
 11
604.0495073305611
 21
417.3552626911587
 31
0.0
  0
LINE
  5
211D
330
2
100
AcDbEntity
  8
0
100
AcDbLine
 10
596.4358645149469
 20
417.3552626911581
 30
0.0
 11
596.9602684138537
 21
397.329085742557
 31
0.0
  0
LINE
  5
211E
330
2
100
AcDbEntity
  8
0
100
AcDbLine
 10
618.8717706416947
 20
422.9076165874769
 30
0.0
 11
618.1764727850805
 21
396.355262690865
 31
0.0
  0
LINE
  5
211F
330
2
100
AcDbEntity
  8
0
100
AcDbLine
 10
628.371770646063
 20
430.4076165874819
 30
0.0
 11
627.4800783776592
 21
396.355262690865
 31
0.0
  0
LINE
  5
2120
330
2
100
AcDbEntity
  8
0
100
AcDbLine
 10
584.9503670741543
 20
416.8552626908647
 30
0.0
 11
584.9503670741543
 21
359.8552246139291
 31
0.0
  0
ARC
  5
2122
330
2
100
AcDbEntity
  8
0
100
AcDbCircle
 10
615.3194669762379
 20
390.855262690865
 30
0.0
 40
3.0
100
AcDbArc
 50
1.500000000015846
 51
90.0
  0
ARC
  5
2123
330
2
100
AcDbEntity
  8
0
100
AcDbCircle
 10
617.8710852916502
 20
365.855262690865
 30
0.0
 40
3.0
100
AcDbArc
 50
53.1301023542602
 51
90.0
  0
ARC
  5
2124
330
2
100
AcDbEntity
  8
0
100
AcDbCircle
 10
615.8431854076235
 20
370.8552626908647
 30
0.0
 40
3.0
100
AcDbArc
 50
1.4999999999898
 51
90.0
  0
ARC
  5
2125
330
2
100
AcDbEntity
  8
0
100
AcDbCircle
 10
620.8710852916457
 20
369.8552626908686
 30
0.0
 40
2.0
100
AcDbArc
 50
181.4999999999898
 51
270.0
  0
LINE
  5
2126
330
2
100
AcDbEntity
  8
0
100
AcDbLine
 10
618.8717706416947
 20
369.802908794253
 30
0.0
 11
618.1764727850805
 21
396.355262690865
 31
0.0
  0
ARC
  5
2127
330
2
100
AcDbEntity
  8
0
100
AcDbCircle
 10
607.1848880164776
 20
390.8552626908647
 30
0.0
 40
3.0
100
AcDbArc
 50
90.0
 51
179.5000000000084
  0
LINE
  5
2128
330
2
100
AcDbEntity
  8
0
100
AcDbLine
 10
607.1916237928709
 20
393.8552626908647
 30
0.0
 11
615.3194669762379
 21
393.8552626908649
 31
0.0
  0
ARC
  5
2129
330
2
100
AcDbEntity
  8
0
100
AcDbCircle
 10
597.9599257388291
 20
397.355262690865
 30
0.0
 40
1.0
100
AcDbArc
 50
181.5000000000157
 51
270.0
  0
ARC
  5
212A
330
2
100
AcDbEntity
  8
0
100
AcDbCircle
 10
606.9667163217087
 20
365.8552626908647
 30
0.0
 40
3.0
100
AcDbArc
 50
90.0
 51
179.5000000000084
  0
ARC
  5
212B
330
2
100
AcDbEntity
  8
0
100
AcDbCircle
 10
607.0103506606625
 20
370.8552626908647
 30
0.0
 40
3.0
100
AcDbArc
 50
90.0
 51
179.5000000000084
  0
LINE
  5
212C
330
2
100
AcDbEntity
  8
0
100
AcDbLine
 10
606.9667163217087
 20
368.8552626908647
 30
0.0
 11
617.8710852916502
 21
368.8552626908649
 31
0.0
  0
LINE
  5
212D
330
2
100
AcDbEntity
  8
0
100
AcDbLine
 10
607.0103506606625
 20
373.8552626908647
 30
0.0
 11
615.8431854076235
 21
373.8552626908647
 31
0.0
  0
LINE
  5
212E
330
2
100
AcDbEntity
  8
0
100
AcDbLine
 10
604.2327715541711
 20
396.3552626910741
 30
0.0
 11
603.901150578121
 21
358.3552626908638
 31
0.0
  0
LINE
  5
212F
330
2
100
AcDbEntity
  8
0
100
AcDbLine
 10
599.4227715541693
 20
396.355262690865
 30
0.0
 11
599.4227715541711
 21
359.8552246139291
 31
0.0
  0
LINE
  5
2130
330
2
100
AcDbEntity
  8
0
100
AcDbLine
 10
596.4227715541711
 20
396.355262690865
 30
0.0
 11
596.4227715541711
 21
359.8552246139291
 31
0.0
  0
LINE
  5
2131
330
2
100
AcDbEntity
  8
0
100
AcDbLine
 10
627.4800783776592
 20
396.355262690865
 30
0.0
 11
640.4227715498019
 21
396.355262690865
 31
0.0
  0
LINE
  5
2132
330
2
100
AcDbEntity
  8
0
100
AcDbLine
 10
620.871085296014
 20
367.855262690865
 30
0.0
 11
625.3039065296363
 21
367.855262690865
 31
0.0
  0
ARC
  5
2133
330
2
100
AcDbEntity
  8
0
100
AcDbCircle
 10
625.3039065296363
 20
364.8552626908649
 30
0.0
 40
3.0
100
AcDbArc
 50
1.500000000015846
 51
90.0
  0
LINE
  5
2134
330
2
100
AcDbEntity
  8
0
100
AcDbLine
 10
628.371770646063
 20
362.302908794248
 30
0.0
 11
627.4800783776592
 21
396.355262690865
 31
0.0
  0
ARC
  5
2135
330
2
100
AcDbEntity
  8
0
100
AcDbCircle
 10
620.8710852916457
 20
422.8552626908613
 30
0.0
 40
2.0
100
AcDbArc
 50
90.0
 51
178.5000000000102
  0
ARC
  5
2136
330
2
100
AcDbEntity
  8
0
100
AcDbCircle
 10
615.3194669762379
 20
401.855262690865
 30
0.0
 40
3.0
100
AcDbArc
 50
270.0
 51
358.4999999999841
  0
ARC
  5
2137
330
2
100
AcDbEntity
  8
0
100
AcDbCircle
 10
615.7908135644857
 20
419.8552626909513
 30
0.0
 40
3.0
100
AcDbArc
 50
270.0
 51
358.4999999999841
  0
ARC
  5
2138
330
2
100
AcDbEntity
  8
0
100
AcDbCircle
 10
590.9227715541711
 20
430.0552626911595
 30
0.0
 40
0.2
100
AcDbArc
 50
180.0
 51
270.0
  0
ARC
  5
2139
330
2
100
AcDbEntity
  8
0
100
AcDbCircle
 10
590.9227715541711
 20
431.6552626911591
 30
0.0
 40
0.2
100
AcDbArc
 50
90.00000000005213
 51
180.0
  0
ARC
  5
213A
330
2
100
AcDbEntity
  8
0
100
AcDbCircle
 10
591.2227715541713
 20
432.0552626911594
 30
0.0
 40
0.2
100
AcDbArc
 50
269.9999999999478
 51
359.9999999999739
  0
LINE
  5
213B
330
2
100
AcDbEntity
  8
0
100
AcDbLine
 10
591.4227715541711
 20
433.3552626911594
 30
0.0
 11
591.4227715541711
 21
432.0552626911594
 31
0.0
  0
LINE
  5
213C
330
2
100
AcDbEntity
  8
0
100
AcDbLine
 10
591.4227715541711
 20
433.3552626911592
 30
0.0
 11
590.8454212849821
 21
434.3552626911594
 31
0.0
  0
LINE
  5
213D
330
2
100
AcDbEntity
  8
0
100
AcDbLine
 10
591.4227715541711
 20
429.6552626911593
 30
0.0
 11
591.4227715541711
 21
426.3552626911592
 31
0.0
  0
LINE
  5
213E
330
2
100
AcDbEntity
  8
0
100
AcDbLine
 10
591.2227715541713
 20
429.8552626911592
 30
0.0
 11
591.4227715541711
 21
429.6552626911593
 31
0.0
  0
LINE
  5
213F
330
2
100
AcDbEntity
  8
0
100
AcDbLine
 10
590.7227715541713
 20
431.6552626911594
 30
0.0
 11
590.7227715541713
 21
430.0552626911595
 31
0.0
  0
ARC
  5
2140
330
2
100
AcDbEntity
  8
0
100
AcDbCircle
 10
603.0047357029363
 20
422.8552626911635
 30
0.0
 40
1.0
100
AcDbArc
 50
0.4999999999915751
 51
90.0
  0
LINE
  5
2141
330
2
100
AcDbEntity
  8
HIDS
100
AcDbLine
 10
598.0943444294244
 20
425.8552626911642
 30
0.0
 11
595.172771554162
 21
425.8552626911638
 31
0.0
  0
LINE
  5
2142
330
2
100
AcDbEntity
  8
0
100
AcDbLine
 10
595.6923867964325
 20
430.1552626911593
 30
0.0
 11
603.1531563118916
 21
430.1552626911593
 31
0.0
  0
LINE
  5
2143
330
2
100
AcDbEntity
  8
0
100
AcDbLine
 10
603.672771554162
 20
429.8552626911592
 30
0.0
 11
603.1531563118916
 21
430.1552626911593
 31
0.0
  0
LINE
  5
2144
330
2
100
AcDbEntity
  8
0
100
AcDbLine
 10
595.172771554162
 20
429.8552626911592
 30
0.0
 11
595.6923867964325
 21
430.1552626911593
 31
0.0
  0
LINE
  5
2145
330
2
100
AcDbEntity
  8
0
100
AcDbLine
 10
595.172771554162
 20
429.8552626911592
 30
0.0
 11
603.672771554162
 21
429.8552626911592
 31
0.0
  0
LINE
  5
2146
330
2
100
AcDbEntity
  8
0
100
AcDbLine
 10
595.172771554162
 20
425.1552626911593
 30
0.0
 11
603.672771554162
 21
425.1552626911593
 31
0.0
  0
LINE
  5
2147
330
2
100
AcDbEntity
  8
0
100
AcDbLine
 10
595.172771554162
 20
429.8552626911592
 30
0.0
 11
595.172771554162
 21
423.8552626911594
 31
0.0
  0
LINE
  5
2148
330
2
100
AcDbEntity
  8
0
100
AcDbLine
 10
603.672771554162
 20
429.8552626911592
 30
0.0
 11
603.672771554162
 21
423.8552626911635
 31
0.0
  0
ARC
  5
2149
330
2
100
AcDbEntity
  8
HIDS
100
AcDbCircle
 10
601.7511986789169
 20
425.8552626911642
 30
0.0
 40
2.0
100
AcDbArc
 50
225.0000000000069
 51
270.0
  0
ARC
  5
214A
330
2
100
AcDbEntity
  8
HIDS
100
AcDbCircle
 10
598.0943444294244
 20
423.8552626911642
 30
0.0
 40
2.0
100
AcDbArc
 50
45.0000000000069
 51
90.0
  0
ARC
  5
214B
330
2
100
AcDbEntity
  8
0
100
AcDbCircle
 10
603.4227715541711
 20
422.8552626911642
 30
0.0
 40
1.0
100
AcDbArc
 50
90.0
 51
90.0
  0
LINE
  5
214C
330
2
100
AcDbEntity
  8
0
100
AcDbLine
 10
593.9227715541703
 20
425.8552626911592
 30
0.0
 11
593.4227715541656
 21
426.3552626911646
 31
0.0
  0
LINE
  5
214D
330
2
100
AcDbEntity
  8
HIDS
100
AcDbLine
 10
599.5085579917978
 20
425.2694762535373
 30
0.0
 11
600.3369851165444
 21
424.4410491287911
 31
0.0
  0
ARC
  5
214E
330
2
100
AcDbEntity
  8
0
100
AcDbCircle
 10
607.1848880164772
 20
401.855262690865
 30
0.0
 40
3.0
100
AcDbArc
 50
180.4999999999915
 51
270.0
  0
LINE
  5
214F
330
2
100
AcDbEntity
  8
0
100
AcDbLine
 10
607.1848880164772
 20
398.855262690865
 30
0.0
 11
615.3194669762379
 21
398.855262690865
 31
0.0
  0
LINE
  5
2150
330
2
100
AcDbEntity
  8
0
100
AcDbLine
 10
615.7908135644866
 20
416.8552626909514
 30
0.0
 11
604.5495073307693
 21
416.8552626909507
 31
0.0
  0
LINE
  5
2151
330
2
100
AcDbEntity
  8
0
100
AcDbLine
 10
604.0495073305611
 20
417.3552626911587
 30
0.0
 11
604.5495073307693
 21
416.8552626909507
 31
0.0
  0
LINE
  5
2152
330
2
100
AcDbEntity
  8
CENTER
  6
CENS
100
AcDbLine
 10
599.4227715541884
 20
433.1552626911594
 30
0.0
 11
599.4227715541884
 21
413.6065612105626
 31
0.0
  0
LINE
  5
2153
330
2
100
AcDbEntity
  8
0
100
AcDbLine
 10
584.950367074167
 20
417.3552626911587
 30
0.0
 11
584.950367074167
 21
422.8639892266622
 31
0.0
  0
LINE
  5
2154
330
2
100
AcDbEntity
  8
0
100
AcDbLine
 10
604.0046976260001
 20
422.8639892266618
 30
0.0
 11
604.0527715541712
 21
417.3552626911578
 31
0.0
  0
LINE
  5
2155
330
2
100
AcDbEntity
  8
0
100
AcDbLine
 10
599.4227715541621
 20
417.3552626911587
 30
0.0
 11
599.4227715541884
 21
422.8639892266622
 31
0.0
  0
LINE
  5
2156
330
2
100
AcDbEntity
  8
0
100
AcDbLine
 10
596.4227715541839
 20
417.3552626911587
 30
0.0
 11
596.4227715541839
 21
422.8639892266622
 31
0.0
  0
LINE
  5
2157
330
2
100
AcDbEntity
  8
0
100
AcDbLine
 10
620.871085296014
 20
424.855262690865
 30
0.0
 11
625.3039065296363
 21
424.855262690865
 31
0.0
  0
ARC
  5
2158
330
2
100
AcDbEntity
  8
0
100
AcDbCircle
 10
625.3039065296363
 20
427.8552626908649
 30
0.0
 40
3.0
100
AcDbArc
 50
270.0
 51
358.4999999999841
  0
ARC
  5
2159
330
2
100
AcDbEntity
  8
0
100
AcDbCircle
 10
630.371085296014
 20
430.355262690865
 30
0.0
 40
2.0
100
AcDbArc
 50
90.0
 51
178.4999999999841
  0
LINE
  5
215A
330
2
100
AcDbEntity
  8
0
100
AcDbLine
 10
630.371085296014
 20
432.3552626908649
 30
0.0
 11
640.4227715498019
 21
432.3552626908649
 31
0.0
  0
LINE
  5
2B39
330
2
100
AcDbEntity
  8
0
100
AcDbLine
 10
363.9715760980259
 20
118.2423527689874
 30
0.0
 11
393.4715760980259
 21
118.2423527689874
 31
0.0
  0
LINE
  5
2B3A
330
2
100
AcDbEntity
  8
0
100
AcDbLine
 10
363.9715760980259
 20
103.2423527689876
 30
0.0
 11
393.4715760980255
 21
103.2423527689885
 31
0.0
  0
LINE
  5
2B3B
330
2
100
AcDbEntity
  8
0
100
AcDbLine
 10
372.4715760980255
 20
113.2422955681021
 30
0.0
 11
393.9715760980254
 21
113.2422988258869
 31
0.0
  0
LINE
  5
2B3C
330
2
100
AcDbEntity
  8
0
100
AcDbLine
 10
372.4701641407625
 20
108.2422959668268
 30
0.0
 11
393.9715760980254
 21
108.2422988258869
 31
0.0
  0
LINE
  5
2B3D
330
2
100
AcDbEntity
  8
0
100
AcDbLine
 10
362.9715760980259
 20
121.9536204335073
 30
0.0
 11
362.9715760980259
 21
99.5309707026969
 31
0.0
  0
ARC
  5
2B3E
330
2
100
AcDbEntity
  8
0
100
AcDbCircle
 10
362.4715760980259
 20
121.9536204335073
 30
0.0
 40
0.5
100
AcDbArc
 50
0.0
 51
59.99999999999946
  0
ARC
  5
2B3F
330
2
100
AcDbEntity
  8
0
100
AcDbCircle
 10
361.5695532345396
 20
120.7423527689874
 30
0.0
 40
2.0
100
AcDbArc
 50
59.99999999999946
 51
78.4038889667375
  0
LINE
  5
2B40
330
2
100
AcDbEntity
  8
0
100
AcDbLine
 10
363.9715760980259
 20
119.2423527689874
 30
0.0
 11
363.9715760980259
 21
102.2423527689874
 31
0.0
  0
LINE
  5
2B41
330
2
100
AcDbEntity
  8
0
100
AcDbLine
 10
363.9715760980259
 20
119.2423527689874
 30
0.0
 11
362.9715760980259
 21
119.8197030381769
 31
0.0
  0
LINE
  5
2B42
330
2
100
AcDbEntity
  8
0
100
AcDbLine
 10
363.9715760980259
 20
102.2422383672168
 30
0.0
 11
362.9715760980259
 21
101.6648880980272
 31
0.0
  0
LINE
  5
2B43
330
2
100
AcDbEntity
  8
0
100
AcDbLine
 10
362.7215760980259
 20
122.3866331353996
 30
0.0
 11
362.5695532345396
 21
122.4744035765562
 31
0.0
  0
ARC
  5
2B44
330
2
100
AcDbEntity
  8
0
100
AcDbCircle
 10
362.4715760980259
 20
99.5309707026969
 30
0.0
 40
0.5
100
AcDbArc
 50
299.9999999999997
 51
0.0
  0
ARC
  5
2B45
330
2
100
AcDbEntity
  8
0
100
AcDbCircle
 10
361.5695532345396
 20
100.742238367217
 30
0.0
 40
2.0
100
AcDbArc
 50
281.5961110332624
 51
299.9999999999997
  0
LINE
  5
2B46
330
2
100
AcDbEntity
  8
0
100
AcDbLine
 10
362.7215760980259
 20
99.09795800080486
 30
0.0
 11
362.5695532345396
 21
99.01018755964821
 31
0.0
  0
ARC
  5
2B47
330
2
100
AcDbEntity
  8
0
100
AcDbCircle
 10
372.4715760980255
 20
110.7422955681021
 30
0.0
 40
2.5
100
AcDbArc
 50
90.0
 51
270.0
  0
LINE
  5
2B48
330
2
100
AcDbEntity
  8
0
100
AcDbLine
 10
393.9715760980259
 20
117.7423527689874
 30
0.0
 11
393.4715760980259
 21
118.2423527689874
 31
0.0
  0
LINE
  5
2B49
330
2
100
AcDbEntity
  8
0
100
AcDbLine
 10
393.9715760980259
 20
117.7423527689874
 30
0.0
 11
393.9715760980254
 21
103.7423527689885
 31
0.0
  0
LINE
  5
2B4A
330
2
100
AcDbEntity
  8
0
100
AcDbLine
 10
393.4715760980255
 20
103.2423527689885
 30
0.0
 11
393.9715760980254
 21
103.7423527689885
 31
0.0
  0
LINE
  5
2B4B
330
2
100
AcDbEntity
  8
0
100
AcDbLine
 10
393.4715760980259
 20
118.2423527689874
 30
0.0
 11
393.4715760980255
 21
113.2422987501244
 31
0.0
  0
LINE
  5
2B4C
330
2
100
AcDbEntity
  8
0
100
AcDbLine
 10
393.4715760980255
 20
108.2422987594014
 30
0.0
 11
393.4715760980255
 21
103.2423527689885
 31
0.0
  0
ARC
  5
2B4E
330
2
100
AcDbEntity
  8
0
100
AcDbCircle
 10
568.4227715541696
 20
110.7422955681057
 30
0.0
 40
7.500057200868525
100
AcDbArc
 50
199.471066139117
 51
160.5289338608829
  0
ARC
  5
2B4F
330
2
100
AcDbEntity
  8
0
100
AcDbCircle
 10
568.4227715541696
 20
110.7422955681057
 30
0.0
 40
8.500057200868525
100
AcDbArc
 50
197.1045165256734
 51
162.895483474328
  0
ARC
  5
2B50
330
2
100
AcDbEntity
  8
0
100
AcDbCircle
 10
568.4227715541696
 20
110.7422955681055
 30
0.0
 40
9.077407470058233
100
AcDbArc
 50
195.986391246479
 51
164.0136087535209
  0
CIRCLE
  5
2B51
330
2
100
AcDbEntity
  8
0
100
AcDbCircle
 10
568.4227715541696
 20
110.7422955681055
 30
0.0
 40
12.00005720086858
  0
LINE
  5
2B53
330
2
100
AcDbEntity
  8
0
100
AcDbLine
 10
558.922828755039
 20
108.2422955681055
 30
0.0
 11
563.9228287550386
 21
108.2422955681055
 31
0.0
  0
LINE
  5
2B54
330
2
100
AcDbEntity
  8
0
100
AcDbLine
 10
558.9228287550372
 20
113.2422955681057
 30
0.0
 11
563.9228287550377
 21
113.2422955681057
 31
0.0
  0
LINE
  5
2B55
330
2
100
AcDbEntity
  8
0
100
AcDbLine
 10
563.9228287550377
 20
113.2422955681057
 30
0.0
 11
563.9228287550386
 21
108.2422955681055
 31
0.0
  0
LINE
  5
2B56
330
2
100
AcDbEntity
  8
0
100
AcDbLine
 10
558.9228287550372
 20
113.2422955681057
 30
0.0
 11
558.922828755039
 21
108.2422955681055
 31
0.0
  0
LINE
  5
2B58
330
2
100
AcDbEntity
  8
0
100
AcDbLine
 10
575.9228287550569
 20
338.3552626908674
 30
0.0
 11
575.9228287550569
 21
308.8552626908674
 31
0.0
  0
LINE
  5
2B59
330
2
100
AcDbEntity
  8
0
100
AcDbLine
 10
558.9228287550524
 20
308.3552626908681
 30
0.0
 11
558.9228287550524
 21
332.3552626908679
 31
0.0
  0
LINE
  5
2B5A
330
2
100
AcDbEntity
  8
0
100
AcDbLine
 10
561.351643071665
 20
308.3552626908679
 30
0.0
 11
561.351643071665
 21
329.8566746481308
 31
0.0
  0
LINE
  5
2B5B
330
2
100
AcDbEntity
  8
0
100
AcDbLine
 10
575.4228287550569
 20
308.3552626908674
 30
0.0
 11
558.9228287550524
 21
308.3552626908681
 31
0.0
  0
LINE
  5
2B5C
330
2
100
AcDbEntity
  8
0
100
AcDbLine
 10
575.9228287550569
 20
308.8552626908674
 30
0.0
 11
561.3516430716646
 21
308.8552626908688
 31
0.0
  0
LINE
  5
2B5D
330
2
100
AcDbEntity
  8
0
100
AcDbLine
 10
575.4228287550569
 20
308.3552626908674
 30
0.0
 11
575.9228287550569
 21
308.8552626908674
 31
0.0
  0
LINE
  5
2B5F
330
2
100
AcDbEntity
  8
0
100
AcDbLine
 10
579.6340964195771
 20
339.3552626908674
 30
0.0
 11
557.2114466887666
 21
339.3552626908674
 31
0.0
  0
LINE
  5
2B60
330
2
100
AcDbEntity
  8
0
100
AcDbLine
 10
576.9228287550569
 20
338.3552626908674
 30
0.0
 11
559.9228287550569
 21
338.3552626908674
 31
0.0
  0
LINE
  5
2B61
330
2
100
AcDbEntity
  8
0
100
AcDbLine
 10
560.9228287550573
 20
338.3552626908674
 30
0.0
 11
560.9228287550573
 21
332.3552626908681
 31
0.0
  0
LINE
  5
2B62
330
2
100
AcDbEntity
  8
0
100
AcDbLine
 10
559.9227143532863
 20
338.3552626908674
 30
0.0
 11
559.3453640840968
 21
339.3552626908674
 31
0.0
  0
ARC
  5
2B63
330
2
100
AcDbEntity
  8
0
100
AcDbCircle
 10
557.2114466887666
 20
339.8552626908674
 30
0.0
 40
0.5
100
AcDbArc
 50
210.0000000000004
 51
270.0
  0
ARC
  5
2B64
330
2
100
AcDbEntity
  8
0
100
AcDbCircle
 10
558.4227143532863
 20
340.7572855543537
 30
0.0
 40
2.0
100
AcDbArc
 50
191.5961110332487
 51
210.0000000000004
  0
LINE
  5
2B65
330
2
100
AcDbEntity
  8
0
100
AcDbLine
 10
556.7784339868741
 20
339.6052626908674
 30
0.0
 11
556.6906635457177
 21
339.7572855543537
 31
0.0
  0
LINE
  5
2B66
330
2
100
AcDbEntity
  8
0
100
AcDbLine
 10
560.9228287550569
 20
332.3552626908679
 30
0.0
 11
558.9228287550524
 21
332.3552626908679
 31
0.0
  0
LINE
  5
2B67
330
2
100
AcDbEntity
  8
0
100
AcDbLine
 10
560.9228287550569
 20
332.3552626908679
 30
0.0
 11
561.351643071665
 21
329.8566746481308
 31
0.0
  0
ARC
  5
2B68
330
2
100
AcDbEntity
  8
0
100
AcDbCircle
 10
579.6340964195771
 20
339.8552626908674
 30
0.0
 40
0.5
100
AcDbArc
 50
270.0
 51
329.9999999999994
  0
ARC
  5
2B69
330
2
100
AcDbEntity
  8
0
100
AcDbCircle
 10
578.4228287550568
 20
340.7572855543537
 30
0.0
 40
2.0
100
AcDbArc
 50
329.9999999999994
 51
348.4038889667512
  0
LINE
  5
2B6A
330
2
100
AcDbEntity
  8
0
100
AcDbLine
 10
576.9228287550569
 20
338.3552626908674
 30
0.0
 11
577.5001790242464
 21
339.3552626908674
 31
0.0
  0
LINE
  5
2B6B
330
2
100
AcDbEntity
  8
0
100
AcDbLine
 10
580.0671091214691
 20
339.6052626908674
 30
0.0
 11
580.1548795626259
 21
339.7572855543537
 31
0.0
  0
LINE
  5
2B6D
330
2
100
AcDbEntity
  8
0
100
AcDbLine
 10
841.4165748926887
 20
102.2422383671991
 30
0.0
 11
842.4165748926887
 21
101.6648880980095
 31
0.0
  0
LINE
  5
2B6E
330
2
100
AcDbEntity
  8
0
100
AcDbLine
 10
841.4165748926887
 20
119.2423527689696
 30
0.0
 11
842.4165748926887
 21
119.8197030381592
 31
0.0
  0
LINE
  5
2B6F
330
2
100
AcDbEntity
  8
0
100
AcDbLine
 10
841.4165748926887
 20
102.2422383671991
 30
0.0
 11
841.4165748926887
 21
119.242238367199
 31
0.0
  0
LINE
  5
2B70
330
2
100
AcDbEntity
  8
0
100
AcDbLine
 10
841.4165748926887
 20
103.2422383671991
 30
0.0
 11
811.9165748926887
 21
103.2422383671991
 31
0.0
  0
LINE
  5
2B71
330
2
100
AcDbEntity
  8
0
100
AcDbLine
 10
811.4165748926886
 20
103.742238367199
 30
0.0
 11
811.9165748926887
 21
103.2422383671991
 31
0.0
  0
LINE
  5
2B72
330
2
100
AcDbEntity
  8
0
100
AcDbLine
 10
811.4165748926886
 20
103.742238367199
 30
0.0
 11
811.4165748926895
 21
117.7422383671986
 31
0.0
  0
LINE
  5
2B73
330
2
100
AcDbEntity
  8
0
100
AcDbLine
 10
811.9165748926896
 20
118.2422383671986
 30
0.0
 11
811.4165748926895
 21
117.7422383671986
 31
0.0
  0
LINE
  5
2B74
330
2
100
AcDbEntity
  8
0
100
AcDbLine
 10
841.4165748926887
 20
118.2422383671986
 30
0.0
 11
811.9165748926896
 21
118.2422383671986
 31
0.0
  0
LINE
  5
2B75
330
2
100
AcDbEntity
  8
0
100
AcDbLine
 10
811.9165748926887
 20
103.2422383671991
 30
0.0
 11
811.9165748926899
 21
118.2422383671986
 31
0.0
  0
LINE
  5
2B77
330
2
100
AcDbEntity
  8
0
100
AcDbLine
 10
842.4165748926887
 20
99.53097070267894
 30
0.0
 11
842.4165748926887
 21
121.9536204334893
 31
0.0
  0
ARC
  5
2B78
330
2
100
AcDbEntity
  8
0
100
AcDbCircle
 10
842.9165748926887
 20
99.53097070267894
 30
0.0
 40
0.5
100
AcDbArc
 50
180.0
 51
239.9999999999994
  0
ARC
  5
2B79
330
2
100
AcDbEntity
  8
0
100
AcDbCircle
 10
843.8185977561749
 20
100.742238367199
 30
0.0
 40
2.0
100
AcDbArc
 50
239.9999999999994
 51
258.4038889667506
  0
LINE
  5
2B7A
330
2
100
AcDbEntity
  8
0
100
AcDbLine
 10
842.6665748926886
 20
99.0979580007869
 30
0.0
 11
842.8185977561749
 21
99.01018755963002
 31
0.0
  0
ARC
  5
2B7B
330
2
100
AcDbEntity
  8
0
100
AcDbCircle
 10
842.9165748926887
 20
121.9536204334893
 30
0.0
 40
0.5
100
AcDbArc
 50
120.0000000000005
 51
180.0
  0
ARC
  5
2B7C
330
2
100
AcDbEntity
  8
0
100
AcDbCircle
 10
843.8185977561749
 20
120.7423527689696
 30
0.0
 40
2.0
100
AcDbArc
 50
101.5961110332493
 51
120.0000000000005
  0
LINE
  5
2B7D
330
2
100
AcDbEntity
  8
0
100
AcDbLine
 10
842.6665748926886
 20
122.3866331353818
 30
0.0
 11
842.8185977561749
 21
122.4744035765382
 31
0.0
  0
CIRCLE
  5
2D8C
330
2
100
AcDbEntity
  8
0
100
AcDbCircle
 10
568.4227715541728
 20
110.7422955681042
 30
0.0
 40
19.5774
  0
ENDSEC
  0
SECTION
  2
OBJECTS
  0
DICTIONARY
  5
7
330
0
100
AcDbDictionary
  3
ACAD_COLOR
350
1A25
  3
ACAD_GROUP
350
75
  3
ACAD_LAYOUT
350
61
  3
ACAD_MATERIAL
350
19FB
  3
ACAD_MLEADERSTYLE
350
1A4A
  3
ACAD_MLINESTYLE
350
76
  3
ACAD_PLOTSETTINGS
350
77
  3
ACAD_PLOTSTYLENAME
350
6
  3
ACAD_SCALELIST
350
1A28
  3
ACAD_TABLESTYLE
350
1A26
  3
ACAD_VISUALSTYLE
350
1A14
  3
ACADDIM
350
480
  3
ACDB_RECOMPOSE_DATA
350
1A93
  3
ACDBHEADERROUNDTRIPXREC
350
2DCF
  3
ACDBVARIABLEDICTIONARY
350
102
  3
DWGPROPS
350
2D9C
  0
DICTIONARY
  5
1A9C
330
6E
100
AcDbDictionary
280
     1
  3
ACAD_XREC_ROUNDTRIP
360
2DA3
  0
DICTIONARY
  5
AE5
330
66
100
AcDbDictionary
280
     1
  3
ACAD_LAYERSTATES
360
AE6
  0
DICTIONARY
  5
1A4F
330
5E
100
AcDbDictionary
280
     1
  3
ACAD_XREC_ROUNDTRIP
360
2D9F
  3
ADSK_XREC_LAYER_RECONCILED
360
1A50
  0
DICTIONARY
  5
1A51
330
3E
100
AcDbDictionary
280
     1
  3
ACAD_XREC_ROUNDTRIP
360
2D9E
  3
ADSK_XREC_LAYER_RECONCILED
360
1A52
  0
DICTIONARY
  5
1A57
330
2B5
100
AcDbDictionary
280
     1
  3
ACAD_XREC_ROUNDTRIP
360
2DA9
  3
ADSK_XREC_LAYER_RECONCILED
360
1A58
  0
DICTIONARY
  5
1A59
330
2BA
100
AcDbDictionary
280
     1
  3
ACAD_XREC_ROUNDTRIP
360
2DAA
  3
ADSK_XREC_LAYER_RECONCILED
360
1A5A
  0
DICTIONARY
  5
1A5D
330
3FA
100
AcDbDictionary
280
     1
  3
ACAD_XREC_ROUNDTRIP
360
2DAC
  3
ADSK_XREC_LAYER_RECONCILED
360
1A5E
  0
DICTIONARY
  5
2DF0
330
2
100
AcDbDictionary
280
     1
  3
ACAD_LAYOUTSELFREF
360
2DF1
  0
DICTIONARY
  5
2DF2
330
2DC9
100
AcDbDictionary
280
     1
  3
ACAD_LAYOUTSELFREF
360
2DF3
  0
DICTIONARY
  5
1A25
102
{ACAD_REACTORS
330
7
102
}
330
7
100
AcDbDictionary
  0
DICTIONARY
  5
75
102
{ACAD_REACTORS
330
7
102
}
330
7
100
AcDbDictionary
  0
DICTIONARY
  5
61
102
{ACAD_REACTORS
330
7
102
}
330
7
100
AcDbDictionary
  0
DICTIONARY
  5
19FB
102
{ACAD_REACTORS
330
7
102
}
330
7
100
AcDbDictionary
  3
BYBLOCK
350
1A04
  3
BYLAYER
350
19FC
  3
GLOBAL
350
1A0C
  0
DICTIONARY
  5
1A4A
102
{ACAD_REACTORS
330
7
102
}
330
7
100
AcDbDictionary
  3
STANDARD
350
1A4B
  0
DICTIONARY
  5
76
102
{ACAD_REACTORS
330
7
102
}
330
7
100
AcDbDictionary
  3
STANDARD
350
78
  0
DICTIONARY
  5
77
102
{ACAD_REACTORS
330
7
102
}
330
7
100
AcDbDictionary
  0
ACDBDICTIONARYWDFLT
  5
6
102
{ACAD_REACTORS
330
7
102
}
330
7
100
AcDbDictionary
281
     1
  3
Normal
350
5
100
AcDbDictionaryWithDefault
340
5
  0
DICTIONARY
  5
1A28
102
{ACAD_REACTORS
330
7
102
}
330
7
100
AcDbDictionary
  3
A0
350
1A29
  3
A1
350
1A2A
  3
A2
350
1A2B
  3
A3
350
1A2C
  3
A4
350
1A2D
  3
A5
350
1A2E
  3
A6
350
1A2F
  3
A7
350
1A30
  3
A8
350
1A31
  3
A9
350
1A32
  3
B0
350
1A33
  3
B1
350
1A34
  3
B2
350
1A35
  3
B3
350
1A36
  3
B4
350
1A37
  3
B5
350
1A38
  3
B6
350
1A39
  3
B7
350
1A3A
  3
B8
350
1A3B
  3
B9
350
1A3C
  3
C0
350
1A3D
  3
C1
350
1A3E
  3
C2
350
1A3F
  3
C3
350
1A40
  3
C4
350
1A41
  3
C5
350
1A42
  3
C6
350
1A43
  3
C7
350
1A44
  3
C8
350
1A45
  3
C9
350
1A46
  3
D0
350
1A47
  3
D1
350
1A48
  3
D2
350
1A49
  0
DICTIONARY
  5
1A26
102
{ACAD_REACTORS
330
7
102
}
330
7
100
AcDbDictionary
  3
STANDARD
350
1A27
  0
DICTIONARY
  5
1A14
102
{ACAD_REACTORS
330
7
102
}
330
7
100
AcDbDictionary
  3
2DWIREFRAME
350
1A1A
  3
3D_HIDDEN
350
1A1C
  3
3DWIREFRAME
350
1A1B
  3
BASIC
350
1A19
  3
BRIGHTEN
350
1A20
  3
COLORCHANGE
350
1A24
  3
CONCEPTUAL
350
1A1D
  3
DIM
350
1A1F
  3
FACEPATTERN
350
1A23
  3
FLAT
350
1A15
  3
FLATWITHEDGES
350
1A16
  3
GOURAUD
350
1A17
  3
GOURAUDWITHEDGES
350
1A18
  3
LINEPATTERN
350
1A22
  3
REALISTIC
350
1A1E
  3
THICKEN
350
1A21
  0
XRECORD
  5
480
102
{ACAD_REACTORS
330
7
102
}
330
7
100
AcDbXrecord
 90
   990106
  3

 60
     0
 61
     0
 62
     1
 63
     3
 64
     1
 65
     0
 66
     0
 67
     3
 68
     1
 69
     0
 70
     0
 71
     0
 72
     0
 40
0.0
170
     2
340
0
  0
XRECORD
  5
1A93
102
{ACAD_REACTORS
330
7
102
}
330
7
100
AcDbXrecord
 90
        1
330
1A27
  0
DICTIONARY
  5
2DCF
102
{ACAD_REACTORS
330
7
102
}
330
7
100
AcDbDictionary
  3
CEPSNTYPE
350
2DD9
  3
DIMSTYLEDATA
350
2DDD
  3
FINGERPRINTGUID
350
2DDA
  3
HYPERLINKBASE
350
2DD2
  3
INSUNITS
350
2DD8
  3
LAYOUTDICT
350
2DD4
  3
LWETCUNION
350
2DD7
  3
PLOTSETDICT
350
2DD5
  3
PLOTSTYLNAMDICT
350
2DD6
  3
PSVPSCALE
350
2DDC
  3
PUCSBASE
350
2DE0
  3
PUCSORGBACK
350
2DE6
  3
PUCSORGBOTTOM
350
2DE2
  3
PUCSORGFRONT
350
2DE5
  3
PUCSORGLEFT
350
2DE3
  3
PUCSORGRIGHT
350
2DE4
  3
PUCSORGTOP
350
2DE1
  3
PUCSORTHOREF
350
2DDE
  3
PUCSORTHOVIEW
350
2DDF
  3
STYLESHEET
350
2DD3
  3
TSTACKALIGN
350
2DD0
  3
TSTACKSIZE
350
2DD1
  3
UCSBASE
350
2DE9
  3
UCSORGBACK
350
2DEF
  3
UCSORGBOTTOM
350
2DEB
  3
UCSORGFRONT
350
2DEE
  3
UCSORGLEFT
350
2DEC
  3
UCSORGRIGHT
350
2DED
  3
UCSORGTOP
350
2DEA
  3
UCSORTHOREF
350
2DE7
  3
UCSORTHOVIEW
350
2DE8
  3
VERSIONGUID
350
2DDB
  0
DICTIONARY
  5
102
102
{ACAD_REACTORS
330
7
102
}
330
7
100
AcDbDictionary
  3
CANNOSCALE
350
1AB4
  3
CMLEADERSTYLE
350
1AB3
  3
CTABLESTYLE
350
1AB2
  3
DIMASSOC
350
103
  3
INDEXCTL
350
1AB5
  3
SORTENTS
350
549
  0
XRECORD
  5
2D9C
102
{ACAD_REACTORS
330
7
102
}
330
7
100
AcDbXrecord
  1
DWGPROPS COOKIE
  2

  3

  4

  6

  7

  8
ymorima
  9

300
=
301
=
302
=
303
=
304
=
305
=
306
=
307
=
308
=
309
=
 40
0.1112129398148148
 41
2454410.560790104
 42
2454425.754857488
  1

 90
        0
  0
XRECORD
  5
2DA3
102
{ACAD_REACTORS
330
1A9C
102
}
330
1A9C
100
AcDbXrecord
102
VTR_0.000_0.000_1.000_1.000_VISUALSTYLE
340
1A1A
102
VTR_0.000_0.000_1.000_1.000_GRIDDISPLAY
 70
     3
102
VTR_0.000_0.000_1.000_1.000_GRIDMAJOR
 70
     5
102
VTR_0.000_0.000_1.000_1.000_DEFAULTLIGHTING
280
     1
102
VTR_0.000_0.000_1.000_1.000_DEFAULTLIGHTINGTYPE
 70
     1
102
VTR_0.000_0.000_1.000_1.000_BRIGHTNESS
141
0.0
102
VTR_0.000_0.000_1.000_1.000_CONTRAST
142
0.0
  0
DICTIONARY
  5
AE6
102
{ACAD_REACTORS
330
AE5
102
}
330
AE5
100
AcDbDictionary
  0
XRECORD
  5
2D9F
102
{ACAD_REACTORS
330
1A4F
102
}
330
1A4F
100
AcDbXrecord
102
MATERIAL
340
1A0C
  0
XRECORD
  5
1A50
102
{ACAD_REACTORS
330
1A4F
102
}
330
1A4F
100
AcDbXrecord
290
     1
  0
XRECORD
  5
2D9E
102
{ACAD_REACTORS
330
1A51
102
}
330
1A51
100
AcDbXrecord
102
MATERIAL
340
1A0C
  0
XRECORD
  5
1A52
102
{ACAD_REACTORS
330
1A51
102
}
330
1A51
100
AcDbXrecord
290
     1
  0
XRECORD
  5
2DA9
102
{ACAD_REACTORS
330
1A57
102
}
330
1A57
100
AcDbXrecord
102
MATERIAL
340
1A0C
  0
XRECORD
  5
1A58
102
{ACAD_REACTORS
330
1A57
102
}
330
1A57
100
AcDbXrecord
290
     1
  0
XRECORD
  5
2DAA
102
{ACAD_REACTORS
330
1A59
102
}
330
1A59
100
AcDbXrecord
102
MATERIAL
340
1A0C
  0
XRECORD
  5
1A5A
102
{ACAD_REACTORS
330
1A59
102
}
330
1A59
100
AcDbXrecord
290
     1
  0
XRECORD
  5
2DAC
102
{ACAD_REACTORS
330
1A5D
102
}
330
1A5D
100
AcDbXrecord
102
MATERIAL
340
1A0C
  0
XRECORD
  5
1A5E
102
{ACAD_REACTORS
330
1A5D
102
}
330
1A5D
100
AcDbXrecord
290
     1
  0
XRECORD
  5
2DF1
102
{ACAD_REACTORS
330
2DF0
102
}
330
2DF0
100
AcDbXrecord
340
2
  0
XRECORD
  5
2DF3
102
{ACAD_REACTORS
330
2DF2
102
}
330
2DF2
100
AcDbXrecord
340
2DC9
  0
ACAD_PROXY_OBJECT
  5
1A04
102
{ACAD_XDICTIONARY
360
1A05
102
}
102
{ACAD_REACTORS
330
19FB
102
}
330
19FB
100
AcDbProxyObject
 90
      499
 91
      510
 93
     1340
310
42109E509B1BD8DAC02004014080404555555555555953FAA155555555555654FEA9AA400014080404555555555555953FAA155555555555654FEA9AA400000000000000E03F4080404555555555555953FAA155555555555654FEA9AA4014080404555555555555953FAA155555555555654FEA9AA4010201011555555555
310
55654FEA8555555555555953FAA6A9005020101155555555555654FEA8555555555555953FAA6A9000
 94
        0
1001
ACAD
1000
AcadProxyRoundTripData
1071
      504
1071
   655383
1070
     0
  0
ACAD_PROXY_OBJECT
  5
19FC
102
{ACAD_XDICTIONARY
360
19FD
102
}
102
{ACAD_REACTORS
330
19FB
102
}
330
19FB
100
AcDbProxyObject
 90
      499
 91
      510
 93
     1340
310
42109E53185E595C802004014080404555555555555953FAA155555555555654FEA9AA400014080404555555555555953FAA155555555555654FEA9AA400000000000000E03F4080404555555555555953FAA155555555555654FEA9AA4014080404555555555555953FAA155555555555654FEA9AA4010201011555555555
310
55654FEA8555555555555953FAA6A9005020101155555555555654FEA8555555555555953FAA6A9000
 94
        0
1001
ACAD
1000
AcadProxyRoundTripData
1071
      504
1071
   655383
1070
     0
  0
ACAD_PROXY_OBJECT
  5
1A0C
102
{ACAD_XDICTIONARY
360
1A0D
102
}
102
{ACAD_REACTORS
330
19FB
102
}
330
19FB
100
AcDbProxyObject
 90
      499
 91
      510
 93
     1332
310
41D1DB1BD8985B002004014080404555555555555953FAA155555555555654FEA9AA400014080404555555555555953FAA155555555555654FEA9AA400000000000000E03F4080404555555555555953FAA155555555555654FEA9AA4014080404555555555555953FAA155555555555654FEA9AA401020101155555555555
310
654FEA8555555555555953FAA6A9005020101155555555555654FEA8555555555555953FAA6A9000
 94
        0
1001
ACAD
1000
AcadProxyRoundTripData
1071
      504
1071
   655383
1070
     0
  0
ACAD_PROXY_OBJECT
  5
1A4B
102
{ACAD_REACTORS
330
1A4A
102
}
330
1A4A
100
AcDbProxyObject
 90
      499
 91
      510
 93
      618
310
40901902A4063FBFFFFFE056BD1B81E855B9FC0AD7A3703D0AD73F4254DD185B99185C990000AD7A3703D0AC73F90141901A02B5E8DC0F42B1CFC02B5E8DC0F42B1CFE5764000000000000300FC6
340
6A
340
0
340
16
340
0
 94
        0
1001
ACAD_MLEADERVER
1070
     2
1001
ACAD
1000
AcadProxyRoundTripData
1071
      508
1071
   655383
1070
     0
  0
MLINESTYLE
  5
78
102
{ACAD_REACTORS
330
76
102
}
330
76
100
AcDbMlineStyle
  2
STANDARD
 70
     0
  3

 62
     0
 51
90.0
 52
90.0
 71
     2
 49
0.5
 62
   256
  6
BYLAYER
 49
-0.5
 62
   256
  6
BYLAYER
  0
ACDBPLACEHOLDER
  5
5
102
{ACAD_REACTORS
330
6
102
}
330
6
100
AcDbPlaceHolder
280
     0
  0
ACAD_PROXY_OBJECT
  5
1A29
102
{ACAD_REACTORS
330
1A28
102
}
330
1A28
100
AcDbProxyObject
 90
      499
 91
      510
 93
       49
310
904313A3100598
 94
        0
1001
ACAD
1000
AcadProxyRoundTripData
1071
      507
1071
   655383
1070
     0
  0
ACAD_PROXY_OBJECT
  5
1A2A
102
{ACAD_REACTORS
330
1A28
102
}
330
1A28
100
AcDbProxyObject
 90
      499
 91
      510
 93
      113
310
904313A3200400000000000000406B
 94
        0
1001
ACAD
1000
AcadProxyRoundTripData
1071
      507
1071
   655383
1070
     0
  0
ACAD_PROXY_OBJECT
  5
1A2B
102
{ACAD_REACTORS
330
1A28
102
}
330
1A28
100
AcDbProxyObject
 90
      499
 91
      510
 93
      113
310
904313A3400400000000000010406B
 94
        0
1001
ACAD
1000
AcadProxyRoundTripData
1071
      507
1071
   655383
1070
     0
  0
ACAD_PROXY_OBJECT
  5
1A2C
102
{ACAD_REACTORS
330
1A28
102
}
330
1A28
100
AcDbProxyObject
 90
      499
 91
      510
 93
      113
310
904313A3500400000000000014406B
 94
        0
1001
ACAD
1000
AcadProxyRoundTripData
1071
      507
1071
   655383
1070
     0
  0
ACAD_PROXY_OBJECT
  5
1A2D
102
{ACAD_REACTORS
330
1A28
102
}
330
1A28
100
AcDbProxyObject
 90
      499
 91
      510
 93
      113
310
904313A3800400000000000020406B
 94
        0
1001
ACAD
1000
AcadProxyRoundTripData
1071
      507
1071
   655383
1070
     0
  0
ACAD_PROXY_OBJECT
  5
1A2E
102
{ACAD_REACTORS
330
1A28
102
}
330
1A28
100
AcDbProxyObject
 90
      499
 91
      510
 93
      121
310
905313A3130004000000000000244051
 94
        0
1001
ACAD
1000
AcadProxyRoundTripData
1071
      507
1071
   655383
1070
     0
  0
ACAD_PROXY_OBJECT
  5
1A2F
102
{ACAD_REACTORS
330
1A28
102
}
330
1A28
100
AcDbProxyObject
 90
      499
 91
      510
 93
      121
310
905313A3136004000000000000304051
 94
        0
1001
ACAD
1000
AcadProxyRoundTripData
1071
      507
1071
   655383
1070
     0
  0
ACAD_PROXY_OBJECT
  5
1A30
102
{ACAD_REACTORS
330
1A28
102
}
330
1A28
100
AcDbProxyObject
 90
      499
 91
      510
 93
      121
310
905313A3230004000000000000344051
 94
        0
1001
ACAD
1000
AcadProxyRoundTripData
1071
      507
1071
   655383
1070
     0
  0
ACAD_PROXY_OBJECT
  5
1A31
102
{ACAD_REACTORS
330
1A28
102
}
330
1A28
100
AcDbProxyObject
 90
      499
 91
      510
 93
      121
310
905313A33300040000000000003E4051
 94
        0
1001
ACAD
1000
AcadProxyRoundTripData
1071
      507
1071
   655383
1070
     0
  0
ACAD_PROXY_OBJECT
  5
1A32
102
{ACAD_REACTORS
330
1A28
102
}
330
1A28
100
AcDbProxyObject
 90
      499
 91
      510
 93
      121
310
905313A3430004000000000000444051
 94
        0
1001
ACAD
1000
AcadProxyRoundTripData
1071
      507
1071
   655383
1070
     0
  0
ACAD_PROXY_OBJECT
  5
1A33
102
{ACAD_REACTORS
330
1A28
102
}
330
1A28
100
AcDbProxyObject
 90
      499
 91
      510
 93
      121
310
905313A3530004000000000000494051
 94
        0
1001
ACAD
1000
AcadProxyRoundTripData
1071
      507
1071
   655383
1070
     0
  0
ACAD_PROXY_OBJECT
  5
1A34
102
{ACAD_REACTORS
330
1A28
102
}
330
1A28
100
AcDbProxyObject
 90
      499
 91
      510
 93
      129
310
906313A313030004000000000000594038
 94
        0
1001
ACAD
1000
AcadProxyRoundTripData
1071
      507
1071
   655383
1070
     0
  0
ACAD_PROXY_OBJECT
  5
1A35
102
{ACAD_REACTORS
330
1A28
102
}
330
1A28
100
AcDbProxyObject
 90
      499
 91
      510
 93
      113
310
904323A31000000000000000010159
 94
        0
1001
ACAD
1000
AcadProxyRoundTripData
1071
      507
1071
   655383
1070
     0
  0
ACAD_PROXY_OBJECT
  5
1A36
102
{ACAD_REACTORS
330
1A28
102
}
330
1A28
100
AcDbProxyObject
 90
      499
 91
      510
 93
      113
310
904343A31000000000000000410159
 94
        0
1001
ACAD
1000
AcadProxyRoundTripData
1071
      507
1071
   655383
1070
     0
  0
ACAD_PROXY_OBJECT
  5
1A37
102
{ACAD_REACTORS
330
1A28
102
}
330
1A28
100
AcDbProxyObject
 90
      499
 91
      510
 93
      113
310
904383A31000000000000000810159
 94
        0
1001
ACAD
1000
AcadProxyRoundTripData
1071
      507
1071
   655383
1070
     0
  0
ACAD_PROXY_OBJECT
  5
1A38
102
{ACAD_REACTORS
330
1A28
102
}
330
1A28
100
AcDbProxyObject
 90
      499
 91
      510
 93
      121
310
90531303A31000000000000000910140
 94
        0
1001
ACAD
1000
AcadProxyRoundTripData
1071
      507
1071
   655383
1070
     0
  0
ACAD_PROXY_OBJECT
  5
1A39
102
{ACAD_REACTORS
330
1A28
102
}
330
1A28
100
AcDbProxyObject
 90
      499
 91
      510
 93
      129
310
9063130303A31000000000000001650138
 94
        0
1001
ACAD
1000
AcadProxyRoundTripData
1071
      507
1071
   655383
1070
     0
  0
ACAD_PROXY_OBJECT
  5
1A3A
102
{ACAD_REACTORS
330
1A28
102
}
330
1A28
100
AcDbProxyObject
 90
      499
 91
      510
 93
      265
310
90F312F31323822203D2031272D302200000000000000200FC00000000000028402B
 94
        0
1001
ACAD
1000
AcadProxyRoundTripData
1071
      507
1071
   655383
1070
     0
  0
ACAD_PROXY_OBJECT
  5
1A3B
102
{ACAD_REACTORS
330
1A28
102
}
330
1A28
100
AcDbProxyObject
 90
      499
 91
      510
 93
      257
310
90E312F363422203D2031272D302200000000000000240FC000000000000284040
 94
        0
1001
ACAD
1000
AcadProxyRoundTripData
1071
      507
1071
   655383
1070
     0
  0
ACAD_PROXY_OBJECT
  5
1A3C
102
{ACAD_REACTORS
330
1A28
102
}
330
1A28
100
AcDbProxyObject
 90
      499
 91
      510
 93
      257
310
90E312F333222203D2031272D302200000000000000280FC000000000000284040
 94
        0
1001
ACAD
1000
AcadProxyRoundTripData
1071
      507
1071
   655383
1070
     0
  0
ACAD_PROXY_OBJECT
  5
1A3D
102
{ACAD_REACTORS
330
1A28
102
}
330
1A28
100
AcDbProxyObject
 90
      499
 91
      510
 93
      257
310
90E312F313622203D2031272D3022000000000000002C0FC000000000000284040
 94
        0
1001
ACAD
1000
AcadProxyRoundTripData
1071
      507
1071
   655383
1070
     0
  0
ACAD_PROXY_OBJECT
  5
1A3E
102
{ACAD_REACTORS
330
1A28
102
}
330
1A28
100
AcDbProxyObject
 90
      499
 91
      510
 93
      257
310
90E332F333222203D2031272D3022000000000000002E0FC000000000000284040
 94
        0
1001
ACAD
1000
AcadProxyRoundTripData
1071
      507
1071
   655383
1070
     0
  0
ACAD_PROXY_OBJECT
  5
1A3F
102
{ACAD_REACTORS
330
1A28
102
}
330
1A28
100
AcDbProxyObject
 90
      499
 91
      510
 93
      249
310
90D312F3822203D2031272D302200000000000000300FC000000000000284040
 94
        0
1001
ACAD
1000
AcadProxyRoundTripData
1071
      507
1071
   655383
1070
     0
  0
ACAD_PROXY_OBJECT
  5
1A40
102
{ACAD_REACTORS
330
1A28
102
}
330
1A28
100
AcDbProxyObject
 90
      499
 91
      510
 93
      257
310
90E332F313622203D2031272D302200000000000000320FC000000000000284040
 94
        0
1001
ACAD
1000
AcadProxyRoundTripData
1071
      507
1071
   655383
1070
     0
  0
ACAD_PROXY_OBJECT
  5
1A41
102
{ACAD_REACTORS
330
1A28
102
}
330
1A28
100
AcDbProxyObject
 90
      499
 91
      510
 93
      249
310
90D312F3422203D2031272D302200000000000000340FC000000000000284040
 94
        0
1001
ACAD
1000
AcadProxyRoundTripData
1071
      507
1071
   655383
1070
     0
  0
ACAD_PROXY_OBJECT
  5
1A42
102
{ACAD_REACTORS
330
1A28
102
}
330
1A28
100
AcDbProxyObject
 90
      499
 91
      510
 93
      249
310
90D332F3822203D2031272D302200000000000000360FC000000000000284040
 94
        0
1001
ACAD
1000
AcadProxyRoundTripData
1071
      507
1071
   655383
1070
     0
  0
ACAD_PROXY_OBJECT
  5
1A43
102
{ACAD_REACTORS
330
1A28
102
}
330
1A28
100
AcDbProxyObject
 90
      499
 91
      510
 93
      249
310
90D312F3222203D2031272D302200000000000000380FC000000000000284040
 94
        0
1001
ACAD
1000
AcadProxyRoundTripData
1071
      507
1071
   655383
1070
     0
  0
ACAD_PROXY_OBJECT
  5
1A44
102
{ACAD_REACTORS
330
1A28
102
}
330
1A28
100
AcDbProxyObject
 90
      499
 91
      510
 93
      249
310
90D332F3422203D2031272D3022000000000000003A0FC000000000000284040
 94
        0
1001
ACAD
1000
AcadProxyRoundTripData
1071
      507
1071
   655383
1070
     0
  0
ACAD_PROXY_OBJECT
  5
1A45
102
{ACAD_REACTORS
330
1A28
102
}
330
1A28
100
AcDbProxyObject
 90
      499
 91
      510
 93
      169
310
90B3122203D2031272D3022004000000000000284020
 94
        0
1001
ACAD
1000
AcadProxyRoundTripData
1071
      507
1071
   655383
1070
     0
  0
ACAD_PROXY_OBJECT
  5
1A46
102
{ACAD_REACTORS
330
1A28
102
}
330
1A28
100
AcDbProxyObject
 90
      499
 91
      510
 93
      265
310
90F312D312F3222203D2031272D3022000000000000003E0FC00000000000028402B
 94
        0
1001
ACAD
1000
AcadProxyRoundTripData
1071
      507
1071
   655383
1070
     0
  0
ACAD_PROXY_OBJECT
  5
1A47
102
{ACAD_REACTORS
330
1A28
102
}
330
1A28
100
AcDbProxyObject
 90
      499
 91
      510
 93
      233
310
90B3322203D2031272D30220000000000000002100000000000000284000
 94
        0
1001
ACAD
1000
AcadProxyRoundTripData
1071
      507
1071
   655383
1070
     0
  0
ACAD_PROXY_OBJECT
  5
1A48
102
{ACAD_REACTORS
330
1A28
102
}
330
1A28
100
AcDbProxyObject
 90
      499
 91
      510
 93
      233
310
90B3622203D2031272D30220000000000000006100000000000000284000
 94
        0
1001
ACAD
1000
AcadProxyRoundTripData
1071
      507
1071
   655383
1070
     0
  0
ACAD_PROXY_OBJECT
  5
1A49
102
{ACAD_REACTORS
330
1A28
102
}
330
1A28
100
AcDbProxyObject
 90
      499
 91
      510
 93
      257
310
90E31272D3022203D2031272D3022000000000000000A100000000000000284040
 94
        0
1001
ACAD
1000
AcadProxyRoundTripData
1071
      507
1071
   655383
1070
     0
  0
ACAD_PROXY_OBJECT
  5
1A27
102
{ACAD_XDICTIONARY
360
1A91
102
}
102
{ACAD_REACTORS
330
1A26
102
}
330
1A26
100
AcDbProxyObject
 90
      499
 91
      510
 93
     1849
310
4254DD185B99185C990028B81E85EB51B8AE3F2E07A17AD46E2B8FC02B5E8DC0F42B1CFD028000000C1008070000C3001FDFF8000000C1003FBFF000000182007F7FE00000030400FEFFC00000060801FDFF8000000C1003FBFF00000018200000000000000681FA0B0000001820100E000186003FBFF000000182007F7FE0
310
0000030400FEFFC00000060801FDFF8000000C1003FBFF000000182007F7FE000000304000AD7A3703D0AC73F4160000003040201C00030C007F7FE00000030400FEFFC00000060801FDFF8000000C1003FBFF000000182007F7FE00000030400FEFFC000000608000
340
16
340
16
340
16
 94
        0
1001
ACAD
1000
AcadProxyRoundTripData
1071
      506
1071
   655383
1070
     0
  0
ACAD_PROXY_OBJECT
  5
1A1A
102
{ACAD_REACTORS
330
1A14
102
}
330
1A14
100
AcDbProxyObject
 90
      499
 91
      510
 93
      444
310
430C9915DA5C99599C985B59401049028333333333333E3BF0000000000000FB0107901411070040501600405405064090741402480A0340
 94
        0
1001
ACAD
1000
AcDbSavedByObjectVersion
1070
     0
1000
AcadProxyRoundTripData
1071
      505
1071
   655383
1070
     0
  0
ACAD_PROXY_OBJECT
  5
1A1C
102
{ACAD_REACTORS
330
1A14
102
}
330
1A14
100
AcDbProxyObject
 90
      499
 91
      510
 93
      508
310
428CD108121A5919195B8010640502408333333333333E3BF0000000000000FB01079024090700405020000000000001110200405405064090740C02480A0340
 94
        0
1001
ACAD
1000
AcDbSavedByObjectVersion
1070
     0
1000
AcadProxyRoundTripData
1071
      505
1071
   655383
1070
     0
  0
ACAD_PROXY_OBJECT
  5
1A1B
102
{ACAD_REACTORS
330
1A14
102
}
330
1A14
100
AcDbProxyObject
 90
      499
 91
      510
 93
      444
310
430CD915DA5C99599C985B59401059028333333333333E3BF0000000000000FB0107901411070040501600405405064090741402480A0340
 94
        0
1001
ACAD
1000
AcDbSavedByObjectVersion
1070
     0
1000
AcadProxyRoundTripData
1071
      505
1071
   655383
1070
     0
  0
ACAD_PROXY_OBJECT
  5
1A19
102
{ACAD_REACTORS
330
1A14
102
}
330
1A14
100
AcDbProxyObject
 90
      499
 91
      510
 93
      396
310
4190985CDA58C0107406404333333333333E3BF0000000000000FB0107A41107004050150841D405064090741402480A0356
 94
        0
1001
ACAD
1000
AcDbSavedByObjectVersion
1070
     0
1000
AcadProxyRoundTripData
1071
      505
1071
   655383
1070
     0
  0
ACAD_PROXY_OBJECT
  5
1A20
102
{ACAD_REACTORS
330
1A14
102
}
330
1A14
100
AcDbProxyObject
 90
      499
 91
      510
 93
      436
310
42509C9A59DA1D195B8010C409028333333333333E3BF0000000000000FB010790141107004050150841D405064090741402480A029956
 94
        0
1001
ACAD
1000
AcDbSavedByObjectVersion
1070
     0
1000
AcadProxyRoundTripData
1071
      505
1071
   655383
1070
     0
  0
ACAD_PROXY_OBJECT
  5
1A24
102
{ACAD_REACTORS
330
1A14
102
}
330
1A14
100
AcDbProxyObject
 90
      499
 91
      510
 93
      460
310
4310DBDB1BDC90DA185B99D9401104090240C333333333333E3BF0000000000000FB0108901411070040501508421405064090741402480A0354
 94
        0
1001
ACAD
1000
AcDbSavedByObjectVersion
1070
     0
1000
AcadProxyRoundTripData
1071
      505
1071
   655383
1070
     0
  0
ACAD_PROXY_OBJECT
  5
1A1D
102
{ACAD_REACTORS
330
1A14
102
}
330
1A14
100
AcDbProxyObject
 90
      499
 91
      510
 93
      508
310
42D0DBDB98D95C1D1D585B0010940D028333333333333E3BF0000000000000FB0107902409070040501000000000000111010841D405064090740C02480A0340
 94
        0
1001
ACAD
1000
AcDbSavedByObjectVersion
1070
     0
1000
AcadProxyRoundTripData
1071
      505
1071
   655383
1070
     0
  0
ACAD_PROXY_OBJECT
  5
1A1F
102
{ACAD_REACTORS
330
1A14
102
}
330
1A14
100
AcDbProxyObject
 90
      499
 91
      510
 93
      420
310
41111A5B4010B409028333333333333E3BF0000000000000FB010790141107004050150841D405064090741402480A02677FFFFFDB
 94
        0
1001
ACAD
1000
AcDbSavedByObjectVersion
1070
     0
1000
AcadProxyRoundTripData
1071
      505
1071
   655383
1070
     0
  0
ACAD_PROXY_OBJECT
  5
1A23
102
{ACAD_REACTORS
330
1A14
102
}
330
1A14
100
AcDbProxyObject
 90
      499
 91
      510
 93
      452
310
43119858D95C185D1D195C9B8010F409028333333333333E3BF0000000000000FB010790141107004050150841D405064090741402480A0350
 94
        0
1001
ACAD
1000
AcDbSavedByObjectVersion
1070
     0
1000
AcadProxyRoundTripData
1071
      505
1071
   655383
1070
     0
  0
ACAD_PROXY_OBJECT
  5
1A15
102
{ACAD_REACTORS
330
1A14
102
}
330
1A14
100
AcDbProxyObject
 90
      499
 91
      510
 93
      396
310
41519B185D00240901404333333333333E3BF0000000000000F9010740A41107004050150841D405064090741402480A1B55
 94
        0
1001
ACAD
1000
AcDbSavedByObjectVersion
1070
     0
1000
AcadProxyRoundTripData
1071
      505
1071
   655383
1070
     0
  0
ACAD_PROXY_OBJECT
  5
1A16
102
{ACAD_REACTORS
330
1A14
102
}
330
1A14
100
AcDbProxyObject
 90
      499
 91
      510
 93
      484
310
43919B185D15DA5D1A115919D95CC010140901404333333333333E3BF0000000000000F9010740901411070040501600405405064090741402480A1B50
 94
        0
1001
ACAD
1000
AcDbSavedByObjectVersion
1070
     0
1000
AcadProxyRoundTripData
1071
      505
1071
   655383
1070
     0
  0
ACAD_PROXY_OBJECT
  5
1A17
102
{ACAD_REACTORS
330
1A14
102
}
330
1A14
100
AcDbProxyObject
 90
      499
 91
      510
 93
      420
310
4211DBDD5C985D590010240902404333333333333E3BF0000000000000F9010740A411070040501641D405064090741402480A1B50
 94
        0
1001
ACAD
1000
AcDbSavedByObjectVersion
1070
     0
1000
AcadProxyRoundTripData
1071
      505
1071
   655383
1070
     0
  0
ACAD_PROXY_OBJECT
  5
1A18
102
{ACAD_REACTORS
330
1A14
102
}
330
1A14
100
AcDbProxyObject
 90
      499
 91
      510
 93
      508
310
4451DBDD5C985D5915DA5D1A115919D95CC010340902404333333333333E3BF0000000000000F9010740901411070040501600405405064090741402480A1B50
 94
        0
1001
ACAD
1000
AcDbSavedByObjectVersion
1070
     0
1000
AcadProxyRoundTripData
1071
      505
1071
   655383
1070
     0
  0
ACAD_PROXY_OBJECT
  5
1A22
102
{ACAD_REACTORS
330
1A14
102
}
330
1A14
100
AcDbProxyObject
 90
      499
 91
      510
 93
      452
310
43131A5B995C185D1D195C9B8010E409028333333333333E3BF0000000000000FB010790141107004050750841D405064090741402483A0350
 94
        0
1001
ACAD
1000
AcDbSavedByObjectVersion
1070
     0
1000
AcadProxyRoundTripData
1071
      505
1071
   655383
1070
     0
  0
ACAD_PROXY_OBJECT
  5
1A1E
102
{ACAD_REACTORS
330
1A14
102
}
330
1A14
100
AcDbProxyObject
 90
      499
 91
      510
 93
      428
310
429499585B1A5CDD1A58C0108409028333333333333E3BF0000000000000FB01079019070040501508421405064090741402480A1B45
 94
        0
1001
ACAD
1000
AcDbSavedByObjectVersion
1070
     0
1000
AcadProxyRoundTripData
1071
      505
1071
   655383
1070
     0
  0
ACAD_PROXY_OBJECT
  5
1A21
102
{ACAD_REACTORS
330
1A14
102
}
330
1A14
100
AcDbProxyObject
 90
      499
 91
      510
 93
      420
310
42151A1A58DAD95B8010D409028333333333333E3BF0000000000000FB010790141107004050150C41D405064090741402480A0352
 94
        0
1001
ACAD
1000
AcDbSavedByObjectVersion
1070
     0
1000
AcadProxyRoundTripData
1071
      505
1071
   655383
1070
     0
  0
XRECORD
  5
2DD9
102
{ACAD_REACTORS
330
2DCF
102
}
330
2DCF
100
AcDbXrecord
 90
        0
  0
XRECORD
  5
2DDD
102
{ACAD_REACTORS
330
2DCF
102
}
330
2DCF
100
AcDbXrecord
1000
DSTYLE
1002
{
1070
   179
 70
     2
1070
   277
 70
     6
1002
}
  0
XRECORD
  5
2DDA
102
{ACAD_REACTORS
330
2DCF
102
}
330
2DCF
100
AcDbXrecord
  1
{6385560B-F4B1-4644-A7C2-A3E32AC3D232}
  0
XRECORD
  5
2DD2
102
{ACAD_REACTORS
330
2DCF
102
}
330
2DCF
100
AcDbXrecord
  1

  0
XRECORD
  5
2DD8
102
{ACAD_REACTORS
330
2DCF
102
}
330
2DCF
100
AcDbXrecord
 90
        0
  0
XRECORD
  5
2DD4
102
{ACAD_REACTORS
330
2DCF
102
}
330
2DCF
100
AcDbXrecord
340
61
  0
XRECORD
  5
2DD7
102
{ACAD_REACTORS
330
2DCF
102
}
330
2DCF
100
AcDbXrecord
 90
    10781
  0
XRECORD
  5
2DD5
102
{ACAD_REACTORS
330
2DCF
102
}
330
2DCF
100
AcDbXrecord
340
77
  0
XRECORD
  5
2DD6
102
{ACAD_REACTORS
330
2DCF
102
}
330
2DCF
100
AcDbXrecord
340
6
  0
XRECORD
  5
2DDC
102
{ACAD_REACTORS
330
2DCF
102
}
330
2DCF
100
AcDbXrecord
 40
0.0
  0
XRECORD
  5
2DE0
102
{ACAD_REACTORS
330
2DCF
102
}
330
2DCF
100
AcDbXrecord
340
0
  0
XRECORD
  5
2DE6
102
{ACAD_REACTORS
330
2DCF
102
}
330
2DCF
100
AcDbXrecord
 10
0.0
 20
0.0
 30
0.0
  0
XRECORD
  5
2DE2
102
{ACAD_REACTORS
330
2DCF
102
}
330
2DCF
100
AcDbXrecord
 10
0.0
 20
0.0
 30
0.0
  0
XRECORD
  5
2DE5
102
{ACAD_REACTORS
330
2DCF
102
}
330
2DCF
100
AcDbXrecord
 10
0.0
 20
0.0
 30
0.0
  0
XRECORD
  5
2DE3
102
{ACAD_REACTORS
330
2DCF
102
}
330
2DCF
100
AcDbXrecord
 10
0.0
 20
0.0
 30
0.0
  0
XRECORD
  5
2DE4
102
{ACAD_REACTORS
330
2DCF
102
}
330
2DCF
100
AcDbXrecord
 10
0.0
 20
0.0
 30
0.0
  0
XRECORD
  5
2DE1
102
{ACAD_REACTORS
330
2DCF
102
}
330
2DCF
100
AcDbXrecord
 10
0.0
 20
0.0
 30
0.0
  0
XRECORD
  5
2DDE
102
{ACAD_REACTORS
330
2DCF
102
}
330
2DCF
100
AcDbXrecord
340
0
  0
XRECORD
  5
2DDF
102
{ACAD_REACTORS
330
2DCF
102
}
330
2DCF
100
AcDbXrecord
 70
     0
  0
XRECORD
  5
2DD3
102
{ACAD_REACTORS
330
2DCF
102
}
330
2DCF
100
AcDbXrecord
  1
Sekkei.ctb
  0
XRECORD
  5
2DD0
102
{ACAD_REACTORS
330
2DCF
102
}
330
2DCF
100
AcDbXrecord
 90
        1
  0
XRECORD
  5
2DD1
102
{ACAD_REACTORS
330
2DCF
102
}
330
2DCF
100
AcDbXrecord
 90
       70
  0
XRECORD
  5
2DE9
102
{ACAD_REACTORS
330
2DCF
102
}
330
2DCF
100
AcDbXrecord
340
0
  0
XRECORD
  5
2DEF
102
{ACAD_REACTORS
330
2DCF
102
}
330
2DCF
100
AcDbXrecord
 10
0.0
 20
0.0
 30
0.0
  0
XRECORD
  5
2DEB
102
{ACAD_REACTORS
330
2DCF
102
}
330
2DCF
100
AcDbXrecord
 10
0.0
 20
0.0
 30
0.0
  0
XRECORD
  5
2DEE
102
{ACAD_REACTORS
330
2DCF
102
}
330
2DCF
100
AcDbXrecord
 10
0.0
 20
0.0
 30
0.0
  0
XRECORD
  5
2DEC
102
{ACAD_REACTORS
330
2DCF
102
}
330
2DCF
100
AcDbXrecord
 10
0.0
 20
0.0
 30
0.0
  0
XRECORD
  5
2DED
102
{ACAD_REACTORS
330
2DCF
102
}
330
2DCF
100
AcDbXrecord
 10
0.0
 20
0.0
 30
0.0
  0
XRECORD
  5
2DEA
102
{ACAD_REACTORS
330
2DCF
102
}
330
2DCF
100
AcDbXrecord
 10
0.0
 20
0.0
 30
0.0
  0
XRECORD
  5
2DE7
102
{ACAD_REACTORS
330
2DCF
102
}
330
2DCF
100
AcDbXrecord
340
0
  0
XRECORD
  5
2DE8
102
{ACAD_REACTORS
330
2DCF
102
}
330
2DCF
100
AcDbXrecord
 70
     0
  0
XRECORD
  5
2DDB
102
{ACAD_REACTORS
330
2DCF
102
}
330
2DCF
100
AcDbXrecord
  1
{30FB7929-E5C6-4C6F-AE31-D49CF7A4F1D1}
  0
DICTIONARYVAR
  5
1AB4
102
{ACAD_REACTORS
330
102
102
}
330
102
100
DictionaryVariables
280
     0
  1
1:1
  0
DICTIONARYVAR
  5
1AB3
102
{ACAD_REACTORS
330
102
102
}
330
102
100
DictionaryVariables
280
     0
  1
STANDARD
  0
DICTIONARYVAR
  5
1AB2
102
{ACAD_REACTORS
330
102
102
}
330
102
100
DictionaryVariables
280
     0
  1
STANDARD
  0
DICTIONARYVAR
  5
103
102
{ACAD_REACTORS
330
102
102
}
330
102
100
DictionaryVariables
280
     0
  1
1
  0
DICTIONARYVAR
  5
1AB5
102
{ACAD_REACTORS
330
102
102
}
330
102
100
DictionaryVariables
280
     0
  1
0
  0
DICTIONARYVAR
  5
549
102
{ACAD_REACTORS
330
102
102
}
330
102
100
DictionaryVariables
280
     0
  1
96
  0
DICTIONARY
  5
1A05
330
1A04
100
AcDbDictionary
280
     1
  3
ACAD_XREC_ROUNDTRIP
360
2DAE
  3
BUMPTILE
360
1A07
  3
DIFFUSETILE
360
1A06
  3
OPACITYTILE
360
1A0A
  3
REFLECTIONTILE
360
1A09
  3
REFRACTIONTILE
360
1A0B
  3
SPECULARTILE
360
1A08
  0
DICTIONARY
  5
19FD
330
19FC
100
AcDbDictionary
280
     1
  3
ACAD_XREC_ROUNDTRIP
360
2DAD
  3
BUMPTILE
360
19FF
  3
DIFFUSETILE
360
19FE
  3
OPACITYTILE
360
1A02
  3
REFLECTIONTILE
360
1A01
  3
REFRACTIONTILE
360
1A03
  3
SPECULARTILE
360
1A00
  0
DICTIONARY
  5
1A0D
330
1A0C
100
AcDbDictionary
280
     1
  3
ACAD_XREC_ROUNDTRIP
360
2DAF
  3
BUMPTILE
360
1A0F
  3
DIFFUSETILE
360
1A0E
  3
OPACITYTILE
360
1A12
  3
REFLECTIONTILE
360
1A11
  3
REFRACTIONTILE
360
1A13
  3
SPECULARTILE
360
1A10
  0
DICTIONARY
  5
1A91
330
1A27
100
AcDbDictionary
280
     1
  3
ACAD_ROUNDTRIP_2008_TABLES
360
2D9B
  3
ACAD_XREC_ROUNDTRIP
360
2DB0
  0
XRECORD
  5
2DAE
102
{ACAD_REACTORS
330
1A05
102
}
330
1A05
100
AcDbXrecord
102
MATERIAL
148
0.0
149
0.0
149
0.0
 93
        0
 94
      127
282
     0
 72
     0
 77
     0
171
     0
175
     0
179
     0
273
     0
  0
XRECORD
  5
1A07
102
{ACAD_REACTORS
330
1A05
102
}
330
1A05
100
AcDbXrecord
270
     1
271
     1
  0
XRECORD
  5
1A06
102
{ACAD_REACTORS
330
1A05
102
}
330
1A05
100
AcDbXrecord
270
     1
271
     1
  0
XRECORD
  5
1A0A
102
{ACAD_REACTORS
330
1A05
102
}
330
1A05
100
AcDbXrecord
270
     1
271
     1
  0
XRECORD
  5
1A09
102
{ACAD_REACTORS
330
1A05
102
}
330
1A05
100
AcDbXrecord
270
     1
271
     1
  0
XRECORD
  5
1A0B
102
{ACAD_REACTORS
330
1A05
102
}
330
1A05
100
AcDbXrecord
270
     1
271
     1
  0
XRECORD
  5
1A08
102
{ACAD_REACTORS
330
1A05
102
}
330
1A05
100
AcDbXrecord
270
     1
271
     1
  0
XRECORD
  5
2DAD
102
{ACAD_REACTORS
330
19FD
102
}
330
19FD
100
AcDbXrecord
102
MATERIAL
148
0.0
149
0.0
149
0.0
 93
        0
 94
      127
282
     0
 72
     0
 77
     0
171
     0
175
     0
179
     0
273
     0
  0
XRECORD
  5
19FF
102
{ACAD_REACTORS
330
19FD
102
}
330
19FD
100
AcDbXrecord
270
     1
271
     1
  0
XRECORD
  5
19FE
102
{ACAD_REACTORS
330
19FD
102
}
330
19FD
100
AcDbXrecord
270
     1
271
     1
  0
XRECORD
  5
1A02
102
{ACAD_REACTORS
330
19FD
102
}
330
19FD
100
AcDbXrecord
270
     1
271
     1
  0
XRECORD
  5
1A01
102
{ACAD_REACTORS
330
19FD
102
}
330
19FD
100
AcDbXrecord
270
     1
271
     1
  0
XRECORD
  5
1A03
102
{ACAD_REACTORS
330
19FD
102
}
330
19FD
100
AcDbXrecord
270
     1
271
     1
  0
XRECORD
  5
1A00
102
{ACAD_REACTORS
330
19FD
102
}
330
19FD
100
AcDbXrecord
270
     1
271
     1
  0
XRECORD
  5
2DAF
102
{ACAD_REACTORS
330
1A0D
102
}
330
1A0D
100
AcDbXrecord
102
MATERIAL
148
0.0
149
0.0
149
0.0
 93
        0
 94
      127
282
     0
 72
     0
 77
     0
171
     0
175
     0
179
     0
273
     0
  0
XRECORD
  5
1A0F
102
{ACAD_REACTORS
330
1A0D
102
}
330
1A0D
100
AcDbXrecord
270
     1
271
     1
  0
XRECORD
  5
1A0E
102
{ACAD_REACTORS
330
1A0D
102
}
330
1A0D
100
AcDbXrecord
270
     1
271
     1
  0
XRECORD
  5
1A12
102
{ACAD_REACTORS
330
1A0D
102
}
330
1A0D
100
AcDbXrecord
270
     1
271
     1
  0
XRECORD
  5
1A11
102
{ACAD_REACTORS
330
1A0D
102
}
330
1A0D
100
AcDbXrecord
270
     1
271
     1
  0
XRECORD
  5
1A13
102
{ACAD_REACTORS
330
1A0D
102
}
330
1A0D
100
AcDbXrecord
270
     1
271
     1
  0
XRECORD
  5
1A10
102
{ACAD_REACTORS
330
1A0D
102
}
330
1A0D
100
AcDbXrecord
270
     1
271
     1
  0
ACAD_PROXY_OBJECT
  5
2D9B
102
{ACAD_REACTORS
330
1A91
102
}
330
1A91
100
AcDbProxyObject
 90
      499
 91
      510
 93
     5304
310
40D054060020000020000003200101A000080002A5058000000C100000000000000340FD012E07A17AD46E2B8FCB81E85EB51B8AE3F2E07A17AD46E2B8FCB81E85EB51B8AE3F02B5E8DC0F42B1CFC0AD7A3703D0AC73F419019018000000C1003FBFFFFFE02B5E8DC0F42A9CFD029018000000C1003FBFFFFFE02B5E8DC0F4
310
2A9CFD049018000000C1003FBFFFFFE02B5E8DC0F42A9CFD089018000000C1003FBFFFFFE02B5E8DC0F42A9CFD109018000000C1003FBFFFFFE02B5E8DC0F42A9CFD209018000000C1003FBFFFFFE02B5E8DC0F42A9CFD01405075F5449544C450041501A8000000C800406800020000A9416000000304000AD7A3703D0AC7
310
3F404B81E85EB51B8AE3F2E07A17AD46E2B8FCB81E85EB51B8AE3F2E07A17AD46E2B8FC0AD7A3703D0AC73F02B5E8DC0F42B1CFD0640640600000030400FEFFFFFF80AD7A3703D0AA73F40A40600000030400FEFFFFFF80AD7A3703D0AA73F41240600000030400FEFFFFFF80AD7A3703D0AA73F42240600000030400FEFFF
310
FFF80AD7A3703D0AA73F44240600000030400FEFFFFFF80AD7A3703D0AA73F48240600000030400FEFFFFFF80AD7A3703D0AA73F409014217D2115051115480105406A0000003200101A000080002A5028000000C10002B5E8DC0F42B1CFD012E07A17AD46E2B8FCB81E85EB51B8AE3F2E07A17AD46E2B8FCB81E85EB51B8A
310
E3F02B5E8DC0F42B1CFC0AD7A3703D0AC73F419019018000000C1003FBFFFFFE02B5E8DC0F42A9CFD029018000000C1003FBFFFFFE02B5E8DC0F42A9CFD049018000000C1003FBFFFFFE02B5E8DC0F42A9CFD089018000000C1003FBFFFFFE02B5E8DC0F42A9CFD109018000000C1003FBFFFFFE02B5E8DC0F42A9CFD20901
310
8000000C1003FBFFFFFE02B5E8DC0F42A9CFD03409065F444154410001
340
16
340
0
340
0
340
0
340
0
340
0
340
0
340
16
340
0
340
0
340
0
340
0
340
0
340
0
340
16
340
0
340
0
340
0
340
0
340
0
340
0
 94
        0
1001
ACAD
1000
AcadProxyRoundTripData
1071
      509
1071
   655383
1070
     0
  0
XRECORD
  5
2DB0
102
{ACAD_REACTORS
330
1A91
102
}
330
1A91
100
AcDbXrecord
102
ACAD_ROUNDTRIP_PRE2007_TABLESTYLE
 90
      512
 91
        0
  1

 92
      512
 93
        0
  2

 94
      512
 95
        0
  3

  0
ENDSEC
  0
EOF
