  0
SECTION
  2
HEADER
  9
$ACADVER
  1
AC1014
  9
$ACADMAINTVER
 70
     9
  9
$DWGCODEPAGE
  3
ANSI_932
  9
$INSBASE
 10
0.0
 20
0.0
 30
0.0
  9
$EXTMIN
 10
39.09821705392539
 20
56.74229556810098
 30
0.0
  9
$EXTMAX
 10
947.4165748929809
 20
444.3552626911584
 30
0.0
  9
$LIMMIN
 10
0.0
 20
0.0
  9
$LIMMAX
 10
297.0
 20
210.0
  9
$ORTHOMODE
 70
     1
  9
$REGENMODE
 70
     1
  9
$FILLMODE
 70
     1
  9
$QTEXTMODE
 70
     0
  9
$MIRRTEXT
 70
     0
  9
$DRAGMODE
 70
     2
  9
$LTSCALE
 40
3.0
  9
$OSMODE
 70
    37
  9
$ATTMODE
 70
     1
  9
$TEXTSIZE
 40
2.0
  9
$TRACEWID
 40
1.0
  9
$TEXTSTYLE
  7
STANDARD
  9
$CLAYER
  8
0
  9
$CELTYPE
  6
BYLAYER
  9
$CECOLOR
 62
   256
  9
$CELTSCALE
 40
1.0
  9
$DELOBJ
 70
     1
  9
$DISPSILH
 70
     0
  9
$DIMSCALE
 40
3.0
  9
$DIMASZ
 40
1.8
  9
$DIMEXO
 40
0.625
  9
$DIMDLI
 40
3.75
  9
$DIMRND
 40
0.0
  9
$DIMDLE
 40
0.0
  9
$DIMEXE
 40
0.8
  9
$DIMTP
 40
0.0
  9
$DIMTM
 40
0.0
  9
$DIMTXT
 40
1.8
  9
$DIMCEN
 40
2.5
  9
$DIMTSZ
 40
0.0
  9
$DIMTOL
 70
     0
  9
$DIMLIM
 70
     0
  9
$DIMTIH
 70
     0
  9
$DIMTOH
 70
     0
  9
$DIMSE1
 70
     0
  9
$DIMSE2
 70
     0
  9
$DIMTAD
 70
     1
  9
$DIMZIN
 70
     8
  9
$DIMBLK
  1

  9
$DIMASO
 70
     1
  9
$DIMSHO
 70
     1
  9
$DIMPOST
  1

  9
$DIMAPOST
  1

  9
$DIMALT
 70
     0
  9
$DIMALTD
 70
     4
  9
$DIMALTF
 40
0.0394
  9
$DIMLFAC
 40
1.0
  9
$DIMTOFL
 70
     1
  9
$DIMTVP
 40
0.0
  9
$DIMTIX
 70
     0
  9
$DIMSOXD
 70
     0
  9
$DIMSAH
 70
     0
  9
$DIMBLK1
  1

  9
$DIMBLK2
  1

  9
$DIMSTYLE
  2
STANDARD
  9
$DIMCLRD
 70
     0
  9
$DIMCLRE
 70
     0
  9
$DIMCLRT
 70
     0
  9
$DIMTFAC
 40
1.0
  9
$DIMGAP
 40
0.75
  9
$DIMJUST
 70
     0
  9
$DIMSD1
 70
     0
  9
$DIMSD2
 70
     0
  9
$DIMTOLJ
 70
     1
  9
$DIMTZIN
 70
     0
  9
$DIMALTZ
 70
     0
  9
$DIMALTTZ
 70
     0
  9
$DIMFIT
 70
     3
  9
$DIMUPT
 70
     0
  9
$DIMUNIT
 70
     8
  9
$DIMDEC
 70
     2
  9
$DIMTDEC
 70
     2
  9
$DIMALTU
 70
     8
  9
$DIMALTTD
 70
     4
  9
$DIMTXSTY
  7
STANDARD
  9
$DIMAUNIT
 70
     0
  9
$LUNITS
 70
     2
  9
$LUPREC
 70
     3
  9
$SKETCHINC
 40
1.0
  9
$FILLETRAD
 40
10.0
  9
$AUNITS
 70
     0
  9
$AUPREC
 70
     2
  9
$MENU
  1
.
  9
$ELEVATION
 40
0.0
  9
$PELEVATION
 40
0.0
  9
$THICKNESS
 40
0.0
  9
$LIMCHECK
 70
     0
  9
$BLIPMODE
 70
     0
  9
$CHAMFERA
 40
0.0
  9
$CHAMFERB
 40
0.0
  9
$CHAMFERC
 40
20.0
  9
$CHAMFERD
 40
0.0
  9
$SKPOLY
 70
     0
  9
$TDCREATE
 40
2454410.563830104
  9
$TDUPDATE
 40
2454425.764213495
  9
$TDINDWG
 40
0.1014741088
  9
$TDUSRTIMER
 40
0.1014741088
  9
$USRTIMER
 70
     1
  9
$ANGBASE
 50
0.0
  9
$ANGDIR
 70
     0
  9
$PDMODE
 70
     0
  9
$PDSIZE
 40
-10.0
  9
$PLINEWID
 40
0.0
  9
$COORDS
 70
     0
  9
$SPLFRAME
 70
     0
  9
$SPLINETYPE
 70
     6
  9
$SPLINESEGS
 70
     8
  9
$ATTDIA
 70
     0
  9
$ATTREQ
 70
     1
  9
$HANDLING
 70
-16383
  9
$HANDSEED
  5
2CA8
  9
$SURFTAB1
 70
     6
  9
$SURFTAB2
 70
     6
  9
$SURFTYPE
 70
     6
  9
$SURFU
 70
     6
  9
$SURFV
 70
     6
  9
$UCSNAME
  2

  9
$UCSORG
 10
0.0
 20
0.0
 30
0.0
  9
$UCSXDIR
 10
1.0
 20
0.0
 30
0.0
  9
$UCSYDIR
 10
0.0
 20
1.0
 30
0.0
  9
$PUCSNAME
  2

  9
$PUCSORG
 10
0.0
 20
0.0
 30
0.0
  9
$PUCSXDIR
 10
1.0
 20
0.0
 30
0.0
  9
$PUCSYDIR
 10
0.0
 20
1.0
 30
0.0
  9
$USERI1
 70
     0
  9
$USERI2
 70
     0
  9
$USERI3
 70
     0
  9
$USERI4
 70
     0
  9
$USERI5
 70
     0
  9
$USERR1
 40
0.0
  9
$USERR2
 40
0.0
  9
$USERR3
 40
0.0
  9
$USERR4
 40
0.0
  9
$USERR5
 40
0.0
  9
$WORLDVIEW
 70
     1
  9
$SHADEDGE
 70
     3
  9
$SHADEDIF
 70
    70
  9
$TILEMODE
 70
     1
  9
$MAXACTVP
 70
    48
  9
$PINSBASE
 10
0.0
 20
0.0
 30
0.0
  9
$PLIMCHECK
 70
     0
  9
$PEXTMIN
 10
0.0
 20
0.0
 30
0.0
  9
$PEXTMAX
 10
0.0
 20
0.0
 30
0.0
  9
$PLIMMIN
 10
0.0
 20
0.0
  9
$PLIMMAX
 10
12.0
 20
9.0
  9
$UNITMODE
 70
     0
  9
$VISRETAIN
 70
     1
  9
$PLINEGEN
 70
     0
  9
$PSLTSCALE
 70
     1
  9
$TREEDEPTH
 70
  3020
  9
$PICKSTYLE
 70
     1
  9
$CMLSTYLE
  2
STANDARD
  9
$CMLJUST
 70
     0
  9
$CMLSCALE
 40
1.0
  9
$PROXYGRAPHICS
 70
     1
  9
$MEASUREMENT
 70
     0
  0
ENDSEC
  0
SECTION
  2
CLASSES
  0
CLASS
  1
DICTIONARYVAR
  2
AcDbDictionaryVar
  3
AutoCAD 2000
 90
        0
280
     0
281
     0
  0
CLASS
  1
ACDBDICTIONARYWDFLT
  2
AcDbDictionaryWithDefault
  3
AutoCAD 2000
 90
        0
280
     0
281
     0
  0
CLASS
  1
ACDBPLACEHOLDER
  2
AcDbPlaceHolder
  3
AutoCAD 2000
 90
        0
280
     0
281
     0
  0
CLASS
  1
LAYOUT
  2
AcDbLayout
  3
AutoCAD 2000
 90
        0
280
     0
281
     0
  0
CLASS
  1
MATERIAL
  2
AcDbMaterial
  3
ObjectDBX Classes
 90
     1153
280
     0
281
     0
  0
CLASS
  1
VISUALSTYLE
  2
AcDbVisualStyle
  3
ObjectDBX Classes
 90
     4095
280
     0
281
     0
  0
CLASS
  1
TABLESTYLE
  2
AcDbTableStyle
  3
ObjectDBX Classes
 90
     4095
280
     0
281
     0
  0
CLASS
  1
SCALE
  2
AcDbScale
  3
ObjectDBX Classes
 90
     1153
280
     0
281
     0
  0
CLASS
  1
MLEADERSTYLE
  2
AcDbMLeaderStyle
  3
ACDB_MLEADERSTYLE_CLASS
 90
     4095
280
     0
281
     0
  0
CLASS
  1
CELLSTYLEMAP
  2
AcDbCellStyleMap
  3
ObjectDBX Classes
 90
     1152
280
     0
281
     0
  0
CLASS
  1
ACAD_PROXY_OBJECT_WRAPPER
  2
AcDbProxyObjectWrapper
  3
AutoCAD 2000
 90
        0
280
     0
281
     0
  0
CLASS
  1
LONG_TRANSACTION
  2
AcDbLongTransaction
  3
AutoCAD 2000
 90
        0
280
     0
281
     0
  0
CLASS
  1
LWPOLYLINE
  2
AcDbPolyline
  3
AutoCAD 2000
 90
        0
280
     0
281
     1
  0
CLASS
  1
HATCH
  2
AcDbHatch
  3
AutoCAD 2000
 90
        0
280
     0
281
     1
  0
CLASS
  1
XRECORD
  2
AcDbXrecord
  3
AutoCAD 2000
 90
        0
280
     0
281
     0
  0
ENDSEC
  0
SECTION
  2
TABLES
  0
TABLE
  2
VPORT
  5
6E
102
{ACAD_XDICTIONARY
360
1A8C
102
}
330
0
100
AcDbSymbolTable
 70
     2
  0
VPORT
  5
2C82
330
6E
100
AcDbSymbolTableRecord
100
AcDbViewportTableRecord
  2
*ACTIVE
 70
     0
 10
0.0
 20
0.0
 11
1.0
 21
1.0
 12
560.7772315247926
 22
240.7291632218454
 13
0.0
 23
0.0
 14
10.0
 24
10.0
 15
10.0
 25
10.0
 16
0.0
 26
0.0
 36
1.0
 17
0.0
 27
0.0
 37
0.0
 40
597.6958464923542
 41
1.753504672897196
 42
50.0
 43
0.0
 44
0.0
 50
0.0
 51
0.0
 71
     0
 72
   100
 73
     1
 74
     3
 75
     0
 76
     0
 77
     0
 78
     0
  0
ENDTAB
  0
TABLE
  2
LTYPE
  5
69
330
0
100
AcDbSymbolTable
 70
     5
  0
LTYPE
  5
6A
330
69
100
AcDbSymbolTableRecord
100
AcDbLinetypeTableRecord
  2
BYBLOCK
 70
     0
  3

 72
    65
 73
     0
 40
0.0
  0
LTYPE
  5
6B
330
69
100
AcDbSymbolTableRecord
100
AcDbLinetypeTableRecord
  2
BYLAYER
 70
     0
  3

 72
    65
 73
     0
 40
0.0
  0
LTYPE
  5
8
330
69
100
AcDbSymbolTableRecord
100
AcDbLinetypeTableRecord
  2
CONTINUOUS
 70
     0
  3
Solid line
 72
    65
 73
     0
 40
0.0
  0
LTYPE
  5
27C
330
69
100
AcDbSymbolTableRecord
100
AcDbLinetypeTableRecord
  2
SEKKEI_A2_
 70
     0
  3
center(A2)  ____ _ ____ _ ____ _ ____ _ ____ _ 
 72
    65
 73
     4
 40
14.28749999999999
 49
9.525
 74
     0
 49
-1.587499999999999
 74
     0
 49
1.587499999999999
 74
     0
 49
-1.587499999999999
 74
     0
  0
LTYPE
  5
7F0
330
69
100
AcDbSymbolTableRecord
100
AcDbLinetypeTableRecord
  2
HIDDEN3
 70
     0
  3
Hidden (.3x) _ _ _ _ _ _ _ _ _ _ _ _ _ _ _ _ _
 72
    65
 73
     2
 40
2.857499999999999
 49
1.905
 74
     0
 49
-0.9525
 74
     0
  0
LTYPE
  5
AE4
330
69
100
AcDbSymbolTableRecord
100
AcDbLinetypeTableRecord
  2
CENS
 70
     0
  3
(一点鎖線１)---- - ---- - ---- - ---- - ---- - 
 72
    65
 73
     4
 40
7.0
 49
4.0
 74
     0
 49
-1.0
 74
     0
 49
1.0
 74
     0
 49
-1.0
 74
     0
  0
ENDTAB
  0
TABLE
  2
LAYER
  5
66
102
{ACAD_XDICTIONARY
360
AE5
102
}
330
0
100
AcDbSymbolTable
 70
     9
  0
LAYER
  5
5E
102
{ACAD_XDICTIONARY
360
1A6F
102
}
330
66
100
AcDbSymbolTableRecord
100
AcDbLayerTableRecord
  2
0
 70
     0
 62
     7
  6
CONTINUOUS
  0
LAYER
  5
3E
102
{ACAD_XDICTIONARY
360
1A71
102
}
330
66
100
AcDbSymbolTableRecord
100
AcDbLayerTableRecord
  2
CENTER
 70
     0
 62
     3
  6
SEKKEI_A2_
  0
LAYER
  5
2B5
102
{ACAD_XDICTIONARY
360
1A77
102
}
330
66
100
AcDbSymbolTableRecord
100
AcDbLayerTableRecord
  2
HIDS
 70
     0
 62
     1
  6
HIDDEN3
  0
LAYER
  5
2BA
102
{ACAD_XDICTIONARY
360
1A79
102
}
330
66
100
AcDbSymbolTableRecord
100
AcDbLayerTableRecord
  2
HOJO
 70
     0
 62
     4
  6
CONTINUOUS
  0
LAYER
  5
3FA
102
{ACAD_XDICTIONARY
360
1A7D
102
}
330
66
100
AcDbSymbolTableRecord
100
AcDbLayerTableRecord
  2
TITLE
 70
     0
 62
     4
  6
CONTINUOUS
  0
ENDTAB
  0
TABLE
  2
STYLE
  5
67
330
0
100
AcDbSymbolTable
 70
     2
  0
STYLE
  5
16
330
67
100
AcDbSymbolTableRecord
100
AcDbTextStyleTableRecord
  2
STANDARD
 70
     0
 40
0.0
 41
1.0
 50
0.0
 71
     0
 42
2.0
  3
simplex.shx
  4
extfont.shx
  0
ENDTAB
  0
TABLE
  2
VIEW
  5
6C
330
0
100
AcDbSymbolTable
 70
     0
  0
ENDTAB
  0
TABLE
  2
UCS
  5
6D
330
0
100
AcDbSymbolTable
 70
     0
  0
ENDTAB
  0
TABLE
  2
APPID
  5
70
330
0
100
AcDbSymbolTable
 70
     3
  0
APPID
  5
71
330
70
100
AcDbSymbolTableRecord
100
AcDbRegAppTableRecord
  2
ACAD
 70
     0
  0
APPID
  5
1733
330
70
100
AcDbSymbolTableRecord
100
AcDbRegAppTableRecord
  2
ACAD_MLEADERVER
 70
     0
  0
APPID
  5
1A66
330
70
100
AcDbSymbolTableRecord
100
AcDbRegAppTableRecord
  2
ACAD_EXEMPT_FROM_CAD_STANDARDS
 70
     0
  0
ENDTAB
  0
TABLE
  2
DIMSTYLE
  5
72
330
0
100
AcDbSymbolTable
 70
     1
  0
DIMSTYLE
105
73
330
72
100
AcDbSymbolTableRecord
100
AcDbDimStyleTableRecord
  2
STANDARD
 70
     0
  3

  4

  5

  6

  7

 40
3.0
 41
1.8
 42
0.625
 43
3.75
 44
0.8
 45
0.0
 46
0.0
 47
0.0
 48
0.0
140
1.8
141
2.5
142
0.0
143
0.0394
144
1.0
145
0.0
146
1.0
147
0.75
 71
     0
 72
     0
 73
     0
 74
     0
 75
     0
 76
     0
 77
     1
 78
     8
170
     0
171
     4
172
     1
173
     0
174
     0
175
     0
176
     0
177
     0
178
     0
270
     8
271
     2
272
     2
273
     8
274
     4
340
16
275
     0
280
     0
281
     0
282
     0
283
     1
284
     0
285
     0
286
     0
287
     3
288
     0
  0
ENDTAB
  0
TABLE
  2
BLOCK_RECORD
  5
1
330
0
100
AcDbSymbolTable
 70
    47
  0
BLOCK_RECORD
  5
2
102
{ACAD_XDICTIONARY
360
2CA4
102
}
330
1
100
AcDbSymbolTableRecord
100
AcDbBlockTableRecord
  2
*MODEL_SPACE
  0
BLOCK_RECORD
  5
2C7D
102
{ACAD_XDICTIONARY
360
2CA6
102
}
330
1
100
AcDbSymbolTableRecord
100
AcDbBlockTableRecord
  2
*PAPER_SPACE
  0
ENDTAB
  0
ENDSEC
  0
SECTION
  2
BLOCKS
  0
BLOCK
  5
5D
330
2
100
AcDbEntity
  8
0
100
AcDbBlockBegin
  2
*MODEL_SPACE
 70
     0
 10
0.0
 20
0.0
 30
0.0
  3
*MODEL_SPACE
  1

  0
ENDBLK
  5
5F
330
2
100
AcDbEntity
  8
0
100
AcDbBlockEnd
  0
BLOCK
  5
2C7F
330
2C7D
100
AcDbEntity
 67
     1
  8
0
100
AcDbBlockBegin
  2
*PAPER_SPACE
 70
     0
 10
0.0
 20
0.0
 30
0.0
  3
*PAPER_SPACE
  1

  0
ENDBLK
  5
2C80
330
2C7D
100
AcDbEntity
 67
     1
  8
0
100
AcDbBlockEnd
  0
ENDSEC
  0
SECTION
  2
ENTITIES
  0
TEXT
  5
F30
330
2
100
AcDbEntity
  8
TITLE
100
AcDbText
 10
338.1164510044429
 20
399.6395651667124
 30
0.0
 40
7.5
  1
AFCZ15L-3~5M400S1
100
AcDbText
  0
TEXT
  5
F31
330
2
100
AcDbEntity
  8
TITLE
100
AcDbText
 10
338.1164510044429
 20
386.8895651667124
 30
0.0
 40
7.5
  1
AFCZ15L-3~5L400S1
100
AcDbText
  0
LINE
  5
F33
330
2
100
AcDbEntity
  8
CENTER
100
AcDbLine
 10
514.4227715541725
 20
110.7422955681021
 30
0.0
 11
693.4227715541712
 21
110.7422955681021
 31
0.0
  0
LINE
  5
F38
330
2
100
AcDbEntity
  8
0
100
AcDbLine
 10
640.4227715498019
 20
432.3552626908649
 30
0.0
 11
640.4227715498019
 21
360.3552626908648
 31
0.0
  0
LINE
  5
F3D
330
2
100
AcDbEntity
  8
CENTER
100
AcDbLine
 10
522.6060357777793
 20
396.3552626908648
 30
0.0
 11
693.4227715541712
 21
396.355262690865
 31
0.0
  0
LINE
  5
F4A
330
2
100
AcDbEntity
  8
0
100
AcDbLine
 10
640.4227715541707
 20
147.2422955681016
 30
0.0
 11
640.4227715541707
 21
74.24229556810189
 31
0.0
  0
LINE
  5
FCE
330
2
100
AcDbEntity
  8
CENTER
100
AcDbLine
 10
210.0982170539217
 20
110.7422955681011
 30
0.0
 11
39.09821705392539
 21
110.7422955681009
 31
0.0
  0
LINE
  5
FD0
330
2
100
AcDbEntity
  8
0
100
AcDbLine
 10
92.0982170539254
 20
74.24229556810115
 30
0.0
 11
92.0982170539254
 21
147.2422955681011
 31
0.0
  0
LINE
  5
1226
330
2
100
AcDbEntity
  8
CENTER
100
AcDbLine
 10
947.4165748929809
 20
110.7422955680932
 30
0.0
 11
801.4165748926917
 21
110.7422955680932
 31
0.0
  0
LINE
  5
1227
330
2
100
AcDbEntity
  8
CENTER
100
AcDbLine
 10
899.4165748926931
 20
157.2422955680914
 30
0.0
 11
899.4165748926928
 21
64.24229556809507
 31
0.0
  0
LINE
  5
1228
330
2
100
AcDbEntity
  8
0
100
AcDbLine
 10
861.4165748926895
 20
146.223046934541
 30
0.0
 11
861.4165748926886
 21
75.26154420164551
 31
0.0
  0
LINE
  5
1229
330
2
100
AcDbEntity
  8
0
100
AcDbLine
 10
856.4165748926905
 20
140.7422955680898
 30
0.0
 11
856.4165748926905
 21
80.74229556809006
 31
0.0
  0
LINE
  5
122A
330
2
100
AcDbEntity
  8
0
100
AcDbLine
 10
861.4165748926906
 20
140.7422955680898
 30
0.0
 11
856.4165748926905
 21
140.7422955680898
 31
0.0
  0
LINE
  5
122B
330
2
100
AcDbEntity
  8
0
100
AcDbLine
 10
861.4165748926906
 20
80.74229556809006
 30
0.0
 11
856.4165748926905
 21
80.74229556809006
 31
0.0
  0
LINE
  5
122C
330
2
100
AcDbEntity
  8
0
100
AcDbLine
 10
843.4165748926869
 20
132.810918018487
 30
0.0
 11
843.4165748926869
 21
88.67367311771488
 31
0.0
  0
LINE
  5
122D
330
2
100
AcDbEntity
  8
0
100
AcDbLine
 10
854.486373886092
 20
135.1288614670699
 30
0.0
 11
845.3467758992816
 21
134.8096996725249
 31
0.0
  0
LINE
  5
122E
330
2
100
AcDbEntity
  8
0
100
AcDbLine
 10
854.486373886092
 20
86.35572966913299
 30
0.0
 11
845.3467758992816
 21
86.67489146367699
 31
0.0
  0
ARC
  5
122F
330
2
100
AcDbEntity
  8
0
100
AcDbCircle
 10
845.4165748926868
 20
132.810918018487
 30
0.0
 40
2.0
100
AcDbArc
 50
92.00000000000365
 51
180.0
  0
ARC
  5
1230
330
2
100
AcDbEntity
  8
0
100
AcDbCircle
 10
845.4165748926868
 20
88.67367311771488
 30
0.0
 40
2.0
100
AcDbArc
 50
180.0
 51
267.9999999999963
  0
ARC
  5
1231
330
2
100
AcDbEntity
  8
0
100
AcDbCircle
 10
854.4165748926868
 20
84.35694801509511
 30
0.0
 40
2.0
100
AcDbArc
 50
0.0
 51
87.99999999999636
  0
ARC
  5
1232
330
2
100
AcDbEntity
  8
0
100
AcDbCircle
 10
854.4165748926868
 20
137.1276431211077
 30
0.0
 40
2.0
100
AcDbArc
 50
272.0000000000036
 51
0.0
  0
LINE
  5
1233
330
2
100
AcDbEntity
  8
0
100
AcDbLine
 10
866.0408307200576
 20
75.22118893241088
 30
0.0
 11
861.4165748926886
 21
75.26154420164551
 31
0.0
  0
LINE
  5
1234
330
2
100
AcDbEntity
  8
0
100
AcDbLine
 10
866.142703059152
 20
146.26429123021
 30
0.0
 11
861.4165748926895
 21
146.223046934541
 31
0.0
  0
ARC
  5
1235
330
2
100
AcDbEntity
  8
0
100
AcDbCircle
 10
930.4165748926941
 20
141.811257782706
 30
0.0
 40
5.0
100
AcDbArc
 50
44.4412008770672
 51
89.20427644728171
  0
LINE
  5
1236
330
2
100
AcDbEntity
  8
0
100
AcDbLine
 10
930.486012640147
 20
146.8107755993788
 30
0.0
 11
899.4165748926942
 21
147.2422955680914
 31
0.0
  0
LINE
  5
1237
330
2
100
AcDbEntity
  8
0
100
AcDbLine
 10
868.3471371452458
 20
146.8107755993779
 30
0.0
 11
899.4165748926922
 21
147.2422955680914
 31
0.0
  0
ARC
  5
1238
330
2
100
AcDbEntity
  8
0
100
AcDbCircle
 10
868.4165748926996
 20
141.8112577827051
 30
0.0
 40
5.0
100
AcDbArc
 50
90.79572355271826
 51
135.5587991191879
  0
ARC
  5
1239
330
2
100
AcDbEntity
  8
0
100
AcDbCircle
 10
930.4165748926941
 20
79.67333335348041
 30
0.0
 40
5.0
100
AcDbArc
 50
270.7957235527183
 51
315.558799121597
  0
LINE
  5
123A
330
2
100
AcDbEntity
  8
0
100
AcDbLine
 10
930.486012640147
 20
74.67381553680763
 30
0.0
 11
899.4165748926942
 21
74.24229556809507
 31
0.0
  0
LINE
  5
123B
330
2
100
AcDbEntity
  8
0
100
AcDbLine
 10
868.3471371452458
 20
74.67381553680855
 30
0.0
 11
899.4165748926922
 21
74.24229556809507
 31
0.0
  0
ARC
  5
123C
330
2
100
AcDbEntity
  8
0
100
AcDbCircle
 10
868.4165748926996
 20
79.67333335348133
 30
0.0
 40
5.0
100
AcDbArc
 50
224.4412008821477
 51
269.2042764472816
  0
LINE
  5
123D
330
2
100
AcDbEntity
  8
0
100
AcDbLine
 10
936.4165748929815
 20
133.7422955680941
 30
0.0
 11
937.4165748929824
 21
133.1649452989043
 31
0.0
  0
LINE
  5
123E
330
2
100
AcDbEntity
  8
0
100
AcDbLine
 10
936.4165748929824
 20
133.7422955680941
 30
0.0
 11
935.5971304482498
 21
133.7422955680938
 31
0.0
  0
LINE
  5
123F
330
2
100
AcDbEntity
  8
0
100
AcDbLine
 10
937.4165748929815
 20
88.31964583728142
 30
0.0
 11
937.4165748929806
 21
133.1649452989053
 31
0.0
  0
LINE
  5
1240
330
2
100
AcDbEntity
  8
0
100
AcDbLine
 10
936.4165748929815
 20
87.74229556809235
 30
0.0
 11
937.4165748929824
 21
88.31964583728188
 31
0.0
  0
LINE
  5
1241
330
2
100
AcDbEntity
  8
0
100
AcDbLine
 10
936.4165748929824
 20
87.74229556809235
 30
0.0
 11
935.5971304482492
 21
87.74229556809235
 31
0.0
  0
LINE
  5
1242
330
2
100
AcDbEntity
  8
0
100
AcDbLine
 10
936.4165748929815
 20
133.7422955680941
 30
0.0
 11
936.4165748929824
 21
87.74229556809235
 31
0.0
  0
ARC
  5
124C
330
2
100
AcDbEntity
  8
0
100
AcDbCircle
 10
650.4227715498019
 20
430.3552626908649
 30
0.0
 40
2.0
100
AcDbArc
 50
40.04151653423844
 51
90.0
  0
ARC
  5
124D
330
2
100
AcDbEntity
  8
0
100
AcDbCircle
 10
650.4227715498019
 20
362.355262690865
 30
0.0
 40
2.0
100
AcDbArc
 50
270.0
 51
319.9584834657615
  0
LINE
  5
124E
330
2
100
AcDbEntity
  8
0
100
AcDbLine
 10
659.422771549802
 20
393.3552626908646
 30
0.0
 11
659.422771549802
 21
378.8552626908646
 31
0.0
  0
LINE
  5
124F
330
2
100
AcDbEntity
  8
0
100
AcDbLine
 10
652.4227715498001
 20
423.215262690865
 30
0.0
 11
652.4227715498019
 21
369.4952626908649
 31
0.0
  0
LINE
  5
1250
330
2
100
AcDbEntity
  8
CENTER
  6
CENS
100
AcDbLine
 10
669.4227715498019
 20
398.755262690865
 30
0.0
 11
669.4227715498019
 21
372.955262690865
 31
0.0
  0
LINE
  5
1251
330
2
100
AcDbEntity
  8
0
100
AcDbLine
 10
668.4227715498019
 20
423.3552626908649
 30
0.0
 11
668.4227715498019
 21
399.355262690865
 31
0.0
  0
LINE
  5
1252
330
2
100
AcDbEntity
  8
0
100
AcDbLine
 10
657.9539285058291
 20
426.3552626908649
 30
0.0
 11
683.4227715498019
 21
426.3552626908649
 31
0.0
  0
ARC
  5
1253
330
2
100
AcDbEntity
  8
0
100
AcDbCircle
 10
671.4227715498019
 20
423.3552626908649
 30
0.0
 40
3.0
100
AcDbArc
 50
90.0
 51
180.0
  0
ARC
  5
1254
330
2
100
AcDbEntity
  8
0
100
AcDbCircle
 10
665.4227715498019
 20
399.355262690865
 30
0.0
 40
3.0
100
AcDbArc
 50
270.0
 51
0.0
  0
ARC
  5
1255
330
2
100
AcDbEntity
  8
0
100
AcDbCircle
 10
662.4227715498019
 20
393.3552626908646
 30
0.0
 40
3.0
100
AcDbArc
 50
90.0
 51
180.0
  0
LINE
  5
1256
330
2
100
AcDbEntity
  8
0
100
AcDbLine
 10
662.4227715498019
 20
396.355262690865
 30
0.0
 11
665.4227715498019
 21
396.355262690865
 31
0.0
  0
LINE
  5
1257
330
2
100
AcDbEntity
  8
0
100
AcDbLine
 10
657.9539285058291
 20
366.355262690865
 30
0.0
 11
683.4227715498019
 21
366.355262690865
 31
0.0
  0
LINE
  5
1258
330
2
100
AcDbEntity
  8
CENTER
  6
CENS
100
AcDbLine
 10
656.522771549802
 20
385.855262690865
 30
0.0
 11
682.3227715498019
 21
385.855262690865
 31
0.0
  0
ARC
  5
1259
330
2
100
AcDbEntity
  8
0
100
AcDbCircle
 10
662.4227715498019
 20
378.8552626908646
 30
0.0
 40
3.0
100
AcDbArc
 50
180.0
 51
270.0
  0
ARC
  5
125A
330
2
100
AcDbEntity
  8
0
100
AcDbCircle
 10
665.4227715498019
 20
372.855262690865
 30
0.0
 40
3.0
100
AcDbArc
 50
0.0
 51
90.0
  0
LINE
  5
125B
330
2
100
AcDbEntity
  8
0
100
AcDbLine
 10
662.4227715498019
 20
375.855262690865
 30
0.0
 11
665.4227715498019
 21
375.855262690865
 31
0.0
  0
LINE
  5
125C
330
2
100
AcDbEntity
  8
0
100
AcDbLine
 10
668.4227715498019
 20
372.855262690865
 30
0.0
 11
668.4227715498019
 21
369.355262690865
 31
0.0
  0
ARC
  5
125D
330
2
100
AcDbEntity
  8
0
100
AcDbCircle
 10
671.4227715498019
 20
369.355262690865
 30
0.0
 40
3.0
100
AcDbArc
 50
180.0
 51
270.0
  0
LINE
  5
125E
330
2
100
AcDbEntity
  8
0
100
AcDbLine
 10
640.4227715498019
 20
432.3552626908649
 30
0.0
 11
650.4227715498019
 21
432.3552626908649
 31
0.0
  0
LINE
  5
125F
330
2
100
AcDbEntity
  8
0
100
AcDbLine
 10
640.4227715498019
 20
360.355262690865
 30
0.0
 11
650.4227715498019
 21
360.355262690865
 31
0.0
  0
LINE
  5
1260
330
2
100
AcDbEntity
  8
0
100
AcDbLine
 10
683.4227715498019
 20
426.3552626908649
 30
0.0
 11
683.4227715498019
 21
366.355262690865
 31
0.0
  0
LINE
  5
1261
330
2
100
AcDbEntity
  8
0
100
AcDbLine
 10
657.6539285058299
 20
369.4952626908649
 30
0.0
 11
652.9539285058291
 21
369.4952626908649
 31
0.0
  0
LINE
  5
1262
330
2
100
AcDbEntity
  8
0
100
AcDbLine
 10
652.9539285058291
 20
360.9952626908649
 30
0.0
 11
657.6539285058299
 21
360.9952626908649
 31
0.0
  0
LINE
  5
1263
330
2
100
AcDbEntity
  8
CENTER
  6
CENS
100
AcDbLine
 10
635.4227715498019
 20
365.2452626908649
 30
0.0
 11
662.8797444798839
 21
365.2452626908649
 31
0.0
  0
LINE
  5
1264
330
2
100
AcDbEntity
  8
0
100
AcDbLine
 10
657.9539285058291
 20
361.5148779331353
 30
0.0
 11
657.9539285058291
 21
368.9756474485944
 31
0.0
  0
LINE
  5
1265
330
2
100
AcDbEntity
  8
0
100
AcDbLine
 10
657.6539285058299
 20
369.4952626908649
 30
0.0
 11
657.6539285058299
 21
360.9952626908649
 31
0.0
  0
LINE
  5
1266
330
2
100
AcDbEntity
  8
0
100
AcDbLine
 10
657.6539285058299
 20
369.4952626908649
 30
0.0
 11
657.9539285058291
 21
368.9756474485944
 31
0.0
  0
LINE
  5
1267
330
2
100
AcDbEntity
  8
0
100
AcDbLine
 10
657.9539285058291
 20
361.5148779331353
 30
0.0
 11
657.6539285058299
 21
360.9952626908649
 31
0.0
  0
LINE
  5
1268
330
2
100
AcDbEntity
  8
0
100
AcDbLine
 10
652.9539285058291
 20
360.9952626908649
 30
0.0
 11
651.9539285058291
 21
360.9952626908649
 31
0.0
  0
LINE
  5
1269
330
2
100
AcDbEntity
  8
0
100
AcDbLine
 10
651.9539285058291
 20
360.9952626908649
 30
0.0
 11
651.9539285058291
 21
369.4952626908649
 31
0.0
  0
LINE
  5
126A
330
2
100
AcDbEntity
  8
0
100
AcDbLine
 10
651.9539285058291
 20
369.4952626908649
 30
0.0
 11
652.9539285058291
 21
369.4952626908649
 31
0.0
  0
LINE
  5
126B
330
2
100
AcDbEntity
  8
0
100
AcDbLine
 10
652.9539285058291
 20
369.4952626908649
 30
0.0
 11
652.9539285058291
 21
360.9952626908649
 31
0.0
  0
LINE
  5
126C
330
2
100
AcDbEntity
  8
0
100
AcDbLine
 10
652.9539285058291
 20
369.4952626908649
 30
0.0
 11
652.9539285058291
 21
360.9952626908649
 31
0.0
  0
LINE
  5
126D
330
2
100
AcDbEntity
  8
0
100
AcDbLine
 10
657.6539285058299
 20
423.215262690865
 30
0.0
 11
652.9539285058291
 21
423.215262690865
 31
0.0
  0
LINE
  5
126E
330
2
100
AcDbEntity
  8
0
100
AcDbLine
 10
652.9539285058291
 20
431.715262690865
 30
0.0
 11
657.6539285058299
 21
431.715262690865
 31
0.0
  0
LINE
  5
126F
330
2
100
AcDbEntity
  8
CENTER
  6
CENS
100
AcDbLine
 10
635.4227715498019
 20
427.465262690865
 30
0.0
 11
662.8797444798839
 21
427.465262690865
 31
0.0
  0
LINE
  5
1270
330
2
100
AcDbEntity
  8
0
100
AcDbLine
 10
657.9539285058291
 20
431.1956474485945
 30
0.0
 11
657.9539285058291
 21
423.7348779331354
 31
0.0
  0
LINE
  5
1271
330
2
100
AcDbEntity
  8
0
100
AcDbLine
 10
657.6539285058299
 20
423.215262690865
 30
0.0
 11
657.6539285058299
 21
431.715262690865
 31
0.0
  0
LINE
  5
1272
330
2
100
AcDbEntity
  8
0
100
AcDbLine
 10
657.6539285058299
 20
423.215262690865
 30
0.0
 11
657.9539285058291
 21
423.7348779331354
 31
0.0
  0
LINE
  5
1273
330
2
100
AcDbEntity
  8
0
100
AcDbLine
 10
657.9539285058291
 20
431.1956474485945
 30
0.0
 11
657.6539285058299
 21
431.715262690865
 31
0.0
  0
LINE
  5
1274
330
2
100
AcDbEntity
  8
0
100
AcDbLine
 10
652.9539285058291
 20
431.715262690865
 30
0.0
 11
651.9539285058291
 21
431.715262690865
 31
0.0
  0
LINE
  5
1275
330
2
100
AcDbEntity
  8
0
100
AcDbLine
 10
651.9539285058291
 20
431.715262690865
 30
0.0
 11
651.9539285058291
 21
423.215262690865
 31
0.0
  0
LINE
  5
1276
330
2
100
AcDbEntity
  8
0
100
AcDbLine
 10
651.9539285058291
 20
423.215262690865
 30
0.0
 11
652.9539285058291
 21
423.215262690865
 31
0.0
  0
LINE
  5
1277
330
2
100
AcDbEntity
  8
0
100
AcDbLine
 10
652.9539285058291
 20
423.215262690865
 30
0.0
 11
652.9539285058291
 21
431.715262690865
 31
0.0
  0
LINE
  5
1278
330
2
100
AcDbEntity
  8
0
100
AcDbLine
 10
652.9539285058291
 20
423.215262690865
 30
0.0
 11
652.9539285058291
 21
431.715262690865
 31
0.0
  0
CIRCLE
  5
1279
330
2
100
AcDbEntity
  8
0
100
AcDbCircle
 10
669.4227715498019
 20
385.855262690865
 30
0.0
 40
9.000006171187123
  0
LINE
  5
127B
330
2
100
AcDbEntity
  8
0
100
AcDbLine
 10
74.86706009789748
 20
137.6022955681011
 30
0.0
 11
79.56706009789821
 21
137.6022955681011
 31
0.0
  0
LINE
  5
127C
330
2
100
AcDbEntity
  8
0
100
AcDbLine
 10
79.56706009789821
 20
146.1022955681011
 30
0.0
 11
74.86706009789748
 21
146.1022955681011
 31
0.0
  0
LINE
  5
127D
330
2
100
AcDbEntity
  8
CENTER
  6
CENS
100
AcDbLine
 10
97.0982170539254
 20
141.8522955681011
 30
0.0
 11
69.64124412384342
 21
141.8522955681011
 31
0.0
  0
LINE
  5
127E
330
2
100
AcDbEntity
  8
0
100
AcDbLine
 10
74.56706009789821
 20
145.5826803258307
 30
0.0
 11
74.56706009789821
 21
138.1219108103716
 31
0.0
  0
LINE
  5
127F
330
2
100
AcDbEntity
  8
0
100
AcDbLine
 10
74.86706009789748
 20
137.6022955681011
 30
0.0
 11
74.86706009789748
 21
146.1022955681011
 31
0.0
  0
LINE
  5
1280
330
2
100
AcDbEntity
  8
0
100
AcDbLine
 10
74.86706009789748
 20
137.6022955681011
 30
0.0
 11
74.56706009789821
 21
138.1219108103716
 31
0.0
  0
LINE
  5
1281
330
2
100
AcDbEntity
  8
0
100
AcDbLine
 10
74.56706009789821
 20
145.5826803258307
 30
0.0
 11
74.86706009789748
 21
146.1022955681011
 31
0.0
  0
LINE
  5
1282
330
2
100
AcDbEntity
  8
0
100
AcDbLine
 10
79.56706009789821
 20
146.1022955681011
 30
0.0
 11
80.5670600978982
 21
146.1022955681011
 31
0.0
  0
LINE
  5
1283
330
2
100
AcDbEntity
  8
0
100
AcDbLine
 10
80.5670600978982
 20
146.1022955681011
 30
0.0
 11
80.5670600978982
 21
137.6022955681011
 31
0.0
  0
LINE
  5
1284
330
2
100
AcDbEntity
  8
0
100
AcDbLine
 10
80.5670600978982
 20
137.6022955681011
 30
0.0
 11
79.56706009789821
 21
137.6022955681011
 31
0.0
  0
LINE
  5
1285
330
2
100
AcDbEntity
  8
0
100
AcDbLine
 10
79.56706009789821
 20
137.6022955681011
 30
0.0
 11
79.56706009789821
 21
146.1022955681011
 31
0.0
  0
LINE
  5
1286
330
2
100
AcDbEntity
  8
0
100
AcDbLine
 10
79.56706009789821
 20
137.6022955681011
 30
0.0
 11
79.56706009789821
 21
146.1022955681011
 31
0.0
  0
ARC
  5
1287
330
2
100
AcDbEntity
  8
0
100
AcDbCircle
 10
75.76379068729773
 20
75.74229556810059
 30
0.0
 40
5.0
100
AcDbArc
 50
8.213210701735501
 51
16.12586214360434
  0
LINE
  5
1288
330
2
100
AcDbEntity
  8
0
100
AcDbLine
 10
80.69229852726028
 20
76.70739075522641
 30
0.0
 11
80.09821705392539
 21
110.742295568101
 31
0.0
  0
LINE
  5
1289
330
2
100
AcDbEntity
  8
0
100
AcDbLine
 10
92.0982170539254
 20
74.74229556810104
 30
0.0
 11
82.691993917574
 21
74.74229556810104
 31
0.0
  0
ARC
  5
128A
330
2
100
AcDbEntity
  8
0
100
AcDbCircle
 10
82.691993917574
 20
76.74229556810104
 30
0.0
 40
2.0
100
AcDbArc
 50
181.0000000000017
 51
270.0
  0
LINE
  5
128B
330
2
100
AcDbEntity
  8
CENTER
  6
CENS
100
AcDbLine
 10
63.0982170539254
 20
121.1422955681011
 30
0.0
 11
63.0982170539254
 21
148.487125132113
 31
0.0
  0
LINE
  5
128C
330
2
100
AcDbEntity
  8
0
100
AcDbLine
 10
80.69229852726028
 20
144.7772003809752
 30
0.0
 11
80.0982170539263
 21
110.742295568101
 31
0.0
  0
LINE
  5
128D
330
2
100
AcDbEntity
  8
0
100
AcDbLine
 10
63.62700208011927
 20
137.7381833373235
 30
0.0
 11
64.09821705392449
 21
110.742295568101
 31
0.0
  0
LINE
  5
128E
330
2
100
AcDbEntity
  8
0
100
AcDbLine
 10
92.0982170539254
 20
110.742295568101
 30
0.0
 11
49.09821705392539
 21
110.742295568101
 31
0.0
  0
LINE
  5
128F
330
2
100
AcDbEntity
  8
0
100
AcDbLine
 10
74.56706009789821
 20
80.74229556810104
 30
0.0
 11
49.09821705392539
 21
80.74229556810104
 31
0.0
  0
LINE
  5
1290
330
2
100
AcDbEntity
  8
0
100
AcDbLine
 10
63.62700208011927
 20
83.74640779887858
 30
0.0
 11
64.09821705392539
 21
110.742295568101
 31
0.0
  0
ARC
  5
1291
330
2
100
AcDbEntity
  8
0
100
AcDbCircle
 10
60.62647331673258
 20
83.74229556810105
 30
0.0
 40
3.0
100
AcDbArc
 50
270.0
 51
358.9999999999982
  0
ARC
  5
1292
330
2
100
AcDbEntity
  8
0
100
AcDbCircle
 10
76.19000210331694
 20
85.97447692255782
 30
0.0
 40
3.0
100
AcDbArc
 50
90.0
 51
178.9999999999721
  0
LINE
  5
1293
330
2
100
AcDbEntity
  8
0
100
AcDbLine
 10
66.71871535025355
 20
88.97447692255781
 30
0.0
 11
76.19000210331694
 21
88.97447692255736
 31
0.0
  0
LINE
  5
1294
330
2
100
AcDbEntity
  8
0
100
AcDbLine
 10
73.19045901784637
 20
86.02683414186975
 30
0.0
 11
73.13251791800837
 21
82.70739075522641
 31
0.0
  0
ARC
  5
1295
330
2
100
AcDbEntity
  8
0
100
AcDbCircle
 10
71.13282252769465
 20
82.74229556810103
 30
0.0
 40
2.0
100
AcDbArc
 50
270.0
 51
358.9999999999721
  0
LINE
  5
1296
330
2
100
AcDbEntity
  8
0
100
AcDbLine
 10
74.56706009789821
 20
140.7422955681014
 30
0.0
 11
49.09821705392539
 21
140.742295568101
 31
0.0
  0
ARC
  5
1297
330
2
100
AcDbEntity
  8
0
100
AcDbCircle
 10
60.62647331673258
 20
137.742295568101
 30
0.0
 40
3.0
100
AcDbArc
 50
1.000000000001775
 51
90.0
  0
ARC
  5
1298
330
2
100
AcDbEntity
  8
0
100
AcDbCircle
 10
82.691993917574
 20
144.742295568101
 30
0.0
 40
2.0
100
AcDbArc
 50
90.0
 51
178.9999999999982
  0
LINE
  5
1299
330
2
100
AcDbEntity
  8
0
100
AcDbLine
 10
92.0982170539254
 20
146.742295568101
 30
0.0
 11
82.691993917574
 21
146.742295568101
 31
0.0
  0
ARC
  5
129A
330
2
100
AcDbEntity
  8
0
100
AcDbCircle
 10
75.76379068729773
 20
145.7422955681014
 30
0.0
 40
5.0
100
AcDbArc
 50
343.8741378563956
 51
351.7867892982579
  0
LINE
  5
129B
330
2
100
AcDbEntity
  8
0
100
AcDbLine
 10
49.09821705392539
 20
80.74229556810104
 30
0.0
 11
49.09821705392539
 21
140.742295568101
 31
0.0
  0
LINE
  5
129C
330
2
100
AcDbEntity
  8
0
100
AcDbLine
 10
74.86706009789748
 20
83.88229556810092
 30
0.0
 11
79.56706009789821
 21
83.88229556810092
 31
0.0
  0
LINE
  5
129D
330
2
100
AcDbEntity
  8
0
100
AcDbLine
 10
79.56706009789821
 20
75.38229556810091
 30
0.0
 11
74.86706009789748
 21
75.38229556810091
 31
0.0
  0
LINE
  5
129E
330
2
100
AcDbEntity
  8
CENTER
  6
CENS
100
AcDbLine
 10
97.0982170539254
 20
79.63229556810091
 30
0.0
 11
69.64124412384342
 21
79.63229556810091
 31
0.0
  0
LINE
  5
129F
330
2
100
AcDbEntity
  8
0
100
AcDbLine
 10
74.56706009789821
 20
75.90191081037136
 30
0.0
 11
74.56706009789821
 21
83.36268032583047
 31
0.0
  0
LINE
  5
12A0
330
2
100
AcDbEntity
  8
0
100
AcDbLine
 10
74.86706009789748
 20
83.88229556810092
 30
0.0
 11
74.86706009789748
 21
75.38229556810091
 31
0.0
  0
LINE
  5
12A1
330
2
100
AcDbEntity
  8
0
100
AcDbLine
 10
74.86706009789748
 20
83.88229556810092
 30
0.0
 11
74.56706009789821
 21
83.36268032583047
 31
0.0
  0
LINE
  5
12A2
330
2
100
AcDbEntity
  8
0
100
AcDbLine
 10
74.56706009789821
 20
75.90191081037136
 30
0.0
 11
74.86706009789748
 21
75.38229556810091
 31
0.0
  0
LINE
  5
12A3
330
2
100
AcDbEntity
  8
0
100
AcDbLine
 10
79.56706009789821
 20
75.38229556810091
 30
0.0
 11
80.5670600978982
 21
75.38229556810091
 31
0.0
  0
LINE
  5
12A4
330
2
100
AcDbEntity
  8
0
100
AcDbLine
 10
80.5670600978982
 20
75.38229556810091
 30
0.0
 11
80.5670600978982
 21
83.88229556810092
 31
0.0
  0
LINE
  5
12A5
330
2
100
AcDbEntity
  8
0
100
AcDbLine
 10
80.5670600978982
 20
83.88229556810092
 30
0.0
 11
79.56706009789821
 21
83.88229556810092
 31
0.0
  0
LINE
  5
12A6
330
2
100
AcDbEntity
  8
0
100
AcDbLine
 10
79.56706009789821
 20
83.88229556810092
 30
0.0
 11
79.56706009789821
 21
75.38229556810091
 31
0.0
  0
LINE
  5
12A7
330
2
100
AcDbEntity
  8
0
100
AcDbLine
 10
79.56706009789821
 20
83.88229556810092
 30
0.0
 11
79.56706009789821
 21
75.38229556810091
 31
0.0
  0
LINE
  5
12A8
330
2
100
AcDbEntity
  8
0
100
AcDbLine
 10
58.09821088273827
 20
144.742295568101
 30
0.0
 11
68.09821088273827
 21
144.742295568101
 31
0.0
  0
ARC
  5
12A9
330
2
100
AcDbEntity
  8
0
100
AcDbCircle
 10
68.09821088273827
 20
140.742295568101
 30
0.0
 40
4.0
100
AcDbArc
 50
0.0
 51
90.0
  0
ARC
  5
12AA
330
2
100
AcDbEntity
  8
0
100
AcDbCircle
 10
58.09821088273827
 20
140.742295568101
 30
0.0
 40
4.0
100
AcDbArc
 50
90.0
 51
180.0
  0
LINE
  5
12AB
330
2
100
AcDbEntity
  8
0
100
AcDbLine
 10
868.3476126780799
 20
74.74229556809189
 30
0.0
 11
930.4855371073056
 21
74.74229556809189
 31
0.0
  0
LINE
  5
12AC
330
2
100
AcDbEntity
  8
0
100
AcDbLine
 10
868.3476126780799
 20
146.7422955680918
 30
0.0
 11
930.4855371073056
 21
146.7422955680918
 31
0.0
  0
CIRCLE
  5
12AD
330
2
100
AcDbEntity
  8
HIDS
100
AcDbCircle
 10
899.4165748926928
 20
110.7422955680918
 30
0.0
 40
30.0
  0
ARC
  5
12AE
330
2
100
AcDbEntity
  8
0
100
AcDbCircle
 10
874.4893183040343
 20
85.74229556809234
 30
0.0
 40
5.0
100
AcDbArc
 50
180.1666666666621
 51
270.0
  0
LINE
  5
12AF
330
2
100
AcDbEntity
  8
CENTER
100
AcDbLine
 10
879.6665748926928
 20
135.4922955680919
 30
0.0
 11
869.6665748926928
 21
135.4922955680919
 31
0.0
  0
LINE
  5
12B0
330
2
100
AcDbEntity
  8
CENTER
100
AcDbLine
 10
879.6665748926928
 20
85.9922955680919
 30
0.0
 11
869.6665748926928
 21
85.9922955680919
 31
0.0
  0
ARC
  5
12B1
330
2
100
AcDbEntity
  8
0
100
AcDbCircle
 10
874.4893183040343
 20
135.7422955680914
 30
0.0
 40
5.0
100
AcDbArc
 50
90.0
 51
179.8333333333378
  0
LINE
  5
12B2
330
2
100
AcDbEntity
  8
0
100
AcDbLine
 10
863.348094861408
 20
79.67285782063766
 30
0.0
 11
862.9165748926945
 21
110.7422955680932
 31
0.0
  0
LINE
  5
12B3
330
2
100
AcDbEntity
  8
0
100
AcDbLine
 10
869.4893394580061
 20
85.72775117817093
 30
0.0
 11
869.4165748926927
 21
110.7422955680918
 31
0.0
  0
ARC
  5
12B4
330
2
100
AcDbEntity
  8
0
100
AcDbCircle
 10
868.3476126780799
 20
79.74229556809143
 30
0.0
 40
5.0
100
AcDbArc
 50
180.7957235527443
 51
270.0
  0
LINE
  5
12B5
330
2
100
AcDbEntity
  8
0
100
AcDbLine
 10
863.348094861408
 20
141.8117333155456
 30
0.0
 11
862.9165748926936
 21
110.7422955680928
 31
0.0
  0
LINE
  5
12B6
330
2
100
AcDbEntity
  8
0
100
AcDbLine
 10
869.4893394580061
 20
135.7568399580128
 30
0.0
 11
869.4165748926927
 21
110.7422955680918
 31
0.0
  0
LINE
  5
12B7
330
2
100
AcDbEntity
  8
0
100
AcDbLine
 10
869.4165748926927
 20
110.7422955680918
 30
0.0
 11
862.9165748926928
 21
110.7422955680914
 31
0.0
  0
ARC
  5
12B8
330
2
100
AcDbEntity
  8
0
100
AcDbCircle
 10
868.3476126780799
 20
141.7422955680919
 30
0.0
 40
5.0
100
AcDbArc
 50
90.0
 51
179.2042764472556
  0
LINE
  5
12B9
330
2
100
AcDbEntity
  8
0
100
AcDbLine
 10
935.4850549239793
 20
79.67285782063766
 30
0.0
 11
935.9165748926931
 21
110.7422955680932
 31
0.0
  0
LINE
  5
12BA
330
2
100
AcDbEntity
  8
0
100
AcDbLine
 10
929.3438103273794
 20
85.72775117817093
 30
0.0
 11
929.4165748926927
 21
110.7422955680918
 31
0.0
  0
LINE
  5
12BB
330
2
100
AcDbEntity
  8
0
100
AcDbLine
 10
924.3438314813513
 20
80.74229556809189
 30
0.0
 11
874.4893183040343
 21
80.74229556809189
 31
0.0
  0
LINE
  5
12BC
330
2
100
AcDbEntity
  8
CENTER
100
AcDbLine
 10
874.6665748926927
 20
90.9922955680919
 30
0.0
 11
874.6665748926927
 21
80.9922955680919
 31
0.0
  0
LINE
  5
12BD
330
2
100
AcDbEntity
  8
HIDS
100
AcDbLine
 10
919.9508757567739
 20
82.70739075521726
 30
0.0
 11
920.0389135064899
 21
87.75107005845541
 31
0.0
  0
ARC
  5
12BE
330
2
100
AcDbEntity
  8
0
100
AcDbCircle
 10
924.3438314813513
 20
85.74229556809234
 30
0.0
 40
5.0
100
AcDbArc
 50
270.0
 51
359.8333333333378
  0
LINE
  5
12BF
330
2
100
AcDbEntity
  8
CENTER
100
AcDbLine
 10
924.1665748926928
 20
90.9922955680919
 30
0.0
 11
924.1665748926928
 21
80.9922955680919
 31
0.0
  0
ARC
  5
12C0
330
2
100
AcDbEntity
  8
0
100
AcDbCircle
 10
930.4855371073056
 20
79.74229556809143
 30
0.0
 40
4.999999999999999
100
AcDbArc
 50
270.0
 51
359.2042764472556
  0
ARC
  5
12C1
330
2
100
AcDbEntity
  8
HIDS
100
AcDbCircle
 10
917.951180366462
 20
82.74229556809189
 30
0.0
 40
2.0
100
AcDbArc
 50
270.0
 51
358.9999999999982
  0
LINE
  5
12C2
330
2
100
AcDbEntity
  8
CENTER
100
AcDbLine
 10
929.1665748926927
 20
85.9922955680919
 30
0.0
 11
919.1665748926928
 21
85.9922955680919
 31
0.0
  0
ARC
  5
12C3
330
2
100
AcDbEntity
  8
HIDS
100
AcDbCircle
 10
923.0384565919587
 20
87.69871283914302
 30
0.0
 40
3.0
100
AcDbArc
 50
135.7099981688253
 51
178.9999999999982
  0
LINE
  5
12C4
330
2
100
AcDbEntity
  8
0
100
AcDbLine
 10
924.3438314813513
 20
140.7422955680918
 30
0.0
 11
874.4893183040343
 21
140.7422955680914
 31
0.0
  0
LINE
  5
12C5
330
2
100
AcDbEntity
  8
HIDS
100
AcDbLine
 10
883.1665748926928
 20
140.7422955680914
 30
0.0
 11
883.4141430113689
 21
126.5591275480929
 31
0.0
  0
LINE
  5
12C6
330
2
100
AcDbEntity
  8
CENTER
100
AcDbLine
 10
874.6665748926927
 20
140.4922955680918
 30
0.0
 11
874.6665748926927
 21
130.4922955680918
 31
0.0
  0
ARC
  5
12C7
330
2
100
AcDbEntity
  8
HIDS
100
AcDbCircle
 10
875.7946931934268
 20
133.7858782970407
 30
0.0
 40
3.0
100
AcDbArc
 50
315.7099981688253
 51
358.9999999999982
  0
ARC
  5
12C8
330
2
100
AcDbEntity
  8
HIDS
100
AcDbCircle
 10
880.8819694189235
 20
138.7422955680914
 30
0.0
 40
2.0
100
AcDbArc
 50
90.0
 51
178.9999999999982
  0
LINE
  5
12C9
330
2
100
AcDbEntity
  8
HIDS
100
AcDbLine
 10
878.8822740286116
 20
138.777200380966
 30
0.0
 11
878.7942362788975
 21
133.7335210777283
 31
0.0
  0
LINE
  5
12CA
330
2
100
AcDbEntity
  8
HIDS
100
AcDbLine
 10
894.6665748926928
 20
140.7422955680918
 30
0.0
 11
894.5262732688473
 21
132.7044209212496
 31
0.0
  0
LINE
  5
12CB
330
2
100
AcDbEntity
  8
0
100
AcDbLine
 10
935.4850549239793
 20
141.8117333155456
 30
0.0
 11
935.9165748926937
 21
110.7422955680928
 31
0.0
  0
LINE
  5
12CC
330
2
100
AcDbEntity
  8
0
100
AcDbLine
 10
929.3438103273794
 20
135.7568399580128
 30
0.0
 11
929.4165748926927
 21
110.7422955680918
 31
0.0
  0
LINE
  5
12CD
330
2
100
AcDbEntity
  8
CENTER
100
AcDbLine
 10
924.1665748926928
 20
140.4922955680918
 30
0.0
 11
924.1665748926928
 21
130.4922955680918
 31
0.0
  0
LINE
  5
12CE
330
2
100
AcDbEntity
  8
0
100
AcDbLine
 10
929.4165748926927
 20
110.7422955680918
 30
0.0
 11
935.9165748926928
 21
110.7422955680918
 31
0.0
  0
ARC
  5
12CF
330
2
100
AcDbEntity
  8
0
100
AcDbCircle
 10
930.4855371073056
 20
141.7422955680919
 30
0.0
 40
4.999999999999999
100
AcDbArc
 50
0.7957235527443399
 51
90.0
  0
ARC
  5
12D0
330
2
100
AcDbEntity
  8
0
100
AcDbCircle
 10
924.3438314813513
 20
135.7422955680914
 30
0.0
 40
5.0
100
AcDbArc
 50
0.1666666666621044
 51
90.0
  0
LINE
  5
12D1
330
2
100
AcDbEntity
  8
CENTER
100
AcDbLine
 10
929.1665748926927
 20
135.4922955680919
 30
0.0
 11
919.1665748926928
 21
135.4922955680919
 31
0.0
  0
CIRCLE
  5
12D2
330
2
100
AcDbEntity
  8
0
100
AcDbCircle
 10
899.4165748926928
 20
110.7422955680918
 30
0.0
 40
25.00000000022851
  0
CIRCLE
  5
12D3
330
2
100
AcDbEntity
  8
0
100
AcDbCircle
 10
868.306574892694
 20
79.63229556809176
 30
0.0
 40
2.75
  0
CIRCLE
  5
12D4
330
2
100
AcDbEntity
  8
0
100
AcDbCircle
 10
930.5265748926933
 20
141.852295568092
 30
0.0
 40
2.75
  0
CIRCLE
  5
12D5
330
2
100
AcDbEntity
  8
0
100
AcDbCircle
 10
930.5265748926933
 20
79.63229556809221
 30
0.0
 40
2.75
  0
ARC
  5
12D6
330
2
100
AcDbEntity
  8
0
100
AcDbCircle
 10
868.3065748926921
 20
141.852295568092
 30
0.0
 40
4.25000000000019
100
AcDbArc
 50
337.0991355555478
 51
293.5789623545194
  0
ARC
  5
12D7
330
2
100
AcDbEntity
  8
0
100
AcDbCircle
 10
868.3065748926921
 20
141.852295568092
 30
0.0
 40
3.730384757729381
100
AcDbArc
 50
321.5287333511405
 51
309.1493645588724
  0
LWPOLYLINE
  5
12D8
330
2
100
AcDbEntity
  8
0
100
AcDbPolyline
 90
        6
 70
     1
 43
0.0
 10
870.3065748926922
 20
143.006996106471
 10
868.3065748926921
 20
144.1616966448506
 10
866.3065748926921
 20
143.006996106471
 10
866.3065748926921
 20
140.6975950297129
 10
868.3065748926921
 20
139.5428944913334
 10
870.3065748926922
 20
140.6975950297129
  0
CIRCLE
  5
12D9
330
2
100
AcDbEntity
  8
0
100
AcDbCircle
 10
868.3065748926921
 20
141.852295568092
 30
0.0
 40
2.3094010767585
  0
LINE
  5
12DA
330
2
100
AcDbEntity
  8
CENTER
100
AcDbLine
 10
868.3065748926921
 20
147.810725815386
 30
0.0
 11
868.3065748926921
 21
135.893865320798
 31
0.0
  0
LINE
  5
12DB
330
2
100
AcDbEntity
  8
CENTER
100
AcDbLine
 10
862.3481446453981
 20
141.852295568092
 30
0.0
 11
874.2650051399861
 21
141.852295568092
 31
0.0
  0
ARC
  5
12DC
330
2
100
AcDbEntity
  8
0
100
AcDbCircle
 10
930.5265748926933
 20
141.852295568092
 30
0.0
 40
4.25000000000019
100
AcDbArc
 50
246.4210376454805
 51
202.9008644444513
  0
ARC
  5
12DD
330
2
100
AcDbEntity
  8
0
100
AcDbCircle
 10
930.5265748926933
 20
141.852295568092
 30
0.0
 40
3.730384757729381
100
AcDbArc
 50
230.8506354409951
 51
218.4712666488647
  0
LWPOLYLINE
  5
12DE
330
2
100
AcDbEntity
  8
0
100
AcDbPolyline
 90
        6
 70
     1
 43
0.0
 10
932.5265748926934
 20
143.006996106471
 10
930.5265748926933
 20
144.1616966448506
 10
928.5265748926933
 20
143.006996106471
 10
928.5265748926933
 20
140.6975950297129
 10
930.5265748926933
 20
139.5428944913334
 10
932.5265748926934
 20
140.6975950297129
  0
CIRCLE
  5
12DF
330
2
100
AcDbEntity
  8
0
100
AcDbCircle
 10
930.5265748926933
 20
141.852295568092
 30
0.0
 40
2.3094010767585
  0
LINE
  5
12E0
330
2
100
AcDbEntity
  8
CENTER
100
AcDbLine
 10
930.5265748926933
 20
147.810725815386
 30
0.0
 11
930.5265748926933
 21
135.893865320798
 31
0.0
  0
LINE
  5
12E1
330
2
100
AcDbEntity
  8
CENTER
100
AcDbLine
 10
924.5681446453993
 20
141.852295568092
 30
0.0
 11
936.4850051399873
 21
141.852295568092
 31
0.0
  0
ARC
  5
12E2
330
2
100
AcDbEntity
  8
0
100
AcDbCircle
 10
930.5265748926933
 20
79.63229556809221
 30
0.0
 40
4.25000000000019
100
AcDbArc
 50
157.0991355555478
 51
113.5789623545196
  0
ARC
  5
12E3
330
2
100
AcDbEntity
  8
0
100
AcDbCircle
 10
930.5265748926933
 20
79.63229556809221
 30
0.0
 40
3.730384757729381
100
AcDbArc
 50
141.5287333511352
 51
129.1493645588748
  0
LWPOLYLINE
  5
12E4
330
2
100
AcDbEntity
  8
0
100
AcDbPolyline
 90
        6
 70
     1
 43
0.0
 10
932.5265748926934
 20
80.78699610647129
 10
930.5265748926933
 20
81.94169664485082
 10
928.5265748926933
 20
80.78699610647129
 10
928.5265748926933
 20
78.47759502971314
 10
930.5265748926933
 20
77.32289449133361
 10
932.5265748926934
 20
78.47759502971314
  0
CIRCLE
  5
12E5
330
2
100
AcDbEntity
  8
0
100
AcDbCircle
 10
930.5265748926933
 20
79.63229556809221
 30
0.0
 40
2.3094010767585
  0
LINE
  5
12E6
330
2
100
AcDbEntity
  8
CENTER
100
AcDbLine
 10
930.5265748926933
 20
85.59072581538623
 30
0.0
 11
930.5265748926933
 21
73.67386532079819
 31
0.0
  0
LINE
  5
12E7
330
2
100
AcDbEntity
  8
CENTER
100
AcDbLine
 10
924.5681446453993
 20
79.63229556809221
 30
0.0
 11
936.4850051399873
 21
79.63229556809221
 31
0.0
  0
ARC
  5
12E8
330
2
100
AcDbEntity
  8
0
100
AcDbCircle
 10
868.306574892694
 20
79.63229556809176
 30
0.0
 40
4.25000000000019
100
AcDbArc
 50
66.42103764559262
 51
22.90086444442292
  0
ARC
  5
12E9
330
2
100
AcDbEntity
  8
0
100
AcDbCircle
 10
868.306574892694
 20
79.63229556809176
 30
0.0
 40
3.730384757729381
100
AcDbArc
 50
50.85063544125946
 51
38.47126664869841
  0
LWPOLYLINE
  5
12EA
330
2
100
AcDbEntity
  8
0
100
AcDbPolyline
 90
        6
 70
     1
 43
0.0
 10
870.306574892694
 20
80.78699610647129
 10
868.306574892694
 20
81.94169664485036
 10
866.3065748926939
 20
80.78699610647129
 10
866.3065748926939
 20
78.47759502971269
 10
868.306574892694
 20
77.32289449133361
 10
870.306574892694
 20
78.47759502971269
  0
CIRCLE
  5
12EB
330
2
100
AcDbEntity
  8
0
100
AcDbCircle
 10
868.306574892694
 20
79.63229556809176
 30
0.0
 40
2.3094010767585
  0
LINE
  5
12EC
330
2
100
AcDbEntity
  8
CENTER
100
AcDbLine
 10
868.306574892694
 20
85.59072581538577
 30
0.0
 11
868.306574892694
 21
73.67386532079774
 31
0.0
  0
LINE
  5
12ED
330
2
100
AcDbEntity
  8
CENTER
100
AcDbLine
 10
862.3481446454
 20
79.63229556809176
 30
0.0
 11
874.2650051399881
 21
79.63229556809176
 31
0.0
  0
LINE
  5
12EE
330
2
100
AcDbEntity
  8
HIDS
100
AcDbLine
 10
890.9165748926927
 20
109.9922955680918
 30
0.0
 11
890.9165748926927
 21
101.5422955680916
 31
0.0
  0
LINE
  5
12EF
330
2
100
AcDbEntity
  8
HIDS
100
AcDbLine
 10
890.5832415593588
 20
109.9922955680918
 30
0.0
 11
890.5832415593588
 21
101.2089622347585
 31
0.0
  0
LINE
  5
12F0
330
2
100
AcDbEntity
  8
HIDS
100
AcDbLine
 10
887.2499082260267
 20
109.9922955680918
 30
0.0
 11
887.2499082260267
 21
102.4035473273653
 31
0.0
  0
LINE
  5
12F1
330
2
100
AcDbEntity
  8
HIDS
100
AcDbLine
 10
886.9165748926928
 20
109.9922955680918
 30
0.0
 11
886.9165748926928
 21
102.9120656864089
 31
0.0
  0
ARC
  5
12F2
330
2
100
AcDbEntity
  8
0
100
AcDbCircle
 10
899.4165748926928
 20
110.7422955680918
 30
0.0
 40
14.75
100
AcDbArc
 50
218.5889464533626
 51
160.1850718514956
  0
LINE
  5
12F3
330
2
100
AcDbEntity
  8
CENTER
  6
CENS
100
AcDbLine
 10
888.9165748926927
 20
148.4871251321038
 30
0.0
 11
888.9165748926927
 21
99.29004522353501
 31
0.0
  0
LINE
  5
12F4
330
2
100
AcDbEntity
  8
HIDS
100
AcDbLine
 10
890.9165748926927
 20
109.9922955680918
 30
0.0
 11
890.9165748926927
 21
98.6877321168505
 31
0.0
  0
ARC
  5
12F5
330
2
100
AcDbEntity
  8
0
100
AcDbCircle
 10
899.4165748926928
 20
110.7422955680918
 30
0.0
 40
14.75
100
AcDbArc
 50
179.9999999999934
 51
218.5889464533626
  0
LINE
  5
12F6
330
2
100
AcDbEntity
  8
HIDS
100
AcDbLine
 10
887.8873728387782
 20
101.5422955680916
 30
0.0
 11
888.9165748926927
 21
101.5422955680916
 31
0.0
  0
LINE
  5
12F7
330
2
100
AcDbEntity
  8
0
100
AcDbLine
 10
887.7165748926939
 20
100.7422955680918
 30
0.0
 11
888.5739506715919
 21
100.7422955680918
 31
0.0
  0
LINE
  5
12F8
330
2
100
AcDbEntity
  8
0
100
AcDbLine
 10
886.9165748926928
 20
102.9120656864089
 30
0.0
 11
886.9165748926928
 21
101.5422955680916
 31
0.0
  0
LINE
  5
12F9
330
2
100
AcDbEntity
  8
HOJO
100
AcDbLine
 10
887.2499082260267
 20
102.4035473273653
 30
0.0
 11
887.2499082260267
 21
101.2089622347585
 31
0.0
  0
LINE
  5
12FA
330
2
100
AcDbEntity
  8
0
100
AcDbLine
 10
886.9165748926928
 20
101.5422955680916
 30
0.0
 11
887.8873728387782
 21
101.5422955680916
 31
0.0
  0
LINE
  5
12FB
330
2
100
AcDbEntity
  8
0
100
AcDbLine
 10
886.9165748926928
 20
101.5422955680916
 30
0.0
 11
887.7165748926939
 21
100.7422955680918
 31
0.0
  0
LINE
  5
12FC
330
2
100
AcDbEntity
  8
HIDS
100
AcDbLine
 10
888.5739506715919
 20
100.7422955680918
 30
0.0
 11
888.9165748926927
 21
100.7422955680918
 31
0.0
  0
LINE
  5
12FD
330
2
100
AcDbEntity
  8
HIDS
100
AcDbLine
 10
890.9165748926927
 20
101.5422955680916
 30
0.0
 11
890.1165748926935
 21
100.7422955680918
 31
0.0
  0
LINE
  5
12FE
330
2
100
AcDbEntity
  8
HIDS
100
AcDbLine
 10
890.1165748926935
 20
100.7422955680918
 30
0.0
 11
888.9165748926927
 21
100.7422955680918
 31
0.0
  0
LINE
  5
12FF
330
2
100
AcDbEntity
  8
HIDS
100
AcDbLine
 10
890.9165748926927
 20
101.5422955680916
 30
0.0
 11
888.9165748926927
 21
101.5422955680916
 31
0.0
  0
LINE
  5
1300
330
2
100
AcDbEntity
  8
HIDS
100
AcDbLine
 10
890.5832415593588
 20
101.2089622347585
 30
0.0
 11
890.5832415593588
 21
98.9298139396525
 31
0.0
  0
LINE
  5
1301
330
2
100
AcDbEntity
  8
HIDS
100
AcDbLine
 10
885.5398858063155
 20
115.7422955680919
 30
0.0
 11
892.4165748926927
 21
115.7422955680919
 31
0.0
  0
LINE
  5
1302
330
2
100
AcDbEntity
  8
HIDS
100
AcDbLine
 10
887.5055505874527
 20
119.4422955680921
 30
0.0
 11
892.4165748926927
 21
119.4422955680921
 31
0.0
  0
LINE
  5
1303
330
2
100
AcDbEntity
  8
HIDS
100
AcDbLine
 10
891.8969596504224
 20
119.7422955680918
 30
0.0
 11
887.7305790001731
 21
119.7422955680918
 31
0.0
  0
LINE
  5
1304
330
2
100
AcDbEntity
  8
HIDS
100
AcDbLine
 10
890.9165748926927
 20
114.0756289014253
 30
0.0
 11
886.9165748926928
 21
114.0756289014253
 31
0.0
  0
LINE
  5
1305
330
2
100
AcDbEntity
  8
HIDS
100
AcDbLine
 10
885.5398858063137
 20
115.7422955680919
 30
0.0
 11
892.9165748926928
 21
115.7422955680919
 31
0.0
  0
LINE
  5
1306
330
2
100
AcDbEntity
  8
0
100
AcDbLine
 10
884.6856550300374
 20
111.4922955680919
 30
0.0
 11
888.9165748926927
 21
111.4922955680919
 31
0.0
  0
LINE
  5
1307
330
2
100
AcDbEntity
  8
0
100
AcDbLine
 10
884.6856550300374
 20
109.9922955680918
 30
0.0
 11
888.9165748926927
 21
109.9922955680918
 31
0.0
  0
LINE
  5
1308
330
2
100
AcDbEntity
  8
0
100
AcDbLine
 10
885.4165748926927
 20
119.4422955680921
 30
0.0
 11
885.4165748926927
 21
115.7422955680919
 31
0.0
  0
LINE
  5
1309
330
2
100
AcDbEntity
  8
0
100
AcDbLine
 10
886.9165748926928
 20
111.4922955680919
 30
0.0
 11
886.9165748926928
 21
109.9922955680918
 31
0.0
  0
LINE
  5
130A
330
2
100
AcDbEntity
  8
HOJO
100
AcDbLine
 10
887.2499082260267
 20
111.4922955680919
 30
0.0
 11
887.2499082260267
 21
109.9922955680918
 31
0.0
  0
ARC
  5
130B
330
2
100
AcDbEntity
  8
0
100
AcDbCircle
 10
899.4165748926928
 20
110.7422955680918
 30
0.0
 40
14.75
100
AcDbArc
 50
160.1850718514956
 51
179.9999999999934
  0
LINE
  5
130C
330
2
100
AcDbEntity
  8
HIDS
100
AcDbLine
 10
886.9165748926928
 20
115.7422955680919
 30
0.0
 11
887.2499082260267
 21
114.0756289014253
 31
0.0
  0
LINE
  5
130D
330
2
100
AcDbEntity
  8
0
100
AcDbLine
 10
885.4165748926927
 20
115.7422955680919
 30
0.0
 11
885.5398858063155
 21
115.7422955680919
 31
0.0
  0
LINE
  5
130E
330
2
100
AcDbEntity
  8
HIDS
100
AcDbLine
 10
887.2499082260267
 20
114.0756289014253
 30
0.0
 11
887.2499082260267
 21
111.4922955680919
 31
0.0
  0
LINE
  5
130F
330
2
100
AcDbEntity
  8
HIDS
100
AcDbLine
 10
886.9165748926928
 20
115.7422955680919
 30
0.0
 11
886.9165748926928
 21
111.4922955680919
 31
0.0
  0
LINE
  5
1310
330
2
100
AcDbEntity
  8
HIDS
100
AcDbLine
 10
886.4165748926927
 20
115.7422955680919
 30
0.0
 11
886.4165748926927
 21
111.4922955680919
 31
0.0
  0
LINE
  5
1311
330
2
100
AcDbEntity
  8
0
100
AcDbLine
 10
887.7305790001731
 20
119.7422955680918
 30
0.0
 11
885.9361901349632
 21
119.7422955680918
 31
0.0
  0
LINE
  5
1312
330
2
100
AcDbEntity
  8
0
100
AcDbLine
 10
885.4165748926927
 20
119.4422955680921
 30
0.0
 11
885.9361901349632
 21
119.7422955680918
 31
0.0
  0
LINE
  5
1313
330
2
100
AcDbEntity
  8
0
100
AcDbLine
 10
885.4165748926927
 20
119.4422955680921
 30
0.0
 11
887.5055505874527
 21
119.4422955680921
 31
0.0
  0
LINE
  5
1314
330
2
100
AcDbEntity
  8
HIDS
100
AcDbLine
 10
892.4165748926927
 20
115.7422955680919
 30
0.0
 11
892.4165748926927
 21
119.4422955680921
 31
0.0
  0
LINE
  5
1315
330
2
100
AcDbEntity
  8
HIDS
100
AcDbLine
 10
892.9165748926928
 20
123.9828582449573
 30
0.0
 11
892.9165748926928
 21
115.7422955680919
 31
0.0
  0
LINE
  5
1316
330
2
100
AcDbEntity
  8
HOJO
100
AcDbLine
 10
890.5832415593588
 20
111.4922955680919
 30
0.0
 11
890.5832415593588
 21
109.9922955680918
 31
0.0
  0
LINE
  5
1317
330
2
100
AcDbEntity
  8
0
100
AcDbLine
 10
890.9165748926927
 20
111.4922955680919
 30
0.0
 11
890.9165748926927
 21
109.9922955680918
 31
0.0
  0
LINE
  5
1318
330
2
100
AcDbEntity
  8
0
100
AcDbLine
 10
888.9165748926927
 20
109.9922955680918
 30
0.0
 11
892.4568694391538
 21
109.9922955680918
 31
0.0
  0
LINE
  5
1319
330
2
100
AcDbEntity
  8
0
100
AcDbLine
 10
888.9165748926927
 20
111.4922955680919
 30
0.0
 11
892.4568694391538
 21
111.4922955680923
 31
0.0
  0
LINE
  5
131A
330
2
100
AcDbEntity
  8
HIDS
100
AcDbLine
 10
890.9165748926927
 20
115.7422955680919
 30
0.0
 11
890.5832415593588
 21
114.0756289014253
 31
0.0
  0
LINE
  5
131B
330
2
100
AcDbEntity
  8
HIDS
100
AcDbLine
 10
890.9165748926927
 20
115.7422955680919
 30
0.0
 11
890.9165748926927
 21
111.4922955680919
 31
0.0
  0
LINE
  5
131C
330
2
100
AcDbEntity
  8
HIDS
100
AcDbLine
 10
890.5832415593588
 20
114.0756289014253
 30
0.0
 11
890.5832415593588
 21
111.4922955680919
 31
0.0
  0
LINE
  5
131D
330
2
100
AcDbEntity
  8
HIDS
100
AcDbLine
 10
891.4165748926928
 20
115.7422955680919
 30
0.0
 11
891.4165748926928
 21
111.4922955680919
 31
0.0
  0
LINE
  5
131E
330
2
100
AcDbEntity
  8
HIDS
100
AcDbLine
 10
891.8969596504224
 20
119.7422955680918
 30
0.0
 11
892.4165748926927
 21
119.4422955680921
 31
0.0
  0
LINE
  5
131F
330
2
100
AcDbEntity
  8
0
100
AcDbLine
 10
913.4165748926928
 20
109.9922955680918
 30
0.0
 11
906.376280346228
 21
109.9922955680918
 31
0.0
  0
LINE
  5
1320
330
2
100
AcDbEntity
  8
0
100
AcDbLine
 10
906.376280346228
 20
111.4922955680919
 30
0.0
 11
913.4165748926928
 21
111.4922955680919
 31
0.0
  0
LINE
  5
1321
330
2
100
AcDbEntity
  8
0
100
AcDbLine
 10
913.4165748926928
 20
111.4922955680919
 30
0.0
 11
913.4165748926928
 21
109.9922955680918
 31
0.0
  0
LINE
  5
1322
330
2
100
AcDbEntity
  8
0
100
AcDbLine
 10
883.9165687215055
 20
144.7422934325178
 30
0.0
 11
893.9165687215057
 21
144.7422934325178
 31
0.0
  0
ARC
  5
1323
330
2
100
AcDbEntity
  8
0
100
AcDbCircle
 10
893.9165687215057
 20
140.7422934325178
 30
0.0
 40
4.0
100
AcDbArc
 50
0.0
 51
90.0
  0
LINE
  5
1324
330
2
100
AcDbEntity
  8
0
100
AcDbLine
 10
897.9165687215056
 20
140.7422934325178
 30
0.0
 11
897.9165687215056
 21
140.7422934325178
 31
0.0
  0
ARC
  5
1325
330
2
100
AcDbEntity
  8
0
100
AcDbCircle
 10
883.9165687215055
 20
140.7422934325178
 30
0.0
 40
4.0
100
AcDbArc
 50
90.0
 51
180.0
  0
CIRCLE
  5
1326
330
2
100
AcDbEntity
  8
0
100
AcDbCircle
 10
899.416574892691
 20
110.7422955680932
 30
0.0
 40
6.999999999998635
  0
ARC
  5
1327
330
2
100
AcDbEntity
  8
0
100
AcDbCircle
 10
899.4165748926928
 20
110.7422955680932
 30
0.0
 40
8.154700538378165
100
AcDbArc
 50
5.277035934797972
 51
174.722964065202
  0
ARC
  5
1328
330
2
100
AcDbEntity
  8
0
100
AcDbCircle
 10
899.4165748926928
 20
110.7422955680932
 30
0.0
 40
8.154700538378165
100
AcDbArc
 50
185.2770359348103
 51
354.7229640651897
  0
CIRCLE
  5
1329
330
2
100
AcDbEntity
  8
CENTER
100
AcDbCircle
 10
899.4165748926928
 20
110.7422955680905
 30
0.0
 40
35.0017856687341
  0
CIRCLE
  5
132A
330
2
100
AcDbEntity
  8
HOJO
100
AcDbCircle
 10
874.6665748926945
 20
135.4922955680919
 30
0.0
 40
2.5
  0
CIRCLE
  5
132B
330
2
100
AcDbEntity
  8
0
100
AcDbCircle
 10
874.6665748926945
 20
135.4922955680919
 30
0.0
 40
2.0
  0
CIRCLE
  5
132C
330
2
100
AcDbEntity
  8
0
100
AcDbCircle
 10
874.6665748926945
 20
85.9922955680919
 30
0.0
 40
2.0
  0
CIRCLE
  5
132D
330
2
100
AcDbEntity
  8
HOJO
100
AcDbCircle
 10
874.6665748926945
 20
85.9922955680919
 30
0.0
 40
2.5
  0
CIRCLE
  5
132E
330
2
100
AcDbEntity
  8
0
100
AcDbCircle
 10
924.1665748926946
 20
85.9922955680919
 30
0.0
 40
2.0
  0
CIRCLE
  5
132F
330
2
100
AcDbEntity
  8
HOJO
100
AcDbCircle
 10
924.1665748926946
 20
85.9922955680919
 30
0.0
 40
2.5
  0
CIRCLE
  5
1330
330
2
100
AcDbEntity
  8
0
100
AcDbCircle
 10
924.1665748926946
 20
135.4922955680919
 30
0.0
 40
2.0
  0
CIRCLE
  5
1331
330
2
100
AcDbEntity
  8
HOJO
100
AcDbCircle
 10
924.1665748926946
 20
135.4922955680919
 30
0.0
 40
2.5
  0
CIRCLE
  5
1332
330
2
100
AcDbEntity
  8
0
100
AcDbCircle
 10
899.4165748926928
 20
110.7422955680918
 30
0.0
 40
22.5
  0
LINE
  5
1333
330
2
100
AcDbEntity
  8
0
100
AcDbLine
 10
657.6539285101986
 20
137.6022955681022
 30
0.0
 11
652.9539285101979
 21
137.6022955681022
 31
0.0
  0
LINE
  5
1334
330
2
100
AcDbEntity
  8
0
100
AcDbLine
 10
652.9539285101979
 20
146.1022955681022
 30
0.0
 11
657.6539285101986
 21
146.1022955681022
 31
0.0
  0
LINE
  5
1335
330
2
100
AcDbEntity
  8
CENTER
  6
CENS
100
AcDbLine
 10
635.4227715541707
 20
141.8522955681022
 30
0.0
 11
662.8797444842526
 21
141.8522955681022
 31
0.0
  0
LINE
  5
1336
330
2
100
AcDbEntity
  8
0
100
AcDbLine
 10
657.9539285101978
 20
145.5826803258318
 30
0.0
 11
657.9539285101978
 21
138.1219108103727
 31
0.0
  0
LINE
  5
1337
330
2
100
AcDbEntity
  8
0
100
AcDbLine
 10
657.6539285101986
 20
137.6022955681022
 30
0.0
 11
657.6539285101986
 21
146.1022955681022
 31
0.0
  0
LINE
  5
1338
330
2
100
AcDbEntity
  8
0
100
AcDbLine
 10
657.6539285101986
 20
137.6022955681022
 30
0.0
 11
657.9539285101978
 21
138.1219108103727
 31
0.0
  0
LINE
  5
1339
330
2
100
AcDbEntity
  8
0
100
AcDbLine
 10
657.9539285101978
 20
145.5826803258318
 30
0.0
 11
657.6539285101986
 21
146.1022955681022
 31
0.0
  0
LINE
  5
133A
330
2
100
AcDbEntity
  8
0
100
AcDbLine
 10
652.9539285101979
 20
146.1022955681022
 30
0.0
 11
651.9539285101979
 21
146.1022955681022
 31
0.0
  0
LINE
  5
133B
330
2
100
AcDbEntity
  8
0
100
AcDbLine
 10
651.9539285101979
 20
146.1022955681022
 30
0.0
 11
651.9539285101979
 21
137.6022955681022
 31
0.0
  0
LINE
  5
133C
330
2
100
AcDbEntity
  8
0
100
AcDbLine
 10
651.9539285101979
 20
137.6022955681022
 30
0.0
 11
652.9539285101979
 21
137.6022955681022
 31
0.0
  0
LINE
  5
133D
330
2
100
AcDbEntity
  8
0
100
AcDbLine
 10
652.9539285101979
 20
137.6022955681022
 30
0.0
 11
652.9539285101979
 21
146.1022955681022
 31
0.0
  0
LINE
  5
133E
330
2
100
AcDbEntity
  8
0
100
AcDbLine
 10
652.9539285101979
 20
137.6022955681022
 30
0.0
 11
652.9539285101979
 21
146.1022955681022
 31
0.0
  0
ARC
  5
133F
330
2
100
AcDbEntity
  8
0
100
AcDbCircle
 10
656.7571979207984
 20
75.74229556810166
 30
0.0
 40
5.0
100
AcDbArc
 50
163.8741378563956
 51
171.7867892982579
  0
LINE
  5
1340
330
2
100
AcDbEntity
  8
0
100
AcDbLine
 10
651.8286900808358
 20
76.7073907552275
 30
0.0
 11
652.4227715541707
 21
110.7422955681021
 31
0.0
  0
LINE
  5
1341
330
2
100
AcDbEntity
  8
0
100
AcDbLine
 10
640.4227715541707
 20
74.74229556810212
 30
0.0
 11
649.8289946905221
 21
74.74229556810212
 31
0.0
  0
ARC
  5
1342
330
2
100
AcDbEntity
  8
0
100
AcDbCircle
 10
649.8289946905221
 20
76.74229556810212
 30
0.0
 40
2.0
100
AcDbArc
 50
270.0
 51
358.9999999999982
  0
LINE
  5
1343
330
2
100
AcDbEntity
  8
CENTER
  6
CENS
100
AcDbLine
 10
669.4227715541707
 20
121.1422955681022
 30
0.0
 11
669.4227715541707
 21
148.4871251321141
 31
0.0
  0
LINE
  5
1344
330
2
100
AcDbEntity
  8
0
100
AcDbLine
 10
651.8286900808358
 20
144.7772003809762
 30
0.0
 11
652.2444411307548
 21
120.9588386831441
 31
0.0
  0
LINE
  5
1345
330
2
100
AcDbEntity
  8
0
100
AcDbLine
 10
668.8939865279768
 20
137.7381833373245
 30
0.0
 11
668.6764435174442
 21
125.2751526108344
 31
0.0
  0
LINE
  5
1346
330
2
100
AcDbEntity
  8
0
100
AcDbLine
 10
640.4227715541707
 20
110.7422955681021
 30
0.0
 11
640.8828109073562
 21
110.7422955681021
 31
0.0
  0
LINE
  5
1347
330
2
100
AcDbEntity
  8
0
100
AcDbLine
 10
657.9539285101978
 20
80.74229556810212
 30
0.0
 11
683.4227715541707
 21
80.74229556810212
 31
0.0
  0
LINE
  5
1348
330
2
100
AcDbEntity
  8
0
100
AcDbLine
 10
668.8939865279768
 20
83.74640779887966
 30
0.0
 11
668.4227715541707
 21
110.7422955681021
 31
0.0
  0
ARC
  5
1349
330
2
100
AcDbEntity
  8
0
100
AcDbCircle
 10
671.8945152913635
 20
83.74229556810211
 30
0.0
 40
3.0
100
AcDbArc
 50
181.0000000000017
 51
270.0
  0
ARC
  5
134A
330
2
100
AcDbEntity
  8
0
100
AcDbCircle
 10
656.3309865047791
 20
135.5101142136453
 30
0.0
 40
3.0
100
AcDbArc
 50
270.0
 51
358.9999999999721
  0
LINE
  5
134B
330
2
100
AcDbEntity
  8
0
100
AcDbLine
 10
665.8022732578425
 20
132.5101142136453
 30
0.0
 11
656.3309865047791
 21
132.5101142136458
 31
0.0
  0
LINE
  5
134C
330
2
100
AcDbEntity
  8
0
100
AcDbLine
 10
659.3305295902497
 20
135.4577569943334
 30
0.0
 11
659.3884706900877
 21
138.7772003809767
 31
0.0
  0
ARC
  5
134D
330
2
100
AcDbEntity
  8
0
100
AcDbCircle
 10
661.3881660804014
 20
138.7422955681021
 30
0.0
 40
2.0
100
AcDbArc
 50
90.0
 51
178.9999999999721
  0
LINE
  5
134E
330
2
100
AcDbEntity
  8
0
100
AcDbLine
 10
657.9539285101978
 20
140.7422955681025
 30
0.0
 11
683.4227715541707
 21
140.7422955681021
 31
0.0
  0
ARC
  5
134F
330
2
100
AcDbEntity
  8
0
100
AcDbCircle
 10
671.8945152913635
 20
137.7422955681021
 30
0.0
 40
3.0
100
AcDbArc
 50
90.0
 51
178.9999999999982
  0
ARC
  5
1350
330
2
100
AcDbEntity
  8
0
100
AcDbCircle
 10
649.8289946905221
 20
144.7422955681021
 30
0.0
 40
2.0
100
AcDbArc
 50
1.000000000001775
 51
90.0
  0
LINE
  5
1351
330
2
100
AcDbEntity
  8
0
100
AcDbLine
 10
640.4227715541707
 20
146.7422955681021
 30
0.0
 11
649.8289946905221
 21
146.7422955681021
 31
0.0
  0
ARC
  5
1352
330
2
100
AcDbEntity
  8
0
100
AcDbCircle
 10
656.7571979207984
 20
145.7422955681025
 30
0.0
 40
5.0
100
AcDbArc
 50
188.213210701742
 51
196.1258621436043
  0
LINE
  5
1353
330
2
100
AcDbEntity
  8
0
100
AcDbLine
 10
683.4227715541707
 20
80.74229556810212
 30
0.0
 11
683.4227715541707
 21
140.7422955681021
 31
0.0
  0
LINE
  5
1354
330
2
100
AcDbEntity
  8
0
100
AcDbLine
 10
657.6539285101986
 20
83.882295568102
 30
0.0
 11
652.9539285101979
 21
83.882295568102
 31
0.0
  0
LINE
  5
1355
330
2
100
AcDbEntity
  8
0
100
AcDbLine
 10
652.9539285101979
 20
75.382295568102
 30
0.0
 11
657.6539285101986
 21
75.382295568102
 31
0.0
  0
LINE
  5
1356
330
2
100
AcDbEntity
  8
CENTER
  6
CENS
100
AcDbLine
 10
635.4227715541707
 20
79.63229556810199
 30
0.0
 11
662.8797444842526
 21
79.63229556810199
 31
0.0
  0
LINE
  5
1357
330
2
100
AcDbEntity
  8
0
100
AcDbLine
 10
657.9539285101978
 20
75.90191081037244
 30
0.0
 11
657.9539285101978
 21
83.36268032583154
 31
0.0
  0
LINE
  5
1358
330
2
100
AcDbEntity
  8
0
100
AcDbLine
 10
657.6539285101986
 20
83.882295568102
 30
0.0
 11
657.6539285101986
 21
75.382295568102
 31
0.0
  0
LINE
  5
1359
330
2
100
AcDbEntity
  8
0
100
AcDbLine
 10
657.6539285101986
 20
83.882295568102
 30
0.0
 11
657.9539285101978
 21
83.36268032583154
 31
0.0
  0
LINE
  5
135A
330
2
100
AcDbEntity
  8
0
100
AcDbLine
 10
657.9539285101978
 20
75.90191081037244
 30
0.0
 11
657.6539285101986
 21
75.382295568102
 31
0.0
  0
LINE
  5
135B
330
2
100
AcDbEntity
  8
0
100
AcDbLine
 10
652.9539285101979
 20
75.382295568102
 30
0.0
 11
651.9539285101979
 21
75.382295568102
 31
0.0
  0
LINE
  5
135C
330
2
100
AcDbEntity
  8
0
100
AcDbLine
 10
651.9539285101979
 20
75.382295568102
 30
0.0
 11
651.9539285101979
 21
83.882295568102
 31
0.0
  0
LINE
  5
135D
330
2
100
AcDbEntity
  8
0
100
AcDbLine
 10
651.9539285101979
 20
83.882295568102
 30
0.0
 11
652.9539285101979
 21
83.882295568102
 31
0.0
  0
LINE
  5
135E
330
2
100
AcDbEntity
  8
0
100
AcDbLine
 10
652.9539285101979
 20
83.882295568102
 30
0.0
 11
652.9539285101979
 21
75.382295568102
 31
0.0
  0
LINE
  5
135F
330
2
100
AcDbEntity
  8
0
100
AcDbLine
 10
652.9539285101979
 20
83.882295568102
 30
0.0
 11
652.9539285101979
 21
75.382295568102
 31
0.0
  0
LINE
  5
1360
330
2
100
AcDbEntity
  8
0
100
AcDbLine
 10
673.9227609451205
 20
117.7422955681025
 30
0.0
 11
663.9227609451187
 21
117.7422955681025
 31
0.0
  0
LINE
  5
1361
330
2
100
AcDbEntity
  8
0
100
AcDbLine
 10
673.9227609451187
 20
117.7422955681025
 30
0.0
 11
673.9227609451187
 21
110.7422955681021
 31
0.0
  0
LINE
  5
1362
330
2
100
AcDbEntity
  8
0
100
AcDbLine
 10
675.9227609451187
 20
118.8969961064816
 30
0.0
 11
673.9227609451187
 21
117.7422955681021
 31
0.0
  0
LINE
  5
1363
330
2
100
AcDbEntity
  8
0
100
AcDbLine
 10
646.9227609451206
 20
117.9922955681021
 30
0.0
 11
646.9227609451206
 21
110.7422955681021
 31
0.0
  0
LINE
  5
1364
330
2
100
AcDbEntity
  8
0
100
AcDbLine
 10
673.9227609451205
 20
117.7422955681025
 30
0.0
 11
663.9227609451187
 21
117.7422955681025
 31
0.0
  0
LINE
  5
1365
330
2
100
AcDbEntity
  8
0
100
AcDbLine
 10
668.8349751237925
 20
125.4922955681025
 30
0.0
 11
675.9227609451187
 21
125.4922955681025
 31
0.0
  0
LINE
  5
1366
330
2
100
AcDbEntity
  8
0
100
AcDbLine
 10
675.9227609451187
 20
125.4922955681025
 30
0.0
 11
675.9227609451187
 21
110.7422955681021
 31
0.0
  0
LINE
  5
1367
330
2
100
AcDbEntity
  8
0
100
AcDbLine
 10
661.9227609451187
 20
121.0269767548255
 30
0.0
 11
661.9227609451187
 21
110.7422955681021
 31
0.0
  0
LINE
  5
1368
330
2
100
AcDbEntity
  8
0
100
AcDbLine
 10
663.9227609451187
 20
121.5523769022569
 30
0.0
 11
663.9227609451187
 21
110.7422955681021
 31
0.0
  0
LINE
  5
1369
330
2
100
AcDbEntity
  8
0
100
AcDbLine
 10
654.9227609451206
 20
117.9922955681021
 30
0.0
 11
646.9227609451206
 21
117.9922955681021
 31
0.0
  0
LINE
  5
136A
330
2
100
AcDbEntity
  8
0
100
AcDbLine
 10
654.9227609451206
 20
110.7422955681021
 30
0.0
 11
654.9227609451206
 21
117.9922955681021
 31
0.0
  0
LINE
  5
136B
330
2
100
AcDbEntity
  8
0
100
AcDbLine
 10
661.9227609451187
 20
117.7422955681021
 30
0.0
 11
654.9227609451206
 21
117.7422955681021
 31
0.0
  0
LINE
  5
136C
330
2
100
AcDbEntity
  8
0
100
AcDbLine
 10
643.1699841953864
 20
110.7422955681016
 30
0.0
 11
646.9227609451206
 21
117.2422955681021
 31
0.0
  0
SPLINE
  5
136D
330
2
100
AcDbEntity
  8
HOJO
100
AcDbSpline
210
0.0
220
0.0
230
1.0
 70
     8
 71
     3
 72
    20
 73
    16
 74
     0
 42
0.0000000001
 43
0.0000000001
 40
0.0
 40
0.0
 40
0.0
 40
0.0
 40
5.311626210389601
 40
7.954639692924123
 40
10.24579206730457
 40
14.18281221953265
 40
18.83794314114633
 40
26.54246833222011
 40
31.19712602527561
 40
34.95638115537181
 40
42.12378530287149
 40
45.78553747213095
 40
50.20353689726185
 40
53.26513166942802
 40
54.23175360515262
 40
54.23175360515262
 40
54.23175360515262
 40
54.23175360515262
 10
683.4227715541689
 20
137.4297442901182
 30
0.0
 10
681.7097923882807
 20
137.321702239892
 30
0.0
 10
679.1444514688698
 20
137.1598995174875
 30
0.0
 10
675.3726975817932
 20
136.9077668453204
 30
0.0
 10
674.0535563656591
 20
133.9753253603533
 30
0.0
 10
671.618346997369
 20
131.3208165370578
 30
0.0
 10
669.7802986542188
 20
126.169521103894
 30
0.0
 10
665.6554622447417
 20
121.4597737522684
 30
0.0
 10
660.1778147417349
 20
120.8224423178493
 30
0.0
 10
655.2644292321689
 20
120.4368706743083
 30
0.0
 10
650.4304298854109
 20
121.6004547837623
 30
0.0
 10
645.3927031207728
 20
118.9009245478977
 30
0.0
 10
642.3215524994026
 20
115.0267004187552
 30
0.0
 10
641.3215782046769
 20
112.3484598978656
 30
0.0
 10
640.9655386794453
 20
111.0534468677946
 30
0.0
 10
640.8828109073562
 20
110.7422955681021
 30
0.0
  0
LINE
  5
136E
330
2
100
AcDbEntity
  8
0
100
AcDbLine
 10
683.4227715541707
 20
135.7422955681025
 30
0.0
 11
676.4227715541707
 21
135.7422955681025
 31
0.0
  0
LINE
  5
136F
330
2
100
AcDbEntity
  8
0
100
AcDbLine
 10
676.4227715541707
 20
135.7422955681025
 30
0.0
 11
676.4227715541707
 21
110.7422955681021
 31
0.0
  0
LINE
  5
1370
330
2
100
AcDbEntity
  8
0
100
AcDbLine
 10
674.4227777253578
 20
144.7422955681021
 30
0.0
 11
664.4227777253578
 21
144.7422955681021
 31
0.0
  0
ARC
  5
1371
330
2
100
AcDbEntity
  8
0
100
AcDbCircle
 10
664.4227777253578
 20
140.7422955681021
 30
0.0
 40
4.0
100
AcDbArc
 50
90.0
 51
180.0
  0
ARC
  5
1372
330
2
100
AcDbEntity
  8
0
100
AcDbCircle
 10
674.4227777253578
 20
140.7422955681021
 30
0.0
 40
4.0
100
AcDbArc
 50
0.0
 51
90.0
  0
LINE
  5
1373
330
2
100
AcDbEntity
  8
0
100
AcDbLine
 10
673.3221048825535
 20
133.2422955681021
 30
0.0
 11
676.4227715541707
 21
133.2422955681021
 31
0.0
  0
LINE
  5
1EBA
330
2
100
AcDbEntity
  8
CENTER
100
AcDbLine
 10
528.937490179945
 20
150.2275769423286
 30
0.0
 11
607.9080529284214
 21
71.25701419385046
 31
0.0
  0
LINE
  5
1EBB
330
2
100
AcDbEntity
  8
CENTER
100
AcDbLine
 10
607.9080529283968
 20
150.2275769423275
 30
0.0
 11
528.9374901799191
 21
71.2570141938512
 31
0.0
  0
CIRCLE
  5
1EBC
330
2
100
AcDbEntity
  8
CENTER
100
AcDbCircle
 10
568.4227715541725
 20
110.7422955681021
 30
0.0
 40
44.0
  0
CIRCLE
  5
1EBD
330
2
100
AcDbEntity
  8
0
100
AcDbCircle
 10
568.4227715541725
 20
110.7422955681032
 30
0.0
 40
30.0
  0
CIRCLE
  5
1EBE
330
2
100
AcDbEntity
  8
0
100
AcDbCircle
 10
568.4227715541725
 20
110.7422955681032
 30
0.0
 40
24.00000000000017
  0
CIRCLE
  5
1EBF
330
2
100
AcDbEntity
  8
0
100
AcDbCircle
 10
568.4227715541725
 20
110.7422955681032
 30
0.0
 40
19.0
  0
ARC
  5
1EC0
330
2
100
AcDbEntity
  8
0
100
AcDbCircle
 10
568.4227715541734
 20
234.742295568102
 30
0.0
 40
160.0
100
AcDbArc
 50
264.0709145121234
 51
275.9290854878765
  0
ARC
  5
1EC1
330
2
100
AcDbEntity
  8
0
100
AcDbCircle
 10
568.4227715541743
 20
-13.25770443189787
 30
0.0
 40
160.0
100
AcDbArc
 50
84.07091451212343
 51
95.92908548787658
  0
LINE
  5
1EC5
330
2
100
AcDbEntity
  8
0
100
AcDbLine
 10
114.5982170539208
 20
83.24229556810507
 30
0.0
 11
125.0982170539217
 21
83.24229556810553
 31
0.0
  0
LINE
  5
1EC6
330
2
100
AcDbEntity
  8
0
100
AcDbLine
 10
113.5982170539208
 20
101.4686770726053
 30
0.0
 11
128.0982170539217
 21
101.4686770726053
 31
0.0
  0
LINE
  5
1EC7
330
2
100
AcDbEntity
  8
0
100
AcDbLine
 10
125.0982170539217
 20
88.24229556810099
 30
0.0
 11
116.5982170539208
 21
88.24229556810099
 31
0.0
  0
LINE
  5
1EC8
330
2
100
AcDbEntity
  8
0
100
AcDbLine
 10
113.5982170539199
 20
120.0159140635963
 30
0.0
 11
128.0982170539217
 21
120.015914063597
 31
0.0
  0
LINE
  5
1EC9
330
2
100
AcDbEntity
  8
0
100
AcDbLine
 10
114.5982170539208
 20
138.2422955680971
 30
0.0
 11
125.0982170539217
 21
138.2422955680966
 31
0.0
  0
LINE
  5
1ECA
330
2
100
AcDbEntity
  8
0
100
AcDbLine
 10
125.0982170539217
 20
133.2422955681009
 30
0.0
 11
116.5982170539144
 21
133.2422955681009
 31
0.0
  0
LINE
  5
1ECB
330
2
100
AcDbEntity
  8
0
100
AcDbLine
 10
113.5982170539144
 20
137.2422955680975
 30
0.0
 11
113.5982170539208
 21
84.24229556810507
 31
0.0
  0
LINE
  5
1ECC
330
2
100
AcDbEntity
  8
0
100
AcDbLine
 10
104.0982170539253
 20
76.24229556810099
 30
0.0
 11
104.0982170539272
 21
145.242295568101
 31
0.0
  0
ARC
  5
1ECE
330
2
100
AcDbEntity
  8
0
100
AcDbCircle
 10
114.5982170539208
 20
80.24229556810508
 30
0.0
 40
3.0
100
AcDbArc
 50
90.0
 51
126.8698976458212
  0
ARC
  5
1ECF
330
2
100
AcDbEntity
  8
0
100
AcDbCircle
 10
107.0982170539263
 20
79.24229556810463
 30
0.0
 40
3.0
100
AcDbArc
 50
90.0
 51
180.0
  0
ARC
  5
1ED0
330
2
100
AcDbEntity
  8
0
100
AcDbCircle
 10
111.5982170539208
 20
84.24229556810486
 30
0.0
 40
2.0
100
AcDbArc
 50
270.0
 51
0.0
  0
LINE
  5
1ED1
330
2
100
AcDbEntity
  8
0
100
AcDbLine
 10
92.0982170539254
 20
74.24229556810098
 30
0.0
 11
102.0982170539253
 21
74.24229556810098
 31
0.0
  0
LINE
  5
1ED2
330
2
100
AcDbEntity
  8
0
100
AcDbLine
 10
92.0982170539254
 20
74.74229556810098
 30
0.0
 11
102.0982170539253
 21
74.74229556810098
 31
0.0
  0
ARC
  5
1ED3
330
2
100
AcDbEntity
  8
0
100
AcDbCircle
 10
102.0982170539253
 20
76.24229556810099
 30
0.0
 40
2.0
100
AcDbArc
 50
270.0
 51
0.0
  0
LINE
  5
1ED4
330
2
100
AcDbEntity
  8
0
100
AcDbLine
 10
107.0982170539253
 20
82.24229556810461
 30
0.0
 11
111.5982170539208
 21
82.24229556810485
 31
0.0
  0
ARC
  5
1ED5
330
2
100
AcDbEntity
  8
0
100
AcDbCircle
 10
102.0982170539253
 20
76.74229556810098
 30
0.0
 40
2.0
100
AcDbArc
 50
270.0
 51
0.0
  0
ARC
  5
1ED6
330
2
100
AcDbEntity
  8
0
100
AcDbCircle
 10
116.5982170539208
 20
85.24229556810098
 30
0.0
 40
3.0
100
AcDbArc
 50
90.0
 51
180.0
  0
ARC
  5
1ED7
330
2
100
AcDbEntity
  8
0
100
AcDbCircle
 10
116.5982170539144
 20
136.2422955681009
 30
0.0
 40
3.0
100
AcDbArc
 50
180.0
 51
270.0
  0
LINE
  5
1ED8
330
2
100
AcDbEntity
  8
0
100
AcDbLine
 10
102.0982170539253
 20
147.2422955681009
 30
0.0
 11
92.0982170539254
 21
147.2422955681009
 31
0.0
  0
LINE
  5
1ED9
330
2
100
AcDbEntity
  8
0
100
AcDbLine
 10
102.0982170539253
 20
146.7422955681009
 30
0.0
 11
92.0982170539254
 21
146.7422955681009
 31
0.0
  0
ARC
  5
1EDA
330
2
100
AcDbEntity
  8
0
100
AcDbCircle
 10
102.0982170539253
 20
145.242295568101
 30
0.0
 40
2.0
100
AcDbArc
 50
0.0
 51
90.0
  0
ARC
  5
1EDB
330
2
100
AcDbEntity
  8
0
100
AcDbCircle
 10
102.0982170539253
 20
144.7422955681009
 30
0.0
 40
2.0
100
AcDbArc
 50
0.0
 51
90.0
  0
ARC
  5
1EDC
330
2
100
AcDbEntity
  8
0
100
AcDbCircle
 10
114.5982170539208
 20
141.2422955680971
 30
0.0
 40
3.0
100
AcDbArc
 50
233.1301023541299
 51
270.0
  0
ARC
  5
1EDD
330
2
100
AcDbEntity
  8
0
100
AcDbCircle
 10
111.5982170539208
 20
137.2422955680973
 30
0.0
 40
2.0
100
AcDbArc
 50
0.0
 51
90.0
  0
LINE
  5
1EDE
330
2
100
AcDbEntity
  8
0
100
AcDbLine
 10
107.0982170539253
 20
139.2422955680973
 30
0.0
 11
111.5982170539208
 21
139.2422955680973
 31
0.0
  0
ARC
  5
1EDF
330
2
100
AcDbEntity
  8
0
100
AcDbCircle
 10
107.0982170539263
 20
142.2422955680975
 30
0.0
 40
3.0
100
AcDbArc
 50
180.0
 51
270.0
  0
LINE
  5
1EE0
330
2
100
AcDbEntity
  8
CENTER
100
AcDbLine
 10
164.0982170539217
 20
64.74229556810024
 30
0.0
 11
164.0982170539213
 21
156.7422955681005
 31
0.0
  0
LINE
  5
1EE1
330
2
100
AcDbEntity
  8
CENTER
100
AcDbLine
 10
124.6129356796701
 20
150.2275769423512
 30
0.0
 11
203.5834984281488
 21
71.25701419387514
 31
0.0
  0
LINE
  5
1EE2
330
2
100
AcDbEntity
  8
CENTER
100
AcDbLine
 10
203.5834984281728
 20
150.2275769423515
 30
0.0
 11
124.6129356796956
 21
71.25701419387474
 31
0.0
  0
ARC
  5
1EE3
330
2
100
AcDbEntity
  8
0
100
AcDbCircle
 10
229.0818134988284
 20
130.3688152480855
 30
0.0
 40
30.0
100
AcDbArc
 50
166.1581756815797
 51
185.9290854878502
  0
LINE
  5
1EE4
330
2
100
AcDbEntity
  8
CENTER
100
AcDbLine
 10
195.0982170539199
 20
148.9922955681016
 30
0.0
 11
195.0982170539208
 21
134.4922955681014
 31
0.0
  0
LINE
  5
1EE5
330
2
100
AcDbEntity
  8
0
100
AcDbLine
 10
135.0626831479893
 20
131.2042363452263
 30
0.0
 11
143.6362762767966
 21
139.7778294740338
 31
0.0
  0
CIRCLE
  5
1EE6
330
2
100
AcDbEntity
  8
0
100
AcDbCircle
 10
132.5982170539217
 20
135.2422955681
 30
0.0
 40
1.6
  0
CIRCLE
  5
1EE7
330
2
100
AcDbEntity
  8
HOJO
100
AcDbCircle
 10
132.5982170539217
 20
135.2422955681
 30
0.0
 40
2.0
  0
LINE
  5
1EE8
330
2
100
AcDbEntity
  8
CENTER
100
AcDbLine
 10
132.5982170539208
 20
140.4155006488571
 30
0.0
 11
132.5982170539217
 21
130.069090487343
 31
0.0
  0
LINE
  5
1EE9
330
2
100
AcDbEntity
  8
CENTER
100
AcDbLine
 10
133.0982170539235
 20
148.9922955681014
 30
0.0
 11
133.0982170539226
 21
134.4922955681009
 31
0.0
  0
LINE
  5
1EEA
330
2
100
AcDbEntity
  8
0
100
AcDbLine
 10
133.648469585616
 20
132.6184499075994
 30
0.0
 11
142.2220627144241
 21
141.1920430364069
 31
0.0
  0
LINE
  5
1EEB
330
2
100
AcDbEntity
  8
0
100
AcDbLine
 10
194.5479645222284
 20
132.6184499075994
 30
0.0
 11
185.9743713934202
 21
141.1920430364071
 31
0.0
  0
LINE
  5
1EEC
330
2
100
AcDbEntity
  8
0
100
AcDbLine
 10
193.133750959855
 20
131.2042363452265
 30
0.0
 11
184.5601578310478
 21
139.7778294740338
 31
0.0
  0
LINE
  5
1EED
330
2
100
AcDbEntity
  8
0
100
AcDbLine
 10
128.4682170539234
 20
79.74229556810098
 30
0.0
 11
128.4682170539216
 21
141.7422955681009
 31
0.0
  0
LINE
  5
1EEE
330
2
100
AcDbEntity
  8
0
100
AcDbLine
 10
128.0982170539217
 20
79.74229556812599
 30
0.0
 11
128.0982170539144
 21
141.7422955681248
 31
0.0
  0
CIRCLE
  5
1EEF
330
2
100
AcDbEntity
  8
0
100
AcDbCircle
 10
195.0982170539217
 20
79.74229556810121
 30
0.0
 40
3.730384757729268
  0
CIRCLE
  5
1EF0
330
2
100
AcDbEntity
  8
0
100
AcDbCircle
 10
195.0982170539217
 20
79.74229556810121
 30
0.0
 40
4.250000000000085
  0
LINE
  5
1EF1
330
2
100
AcDbEntity
  8
CENTER
100
AcDbLine
 10
200.7714221346794
 20
86.24229556810144
 30
0.0
 11
190.4250119731649
 21
86.24229556810144
 31
0.0
  0
LINE
  5
1EF2
330
2
100
AcDbEntity
  8
CENTER
100
AcDbLine
 10
202.3482170539217
 20
79.74229556810121
 30
0.0
 11
187.8482170539217
 21
79.74229556810121
 31
0.0
  0
LINE
  5
1EF3
330
2
100
AcDbEntity
  8
0
100
AcDbLine
 10
194.5479645222284
 20
88.86614122860271
 30
0.0
 11
185.9743713934202
 21
80.29254809979523
 31
0.0
  0
LINE
  5
1EF4
330
2
100
AcDbEntity
  8
0
100
AcDbLine
 10
192.0982170539217
 20
74.74229556810371
 30
0.0
 11
195.0982170539217
 21
74.74229556810371
 31
0.0
  0
LINE
  5
1EF5
330
2
100
AcDbEntity
  8
0
100
AcDbLine
 10
193.133750959855
 20
90.28035479097582
 30
0.0
 11
184.5601578310478
 21
81.70676166216834
 31
0.0
  0
LINE
  5
1EF6
330
2
100
AcDbEntity
  8
0
100
AcDbLine
 10
131.5982170539217
 20
127.6687024392937
 30
0.0
 11
131.5982170539217
 21
93.81588869690871
 31
0.0
  0
LINE
  5
1EF7
330
2
100
AcDbEntity
  8
0
100
AcDbLine
 10
133.5982170539217
 20
127.6687024392937
 30
0.0
 11
133.5982170539217
 21
93.81588869690871
 31
0.0
  0
CIRCLE
  5
1EF8
330
2
100
AcDbEntity
  8
0
100
AcDbCircle
 10
164.0982170539217
 20
110.7422955681012
 30
0.0
 40
19.0
  0
CIRCLE
  5
1EF9
330
2
100
AcDbEntity
  8
0
100
AcDbCircle
 10
164.0982170539217
 20
110.7422955681012
 30
0.0
 40
19.5774
  0
CIRCLE
  5
1EFA
330
2
100
AcDbEntity
  8
0
100
AcDbCircle
 10
164.0982170539217
 20
110.7422955681012
 30
0.0
 40
23.0
  0
CIRCLE
  5
1EFB
330
2
100
AcDbEntity
  8
0
100
AcDbCircle
 10
164.0982170539217
 20
110.7422955681012
 30
0.0
 40
22.42259999999999
  0
CIRCLE
  5
1EFC
330
2
100
AcDbEntity
  8
0
100
AcDbCircle
 10
164.0982170539217
 20
110.7422955681012
 30
0.0
 40
25.0
  0
CIRCLE
  5
1EFD
330
2
100
AcDbEntity
  8
0
100
AcDbCircle
 10
164.0982170539217
 20
110.7422955681012
 30
0.0
 40
25.5
  0
LINE
  5
1EFE
330
2
100
AcDbEntity
  8
0
100
AcDbLine
 10
147.171810182729
 20
78.24229556810099
 30
0.0
 11
181.0246239251144
 21
78.24229556810076
 31
0.0
  0
LINE
  5
1EFF
330
2
100
AcDbEntity
  8
0
100
AcDbLine
 10
147.171810182729
 20
80.24229556810098
 30
0.0
 11
181.0246239251144
 21
80.24229556810098
 31
0.0
  0
ARC
  5
1F00
330
2
100
AcDbEntity
  8
0
100
AcDbCircle
 10
164.0982170539181
 20
234.7422955681002
 30
0.0
 40
160.0
100
AcDbArc
 50
264.0709145121234
 51
275.9290854878765
  0
ARC
  5
1F01
330
2
100
AcDbEntity
  8
0
100
AcDbCircle
 10
133.4682170539234
 20
79.74229556810121
 30
0.0
 40
5.0
100
AcDbArc
 50
180.0
 51
270.0
  0
LINE
  5
1F02
330
2
100
AcDbEntity
  8
CENTER
100
AcDbLine
 10
125.8482170539217
 20
79.7422955681003
 30
0.0
 11
140.3482170539226
 21
79.74229556810076
 31
0.0
  0
ARC
  5
1F03
330
2
100
AcDbEntity
  8
0
100
AcDbCircle
 10
125.0982170539217
 20
80.24229556810553
 30
0.0
 40
3.0
100
AcDbArc
 50
0.0
 51
90.0
  0
ARC
  5
1F04
330
2
100
AcDbEntity
  8
0
100
AcDbCircle
 10
125.0982170539217
 20
85.24229556810098
 30
0.0
 40
3.0
100
AcDbArc
 50
0.0
 51
90.0
  0
ARC
  5
1F05
330
2
100
AcDbEntity
  8
0
100
AcDbCircle
 10
133.0982170539217
 20
79.74229556812599
 30
0.0
 40
5.0
100
AcDbArc
 50
180.0
 51
270.0
  0
CIRCLE
  5
1F06
330
2
100
AcDbEntity
  8
0
100
AcDbCircle
 10
133.0982170539217
 20
79.74229556810121
 30
0.0
 40
3.730384757729268
  0
CIRCLE
  5
1F07
330
2
100
AcDbEntity
  8
0
100
AcDbCircle
 10
133.0982170539217
 20
79.74229556810121
 30
0.0
 40
4.250000000000085
  0
LINE
  5
1F08
330
2
100
AcDbEntity
  8
CENTER
100
AcDbLine
 10
133.0982170539226
 20
72.49229556810075
 30
0.0
 11
133.0982170539226
 21
86.99229556810099
 31
0.0
  0
LINE
  5
1F09
330
2
100
AcDbEntity
  8
0
100
AcDbLine
 10
135.0626831479893
 20
90.28035479097582
 30
0.0
 11
143.6362762767966
 21
81.70676166216834
 31
0.0
  0
LINE
  5
1F0A
330
2
100
AcDbEntity
  8
0
100
AcDbLine
 10
133.648469585616
 20
88.86614122860271
 30
0.0
 11
142.2220627144241
 21
80.29254809979523
 31
0.0
  0
LINE
  5
1F0B
330
2
100
AcDbEntity
  8
0
100
AcDbLine
 10
131.0982170539217
 20
80.89699610648052
 30
0.0
 11
131.0982170539217
 21
78.58759502972214
 31
0.0
  0
LINE
  5
1F0C
330
2
100
AcDbEntity
  8
0
100
AcDbLine
 10
133.0982170539217
 20
82.05169664485982
 30
0.0
 11
135.0982170539217
 21
80.89699610648052
 31
0.0
  0
LINE
  5
1F0D
330
2
100
AcDbEntity
  8
0
100
AcDbLine
 10
135.0982170539217
 20
78.58759502972191
 30
0.0
 11
133.0982170539217
 21
77.43289449134284
 31
0.0
  0
LINE
  5
1F0E
330
2
100
AcDbEntity
  8
0
100
AcDbLine
 10
135.0982170539217
 20
80.89699610648052
 30
0.0
 11
135.0982170539217
 21
78.58759502972191
 31
0.0
  0
LINE
  5
1F0F
330
2
100
AcDbEntity
  8
0
100
AcDbLine
 10
133.0982170539217
 20
82.05169664485959
 30
0.0
 11
131.0982170539217
 21
80.89699610648052
 31
0.0
  0
LINE
  5
1F10
330
2
100
AcDbEntity
  8
0
100
AcDbLine
 10
131.0982170539217
 20
78.58759502972214
 30
0.0
 11
133.0982170539217
 21
77.43289449134284
 31
0.0
  0
LINE
  5
1F11
330
2
100
AcDbEntity
  8
0
100
AcDbLine
 10
145.2583930209037
 20
80.62289790554439
 30
0.0
 11
144.4930261561738
 21
78.77513884052167
 31
0.0
  0
ARC
  5
1F12
330
2
100
AcDbEntity
  8
0
100
AcDbCircle
 10
147.171810182729
 20
85.24229556810098
 30
0.0
 40
5.0
100
AcDbArc
 50
224.9999999999792
 51
270.0
  0
ARC
  5
1F13
330
2
100
AcDbEntity
  8
0
100
AcDbCircle
 10
147.171810182729
 20
85.24229556810098
 30
0.0
 40
7.0
100
AcDbArc
 50
224.9999999999792
 51
270.0
  0
LINE
  5
1F14
330
2
100
AcDbEntity
  8
0
100
AcDbLine
 10
136.0982170539226
 20
74.74229556810121
 30
0.0
 11
133.4682170539234
 21
74.74229556810121
 31
0.0
  0
ARC
  5
1F15
330
2
100
AcDbEntity
  8
0
100
AcDbCircle
 10
136.0982170539217
 20
79.74229556810371
 30
0.0
 40
5.0
100
AcDbArc
 50
270.0
 51
283.841824318421
  0
LINE
  5
1F16
330
2
100
AcDbEntity
  8
0
100
AcDbLine
 10
136.0982170539217
 20
74.74229556810371
 30
0.0
 11
133.0982170539217
 21
74.74229556810371
 31
0.0
  0
ARC
  5
1F17
330
2
100
AcDbEntity
  8
0
100
AcDbCircle
 10
144.4716973739404
 20
45.75869912319729
 30
0.0
 40
30.0
100
AcDbArc
 50
84.07091451212343
 51
103.841824318421
  0
LINE
  5
1F18
330
2
100
AcDbEntity
  8
0
100
AcDbLine
 10
133.9788193913654
 20
91.902471535083
 30
0.0
 11
132.1310603263426
 21
91.13710467035264
 31
0.0
  0
ARC
  5
1F19
330
2
100
AcDbEntity
  8
0
100
AcDbCircle
 10
138.5982170539217
 20
93.81588869690871
 30
0.0
 40
5.0
100
AcDbArc
 50
180.0
 51
224.9999999999792
  0
ARC
  5
1F1A
330
2
100
AcDbEntity
  8
0
100
AcDbCircle
 10
138.5982170539217
 20
93.81588869690871
 30
0.0
 40
7.0
100
AcDbArc
 50
180.0
 51
224.9999999999792
  0
LINE
  5
1F1B
330
2
100
AcDbEntity
  8
0
100
AcDbLine
 10
182.9380410869406
 20
80.62289790554439
 30
0.0
 11
183.7034079516705
 21
78.77513884052189
 31
0.0
  0
ARC
  5
1F1C
330
2
100
AcDbEntity
  8
0
100
AcDbCircle
 10
181.0246239251144
 20
85.24229556810098
 30
0.0
 40
7.0
100
AcDbArc
 50
270.0
 51
315.0000000000206
  0
ARC
  5
1F1D
330
2
100
AcDbEntity
  8
0
100
AcDbCircle
 10
181.0246239251144
 20
85.24229556810098
 30
0.0
 40
5.0
100
AcDbArc
 50
270.0
 51
315.0000000000206
  0
ARC
  5
1F1E
330
2
100
AcDbEntity
  8
0
100
AcDbCircle
 10
183.724736733904
 20
45.75869912319729
 30
0.0
 40
30.0
100
AcDbArc
 50
76.15817568157897
 51
95.92908548787658
  0
ARC
  5
1F1F
330
2
100
AcDbEntity
  8
0
100
AcDbCircle
 10
192.0982170539217
 20
79.74229556810371
 30
0.0
 40
5.0
100
AcDbArc
 50
256.1581756815789
 51
270.0
  0
LINE
  5
1F20
330
2
100
AcDbEntity
  8
0
100
AcDbLine
 10
127.5982170539217
 20
101.4686770726053
 30
0.0
 11
127.5982170539217
 21
120.015914063597
 31
0.0
  0
LINE
  5
1F21
330
2
100
AcDbEntity
  8
CENTER
100
AcDbLine
 10
127.425011973164
 20
135.2422955680998
 30
0.0
 11
137.7714221346785
 21
135.2422955681003
 31
0.0
  0
ARC
  5
1F22
330
2
100
AcDbEntity
  8
0
100
AcDbCircle
 10
125.0982170539217
 20
136.2422955681009
 30
0.0
 40
3.0
100
AcDbArc
 50
270.0
 51
0.0
  0
LINE
  5
1F23
330
2
100
AcDbEntity
  8
0
100
AcDbLine
 10
133.9788193913654
 20
129.5821196011189
 30
0.0
 11
132.1310603263426
 21
130.3474864658491
 31
0.0
  0
ARC
  5
1F24
330
2
100
AcDbEntity
  8
0
100
AcDbCircle
 10
138.5982170539217
 20
127.6687024392937
 30
0.0
 40
7.0
100
AcDbArc
 50
135.0000000000207
 51
180.0
  0
ARC
  5
1F25
330
2
100
AcDbEntity
  8
0
100
AcDbCircle
 10
138.5982170539217
 20
127.6687024392937
 30
0.0
 40
5.0
100
AcDbArc
 50
135.0000000000207
 51
180.0
  0
LINE
  5
1F26
330
2
100
AcDbEntity
  8
0
100
AcDbLine
 10
196.5982170539226
 20
93.81588869690871
 30
0.0
 11
196.5982170539226
 21
127.6687024392937
 31
0.0
  0
LINE
  5
1F27
330
2
100
AcDbEntity
  8
0
100
AcDbLine
 10
194.5982170539226
 20
93.81588869690871
 30
0.0
 11
194.5982170539226
 21
127.6687024392937
 31
0.0
  0
ARC
  5
1F28
330
2
100
AcDbEntity
  8
0
100
AcDbCircle
 10
40.09821705392176
 20
110.7422955681039
 30
0.0
 40
160.0
100
AcDbArc
 50
354.0709145121496
 51
5.92908548785031
  0
LINE
  5
1F29
330
2
100
AcDbEntity
  8
0
100
AcDbLine
 10
195.0982170539217
 20
82.05169664485982
 30
0.0
 11
193.0982170539217
 21
80.89699610648052
 31
0.0
  0
LINE
  5
1F2A
330
2
100
AcDbEntity
  8
0
100
AcDbLine
 10
193.0982170539217
 20
78.58759502972191
 30
0.0
 11
195.0982170539217
 21
77.43289449134284
 31
0.0
  0
ARC
  5
1F2B
330
2
100
AcDbEntity
  8
0
100
AcDbCircle
 10
189.5982170539217
 20
93.81588869690871
 30
0.0
 40
5.0
100
AcDbArc
 50
315.0000000000206
 51
0.0
  0
CIRCLE
  5
1F2C
330
2
100
AcDbEntity
  8
HOJO
100
AcDbCircle
 10
195.5982170539217
 20
86.24229556810144
 30
0.0
 40
2.0
  0
LINE
  5
1F2D
330
2
100
AcDbEntity
  8
0
100
AcDbLine
 10
193.0982170539217
 20
80.89699610648052
 30
0.0
 11
193.0982170539217
 21
78.58759502972191
 31
0.0
  0
ARC
  5
1F2E
330
2
100
AcDbEntity
  8
0
100
AcDbCircle
 10
195.0982170539217
 20
79.74229556812531
 30
0.0
 40
5.0
100
AcDbArc
 50
270.0
 51
0.0
  0
LINE
  5
1F2F
330
2
100
AcDbEntity
  8
CENTER
100
AcDbLine
 10
195.5982170539217
 20
81.0690904873444
 30
0.0
 11
195.5982170539217
 21
91.41550064885848
 31
0.0
  0
LINE
  5
1F30
330
2
100
AcDbEntity
  8
CENTER
100
AcDbLine
 10
195.0982170539217
 20
72.49229556810099
 30
0.0
 11
195.0982170539217
 21
86.99229556810122
 31
0.0
  0
LINE
  5
1F31
330
2
100
AcDbEntity
  8
0
100
AcDbLine
 10
197.0982170539217
 20
80.89699610648052
 30
0.0
 11
197.0982170539217
 21
78.58759502972214
 31
0.0
  0
LINE
  5
1F32
330
2
100
AcDbEntity
  8
0
100
AcDbLine
 10
195.0982170539217
 20
82.05169664485959
 30
0.0
 11
197.0982170539217
 21
80.89699610648052
 31
0.0
  0
LINE
  5
1F33
330
2
100
AcDbEntity
  8
0
100
AcDbLine
 10
197.0982170539217
 20
78.58759502972214
 30
0.0
 11
195.0982170539217
 21
77.43289449134284
 31
0.0
  0
LINE
  5
1F34
330
2
100
AcDbEntity
  8
0
100
AcDbLine
 10
194.217614716479
 20
91.90247153508323
 30
0.0
 11
196.0653737815017
 21
91.13710467035309
 31
0.0
  0
ARC
  5
1F35
330
2
100
AcDbEntity
  8
0
100
AcDbCircle
 10
189.5982170539217
 20
93.81588869690871
 30
0.0
 40
7.0
100
AcDbArc
 50
315.0000000000206
 51
0.0
  0
CIRCLE
  5
1F36
330
2
100
AcDbEntity
  8
0
100
AcDbCircle
 10
195.5982170539217
 20
86.24229556810144
 30
0.0
 40
1.6
  0
ARC
  5
1F37
330
2
100
AcDbEntity
  8
0
100
AcDbCircle
 10
195.0982170539217
 20
82.74229556810372
 30
0.0
 40
5.0
100
AcDbArc
 50
0.0
 51
13.84182431842025
  0
LINE
  5
1F38
330
2
100
AcDbEntity
  8
0
100
AcDbLine
 10
200.0982170539217
 20
82.74229556810372
 30
0.0
 11
200.0982170539217
 21
79.74229556812531
 31
0.0
  0
ARC
  5
1F39
330
2
100
AcDbEntity
  8
0
100
AcDbCircle
 10
229.0818134988284
 20
91.1157758881219
 30
0.0
 40
30.0
100
AcDbArc
 50
174.0709145121497
 51
193.8418243184202
  0
ARC
  5
1F3A
330
2
100
AcDbEntity
  8
0
100
AcDbCircle
 10
189.5982170539217
 20
127.6687024392937
 30
0.0
 40
5.0
100
AcDbArc
 50
0.0
 51
44.99999999997927
  0
LINE
  5
1F3B
330
2
100
AcDbEntity
  8
0
100
AcDbLine
 10
194.217614716479
 20
129.5821196011191
 30
0.0
 11
196.0653737815017
 21
130.3474864658493
 31
0.0
  0
ARC
  5
1F3C
330
2
100
AcDbEntity
  8
0
100
AcDbCircle
 10
189.5982170539217
 20
127.6687024392937
 30
0.0
 40
7.0
100
AcDbArc
 50
0.0
 51
44.99999999997927
  0
CIRCLE
  5
1F3D
330
2
100
AcDbEntity
  8
0
100
AcDbCircle
 10
195.0982170539208
 20
141.7422955680996
 30
0.0
 40
3.730384757729268
  0
CIRCLE
  5
1F3E
330
2
100
AcDbEntity
  8
0
100
AcDbCircle
 10
195.0982170539208
 20
141.7422955680996
 30
0.0
 40
4.250000000000085
  0
LINE
  5
1F3F
330
2
100
AcDbEntity
  8
CENTER
100
AcDbLine
 10
202.3482170539208
 20
141.7422955681018
 30
0.0
 11
187.8482170539208
 21
141.7422955681012
 31
0.0
  0
LINE
  5
1F40
330
2
100
AcDbEntity
  8
0
100
AcDbLine
 10
192.0982170539217
 20
146.7422955681039
 30
0.0
 11
195.0982170539217
 21
146.7422955681039
 31
0.0
  0
LINE
  5
1F41
330
2
100
AcDbEntity
  8
0
100
AcDbLine
 10
147.171810182729
 20
141.2422955681012
 30
0.0
 11
181.0246239251144
 21
141.2422955681012
 31
0.0
  0
LINE
  5
1F42
330
2
100
AcDbEntity
  8
0
100
AcDbLine
 10
147.171810182729
 20
143.2422955681012
 30
0.0
 11
181.0246239251144
 21
143.2422955681014
 31
0.0
  0
ARC
  5
1F43
330
2
100
AcDbEntity
  8
0
100
AcDbCircle
 10
164.098217053919
 20
-13.25770443189947
 30
0.0
 40
160.0
100
AcDbArc
 50
84.07091451212343
 51
95.92908548787658
  0
ARC
  5
1F44
330
2
100
AcDbEntity
  8
0
100
AcDbCircle
 10
133.4682170539216
 20
141.7422955681012
 30
0.0
 40
5.0
100
AcDbArc
 50
90.0
 51
180.0
  0
LINE
  5
1F45
330
2
100
AcDbEntity
  8
CENTER
100
AcDbLine
 10
125.8482170539226
 20
141.7422955681023
 30
0.0
 11
140.3482170539235
 21
141.7422955681016
 31
0.0
  0
ARC
  5
1F46
330
2
100
AcDbEntity
  8
0
100
AcDbCircle
 10
133.0982170539217
 20
141.7422955681255
 30
0.0
 40
5.0
100
AcDbArc
 50
90.0
 51
180.0
  0
LINE
  5
1F47
330
2
100
AcDbEntity
  8
0
100
AcDbLine
 10
133.0982170539235
 20
144.0516966448582
 30
0.0
 11
135.0982170539235
 21
142.8969961064789
 31
0.0
  0
LINE
  5
1F48
330
2
100
AcDbEntity
  8
0
100
AcDbLine
 10
133.0982170539235
 20
144.0516966448579
 30
0.0
 11
131.0982170539235
 21
142.8969961064789
 31
0.0
  0
ARC
  5
1F49
330
2
100
AcDbEntity
  8
0
100
AcDbCircle
 10
147.171810182729
 20
136.2422955681014
 30
0.0
 40
7.0
100
AcDbArc
 50
90.0
 51
135.0000000000207
  0
LINE
  5
1F4A
330
2
100
AcDbEntity
  8
0
100
AcDbLine
 10
136.0982170539226
 20
146.7422955681012
 30
0.0
 11
133.4682170539216
 21
146.7422955681012
 31
0.0
  0
ARC
  5
1F4B
330
2
100
AcDbEntity
  8
0
100
AcDbCircle
 10
136.0982170539217
 20
141.7422955681039
 30
0.0
 40
5.0
100
AcDbArc
 50
76.15817568157897
 51
90.0
  0
LINE
  5
1F4C
330
2
100
AcDbEntity
  8
0
100
AcDbLine
 10
136.0982170539217
 20
146.7422955681039
 30
0.0
 11
133.0982170539217
 21
146.7422955681039
 31
0.0
  0
ARC
  5
1F4D
330
2
100
AcDbEntity
  8
0
100
AcDbCircle
 10
144.4716973739404
 20
175.7258920130103
 30
0.0
 40
30.0
100
AcDbArc
 50
256.1581756815789
 51
275.9290854878765
  0
LINE
  5
1F4E
330
2
100
AcDbEntity
  8
0
100
AcDbLine
 10
135.0982170539235
 20
140.5875950297203
 30
0.0
 11
133.0982170539235
 21
139.4328944913412
 31
0.0
  0
LINE
  5
1F4F
330
2
100
AcDbEntity
  8
0
100
AcDbLine
 10
131.0982170539235
 20
140.5875950297205
 30
0.0
 11
133.0982170539235
 21
139.4328944913412
 31
0.0
  0
ARC
  5
1F50
330
2
100
AcDbEntity
  8
0
100
AcDbCircle
 10
125.0982170539217
 20
141.2422955680966
 30
0.0
 40
3.0
100
AcDbArc
 50
270.0
 51
0.0
  0
LINE
  5
1F51
330
2
100
AcDbEntity
  8
0
100
AcDbLine
 10
131.0982170539235
 20
142.8969961064789
 30
0.0
 11
131.0982170539235
 21
140.5875950297205
 31
0.0
  0
LINE
  5
1F52
330
2
100
AcDbEntity
  8
0
100
AcDbLine
 10
135.0982170539235
 20
142.8969961064789
 30
0.0
 11
135.0982170539235
 21
140.5875950297203
 31
0.0
  0
CIRCLE
  5
1F53
330
2
100
AcDbEntity
  8
0
100
AcDbCircle
 10
133.0982170539235
 20
141.7422955680996
 30
0.0
 40
3.730384757729268
  0
CIRCLE
  5
1F54
330
2
100
AcDbEntity
  8
0
100
AcDbCircle
 10
133.0982170539235
 20
141.7422955680996
 30
0.0
 40
4.250000000000085
  0
LINE
  5
1F55
330
2
100
AcDbEntity
  8
0
100
AcDbLine
 10
145.2583930209037
 20
140.8616932306575
 30
0.0
 11
144.4930261561738
 21
142.70945229568
 31
0.0
  0
ARC
  5
1F56
330
2
100
AcDbEntity
  8
0
100
AcDbCircle
 10
147.171810182729
 20
136.2422955681014
 30
0.0
 40
5.0
100
AcDbArc
 50
90.0
 51
135.0000000000207
  0
ARC
  5
1F57
330
2
100
AcDbEntity
  8
0
100
AcDbCircle
 10
181.0246239251144
 20
136.2422955681014
 30
0.0
 40
7.0
100
AcDbArc
 50
44.99999999997927
 51
90.0
  0
ARC
  5
1F58
330
2
100
AcDbEntity
  8
0
100
AcDbCircle
 10
192.0982170539217
 20
141.7422955681039
 30
0.0
 40
5.0
100
AcDbArc
 50
90.0
 51
103.841824318421
  0
ARC
  5
1F59
330
2
100
AcDbEntity
  8
0
100
AcDbCircle
 10
183.724736733904
 20
175.7258920130103
 30
0.0
 40
30.0
100
AcDbArc
 50
264.0709145121234
 51
283.841824318421
  0
LINE
  5
1F5A
330
2
100
AcDbEntity
  8
0
100
AcDbLine
 10
182.9380410869406
 20
140.8616932306578
 30
0.0
 11
183.7034079516705
 21
142.7094522956803
 31
0.0
  0
ARC
  5
1F5B
330
2
100
AcDbEntity
  8
0
100
AcDbCircle
 10
181.0246239251144
 20
136.2422955681014
 30
0.0
 40
5.0
100
AcDbArc
 50
44.99999999997927
 51
90.0
  0
LINE
  5
1F5C
330
2
100
AcDbEntity
  8
0
100
AcDbLine
 10
195.0982170539199
 20
144.0516966448582
 30
0.0
 11
193.0982170539208
 21
142.8969961064789
 31
0.0
  0
ARC
  5
1F5D
330
2
100
AcDbEntity
  8
0
100
AcDbCircle
 10
195.0982170539217
 20
141.7422955681253
 30
0.0
 40
5.0
100
AcDbArc
 50
0.0
 51
90.0
  0
LINE
  5
1F5E
330
2
100
AcDbEntity
  8
0
100
AcDbLine
 10
195.0982170539199
 20
144.0516966448579
 30
0.0
 11
197.0982170539208
 21
142.8969961064789
 31
0.0
  0
LINE
  5
1F5F
330
2
100
AcDbEntity
  8
0
100
AcDbLine
 10
193.0982170539208
 20
140.5875950297203
 30
0.0
 11
195.0982170539199
 21
139.4328944913412
 31
0.0
  0
LINE
  5
1F60
330
2
100
AcDbEntity
  8
0
100
AcDbLine
 10
197.0982170539208
 20
140.5875950297205
 30
0.0
 11
195.0982170539208
 21
139.4328944913412
 31
0.0
  0
ARC
  5
1F61
330
2
100
AcDbEntity
  8
0
100
AcDbCircle
 10
195.0982170539217
 20
138.7422955681041
 30
0.0
 40
5.0
100
AcDbArc
 50
346.1581756815797
 51
0.0
  0
LINE
  5
1F62
330
2
100
AcDbEntity
  8
0
100
AcDbLine
 10
193.0982170539208
 20
142.8969961064789
 30
0.0
 11
193.0982170539208
 21
140.5875950297203
 31
0.0
  0
LINE
  5
1F63
330
2
100
AcDbEntity
  8
0
100
AcDbLine
 10
197.0982170539208
 20
142.8969961064789
 30
0.0
 11
197.0982170539208
 21
140.5875950297205
 31
0.0
  0
LINE
  5
1F64
330
2
100
AcDbEntity
  8
0
100
AcDbLine
 10
200.0982170539217
 20
138.7422955681041
 30
0.0
 11
200.0982170539217
 21
141.7422955681253
 31
0.0
  0
LINE
  5
1F69
330
2
100
AcDbEntity
  8
CENTER
100
AcDbLine
 10
257.9715760977312
 20
110.7422955681021
 30
0.0
 11
403.9715760980254
 21
110.742295568102
 31
0.0
  0
LINE
  5
1F6E
330
2
100
AcDbEntity
  8
CENTER
100
AcDbLine
 10
305.971576098025
 20
64.24229556810383
 30
0.0
 11
305.971576098025
 21
157.2422955681003
 31
0.0
  0
ARC
  5
1F6F
330
2
100
AcDbEntity
  8
0
100
AcDbCircle
 10
350.9715760980282
 20
137.1276431211002
 30
0.0
 40
2.0
100
AcDbArc
 50
180.0
 51
267.9999999999963
  0
LINE
  5
1F70
330
2
100
AcDbEntity
  8
0
100
AcDbLine
 10
269.9715760980209
 20
141.8112577827149
 30
0.0
 11
269.9715760980209
 21
133.7422955681029
 31
0.0
  0
LINE
  5
1F71
330
2
100
AcDbEntity
  8
0
100
AcDbLine
 10
276.4715760977253
 20
137.4922955680936
 30
0.0
 11
276.4715760977253
 21
83.99229556811048
 31
0.0
  0
LINE
  5
1F72
330
2
100
AcDbEntity
  8
0
100
AcDbLine
 10
278.4715760977253
 20
145.9922955680932
 30
0.0
 11
278.4715760977253
 21
75.49229556811048
 31
0.0
  0
LINE
  5
1F73
330
2
100
AcDbEntity
  8
0
100
AcDbLine
 10
284.9715760977299
 20
146.7379321341891
 30
0.0
 11
284.9715760977299
 21
74.746659002022
 31
0.0
  0
LINE
  5
1F74
330
2
100
AcDbEntity
  8
0
100
AcDbLine
 10
348.9715760980245
 20
80.74229556810548
 30
0.0
 11
348.9715760980245
 21
140.7422955681052
 31
0.0
  0
LINE
  5
1F75
330
2
100
AcDbEntity
  8
0
100
AcDbLine
 10
343.9715760980254
 20
75.25718076773461
 30
0.0
 11
343.9715760980263
 21
146.2274103684626
 31
0.0
  0
LINE
  5
1F76
330
2
100
AcDbEntity
  8
0
100
AcDbLine
 10
343.9715760980263
 20
127.2698910880984
 30
0.0
 11
284.9715760977299
 21
127.2698910880984
 31
0.0
  0
LINE
  5
1F77
330
2
100
AcDbEntity
  8
0
100
AcDbLine
 10
343.9715760980263
 20
94.21470004810572
 30
0.0
 11
284.9715760977299
 21
94.21470004810572
 31
0.0
  0
LINE
  5
1F78
330
2
100
AcDbEntity
  8
0
100
AcDbLine
 10
343.9715760980263
 20
79.74229556811048
 30
0.0
 11
284.9715760977299
 21
79.74229556811048
 31
0.0
  0
LINE
  5
1F79
330
2
100
AcDbEntity
  8
0
100
AcDbLine
 10
343.9715760980263
 20
82.74229556808865
 30
0.0
 11
284.9715760977299
 21
82.74229556808865
 31
0.0
  0
LINE
  5
1F7A
330
2
100
AcDbEntity
  8
0
100
AcDbLine
 10
284.9715760977299
 20
74.74229556810207
 30
0.0
 11
343.9715760980254
 21
75.25718076773461
 31
0.0
  0
LINE
  5
1F7B
330
2
100
AcDbEntity
  8
0
100
AcDbLine
 10
337.0410138454692
 20
74.67381553681736
 30
0.0
 11
305.9715760980227
 21
74.24229556810388
 31
0.0
  0
LINE
  5
1F7C
330
2
100
AcDbEntity
  8
0
100
AcDbLine
 10
268.9715760977299
 20
133.7422955681029
 30
0.0
 11
268.9715760977307
 21
87.74229556810116
 31
0.0
  0
LINE
  5
1F7D
330
2
100
AcDbEntity
  8
0
100
AcDbLine
 10
267.9715760977298
 20
133.1649452989138
 30
0.0
 11
267.9715760977317
 21
88.31964583729002
 31
0.0
  0
LINE
  5
1F7E
330
2
100
AcDbEntity
  8
0
100
AcDbLine
 10
275.9715760977308
 20
130.6375518818243
 30
0.0
 11
275.9715760977308
 21
90.84703925437958
 31
0.0
  0
LINE
  5
1F7F
330
2
100
AcDbEntity
  8
0
100
AcDbLine
 10
270.4715760977299
 20
87.94229556810142
 30
0.0
 11
270.4715760977808
 21
133.5422955681027
 31
0.0
  0
LINE
  5
1F80
330
2
100
AcDbEntity
  8
0
100
AcDbLine
 10
272.4715760977299
 20
87.94229556810165
 30
0.0
 11
272.4715760977299
 21
133.5422955681027
 31
0.0
  0
LINE
  5
1F81
330
2
100
AcDbEntity
  8
0
100
AcDbLine
 10
275.9715760977244
 20
135.7422955680966
 30
0.0
 11
275.9715760977298
 21
85.74229556810207
 31
0.0
  0
LINE
  5
1F82
330
2
100
AcDbEntity
  8
0
100
AcDbLine
 10
274.902138350568
 20
74.67381553681645
 30
0.0
 11
305.9715760980209
 21
74.24229556810388
 31
0.0
  0
LINE
  5
1F83
330
2
100
AcDbEntity
  8
HIDS
100
AcDbLine
 10
276.4715760977253
 20
83.99229556811048
 30
0.0
 11
276.4715760977253
 21
81.07072269284804
 31
0.0
  0
LINE
  5
1F84
330
2
100
AcDbEntity
  8
0
100
AcDbLine
 10
272.1715760977297
 20
83.47268032584002
 30
0.0
 11
272.1715760977297
 21
76.01191081038138
 31
0.0
  0
LINE
  5
1F85
330
2
100
AcDbEntity
  8
0
100
AcDbLine
 10
272.4715760977299
 20
83.99229556811048
 30
0.0
 11
272.4715760977299
 21
75.49229556811048
 31
0.0
  0
LINE
  5
1F86
330
2
100
AcDbEntity
  8
0
100
AcDbLine
 10
277.1715760977297
 20
83.99229556811048
 30
0.0
 11
277.1715760977297
 21
75.49229556811048
 31
0.0
  0
LINE
  5
1F87
330
2
100
AcDbEntity
  8
0
100
AcDbLine
 10
269.9715760980209
 20
87.74229556810139
 30
0.0
 11
269.9715760980209
 21
79.67333335348922
 31
0.0
  0
LINE
  5
1F88
330
2
100
AcDbEntity
  8
0
100
AcDbLine
 10
272.4715760977299
 20
75.49229556811048
 30
0.0
 11
272.1715760977297
 21
76.01191081038138
 31
0.0
  0
LINE
  5
1F89
330
2
100
AcDbEntity
  8
0
100
AcDbLine
 10
272.4715760977299
 20
75.49229556811048
 30
0.0
 11
278.4715760977253
 21
75.49229556811048
 31
0.0
  0
LINE
  5
1F8A
330
2
100
AcDbEntity
  8
CENTER
  6
CENS
100
AcDbLine
 10
269.1715760977297
 20
79.74229556808456
 30
0.0
 11
288.7202775783264
 21
79.74229556808456
 31
0.0
  0
LINE
  5
1F8B
330
2
100
AcDbEntity
  8
0
100
AcDbLine
 10
284.9715760977299
 20
82.74229556808865
 30
0.0
 11
279.4628495622266
 21
82.74229556808865
 31
0.0
  0
LINE
  5
1F8C
330
2
100
AcDbEntity
  8
0
100
AcDbLine
 10
284.9715760977299
 20
79.74229556811048
 30
0.0
 11
279.4628495622266
 21
79.74229556808456
 31
0.0
  0
ARC
  5
1F8D
330
2
100
AcDbEntity
  8
HIDS
100
AcDbCircle
 10
276.4715760977253
 20
77.41386844335562
 30
0.0
 40
2.0
100
AcDbArc
 50
0.0
 51
45.0000000000069
  0
ARC
  5
1F8E
330
2
100
AcDbEntity
  8
HIDS
100
AcDbCircle
 10
278.4715760977253
 20
81.07072269284804
 30
0.0
 40
2.0
100
AcDbArc
 50
180.0
 51
225.0000000000069
  0
ARC
  5
1F8F
330
2
100
AcDbEntity
  8
0
100
AcDbCircle
 10
279.4715760977253
 20
75.79033125318443
 30
0.0
 40
1.0
100
AcDbArc
 50
180.0
 51
269.4999999999824
  0
LINE
  5
1F90
330
2
100
AcDbEntity
  8
0
100
AcDbLine
 10
284.9715380200698
 20
74.74229573424833
 30
0.0
 11
279.4628495622266
 21
74.79036933012054
 31
0.0
  0
LINE
  5
1F91
330
2
100
AcDbEntity
  8
HIDS
100
AcDbLine
 10
277.057362535352
 20
79.65650913047494
 30
0.0
 11
277.8857896600986
 21
78.82808200572873
 31
0.0
  0
ARC
  5
1F92
330
2
100
AcDbEntity
  8
0
100
AcDbCircle
 10
274.9715760980209
 20
79.67333335348922
 30
0.0
 40
5.0
100
AcDbArc
 50
180.0
 51
269.2042764472296
  0
LINE
  5
1F93
330
2
100
AcDbEntity
  8
0
100
AcDbLine
 10
272.4715760977299
 20
83.99229556811048
 30
0.0
 11
272.1715760977297
 21
83.47268032584002
 31
0.0
  0
LINE
  5
1F94
330
2
100
AcDbEntity
  8
0
100
AcDbLine
 10
272.4715760977299
 20
83.99229556811048
 30
0.0
 11
278.4715760977298
 21
83.99229556811048
 31
0.0
  0
LINE
  5
1F95
330
2
100
AcDbEntity
  8
0
100
AcDbLine
 10
284.9715760977299
 20
94.21470004810572
 30
0.0
 11
279.4628495622266
 21
94.21470004810595
 31
0.0
  0
ARC
  5
1F96
330
2
100
AcDbEntity
  8
0
100
AcDbCircle
 10
272.2715760977291
 20
88.24229556810161
 30
0.0
 40
0.2
100
AcDbArc
 50
0.0
 51
90.0
  0
ARC
  5
1F97
330
2
100
AcDbEntity
  8
0
100
AcDbCircle
 10
270.6715760977297
 20
88.24229556810138
 30
0.0
 40
0.2
100
AcDbArc
 50
90.0
 51
179.9999999999218
  0
ARC
  5
1F98
330
2
100
AcDbEntity
  8
0
100
AcDbCircle
 10
270.2715760977291
 20
87.94229556810142
 30
0.0
 40
0.2
100
AcDbArc
 50
270.0
 51
359.9999999999218
  0
LINE
  5
1F99
330
2
100
AcDbEntity
  8
0
100
AcDbLine
 10
268.9715760977299
 20
87.74229556810116
 30
0.0
 11
270.2715760977291
 21
87.7422955681016
 31
0.0
  0
LINE
  5
1F9A
330
2
100
AcDbEntity
  8
0
100
AcDbLine
 10
268.9715760977299
 20
87.74229556810116
 30
0.0
 11
267.9715760977298
 21
88.31964583729092
 31
0.0
  0
LINE
  5
1F9B
330
2
100
AcDbEntity
  8
0
100
AcDbLine
 10
272.6715760977297
 20
87.7422955681016
 30
0.0
 11
275.9715760977298
 21
87.74229556810206
 31
0.0
  0
LINE
  5
1F9C
330
2
100
AcDbEntity
  8
0
100
AcDbLine
 10
272.4715760977299
 20
87.94229556810165
 30
0.0
 11
272.6715760977297
 21
87.7422955681016
 31
0.0
  0
LINE
  5
1F9D
330
2
100
AcDbEntity
  8
0
100
AcDbLine
 10
270.6715760977297
 20
88.44229556810143
 30
0.0
 11
272.2715760977291
 21
88.44229556810166
 31
0.0
  0
LINE
  5
1F9E
330
2
100
AcDbEntity
  8
0
100
AcDbLine
 10
276.4715760977244
 20
85.24229556810752
 30
0.0
 11
276.4715760977244
 21
83.99229556811048
 31
0.0
  0
LINE
  5
1F9F
330
2
100
AcDbEntity
  8
0
100
AcDbLine
 10
276.4715760977299
 20
85.24229556810253
 30
0.0
 11
275.9715760977298
 21
85.74229556810207
 31
0.0
  0
LINE
  5
1FA0
330
2
100
AcDbEntity
  8
0
100
AcDbLine
 10
284.9715760977299
 20
127.2698910880984
 30
0.0
 11
279.4628495622266
 21
127.2698910880981
 31
0.0
  0
ARC
  5
1FA1
330
2
100
AcDbEntity
  8
0
100
AcDbCircle
 10
272.2715760977291
 20
133.2422955681027
 30
0.0
 40
0.2
100
AcDbArc
 50
270.0
 51
0.0
  0
ARC
  5
1FA2
330
2
100
AcDbEntity
  8
0
100
AcDbCircle
 10
270.6715760977297
 20
133.2422955681029
 30
0.0
 40
0.2
100
AcDbArc
 50
180.0000000000521
 51
270.0
  0
ARC
  5
1FA3
330
2
100
AcDbEntity
  8
0
100
AcDbCircle
 10
270.2715760977291
 20
133.5422955681027
 30
0.0
 40
0.2
100
AcDbArc
 50
359.9999999999218
 51
90.0
  0
LINE
  5
1FA4
330
2
100
AcDbEntity
  8
0
100
AcDbLine
 10
276.4715760977299
 20
136.2422955681018
 30
0.0
 11
275.9715760977244
 21
135.7422955680966
 31
0.0
  0
LINE
  5
1FA5
330
2
100
AcDbEntity
  8
0
100
AcDbLine
 10
268.9715760977299
 20
133.7422955681029
 30
0.0
 11
270.2715760977291
 21
133.7422955681029
 31
0.0
  0
LINE
  5
1FA6
330
2
100
AcDbEntity
  8
0
100
AcDbLine
 10
268.9715760977299
 20
133.7422955681029
 30
0.0
 11
267.9715760977298
 21
133.1649452989134
 31
0.0
  0
LINE
  5
1FA7
330
2
100
AcDbEntity
  8
0
100
AcDbLine
 10
272.6715760977297
 20
133.7422955681027
 30
0.0
 11
275.9715760977298
 21
133.7422955681022
 31
0.0
  0
LINE
  5
1FA8
330
2
100
AcDbEntity
  8
0
100
AcDbLine
 10
272.4715760977299
 20
133.5422955681027
 30
0.0
 11
272.6715760977297
 21
133.7422955681027
 31
0.0
  0
LINE
  5
1FA9
330
2
100
AcDbEntity
  8
0
100
AcDbLine
 10
270.6715760977297
 20
133.0422955681029
 30
0.0
 11
272.2715760977291
 21
133.0422955681026
 31
0.0
  0
LINE
  5
1FAA
330
2
100
AcDbEntity
  8
0
100
AcDbLine
 10
361.9715760980282
 20
88.67367311770824
 30
0.0
 11
361.9715760980282
 21
132.8109180184804
 31
0.0
  0
LINE
  5
1FAB
330
2
100
AcDbEntity
  8
0
100
AcDbLine
 10
350.901777104623
 20
86.35572966912542
 30
0.0
 11
360.0413750914333
 21
86.67489146367035
 31
0.0
  0
ARC
  5
1FAC
330
2
100
AcDbEntity
  8
0
100
AcDbCircle
 10
336.9715760980154
 20
79.67333335349014
 30
0.0
 40
5.0
100
AcDbArc
 50
270.7957235527183
 51
297.0504175270652
  0
LINE
  5
1FAD
330
2
100
AcDbEntity
  8
0
100
AcDbLine
 10
343.9715760980245
 20
80.74229556810548
 30
0.0
 11
348.9715760980245
 21
80.74229556810548
 31
0.0
  0
ARC
  5
1FAE
330
2
100
AcDbEntity
  8
0
100
AcDbCircle
 10
350.9715760980282
 20
84.35694801508754
 30
0.0
 40
2.0
100
AcDbArc
 50
92.00000000000361
 51
180.0
  0
ARC
  5
1FAF
330
2
100
AcDbEntity
  8
0
100
AcDbCircle
 10
359.9715760980282
 20
88.67367311770824
 30
0.0
 40
2.0
100
AcDbArc
 50
272.0000000000035
 51
0.0
  0
LINE
  5
1FB0
330
2
100
AcDbEntity
  8
0
100
AcDbLine
 10
350.901777104623
 20
135.1288614670623
 30
0.0
 11
360.0413750914333
 21
134.8096996725183
 31
0.0
  0
ARC
  5
1FB1
330
2
100
AcDbEntity
  8
0
100
AcDbCircle
 10
359.9715760980282
 20
132.8109180184804
 30
0.0
 40
2.0
100
AcDbArc
 50
0.0
 51
87.9999999999964
  0
LINE
  5
1FBD
330
2
100
AcDbEntity
  8
0
100
AcDbLine
 10
343.9715760980263
 20
141.7422955680936
 30
0.0
 11
284.9715760977299
 21
141.7422955680936
 31
0.0
  0
LINE
  5
1FBE
330
2
100
AcDbEntity
  8
0
100
AcDbLine
 10
343.9715760980263
 20
138.7422955681154
 30
0.0
 11
284.9715760977299
 21
138.7422955681154
 31
0.0
  0
LINE
  5
1FBF
330
2
100
AcDbEntity
  8
0
100
AcDbLine
 10
284.9715760977299
 20
146.7422955681018
 30
0.0
 11
343.9715760980263
 21
146.2274103684626
 31
0.0
  0
LINE
  5
1FC0
330
2
100
AcDbEntity
  8
0
100
AcDbLine
 10
337.0410138454692
 20
146.8107755993867
 30
0.0
 11
305.9715760980227
 21
147.2422955681002
 31
0.0
  0
LINE
  5
1FC2
330
2
100
AcDbEntity
  8
0
100
AcDbLine
 10
274.902138350568
 20
146.8107755993876
 30
0.0
 11
305.9715760980209
 21
147.2422955681002
 31
0.0
  0
LINE
  5
1FC3
330
2
100
AcDbEntity
  8
0
100
AcDbLine
 10
284.9715760977299
 20
141.7422955680936
 30
0.0
 11
279.4628495622266
 21
141.7422955681154
 31
0.0
  0
LINE
  5
1FC4
330
2
100
AcDbEntity
  8
0
100
AcDbLine
 10
272.4715760977299
 20
145.9922955680936
 30
0.0
 11
272.1715760977297
 21
145.4726803258227
 31
0.0
  0
LINE
  5
1FC5
330
2
100
AcDbEntity
  8
0
100
AcDbLine
 10
272.4715760977299
 20
145.9922955680936
 30
0.0
 11
278.4715760977253
 21
145.9922955680932
 31
0.0
  0
LINE
  5
1FC6
330
2
100
AcDbEntity
  8
CENTER
  6
CENS
100
AcDbLine
 10
269.1715760977297
 20
141.7422955681195
 30
0.0
 11
288.7202775783264
 21
141.7422955681195
 31
0.0
  0
ARC
  5
1FC7
330
2
100
AcDbEntity
  8
0
100
AcDbCircle
 10
279.4715760977253
 20
145.6942598830196
 30
0.0
 40
1.0
100
AcDbArc
 50
90.50000000001761
 51
180.0
  0
ARC
  5
1FC8
330
2
100
AcDbEntity
  8
HIDS
100
AcDbCircle
 10
276.4715760977244
 20
144.0707226928485
 30
0.0
 40
2.0
100
AcDbArc
 50
314.999999999993
 51
0.0
  0
ARC
  5
1FC9
330
2
100
AcDbEntity
  8
0
100
AcDbCircle
 10
279.4715760977244
 20
145.742295568102
 30
0.0
 40
1.0
100
AcDbArc
 50
180.0
 51
180.0
  0
LINE
  5
1FCA
330
2
100
AcDbEntity
  8
0
100
AcDbLine
 10
284.9715380200698
 20
146.7422954019558
 30
0.0
 11
279.4628495622266
 21
146.694221806084
 31
0.0
  0
LINE
  5
1FCB
330
2
100
AcDbEntity
  8
HIDS
100
AcDbLine
 10
277.057362535352
 20
141.8280820057291
 30
0.0
 11
277.8857896600977
 21
142.6565091304754
 31
0.0
  0
ARC
  5
1FCC
330
2
100
AcDbEntity
  8
0
100
AcDbCircle
 10
274.9715760980209
 20
141.8112577827149
 30
0.0
 40
5.0
100
AcDbArc
 50
90.79572355271826
 51
180.0
  0
LINE
  5
1FCD
330
2
100
AcDbEntity
  8
HIDS
100
AcDbLine
 10
276.4715760977244
 20
140.413868443356
 30
0.0
 11
276.4715760977253
 21
137.4922955680936
 31
0.0
  0
LINE
  5
1FCE
330
2
100
AcDbEntity
  8
0
100
AcDbLine
 10
272.4715760977299
 20
137.4922955680936
 30
0.0
 11
272.1715760977297
 21
138.0119108103641
 31
0.0
  0
LINE
  5
1FCF
330
2
100
AcDbEntity
  8
0
100
AcDbLine
 10
272.4715760977299
 20
137.4922955680936
 30
0.0
 11
278.4715760977298
 21
137.4922955680936
 31
0.0
  0
LINE
  5
1FD0
330
2
100
AcDbEntity
  8
0
100
AcDbLine
 10
284.9715760977299
 20
138.7422955681154
 30
0.0
 11
279.4628495622266
 21
138.7422955681154
 31
0.0
  0
LINE
  5
1FD1
330
2
100
AcDbEntity
  8
0
100
AcDbLine
 10
272.1715760977297
 20
138.0119108103641
 30
0.0
 11
272.1715760977297
 21
145.4726803258227
 31
0.0
  0
LINE
  5
1FD2
330
2
100
AcDbEntity
  8
0
100
AcDbLine
 10
272.4715760977299
 20
137.4922955680936
 30
0.0
 11
272.4715760977299
 21
145.9922955680936
 31
0.0
  0
LINE
  5
1FD3
330
2
100
AcDbEntity
  8
0
100
AcDbLine
 10
277.1715760977297
 20
137.4922955680936
 30
0.0
 11
277.1715760977297
 21
145.9922955680936
 31
0.0
  0
ARC
  5
1FD4
330
2
100
AcDbEntity
  8
HIDS
100
AcDbCircle
 10
278.4715760977244
 20
140.413868443356
 30
0.0
 40
2.0
100
AcDbArc
 50
134.999999999993
 51
180.0
  0
ARC
  5
1FD6
330
2
100
AcDbEntity
  8
0
100
AcDbCircle
 10
336.9715760980154
 20
141.8112577827139
 30
0.0
 40
5.0
100
AcDbArc
 50
62.94958247298872
 51
89.20427644728171
  0
LINE
  5
1FD7
330
2
100
AcDbEntity
  8
0
100
AcDbLine
 10
343.9715760980245
 20
140.7422955681052
 30
0.0
 11
348.9715760980245
 21
140.7422955681052
 31
0.0
  0
ARC
  5
1FDA
330
2
100
AcDbEntity
  8
0
100
AcDbCircle
 10
503.439175109264
 20
130.3688152480805
 30
0.0
 40
30.0
100
AcDbArc
 50
354.0709145121496
 51
13.84182431842025
  0
LINE
  5
1FDB
330
2
100
AcDbEntity
  8
CENTER
100
AcDbLine
 10
537.3100731819646
 20
148.3549939403106
 30
0.0
 11
537.3100731819646
 21
135.3549939403106
 31
0.0
  0
ARC
  5
1FE0
330
2
100
AcDbEntity
  8
0
100
AcDbCircle
 10
692.4227715541706
 20
110.7422955680987
 30
0.0
 40
160.0
100
AcDbArc
 50
174.0709145121497
 51
185.9290854878502
  0
ARC
  5
1FE1
330
2
100
AcDbEntity
  8
0
100
AcDbCircle
 10
548.7962518741893
 20
45.75869912319205
 30
0.0
 40
30.0
100
AcDbArc
 50
84.07091451212343
 51
103.841824318421
  0
ARC
  5
1FE2
330
2
100
AcDbEntity
  8
0
100
AcDbCircle
 10
537.4227715541707
 20
82.74229556809848
 30
0.0
 40
5.0
100
AcDbArc
 50
166.1581756815797
 51
180.0
  0
LINE
  5
1FE3
330
2
100
AcDbEntity
  8
CENTER
100
AcDbLine
 10
537.3100731819646
 20
86.12959719589559
 30
0.0
 11
537.3100731819646
 21
73.1295971958956
 31
0.0
  0
LINE
  5
1FE4
330
2
100
AcDbEntity
  8
0
100
AcDbLine
 10
532.4227715541707
 20
82.74229556809848
 30
0.0
 11
532.4227715541707
 21
79.74229556807711
 31
0.0
  0
ARC
  5
1FE5
330
2
100
AcDbEntity
  8
0
100
AcDbCircle
 10
537.4227715541707
 20
79.74229556807711
 30
0.0
 40
5.0
100
AcDbArc
 50
180.0
 51
270.0
  0
LINE
  5
1FE6
330
2
100
AcDbEntity
  8
0
100
AcDbLine
 10
540.4227715541707
 20
74.74229556809849
 30
0.0
 11
537.4227715541707
 21
74.74229556809849
 31
0.0
  0
ARC
  5
1FE7
330
2
100
AcDbEntity
  8
0
100
AcDbCircle
 10
540.4227715541707
 20
79.74229556809849
 30
0.0
 40
5.0
100
AcDbArc
 50
270.0
 51
283.841824318421
  0
LINE
  5
1FE8
330
2
100
AcDbEntity
  8
CENTER
100
AcDbLine
 10
543.8100731819646
 20
79.6295971958956
 30
0.0
 11
530.8100731819646
 21
79.6295971958956
 31
0.0
  0
CIRCLE
  5
1FE9
330
2
100
AcDbEntity
  8
HOJO
100
AcDbCircle
 10
537.3100731819627
 20
79.6295971958956
 30
0.0
 40
2.5
  0
CIRCLE
  5
1FEA
330
2
100
AcDbEntity
  8
0
100
AcDbCircle
 10
537.3100731819646
 20
79.62959719589514
 30
0.0
 40
2.1
  0
ARC
  5
1FEB
330
2
100
AcDbEntity
  8
0
100
AcDbCircle
 10
503.439175109264
 20
91.11577588811689
 30
0.0
 40
30.0
100
AcDbArc
 50
346.1581756815797
 51
5.92908548785031
  0
LINE
  5
1FEC
330
2
100
AcDbEntity
  8
0
100
AcDbLine
 10
568.6659454558827
 20
83.39229556809199
 30
0.0
 11
568.6659454558827
 21
81.74229556809349
 31
0.0
  0
LINE
  5
1FED
330
2
100
AcDbEntity
  8
0
100
AcDbLine
 10
568.7722181933819
 20
83.28604556809215
 30
0.0
 11
569.7545745240637
 21
81.74229556809349
 31
0.0
  0
ARC
  5
1FEE
330
2
100
AcDbEntity
  8
0
100
AcDbCircle
 10
569.5159454558812
 20
83.39229556809199
 30
0.0
 40
0.8499999999992269
100
AcDbArc
 50
307.5189678667967
 51
90.0
  0
LINE
  5
1FEF
330
2
100
AcDbEntity
  8
0
100
AcDbLine
 10
567.4409681933836
 20
84.24229556809121
 30
0.0
 11
566.1909681933845
 21
81.74229556809349
 31
0.0
  0
LINE
  5
1FF0
330
2
100
AcDbEntity
  8
0
100
AcDbLine
 10
567.915968193383
 20
82.11729556809302
 30
0.0
 11
567.915968193383
 21
81.74229556809349
 31
0.0
  0
LINE
  5
1FF1
330
2
100
AcDbEntity
  8
0
100
AcDbLine
 10
567.2784685812991
 20
82.11729556809302
 30
0.0
 11
567.915968193383
 21
82.11729556809302
 31
0.0
  0
LINE
  5
1FF2
330
2
100
AcDbEntity
  8
0
100
AcDbLine
 10
567.2784685812991
 20
82.11729556809302
 30
0.0
 11
567.0909685812991
 21
81.74229556809349
 31
0.0
  0
LINE
  5
1FF3
330
2
100
AcDbEntity
  8
0
100
AcDbLine
 10
567.915968193383
 20
81.74229556809349
 30
0.0
 11
568.6659454558827
 21
81.74229556809349
 31
0.0
  0
LINE
  5
1FF4
330
2
100
AcDbEntity
  8
0
100
AcDbLine
 10
569.7545745240637
 20
81.74229556809349
 30
0.0
 11
570.6545749119774
 21
81.74229556809349
 31
0.0
  0
LINE
  5
1FF5
330
2
100
AcDbEntity
  8
0
100
AcDbLine
 10
570.0336158870246
 20
82.71811656758893
 30
0.0
 11
570.6545749119774
 21
81.74229556809349
 31
0.0
  0
LINE
  5
1FF6
330
2
100
AcDbEntity
  8
0
100
AcDbLine
 10
566.1909681933845
 20
81.74229556809349
 30
0.0
 11
567.0909685812991
 21
81.74229556809349
 31
0.0
  0
LINE
  5
1FF7
330
2
100
AcDbEntity
  8
0
100
AcDbLine
 10
567.4409681933836
 20
84.24229556809121
 30
0.0
 11
569.5159454558812
 21
84.24229556809121
 31
0.0
  0
ARC
  5
1FF8
330
2
100
AcDbEntity
  8
0
100
AcDbCircle
 10
569.4628431933812
 20
83.33917056809207
 30
0.0
 40
0.0531249999999517
100
AcDbArc
 50
270.0
 51
90.0
  0
LINE
  5
1FF9
330
2
100
AcDbEntity
  8
0
100
AcDbLine
 10
568.7722181933819
 20
83.28604556809215
 30
0.0
 11
569.4628431933812
 21
83.28604556809215
 31
0.0
  0
LINE
  5
1FFA
330
2
100
AcDbEntity
  8
0
100
AcDbLine
 10
568.6659454558827
 20
83.39229556809199
 30
0.0
 11
569.4628431933812
 21
83.39229556809199
 31
0.0
  0
LINE
  5
1FFB
330
2
100
AcDbEntity
  8
0
100
AcDbLine
 10
567.915968193383
 20
83.39229479226185
 30
0.0
 11
567.6784685812987
 21
82.91729556809229
 31
0.0
  0
LINE
  5
1FFC
330
2
100
AcDbEntity
  8
0
100
AcDbLine
 10
567.915968193383
 20
83.39229479226185
 30
0.0
 11
567.915968193383
 21
82.91729556809229
 31
0.0
  0
LINE
  5
1FFD
330
2
100
AcDbEntity
  8
0
100
AcDbLine
 10
567.6784685812987
 20
82.91729556809229
 30
0.0
 11
567.915968193383
 21
82.91729556809229
 31
0.0
  0
ARC
  5
2002
330
2
100
AcDbEntity
  8
0
100
AcDbCircle
 10
548.7962518741893
 20
175.7258920130051
 30
0.0
 40
30.0
100
AcDbArc
 50
256.1581756815789
 51
275.9290854878765
  0
LINE
  5
2003
330
2
100
AcDbEntity
  8
0
100
AcDbLine
 10
540.4227715541707
 20
146.7422955680987
 30
0.0
 11
537.4227715541707
 21
146.7422955680987
 31
0.0
  0
ARC
  5
2004
330
2
100
AcDbEntity
  8
0
100
AcDbCircle
 10
540.4227715541707
 20
141.7422955680987
 30
0.0
 40
5.0
100
AcDbArc
 50
76.15817568157897
 51
90.0
  0
ARC
  5
2005
330
2
100
AcDbEntity
  8
0
100
AcDbCircle
 10
537.4227715541707
 20
141.7422955680771
 30
0.0
 40
5.0
100
AcDbArc
 50
90.0
 51
180.0
  0
LINE
  5
2006
330
2
100
AcDbEntity
  8
CENTER
100
AcDbLine
 10
543.8100731819646
 20
141.8549939403106
 30
0.0
 11
530.8100731819646
 21
141.8549939403106
 31
0.0
  0
ARC
  5
2007
330
2
100
AcDbEntity
  8
0
100
AcDbCircle
 10
537.4227715541707
 20
138.7422955680989
 30
0.0
 40
5.0
100
AcDbArc
 50
180.0
 51
193.8418243184202
  0
LINE
  5
2008
330
2
100
AcDbEntity
  8
0
100
AcDbLine
 10
532.4227715541707
 20
138.7422955680989
 30
0.0
 11
532.4227715541707
 21
141.7422955680771
 31
0.0
  0
CIRCLE
  5
2009
330
2
100
AcDbEntity
  8
HOJO
100
AcDbCircle
 10
537.3100731819646
 20
141.8549939403104
 30
0.0
 40
2.5
  0
CIRCLE
  5
200A
330
2
100
AcDbEntity
  8
0
100
AcDbCircle
 10
537.3100731819646
 20
141.8549939403115
 30
0.0
 40
2.1
  0
LINE
  5
2013
330
2
100
AcDbEntity
  8
CENTER
100
AcDbLine
 10
599.5354699263795
 20
148.3549939403113
 30
0.0
 11
599.5354699263795
 21
135.3549939403113
 31
0.0
  0
LINE
  5
2014
330
2
100
AcDbEntity
  8
0
100
AcDbLine
 10
618.9227715541816
 20
84.24229556810553
 30
0.0
 11
618.9227715541752
 21
137.242295568098
 31
0.0
  0
LINE
  5
2015
330
2
100
AcDbEntity
  8
0
100
AcDbLine
 10
604.4227715541707
 20
141.7422955680764
 30
0.0
 11
604.4227715541707
 21
79.74229556807711
 31
0.0
  0
LINE
  5
2017
330
2
100
AcDbEntity
  8
0
100
AcDbLine
 10
628.4227715541716
 20
145.2422955681016
 30
0.0
 11
628.4227715541716
 21
76.24229556810189
 31
0.0
  0
ARC
  5
2019
330
2
100
AcDbEntity
  8
0
100
AcDbCircle
 10
617.9227715541752
 20
80.24229556810622
 30
0.0
 40
3.0
100
AcDbArc
 50
53.13010235412992
 51
90.0
  0
ARC
  5
201A
330
2
100
AcDbEntity
  8
0
100
AcDbCircle
 10
620.9227715541752
 20
84.24229556810576
 30
0.0
 40
2.0
100
AcDbArc
 50
180.0
 51
270.0
  0
ARC
  5
201B
330
2
100
AcDbEntity
  8
0
100
AcDbCircle
 10
615.9227715541816
 20
85.24229556810212
 30
0.0
 40
3.0
100
AcDbArc
 50
0.0
 51
90.0
  0
ARC
  5
201C
330
2
100
AcDbEntity
  8
0
100
AcDbCircle
 10
588.049291234152
 20
45.75869912319205
 30
0.0
 40
30.0
100
AcDbArc
 50
76.15817568157897
 51
95.92908548787658
  0
ARC
  5
201D
330
2
100
AcDbEntity
  8
0
100
AcDbCircle
 10
607.4227715541707
 20
80.24229556810643
 30
0.0
 40
3.0
100
AcDbArc
 50
90.0
 51
180.0
  0
LINE
  5
201E
330
2
100
AcDbEntity
  8
CENTER
100
AcDbLine
 10
599.5354699263813
 20
86.12959719589628
 30
0.0
 11
599.5354699263813
 21
73.12959719589628
 31
0.0
  0
ARC
  5
201F
330
2
100
AcDbEntity
  8
0
100
AcDbCircle
 10
599.4227715541707
 20
79.74229556807711
 30
0.0
 40
5.0
100
AcDbArc
 50
270.0
 51
0.0
  0
ARC
  5
2020
330
2
100
AcDbEntity
  8
0
100
AcDbCircle
 10
596.4227715541706
 20
79.74229556809849
 30
0.0
 40
5.0
100
AcDbArc
 50
256.1581756815789
 51
270.0
  0
LINE
  5
2021
330
2
100
AcDbEntity
  8
0
100
AcDbLine
 10
596.4227715541706
 20
74.74229556809849
 30
0.0
 11
599.4227715541707
 21
74.74229556809849
 31
0.0
  0
LINE
  5
2022
330
2
100
AcDbEntity
  8
CENTER
100
AcDbLine
 10
606.0354699263813
 20
79.62959719589628
 30
0.0
 11
593.0354699263813
 21
79.62959719589628
 31
0.0
  0
CIRCLE
  5
2023
330
2
100
AcDbEntity
  8
HOJO
100
AcDbCircle
 10
599.5354699263813
 20
79.62959719589605
 30
0.0
 40
2.5
  0
CIRCLE
  5
2024
330
2
100
AcDbEntity
  8
0
100
AcDbCircle
 10
599.5354699263804
 20
79.62959719589514
 30
0.0
 40
2.1
  0
LINE
  5
2025
330
2
100
AcDbEntity
  8
0
100
AcDbLine
 10
617.9227715541752
 20
83.24229556810621
 30
0.0
 11
607.4227715541707
 21
83.24229556810644
 31
0.0
  0
LINE
  5
2026
330
2
100
AcDbEntity
  8
0
100
AcDbLine
 10
607.4227715541743
 20
88.24229556810212
 30
0.0
 11
615.9227715541816
 21
88.24229556810212
 31
0.0
  0
ARC
  5
2027
330
2
100
AcDbEntity
  8
0
100
AcDbCircle
 10
607.4227715541743
 20
85.24229556810212
 30
0.0
 40
3.0
100
AcDbArc
 50
90.0
 51
180.0
  0
LINE
  5
2028
330
2
100
AcDbEntity
  8
0
100
AcDbLine
 10
625.4227715541706
 20
82.24229556810575
 30
0.0
 11
620.9227715541752
 21
82.24229556810575
 31
0.0
  0
ARC
  5
2029
330
2
100
AcDbEntity
  8
0
100
AcDbCircle
 10
625.4227715541706
 20
79.24229556810576
 30
0.0
 40
3.0
100
AcDbArc
 50
0.0
 51
90.0
  0
ARC
  5
202A
330
2
100
AcDbEntity
  8
0
100
AcDbCircle
 10
630.4227715541716
 20
76.24229556810189
 30
0.0
 40
2.0
100
AcDbArc
 50
180.0
 51
270.0
  0
LINE
  5
202B
330
2
100
AcDbEntity
  8
0
100
AcDbLine
 10
630.4227715541716
 20
74.24229556810189
 30
0.0
 11
640.4227715541716
 21
74.24229556810189
 31
0.0
  0
ARC
  5
202C
330
2
100
AcDbEntity
  8
0
100
AcDbCircle
 10
630.4227715541716
 20
76.74229556810189
 30
0.0
 40
2.0
100
AcDbArc
 50
180.0
 51
270.0
  0
LINE
  5
202D
330
2
100
AcDbEntity
  8
0
100
AcDbLine
 10
630.4227715541716
 20
74.7422955681019
 30
0.0
 11
640.4227715541716
 21
74.7422955681019
 31
0.0
  0
ARC
  5
202E
330
2
100
AcDbEntity
  8
0
100
AcDbCircle
 10
615.922771554178
 20
105.2422955681018
 30
0.0
 40
3.0
100
AcDbArc
 50
0.0
 51
90.0
  0
ARC
  5
202F
330
2
100
AcDbEntity
  8
0
100
AcDbCircle
 10
615.922771554178
 20
116.2422955681021
 30
0.0
 40
3.0
100
AcDbArc
 50
270.0
 51
0.0
  0
ARC
  5
2030
330
2
100
AcDbEntity
  8
0
100
AcDbCircle
 10
615.9227715541761
 20
136.2422955681021
 30
0.0
 40
3.0
100
AcDbArc
 50
270.0
 51
0.0
  0
LINE
  5
2031
330
2
100
AcDbEntity
  8
0
100
AcDbLine
 10
607.4227715541707
 20
108.2422955681016
 30
0.0
 11
615.922771554178
 21
108.2422955681018
 31
0.0
  0
ARC
  5
2032
330
2
100
AcDbEntity
  8
0
100
AcDbCircle
 10
607.4227715541707
 20
105.2422955681016
 30
0.0
 40
3.0
100
AcDbArc
 50
90.0
 51
180.0
  0
ARC
  5
2033
330
2
100
AcDbEntity
  8
0
100
AcDbCircle
 10
607.4227715541707
 20
116.2422955681021
 30
0.0
 40
3.0
100
AcDbArc
 50
180.0
 51
270.0
  0
LINE
  5
2034
330
2
100
AcDbEntity
  8
0
100
AcDbLine
 10
607.4227715541707
 20
113.2422955681021
 30
0.0
 11
615.922771554178
 21
113.2422955681021
 31
0.0
  0
LINE
  5
2035
330
2
100
AcDbEntity
  8
0
100
AcDbLine
 10
607.4227715541743
 20
133.2422955681021
 30
0.0
 11
615.9227715541761
 21
133.2422955681021
 31
0.0
  0
ARC
  5
2036
330
2
100
AcDbEntity
  8
0
100
AcDbCircle
 10
607.4227715541743
 20
136.2422955681021
 30
0.0
 40
3.0
100
AcDbArc
 50
180.0
 51
270.0
  0
ARC
  5
204D
330
2
100
AcDbEntity
  8
0
100
AcDbCircle
 10
617.9227715541752
 20
141.242295568098
 30
0.0
 40
3.0
100
AcDbArc
 50
270.0
 51
306.86989764587
  0
ARC
  5
204E
330
2
100
AcDbEntity
  8
0
100
AcDbCircle
 10
620.9227715541752
 20
137.2422955680984
 30
0.0
 40
2.0
100
AcDbArc
 50
90.0
 51
180.0
  0
ARC
  5
204F
330
2
100
AcDbEntity
  8
0
100
AcDbCircle
 10
588.049291234152
 20
175.7258920130051
 30
0.0
 40
30.0
100
AcDbArc
 50
264.0709145121234
 51
283.841824318421
  0
ARC
  5
2050
330
2
100
AcDbEntity
  8
0
100
AcDbCircle
 10
599.4227715541707
 20
141.7422955680764
 30
0.0
 40
5.0
100
AcDbArc
 50
0.0
 51
90.0
  0
ARC
  5
2051
330
2
100
AcDbEntity
  8
0
100
AcDbCircle
 10
596.4227715541706
 20
141.7422955680987
 30
0.0
 40
5.0
100
AcDbArc
 50
90.0
 51
103.841824318421
  0
LINE
  5
2052
330
2
100
AcDbEntity
  8
0
100
AcDbLine
 10
596.4227715541706
 20
146.7422955680987
 30
0.0
 11
599.4227715541707
 21
146.7422955680987
 31
0.0
  0
LINE
  5
2053
330
2
100
AcDbEntity
  8
CENTER
100
AcDbLine
 10
606.0354699263795
 20
141.8549939403113
 30
0.0
 11
593.0354699263794
 21
141.8549939403113
 31
0.0
  0
LINE
  5
2054
330
2
100
AcDbEntity
  8
0
100
AcDbLine
 10
617.9227715541752
 20
138.242295568098
 30
0.0
 11
607.4227715541707
 21
138.2422955680977
 31
0.0
  0
ARC
  5
2055
330
2
100
AcDbEntity
  8
0
100
AcDbCircle
 10
607.4227715541707
 20
141.2422955680978
 30
0.0
 40
3.0
100
AcDbArc
 50
180.0
 51
270.0
  0
CIRCLE
  5
2056
330
2
100
AcDbEntity
  8
HOJO
100
AcDbCircle
 10
599.5354699263813
 20
141.8549939403122
 30
0.0
 40
2.5
  0
CIRCLE
  5
2057
330
2
100
AcDbEntity
  8
0
100
AcDbCircle
 10
599.5354699263804
 20
141.8549939403113
 30
0.0
 40
2.1
  0
ARC
  5
2058
330
2
100
AcDbEntity
  8
0
100
AcDbCircle
 10
630.4227715541716
 20
145.2422955681016
 30
0.0
 40
2.0
100
AcDbArc
 50
90.0
 51
180.0
  0
LINE
  5
2059
330
2
100
AcDbEntity
  8
0
100
AcDbLine
 10
640.4227715541716
 20
147.2422955681016
 30
0.0
 11
630.4227715541716
 21
147.2422955681016
 31
0.0
  0
ARC
  5
205A
330
2
100
AcDbEntity
  8
0
100
AcDbCircle
 10
630.4227715541716
 20
144.7422955681016
 30
0.0
 40
2.0
100
AcDbArc
 50
90.0
 51
180.0
  0
LINE
  5
205B
330
2
100
AcDbEntity
  8
0
100
AcDbLine
 10
640.4227715541716
 20
146.7422955681016
 30
0.0
 11
630.4227715541716
 21
146.7422955681016
 31
0.0
  0
LINE
  5
205C
330
2
100
AcDbEntity
  8
0
100
AcDbLine
 10
625.4227715541706
 20
139.2422955680984
 30
0.0
 11
620.9227715541752
 21
139.2422955680984
 31
0.0
  0
ARC
  5
205D
330
2
100
AcDbEntity
  8
0
100
AcDbCircle
 10
625.4227715541706
 20
142.2422955680984
 30
0.0
 40
3.0
100
AcDbArc
 50
270.0
 51
0.0
  0
LINE
  5
2082
330
2
100
AcDbEntity
  8
0
100
AcDbLine
 10
532.9376567538275
 20
358.3552626908647
 30
0.0
 11
603.901150578121
 21
358.3552626908638
 31
0.0
  0
LINE
  5
2083
330
2
100
AcDbEntity
  8
0
100
AcDbLine
 10
538.4227715541711
 20
353.3552626908647
 30
0.0
 11
598.4227715541711
 21
353.3552626908647
 31
0.0
  0
LINE
  5
2084
330
2
100
AcDbEntity
  8
0
100
AcDbLine
 10
546.3541491037832
 20
340.3552626908652
 30
0.0
 11
590.4913940045554
 21
340.355262690865
 31
0.0
  0
LINE
  5
2085
330
2
100
AcDbEntity
  8
0
100
AcDbLine
 10
538.4227715541711
 20
358.3552626908647
 30
0.0
 11
538.4227715541711
 21
353.3552626908647
 31
0.0
  0
ARC
  5
2086
330
2
100
AcDbEntity
  8
0
100
AcDbCircle
 10
542.0374240011625
 20
351.355262690865
 30
0.0
 40
2.0
100
AcDbArc
 50
2.000000000003725
 51
90.0
  0
ARC
  5
2087
330
2
100
AcDbEntity
  8
0
100
AcDbCircle
 10
546.3541491037832
 20
342.355262690865
 30
0.0
 40
2.0
100
AcDbArc
 50
182.0000000000037
 51
270.0
  0
LINE
  5
2088
330
2
100
AcDbEntity
  8
0
100
AcDbLine
 10
544.0362056552004
 20
351.4250616842699
 30
0.0
 11
544.3553674497453
 21
342.2854636974601
 31
0.0
  0
LINE
  5
2093
330
2
100
AcDbEntity
  8
0
100
AcDbLine
 10
598.4227715541711
 20
358.3552626908647
 30
0.0
 11
598.4227715541711
 21
353.3552626908647
 31
0.0
  0
ARC
  5
2094
330
2
100
AcDbEntity
  8
0
100
AcDbCircle
 10
594.8081191071761
 20
351.355262690865
 30
0.0
 40
2.0
100
AcDbArc
 50
90.0
 51
177.9999999999962
  0
ARC
  5
2095
330
2
100
AcDbEntity
  8
0
100
AcDbCircle
 10
590.4913940045554
 20
342.355262690865
 30
0.0
 40
2.0
100
AcDbArc
 50
270.0
 51
357.9999999999962
  0
LINE
  5
2096
330
2
100
AcDbEntity
  8
0
100
AcDbLine
 10
592.8093374531382
 20
351.4250616842699
 30
0.0
 11
592.4901756585933
 21
342.2854636974601
 31
0.0
  0
ARC
  5
2097
330
2
100
AcDbEntity
  8
0
100
AcDbCircle
 10
617.8710852916502
 20
365.855262690865
 30
0.0
 40
3.0
100
AcDbArc
 50
53.1301023542602
 51
90.0
  0
ARC
  5
2098
330
2
100
AcDbEntity
  8
0
100
AcDbCircle
 10
615.8431854076235
 20
370.8552626908647
 30
0.0
 40
3.0
100
AcDbArc
 50
1.499999999989629
 51
90.0
  0
ARC
  5
2099
330
2
100
AcDbEntity
  8
0
100
AcDbCircle
 10
620.8710852916457
 20
369.8552626908686
 30
0.0
 40
2.0
100
AcDbArc
 50
181.4999999999896
 51
270.0
  0
ARC
  5
209A
330
2
100
AcDbEntity
  8
0
100
AcDbCircle
 10
606.9667163217087
 20
365.8552626908647
 30
0.0
 40
3.0
100
AcDbArc
 50
90.0
 51
179.5000000000084
  0
ARC
  5
209B
330
2
100
AcDbEntity
  8
0
100
AcDbCircle
 10
607.0103506606625
 20
370.8552626908647
 30
0.0
 40
3.0
100
AcDbArc
 50
90.0
 51
179.5000000000084
  0
LINE
  5
209C
330
2
100
AcDbEntity
  8
0
100
AcDbLine
 10
606.9667163217087
 20
368.8552626908647
 30
0.0
 11
617.8710852916502
 21
368.8552626908649
 31
0.0
  0
LINE
  5
209D
330
2
100
AcDbEntity
  8
0
100
AcDbLine
 10
607.0103506606625
 20
373.8552626908647
 30
0.0
 11
615.8431854076235
 21
373.8552626908647
 31
0.0
  0
LINE
  5
209E
330
2
100
AcDbEntity
  8
0
100
AcDbLine
 10
620.871085296014
 20
367.855262690865
 30
0.0
 11
625.3039065296363
 21
367.855262690865
 31
0.0
  0
ARC
  5
209F
330
2
100
AcDbEntity
  8
0
100
AcDbCircle
 10
625.3039065296363
 20
364.8552626908649
 30
0.0
 40
3.0
100
AcDbArc
 50
1.500000000015675
 51
90.0
  0
ARC
  5
20A0
330
2
100
AcDbEntity
  8
0
100
AcDbCircle
 10
630.371085296014
 20
362.3552626908649
 30
0.0
 40
2.0
100
AcDbArc
 50
181.5000000000157
 51
270.0
  0
LINE
  5
20A1
330
2
100
AcDbEntity
  8
0
100
AcDbLine
 10
630.371085296014
 20
360.3552626908649
 30
0.0
 11
640.4227715498019
 21
360.3552626908649
 31
0.0
  0
LINE
  5
20A2
330
2
100
AcDbEntity
  8
CENTER
100
AcDbLine
 10
568.4227715541716
 20
444.3552626911584
 30
0.0
 11
568.4227715541716
 21
298.3552626908638
 31
0.0
  0
LINE
  5
20A4
330
2
100
AcDbEntity
  8
0
100
AcDbLine
 10
595.172771554162
 20
425.8552626911638
 30
0.0
 11
541.6727715541793
 21
425.8552626911638
 31
0.0
  0
LINE
  5
20A5
330
2
100
AcDbEntity
  8
0
100
AcDbLine
 10
603.672771554162
 20
423.8552626911635
 30
0.0
 11
533.1727715541802
 21
423.855262691164
 31
0.0
  0
LINE
  5
20A6
330
2
100
AcDbEntity
  8
0
100
AcDbLine
 10
604.0495073305615
 20
417.3552626911587
 30
0.0
 11
532.4227715541711
 21
417.3552626911587
 31
0.0
  0
LINE
  5
20A7
330
2
100
AcDbEntity
  8
0
100
AcDbLine
 10
593.4227715541656
 20
426.3552626911646
 30
0.0
 11
543.4227715541712
 21
426.3552626911589
 31
0.0
  0
LINE
  5
20A8
330
2
100
AcDbEntity
  8
0
100
AcDbLine
 10
590.845421284983
 20
434.355262691159
 30
0.0
 11
546.0001218233584
 21
434.3552626911578
 31
0.0
  0
LINE
  5
20A9
330
2
100
AcDbEntity
  8
0
100
AcDbLine
 10
545.62277155417
 20
431.8552626911596
 30
0.0
 11
591.2227715541713
 21
431.8552626911078
 31
0.0
  0
LINE
  5
20AA
330
2
100
AcDbEntity
  8
0
100
AcDbLine
 10
545.62277155417
 20
429.8552626911594
 30
0.0
 11
591.2227715541713
 21
429.8552626911592
 31
0.0
  0
LINE
  5
20AB
330
2
100
AcDbEntity
  8
0
100
AcDbLine
 10
551.8951760341861
 20
416.8552626908647
 30
0.0
 11
551.8951760341861
 21
359.8552246139291
 31
0.0
  0
LINE
  5
20AC
330
2
100
AcDbEntity
  8
0
100
AcDbLine
 10
537.4227715541711
 20
416.8552626908647
 30
0.0
 11
537.4227715541711
 21
359.8552246139291
 31
0.0
  0
LINE
  5
20AD
330
2
100
AcDbEntity
  8
0
100
AcDbLine
 10
540.4227715541711
 20
416.8552626908647
 30
0.0
 11
540.4227715541711
 21
359.8552246139291
 31
0.0
  0
LINE
  5
20AE
330
2
100
AcDbEntity
  8
0
100
AcDbLine
 10
532.4227715541711
 20
417.3552626911597
 30
0.0
 11
532.9376567538275
 21
358.3552626908647
 31
0.0
  0
LINE
  5
20AF
330
2
100
AcDbEntity
  8
HIDS
100
AcDbLine
 10
541.6727715541793
 20
425.8552626911638
 30
0.0
 11
538.7511986789169
 21
425.8552626911638
 31
0.0
  0
LINE
  5
20B0
330
2
100
AcDbEntity
  8
0
100
AcDbLine
 10
541.1531563119089
 20
430.1552626911593
 30
0.0
 11
533.6923867964507
 21
430.1552626911593
 31
0.0
  0
LINE
  5
20B1
330
2
100
AcDbEntity
  8
0
100
AcDbLine
 10
533.1727715541793
 20
429.8552626911592
 30
0.0
 11
533.6923867964507
 21
430.1552626911593
 31
0.0
  0
LINE
  5
20B2
330
2
100
AcDbEntity
  8
0
100
AcDbLine
 10
541.6727715541793
 20
429.8552626911592
 30
0.0
 11
541.1531563119089
 21
430.1552626911593
 31
0.0
  0
LINE
  5
20B3
330
2
100
AcDbEntity
  8
0
100
AcDbLine
 10
541.6727715541793
 20
429.8552626911592
 30
0.0
 11
533.1727715541793
 21
429.8552626911592
 31
0.0
  0
LINE
  5
20B4
330
2
100
AcDbEntity
  8
0
100
AcDbLine
 10
541.6727715541793
 20
425.1552626911593
 30
0.0
 11
533.1727715541793
 21
425.1552626911593
 31
0.0
  0
LINE
  5
20B5
330
2
100
AcDbEntity
  8
0
100
AcDbLine
 10
541.6727715541793
 20
429.8552626911592
 30
0.0
 11
541.6727715541793
 21
423.8552626911594
 31
0.0
  0
LINE
  5
20B6
330
2
100
AcDbEntity
  8
0
100
AcDbLine
 10
533.1727715541793
 20
429.8552626911592
 30
0.0
 11
533.1727715541802
 21
423.855262691164
 31
0.0
  0
ARC
  5
20B7
330
2
100
AcDbEntity
  8
HIDS
100
AcDbCircle
 10
535.0943444294244
 20
425.8552626911638
 30
0.0
 40
2.0
100
AcDbArc
 50
270.0
 51
314.999999999993
  0
ARC
  5
20B8
330
2
100
AcDbEntity
  8
HIDS
100
AcDbCircle
 10
538.7511986789169
 20
423.8552626911637
 30
0.0
 40
2.0
100
AcDbArc
 50
90.0
 51
134.999999999993
  0
ARC
  5
20B9
330
2
100
AcDbEntity
  8
0
100
AcDbCircle
 10
533.4708074054052
 20
422.855262691164
 30
0.0
 40
1.0
100
AcDbArc
 50
90.0
 51
179.5000000000084
  0
LINE
  5
20BA
330
2
100
AcDbEntity
  8
HIDS
100
AcDbLine
 10
537.3369851165436
 20
425.2694762535369
 30
0.0
 11
536.5085579917978
 21
424.4410491287906
 31
0.0
  0
ARC
  5
20BB
330
2
100
AcDbEntity
  8
0
100
AcDbCircle
 10
545.9227715541702
 20
430.0552626911595
 30
0.0
 40
0.2
100
AcDbArc
 50
270.0
 51
0.0
  0
ARC
  5
20BC
330
2
100
AcDbEntity
  8
0
100
AcDbCircle
 10
545.9227715541702
 20
431.6552626911591
 30
0.0
 40
0.2
100
AcDbArc
 50
0.0
 51
89.99999999994789
  0
ARC
  5
20BD
330
2
100
AcDbEntity
  8
0
100
AcDbCircle
 10
545.62277155417
 20
432.0552626911594
 30
0.0
 40
0.2
100
AcDbArc
 50
180.0
 51
269.9999999999478
  0
LINE
  5
20BE
330
2
100
AcDbEntity
  8
0
100
AcDbLine
 10
545.4227715541693
 20
433.3552626911594
 30
0.0
 11
545.4227715541702
 21
432.0552626911594
 31
0.0
  0
LINE
  5
20BF
330
2
100
AcDbEntity
  8
0
100
AcDbLine
 10
545.4227715541693
 20
433.3552626911592
 30
0.0
 11
546.0001218233593
 21
434.3552626911594
 31
0.0
  0
LINE
  5
20C0
330
2
100
AcDbEntity
  8
0
100
AcDbLine
 10
545.4227715541702
 20
429.6552626911593
 30
0.0
 11
545.4227715541711
 21
426.3552626911592
 31
0.0
  0
LINE
  5
20C1
330
2
100
AcDbEntity
  8
0
100
AcDbLine
 10
545.62277155417
 20
429.8552626911594
 30
0.0
 11
545.4227715541702
 21
429.6552626911593
 31
0.0
  0
LINE
  5
20C2
330
2
100
AcDbEntity
  8
0
100
AcDbLine
 10
546.12277155417
 20
431.6552626911594
 30
0.0
 11
546.12277155417
 21
430.0552626911595
 31
0.0
  0
LINE
  5
20C3
330
2
100
AcDbEntity
  8
0
100
AcDbLine
 10
542.9227715541766
 20
425.8552626911642
 30
0.0
 11
541.6727715541793
 21
425.8552626911642
 31
0.0
  0
LINE
  5
20C4
330
2
100
AcDbEntity
  8
0
100
AcDbLine
 10
542.9227715541712
 20
425.8552626911592
 30
0.0
 11
543.4227715541712
 21
426.3552626911589
 31
0.0
  0
LINE
  5
20C5
330
2
100
AcDbEntity
  8
CENTER
  6
CENS
100
AcDbLine
 10
537.4227715541529
 20
433.1552626911594
 30
0.0
 11
537.4227715541529
 21
413.6065612105626
 31
0.0
  0
LINE
  5
20C6
330
2
100
AcDbEntity
  8
0
100
AcDbLine
 10
540.4227715541574
 20
417.3552626911587
 30
0.0
 11
540.4227715541574
 21
422.8639892266622
 31
0.0
  0
LINE
  5
20C7
330
2
100
AcDbEntity
  8
0
100
AcDbLine
 10
537.4227715541793
 20
417.3552626911587
 30
0.0
 11
537.4227715541793
 21
422.8639892266622
 31
0.0
  0
LINE
  5
20C8
330
2
100
AcDbEntity
  8
0
100
AcDbLine
 10
532.4227715541711
 20
417.3552626911587
 30
0.0
 11
532.4708454823413
 21
422.8639892266622
 31
0.0
  0
LINE
  5
20C9
330
2
100
AcDbEntity
  8
0
100
AcDbLine
 10
551.8951760341743
 20
417.3552626911587
 30
0.0
 11
551.8951760341743
 21
422.8639892266622
 31
0.0
  0
LINE
  5
20CA
330
2
100
AcDbEntity
  8
0
100
AcDbLine
 10
604.2327715541711
 20
396.3552626906558
 30
0.0
 11
604.0495073305611
 21
417.3552626911587
 31
0.0
  0
LINE
  5
20CB
330
2
100
AcDbEntity
  8
0
100
AcDbLine
 10
596.4358645149469
 20
417.3552626911581
 30
0.0
 11
596.9602684138537
 21
397.329085742557
 31
0.0
  0
LINE
  5
20CC
330
2
100
AcDbEntity
  8
0
100
AcDbLine
 10
618.8717706416947
 20
422.9076165874769
 30
0.0
 11
618.1764727850805
 21
396.355262690865
 31
0.0
  0
LINE
  5
20CD
330
2
100
AcDbEntity
  8
0
100
AcDbLine
 10
628.371770646063
 20
430.4076165874819
 30
0.0
 11
627.4800783776592
 21
396.355262690865
 31
0.0
  0
LINE
  5
20CE
330
2
100
AcDbEntity
  8
0
100
AcDbLine
 10
584.9503670741543
 20
416.8552626908647
 30
0.0
 11
584.9503670741543
 21
359.8552246139291
 31
0.0
  0
ARC
  5
20D0
330
2
100
AcDbEntity
  8
0
100
AcDbCircle
 10
615.3194669762379
 20
390.855262690865
 30
0.0
 40
3.0
100
AcDbArc
 50
1.500000000015675
 51
90.0
  0
LINE
  5
20D1
330
2
100
AcDbEntity
  8
0
100
AcDbLine
 10
618.8717706416947
 20
369.802908794253
 30
0.0
 11
618.1764727850805
 21
396.355262690865
 31
0.0
  0
ARC
  5
20D2
330
2
100
AcDbEntity
  8
0
100
AcDbCircle
 10
607.1848880164776
 20
390.8552626908647
 30
0.0
 40
3.0
100
AcDbArc
 50
90.0
 51
179.5000000000084
  0
LINE
  5
20D3
330
2
100
AcDbEntity
  8
0
100
AcDbLine
 10
607.1916237928709
 20
393.8552626908647
 30
0.0
 11
615.3194669762379
 21
393.8552626908649
 31
0.0
  0
ARC
  5
20D4
330
2
100
AcDbEntity
  8
0
100
AcDbCircle
 10
597.9599257388291
 20
397.355262690865
 30
0.0
 40
1.0
100
AcDbArc
 50
181.5000000000157
 51
270.0
  0
LINE
  5
20D5
330
2
100
AcDbEntity
  8
0
100
AcDbLine
 10
604.2327715541711
 20
396.3552626910741
 30
0.0
 11
603.901150578121
 21
358.3552626908638
 31
0.0
  0
LINE
  5
20D6
330
2
100
AcDbEntity
  8
0
100
AcDbLine
 10
599.4227715541693
 20
396.355262690865
 30
0.0
 11
599.4227715541711
 21
359.8552246139291
 31
0.0
  0
LINE
  5
20D7
330
2
100
AcDbEntity
  8
0
100
AcDbLine
 10
596.4227715541711
 20
396.355262690865
 30
0.0
 11
596.4227715541711
 21
359.8552246139291
 31
0.0
  0
LINE
  5
20D8
330
2
100
AcDbEntity
  8
0
100
AcDbLine
 10
627.4800783776592
 20
396.355262690865
 30
0.0
 11
640.4227715498019
 21
396.355262690865
 31
0.0
  0
LINE
  5
20D9
330
2
100
AcDbEntity
  8
0
100
AcDbLine
 10
628.371770646063
 20
362.302908794248
 30
0.0
 11
627.4800783776592
 21
396.355262690865
 31
0.0
  0
ARC
  5
20DA
330
2
100
AcDbEntity
  8
0
100
AcDbCircle
 10
620.8710852916457
 20
422.8552626908613
 30
0.0
 40
2.0
100
AcDbArc
 50
90.0
 51
178.5000000000103
  0
ARC
  5
20DB
330
2
100
AcDbEntity
  8
0
100
AcDbCircle
 10
615.3194669762379
 20
401.855262690865
 30
0.0
 40
3.0
100
AcDbArc
 50
270.0
 51
358.4999999999843
  0
ARC
  5
20DC
330
2
100
AcDbEntity
  8
0
100
AcDbCircle
 10
615.7908135644857
 20
419.8552626909513
 30
0.0
 40
3.0
100
AcDbArc
 50
270.0
 51
358.4999999999843
  0
ARC
  5
20DD
330
2
100
AcDbEntity
  8
0
100
AcDbCircle
 10
590.9227715541711
 20
430.0552626911595
 30
0.0
 40
0.2
100
AcDbArc
 50
180.0
 51
270.0
  0
ARC
  5
20DE
330
2
100
AcDbEntity
  8
0
100
AcDbCircle
 10
590.9227715541711
 20
431.6552626911591
 30
0.0
 40
0.2
100
AcDbArc
 50
90.00000000005213
 51
180.0
  0
ARC
  5
20DF
330
2
100
AcDbEntity
  8
0
100
AcDbCircle
 10
591.2227715541713
 20
432.0552626911594
 30
0.0
 40
0.2
100
AcDbArc
 50
269.9999999999478
 51
359.9999999999739
  0
LINE
  5
20E0
330
2
100
AcDbEntity
  8
0
100
AcDbLine
 10
591.4227715541711
 20
433.3552626911594
 30
0.0
 11
591.4227715541711
 21
432.0552626911594
 31
0.0
  0
LINE
  5
20E1
330
2
100
AcDbEntity
  8
0
100
AcDbLine
 10
591.4227715541711
 20
433.3552626911592
 30
0.0
 11
590.8454212849821
 21
434.3552626911594
 31
0.0
  0
LINE
  5
20E2
330
2
100
AcDbEntity
  8
0
100
AcDbLine
 10
591.4227715541711
 20
429.6552626911593
 30
0.0
 11
591.4227715541711
 21
426.3552626911592
 31
0.0
  0
LINE
  5
20E3
330
2
100
AcDbEntity
  8
0
100
AcDbLine
 10
591.2227715541713
 20
429.8552626911592
 30
0.0
 11
591.4227715541711
 21
429.6552626911593
 31
0.0
  0
LINE
  5
20E4
330
2
100
AcDbEntity
  8
0
100
AcDbLine
 10
590.7227715541713
 20
431.6552626911594
 30
0.0
 11
590.7227715541713
 21
430.0552626911595
 31
0.0
  0
ARC
  5
20E5
330
2
100
AcDbEntity
  8
0
100
AcDbCircle
 10
603.0047357029363
 20
422.8552626911635
 30
0.0
 40
1.0
100
AcDbArc
 50
0.4999999999915751
 51
90.0
  0
LINE
  5
20E6
330
2
100
AcDbEntity
  8
HIDS
100
AcDbLine
 10
598.0943444294244
 20
425.8552626911642
 30
0.0
 11
595.172771554162
 21
425.8552626911638
 31
0.0
  0
LINE
  5
20E7
330
2
100
AcDbEntity
  8
0
100
AcDbLine
 10
595.6923867964325
 20
430.1552626911593
 30
0.0
 11
603.1531563118916
 21
430.1552626911593
 31
0.0
  0
LINE
  5
20E8
330
2
100
AcDbEntity
  8
0
100
AcDbLine
 10
603.672771554162
 20
429.8552626911592
 30
0.0
 11
603.1531563118916
 21
430.1552626911593
 31
0.0
  0
LINE
  5
20E9
330
2
100
AcDbEntity
  8
0
100
AcDbLine
 10
595.172771554162
 20
429.8552626911592
 30
0.0
 11
595.6923867964325
 21
430.1552626911593
 31
0.0
  0
LINE
  5
20EA
330
2
100
AcDbEntity
  8
0
100
AcDbLine
 10
595.172771554162
 20
429.8552626911592
 30
0.0
 11
603.672771554162
 21
429.8552626911592
 31
0.0
  0
LINE
  5
20EB
330
2
100
AcDbEntity
  8
0
100
AcDbLine
 10
595.172771554162
 20
425.1552626911593
 30
0.0
 11
603.672771554162
 21
425.1552626911593
 31
0.0
  0
LINE
  5
20EC
330
2
100
AcDbEntity
  8
0
100
AcDbLine
 10
595.172771554162
 20
429.8552626911592
 30
0.0
 11
595.172771554162
 21
423.8552626911594
 31
0.0
  0
LINE
  5
20ED
330
2
100
AcDbEntity
  8
0
100
AcDbLine
 10
603.672771554162
 20
429.8552626911592
 30
0.0
 11
603.672771554162
 21
423.8552626911635
 31
0.0
  0
ARC
  5
20EE
330
2
100
AcDbEntity
  8
HIDS
100
AcDbCircle
 10
601.7511986789169
 20
425.8552626911642
 30
0.0
 40
2.0
100
AcDbArc
 50
225.0000000000069
 51
270.0
  0
ARC
  5
20EF
330
2
100
AcDbEntity
  8
HIDS
100
AcDbCircle
 10
598.0943444294244
 20
423.8552626911642
 30
0.0
 40
2.0
100
AcDbArc
 50
45.0000000000069
 51
90.0
  0
ARC
  5
20F0
330
2
100
AcDbEntity
  8
0
100
AcDbCircle
 10
603.4227715541711
 20
422.8552626911642
 30
0.0
 40
1.0
100
AcDbArc
 50
90.0
 51
90.0
  0
LINE
  5
20F1
330
2
100
AcDbEntity
  8
0
100
AcDbLine
 10
593.9227715541703
 20
425.8552626911592
 30
0.0
 11
593.4227715541656
 21
426.3552626911646
 31
0.0
  0
LINE
  5
20F2
330
2
100
AcDbEntity
  8
HIDS
100
AcDbLine
 10
599.5085579917978
 20
425.2694762535373
 30
0.0
 11
600.3369851165444
 21
424.4410491287911
 31
0.0
  0
ARC
  5
20F3
330
2
100
AcDbEntity
  8
0
100
AcDbCircle
 10
607.1848880164772
 20
401.855262690865
 30
0.0
 40
3.0
100
AcDbArc
 50
180.4999999999915
 51
270.0
  0
LINE
  5
20F4
330
2
100
AcDbEntity
  8
0
100
AcDbLine
 10
607.1848880164772
 20
398.855262690865
 30
0.0
 11
615.3194669762379
 21
398.855262690865
 31
0.0
  0
LINE
  5
20F5
330
2
100
AcDbEntity
  8
0
100
AcDbLine
 10
615.7908135644866
 20
416.8552626909514
 30
0.0
 11
604.5495073307693
 21
416.8552626909507
 31
0.0
  0
LINE
  5
20F6
330
2
100
AcDbEntity
  8
0
100
AcDbLine
 10
604.0495073305611
 20
417.3552626911587
 30
0.0
 11
604.5495073307693
 21
416.8552626909507
 31
0.0
  0
LINE
  5
20F7
330
2
100
AcDbEntity
  8
CENTER
  6
CENS
100
AcDbLine
 10
599.4227715541884
 20
433.1552626911594
 30
0.0
 11
599.4227715541884
 21
413.6065612105626
 31
0.0
  0
LINE
  5
20F8
330
2
100
AcDbEntity
  8
0
100
AcDbLine
 10
584.950367074167
 20
417.3552626911587
 30
0.0
 11
584.950367074167
 21
422.8639892266622
 31
0.0
  0
LINE
  5
20F9
330
2
100
AcDbEntity
  8
0
100
AcDbLine
 10
604.0046976260001
 20
422.8639892266618
 30
0.0
 11
604.0527715541712
 21
417.3552626911578
 31
0.0
  0
LINE
  5
20FA
330
2
100
AcDbEntity
  8
0
100
AcDbLine
 10
599.4227715541621
 20
417.3552626911587
 30
0.0
 11
599.4227715541884
 21
422.8639892266622
 31
0.0
  0
LINE
  5
20FB
330
2
100
AcDbEntity
  8
0
100
AcDbLine
 10
596.4227715541839
 20
417.3552626911587
 30
0.0
 11
596.4227715541839
 21
422.8639892266622
 31
0.0
  0
LINE
  5
20FC
330
2
100
AcDbEntity
  8
0
100
AcDbLine
 10
620.871085296014
 20
424.855262690865
 30
0.0
 11
625.3039065296363
 21
424.855262690865
 31
0.0
  0
ARC
  5
20FD
330
2
100
AcDbEntity
  8
0
100
AcDbCircle
 10
625.3039065296363
 20
427.8552626908649
 30
0.0
 40
3.0
100
AcDbArc
 50
270.0
 51
358.4999999999843
  0
ARC
  5
20FE
330
2
100
AcDbEntity
  8
0
100
AcDbCircle
 10
630.371085296014
 20
430.355262690865
 30
0.0
 40
2.0
100
AcDbArc
 50
90.0
 51
178.4999999999843
  0
LINE
  5
20FF
330
2
100
AcDbEntity
  8
0
100
AcDbLine
 10
630.371085296014
 20
432.3552626908649
 30
0.0
 11
640.4227715498019
 21
432.3552626908649
 31
0.0
  0
LINE
  5
27F1
330
2
100
AcDbEntity
  8
CENTER
100
AcDbLine
 10
568.4227715541688
 20
164.7422955681009
 30
0.0
 11
568.4227715541688
 21
56.74229556810098
 31
0.0
  0
LINE
  5
28A6
330
2
100
AcDbEntity
  8
0
100
AcDbLine
 10
363.9715760980259
 20
118.2423527689873
 30
0.0
 11
393.4715760980259
 21
118.2423527689873
 31
0.0
  0
LINE
  5
28A7
330
2
100
AcDbEntity
  8
0
100
AcDbLine
 10
363.9715760980259
 20
103.2423527689875
 30
0.0
 11
393.4715760980255
 21
103.2423527689884
 31
0.0
  0
LINE
  5
28A8
330
2
100
AcDbEntity
  8
0
100
AcDbLine
 10
372.4715760980255
 20
113.242295568102
 30
0.0
 11
393.9715760980254
 21
113.2422988258868
 31
0.0
  0
LINE
  5
28A9
330
2
100
AcDbEntity
  8
0
100
AcDbLine
 10
372.4701641407625
 20
108.2422959668268
 30
0.0
 11
393.9715760980254
 21
108.2422988258868
 31
0.0
  0
LINE
  5
28AA
330
2
100
AcDbEntity
  8
0
100
AcDbLine
 10
362.9715760980259
 20
121.9536204335073
 30
0.0
 11
362.9715760980259
 21
99.53097070269684
 31
0.0
  0
ARC
  5
28AB
330
2
100
AcDbEntity
  8
0
100
AcDbCircle
 10
362.4715760980259
 20
121.9536204335073
 30
0.0
 40
0.5
100
AcDbArc
 50
0.0
 51
59.99999999999946
  0
ARC
  5
28AC
330
2
100
AcDbEntity
  8
0
100
AcDbCircle
 10
361.5695532345396
 20
120.7423527689873
 30
0.0
 40
2.0
100
AcDbArc
 50
59.99999999999946
 51
78.40388896673717
  0
LINE
  5
28AD
330
2
100
AcDbEntity
  8
0
100
AcDbLine
 10
363.9715760980259
 20
119.2423527689873
 30
0.0
 11
363.9715760980259
 21
102.2423527689873
 31
0.0
  0
LINE
  5
28AE
330
2
100
AcDbEntity
  8
0
100
AcDbLine
 10
363.9715760980259
 20
119.2423527689873
 30
0.0
 11
362.9715760980259
 21
119.8197030381769
 31
0.0
  0
LINE
  5
28AF
330
2
100
AcDbEntity
  8
0
100
AcDbLine
 10
363.9715760980259
 20
102.2422383672167
 30
0.0
 11
362.9715760980259
 21
101.6648880980272
 31
0.0
  0
LINE
  5
28B0
330
2
100
AcDbEntity
  8
0
100
AcDbLine
 10
362.7215760980259
 20
122.3866331353995
 30
0.0
 11
362.5695532345396
 21
122.4744035765562
 31
0.0
  0
ARC
  5
28B1
330
2
100
AcDbEntity
  8
0
100
AcDbCircle
 10
362.4715760980259
 20
99.53097070269684
 30
0.0
 40
0.5
100
AcDbArc
 50
300.0000000000005
 51
0.0
  0
ARC
  5
28B2
330
2
100
AcDbEntity
  8
0
100
AcDbCircle
 10
361.5695532345396
 20
100.742238367217
 30
0.0
 40
2.0
100
AcDbArc
 50
281.5961110332628
 51
300.0000000000005
  0
LINE
  5
28B3
330
2
100
AcDbEntity
  8
0
100
AcDbLine
 10
362.7215760980259
 20
99.0979580008048
 30
0.0
 11
362.5695532345396
 21
99.01018755964816
 31
0.0
  0
ARC
  5
28B4
330
2
100
AcDbEntity
  8
0
100
AcDbCircle
 10
372.4715760980255
 20
110.742295568102
 30
0.0
 40
2.5
100
AcDbArc
 50
90.0
 51
270.0
  0
LINE
  5
28B5
330
2
100
AcDbEntity
  8
0
100
AcDbLine
 10
393.9715760980259
 20
117.7423527689873
 30
0.0
 11
393.4715760980259
 21
118.2423527689873
 31
0.0
  0
LINE
  5
28B6
330
2
100
AcDbEntity
  8
0
100
AcDbLine
 10
393.9715760980259
 20
117.7423527689873
 30
0.0
 11
393.9715760980254
 21
103.7423527689884
 31
0.0
  0
LINE
  5
28B7
330
2
100
AcDbEntity
  8
0
100
AcDbLine
 10
393.4715760980255
 20
103.2423527689884
 30
0.0
 11
393.9715760980254
 21
103.7423527689884
 31
0.0
  0
LINE
  5
28B8
330
2
100
AcDbEntity
  8
0
100
AcDbLine
 10
393.4715760980259
 20
118.2423527689873
 30
0.0
 11
393.4715760980255
 21
113.2422987501243
 31
0.0
  0
LINE
  5
28B9
330
2
100
AcDbEntity
  8
0
100
AcDbLine
 10
393.4715760980255
 20
108.2422987594014
 30
0.0
 11
393.4715760980255
 21
103.2423527689884
 31
0.0
  0
ARC
  5
28BB
330
2
100
AcDbEntity
  8
0
100
AcDbCircle
 10
568.4227715541652
 20
110.7422955680959
 30
0.0
 40
7.500057200868525
100
AcDbArc
 50
199.471066139117
 51
160.5289338608829
  0
ARC
  5
28BC
330
2
100
AcDbEntity
  8
0
100
AcDbCircle
 10
568.4227715541652
 20
110.7422955680959
 30
0.0
 40
8.500057200868525
100
AcDbArc
 50
197.1045165256734
 51
162.8954834743296
  0
ARC
  5
28BD
330
2
100
AcDbEntity
  8
0
100
AcDbCircle
 10
568.4227715541652
 20
110.7422955680957
 30
0.0
 40
9.077407470058233
100
AcDbArc
 50
195.986391246479
 51
164.0136087535209
  0
CIRCLE
  5
28BE
330
2
100
AcDbEntity
  8
0
100
AcDbCircle
 10
568.4227715541652
 20
110.7422955680957
 30
0.0
 40
12.00005720086858
  0
LINE
  5
28C0
330
2
100
AcDbEntity
  8
0
100
AcDbLine
 10
558.9228287550346
 20
108.2422955680957
 30
0.0
 11
563.9228287550341
 21
108.2422955680957
 31
0.0
  0
LINE
  5
28C1
330
2
100
AcDbEntity
  8
0
100
AcDbLine
 10
558.9228287550327
 20
113.2422955680959
 30
0.0
 11
563.9228287550333
 21
113.2422955680959
 31
0.0
  0
LINE
  5
28C2
330
2
100
AcDbEntity
  8
0
100
AcDbLine
 10
563.9228287550333
 20
113.2422955680959
 30
0.0
 11
563.9228287550341
 21
108.2422955680957
 31
0.0
  0
LINE
  5
28C3
330
2
100
AcDbEntity
  8
0
100
AcDbLine
 10
558.9228287550327
 20
113.2422955680959
 30
0.0
 11
558.9228287550346
 21
108.2422955680957
 31
0.0
  0
LINE
  5
28C5
330
2
100
AcDbEntity
  8
0
100
AcDbLine
 10
575.9228287550569
 20
338.3552626908674
 30
0.0
 11
575.9228287550569
 21
308.8552626908674
 31
0.0
  0
LINE
  5
28C6
330
2
100
AcDbEntity
  8
0
100
AcDbLine
 10
558.9228287550524
 20
308.3552626908681
 30
0.0
 11
558.9228287550524
 21
332.3552626908679
 31
0.0
  0
LINE
  5
28C7
330
2
100
AcDbEntity
  8
0
100
AcDbLine
 10
561.351643071665
 20
308.3552626908679
 30
0.0
 11
561.351643071665
 21
329.8566746481308
 31
0.0
  0
LINE
  5
28C8
330
2
100
AcDbEntity
  8
0
100
AcDbLine
 10
575.4228287550569
 20
308.3552626908674
 30
0.0
 11
558.9228287550524
 21
308.3552626908681
 31
0.0
  0
LINE
  5
28C9
330
2
100
AcDbEntity
  8
0
100
AcDbLine
 10
575.9228287550569
 20
308.8552626908674
 30
0.0
 11
561.3516430716646
 21
308.8552626908688
 31
0.0
  0
LINE
  5
28CA
330
2
100
AcDbEntity
  8
0
100
AcDbLine
 10
575.4228287550569
 20
308.3552626908674
 30
0.0
 11
575.9228287550569
 21
308.8552626908674
 31
0.0
  0
LINE
  5
28CC
330
2
100
AcDbEntity
  8
0
100
AcDbLine
 10
579.6340964195771
 20
339.3552626908674
 30
0.0
 11
557.2114466887666
 21
339.3552626908674
 31
0.0
  0
LINE
  5
28CD
330
2
100
AcDbEntity
  8
0
100
AcDbLine
 10
576.9228287550569
 20
338.3552626908674
 30
0.0
 11
559.9228287550569
 21
338.3552626908674
 31
0.0
  0
LINE
  5
28CE
330
2
100
AcDbEntity
  8
0
100
AcDbLine
 10
560.9228287550573
 20
338.3552626908674
 30
0.0
 11
560.9228287550573
 21
332.3552626908681
 31
0.0
  0
LINE
  5
28CF
330
2
100
AcDbEntity
  8
0
100
AcDbLine
 10
559.9227143532863
 20
338.3552626908674
 30
0.0
 11
559.3453640840968
 21
339.3552626908674
 31
0.0
  0
ARC
  5
28D0
330
2
100
AcDbEntity
  8
0
100
AcDbCircle
 10
557.2114466887666
 20
339.8552626908674
 30
0.0
 40
0.5
100
AcDbArc
 50
210.0000000000004
 51
270.0
  0
ARC
  5
28D1
330
2
100
AcDbEntity
  8
0
100
AcDbCircle
 10
558.4227143532863
 20
340.7572855543537
 30
0.0
 40
2.0
100
AcDbArc
 50
191.5961110332487
 51
210.0000000000004
  0
LINE
  5
28D2
330
2
100
AcDbEntity
  8
0
100
AcDbLine
 10
556.7784339868741
 20
339.6052626908674
 30
0.0
 11
556.6906635457177
 21
339.7572855543537
 31
0.0
  0
LINE
  5
28D3
330
2
100
AcDbEntity
  8
0
100
AcDbLine
 10
560.9228287550569
 20
332.3552626908679
 30
0.0
 11
558.9228287550524
 21
332.3552626908679
 31
0.0
  0
LINE
  5
28D4
330
2
100
AcDbEntity
  8
0
100
AcDbLine
 10
560.9228287550569
 20
332.3552626908679
 30
0.0
 11
561.351643071665
 21
329.8566746481308
 31
0.0
  0
ARC
  5
28D5
330
2
100
AcDbEntity
  8
0
100
AcDbCircle
 10
579.6340964195771
 20
339.8552626908674
 30
0.0
 40
0.5
100
AcDbArc
 50
270.0
 51
329.9999999999994
  0
ARC
  5
28D6
330
2
100
AcDbEntity
  8
0
100
AcDbCircle
 10
578.4228287550568
 20
340.7572855543537
 30
0.0
 40
2.0
100
AcDbArc
 50
329.9999999999994
 51
348.4038889667512
  0
LINE
  5
28D7
330
2
100
AcDbEntity
  8
0
100
AcDbLine
 10
576.9228287550569
 20
338.3552626908674
 30
0.0
 11
577.5001790242464
 21
339.3552626908674
 31
0.0
  0
LINE
  5
28D8
330
2
100
AcDbEntity
  8
0
100
AcDbLine
 10
580.0671091214691
 20
339.6052626908674
 30
0.0
 11
580.1548795626259
 21
339.7572855543537
 31
0.0
  0
LINE
  5
28DA
330
2
100
AcDbEntity
  8
0
100
AcDbLine
 10
841.416574892689
 20
102.2422383672079
 30
0.0
 11
842.4165748926892
 21
101.6648880980184
 31
0.0
  0
LINE
  5
28DB
330
2
100
AcDbEntity
  8
0
100
AcDbLine
 10
841.416574892689
 20
119.2423527689785
 30
0.0
 11
842.4165748926892
 21
119.819703038168
 31
0.0
  0
LINE
  5
28DC
330
2
100
AcDbEntity
  8
0
100
AcDbLine
 10
841.416574892689
 20
102.2422383672079
 30
0.0
 11
841.416574892689
 21
119.2422383672079
 31
0.0
  0
LINE
  5
28DD
330
2
100
AcDbEntity
  8
0
100
AcDbLine
 10
841.416574892689
 20
103.2422383672079
 30
0.0
 11
811.916574892689
 21
103.2422383672079
 31
0.0
  0
LINE
  5
28DE
330
2
100
AcDbEntity
  8
0
100
AcDbLine
 10
811.4165748926891
 20
103.7422383672079
 30
0.0
 11
811.916574892689
 21
103.2422383672079
 31
0.0
  0
LINE
  5
28DF
330
2
100
AcDbEntity
  8
0
100
AcDbLine
 10
811.4165748926891
 20
103.7422383672079
 30
0.0
 11
811.41657489269
 21
117.7422383672075
 31
0.0
  0
LINE
  5
28E0
330
2
100
AcDbEntity
  8
0
100
AcDbLine
 10
811.9165748926899
 20
118.2422383672075
 30
0.0
 11
811.41657489269
 21
117.7422383672075
 31
0.0
  0
LINE
  5
28E1
330
2
100
AcDbEntity
  8
0
100
AcDbLine
 10
841.416574892689
 20
118.2422383672075
 30
0.0
 11
811.9165748926899
 21
118.2422383672075
 31
0.0
  0
LINE
  5
28E2
330
2
100
AcDbEntity
  8
0
100
AcDbLine
 10
811.916574892689
 20
103.2422383672079
 30
0.0
 11
811.9165748926905
 21
118.2422383672075
 31
0.0
  0
LINE
  5
28E4
330
2
100
AcDbEntity
  8
0
100
AcDbLine
 10
842.4165748926892
 20
99.5309707026878
 30
0.0
 11
842.4165748926892
 21
121.9536204334982
 31
0.0
  0
ARC
  5
28E5
330
2
100
AcDbEntity
  8
0
100
AcDbCircle
 10
842.9165748926891
 20
99.5309707026878
 30
0.0
 40
0.5
100
AcDbArc
 50
180.0
 51
239.9999999999994
  0
ARC
  5
28E6
330
2
100
AcDbEntity
  8
0
100
AcDbCircle
 10
843.8185977561754
 20
100.7422383672079
 30
0.0
 40
2.0
100
AcDbArc
 50
239.9999999999994
 51
258.4038889667506
  0
LINE
  5
28E7
330
2
100
AcDbEntity
  8
0
100
AcDbLine
 10
842.6665748926891
 20
99.09795800079576
 30
0.0
 11
842.8185977561755
 21
99.01018755963889
 31
0.0
  0
ARC
  5
28E8
330
2
100
AcDbEntity
  8
0
100
AcDbCircle
 10
842.9165748926891
 20
121.9536204334982
 30
0.0
 40
0.5
100
AcDbArc
 50
120.0000000000005
 51
180.0
  0
ARC
  5
28E9
330
2
100
AcDbEntity
  8
0
100
AcDbCircle
 10
843.8185977561754
 20
120.7423527689785
 30
0.0
 40
2.0
100
AcDbArc
 50
101.5961110332493
 51
120.0000000000005
  0
LINE
  5
28EA
330
2
100
AcDbEntity
  8
0
100
AcDbLine
 10
842.6665748926891
 20
122.3866331353907
 30
0.0
 11
842.8185977561755
 21
122.4744035765471
 31
0.0
  0
CIRCLE
  5
2C40
330
2
100
AcDbEntity
  8
0
100
AcDbCircle
 10
568.4227715541725
 20
110.7422955681032
 30
0.0
 40
19.5774
  0
ENDSEC
  0
SECTION
  2
OBJECTS
  0
DICTIONARY
  5
7
330
0
100
AcDbDictionary
  3
ACAD_COLOR
350
1A3B
  3
ACAD_GROUP
350
75
  3
ACAD_LAYOUT
350
61
  3
ACAD_MATERIAL
350
1A11
  3
ACAD_MLEADERSTYLE
350
1A60
  3
ACAD_MLINESTYLE
350
76
  3
ACAD_PLOTSETTINGS
350
77
  3
ACAD_PLOTSTYLENAME
350
6
  3
ACAD_SCALELIST
350
1A3E
  3
ACAD_TABLESTYLE
350
1A3C
  3
ACAD_VISUALSTYLE
350
1A2A
  3
ACADDIM
350
480
  3
ACDB_RECOMPOSE_DATA
350
1A83
  3
ACDBHEADERROUNDTRIPXREC
350
2C83
  3
ACDBVARIABLEDICTIONARY
350
102
  3
DWGPROPS
350
2C50
  0
DICTIONARY
  5
1A8C
330
6E
100
AcDbDictionary
280
     1
  3
ACAD_XREC_ROUNDTRIP
360
2C57
  0
DICTIONARY
  5
AE5
330
66
100
AcDbDictionary
280
     1
  3
ACAD_LAYERSTATES
360
AE6
  0
DICTIONARY
  5
1A6F
330
5E
100
AcDbDictionary
280
     1
  3
ACAD_XREC_ROUNDTRIP
360
2C53
  3
ADSK_XREC_LAYER_RECONCILED
360
1A70
  0
DICTIONARY
  5
1A71
330
3E
100
AcDbDictionary
280
     1
  3
ACAD_XREC_ROUNDTRIP
360
2C52
  3
ADSK_XREC_LAYER_RECONCILED
360
1A72
  0
DICTIONARY
  5
1A77
330
2B5
100
AcDbDictionary
280
     1
  3
ACAD_XREC_ROUNDTRIP
360
2C5D
  3
ADSK_XREC_LAYER_RECONCILED
360
1A78
  0
DICTIONARY
  5
1A79
330
2BA
100
AcDbDictionary
280
     1
  3
ACAD_XREC_ROUNDTRIP
360
2C5E
  3
ADSK_XREC_LAYER_RECONCILED
360
1A7A
  0
DICTIONARY
  5
1A7D
330
3FA
100
AcDbDictionary
280
     1
  3
ACAD_XREC_ROUNDTRIP
360
2C60
  3
ADSK_XREC_LAYER_RECONCILED
360
1A7E
  0
DICTIONARY
  5
2CA4
330
2
100
AcDbDictionary
280
     1
  3
ACAD_LAYOUTSELFREF
360
2CA5
  0
DICTIONARY
  5
2CA6
330
2C7D
100
AcDbDictionary
280
     1
  3
ACAD_LAYOUTSELFREF
360
2CA7
  0
DICTIONARY
  5
1A3B
102
{ACAD_REACTORS
330
7
102
}
330
7
100
AcDbDictionary
  0
DICTIONARY
  5
75
102
{ACAD_REACTORS
330
7
102
}
330
7
100
AcDbDictionary
  0
DICTIONARY
  5
61
102
{ACAD_REACTORS
330
7
102
}
330
7
100
AcDbDictionary
  0
DICTIONARY
  5
1A11
102
{ACAD_REACTORS
330
7
102
}
330
7
100
AcDbDictionary
  3
BYBLOCK
350
1A1A
  3
BYLAYER
350
1A12
  3
GLOBAL
350
1A22
  0
DICTIONARY
  5
1A60
102
{ACAD_REACTORS
330
7
102
}
330
7
100
AcDbDictionary
  3
STANDARD
350
1A61
  0
DICTIONARY
  5
76
102
{ACAD_REACTORS
330
7
102
}
330
7
100
AcDbDictionary
  3
STANDARD
350
78
  0
DICTIONARY
  5
77
102
{ACAD_REACTORS
330
7
102
}
330
7
100
AcDbDictionary
  0
ACDBDICTIONARYWDFLT
  5
6
102
{ACAD_REACTORS
330
7
102
}
330
7
100
AcDbDictionary
281
     1
  3
Normal
350
5
100
AcDbDictionaryWithDefault
340
5
  0
DICTIONARY
  5
1A3E
102
{ACAD_REACTORS
330
7
102
}
330
7
100
AcDbDictionary
  3
A0
350
1A3F
  3
A1
350
1A40
  3
A2
350
1A41
  3
A3
350
1A42
  3
A4
350
1A43
  3
A5
350
1A44
  3
A6
350
1A45
  3
A7
350
1A46
  3
A8
350
1A47
  3
A9
350
1A48
  3
B0
350
1A49
  3
B1
350
1A4A
  3
B2
350
1A4B
  3
B3
350
1A4C
  3
B4
350
1A4D
  3
B5
350
1A4E
  3
B6
350
1A4F
  3
B7
350
1A50
  3
B8
350
1A51
  3
B9
350
1A52
  3
C0
350
1A53
  3
C1
350
1A54
  3
C2
350
1A55
  3
C3
350
1A56
  3
C4
350
1A57
  3
C5
350
1A58
  3
C6
350
1A59
  3
C7
350
1A5A
  3
C8
350
1A5B
  3
C9
350
1A5C
  3
D0
350
1A5D
  3
D1
350
1A5E
  3
D2
350
1A5F
  0
DICTIONARY
  5
1A3C
102
{ACAD_REACTORS
330
7
102
}
330
7
100
AcDbDictionary
  3
STANDARD
350
1A3D
  0
DICTIONARY
  5
1A2A
102
{ACAD_REACTORS
330
7
102
}
330
7
100
AcDbDictionary
  3
2DWIREFRAME
350
1A30
  3
3D_HIDDEN
350
1A32
  3
3DWIREFRAME
350
1A31
  3
BASIC
350
1A2F
  3
BRIGHTEN
350
1A36
  3
COLORCHANGE
350
1A3A
  3
CONCEPTUAL
350
1A33
  3
DIM
350
1A35
  3
FACEPATTERN
350
1A39
  3
FLAT
350
1A2B
  3
FLATWITHEDGES
350
1A2C
  3
GOURAUD
350
1A2D
  3
GOURAUDWITHEDGES
350
1A2E
  3
LINEPATTERN
350
1A38
  3
REALISTIC
350
1A34
  3
THICKEN
350
1A37
  0
XRECORD
  5
480
102
{ACAD_REACTORS
330
7
102
}
330
7
100
AcDbXrecord
 90
   990106
  3

 60
     0
 61
     0
 62
     1
 63
     3
 64
     1
 65
     0
 66
     0
 67
     3
 68
     1
 69
     0
 70
     0
 71
     0
 72
     0
 40
0.0
170
     2
340
0
  0
XRECORD
  5
1A83
102
{ACAD_REACTORS
330
7
102
}
330
7
100
AcDbXrecord
 90
        1
330
1A3D
  0
DICTIONARY
  5
2C83
102
{ACAD_REACTORS
330
7
102
}
330
7
100
AcDbDictionary
  3
CEPSNTYPE
350
2C8D
  3
DIMSTYLEDATA
350
2C91
  3
FINGERPRINTGUID
350
2C8E
  3
HYPERLINKBASE
350
2C86
  3
INSUNITS
350
2C8C
  3
LAYOUTDICT
350
2C88
  3
LWETCUNION
350
2C8B
  3
PLOTSETDICT
350
2C89
  3
PLOTSTYLNAMDICT
350
2C8A
  3
PSVPSCALE
350
2C90
  3
PUCSBASE
350
2C94
  3
PUCSORGBACK
350
2C9A
  3
PUCSORGBOTTOM
350
2C96
  3
PUCSORGFRONT
350
2C99
  3
PUCSORGLEFT
350
2C97
  3
PUCSORGRIGHT
350
2C98
  3
PUCSORGTOP
350
2C95
  3
PUCSORTHOREF
350
2C92
  3
PUCSORTHOVIEW
350
2C93
  3
STYLESHEET
350
2C87
  3
TSTACKALIGN
350
2C84
  3
TSTACKSIZE
350
2C85
  3
UCSBASE
350
2C9D
  3
UCSORGBACK
350
2CA3
  3
UCSORGBOTTOM
350
2C9F
  3
UCSORGFRONT
350
2CA2
  3
UCSORGLEFT
350
2CA0
  3
UCSORGRIGHT
350
2CA1
  3
UCSORGTOP
350
2C9E
  3
UCSORTHOREF
350
2C9B
  3
UCSORTHOVIEW
350
2C9C
  3
VERSIONGUID
350
2C8F
  0
DICTIONARY
  5
102
102
{ACAD_REACTORS
330
7
102
}
330
7
100
AcDbDictionary
  3
CANNOSCALE
350
1AA4
  3
CMLEADERSTYLE
350
1AA3
  3
CTABLESTYLE
350
1AA2
  3
DIMASSOC
350
103
  3
INDEXCTL
350
1AA5
  3
SORTENTS
350
549
  0
XRECORD
  5
2C50
102
{ACAD_REACTORS
330
7
102
}
330
7
100
AcDbXrecord
  1
DWGPROPS COOKIE
  2

  3

  4

  6

  7

  8
ymorima
  9

300
=
301
=
302
=
303
=
304
=
305
=
306
=
307
=
308
=
309
=
 40
0.10129
 41
2454410.563830104
 42
2454425.755524444
  1

 90
        0
  0
XRECORD
  5
2C57
102
{ACAD_REACTORS
330
1A8C
102
}
330
1A8C
100
AcDbXrecord
102
VTR_0.000_0.000_1.000_1.000_VISUALSTYLE
340
1A30
102
VTR_0.000_0.000_1.000_1.000_GRIDDISPLAY
 70
     3
102
VTR_0.000_0.000_1.000_1.000_GRIDMAJOR
 70
     5
102
VTR_0.000_0.000_1.000_1.000_DEFAULTLIGHTING
280
     1
102
VTR_0.000_0.000_1.000_1.000_DEFAULTLIGHTINGTYPE
 70
     1
102
VTR_0.000_0.000_1.000_1.000_BRIGHTNESS
141
0.0
102
VTR_0.000_0.000_1.000_1.000_CONTRAST
142
0.0
  0
DICTIONARY
  5
AE6
102
{ACAD_REACTORS
330
AE5
102
}
330
AE5
100
AcDbDictionary
  0
XRECORD
  5
2C53
102
{ACAD_REACTORS
330
1A6F
102
}
330
1A6F
100
AcDbXrecord
102
MATERIAL
340
1A22
  0
XRECORD
  5
1A70
102
{ACAD_REACTORS
330
1A6F
102
}
330
1A6F
100
AcDbXrecord
290
     1
  0
XRECORD
  5
2C52
102
{ACAD_REACTORS
330
1A71
102
}
330
1A71
100
AcDbXrecord
102
MATERIAL
340
1A22
  0
XRECORD
  5
1A72
102
{ACAD_REACTORS
330
1A71
102
}
330
1A71
100
AcDbXrecord
290
     1
  0
XRECORD
  5
2C5D
102
{ACAD_REACTORS
330
1A77
102
}
330
1A77
100
AcDbXrecord
102
MATERIAL
340
1A22
  0
XRECORD
  5
1A78
102
{ACAD_REACTORS
330
1A77
102
}
330
1A77
100
AcDbXrecord
290
     1
  0
XRECORD
  5
2C5E
102
{ACAD_REACTORS
330
1A79
102
}
330
1A79
100
AcDbXrecord
102
MATERIAL
340
1A22
  0
XRECORD
  5
1A7A
102
{ACAD_REACTORS
330
1A79
102
}
330
1A79
100
AcDbXrecord
290
     1
  0
XRECORD
  5
2C60
102
{ACAD_REACTORS
330
1A7D
102
}
330
1A7D
100
AcDbXrecord
102
MATERIAL
340
1A22
  0
XRECORD
  5
1A7E
102
{ACAD_REACTORS
330
1A7D
102
}
330
1A7D
100
AcDbXrecord
290
     1
  0
XRECORD
  5
2CA5
102
{ACAD_REACTORS
330
2CA4
102
}
330
2CA4
100
AcDbXrecord
340
2
  0
XRECORD
  5
2CA7
102
{ACAD_REACTORS
330
2CA6
102
}
330
2CA6
100
AcDbXrecord
340
2C7D
  0
ACAD_PROXY_OBJECT
  5
1A1A
102
{ACAD_XDICTIONARY
360
1A1B
102
}
102
{ACAD_REACTORS
330
1A11
102
}
330
1A11
100
AcDbProxyObject
 90
      499
 91
      510
 93
     1340
310
42109E509B1BD8DAC02004014080404555555555555953FAA155555555555654FEA9AA400014080404555555555555953FAA155555555555654FEA9AA400000000000000E03F4080404555555555555953FAA155555555555654FEA9AA4014080404555555555555953FAA155555555555654FEA9AA4010201011555555555
310
55654FEA8555555555555953FAA6A9005020101155555555555654FEA8555555555555953FAA6A9000
 94
        0
1001
ACAD
1000
AcadProxyRoundTripData
1071
      504
1071
   655383
1070
     0
  0
ACAD_PROXY_OBJECT
  5
1A12
102
{ACAD_XDICTIONARY
360
1A13
102
}
102
{ACAD_REACTORS
330
1A11
102
}
330
1A11
100
AcDbProxyObject
 90
      499
 91
      510
 93
     1340
310
42109E53185E595C802004014080404555555555555953FAA155555555555654FEA9AA400014080404555555555555953FAA155555555555654FEA9AA400000000000000E03F4080404555555555555953FAA155555555555654FEA9AA4014080404555555555555953FAA155555555555654FEA9AA4010201011555555555
310
55654FEA8555555555555953FAA6A9005020101155555555555654FEA8555555555555953FAA6A9000
 94
        0
1001
ACAD
1000
AcadProxyRoundTripData
1071
      504
1071
   655383
1070
     0
  0
ACAD_PROXY_OBJECT
  5
1A22
102
{ACAD_XDICTIONARY
360
1A23
102
}
102
{ACAD_REACTORS
330
1A11
102
}
330
1A11
100
AcDbProxyObject
 90
      499
 91
      510
 93
     1332
310
41D1DB1BD8985B002004014080404555555555555953FAA155555555555654FEA9AA400014080404555555555555953FAA155555555555654FEA9AA400000000000000E03F4080404555555555555953FAA155555555555654FEA9AA4014080404555555555555953FAA155555555555654FEA9AA401020101155555555555
310
654FEA8555555555555953FAA6A9005020101155555555555654FEA8555555555555953FAA6A9000
 94
        0
1001
ACAD
1000
AcadProxyRoundTripData
1071
      504
1071
   655383
1070
     0
  0
ACAD_PROXY_OBJECT
  5
1A61
102
{ACAD_REACTORS
330
1A60
102
}
330
1A60
100
AcDbProxyObject
 90
      499
 91
      510
 93
      618
310
40901902A4063FBFFFFFE056BD1B81E855B9FC0AD7A3703D0AD73F4254DD185B99185C990000AD7A3703D0AC73F90141901A02B5E8DC0F42B1CFC02B5E8DC0F42B1CFE5764000000000000300FC6
340
6A
340
0
340
16
340
0
 94
        0
1001
ACAD_MLEADERVER
1070
     2
1001
ACAD
1000
AcadProxyRoundTripData
1071
      508
1071
   655383
1070
     0
  0
MLINESTYLE
  5
78
102
{ACAD_REACTORS
330
76
102
}
330
76
100
AcDbMlineStyle
  2
STANDARD
 70
     0
  3

 62
     0
 51
90.0
 52
90.0
 71
     2
 49
0.5
 62
   256
  6
BYLAYER
 49
-0.5
 62
   256
  6
BYLAYER
  0
ACDBPLACEHOLDER
  5
5
102
{ACAD_REACTORS
330
6
102
}
330
6
100
AcDbPlaceHolder
280
     0
  0
ACAD_PROXY_OBJECT
  5
1A3F
102
{ACAD_REACTORS
330
1A3E
102
}
330
1A3E
100
AcDbProxyObject
 90
      499
 91
      510
 93
       49
310
904313A3100598
 94
        0
1001
ACAD
1000
AcadProxyRoundTripData
1071
      507
1071
   655383
1070
     0
  0
ACAD_PROXY_OBJECT
  5
1A40
102
{ACAD_REACTORS
330
1A3E
102
}
330
1A3E
100
AcDbProxyObject
 90
      499
 91
      510
 93
      113
310
904313A3200400000000000000406B
 94
        0
1001
ACAD
1000
AcadProxyRoundTripData
1071
      507
1071
   655383
1070
     0
  0
ACAD_PROXY_OBJECT
  5
1A41
102
{ACAD_REACTORS
330
1A3E
102
}
330
1A3E
100
AcDbProxyObject
 90
      499
 91
      510
 93
      113
310
904313A3400400000000000010406B
 94
        0
1001
ACAD
1000
AcadProxyRoundTripData
1071
      507
1071
   655383
1070
     0
  0
ACAD_PROXY_OBJECT
  5
1A42
102
{ACAD_REACTORS
330
1A3E
102
}
330
1A3E
100
AcDbProxyObject
 90
      499
 91
      510
 93
      113
310
904313A3500400000000000014406B
 94
        0
1001
ACAD
1000
AcadProxyRoundTripData
1071
      507
1071
   655383
1070
     0
  0
ACAD_PROXY_OBJECT
  5
1A43
102
{ACAD_REACTORS
330
1A3E
102
}
330
1A3E
100
AcDbProxyObject
 90
      499
 91
      510
 93
      113
310
904313A3800400000000000020406B
 94
        0
1001
ACAD
1000
AcadProxyRoundTripData
1071
      507
1071
   655383
1070
     0
  0
ACAD_PROXY_OBJECT
  5
1A44
102
{ACAD_REACTORS
330
1A3E
102
}
330
1A3E
100
AcDbProxyObject
 90
      499
 91
      510
 93
      121
310
905313A3130004000000000000244051
 94
        0
1001
ACAD
1000
AcadProxyRoundTripData
1071
      507
1071
   655383
1070
     0
  0
ACAD_PROXY_OBJECT
  5
1A45
102
{ACAD_REACTORS
330
1A3E
102
}
330
1A3E
100
AcDbProxyObject
 90
      499
 91
      510
 93
      121
310
905313A3136004000000000000304051
 94
        0
1001
ACAD
1000
AcadProxyRoundTripData
1071
      507
1071
   655383
1070
     0
  0
ACAD_PROXY_OBJECT
  5
1A46
102
{ACAD_REACTORS
330
1A3E
102
}
330
1A3E
100
AcDbProxyObject
 90
      499
 91
      510
 93
      121
310
905313A3230004000000000000344051
 94
        0
1001
ACAD
1000
AcadProxyRoundTripData
1071
      507
1071
   655383
1070
     0
  0
ACAD_PROXY_OBJECT
  5
1A47
102
{ACAD_REACTORS
330
1A3E
102
}
330
1A3E
100
AcDbProxyObject
 90
      499
 91
      510
 93
      121
310
905313A33300040000000000003E4051
 94
        0
1001
ACAD
1000
AcadProxyRoundTripData
1071
      507
1071
   655383
1070
     0
  0
ACAD_PROXY_OBJECT
  5
1A48
102
{ACAD_REACTORS
330
1A3E
102
}
330
1A3E
100
AcDbProxyObject
 90
      499
 91
      510
 93
      121
310
905313A3430004000000000000444051
 94
        0
1001
ACAD
1000
AcadProxyRoundTripData
1071
      507
1071
   655383
1070
     0
  0
ACAD_PROXY_OBJECT
  5
1A49
102
{ACAD_REACTORS
330
1A3E
102
}
330
1A3E
100
AcDbProxyObject
 90
      499
 91
      510
 93
      121
310
905313A3530004000000000000494051
 94
        0
1001
ACAD
1000
AcadProxyRoundTripData
1071
      507
1071
   655383
1070
     0
  0
ACAD_PROXY_OBJECT
  5
1A4A
102
{ACAD_REACTORS
330
1A3E
102
}
330
1A3E
100
AcDbProxyObject
 90
      499
 91
      510
 93
      129
310
906313A313030004000000000000594038
 94
        0
1001
ACAD
1000
AcadProxyRoundTripData
1071
      507
1071
   655383
1070
     0
  0
ACAD_PROXY_OBJECT
  5
1A4B
102
{ACAD_REACTORS
330
1A3E
102
}
330
1A3E
100
AcDbProxyObject
 90
      499
 91
      510
 93
      113
310
904323A31000000000000000010159
 94
        0
1001
ACAD
1000
AcadProxyRoundTripData
1071
      507
1071
   655383
1070
     0
  0
ACAD_PROXY_OBJECT
  5
1A4C
102
{ACAD_REACTORS
330
1A3E
102
}
330
1A3E
100
AcDbProxyObject
 90
      499
 91
      510
 93
      113
310
904343A31000000000000000410159
 94
        0
1001
ACAD
1000
AcadProxyRoundTripData
1071
      507
1071
   655383
1070
     0
  0
ACAD_PROXY_OBJECT
  5
1A4D
102
{ACAD_REACTORS
330
1A3E
102
}
330
1A3E
100
AcDbProxyObject
 90
      499
 91
      510
 93
      113
310
904383A31000000000000000810159
 94
        0
1001
ACAD
1000
AcadProxyRoundTripData
1071
      507
1071
   655383
1070
     0
  0
ACAD_PROXY_OBJECT
  5
1A4E
102
{ACAD_REACTORS
330
1A3E
102
}
330
1A3E
100
AcDbProxyObject
 90
      499
 91
      510
 93
      121
310
90531303A31000000000000000910140
 94
        0
1001
ACAD
1000
AcadProxyRoundTripData
1071
      507
1071
   655383
1070
     0
  0
ACAD_PROXY_OBJECT
  5
1A4F
102
{ACAD_REACTORS
330
1A3E
102
}
330
1A3E
100
AcDbProxyObject
 90
      499
 91
      510
 93
      129
310
9063130303A31000000000000001650138
 94
        0
1001
ACAD
1000
AcadProxyRoundTripData
1071
      507
1071
   655383
1070
     0
  0
ACAD_PROXY_OBJECT
  5
1A50
102
{ACAD_REACTORS
330
1A3E
102
}
330
1A3E
100
AcDbProxyObject
 90
      499
 91
      510
 93
      265
310
90F312F31323822203D2031272D302200000000000000200FC00000000000028402B
 94
        0
1001
ACAD
1000
AcadProxyRoundTripData
1071
      507
1071
   655383
1070
     0
  0
ACAD_PROXY_OBJECT
  5
1A51
102
{ACAD_REACTORS
330
1A3E
102
}
330
1A3E
100
AcDbProxyObject
 90
      499
 91
      510
 93
      257
310
90E312F363422203D2031272D302200000000000000240FC000000000000284040
 94
        0
1001
ACAD
1000
AcadProxyRoundTripData
1071
      507
1071
   655383
1070
     0
  0
ACAD_PROXY_OBJECT
  5
1A52
102
{ACAD_REACTORS
330
1A3E
102
}
330
1A3E
100
AcDbProxyObject
 90
      499
 91
      510
 93
      257
310
90E312F333222203D2031272D302200000000000000280FC000000000000284040
 94
        0
1001
ACAD
1000
AcadProxyRoundTripData
1071
      507
1071
   655383
1070
     0
  0
ACAD_PROXY_OBJECT
  5
1A53
102
{ACAD_REACTORS
330
1A3E
102
}
330
1A3E
100
AcDbProxyObject
 90
      499
 91
      510
 93
      257
310
90E312F313622203D2031272D3022000000000000002C0FC000000000000284040
 94
        0
1001
ACAD
1000
AcadProxyRoundTripData
1071
      507
1071
   655383
1070
     0
  0
ACAD_PROXY_OBJECT
  5
1A54
102
{ACAD_REACTORS
330
1A3E
102
}
330
1A3E
100
AcDbProxyObject
 90
      499
 91
      510
 93
      257
310
90E332F333222203D2031272D3022000000000000002E0FC000000000000284040
 94
        0
1001
ACAD
1000
AcadProxyRoundTripData
1071
      507
1071
   655383
1070
     0
  0
ACAD_PROXY_OBJECT
  5
1A55
102
{ACAD_REACTORS
330
1A3E
102
}
330
1A3E
100
AcDbProxyObject
 90
      499
 91
      510
 93
      249
310
90D312F3822203D2031272D302200000000000000300FC000000000000284040
 94
        0
1001
ACAD
1000
AcadProxyRoundTripData
1071
      507
1071
   655383
1070
     0
  0
ACAD_PROXY_OBJECT
  5
1A56
102
{ACAD_REACTORS
330
1A3E
102
}
330
1A3E
100
AcDbProxyObject
 90
      499
 91
      510
 93
      257
310
90E332F313622203D2031272D302200000000000000320FC000000000000284040
 94
        0
1001
ACAD
1000
AcadProxyRoundTripData
1071
      507
1071
   655383
1070
     0
  0
ACAD_PROXY_OBJECT
  5
1A57
102
{ACAD_REACTORS
330
1A3E
102
}
330
1A3E
100
AcDbProxyObject
 90
      499
 91
      510
 93
      249
310
90D312F3422203D2031272D302200000000000000340FC000000000000284040
 94
        0
1001
ACAD
1000
AcadProxyRoundTripData
1071
      507
1071
   655383
1070
     0
  0
ACAD_PROXY_OBJECT
  5
1A58
102
{ACAD_REACTORS
330
1A3E
102
}
330
1A3E
100
AcDbProxyObject
 90
      499
 91
      510
 93
      249
310
90D332F3822203D2031272D302200000000000000360FC000000000000284040
 94
        0
1001
ACAD
1000
AcadProxyRoundTripData
1071
      507
1071
   655383
1070
     0
  0
ACAD_PROXY_OBJECT
  5
1A59
102
{ACAD_REACTORS
330
1A3E
102
}
330
1A3E
100
AcDbProxyObject
 90
      499
 91
      510
 93
      249
310
90D312F3222203D2031272D302200000000000000380FC000000000000284040
 94
        0
1001
ACAD
1000
AcadProxyRoundTripData
1071
      507
1071
   655383
1070
     0
  0
ACAD_PROXY_OBJECT
  5
1A5A
102
{ACAD_REACTORS
330
1A3E
102
}
330
1A3E
100
AcDbProxyObject
 90
      499
 91
      510
 93
      249
310
90D332F3422203D2031272D3022000000000000003A0FC000000000000284040
 94
        0
1001
ACAD
1000
AcadProxyRoundTripData
1071
      507
1071
   655383
1070
     0
  0
ACAD_PROXY_OBJECT
  5
1A5B
102
{ACAD_REACTORS
330
1A3E
102
}
330
1A3E
100
AcDbProxyObject
 90
      499
 91
      510
 93
      169
310
90B3122203D2031272D3022004000000000000284020
 94
        0
1001
ACAD
1000
AcadProxyRoundTripData
1071
      507
1071
   655383
1070
     0
  0
ACAD_PROXY_OBJECT
  5
1A5C
102
{ACAD_REACTORS
330
1A3E
102
}
330
1A3E
100
AcDbProxyObject
 90
      499
 91
      510
 93
      265
310
90F312D312F3222203D2031272D3022000000000000003E0FC00000000000028402B
 94
        0
1001
ACAD
1000
AcadProxyRoundTripData
1071
      507
1071
   655383
1070
     0
  0
ACAD_PROXY_OBJECT
  5
1A5D
102
{ACAD_REACTORS
330
1A3E
102
}
330
1A3E
100
AcDbProxyObject
 90
      499
 91
      510
 93
      233
310
90B3322203D2031272D30220000000000000002100000000000000284000
 94
        0
1001
ACAD
1000
AcadProxyRoundTripData
1071
      507
1071
   655383
1070
     0
  0
ACAD_PROXY_OBJECT
  5
1A5E
102
{ACAD_REACTORS
330
1A3E
102
}
330
1A3E
100
AcDbProxyObject
 90
      499
 91
      510
 93
      233
310
90B3622203D2031272D30220000000000000006100000000000000284000
 94
        0
1001
ACAD
1000
AcadProxyRoundTripData
1071
      507
1071
   655383
1070
     0
  0
ACAD_PROXY_OBJECT
  5
1A5F
102
{ACAD_REACTORS
330
1A3E
102
}
330
1A3E
100
AcDbProxyObject
 90
      499
 91
      510
 93
      257
310
90E31272D3022203D2031272D3022000000000000000A100000000000000284040
 94
        0
1001
ACAD
1000
AcadProxyRoundTripData
1071
      507
1071
   655383
1070
     0
  0
ACAD_PROXY_OBJECT
  5
1A3D
102
{ACAD_XDICTIONARY
360
1A81
102
}
102
{ACAD_REACTORS
330
1A3C
102
}
330
1A3C
100
AcDbProxyObject
 90
      499
 91
      510
 93
     1849
310
4254DD185B99185C990028B81E85EB51B8AE3F2E07A17AD46E2B8FC02B5E8DC0F42B1CFD028000000C1008070000C3001FDFF8000000C1003FBFF000000182007F7FE00000030400FEFFC00000060801FDFF8000000C1003FBFF00000018200000000000000681FA0B0000001820100E000186003FBFF000000182007F7FE0
310
0000030400FEFFC00000060801FDFF8000000C1003FBFF000000182007F7FE000000304000AD7A3703D0AC73F4160000003040201C00030C007F7FE00000030400FEFFC00000060801FDFF8000000C1003FBFF000000182007F7FE00000030400FEFFC000000608000
340
16
340
16
340
16
 94
        0
1001
ACAD
1000
AcadProxyRoundTripData
1071
      506
1071
   655383
1070
     0
  0
ACAD_PROXY_OBJECT
  5
1A30
102
{ACAD_REACTORS
330
1A2A
102
}
330
1A2A
100
AcDbProxyObject
 90
      499
 91
      510
 93
      444
310
430C9915DA5C99599C985B59401049028333333333333E3BF0000000000000FB0107901411070040501600405405064090741402480A0340
 94
        0
1001
ACAD
1000
AcDbSavedByObjectVersion
1070
     0
1000
AcadProxyRoundTripData
1071
      505
1071
   655383
1070
     0
  0
ACAD_PROXY_OBJECT
  5
1A32
102
{ACAD_REACTORS
330
1A2A
102
}
330
1A2A
100
AcDbProxyObject
 90
      499
 91
      510
 93
      508
310
428CD108121A5919195B8010640502408333333333333E3BF0000000000000FB01079024090700405020000000000001110200405405064090740C02480A0340
 94
        0
1001
ACAD
1000
AcDbSavedByObjectVersion
1070
     0
1000
AcadProxyRoundTripData
1071
      505
1071
   655383
1070
     0
  0
ACAD_PROXY_OBJECT
  5
1A31
102
{ACAD_REACTORS
330
1A2A
102
}
330
1A2A
100
AcDbProxyObject
 90
      499
 91
      510
 93
      444
310
430CD915DA5C99599C985B59401059028333333333333E3BF0000000000000FB0107901411070040501600405405064090741402480A0340
 94
        0
1001
ACAD
1000
AcDbSavedByObjectVersion
1070
     0
1000
AcadProxyRoundTripData
1071
      505
1071
   655383
1070
     0
  0
ACAD_PROXY_OBJECT
  5
1A2F
102
{ACAD_REACTORS
330
1A2A
102
}
330
1A2A
100
AcDbProxyObject
 90
      499
 91
      510
 93
      396
310
4190985CDA58C0107406404333333333333E3BF0000000000000FB0107A41107004050150841D405064090741402480A0356
 94
        0
1001
ACAD
1000
AcDbSavedByObjectVersion
1070
     0
1000
AcadProxyRoundTripData
1071
      505
1071
   655383
1070
     0
  0
ACAD_PROXY_OBJECT
  5
1A36
102
{ACAD_REACTORS
330
1A2A
102
}
330
1A2A
100
AcDbProxyObject
 90
      499
 91
      510
 93
      436
310
42509C9A59DA1D195B8010C409028333333333333E3BF0000000000000FB010790141107004050150841D405064090741402480A029956
 94
        0
1001
ACAD
1000
AcDbSavedByObjectVersion
1070
     0
1000
AcadProxyRoundTripData
1071
      505
1071
   655383
1070
     0
  0
ACAD_PROXY_OBJECT
  5
1A3A
102
{ACAD_REACTORS
330
1A2A
102
}
330
1A2A
100
AcDbProxyObject
 90
      499
 91
      510
 93
      460
310
4310DBDB1BDC90DA185B99D9401104090240C333333333333E3BF0000000000000FB0108901411070040501508421405064090741402480A0354
 94
        0
1001
ACAD
1000
AcDbSavedByObjectVersion
1070
     0
1000
AcadProxyRoundTripData
1071
      505
1071
   655383
1070
     0
  0
ACAD_PROXY_OBJECT
  5
1A33
102
{ACAD_REACTORS
330
1A2A
102
}
330
1A2A
100
AcDbProxyObject
 90
      499
 91
      510
 93
      508
310
42D0DBDB98D95C1D1D585B0010940D028333333333333E3BF0000000000000FB0107902409070040501000000000000111010841D405064090740C02480A0340
 94
        0
1001
ACAD
1000
AcDbSavedByObjectVersion
1070
     0
1000
AcadProxyRoundTripData
1071
      505
1071
   655383
1070
     0
  0
ACAD_PROXY_OBJECT
  5
1A35
102
{ACAD_REACTORS
330
1A2A
102
}
330
1A2A
100
AcDbProxyObject
 90
      499
 91
      510
 93
      420
310
41111A5B4010B409028333333333333E3BF0000000000000FB010790141107004050150841D405064090741402480A02677FFFFFDB
 94
        0
1001
ACAD
1000
AcDbSavedByObjectVersion
1070
     0
1000
AcadProxyRoundTripData
1071
      505
1071
   655383
1070
     0
  0
ACAD_PROXY_OBJECT
  5
1A39
102
{ACAD_REACTORS
330
1A2A
102
}
330
1A2A
100
AcDbProxyObject
 90
      499
 91
      510
 93
      452
310
43119858D95C185D1D195C9B8010F409028333333333333E3BF0000000000000FB010790141107004050150841D405064090741402480A0350
 94
        0
1001
ACAD
1000
AcDbSavedByObjectVersion
1070
     0
1000
AcadProxyRoundTripData
1071
      505
1071
   655383
1070
     0
  0
ACAD_PROXY_OBJECT
  5
1A2B
102
{ACAD_REACTORS
330
1A2A
102
}
330
1A2A
100
AcDbProxyObject
 90
      499
 91
      510
 93
      396
310
41519B185D00240901404333333333333E3BF0000000000000F9010740A41107004050150841D405064090741402480A1B55
 94
        0
1001
ACAD
1000
AcDbSavedByObjectVersion
1070
     0
1000
AcadProxyRoundTripData
1071
      505
1071
   655383
1070
     0
  0
ACAD_PROXY_OBJECT
  5
1A2C
102
{ACAD_REACTORS
330
1A2A
102
}
330
1A2A
100
AcDbProxyObject
 90
      499
 91
      510
 93
      484
310
43919B185D15DA5D1A115919D95CC010140901404333333333333E3BF0000000000000F9010740901411070040501600405405064090741402480A1B50
 94
        0
1001
ACAD
1000
AcDbSavedByObjectVersion
1070
     0
1000
AcadProxyRoundTripData
1071
      505
1071
   655383
1070
     0
  0
ACAD_PROXY_OBJECT
  5
1A2D
102
{ACAD_REACTORS
330
1A2A
102
}
330
1A2A
100
AcDbProxyObject
 90
      499
 91
      510
 93
      420
310
4211DBDD5C985D590010240902404333333333333E3BF0000000000000F9010740A411070040501641D405064090741402480A1B50
 94
        0
1001
ACAD
1000
AcDbSavedByObjectVersion
1070
     0
1000
AcadProxyRoundTripData
1071
      505
1071
   655383
1070
     0
  0
ACAD_PROXY_OBJECT
  5
1A2E
102
{ACAD_REACTORS
330
1A2A
102
}
330
1A2A
100
AcDbProxyObject
 90
      499
 91
      510
 93
      508
310
4451DBDD5C985D5915DA5D1A115919D95CC010340902404333333333333E3BF0000000000000F9010740901411070040501600405405064090741402480A1B50
 94
        0
1001
ACAD
1000
AcDbSavedByObjectVersion
1070
     0
1000
AcadProxyRoundTripData
1071
      505
1071
   655383
1070
     0
  0
ACAD_PROXY_OBJECT
  5
1A38
102
{ACAD_REACTORS
330
1A2A
102
}
330
1A2A
100
AcDbProxyObject
 90
      499
 91
      510
 93
      452
310
43131A5B995C185D1D195C9B8010E409028333333333333E3BF0000000000000FB010790141107004050750841D405064090741402483A0350
 94
        0
1001
ACAD
1000
AcDbSavedByObjectVersion
1070
     0
1000
AcadProxyRoundTripData
1071
      505
1071
   655383
1070
     0
  0
ACAD_PROXY_OBJECT
  5
1A34
102
{ACAD_REACTORS
330
1A2A
102
}
330
1A2A
100
AcDbProxyObject
 90
      499
 91
      510
 93
      428
310
429499585B1A5CDD1A58C0108409028333333333333E3BF0000000000000FB01079019070040501508421405064090741402480A1B45
 94
        0
1001
ACAD
1000
AcDbSavedByObjectVersion
1070
     0
1000
AcadProxyRoundTripData
1071
      505
1071
   655383
1070
     0
  0
ACAD_PROXY_OBJECT
  5
1A37
102
{ACAD_REACTORS
330
1A2A
102
}
330
1A2A
100
AcDbProxyObject
 90
      499
 91
      510
 93
      420
310
42151A1A58DAD95B8010D409028333333333333E3BF0000000000000FB010790141107004050150C41D405064090741402480A0352
 94
        0
1001
ACAD
1000
AcDbSavedByObjectVersion
1070
     0
1000
AcadProxyRoundTripData
1071
      505
1071
   655383
1070
     0
  0
XRECORD
  5
2C8D
102
{ACAD_REACTORS
330
2C83
102
}
330
2C83
100
AcDbXrecord
 90
        0
  0
XRECORD
  5
2C91
102
{ACAD_REACTORS
330
2C83
102
}
330
2C83
100
AcDbXrecord
1000
DSTYLE
1002
{
1070
   179
 70
     2
1070
   277
 70
     6
1002
}
  0
XRECORD
  5
2C8E
102
{ACAD_REACTORS
330
2C83
102
}
330
2C83
100
AcDbXrecord
  1
{6385560B-F4B1-4644-A7C2-A3E32AC3D232}
  0
XRECORD
  5
2C86
102
{ACAD_REACTORS
330
2C83
102
}
330
2C83
100
AcDbXrecord
  1

  0
XRECORD
  5
2C8C
102
{ACAD_REACTORS
330
2C83
102
}
330
2C83
100
AcDbXrecord
 90
        0
  0
XRECORD
  5
2C88
102
{ACAD_REACTORS
330
2C83
102
}
330
2C83
100
AcDbXrecord
340
61
  0
XRECORD
  5
2C8B
102
{ACAD_REACTORS
330
2C83
102
}
330
2C83
100
AcDbXrecord
 90
    10781
  0
XRECORD
  5
2C89
102
{ACAD_REACTORS
330
2C83
102
}
330
2C83
100
AcDbXrecord
340
77
  0
XRECORD
  5
2C8A
102
{ACAD_REACTORS
330
2C83
102
}
330
2C83
100
AcDbXrecord
340
6
  0
XRECORD
  5
2C90
102
{ACAD_REACTORS
330
2C83
102
}
330
2C83
100
AcDbXrecord
 40
0.0
  0
XRECORD
  5
2C94
102
{ACAD_REACTORS
330
2C83
102
}
330
2C83
100
AcDbXrecord
340
0
  0
XRECORD
  5
2C9A
102
{ACAD_REACTORS
330
2C83
102
}
330
2C83
100
AcDbXrecord
 10
0.0
 20
0.0
 30
0.0
  0
XRECORD
  5
2C96
102
{ACAD_REACTORS
330
2C83
102
}
330
2C83
100
AcDbXrecord
 10
0.0
 20
0.0
 30
0.0
  0
XRECORD
  5
2C99
102
{ACAD_REACTORS
330
2C83
102
}
330
2C83
100
AcDbXrecord
 10
0.0
 20
0.0
 30
0.0
  0
XRECORD
  5
2C97
102
{ACAD_REACTORS
330
2C83
102
}
330
2C83
100
AcDbXrecord
 10
0.0
 20
0.0
 30
0.0
  0
XRECORD
  5
2C98
102
{ACAD_REACTORS
330
2C83
102
}
330
2C83
100
AcDbXrecord
 10
0.0
 20
0.0
 30
0.0
  0
XRECORD
  5
2C95
102
{ACAD_REACTORS
330
2C83
102
}
330
2C83
100
AcDbXrecord
 10
0.0
 20
0.0
 30
0.0
  0
XRECORD
  5
2C92
102
{ACAD_REACTORS
330
2C83
102
}
330
2C83
100
AcDbXrecord
340
0
  0
XRECORD
  5
2C93
102
{ACAD_REACTORS
330
2C83
102
}
330
2C83
100
AcDbXrecord
 70
     0
  0
XRECORD
  5
2C87
102
{ACAD_REACTORS
330
2C83
102
}
330
2C83
100
AcDbXrecord
  1
Sekkei.ctb
  0
XRECORD
  5
2C84
102
{ACAD_REACTORS
330
2C83
102
}
330
2C83
100
AcDbXrecord
 90
        1
  0
XRECORD
  5
2C85
102
{ACAD_REACTORS
330
2C83
102
}
330
2C83
100
AcDbXrecord
 90
       70
  0
XRECORD
  5
2C9D
102
{ACAD_REACTORS
330
2C83
102
}
330
2C83
100
AcDbXrecord
340
0
  0
XRECORD
  5
2CA3
102
{ACAD_REACTORS
330
2C83
102
}
330
2C83
100
AcDbXrecord
 10
0.0
 20
0.0
 30
0.0
  0
XRECORD
  5
2C9F
102
{ACAD_REACTORS
330
2C83
102
}
330
2C83
100
AcDbXrecord
 10
0.0
 20
0.0
 30
0.0
  0
XRECORD
  5
2CA2
102
{ACAD_REACTORS
330
2C83
102
}
330
2C83
100
AcDbXrecord
 10
0.0
 20
0.0
 30
0.0
  0
XRECORD
  5
2CA0
102
{ACAD_REACTORS
330
2C83
102
}
330
2C83
100
AcDbXrecord
 10
0.0
 20
0.0
 30
0.0
  0
XRECORD
  5
2CA1
102
{ACAD_REACTORS
330
2C83
102
}
330
2C83
100
AcDbXrecord
 10
0.0
 20
0.0
 30
0.0
  0
XRECORD
  5
2C9E
102
{ACAD_REACTORS
330
2C83
102
}
330
2C83
100
AcDbXrecord
 10
0.0
 20
0.0
 30
0.0
  0
XRECORD
  5
2C9B
102
{ACAD_REACTORS
330
2C83
102
}
330
2C83
100
AcDbXrecord
340
0
  0
XRECORD
  5
2C9C
102
{ACAD_REACTORS
330
2C83
102
}
330
2C83
100
AcDbXrecord
 70
     0
  0
XRECORD
  5
2C8F
102
{ACAD_REACTORS
330
2C83
102
}
330
2C83
100
AcDbXrecord
  1
{0437C564-84A5-4BEA-8931-2BAB87E454D9}
  0
DICTIONARYVAR
  5
1AA4
102
{ACAD_REACTORS
330
102
102
}
330
102
100
DictionaryVariables
280
     0
  1
1:1
  0
DICTIONARYVAR
  5
1AA3
102
{ACAD_REACTORS
330
102
102
}
330
102
100
DictionaryVariables
280
     0
  1
STANDARD
  0
DICTIONARYVAR
  5
1AA2
102
{ACAD_REACTORS
330
102
102
}
330
102
100
DictionaryVariables
280
     0
  1
STANDARD
  0
DICTIONARYVAR
  5
103
102
{ACAD_REACTORS
330
102
102
}
330
102
100
DictionaryVariables
280
     0
  1
1
  0
DICTIONARYVAR
  5
1AA5
102
{ACAD_REACTORS
330
102
102
}
330
102
100
DictionaryVariables
280
     0
  1
0
  0
DICTIONARYVAR
  5
549
102
{ACAD_REACTORS
330
102
102
}
330
102
100
DictionaryVariables
280
     0
  1
96
  0
DICTIONARY
  5
1A1B
330
1A1A
100
AcDbDictionary
280
     1
  3
ACAD_XREC_ROUNDTRIP
360
2C62
  3
BUMPTILE
360
1A1D
  3
DIFFUSETILE
360
1A1C
  3
OPACITYTILE
360
1A20
  3
REFLECTIONTILE
360
1A1F
  3
REFRACTIONTILE
360
1A21
  3
SPECULARTILE
360
1A1E
  0
DICTIONARY
  5
1A13
330
1A12
100
AcDbDictionary
280
     1
  3
ACAD_XREC_ROUNDTRIP
360
2C61
  3
BUMPTILE
360
1A15
  3
DIFFUSETILE
360
1A14
  3
OPACITYTILE
360
1A18
  3
REFLECTIONTILE
360
1A17
  3
REFRACTIONTILE
360
1A19
  3
SPECULARTILE
360
1A16
  0
DICTIONARY
  5
1A23
330
1A22
100
AcDbDictionary
280
     1
  3
ACAD_XREC_ROUNDTRIP
360
2C63
  3
BUMPTILE
360
1A25
  3
DIFFUSETILE
360
1A24
  3
OPACITYTILE
360
1A28
  3
REFLECTIONTILE
360
1A27
  3
REFRACTIONTILE
360
1A29
  3
SPECULARTILE
360
1A26
  0
DICTIONARY
  5
1A81
330
1A3D
100
AcDbDictionary
280
     1
  3
ACAD_ROUNDTRIP_2008_TABLES
360
2C4F
  3
ACAD_XREC_ROUNDTRIP
360
2C64
  0
XRECORD
  5
2C62
102
{ACAD_REACTORS
330
1A1B
102
}
330
1A1B
100
AcDbXrecord
102
MATERIAL
148
0.0
149
0.0
149
0.0
 93
        0
 94
      127
282
     0
 72
     0
 77
     0
171
     0
175
     0
179
     0
273
     0
  0
XRECORD
  5
1A1D
102
{ACAD_REACTORS
330
1A1B
102
}
330
1A1B
100
AcDbXrecord
270
     1
271
     1
  0
XRECORD
  5
1A1C
102
{ACAD_REACTORS
330
1A1B
102
}
330
1A1B
100
AcDbXrecord
270
     1
271
     1
  0
XRECORD
  5
1A20
102
{ACAD_REACTORS
330
1A1B
102
}
330
1A1B
100
AcDbXrecord
270
     1
271
     1
  0
XRECORD
  5
1A1F
102
{ACAD_REACTORS
330
1A1B
102
}
330
1A1B
100
AcDbXrecord
270
     1
271
     1
  0
XRECORD
  5
1A21
102
{ACAD_REACTORS
330
1A1B
102
}
330
1A1B
100
AcDbXrecord
270
     1
271
     1
  0
XRECORD
  5
1A1E
102
{ACAD_REACTORS
330
1A1B
102
}
330
1A1B
100
AcDbXrecord
270
     1
271
     1
  0
XRECORD
  5
2C61
102
{ACAD_REACTORS
330
1A13
102
}
330
1A13
100
AcDbXrecord
102
MATERIAL
148
0.0
149
0.0
149
0.0
 93
        0
 94
      127
282
     0
 72
     0
 77
     0
171
     0
175
     0
179
     0
273
     0
  0
XRECORD
  5
1A15
102
{ACAD_REACTORS
330
1A13
102
}
330
1A13
100
AcDbXrecord
270
     1
271
     1
  0
XRECORD
  5
1A14
102
{ACAD_REACTORS
330
1A13
102
}
330
1A13
100
AcDbXrecord
270
     1
271
     1
  0
XRECORD
  5
1A18
102
{ACAD_REACTORS
330
1A13
102
}
330
1A13
100
AcDbXrecord
270
     1
271
     1
  0
XRECORD
  5
1A17
102
{ACAD_REACTORS
330
1A13
102
}
330
1A13
100
AcDbXrecord
270
     1
271
     1
  0
XRECORD
  5
1A19
102
{ACAD_REACTORS
330
1A13
102
}
330
1A13
100
AcDbXrecord
270
     1
271
     1
  0
XRECORD
  5
1A16
102
{ACAD_REACTORS
330
1A13
102
}
330
1A13
100
AcDbXrecord
270
     1
271
     1
  0
XRECORD
  5
2C63
102
{ACAD_REACTORS
330
1A23
102
}
330
1A23
100
AcDbXrecord
102
MATERIAL
148
0.0
149
0.0
149
0.0
 93
        0
 94
      127
282
     0
 72
     0
 77
     0
171
     0
175
     0
179
     0
273
     0
  0
XRECORD
  5
1A25
102
{ACAD_REACTORS
330
1A23
102
}
330
1A23
100
AcDbXrecord
270
     1
271
     1
  0
XRECORD
  5
1A24
102
{ACAD_REACTORS
330
1A23
102
}
330
1A23
100
AcDbXrecord
270
     1
271
     1
  0
XRECORD
  5
1A28
102
{ACAD_REACTORS
330
1A23
102
}
330
1A23
100
AcDbXrecord
270
     1
271
     1
  0
XRECORD
  5
1A27
102
{ACAD_REACTORS
330
1A23
102
}
330
1A23
100
AcDbXrecord
270
     1
271
     1
  0
XRECORD
  5
1A29
102
{ACAD_REACTORS
330
1A23
102
}
330
1A23
100
AcDbXrecord
270
     1
271
     1
  0
XRECORD
  5
1A26
102
{ACAD_REACTORS
330
1A23
102
}
330
1A23
100
AcDbXrecord
270
     1
271
     1
  0
ACAD_PROXY_OBJECT
  5
2C4F
102
{ACAD_REACTORS
330
1A81
102
}
330
1A81
100
AcDbProxyObject
 90
      499
 91
      510
 93
     5304
310
40D054060020000020000003200101A000080002A5058000000C100000000000000340FD012E07A17AD46E2B8FCB81E85EB51B8AE3F2E07A17AD46E2B8FCB81E85EB51B8AE3F02B5E8DC0F42B1CFC0AD7A3703D0AC73F419019018000000C1003FBFFFFFE02B5E8DC0F42A9CFD029018000000C1003FBFFFFFE02B5E8DC0F4
310
2A9CFD049018000000C1003FBFFFFFE02B5E8DC0F42A9CFD089018000000C1003FBFFFFFE02B5E8DC0F42A9CFD109018000000C1003FBFFFFFE02B5E8DC0F42A9CFD209018000000C1003FBFFFFFE02B5E8DC0F42A9CFD01405075F5449544C450041501A8000000C800406800020000A9416000000304000AD7A3703D0AC7
310
3F404B81E85EB51B8AE3F2E07A17AD46E2B8FCB81E85EB51B8AE3F2E07A17AD46E2B8FC0AD7A3703D0AC73F02B5E8DC0F42B1CFD0640640600000030400FEFFFFFF80AD7A3703D0AA73F40A40600000030400FEFFFFFF80AD7A3703D0AA73F41240600000030400FEFFFFFF80AD7A3703D0AA73F42240600000030400FEFFF
310
FFF80AD7A3703D0AA73F44240600000030400FEFFFFFF80AD7A3703D0AA73F48240600000030400FEFFFFFF80AD7A3703D0AA73F409014217D2115051115480105406A0000003200101A000080002A5028000000C10002B5E8DC0F42B1CFD012E07A17AD46E2B8FCB81E85EB51B8AE3F2E07A17AD46E2B8FCB81E85EB51B8A
310
E3F02B5E8DC0F42B1CFC0AD7A3703D0AC73F419019018000000C1003FBFFFFFE02B5E8DC0F42A9CFD029018000000C1003FBFFFFFE02B5E8DC0F42A9CFD049018000000C1003FBFFFFFE02B5E8DC0F42A9CFD089018000000C1003FBFFFFFE02B5E8DC0F42A9CFD109018000000C1003FBFFFFFE02B5E8DC0F42A9CFD20901
310
8000000C1003FBFFFFFE02B5E8DC0F42A9CFD03409065F444154410000
340
16
340
0
340
0
340
0
340
0
340
0
340
0
340
16
340
0
340
0
340
0
340
0
340
0
340
0
340
16
340
0
340
0
340
0
340
0
340
0
340
0
 94
        0
1001
ACAD
1000
AcadProxyRoundTripData
1071
      509
1071
   655383
1070
     0
  0
XRECORD
  5
2C64
102
{ACAD_REACTORS
330
1A81
102
}
330
1A81
100
AcDbXrecord
102
ACAD_ROUNDTRIP_PRE2007_TABLESTYLE
 90
      512
 91
        0
  1

 92
      512
 93
        0
  2

 94
      512
 95
        0
  3

  0
ENDSEC
  0
EOF
