  0
SECTION
  2
HEADER
  9
$ACADVER
  1
AC1014
  9
$ACADMAINTVER
 70
     9
  9
$DWGCODEPAGE
  3
ANSI_932
  9
$INSBASE
 10
0.0
 20
0.0
 30
0.0
  9
$EXTMIN
 10
39.09821705392516
 20
56.74229556809462
 30
0.0
  9
$EXTMAX
 10
947.4165748929804
 20
444.3552626911585
 30
0.0
  9
$LIMMIN
 10
0.0
 20
0.0
  9
$LIMMAX
 10
297.0
 20
210.0
  9
$ORTHOMODE
 70
     1
  9
$REGENMODE
 70
     1
  9
$FILLMODE
 70
     1
  9
$QTEXTMODE
 70
     0
  9
$MIRRTEXT
 70
     0
  9
$DRAGMODE
 70
     2
  9
$LTSCALE
 40
3.0
  9
$OSMODE
 70
    37
  9
$ATTMODE
 70
     1
  9
$TEXTSIZE
 40
2.0
  9
$TRACEWID
 40
1.0
  9
$TEXTSTYLE
  7
STANDARD
  9
$CLAYER
  8
0
  9
$CELTYPE
  6
BYLAYER
  9
$CECOLOR
 62
   256
  9
$CELTSCALE
 40
1.0
  9
$DELOBJ
 70
     1
  9
$DISPSILH
 70
     0
  9
$DIMSCALE
 40
3.0
  9
$DIMASZ
 40
1.8
  9
$DIMEXO
 40
0.625
  9
$DIMDLI
 40
3.75
  9
$DIMRND
 40
0.0
  9
$DIMDLE
 40
0.0
  9
$DIMEXE
 40
0.8
  9
$DIMTP
 40
0.0
  9
$DIMTM
 40
0.0
  9
$DIMTXT
 40
1.8
  9
$DIMCEN
 40
2.5
  9
$DIMTSZ
 40
0.0
  9
$DIMTOL
 70
     0
  9
$DIMLIM
 70
     0
  9
$DIMTIH
 70
     0
  9
$DIMTOH
 70
     0
  9
$DIMSE1
 70
     0
  9
$DIMSE2
 70
     0
  9
$DIMTAD
 70
     1
  9
$DIMZIN
 70
     8
  9
$DIMBLK
  1

  9
$DIMASO
 70
     1
  9
$DIMSHO
 70
     1
  9
$DIMPOST
  1

  9
$DIMAPOST
  1

  9
$DIMALT
 70
     0
  9
$DIMALTD
 70
     4
  9
$DIMALTF
 40
0.0394
  9
$DIMLFAC
 40
1.0
  9
$DIMTOFL
 70
     1
  9
$DIMTVP
 40
0.0
  9
$DIMTIX
 70
     0
  9
$DIMSOXD
 70
     0
  9
$DIMSAH
 70
     0
  9
$DIMBLK1
  1

  9
$DIMBLK2
  1

  9
$DIMSTYLE
  2
STANDARD
  9
$DIMCLRD
 70
     0
  9
$DIMCLRE
 70
     0
  9
$DIMCLRT
 70
     0
  9
$DIMTFAC
 40
1.0
  9
$DIMGAP
 40
0.75
  9
$DIMJUST
 70
     0
  9
$DIMSD1
 70
     0
  9
$DIMSD2
 70
     0
  9
$DIMTOLJ
 70
     1
  9
$DIMTZIN
 70
     0
  9
$DIMALTZ
 70
     0
  9
$DIMALTTZ
 70
     0
  9
$DIMFIT
 70
     3
  9
$DIMUPT
 70
     0
  9
$DIMUNIT
 70
     8
  9
$DIMDEC
 70
     2
  9
$DIMTDEC
 70
     2
  9
$DIMALTU
 70
     8
  9
$DIMALTTD
 70
     4
  9
$DIMTXSTY
  7
STANDARD
  9
$DIMAUNIT
 70
     0
  9
$LUNITS
 70
     2
  9
$LUPREC
 70
     3
  9
$SKETCHINC
 40
1.0
  9
$FILLETRAD
 40
10.0
  9
$AUNITS
 70
     0
  9
$AUPREC
 70
     2
  9
$MENU
  1
.
  9
$ELEVATION
 40
0.0
  9
$PELEVATION
 40
0.0
  9
$THICKNESS
 40
0.0
  9
$LIMCHECK
 70
     0
  9
$BLIPMODE
 70
     0
  9
$CHAMFERA
 40
0.0
  9
$CHAMFERB
 40
0.0
  9
$CHAMFERC
 40
20.0
  9
$CHAMFERD
 40
0.0
  9
$SKPOLY
 70
     0
  9
$TDCREATE
 40
2454410.570290254
  9
$TDUPDATE
 40
2454425.765011030
  9
$TDINDWG
 40
0.1167223843
  9
$TDUSRTIMER
 40
0.1167223843
  9
$USRTIMER
 70
     1
  9
$ANGBASE
 50
0.0
  9
$ANGDIR
 70
     0
  9
$PDMODE
 70
     0
  9
$PDSIZE
 40
-10.0
  9
$PLINEWID
 40
0.0
  9
$COORDS
 70
     0
  9
$SPLFRAME
 70
     0
  9
$SPLINETYPE
 70
     6
  9
$SPLINESEGS
 70
     8
  9
$ATTDIA
 70
     0
  9
$ATTREQ
 70
     1
  9
$HANDLING
 70
-16383
  9
$HANDSEED
  5
2E0F
  9
$SURFTAB1
 70
     6
  9
$SURFTAB2
 70
     6
  9
$SURFTYPE
 70
     6
  9
$SURFU
 70
     6
  9
$SURFV
 70
     6
  9
$UCSNAME
  2

  9
$UCSORG
 10
0.0
 20
0.0
 30
0.0
  9
$UCSXDIR
 10
1.0
 20
0.0
 30
0.0
  9
$UCSYDIR
 10
0.0
 20
1.0
 30
0.0
  9
$PUCSNAME
  2

  9
$PUCSORG
 10
0.0
 20
0.0
 30
0.0
  9
$PUCSXDIR
 10
1.0
 20
0.0
 30
0.0
  9
$PUCSYDIR
 10
0.0
 20
1.0
 30
0.0
  9
$USERI1
 70
     0
  9
$USERI2
 70
     0
  9
$USERI3
 70
     0
  9
$USERI4
 70
     0
  9
$USERI5
 70
     0
  9
$USERR1
 40
0.0
  9
$USERR2
 40
0.0
  9
$USERR3
 40
0.0
  9
$USERR4
 40
0.0
  9
$USERR5
 40
0.0
  9
$WORLDVIEW
 70
     1
  9
$SHADEDGE
 70
     3
  9
$SHADEDIF
 70
    70
  9
$TILEMODE
 70
     1
  9
$MAXACTVP
 70
    48
  9
$PINSBASE
 10
0.0
 20
0.0
 30
0.0
  9
$PLIMCHECK
 70
     0
  9
$PEXTMIN
 10
0.0
 20
0.0
 30
0.0
  9
$PEXTMAX
 10
0.0
 20
0.0
 30
0.0
  9
$PLIMMIN
 10
0.0
 20
0.0
  9
$PLIMMAX
 10
12.0
 20
9.0
  9
$UNITMODE
 70
     0
  9
$VISRETAIN
 70
     1
  9
$PLINEGEN
 70
     0
  9
$PSLTSCALE
 70
     1
  9
$TREEDEPTH
 70
  3020
  9
$PICKSTYLE
 70
     1
  9
$CMLSTYLE
  2
STANDARD
  9
$CMLJUST
 70
     0
  9
$CMLSCALE
 40
1.0
  9
$PROXYGRAPHICS
 70
     1
  9
$MEASUREMENT
 70
     0
  0
ENDSEC
  0
SECTION
  2
CLASSES
  0
CLASS
  1
DICTIONARYVAR
  2
AcDbDictionaryVar
  3
AutoCAD 2000
 90
        0
280
     0
281
     0
  0
CLASS
  1
ACDBDICTIONARYWDFLT
  2
AcDbDictionaryWithDefault
  3
AutoCAD 2000
 90
        0
280
     0
281
     0
  0
CLASS
  1
ACDBPLACEHOLDER
  2
AcDbPlaceHolder
  3
AutoCAD 2000
 90
        0
280
     0
281
     0
  0
CLASS
  1
LAYOUT
  2
AcDbLayout
  3
AutoCAD 2000
 90
        0
280
     0
281
     0
  0
CLASS
  1
MATERIAL
  2
AcDbMaterial
  3
ObjectDBX Classes
 90
     1153
280
     0
281
     0
  0
CLASS
  1
VISUALSTYLE
  2
AcDbVisualStyle
  3
ObjectDBX Classes
 90
     4095
280
     0
281
     0
  0
CLASS
  1
TABLESTYLE
  2
AcDbTableStyle
  3
ObjectDBX Classes
 90
     4095
280
     0
281
     0
  0
CLASS
  1
SCALE
  2
AcDbScale
  3
ObjectDBX Classes
 90
     1153
280
     0
281
     0
  0
CLASS
  1
MLEADERSTYLE
  2
AcDbMLeaderStyle
  3
ACDB_MLEADERSTYLE_CLASS
 90
     4095
280
     0
281
     0
  0
CLASS
  1
CELLSTYLEMAP
  2
AcDbCellStyleMap
  3
ObjectDBX Classes
 90
     1152
280
     0
281
     0
  0
CLASS
  1
ACAD_PROXY_OBJECT_WRAPPER
  2
AcDbProxyObjectWrapper
  3
AutoCAD 2000
 90
        0
280
     0
281
     0
  0
CLASS
  1
LONG_TRANSACTION
  2
AcDbLongTransaction
  3
AutoCAD 2000
 90
        0
280
     0
281
     0
  0
CLASS
  1
LWPOLYLINE
  2
AcDbPolyline
  3
AutoCAD 2000
 90
        0
280
     0
281
     1
  0
CLASS
  1
HATCH
  2
AcDbHatch
  3
AutoCAD 2000
 90
        0
280
     0
281
     1
  0
CLASS
  1
XRECORD
  2
AcDbXrecord
  3
AutoCAD 2000
 90
        0
280
     0
281
     0
  0
ENDSEC
  0
SECTION
  2
TABLES
  0
TABLE
  2
VPORT
  5
6E
102
{ACAD_XDICTIONARY
360
1D86
102
}
330
0
100
AcDbSymbolTable
 70
     2
  0
VPORT
  5
2DE9
330
6E
100
AcDbSymbolTableRecord
100
AcDbViewportTableRecord
  2
*ACTIVE
 70
     0
 10
0.0
 20
0.0
 11
1.0
 21
1.0
 12
560.752583070529
 22
240.7195584106256
 13
0.0
 23
0.0
 14
10.0
 24
10.0
 15
10.0
 25
10.0
 16
0.0
 26
0.0
 36
1.0
 17
0.0
 27
0.0
 37
0.0
 40
597.642925383317
 41
1.753504672897196
 42
50.0
 43
0.0
 44
0.0
 50
0.0
 51
0.0
 71
     0
 72
   100
 73
     1
 74
     3
 75
     0
 76
     0
 77
     0
 78
     0
  0
ENDTAB
  0
TABLE
  2
LTYPE
  5
69
330
0
100
AcDbSymbolTable
 70
     5
  0
LTYPE
  5
6A
330
69
100
AcDbSymbolTableRecord
100
AcDbLinetypeTableRecord
  2
BYBLOCK
 70
     0
  3

 72
    65
 73
     0
 40
0.0
  0
LTYPE
  5
6B
330
69
100
AcDbSymbolTableRecord
100
AcDbLinetypeTableRecord
  2
BYLAYER
 70
     0
  3

 72
    65
 73
     0
 40
0.0
  0
LTYPE
  5
8
330
69
100
AcDbSymbolTableRecord
100
AcDbLinetypeTableRecord
  2
CONTINUOUS
 70
     0
  3
Solid line
 72
    65
 73
     0
 40
0.0
  0
LTYPE
  5
27C
330
69
100
AcDbSymbolTableRecord
100
AcDbLinetypeTableRecord
  2
SEKKEI_A2_
 70
     0
  3
center(A2)  ____ _ ____ _ ____ _ ____ _ ____ _ 
 72
    65
 73
     4
 40
14.28749999999999
 49
9.525
 74
     0
 49
-1.587499999999999
 74
     0
 49
1.587499999999999
 74
     0
 49
-1.587499999999999
 74
     0
  0
LTYPE
  5
7F0
330
69
100
AcDbSymbolTableRecord
100
AcDbLinetypeTableRecord
  2
HIDDEN3
 70
     0
  3
Hidden (.3x) _ _ _ _ _ _ _ _ _ _ _ _ _ _ _ _ _
 72
    65
 73
     2
 40
2.857499999999999
 49
1.905
 74
     0
 49
-0.9525
 74
     0
  0
LTYPE
  5
AE4
330
69
100
AcDbSymbolTableRecord
100
AcDbLinetypeTableRecord
  2
CENS
 70
     0
  3
(一点鎖線１)---- - ---- - ---- - ---- - ---- - 
 72
    65
 73
     4
 40
7.0
 49
4.0
 74
     0
 49
-1.0
 74
     0
 49
1.0
 74
     0
 49
-1.0
 74
     0
  0
ENDTAB
  0
TABLE
  2
LAYER
  5
66
102
{ACAD_XDICTIONARY
360
AE5
102
}
330
0
100
AcDbSymbolTable
 70
     9
  0
LAYER
  5
5E
102
{ACAD_XDICTIONARY
360
1D69
102
}
330
66
100
AcDbSymbolTableRecord
100
AcDbLayerTableRecord
  2
0
 70
     0
 62
     7
  6
CONTINUOUS
  0
LAYER
  5
3E
102
{ACAD_XDICTIONARY
360
1D6B
102
}
330
66
100
AcDbSymbolTableRecord
100
AcDbLayerTableRecord
  2
CENTER
 70
     0
 62
     3
  6
SEKKEI_A2_
  0
LAYER
  5
2B5
102
{ACAD_XDICTIONARY
360
1D71
102
}
330
66
100
AcDbSymbolTableRecord
100
AcDbLayerTableRecord
  2
HIDS
 70
     0
 62
     1
  6
HIDDEN3
  0
LAYER
  5
2BA
102
{ACAD_XDICTIONARY
360
1D73
102
}
330
66
100
AcDbSymbolTableRecord
100
AcDbLayerTableRecord
  2
HOJO
 70
     0
 62
     4
  6
CONTINUOUS
  0
LAYER
  5
3FA
102
{ACAD_XDICTIONARY
360
1D77
102
}
330
66
100
AcDbSymbolTableRecord
100
AcDbLayerTableRecord
  2
TITLE
 70
     0
 62
     4
  6
CONTINUOUS
  0
ENDTAB
  0
TABLE
  2
STYLE
  5
67
330
0
100
AcDbSymbolTable
 70
     2
  0
STYLE
  5
16
330
67
100
AcDbSymbolTableRecord
100
AcDbTextStyleTableRecord
  2
STANDARD
 70
     0
 40
0.0
 41
1.0
 50
0.0
 71
     0
 42
2.0
  3
simplex.shx
  4
extfont.shx
  0
ENDTAB
  0
TABLE
  2
VIEW
  5
6C
330
0
100
AcDbSymbolTable
 70
     0
  0
ENDTAB
  0
TABLE
  2
UCS
  5
6D
330
0
100
AcDbSymbolTable
 70
     0
  0
ENDTAB
  0
TABLE
  2
APPID
  5
70
330
0
100
AcDbSymbolTable
 70
     3
  0
APPID
  5
71
330
70
100
AcDbSymbolTableRecord
100
AcDbRegAppTableRecord
  2
ACAD
 70
     0
  0
APPID
  5
1D59
330
70
100
AcDbSymbolTableRecord
100
AcDbRegAppTableRecord
  2
ACAD_MLEADERVER
 70
     0
  0
APPID
  5
1D5E
330
70
100
AcDbSymbolTableRecord
100
AcDbRegAppTableRecord
  2
ACAD_EXEMPT_FROM_CAD_STANDARDS
 70
     0
  0
ENDTAB
  0
TABLE
  2
DIMSTYLE
  5
72
330
0
100
AcDbSymbolTable
 70
     1
  0
DIMSTYLE
105
73
330
72
100
AcDbSymbolTableRecord
100
AcDbDimStyleTableRecord
  2
STANDARD
 70
     0
  3

  4

  5

  6

  7

 40
3.0
 41
1.8
 42
0.625
 43
3.75
 44
0.8
 45
0.0
 46
0.0
 47
0.0
 48
0.0
140
1.8
141
2.5
142
0.0
143
0.0394
144
1.0
145
0.0
146
1.0
147
0.75
 71
     0
 72
     0
 73
     0
 74
     0
 75
     0
 76
     0
 77
     1
 78
     8
170
     0
171
     4
172
     1
173
     0
174
     0
175
     0
176
     0
177
     0
178
     0
270
     8
271
     2
272
     2
273
     8
274
     4
340
16
275
     0
280
     0
281
     0
282
     0
283
     1
284
     0
285
     0
286
     0
287
     3
288
     0
  0
ENDTAB
  0
TABLE
  2
BLOCK_RECORD
  5
1
330
0
100
AcDbSymbolTable
 70
    47
  0
BLOCK_RECORD
  5
2
102
{ACAD_XDICTIONARY
360
2E0B
102
}
330
1
100
AcDbSymbolTableRecord
100
AcDbBlockTableRecord
  2
*MODEL_SPACE
  0
BLOCK_RECORD
  5
2DE4
102
{ACAD_XDICTIONARY
360
2E0D
102
}
330
1
100
AcDbSymbolTableRecord
100
AcDbBlockTableRecord
  2
*PAPER_SPACE
  0
ENDTAB
  0
ENDSEC
  0
SECTION
  2
BLOCKS
  0
BLOCK
  5
5D
330
2
100
AcDbEntity
  8
0
100
AcDbBlockBegin
  2
*MODEL_SPACE
 70
     0
 10
0.0
 20
0.0
 30
0.0
  3
*MODEL_SPACE
  1

  0
ENDBLK
  5
5F
330
2
100
AcDbEntity
  8
0
100
AcDbBlockEnd
  0
BLOCK
  5
2DE6
330
2DE4
100
AcDbEntity
 67
     1
  8
0
100
AcDbBlockBegin
  2
*PAPER_SPACE
 70
     0
 10
0.0
 20
0.0
 30
0.0
  3
*PAPER_SPACE
  1

  0
ENDBLK
  5
2DE7
330
2DE4
100
AcDbEntity
 67
     1
  8
0
100
AcDbBlockEnd
  0
ENDSEC
  0
SECTION
  2
ENTITIES
  0
TEXT
  5
F30
330
2
100
AcDbEntity
  8
TITLE
100
AcDbText
 10
273.123620834088
 20
395.3768168678962
 30
0.0
 40
7.5
  1
AFCZ15L-3~5M400S3
100
AcDbText
  0
TEXT
  5
F31
330
2
100
AcDbEntity
  8
TITLE
100
AcDbText
 10
273.123620834088
 20
382.6268168678962
 30
0.0
 40
7.5
  1
AFCZ15L-3~5L400S3
100
AcDbText
  0
LINE
  5
F33
330
2
100
AcDbEntity
  8
CENTER
100
AcDbLine
 10
513.9227715541689
 20
110.7422955680946
 30
0.0
 11
692.9227715541675
 21
110.7422955680946
 31
0.0
  0
LINE
  5
F38
330
2
100
AcDbEntity
  8
0
100
AcDbLine
 10
639.9227715498024
 20
432.3552626908648
 30
0.0
 11
639.9227715498024
 21
360.3552626908648
 31
0.0
  0
LINE
  5
F3D
330
2
100
AcDbEntity
  8
CENTER
100
AcDbLine
 10
522.1060357777798
 20
396.3552626908648
 30
0.0
 11
692.9227715541716
 21
396.355262690865
 31
0.0
  0
LINE
  5
F4A
330
2
100
AcDbEntity
  8
0
100
AcDbLine
 10
639.9227715541671
 20
147.2422955680941
 30
0.0
 11
639.9227715541671
 21
74.24229556809439
 31
0.0
  0
LINE
  5
FCE
330
2
100
AcDbEntity
  8
CENTER
100
AcDbLine
 10
210.0982170539215
 20
110.7422955681011
 30
0.0
 11
39.09821705392516
 21
110.7422955681009
 31
0.0
  0
LINE
  5
FD0
330
2
100
AcDbEntity
  8
0
100
AcDbLine
 10
92.09821705392517
 20
74.24229556810115
 30
0.0
 11
92.09821705392517
 21
147.2422955681011
 31
0.0
  0
LINE
  5
1226
330
2
100
AcDbEntity
  8
0
100
AcDbLine
 10
92.09821705392517
 20
110.7422955681011
 30
0.0
 11
49.09821705392516
 21
110.7422955681011
 31
0.0
  0
LINE
  5
1228
330
2
100
AcDbEntity
  8
CENTER
100
AcDbLine
 10
947.4165748929804
 20
110.7422955680918
 30
0.0
 11
801.4165748926915
 21
110.7422955680918
 31
0.0
  0
LINE
  5
1229
330
2
100
AcDbEntity
  8
CENTER
100
AcDbLine
 10
899.4165748926928
 20
157.24229556809
 30
0.0
 11
899.4165748926922
 21
64.24229556809371
 31
0.0
  0
LINE
  5
122A
330
2
100
AcDbEntity
  8
0
100
AcDbLine
 10
861.4165748926891
 20
146.2230469345396
 30
0.0
 11
861.4165748926883
 21
75.26154420164414
 31
0.0
  0
LINE
  5
122B
330
2
100
AcDbEntity
  8
0
100
AcDbLine
 10
856.41657489269
 20
140.7422955680884
 30
0.0
 11
856.41657489269
 21
80.74229556808871
 31
0.0
  0
LINE
  5
122C
330
2
100
AcDbEntity
  8
0
100
AcDbLine
 10
861.41657489269
 20
140.7422955680884
 30
0.0
 11
856.41657489269
 21
140.7422955680884
 31
0.0
  0
LINE
  5
122D
330
2
100
AcDbEntity
  8
0
100
AcDbLine
 10
861.41657489269
 20
80.74229556808871
 30
0.0
 11
856.41657489269
 21
80.74229556808871
 31
0.0
  0
LINE
  5
122E
330
2
100
AcDbEntity
  8
0
100
AcDbLine
 10
843.4165748926863
 20
132.8109180184857
 30
0.0
 11
843.4165748926863
 21
88.67367311771351
 31
0.0
  0
LINE
  5
122F
330
2
100
AcDbEntity
  8
0
100
AcDbLine
 10
854.4863738860914
 20
135.1288614670685
 30
0.0
 11
845.3467758992813
 21
134.8096996725236
 31
0.0
  0
LINE
  5
1230
330
2
100
AcDbEntity
  8
0
100
AcDbLine
 10
854.4863738860914
 20
86.35572966913162
 30
0.0
 11
845.3467758992813
 21
86.67489146367563
 31
0.0
  0
ARC
  5
1231
330
2
100
AcDbEntity
  8
0
100
AcDbCircle
 10
845.4165748926865
 20
132.8109180184857
 30
0.0
 40
2.0
100
AcDbArc
 50
92.00000000000365
 51
180.0
  0
ARC
  5
1232
330
2
100
AcDbEntity
  8
0
100
AcDbCircle
 10
845.4165748926865
 20
88.67367311771351
 30
0.0
 40
2.0
100
AcDbArc
 50
180.0
 51
267.9999999999963
  0
ARC
  5
1233
330
2
100
AcDbEntity
  8
0
100
AcDbCircle
 10
854.4165748926864
 20
84.35694801509374
 30
0.0
 40
2.0
100
AcDbArc
 50
0.0
 51
87.99999999999636
  0
ARC
  5
1234
330
2
100
AcDbEntity
  8
0
100
AcDbCircle
 10
854.4165748926864
 20
137.1276431211064
 30
0.0
 40
2.0
100
AcDbArc
 50
272.0000000000036
 51
0.0
  0
LINE
  5
1235
330
2
100
AcDbEntity
  8
0
100
AcDbLine
 10
866.0408307200571
 20
75.22118893240952
 30
0.0
 11
861.4165748926883
 21
75.26154420164414
 31
0.0
  0
LINE
  5
1236
330
2
100
AcDbEntity
  8
0
100
AcDbLine
 10
866.1427030591514
 20
146.2642912302086
 30
0.0
 11
861.4165748926891
 21
146.2230469345396
 31
0.0
  0
ARC
  5
1237
330
2
100
AcDbEntity
  8
0
100
AcDbCircle
 10
930.4165748926937
 20
141.8112577827047
 30
0.0
 40
5.0
100
AcDbArc
 50
44.441200877818
 51
89.20427644728171
  0
LINE
  5
1238
330
2
100
AcDbEntity
  8
0
100
AcDbLine
 10
930.4860126401464
 20
146.8107755993775
 30
0.0
 11
899.4165748926937
 21
147.24229556809
 31
0.0
  0
LINE
  5
1239
330
2
100
AcDbEntity
  8
0
100
AcDbLine
 10
868.3471371452453
 20
146.8107755993766
 30
0.0
 11
899.4165748926919
 21
147.24229556809
 31
0.0
  0
ARC
  5
123A
330
2
100
AcDbEntity
  8
0
100
AcDbCircle
 10
868.4165748926991
 20
141.8112577827038
 30
0.0
 40
5.0
100
AcDbArc
 50
90.79572355271826
 51
135.558799118801
  0
ARC
  5
123B
330
2
100
AcDbEntity
  8
0
100
AcDbCircle
 10
930.4165748926937
 20
79.67333335347905
 30
0.0
 40
5.0
100
AcDbArc
 50
270.7957235527183
 51
315.5587991219746
  0
LINE
  5
123C
330
2
100
AcDbEntity
  8
0
100
AcDbLine
 10
930.4860126401464
 20
74.67381553680628
 30
0.0
 11
899.4165748926937
 21
74.24229556809371
 31
0.0
  0
LINE
  5
123D
330
2
100
AcDbEntity
  8
0
100
AcDbLine
 10
868.3471371452453
 20
74.67381553680718
 30
0.0
 11
899.4165748926919
 21
74.24229556809371
 31
0.0
  0
ARC
  5
123E
330
2
100
AcDbEntity
  8
0
100
AcDbCircle
 10
868.4165748926991
 20
79.67333335347996
 30
0.0
 40
5.0
100
AcDbArc
 50
224.4412008813877
 51
269.2042764472816
  0
LINE
  5
123F
330
2
100
AcDbEntity
  8
0
100
AcDbLine
 10
936.416574892981
 20
133.7422955680928
 30
0.0
 11
937.416574892982
 21
133.164945298903
 31
0.0
  0
LINE
  5
1240
330
2
100
AcDbEntity
  8
0
100
AcDbLine
 10
936.4165748929819
 20
133.7422955680928
 30
0.0
 11
935.5971304482498
 21
133.7422955680923
 31
0.0
  0
LINE
  5
1241
330
2
100
AcDbEntity
  8
0
100
AcDbLine
 10
937.416574892981
 20
88.31964583728007
 30
0.0
 11
937.4165748929801
 21
133.1649452989039
 31
0.0
  0
LINE
  5
1242
330
2
100
AcDbEntity
  8
0
100
AcDbLine
 10
936.416574892981
 20
87.74229556809098
 30
0.0
 11
937.416574892982
 21
88.31964583728051
 31
0.0
  0
LINE
  5
1243
330
2
100
AcDbEntity
  8
0
100
AcDbLine
 10
936.4165748929819
 20
87.74229556809098
 30
0.0
 11
935.5971304482489
 21
87.74229556809109
 31
0.0
  0
LINE
  5
1244
330
2
100
AcDbEntity
  8
0
100
AcDbLine
 10
936.416574892981
 20
133.7422955680928
 30
0.0
 11
936.4165748929819
 21
87.74229556809098
 31
0.0
  0
ARC
  5
124E
330
2
100
AcDbEntity
  8
0
100
AcDbCircle
 10
649.9227715498023
 20
430.3552626908648
 30
0.0
 40
2.0
100
AcDbArc
 50
40.04151653423615
 51
90.0
  0
ARC
  5
124F
330
2
100
AcDbEntity
  8
0
100
AcDbCircle
 10
649.9227715498023
 20
362.3552626908648
 30
0.0
 40
2.0
100
AcDbArc
 50
270.0
 51
319.9584834657638
  0
LINE
  5
1250
330
2
100
AcDbEntity
  8
0
100
AcDbLine
 10
658.9227715498024
 20
393.3552626908643
 30
0.0
 11
658.9227715498024
 21
378.8552626908643
 31
0.0
  0
LINE
  5
1251
330
2
100
AcDbEntity
  8
0
100
AcDbLine
 10
651.9227715498005
 20
423.2152626908649
 30
0.0
 11
651.9227715498024
 21
369.4952626908647
 31
0.0
  0
LINE
  5
1252
330
2
100
AcDbEntity
  8
CENTER
  6
CENS
100
AcDbLine
 10
668.9227715498024
 20
398.7552626908648
 30
0.0
 11
668.9227715498024
 21
372.9552626908648
 31
0.0
  0
LINE
  5
1253
330
2
100
AcDbEntity
  8
0
100
AcDbLine
 10
667.9227715498024
 20
423.3552626908648
 30
0.0
 11
667.9227715498024
 21
399.3552626908648
 31
0.0
  0
LINE
  5
1254
330
2
100
AcDbEntity
  8
0
100
AcDbLine
 10
657.4539285058295
 20
426.3552626908648
 30
0.0
 11
682.9227715498023
 21
426.3552626908648
 31
0.0
  0
ARC
  5
1255
330
2
100
AcDbEntity
  8
0
100
AcDbCircle
 10
670.9227715498023
 20
423.3552626908648
 30
0.0
 40
3.0
100
AcDbArc
 50
90.0
 51
180.0
  0
ARC
  5
1256
330
2
100
AcDbEntity
  8
0
100
AcDbCircle
 10
664.9227715498024
 20
399.3552626908648
 30
0.0
 40
3.0
100
AcDbArc
 50
270.0
 51
0.0
  0
ARC
  5
1257
330
2
100
AcDbEntity
  8
0
100
AcDbCircle
 10
661.9227715498023
 20
393.3552626908643
 30
0.0
 40
3.0
100
AcDbArc
 50
90.0
 51
180.0
  0
LINE
  5
1258
330
2
100
AcDbEntity
  8
0
100
AcDbLine
 10
661.9227715498023
 20
396.3552626908648
 30
0.0
 11
664.9227715498024
 21
396.3552626908648
 31
0.0
  0
LINE
  5
1259
330
2
100
AcDbEntity
  8
0
100
AcDbLine
 10
657.4539285058295
 20
366.3552626908648
 30
0.0
 11
682.9227715498023
 21
366.3552626908648
 31
0.0
  0
LINE
  5
125A
330
2
100
AcDbEntity
  8
CENTER
  6
CENS
100
AcDbLine
 10
656.0227715498024
 20
385.8552626908648
 30
0.0
 11
681.8227715498023
 21
385.8552626908648
 31
0.0
  0
ARC
  5
125B
330
2
100
AcDbEntity
  8
0
100
AcDbCircle
 10
661.9227715498023
 20
378.8552626908643
 30
0.0
 40
3.0
100
AcDbArc
 50
180.0
 51
270.0
  0
ARC
  5
125C
330
2
100
AcDbEntity
  8
0
100
AcDbCircle
 10
664.9227715498024
 20
372.8552626908648
 30
0.0
 40
3.0
100
AcDbArc
 50
0.0
 51
90.0
  0
LINE
  5
125D
330
2
100
AcDbEntity
  8
0
100
AcDbLine
 10
661.9227715498023
 20
375.8552626908648
 30
0.0
 11
664.9227715498024
 21
375.8552626908648
 31
0.0
  0
LINE
  5
125E
330
2
100
AcDbEntity
  8
0
100
AcDbLine
 10
667.9227715498024
 20
372.8552626908648
 30
0.0
 11
667.9227715498024
 21
369.3552626908648
 31
0.0
  0
ARC
  5
125F
330
2
100
AcDbEntity
  8
0
100
AcDbCircle
 10
670.9227715498023
 20
369.3552626908648
 30
0.0
 40
3.0
100
AcDbArc
 50
180.0
 51
270.0
  0
LINE
  5
1260
330
2
100
AcDbEntity
  8
0
100
AcDbLine
 10
639.9227715498024
 20
432.3552626908648
 30
0.0
 11
649.9227715498023
 21
432.3552626908648
 31
0.0
  0
LINE
  5
1261
330
2
100
AcDbEntity
  8
0
100
AcDbLine
 10
639.9227715498024
 20
360.3552626908648
 30
0.0
 11
649.9227715498023
 21
360.3552626908648
 31
0.0
  0
LINE
  5
1262
330
2
100
AcDbEntity
  8
0
100
AcDbLine
 10
682.9227715498023
 20
426.3552626908648
 30
0.0
 11
682.9227715498023
 21
366.3552626908648
 31
0.0
  0
LINE
  5
1263
330
2
100
AcDbEntity
  8
0
100
AcDbLine
 10
657.1539285058303
 20
369.4952626908647
 30
0.0
 11
652.4539285058295
 21
369.4952626908647
 31
0.0
  0
LINE
  5
1264
330
2
100
AcDbEntity
  8
0
100
AcDbLine
 10
652.4539285058295
 20
360.9952626908647
 30
0.0
 11
657.1539285058303
 21
360.9952626908647
 31
0.0
  0
LINE
  5
1265
330
2
100
AcDbEntity
  8
CENTER
  6
CENS
100
AcDbLine
 10
634.9227715498024
 20
365.2452626908647
 30
0.0
 11
662.3797444798843
 21
365.2452626908647
 31
0.0
  0
LINE
  5
1266
330
2
100
AcDbEntity
  8
0
100
AcDbLine
 10
657.4539285058295
 20
361.5148779331351
 30
0.0
 11
657.4539285058295
 21
368.9756474485942
 31
0.0
  0
LINE
  5
1267
330
2
100
AcDbEntity
  8
0
100
AcDbLine
 10
657.1539285058303
 20
369.4952626908647
 30
0.0
 11
657.1539285058303
 21
360.9952626908647
 31
0.0
  0
LINE
  5
1268
330
2
100
AcDbEntity
  8
0
100
AcDbLine
 10
657.1539285058303
 20
369.4952626908647
 30
0.0
 11
657.4539285058295
 21
368.9756474485942
 31
0.0
  0
LINE
  5
1269
330
2
100
AcDbEntity
  8
0
100
AcDbLine
 10
657.4539285058295
 20
361.5148779331351
 30
0.0
 11
657.1539285058303
 21
360.9952626908647
 31
0.0
  0
LINE
  5
126A
330
2
100
AcDbEntity
  8
0
100
AcDbLine
 10
652.4539285058295
 20
360.9952626908647
 30
0.0
 11
651.4539285058296
 21
360.9952626908647
 31
0.0
  0
LINE
  5
126B
330
2
100
AcDbEntity
  8
0
100
AcDbLine
 10
651.4539285058296
 20
360.9952626908647
 30
0.0
 11
651.4539285058296
 21
369.4952626908647
 31
0.0
  0
LINE
  5
126C
330
2
100
AcDbEntity
  8
0
100
AcDbLine
 10
651.4539285058296
 20
369.4952626908647
 30
0.0
 11
652.4539285058295
 21
369.4952626908647
 31
0.0
  0
LINE
  5
126D
330
2
100
AcDbEntity
  8
0
100
AcDbLine
 10
652.4539285058295
 20
369.4952626908647
 30
0.0
 11
652.4539285058295
 21
360.9952626908647
 31
0.0
  0
LINE
  5
126E
330
2
100
AcDbEntity
  8
0
100
AcDbLine
 10
652.4539285058295
 20
369.4952626908647
 30
0.0
 11
652.4539285058295
 21
360.9952626908647
 31
0.0
  0
LINE
  5
126F
330
2
100
AcDbEntity
  8
0
100
AcDbLine
 10
657.1539285058303
 20
423.2152626908649
 30
0.0
 11
652.4539285058295
 21
423.2152626908649
 31
0.0
  0
LINE
  5
1270
330
2
100
AcDbEntity
  8
0
100
AcDbLine
 10
652.4539285058295
 20
431.7152626908649
 30
0.0
 11
657.1539285058303
 21
431.7152626908649
 31
0.0
  0
LINE
  5
1271
330
2
100
AcDbEntity
  8
CENTER
  6
CENS
100
AcDbLine
 10
634.9227715498024
 20
427.4652626908649
 30
0.0
 11
662.3797444798843
 21
427.4652626908649
 31
0.0
  0
LINE
  5
1272
330
2
100
AcDbEntity
  8
0
100
AcDbLine
 10
657.4539285058295
 20
431.1956474485945
 30
0.0
 11
657.4539285058295
 21
423.7348779331354
 31
0.0
  0
LINE
  5
1273
330
2
100
AcDbEntity
  8
0
100
AcDbLine
 10
657.1539285058303
 20
423.2152626908649
 30
0.0
 11
657.1539285058303
 21
431.7152626908649
 31
0.0
  0
LINE
  5
1274
330
2
100
AcDbEntity
  8
0
100
AcDbLine
 10
657.1539285058303
 20
423.2152626908649
 30
0.0
 11
657.4539285058295
 21
423.7348779331354
 31
0.0
  0
LINE
  5
1275
330
2
100
AcDbEntity
  8
0
100
AcDbLine
 10
657.4539285058295
 20
431.1956474485945
 30
0.0
 11
657.1539285058303
 21
431.7152626908649
 31
0.0
  0
LINE
  5
1276
330
2
100
AcDbEntity
  8
0
100
AcDbLine
 10
652.4539285058295
 20
431.7152626908649
 30
0.0
 11
651.4539285058296
 21
431.7152626908649
 31
0.0
  0
LINE
  5
1277
330
2
100
AcDbEntity
  8
0
100
AcDbLine
 10
651.4539285058296
 20
431.7152626908649
 30
0.0
 11
651.4539285058296
 21
423.2152626908649
 31
0.0
  0
LINE
  5
1278
330
2
100
AcDbEntity
  8
0
100
AcDbLine
 10
651.4539285058296
 20
423.2152626908649
 30
0.0
 11
652.4539285058295
 21
423.2152626908649
 31
0.0
  0
LINE
  5
1279
330
2
100
AcDbEntity
  8
0
100
AcDbLine
 10
652.4539285058295
 20
423.2152626908649
 30
0.0
 11
652.4539285058295
 21
431.7152626908649
 31
0.0
  0
LINE
  5
127A
330
2
100
AcDbEntity
  8
0
100
AcDbLine
 10
652.4539285058295
 20
423.2152626908649
 30
0.0
 11
652.4539285058295
 21
431.7152626908649
 31
0.0
  0
CIRCLE
  5
127B
330
2
100
AcDbEntity
  8
0
100
AcDbCircle
 10
668.9227715498024
 20
385.8552626908648
 30
0.0
 40
9.000006171187123
  0
LINE
  5
127C
330
2
100
AcDbEntity
  8
0
100
AcDbLine
 10
74.86706009789725
 20
137.6022955681011
 30
0.0
 11
79.56706009789797
 21
137.6022955681011
 31
0.0
  0
LINE
  5
127D
330
2
100
AcDbEntity
  8
0
100
AcDbLine
 10
79.56706009789797
 20
146.1022955681011
 30
0.0
 11
74.86706009789725
 21
146.1022955681011
 31
0.0
  0
LINE
  5
127E
330
2
100
AcDbEntity
  8
CENTER
  6
CENS
100
AcDbLine
 10
97.09821705392517
 20
141.8522955681011
 30
0.0
 11
69.64124412384319
 21
141.8522955681011
 31
0.0
  0
LINE
  5
127F
330
2
100
AcDbEntity
  8
0
100
AcDbLine
 10
74.56706009789797
 20
145.5826803258307
 30
0.0
 11
74.56706009789797
 21
138.1219108103716
 31
0.0
  0
LINE
  5
1280
330
2
100
AcDbEntity
  8
0
100
AcDbLine
 10
74.86706009789725
 20
137.6022955681011
 30
0.0
 11
74.86706009789725
 21
146.1022955681011
 31
0.0
  0
LINE
  5
1281
330
2
100
AcDbEntity
  8
0
100
AcDbLine
 10
74.86706009789725
 20
137.6022955681011
 30
0.0
 11
74.56706009789797
 21
138.1219108103716
 31
0.0
  0
LINE
  5
1282
330
2
100
AcDbEntity
  8
0
100
AcDbLine
 10
74.56706009789797
 20
145.5826803258307
 30
0.0
 11
74.86706009789725
 21
146.1022955681011
 31
0.0
  0
LINE
  5
1283
330
2
100
AcDbEntity
  8
0
100
AcDbLine
 10
79.56706009789797
 20
146.1022955681011
 30
0.0
 11
80.56706009789797
 21
146.1022955681011
 31
0.0
  0
LINE
  5
1284
330
2
100
AcDbEntity
  8
0
100
AcDbLine
 10
80.56706009789797
 20
146.1022955681011
 30
0.0
 11
80.56706009789797
 21
137.6022955681011
 31
0.0
  0
LINE
  5
1285
330
2
100
AcDbEntity
  8
0
100
AcDbLine
 10
80.56706009789797
 20
137.6022955681011
 30
0.0
 11
79.56706009789797
 21
137.6022955681011
 31
0.0
  0
LINE
  5
1286
330
2
100
AcDbEntity
  8
0
100
AcDbLine
 10
79.56706009789797
 20
137.6022955681011
 30
0.0
 11
79.56706009789797
 21
146.1022955681011
 31
0.0
  0
LINE
  5
1287
330
2
100
AcDbEntity
  8
0
100
AcDbLine
 10
79.56706009789797
 20
137.6022955681011
 30
0.0
 11
79.56706009789797
 21
146.1022955681011
 31
0.0
  0
ARC
  5
1288
330
2
100
AcDbEntity
  8
0
100
AcDbCircle
 10
75.7637906872975
 20
75.74229556810059
 30
0.0
 40
5.0
100
AcDbArc
 50
8.213210701740452
 51
16.12586214360769
  0
LINE
  5
1289
330
2
100
AcDbEntity
  8
0
100
AcDbLine
 10
80.69229852726005
 20
76.70739075522641
 30
0.0
 11
80.09821705392516
 21
110.742295568101
 31
0.0
  0
LINE
  5
128A
330
2
100
AcDbEntity
  8
0
100
AcDbLine
 10
92.09821705392517
 20
74.74229556810104
 30
0.0
 11
82.69199391757377
 21
74.74229556810104
 31
0.0
  0
ARC
  5
128B
330
2
100
AcDbEntity
  8
0
100
AcDbCircle
 10
82.69199391757377
 20
76.74229556810104
 30
0.0
 40
2.0
100
AcDbArc
 50
181.0000000000017
 51
270.0
  0
LINE
  5
128C
330
2
100
AcDbEntity
  8
CENTER
  6
CENS
100
AcDbLine
 10
63.09821705392517
 20
121.1422955681011
 30
0.0
 11
63.09821705392517
 21
148.487125132113
 31
0.0
  0
LINE
  5
128D
330
2
100
AcDbEntity
  8
0
100
AcDbLine
 10
80.69229852726005
 20
144.7772003809752
 30
0.0
 11
80.09821705392608
 21
110.742295568101
 31
0.0
  0
LINE
  5
128E
330
2
100
AcDbEntity
  8
0
100
AcDbLine
 10
63.62700208011904
 20
137.7381833373235
 30
0.0
 11
64.09821705392426
 21
110.742295568101
 31
0.0
  0
LINE
  5
128F
330
2
100
AcDbEntity
  8
0
100
AcDbLine
 10
74.56706009789797
 20
80.74229556810104
 30
0.0
 11
49.09821705392516
 21
80.74229556810104
 31
0.0
  0
LINE
  5
1290
330
2
100
AcDbEntity
  8
0
100
AcDbLine
 10
63.62700208011904
 20
83.74640779887858
 30
0.0
 11
64.09821705392516
 21
110.742295568101
 31
0.0
  0
ARC
  5
1291
330
2
100
AcDbEntity
  8
0
100
AcDbCircle
 10
60.62647331673236
 20
83.74229556810105
 30
0.0
 40
3.0
100
AcDbArc
 50
270.0
 51
358.9999999999982
  0
ARC
  5
1292
330
2
100
AcDbEntity
  8
0
100
AcDbCircle
 10
76.19000210331671
 20
85.97447692255782
 30
0.0
 40
3.0
100
AcDbArc
 50
90.0
 51
178.9999999999721
  0
LINE
  5
1293
330
2
100
AcDbEntity
  8
0
100
AcDbLine
 10
66.71871535025331
 20
88.97447692255781
 30
0.0
 11
76.19000210331671
 21
88.97447692255736
 31
0.0
  0
LINE
  5
1294
330
2
100
AcDbEntity
  8
0
100
AcDbLine
 10
73.19045901784614
 20
86.02683414186975
 30
0.0
 11
73.13251791800815
 21
82.70739075522641
 31
0.0
  0
ARC
  5
1295
330
2
100
AcDbEntity
  8
0
100
AcDbCircle
 10
71.13282252769443
 20
82.74229556810103
 30
0.0
 40
2.0
100
AcDbArc
 50
270.0
 51
358.9999999999721
  0
LINE
  5
1296
330
2
100
AcDbEntity
  8
0
100
AcDbLine
 10
74.56706009789797
 20
140.7422955681014
 30
0.0
 11
49.09821705392516
 21
140.742295568101
 31
0.0
  0
ARC
  5
1297
330
2
100
AcDbEntity
  8
0
100
AcDbCircle
 10
60.62647331673236
 20
137.742295568101
 30
0.0
 40
3.0
100
AcDbArc
 50
1.000000000001775
 51
90.0
  0
ARC
  5
1298
330
2
100
AcDbEntity
  8
0
100
AcDbCircle
 10
82.69199391757377
 20
144.742295568101
 30
0.0
 40
2.0
100
AcDbArc
 50
90.0
 51
178.9999999999982
  0
LINE
  5
1299
330
2
100
AcDbEntity
  8
0
100
AcDbLine
 10
92.09821705392517
 20
146.742295568101
 30
0.0
 11
82.69199391757377
 21
146.742295568101
 31
0.0
  0
ARC
  5
129A
330
2
100
AcDbEntity
  8
0
100
AcDbCircle
 10
75.7637906872975
 20
145.7422955681014
 30
0.0
 40
5.0
100
AcDbArc
 50
343.8741378563923
 51
351.7867892982595
  0
LINE
  5
129B
330
2
100
AcDbEntity
  8
0
100
AcDbLine
 10
49.09821705392516
 20
80.74229556810104
 30
0.0
 11
49.09821705392516
 21
140.742295568101
 31
0.0
  0
LINE
  5
129C
330
2
100
AcDbEntity
  8
0
100
AcDbLine
 10
74.86706009789725
 20
83.88229556810092
 30
0.0
 11
79.56706009789797
 21
83.88229556810092
 31
0.0
  0
LINE
  5
129D
330
2
100
AcDbEntity
  8
0
100
AcDbLine
 10
79.56706009789797
 20
75.38229556810091
 30
0.0
 11
74.86706009789725
 21
75.38229556810091
 31
0.0
  0
LINE
  5
129E
330
2
100
AcDbEntity
  8
CENTER
  6
CENS
100
AcDbLine
 10
97.09821705392517
 20
79.63229556810091
 30
0.0
 11
69.64124412384319
 21
79.63229556810091
 31
0.0
  0
LINE
  5
129F
330
2
100
AcDbEntity
  8
0
100
AcDbLine
 10
74.56706009789797
 20
75.90191081037136
 30
0.0
 11
74.56706009789797
 21
83.36268032583047
 31
0.0
  0
LINE
  5
12A0
330
2
100
AcDbEntity
  8
0
100
AcDbLine
 10
74.86706009789725
 20
83.88229556810092
 30
0.0
 11
74.86706009789725
 21
75.38229556810091
 31
0.0
  0
LINE
  5
12A1
330
2
100
AcDbEntity
  8
0
100
AcDbLine
 10
74.86706009789725
 20
83.88229556810092
 30
0.0
 11
74.56706009789797
 21
83.36268032583047
 31
0.0
  0
LINE
  5
12A2
330
2
100
AcDbEntity
  8
0
100
AcDbLine
 10
74.56706009789797
 20
75.90191081037136
 30
0.0
 11
74.86706009789725
 21
75.38229556810091
 31
0.0
  0
LINE
  5
12A3
330
2
100
AcDbEntity
  8
0
100
AcDbLine
 10
79.56706009789797
 20
75.38229556810091
 30
0.0
 11
80.56706009789797
 21
75.38229556810091
 31
0.0
  0
LINE
  5
12A4
330
2
100
AcDbEntity
  8
0
100
AcDbLine
 10
80.56706009789797
 20
75.38229556810091
 30
0.0
 11
80.56706009789797
 21
83.88229556810092
 31
0.0
  0
LINE
  5
12A5
330
2
100
AcDbEntity
  8
0
100
AcDbLine
 10
80.56706009789797
 20
83.88229556810092
 30
0.0
 11
79.56706009789797
 21
83.88229556810092
 31
0.0
  0
LINE
  5
12A6
330
2
100
AcDbEntity
  8
0
100
AcDbLine
 10
79.56706009789797
 20
83.88229556810092
 30
0.0
 11
79.56706009789797
 21
75.38229556810091
 31
0.0
  0
LINE
  5
12A7
330
2
100
AcDbEntity
  8
0
100
AcDbLine
 10
79.56706009789797
 20
83.88229556810092
 30
0.0
 11
79.56706009789797
 21
75.38229556810091
 31
0.0
  0
LINE
  5
12A8
330
2
100
AcDbEntity
  8
0
100
AcDbLine
 10
58.09821088273804
 20
144.742295568101
 30
0.0
 11
68.09821088273804
 21
144.742295568101
 31
0.0
  0
ARC
  5
12A9
330
2
100
AcDbEntity
  8
0
100
AcDbCircle
 10
68.09821088273804
 20
140.742295568101
 30
0.0
 40
4.0
100
AcDbArc
 50
0.0
 51
90.0
  0
ARC
  5
12AA
330
2
100
AcDbEntity
  8
0
100
AcDbCircle
 10
58.09821088273804
 20
140.742295568101
 30
0.0
 40
4.0
100
AcDbArc
 50
90.0
 51
180.0
  0
LINE
  5
12AB
330
2
100
AcDbEntity
  8
0
100
AcDbLine
 10
868.3476126780799
 20
74.74229556809189
 30
0.0
 11
930.4855371073056
 21
74.74229556809189
 31
0.0
  0
LINE
  5
12AC
330
2
100
AcDbEntity
  8
0
100
AcDbLine
 10
868.3476126780799
 20
146.7422955680918
 30
0.0
 11
930.4855371073056
 21
146.7422955680918
 31
0.0
  0
CIRCLE
  5
12AD
330
2
100
AcDbEntity
  8
HIDS
100
AcDbCircle
 10
899.4165748926928
 20
110.7422955680918
 30
0.0
 40
30.0
  0
ARC
  5
12AE
330
2
100
AcDbEntity
  8
0
100
AcDbCircle
 10
874.4893183040343
 20
85.74229556809234
 30
0.0
 40
5.0
100
AcDbArc
 50
180.1666666666621
 51
270.0
  0
LINE
  5
12AF
330
2
100
AcDbEntity
  8
CENTER
100
AcDbLine
 10
879.6665748926928
 20
135.4922955680919
 30
0.0
 11
869.6665748926928
 21
135.4922955680919
 31
0.0
  0
LINE
  5
12B0
330
2
100
AcDbEntity
  8
CENTER
100
AcDbLine
 10
879.6665748926928
 20
85.9922955680919
 30
0.0
 11
869.6665748926928
 21
85.9922955680919
 31
0.0
  0
ARC
  5
12B1
330
2
100
AcDbEntity
  8
0
100
AcDbCircle
 10
874.4893183040343
 20
135.7422955680914
 30
0.0
 40
5.0
100
AcDbArc
 50
90.0
 51
179.8333333333378
  0
LINE
  5
12B2
330
2
100
AcDbEntity
  8
0
100
AcDbLine
 10
863.348094861408
 20
79.67285782063766
 30
0.0
 11
862.9165748926945
 21
110.7422955680932
 31
0.0
  0
LINE
  5
12B3
330
2
100
AcDbEntity
  8
0
100
AcDbLine
 10
869.4893394580061
 20
85.72775117817093
 30
0.0
 11
869.4165748926927
 21
110.7422955680918
 31
0.0
  0
ARC
  5
12B4
330
2
100
AcDbEntity
  8
0
100
AcDbCircle
 10
868.3476126780799
 20
79.74229556809143
 30
0.0
 40
5.0
100
AcDbArc
 50
180.7957235527443
 51
270.0
  0
LINE
  5
12B5
330
2
100
AcDbEntity
  8
0
100
AcDbLine
 10
863.348094861408
 20
141.8117333155456
 30
0.0
 11
862.9165748926936
 21
110.7422955680928
 31
0.0
  0
LINE
  5
12B6
330
2
100
AcDbEntity
  8
0
100
AcDbLine
 10
869.4893394580061
 20
135.7568399580128
 30
0.0
 11
869.4165748926927
 21
110.7422955680918
 31
0.0
  0
LINE
  5
12B7
330
2
100
AcDbEntity
  8
0
100
AcDbLine
 10
869.4165748926927
 20
110.7422955680918
 30
0.0
 11
862.9165748926928
 21
110.7422955680914
 31
0.0
  0
ARC
  5
12B8
330
2
100
AcDbEntity
  8
0
100
AcDbCircle
 10
868.3476126780799
 20
141.7422955680919
 30
0.0
 40
5.0
100
AcDbArc
 50
90.0
 51
179.2042764472556
  0
LINE
  5
12B9
330
2
100
AcDbEntity
  8
0
100
AcDbLine
 10
935.4850549239793
 20
79.67285782063766
 30
0.0
 11
935.9165748926931
 21
110.7422955680932
 31
0.0
  0
LINE
  5
12BA
330
2
100
AcDbEntity
  8
0
100
AcDbLine
 10
929.3438103273794
 20
85.72775117817093
 30
0.0
 11
929.4165748926927
 21
110.7422955680918
 31
0.0
  0
LINE
  5
12BB
330
2
100
AcDbEntity
  8
0
100
AcDbLine
 10
924.3438314813513
 20
80.74229556809189
 30
0.0
 11
874.4893183040343
 21
80.74229556809189
 31
0.0
  0
LINE
  5
12BC
330
2
100
AcDbEntity
  8
CENTER
100
AcDbLine
 10
874.6665748926927
 20
90.9922955680919
 30
0.0
 11
874.6665748926927
 21
80.9922955680919
 31
0.0
  0
LINE
  5
12BD
330
2
100
AcDbEntity
  8
HIDS
100
AcDbLine
 10
919.9508757567739
 20
82.70739075521726
 30
0.0
 11
920.0389135064899
 21
87.75107005845541
 31
0.0
  0
ARC
  5
12BE
330
2
100
AcDbEntity
  8
0
100
AcDbCircle
 10
924.3438314813513
 20
85.74229556809234
 30
0.0
 40
5.0
100
AcDbArc
 50
270.0
 51
359.8333333333378
  0
LINE
  5
12BF
330
2
100
AcDbEntity
  8
CENTER
100
AcDbLine
 10
924.1665748926928
 20
90.9922955680919
 30
0.0
 11
924.1665748926928
 21
80.9922955680919
 31
0.0
  0
ARC
  5
12C0
330
2
100
AcDbEntity
  8
0
100
AcDbCircle
 10
930.4855371073056
 20
79.74229556809143
 30
0.0
 40
4.999999999999999
100
AcDbArc
 50
270.0
 51
359.2042764472556
  0
ARC
  5
12C1
330
2
100
AcDbEntity
  8
HIDS
100
AcDbCircle
 10
917.951180366462
 20
82.74229556809189
 30
0.0
 40
2.0
100
AcDbArc
 50
270.0
 51
358.9999999999982
  0
LINE
  5
12C2
330
2
100
AcDbEntity
  8
CENTER
100
AcDbLine
 10
929.1665748926927
 20
85.9922955680919
 30
0.0
 11
919.1665748926928
 21
85.9922955680919
 31
0.0
  0
ARC
  5
12C3
330
2
100
AcDbEntity
  8
HIDS
100
AcDbCircle
 10
923.0384565919587
 20
87.69871283914302
 30
0.0
 40
3.0
100
AcDbArc
 50
135.7099981688253
 51
178.9999999999982
  0
LINE
  5
12C4
330
2
100
AcDbEntity
  8
0
100
AcDbLine
 10
924.3438314813513
 20
140.7422955680918
 30
0.0
 11
874.4893183040343
 21
140.7422955680914
 31
0.0
  0
LINE
  5
12C5
330
2
100
AcDbEntity
  8
HIDS
100
AcDbLine
 10
883.1665748926928
 20
140.7422955680914
 30
0.0
 11
883.4141430113689
 21
126.5591275480966
 31
0.0
  0
LINE
  5
12C6
330
2
100
AcDbEntity
  8
CENTER
100
AcDbLine
 10
874.6665748926927
 20
140.4922955680918
 30
0.0
 11
874.6665748926927
 21
130.4922955680918
 31
0.0
  0
ARC
  5
12C7
330
2
100
AcDbEntity
  8
HIDS
100
AcDbCircle
 10
875.7946931934268
 20
133.7858782970407
 30
0.0
 40
3.0
100
AcDbArc
 50
315.7099981688253
 51
358.9999999999982
  0
ARC
  5
12C8
330
2
100
AcDbEntity
  8
HIDS
100
AcDbCircle
 10
880.8819694189235
 20
138.7422955680914
 30
0.0
 40
2.0
100
AcDbArc
 50
90.0
 51
178.9999999999982
  0
LINE
  5
12C9
330
2
100
AcDbEntity
  8
HIDS
100
AcDbLine
 10
878.8822740286116
 20
138.777200380966
 30
0.0
 11
878.7942362788975
 21
133.7335210777283
 31
0.0
  0
LINE
  5
12CA
330
2
100
AcDbEntity
  8
HIDS
100
AcDbLine
 10
894.6665748926928
 20
140.7422955680918
 30
0.0
 11
894.5262732688467
 21
132.7044209212514
 31
0.0
  0
LINE
  5
12CB
330
2
100
AcDbEntity
  8
0
100
AcDbLine
 10
935.4850549239793
 20
141.8117333155456
 30
0.0
 11
935.9165748926937
 21
110.7422955680928
 31
0.0
  0
LINE
  5
12CC
330
2
100
AcDbEntity
  8
0
100
AcDbLine
 10
929.3438103273794
 20
135.7568399580128
 30
0.0
 11
929.4165748926927
 21
110.7422955680918
 31
0.0
  0
LINE
  5
12CD
330
2
100
AcDbEntity
  8
CENTER
100
AcDbLine
 10
924.1665748926928
 20
140.4922955680918
 30
0.0
 11
924.1665748926928
 21
130.4922955680918
 31
0.0
  0
LINE
  5
12CE
330
2
100
AcDbEntity
  8
0
100
AcDbLine
 10
929.4165748926927
 20
110.7422955680918
 30
0.0
 11
935.9165748926928
 21
110.7422955680918
 31
0.0
  0
ARC
  5
12CF
330
2
100
AcDbEntity
  8
0
100
AcDbCircle
 10
930.4855371073056
 20
141.7422955680919
 30
0.0
 40
4.999999999999999
100
AcDbArc
 50
0.7957235527443399
 51
90.0
  0
ARC
  5
12D0
330
2
100
AcDbEntity
  8
0
100
AcDbCircle
 10
924.3438314813513
 20
135.7422955680914
 30
0.0
 40
5.0
100
AcDbArc
 50
0.1666666666621044
 51
90.0
  0
LINE
  5
12D1
330
2
100
AcDbEntity
  8
CENTER
100
AcDbLine
 10
929.1665748926927
 20
135.4922955680919
 30
0.0
 11
919.1665748926928
 21
135.4922955680919
 31
0.0
  0
CIRCLE
  5
12D2
330
2
100
AcDbEntity
  8
0
100
AcDbCircle
 10
899.4165748926928
 20
110.7422955680918
 30
0.0
 40
25.00000000022851
  0
CIRCLE
  5
12D3
330
2
100
AcDbEntity
  8
0
100
AcDbCircle
 10
868.306574892694
 20
79.63229556809176
 30
0.0
 40
2.75
  0
CIRCLE
  5
12D4
330
2
100
AcDbEntity
  8
0
100
AcDbCircle
 10
930.5265748926933
 20
141.852295568092
 30
0.0
 40
2.75
  0
CIRCLE
  5
12D5
330
2
100
AcDbEntity
  8
0
100
AcDbCircle
 10
930.5265748926933
 20
79.63229556809221
 30
0.0
 40
2.75
  0
ARC
  5
12D6
330
2
100
AcDbEntity
  8
0
100
AcDbCircle
 10
868.3065748926921
 20
141.852295568092
 30
0.0
 40
4.25000000000019
100
AcDbArc
 50
337.099135555545
 51
293.5789623545196
  0
ARC
  5
12D7
330
2
100
AcDbEntity
  8
0
100
AcDbCircle
 10
868.3065748926921
 20
141.852295568092
 30
0.0
 40
3.730384757729381
100
AcDbArc
 50
321.5287333511405
 51
309.1493645588724
  0
LWPOLYLINE
  5
12D8
330
2
100
AcDbEntity
  8
0
100
AcDbPolyline
 90
        6
 70
     1
 43
0.0
 10
870.3065748926922
 20
143.006996106471
 10
868.3065748926921
 20
144.1616966448506
 10
866.3065748926921
 20
143.006996106471
 10
866.3065748926921
 20
140.6975950297129
 10
868.3065748926921
 20
139.5428944913334
 10
870.3065748926922
 20
140.6975950297129
  0
CIRCLE
  5
12D9
330
2
100
AcDbEntity
  8
0
100
AcDbCircle
 10
868.3065748926921
 20
141.852295568092
 30
0.0
 40
2.3094010767585
  0
LINE
  5
12DA
330
2
100
AcDbEntity
  8
CENTER
100
AcDbLine
 10
868.3065748926921
 20
147.810725815386
 30
0.0
 11
868.3065748926921
 21
135.893865320798
 31
0.0
  0
LINE
  5
12DB
330
2
100
AcDbEntity
  8
CENTER
100
AcDbLine
 10
862.3481446453981
 20
141.852295568092
 30
0.0
 11
874.2650051399861
 21
141.852295568092
 31
0.0
  0
ARC
  5
12DC
330
2
100
AcDbEntity
  8
0
100
AcDbCircle
 10
930.5265748926933
 20
141.852295568092
 30
0.0
 40
4.25000000000019
100
AcDbArc
 50
246.4210376454803
 51
202.9008644444549
  0
ARC
  5
12DD
330
2
100
AcDbEntity
  8
0
100
AcDbCircle
 10
930.5265748926933
 20
141.852295568092
 30
0.0
 40
3.730384757729381
100
AcDbArc
 50
230.8506354409931
 51
218.4712666488624
  0
LWPOLYLINE
  5
12DE
330
2
100
AcDbEntity
  8
0
100
AcDbPolyline
 90
        6
 70
     1
 43
0.0
 10
932.5265748926934
 20
143.006996106471
 10
930.5265748926933
 20
144.1616966448506
 10
928.5265748926933
 20
143.006996106471
 10
928.5265748926933
 20
140.6975950297129
 10
930.5265748926933
 20
139.5428944913334
 10
932.5265748926934
 20
140.6975950297129
  0
CIRCLE
  5
12DF
330
2
100
AcDbEntity
  8
0
100
AcDbCircle
 10
930.5265748926933
 20
141.852295568092
 30
0.0
 40
2.3094010767585
  0
LINE
  5
12E0
330
2
100
AcDbEntity
  8
CENTER
100
AcDbLine
 10
930.5265748926933
 20
147.810725815386
 30
0.0
 11
930.5265748926933
 21
135.893865320798
 31
0.0
  0
LINE
  5
12E1
330
2
100
AcDbEntity
  8
CENTER
100
AcDbLine
 10
924.5681446453993
 20
141.852295568092
 30
0.0
 11
936.4850051399873
 21
141.852295568092
 31
0.0
  0
ARC
  5
12E2
330
2
100
AcDbEntity
  8
0
100
AcDbCircle
 10
930.5265748926933
 20
79.63229556809221
 30
0.0
 40
4.25000000000019
100
AcDbArc
 50
157.099135555545
 51
113.5789623545196
  0
ARC
  5
12E3
330
2
100
AcDbEntity
  8
0
100
AcDbCircle
 10
930.5265748926933
 20
79.63229556809221
 30
0.0
 40
3.730384757729381
100
AcDbArc
 50
141.5287333511375
 51
129.1493645588725
  0
LWPOLYLINE
  5
12E4
330
2
100
AcDbEntity
  8
0
100
AcDbPolyline
 90
        6
 70
     1
 43
0.0
 10
932.5265748926934
 20
80.78699610647129
 10
930.5265748926933
 20
81.94169664485082
 10
928.5265748926933
 20
80.78699610647129
 10
928.5265748926933
 20
78.47759502971314
 10
930.5265748926933
 20
77.32289449133361
 10
932.5265748926934
 20
78.47759502971314
  0
CIRCLE
  5
12E5
330
2
100
AcDbEntity
  8
0
100
AcDbCircle
 10
930.5265748926933
 20
79.63229556809221
 30
0.0
 40
2.3094010767585
  0
LINE
  5
12E6
330
2
100
AcDbEntity
  8
CENTER
100
AcDbLine
 10
930.5265748926933
 20
85.59072581538623
 30
0.0
 11
930.5265748926933
 21
73.67386532079819
 31
0.0
  0
LINE
  5
12E7
330
2
100
AcDbEntity
  8
CENTER
100
AcDbLine
 10
924.5681446453993
 20
79.63229556809221
 30
0.0
 11
936.4850051399873
 21
79.63229556809221
 31
0.0
  0
ARC
  5
12E8
330
2
100
AcDbEntity
  8
0
100
AcDbCircle
 10
868.306574892694
 20
79.63229556809176
 30
0.0
 40
4.25000000000019
100
AcDbArc
 50
66.42103764559262
 51
22.90086444441415
  0
ARC
  5
12E9
330
2
100
AcDbEntity
  8
0
100
AcDbCircle
 10
868.306574892694
 20
79.63229556809176
 30
0.0
 40
3.730384757729381
100
AcDbArc
 50
50.85063544126176
 51
38.47126664869841
  0
LWPOLYLINE
  5
12EA
330
2
100
AcDbEntity
  8
0
100
AcDbPolyline
 90
        6
 70
     1
 43
0.0
 10
870.306574892694
 20
80.78699610647129
 10
868.306574892694
 20
81.94169664485036
 10
866.3065748926939
 20
80.78699610647129
 10
866.3065748926939
 20
78.47759502971269
 10
868.306574892694
 20
77.32289449133361
 10
870.306574892694
 20
78.47759502971269
  0
CIRCLE
  5
12EB
330
2
100
AcDbEntity
  8
0
100
AcDbCircle
 10
868.306574892694
 20
79.63229556809176
 30
0.0
 40
2.3094010767585
  0
LINE
  5
12EC
330
2
100
AcDbEntity
  8
CENTER
100
AcDbLine
 10
868.306574892694
 20
85.59072581538577
 30
0.0
 11
868.306574892694
 21
73.67386532079774
 31
0.0
  0
LINE
  5
12ED
330
2
100
AcDbEntity
  8
CENTER
100
AcDbLine
 10
862.3481446454
 20
79.63229556809176
 30
0.0
 11
874.2650051399881
 21
79.63229556809176
 31
0.0
  0
LINE
  5
12EE
330
2
100
AcDbEntity
  8
HIDS
100
AcDbLine
 10
890.9165748926927
 20
109.9922955680918
 30
0.0
 11
890.9165748926927
 21
101.5422955680916
 31
0.0
  0
LINE
  5
12EF
330
2
100
AcDbEntity
  8
HIDS
100
AcDbLine
 10
890.5832415593588
 20
109.9922955680918
 30
0.0
 11
890.5832415593588
 21
101.2089622347585
 31
0.0
  0
LINE
  5
12F0
330
2
100
AcDbEntity
  8
HIDS
100
AcDbLine
 10
887.2499082260267
 20
109.9922955680918
 30
0.0
 11
887.2499082260267
 21
102.4035473273653
 31
0.0
  0
LINE
  5
12F1
330
2
100
AcDbEntity
  8
HIDS
100
AcDbLine
 10
886.9165748926928
 20
109.9922955680918
 30
0.0
 11
886.9165748926928
 21
102.9120656864089
 31
0.0
  0
ARC
  5
12F2
330
2
100
AcDbEntity
  8
0
100
AcDbCircle
 10
899.4165748926928
 20
110.7422955680918
 30
0.0
 40
14.75
100
AcDbArc
 50
218.5889464533626
 51
160.1850718514912
  0
LINE
  5
12F3
330
2
100
AcDbEntity
  8
CENTER
  6
CENS
100
AcDbLine
 10
888.9165748926927
 20
148.487125132104
 30
0.0
 11
888.9165748926927
 21
99.29004522353501
 31
0.0
  0
LINE
  5
12F4
330
2
100
AcDbEntity
  8
HIDS
100
AcDbLine
 10
890.9165748926927
 20
109.9922955680918
 30
0.0
 11
890.9165748926927
 21
98.6877321168505
 31
0.0
  0
ARC
  5
12F5
330
2
100
AcDbEntity
  8
0
100
AcDbCircle
 10
899.4165748926928
 20
110.7422955680918
 30
0.0
 40
14.75
100
AcDbArc
 50
179.9999999999934
 51
218.5889464533626
  0
LINE
  5
12F6
330
2
100
AcDbEntity
  8
HIDS
100
AcDbLine
 10
887.8873728387782
 20
101.5422955680916
 30
0.0
 11
888.9165748926927
 21
101.5422955680916
 31
0.0
  0
LINE
  5
12F7
330
2
100
AcDbEntity
  8
0
100
AcDbLine
 10
887.7165748926939
 20
100.7422955680918
 30
0.0
 11
888.5739506715919
 21
100.7422955680918
 31
0.0
  0
LINE
  5
12F8
330
2
100
AcDbEntity
  8
0
100
AcDbLine
 10
886.9165748926928
 20
102.9120656864089
 30
0.0
 11
886.9165748926928
 21
101.5422955680916
 31
0.0
  0
LINE
  5
12F9
330
2
100
AcDbEntity
  8
HOJO
100
AcDbLine
 10
887.2499082260267
 20
102.4035473273653
 30
0.0
 11
887.2499082260267
 21
101.2089622347585
 31
0.0
  0
LINE
  5
12FA
330
2
100
AcDbEntity
  8
0
100
AcDbLine
 10
886.9165748926928
 20
101.5422955680916
 30
0.0
 11
887.8873728387782
 21
101.5422955680916
 31
0.0
  0
LINE
  5
12FB
330
2
100
AcDbEntity
  8
0
100
AcDbLine
 10
886.9165748926928
 20
101.5422955680916
 30
0.0
 11
887.7165748926939
 21
100.7422955680918
 31
0.0
  0
LINE
  5
12FC
330
2
100
AcDbEntity
  8
HIDS
100
AcDbLine
 10
888.5739506715919
 20
100.7422955680918
 30
0.0
 11
888.9165748926927
 21
100.7422955680918
 31
0.0
  0
LINE
  5
12FD
330
2
100
AcDbEntity
  8
HIDS
100
AcDbLine
 10
890.9165748926927
 20
101.5422955680916
 30
0.0
 11
890.1165748926935
 21
100.7422955680918
 31
0.0
  0
LINE
  5
12FE
330
2
100
AcDbEntity
  8
HIDS
100
AcDbLine
 10
890.1165748926935
 20
100.7422955680918
 30
0.0
 11
888.9165748926927
 21
100.7422955680918
 31
0.0
  0
LINE
  5
12FF
330
2
100
AcDbEntity
  8
HIDS
100
AcDbLine
 10
890.9165748926927
 20
101.5422955680916
 30
0.0
 11
888.9165748926927
 21
101.5422955680916
 31
0.0
  0
LINE
  5
1300
330
2
100
AcDbEntity
  8
HIDS
100
AcDbLine
 10
890.5832415593588
 20
101.2089622347585
 30
0.0
 11
890.5832415593588
 21
98.9298139396525
 31
0.0
  0
LINE
  5
1301
330
2
100
AcDbEntity
  8
HIDS
100
AcDbLine
 10
885.5398858063155
 20
115.7422955680919
 30
0.0
 11
892.4165748926927
 21
115.7422955680919
 31
0.0
  0
LINE
  5
1302
330
2
100
AcDbEntity
  8
HIDS
100
AcDbLine
 10
887.5055505874527
 20
119.4422955680921
 30
0.0
 11
892.4165748926927
 21
119.4422955680921
 31
0.0
  0
LINE
  5
1303
330
2
100
AcDbEntity
  8
HIDS
100
AcDbLine
 10
891.8969596504224
 20
119.7422955680918
 30
0.0
 11
887.7305790001731
 21
119.7422955680918
 31
0.0
  0
LINE
  5
1304
330
2
100
AcDbEntity
  8
HIDS
100
AcDbLine
 10
890.9165748926927
 20
114.0756289014253
 30
0.0
 11
886.9165748926928
 21
114.0756289014253
 31
0.0
  0
LINE
  5
1305
330
2
100
AcDbEntity
  8
HIDS
100
AcDbLine
 10
885.5398858063137
 20
115.7422955680919
 30
0.0
 11
892.9165748926928
 21
115.7422955680919
 31
0.0
  0
LINE
  5
1306
330
2
100
AcDbEntity
  8
0
100
AcDbLine
 10
884.6856550300374
 20
111.4922955680919
 30
0.0
 11
888.9165748926927
 21
111.4922955680919
 31
0.0
  0
LINE
  5
1307
330
2
100
AcDbEntity
  8
0
100
AcDbLine
 10
884.6856550300374
 20
109.9922955680918
 30
0.0
 11
888.9165748926927
 21
109.9922955680918
 31
0.0
  0
LINE
  5
1308
330
2
100
AcDbEntity
  8
0
100
AcDbLine
 10
885.4165748926927
 20
119.4422955680921
 30
0.0
 11
885.4165748926927
 21
115.7422955680919
 31
0.0
  0
LINE
  5
1309
330
2
100
AcDbEntity
  8
0
100
AcDbLine
 10
886.9165748926928
 20
111.4922955680919
 30
0.0
 11
886.9165748926928
 21
109.9922955680918
 31
0.0
  0
LINE
  5
130A
330
2
100
AcDbEntity
  8
HOJO
100
AcDbLine
 10
887.2499082260267
 20
111.4922955680919
 30
0.0
 11
887.2499082260267
 21
109.9922955680918
 31
0.0
  0
ARC
  5
130B
330
2
100
AcDbEntity
  8
0
100
AcDbCircle
 10
899.4165748926928
 20
110.7422955680918
 30
0.0
 40
14.75
100
AcDbArc
 50
160.1850718514912
 51
179.9999999999934
  0
LINE
  5
130C
330
2
100
AcDbEntity
  8
HIDS
100
AcDbLine
 10
886.9165748926928
 20
115.7422955680919
 30
0.0
 11
887.2499082260267
 21
114.0756289014253
 31
0.0
  0
LINE
  5
130D
330
2
100
AcDbEntity
  8
0
100
AcDbLine
 10
885.4165748926927
 20
115.7422955680919
 30
0.0
 11
885.5398858063155
 21
115.7422955680919
 31
0.0
  0
LINE
  5
130E
330
2
100
AcDbEntity
  8
HIDS
100
AcDbLine
 10
887.2499082260267
 20
114.0756289014253
 30
0.0
 11
887.2499082260267
 21
111.4922955680919
 31
0.0
  0
LINE
  5
130F
330
2
100
AcDbEntity
  8
HIDS
100
AcDbLine
 10
886.9165748926928
 20
115.7422955680919
 30
0.0
 11
886.9165748926928
 21
111.4922955680919
 31
0.0
  0
LINE
  5
1310
330
2
100
AcDbEntity
  8
HIDS
100
AcDbLine
 10
886.4165748926927
 20
115.7422955680919
 30
0.0
 11
886.4165748926927
 21
111.4922955680919
 31
0.0
  0
LINE
  5
1311
330
2
100
AcDbEntity
  8
0
100
AcDbLine
 10
887.7305790001731
 20
119.7422955680918
 30
0.0
 11
885.9361901349632
 21
119.7422955680918
 31
0.0
  0
LINE
  5
1312
330
2
100
AcDbEntity
  8
0
100
AcDbLine
 10
885.4165748926927
 20
119.4422955680921
 30
0.0
 11
885.9361901349632
 21
119.7422955680918
 31
0.0
  0
LINE
  5
1313
330
2
100
AcDbEntity
  8
0
100
AcDbLine
 10
885.4165748926927
 20
119.4422955680921
 30
0.0
 11
887.5055505874527
 21
119.4422955680921
 31
0.0
  0
LINE
  5
1314
330
2
100
AcDbEntity
  8
HIDS
100
AcDbLine
 10
892.4165748926927
 20
115.7422955680919
 30
0.0
 11
892.4165748926927
 21
119.4422955680921
 31
0.0
  0
LINE
  5
1315
330
2
100
AcDbEntity
  8
HIDS
100
AcDbLine
 10
892.9165748926928
 20
123.9828582449573
 30
0.0
 11
892.9165748926928
 21
115.7422955680919
 31
0.0
  0
LINE
  5
1316
330
2
100
AcDbEntity
  8
HOJO
100
AcDbLine
 10
890.5832415593588
 20
111.4922955680919
 30
0.0
 11
890.5832415593588
 21
109.9922955680918
 31
0.0
  0
LINE
  5
1317
330
2
100
AcDbEntity
  8
0
100
AcDbLine
 10
890.9165748926927
 20
111.4922955680919
 30
0.0
 11
890.9165748926927
 21
109.9922955680918
 31
0.0
  0
LINE
  5
1318
330
2
100
AcDbEntity
  8
0
100
AcDbLine
 10
888.9165748926927
 20
109.9922955680918
 30
0.0
 11
892.4568694391538
 21
109.9922955680918
 31
0.0
  0
LINE
  5
1319
330
2
100
AcDbEntity
  8
0
100
AcDbLine
 10
888.9165748926927
 20
111.4922955680919
 30
0.0
 11
892.4568694391538
 21
111.4922955680923
 31
0.0
  0
LINE
  5
131A
330
2
100
AcDbEntity
  8
HIDS
100
AcDbLine
 10
890.9165748926927
 20
115.7422955680919
 30
0.0
 11
890.5832415593588
 21
114.0756289014253
 31
0.0
  0
LINE
  5
131B
330
2
100
AcDbEntity
  8
HIDS
100
AcDbLine
 10
890.9165748926927
 20
115.7422955680919
 30
0.0
 11
890.9165748926927
 21
111.4922955680919
 31
0.0
  0
LINE
  5
131C
330
2
100
AcDbEntity
  8
HIDS
100
AcDbLine
 10
890.5832415593588
 20
114.0756289014253
 30
0.0
 11
890.5832415593588
 21
111.4922955680919
 31
0.0
  0
LINE
  5
131D
330
2
100
AcDbEntity
  8
HIDS
100
AcDbLine
 10
891.4165748926928
 20
115.7422955680919
 30
0.0
 11
891.4165748926928
 21
111.4922955680919
 31
0.0
  0
LINE
  5
131E
330
2
100
AcDbEntity
  8
HIDS
100
AcDbLine
 10
891.8969596504224
 20
119.7422955680918
 30
0.0
 11
892.4165748926927
 21
119.4422955680921
 31
0.0
  0
LINE
  5
131F
330
2
100
AcDbEntity
  8
0
100
AcDbLine
 10
913.4165748926928
 20
109.9922955680918
 30
0.0
 11
906.376280346228
 21
109.9922955680918
 31
0.0
  0
LINE
  5
1320
330
2
100
AcDbEntity
  8
0
100
AcDbLine
 10
906.376280346228
 20
111.4922955680919
 30
0.0
 11
913.4165748926928
 21
111.4922955680919
 31
0.0
  0
LINE
  5
1321
330
2
100
AcDbEntity
  8
0
100
AcDbLine
 10
913.4165748926928
 20
111.4922955680919
 30
0.0
 11
913.4165748926928
 21
109.9922955680918
 31
0.0
  0
LINE
  5
1322
330
2
100
AcDbEntity
  8
0
100
AcDbLine
 10
883.9165687215055
 20
144.7422934325178
 30
0.0
 11
893.9165687215057
 21
144.7422934325178
 31
0.0
  0
ARC
  5
1323
330
2
100
AcDbEntity
  8
0
100
AcDbCircle
 10
893.9165687215057
 20
140.7422934325178
 30
0.0
 40
4.0
100
AcDbArc
 50
0.0
 51
90.0
  0
LINE
  5
1324
330
2
100
AcDbEntity
  8
0
100
AcDbLine
 10
897.9165687215056
 20
140.7422934325178
 30
0.0
 11
897.9165687215056
 21
140.7422934325178
 31
0.0
  0
ARC
  5
1325
330
2
100
AcDbEntity
  8
0
100
AcDbCircle
 10
883.9165687215055
 20
140.7422934325178
 30
0.0
 40
4.0
100
AcDbArc
 50
90.0
 51
180.0
  0
CIRCLE
  5
1326
330
2
100
AcDbEntity
  8
HOJO
100
AcDbCircle
 10
924.1665748926928
 20
135.4922955680914
 30
0.0
 40
2.0
  0
CIRCLE
  5
1327
330
2
100
AcDbEntity
  8
0
100
AcDbCircle
 10
924.1665748926928
 20
135.4922955680914
 30
0.0
 40
1.6
  0
CIRCLE
  5
1328
330
2
100
AcDbEntity
  8
HOJO
100
AcDbCircle
 10
874.6665748926927
 20
135.4922955680919
 30
0.0
 40
2.0
  0
CIRCLE
  5
1329
330
2
100
AcDbEntity
  8
0
100
AcDbCircle
 10
874.6665748926927
 20
135.4922955680919
 30
0.0
 40
1.6
  0
CIRCLE
  5
132A
330
2
100
AcDbEntity
  8
HOJO
100
AcDbCircle
 10
874.6665748926927
 20
85.9922955680919
 30
0.0
 40
2.0
  0
CIRCLE
  5
132B
330
2
100
AcDbEntity
  8
0
100
AcDbCircle
 10
874.6665748926927
 20
85.9922955680919
 30
0.0
 40
1.6
  0
CIRCLE
  5
132C
330
2
100
AcDbEntity
  8
HOJO
100
AcDbCircle
 10
924.1665748926928
 20
85.9922955680919
 30
0.0
 40
2.0
  0
CIRCLE
  5
132D
330
2
100
AcDbEntity
  8
0
100
AcDbCircle
 10
924.1665748926928
 20
85.9922955680919
 30
0.0
 40
1.6
  0
CIRCLE
  5
132F
330
2
100
AcDbEntity
  8
0
100
AcDbCircle
 10
899.416574892691
 20
110.7422955680932
 30
0.0
 40
6.999999999998635
  0
ARC
  5
1330
330
2
100
AcDbEntity
  8
0
100
AcDbCircle
 10
899.4165748926928
 20
110.7422955680932
 30
0.0
 40
8.154700538378165
100
AcDbArc
 50
5.277035934802101
 51
174.7229640651978
  0
ARC
  5
1331
330
2
100
AcDbEntity
  8
0
100
AcDbCircle
 10
899.4165748926928
 20
110.7422955680932
 30
0.0
 40
8.154700538378165
100
AcDbArc
 50
185.2770359348151
 51
354.7229640651849
  0
CIRCLE
  5
1332
330
2
100
AcDbEntity
  8
CENTER
100
AcDbCircle
 10
899.4165748926928
 20
110.7422955680905
 30
0.0
 40
35.0017856687341
  0
CIRCLE
  5
1333
330
2
100
AcDbEntity
  8
0
100
AcDbCircle
 10
899.416574892691
 20
110.7422955680932
 30
0.0
 40
22.5
  0
LINE
  5
1334
330
2
100
AcDbEntity
  8
0
100
AcDbLine
 10
657.1539285101949
 20
137.6022955680947
 30
0.0
 11
652.4539285101942
 21
137.6022955680947
 31
0.0
  0
LINE
  5
1335
330
2
100
AcDbEntity
  8
0
100
AcDbLine
 10
652.4539285101942
 20
146.1022955680947
 30
0.0
 11
657.1539285101949
 21
146.1022955680947
 31
0.0
  0
LINE
  5
1336
330
2
100
AcDbEntity
  8
CENTER
  6
CENS
100
AcDbLine
 10
634.9227715541671
 20
141.8522955680947
 30
0.0
 11
662.379744484249
 21
141.8522955680947
 31
0.0
  0
LINE
  5
1337
330
2
100
AcDbEntity
  8
0
100
AcDbLine
 10
657.4539285101942
 20
145.5826803258243
 30
0.0
 11
657.4539285101942
 21
138.1219108103652
 31
0.0
  0
LINE
  5
1338
330
2
100
AcDbEntity
  8
0
100
AcDbLine
 10
657.1539285101949
 20
137.6022955680947
 30
0.0
 11
657.1539285101949
 21
146.1022955680947
 31
0.0
  0
LINE
  5
1339
330
2
100
AcDbEntity
  8
0
100
AcDbLine
 10
657.1539285101949
 20
137.6022955680947
 30
0.0
 11
657.4539285101942
 21
138.1219108103652
 31
0.0
  0
LINE
  5
133A
330
2
100
AcDbEntity
  8
0
100
AcDbLine
 10
657.4539285101942
 20
145.5826803258243
 30
0.0
 11
657.1539285101949
 21
146.1022955680947
 31
0.0
  0
LINE
  5
133B
330
2
100
AcDbEntity
  8
0
100
AcDbLine
 10
652.4539285101942
 20
146.1022955680947
 30
0.0
 11
651.4539285101943
 21
146.1022955680947
 31
0.0
  0
LINE
  5
133C
330
2
100
AcDbEntity
  8
0
100
AcDbLine
 10
651.4539285101943
 20
146.1022955680947
 30
0.0
 11
651.4539285101943
 21
137.6022955680947
 31
0.0
  0
LINE
  5
133D
330
2
100
AcDbEntity
  8
0
100
AcDbLine
 10
651.4539285101943
 20
137.6022955680947
 30
0.0
 11
652.4539285101942
 21
137.6022955680947
 31
0.0
  0
LINE
  5
133E
330
2
100
AcDbEntity
  8
0
100
AcDbLine
 10
652.4539285101942
 20
137.6022955680947
 30
0.0
 11
652.4539285101942
 21
146.1022955680947
 31
0.0
  0
LINE
  5
133F
330
2
100
AcDbEntity
  8
0
100
AcDbLine
 10
652.4539285101942
 20
137.6022955680947
 30
0.0
 11
652.4539285101942
 21
146.1022955680947
 31
0.0
  0
ARC
  5
1340
330
2
100
AcDbEntity
  8
0
100
AcDbCircle
 10
656.2571979207947
 20
75.74229556809417
 30
0.0
 40
5.0
100
AcDbArc
 50
163.8741378563889
 51
171.7867892982595
  0
LINE
  5
1341
330
2
100
AcDbEntity
  8
0
100
AcDbLine
 10
651.3286900808322
 20
76.70739075521999
 30
0.0
 11
651.9227715541671
 21
110.7422955680946
 31
0.0
  0
LINE
  5
1342
330
2
100
AcDbEntity
  8
0
100
AcDbLine
 10
639.9227715541671
 20
74.74229556809461
 30
0.0
 11
649.3289946905185
 21
74.74229556809461
 31
0.0
  0
ARC
  5
1343
330
2
100
AcDbEntity
  8
0
100
AcDbCircle
 10
649.3289946905185
 20
76.74229556809462
 30
0.0
 40
2.0
100
AcDbArc
 50
270.0
 51
358.9999999999982
  0
LINE
  5
1344
330
2
100
AcDbEntity
  8
CENTER
  6
CENS
100
AcDbLine
 10
668.9227715541671
 20
121.1422955680947
 30
0.0
 11
668.9227715541671
 21
148.4871251321066
 31
0.0
  0
LINE
  5
1345
330
2
100
AcDbEntity
  8
0
100
AcDbLine
 10
651.3286900808322
 20
144.7772003809688
 30
0.0
 11
651.7444411307511
 21
120.9588386831366
 31
0.0
  0
LINE
  5
1346
330
2
100
AcDbEntity
  8
0
100
AcDbLine
 10
668.3939865279731
 20
137.738183337317
 30
0.0
 11
668.1764435174406
 21
125.2751526108269
 31
0.0
  0
LINE
  5
1347
330
2
100
AcDbEntity
  8
0
100
AcDbLine
 10
639.9227715541671
 20
110.7422955680946
 30
0.0
 11
640.3828109073526
 21
110.7422955680946
 31
0.0
  0
LINE
  5
1348
330
2
100
AcDbEntity
  8
0
100
AcDbLine
 10
657.4539285101942
 20
80.74229556809461
 30
0.0
 11
682.922771554167
 21
80.74229556809461
 31
0.0
  0
LINE
  5
1349
330
2
100
AcDbEntity
  8
0
100
AcDbLine
 10
668.3939865279731
 20
83.74640779887215
 30
0.0
 11
667.9227715541671
 21
110.7422955680946
 31
0.0
  0
ARC
  5
134A
330
2
100
AcDbEntity
  8
0
100
AcDbCircle
 10
671.3945152913598
 20
83.74229556809462
 30
0.0
 40
3.0
100
AcDbArc
 50
181.0000000000017
 51
270.0
  0
ARC
  5
134B
330
2
100
AcDbEntity
  8
0
100
AcDbCircle
 10
655.8309865047755
 20
135.5101142136378
 30
0.0
 40
3.0
100
AcDbArc
 50
270.0
 51
358.9999999999721
  0
LINE
  5
134C
330
2
100
AcDbEntity
  8
0
100
AcDbLine
 10
665.3022732578389
 20
132.5101142136378
 30
0.0
 11
655.8309865047755
 21
132.5101142136382
 31
0.0
  0
LINE
  5
134D
330
2
100
AcDbEntity
  8
0
100
AcDbLine
 10
658.830529590246
 20
135.4577569943259
 30
0.0
 11
658.8884706900841
 21
138.7772003809692
 31
0.0
  0
ARC
  5
134E
330
2
100
AcDbEntity
  8
0
100
AcDbCircle
 10
660.8881660803977
 20
138.7422955680946
 30
0.0
 40
2.0
100
AcDbArc
 50
90.0
 51
178.9999999999721
  0
LINE
  5
134F
330
2
100
AcDbEntity
  8
0
100
AcDbLine
 10
657.4539285101942
 20
140.742295568095
 30
0.0
 11
682.922771554167
 21
140.7422955680946
 31
0.0
  0
ARC
  5
1350
330
2
100
AcDbEntity
  8
0
100
AcDbCircle
 10
671.3945152913598
 20
137.7422955680946
 30
0.0
 40
3.0
100
AcDbArc
 50
90.0
 51
178.9999999999982
  0
ARC
  5
1351
330
2
100
AcDbEntity
  8
0
100
AcDbCircle
 10
649.3289946905185
 20
144.7422955680946
 30
0.0
 40
2.0
100
AcDbArc
 50
1.000000000001775
 51
90.0
  0
LINE
  5
1352
330
2
100
AcDbEntity
  8
0
100
AcDbLine
 10
639.9227715541671
 20
146.7422955680946
 30
0.0
 11
649.3289946905185
 21
146.7422955680946
 31
0.0
  0
ARC
  5
1353
330
2
100
AcDbEntity
  8
0
100
AcDbCircle
 10
656.2571979207947
 20
145.742295568095
 30
0.0
 40
5.0
100
AcDbArc
 50
188.2132107017404
 51
196.125862143611
  0
LINE
  5
1354
330
2
100
AcDbEntity
  8
0
100
AcDbLine
 10
682.922771554167
 20
80.74229556809461
 30
0.0
 11
682.922771554167
 21
140.7422955680946
 31
0.0
  0
LINE
  5
1355
330
2
100
AcDbEntity
  8
0
100
AcDbLine
 10
657.1539285101949
 20
83.88229556809449
 30
0.0
 11
652.4539285101942
 21
83.88229556809449
 31
0.0
  0
LINE
  5
1356
330
2
100
AcDbEntity
  8
0
100
AcDbLine
 10
652.4539285101942
 20
75.38229556809449
 30
0.0
 11
657.1539285101949
 21
75.38229556809449
 31
0.0
  0
LINE
  5
1357
330
2
100
AcDbEntity
  8
CENTER
  6
CENS
100
AcDbLine
 10
634.9227715541671
 20
79.63229556809449
 30
0.0
 11
662.379744484249
 21
79.63229556809449
 31
0.0
  0
LINE
  5
1358
330
2
100
AcDbEntity
  8
0
100
AcDbLine
 10
657.4539285101942
 20
75.90191081036493
 30
0.0
 11
657.4539285101942
 21
83.36268032582404
 31
0.0
  0
LINE
  5
1359
330
2
100
AcDbEntity
  8
0
100
AcDbLine
 10
657.1539285101949
 20
83.88229556809449
 30
0.0
 11
657.1539285101949
 21
75.38229556809449
 31
0.0
  0
LINE
  5
135A
330
2
100
AcDbEntity
  8
0
100
AcDbLine
 10
657.1539285101949
 20
83.88229556809449
 30
0.0
 11
657.4539285101942
 21
83.36268032582404
 31
0.0
  0
LINE
  5
135B
330
2
100
AcDbEntity
  8
0
100
AcDbLine
 10
657.4539285101942
 20
75.90191081036493
 30
0.0
 11
657.1539285101949
 21
75.38229556809449
 31
0.0
  0
LINE
  5
135C
330
2
100
AcDbEntity
  8
0
100
AcDbLine
 10
652.4539285101942
 20
75.38229556809449
 30
0.0
 11
651.4539285101943
 21
75.38229556809449
 31
0.0
  0
LINE
  5
135D
330
2
100
AcDbEntity
  8
0
100
AcDbLine
 10
651.4539285101943
 20
75.38229556809449
 30
0.0
 11
651.4539285101943
 21
83.88229556809449
 31
0.0
  0
LINE
  5
135E
330
2
100
AcDbEntity
  8
0
100
AcDbLine
 10
651.4539285101943
 20
83.88229556809449
 30
0.0
 11
652.4539285101942
 21
83.88229556809449
 31
0.0
  0
LINE
  5
135F
330
2
100
AcDbEntity
  8
0
100
AcDbLine
 10
652.4539285101942
 20
83.88229556809449
 30
0.0
 11
652.4539285101942
 21
75.38229556809449
 31
0.0
  0
LINE
  5
1360
330
2
100
AcDbEntity
  8
0
100
AcDbLine
 10
652.4539285101942
 20
83.88229556809449
 30
0.0
 11
652.4539285101942
 21
75.38229556809449
 31
0.0
  0
LINE
  5
1361
330
2
100
AcDbEntity
  8
0
100
AcDbLine
 10
673.4227609451169
 20
117.742295568095
 30
0.0
 11
663.422760945115
 21
117.742295568095
 31
0.0
  0
LINE
  5
1362
330
2
100
AcDbEntity
  8
0
100
AcDbLine
 10
673.4227609451151
 20
117.742295568095
 30
0.0
 11
673.4227609451151
 21
110.7422955680946
 31
0.0
  0
LINE
  5
1363
330
2
100
AcDbEntity
  8
0
100
AcDbLine
 10
675.4227609451151
 20
118.8969961064741
 30
0.0
 11
673.4227609451151
 21
117.7422955680946
 31
0.0
  0
LINE
  5
1364
330
2
100
AcDbEntity
  8
0
100
AcDbLine
 10
646.4227609451169
 20
117.9922955680946
 30
0.0
 11
646.4227609451169
 21
110.7422955680946
 31
0.0
  0
LINE
  5
1365
330
2
100
AcDbEntity
  8
0
100
AcDbLine
 10
673.4227609451169
 20
117.742295568095
 30
0.0
 11
663.422760945115
 21
117.742295568095
 31
0.0
  0
LINE
  5
1366
330
2
100
AcDbEntity
  8
0
100
AcDbLine
 10
668.3349751237889
 20
125.492295568095
 30
0.0
 11
675.4227609451151
 21
125.492295568095
 31
0.0
  0
LINE
  5
1367
330
2
100
AcDbEntity
  8
0
100
AcDbLine
 10
675.4227609451151
 20
125.492295568095
 30
0.0
 11
675.4227609451151
 21
110.7422955680946
 31
0.0
  0
LINE
  5
1368
330
2
100
AcDbEntity
  8
0
100
AcDbLine
 10
661.4227609451151
 20
121.026976754818
 30
0.0
 11
661.4227609451151
 21
110.7422955680946
 31
0.0
  0
LINE
  5
1369
330
2
100
AcDbEntity
  8
0
100
AcDbLine
 10
663.422760945115
 20
121.5523769022494
 30
0.0
 11
663.422760945115
 21
110.7422955680946
 31
0.0
  0
LINE
  5
136A
330
2
100
AcDbEntity
  8
0
100
AcDbLine
 10
654.4227609451169
 20
117.9922955680946
 30
0.0
 11
646.4227609451169
 21
117.9922955680946
 31
0.0
  0
LINE
  5
136B
330
2
100
AcDbEntity
  8
0
100
AcDbLine
 10
654.4227609451169
 20
110.7422955680946
 30
0.0
 11
654.4227609451169
 21
117.9922955680946
 31
0.0
  0
LINE
  5
136C
330
2
100
AcDbEntity
  8
0
100
AcDbLine
 10
661.4227609451151
 20
117.7422955680946
 30
0.0
 11
654.4227609451169
 21
117.7422955680946
 31
0.0
  0
LINE
  5
136D
330
2
100
AcDbEntity
  8
0
100
AcDbLine
 10
642.6699841953828
 20
110.7422955680941
 30
0.0
 11
646.4227609451169
 21
117.2422955680946
 31
0.0
  0
SPLINE
  5
136E
330
2
100
AcDbEntity
  8
HOJO
100
AcDbSpline
210
0.0
220
0.0
230
1.0
 70
     8
 71
     3
 72
    20
 73
    16
 74
     0
 42
0.0000000001
 43
0.0000000001
 40
0.0
 40
0.0
 40
0.0
 40
0.0
 40
5.311626210389601
 40
7.954639692924123
 40
10.24579206730457
 40
14.18281221953265
 40
18.83794314114633
 40
26.54246833222011
 40
31.19712602527561
 40
34.95638115537181
 40
42.12378530287149
 40
45.78553747213095
 40
50.20353689726185
 40
53.26513166942802
 40
54.23175360515262
 40
54.23175360515262
 40
54.23175360515262
 40
54.23175360515262
 10
682.9227715541652
 20
137.4297442901107
 30
0.0
 10
681.2097923882771
 20
137.3217022398845
 30
0.0
 10
678.644451468866
 20
137.15989951748
 30
0.0
 10
674.8726975817895
 20
136.9077668453129
 30
0.0
 10
673.5535563656554
 20
133.9753253603458
 30
0.0
 10
671.1183469973653
 20
131.3208165370502
 30
0.0
 10
669.2802986542152
 20
126.1695211038865
 30
0.0
 10
665.155462244738
 20
121.4597737522609
 30
0.0
 10
659.6778147417313
 20
120.8224423178418
 30
0.0
 10
654.7644292321653
 20
120.4368706743008
 30
0.0
 10
649.9304298854073
 20
121.6004547837548
 30
0.0
 10
644.8927031207691
 20
118.9009245478902
 30
0.0
 10
641.8215524993989
 20
115.0267004187477
 30
0.0
 10
640.8215782046733
 20
112.3484598978581
 30
0.0
 10
640.4655386794416
 20
111.0534468677871
 30
0.0
 10
640.3828109073526
 20
110.7422955680946
 30
0.0
  0
LINE
  5
136F
330
2
100
AcDbEntity
  8
0
100
AcDbLine
 10
682.922771554167
 20
135.742295568095
 30
0.0
 11
675.922771554167
 21
135.742295568095
 31
0.0
  0
LINE
  5
1370
330
2
100
AcDbEntity
  8
0
100
AcDbLine
 10
675.922771554167
 20
135.742295568095
 30
0.0
 11
675.922771554167
 21
110.7422955680946
 31
0.0
  0
LINE
  5
1371
330
2
100
AcDbEntity
  8
0
100
AcDbLine
 10
673.9227777253542
 20
144.7422955680946
 30
0.0
 11
663.9227777253542
 21
144.7422955680946
 31
0.0
  0
ARC
  5
1372
330
2
100
AcDbEntity
  8
0
100
AcDbCircle
 10
663.9227777253542
 20
140.7422955680946
 30
0.0
 40
4.0
100
AcDbArc
 50
90.0
 51
180.0
  0
ARC
  5
1373
330
2
100
AcDbEntity
  8
0
100
AcDbCircle
 10
673.9227777253542
 20
140.7422955680946
 30
0.0
 40
4.0
100
AcDbArc
 50
0.0
 51
90.0
  0
LINE
  5
1374
330
2
100
AcDbEntity
  8
0
100
AcDbLine
 10
672.8221048825499
 20
133.2422955680946
 30
0.0
 11
675.922771554167
 21
133.2422955680946
 31
0.0
  0
LINE
  5
2289
330
2
100
AcDbEntity
  8
CENTER
100
AcDbLine
 10
528.4374901799414
 20
150.2275769423211
 30
0.0
 11
607.4080529284177
 21
71.25701419384296
 31
0.0
  0
LINE
  5
228A
330
2
100
AcDbEntity
  8
CENTER
100
AcDbLine
 10
607.4080529283932
 20
150.22757694232
 30
0.0
 11
528.4374901799155
 21
71.2570141938437
 31
0.0
  0
CIRCLE
  5
228B
330
2
100
AcDbEntity
  8
CENTER
100
AcDbCircle
 10
567.9227715541689
 20
110.7422955680946
 30
0.0
 40
44.0
  0
CIRCLE
  5
228C
330
2
100
AcDbEntity
  8
0
100
AcDbCircle
 10
567.9227715541689
 20
110.7422955680957
 30
0.0
 40
30.0
  0
CIRCLE
  5
228D
330
2
100
AcDbEntity
  8
0
100
AcDbCircle
 10
567.9227715541689
 20
110.7422955680957
 30
0.0
 40
24.00000000000017
  0
CIRCLE
  5
228E
330
2
100
AcDbEntity
  8
0
100
AcDbCircle
 10
567.9227715541689
 20
110.7422955680957
 30
0.0
 40
19.0
  0
ARC
  5
228F
330
2
100
AcDbEntity
  8
0
100
AcDbCircle
 10
567.9227715541697
 20
234.7422955680945
 30
0.0
 40
160.0
100
AcDbArc
 50
264.0709145121234
 51
275.9290854878765
  0
ARC
  5
2290
330
2
100
AcDbEntity
  8
0
100
AcDbCircle
 10
567.9227715541706
 20
-13.25770443190538
 30
0.0
 40
160.0
100
AcDbArc
 50
84.07091451212343
 51
95.92908548787658
  0
LINE
  5
2294
330
2
100
AcDbEntity
  8
0
100
AcDbLine
 10
114.5982170539206
 20
83.24229556810507
 30
0.0
 11
125.0982170539215
 21
83.24229556810553
 31
0.0
  0
LINE
  5
2295
330
2
100
AcDbEntity
  8
0
100
AcDbLine
 10
113.5982170539206
 20
101.4686770726053
 30
0.0
 11
128.0982170539215
 21
101.4686770726053
 31
0.0
  0
LINE
  5
2296
330
2
100
AcDbEntity
  8
0
100
AcDbLine
 10
125.0982170539215
 20
88.24229556810099
 30
0.0
 11
116.5982170539206
 21
88.24229556810099
 31
0.0
  0
LINE
  5
2297
330
2
100
AcDbEntity
  8
0
100
AcDbLine
 10
113.5982170539197
 20
120.0159140635963
 30
0.0
 11
128.0982170539215
 21
120.015914063597
 31
0.0
  0
LINE
  5
2298
330
2
100
AcDbEntity
  8
0
100
AcDbLine
 10
114.5982170539206
 20
138.2422955680971
 30
0.0
 11
125.0982170539215
 21
138.2422955680966
 31
0.0
  0
LINE
  5
2299
330
2
100
AcDbEntity
  8
0
100
AcDbLine
 10
125.0982170539215
 20
133.2422955681009
 30
0.0
 11
116.5982170539142
 21
133.2422955681009
 31
0.0
  0
LINE
  5
229A
330
2
100
AcDbEntity
  8
0
100
AcDbLine
 10
113.5982170539142
 20
137.2422955680975
 30
0.0
 11
113.5982170539206
 21
84.24229556810507
 31
0.0
  0
LINE
  5
229B
330
2
100
AcDbEntity
  8
0
100
AcDbLine
 10
104.0982170539251
 20
76.24229556810099
 30
0.0
 11
104.0982170539269
 21
145.242295568101
 31
0.0
  0
ARC
  5
229D
330
2
100
AcDbEntity
  8
0
100
AcDbCircle
 10
114.5982170539206
 20
80.24229556810508
 30
0.0
 40
3.0
100
AcDbArc
 50
90.0
 51
126.8698976458212
  0
ARC
  5
229E
330
2
100
AcDbEntity
  8
0
100
AcDbCircle
 10
107.098217053926
 20
79.24229556810463
 30
0.0
 40
3.0
100
AcDbArc
 50
90.0
 51
180.0
  0
ARC
  5
229F
330
2
100
AcDbEntity
  8
0
100
AcDbCircle
 10
111.5982170539206
 20
84.24229556810486
 30
0.0
 40
2.0
100
AcDbArc
 50
270.0
 51
0.0
  0
LINE
  5
22A0
330
2
100
AcDbEntity
  8
0
100
AcDbLine
 10
92.09821705392517
 20
74.24229556810098
 30
0.0
 11
102.0982170539251
 21
74.24229556810098
 31
0.0
  0
LINE
  5
22A1
330
2
100
AcDbEntity
  8
0
100
AcDbLine
 10
92.09821705392517
 20
74.74229556810098
 30
0.0
 11
102.0982170539251
 21
74.74229556810098
 31
0.0
  0
ARC
  5
22A2
330
2
100
AcDbEntity
  8
0
100
AcDbCircle
 10
102.0982170539251
 20
76.24229556810099
 30
0.0
 40
2.0
100
AcDbArc
 50
270.0
 51
0.0
  0
LINE
  5
22A3
330
2
100
AcDbEntity
  8
0
100
AcDbLine
 10
107.0982170539251
 20
82.24229556810461
 30
0.0
 11
111.5982170539206
 21
82.24229556810485
 31
0.0
  0
ARC
  5
22A4
330
2
100
AcDbEntity
  8
0
100
AcDbCircle
 10
102.0982170539251
 20
76.74229556810098
 30
0.0
 40
2.0
100
AcDbArc
 50
270.0
 51
0.0
  0
ARC
  5
22A5
330
2
100
AcDbEntity
  8
0
100
AcDbCircle
 10
116.5982170539206
 20
85.24229556810098
 30
0.0
 40
3.0
100
AcDbArc
 50
90.0
 51
180.0
  0
ARC
  5
22A6
330
2
100
AcDbEntity
  8
0
100
AcDbCircle
 10
116.5982170539142
 20
136.2422955681009
 30
0.0
 40
3.0
100
AcDbArc
 50
180.0
 51
270.0
  0
LINE
  5
22A7
330
2
100
AcDbEntity
  8
0
100
AcDbLine
 10
102.0982170539251
 20
147.2422955681009
 30
0.0
 11
92.09821705392517
 21
147.2422955681009
 31
0.0
  0
LINE
  5
22A8
330
2
100
AcDbEntity
  8
0
100
AcDbLine
 10
102.0982170539251
 20
146.7422955681009
 30
0.0
 11
92.09821705392517
 21
146.7422955681009
 31
0.0
  0
ARC
  5
22A9
330
2
100
AcDbEntity
  8
0
100
AcDbCircle
 10
102.0982170539251
 20
145.242295568101
 30
0.0
 40
2.0
100
AcDbArc
 50
0.0
 51
90.0
  0
ARC
  5
22AA
330
2
100
AcDbEntity
  8
0
100
AcDbCircle
 10
102.0982170539251
 20
144.7422955681009
 30
0.0
 40
2.0
100
AcDbArc
 50
0.0
 51
90.0
  0
ARC
  5
22AB
330
2
100
AcDbEntity
  8
0
100
AcDbCircle
 10
114.5982170539206
 20
141.2422955680971
 30
0.0
 40
3.0
100
AcDbArc
 50
233.1301023541299
 51
270.0
  0
ARC
  5
22AC
330
2
100
AcDbEntity
  8
0
100
AcDbCircle
 10
111.5982170539206
 20
137.2422955680973
 30
0.0
 40
2.0
100
AcDbArc
 50
0.0
 51
90.0
  0
LINE
  5
22AD
330
2
100
AcDbEntity
  8
0
100
AcDbLine
 10
107.0982170539251
 20
139.2422955680973
 30
0.0
 11
111.5982170539206
 21
139.2422955680973
 31
0.0
  0
ARC
  5
22AE
330
2
100
AcDbEntity
  8
0
100
AcDbCircle
 10
107.098217053926
 20
142.2422955680975
 30
0.0
 40
3.0
100
AcDbArc
 50
180.0
 51
270.0
  0
LINE
  5
22AF
330
2
100
AcDbEntity
  8
CENTER
100
AcDbLine
 10
164.0982170539215
 20
64.74229556810024
 30
0.0
 11
164.098217053921
 21
156.7422955681005
 31
0.0
  0
LINE
  5
22B0
330
2
100
AcDbEntity
  8
CENTER
100
AcDbLine
 10
124.6129356796699
 20
150.2275769423512
 30
0.0
 11
203.5834984281485
 21
71.25701419387514
 31
0.0
  0
LINE
  5
22B1
330
2
100
AcDbEntity
  8
CENTER
100
AcDbLine
 10
203.5834984281726
 20
150.2275769423515
 30
0.0
 11
124.6129356796954
 21
71.25701419387474
 31
0.0
  0
ARC
  5
22B2
330
2
100
AcDbEntity
  8
0
100
AcDbCircle
 10
229.0818134988281
 20
130.3688152480855
 30
0.0
 40
30.0
100
AcDbArc
 50
166.1581756815797
 51
185.9290854878502
  0
LINE
  5
22B3
330
2
100
AcDbEntity
  8
CENTER
100
AcDbLine
 10
195.0982170539197
 20
148.9922955681016
 30
0.0
 11
195.0982170539206
 21
134.4922955681014
 31
0.0
  0
LINE
  5
22B4
330
2
100
AcDbEntity
  8
0
100
AcDbLine
 10
135.0626831479891
 20
131.2042363452263
 30
0.0
 11
143.6362762767963
 21
139.7778294740338
 31
0.0
  0
CIRCLE
  5
22B5
330
2
100
AcDbEntity
  8
0
100
AcDbCircle
 10
132.5982170539215
 20
135.2422955681
 30
0.0
 40
1.6
  0
CIRCLE
  5
22B6
330
2
100
AcDbEntity
  8
HOJO
100
AcDbCircle
 10
132.5982170539215
 20
135.2422955681
 30
0.0
 40
2.0
  0
LINE
  5
22B7
330
2
100
AcDbEntity
  8
CENTER
100
AcDbLine
 10
132.5982170539206
 20
140.4155006488571
 30
0.0
 11
132.5982170539215
 21
130.069090487343
 31
0.0
  0
LINE
  5
22B8
330
2
100
AcDbEntity
  8
CENTER
100
AcDbLine
 10
133.0982170539233
 20
148.9922955681014
 30
0.0
 11
133.0982170539224
 21
134.4922955681009
 31
0.0
  0
LINE
  5
22B9
330
2
100
AcDbEntity
  8
0
100
AcDbLine
 10
133.6484695856157
 20
132.6184499075994
 30
0.0
 11
142.2220627144239
 21
141.1920430364069
 31
0.0
  0
LINE
  5
22BA
330
2
100
AcDbEntity
  8
0
100
AcDbLine
 10
194.5479645222281
 20
132.6184499075994
 30
0.0
 11
185.97437139342
 21
141.1920430364071
 31
0.0
  0
LINE
  5
22BB
330
2
100
AcDbEntity
  8
0
100
AcDbLine
 10
193.1337509598548
 20
131.2042363452265
 30
0.0
 11
184.5601578310476
 21
139.7778294740338
 31
0.0
  0
LINE
  5
22BC
330
2
100
AcDbEntity
  8
0
100
AcDbLine
 10
128.4682170539232
 20
79.74229556810098
 30
0.0
 11
128.4682170539214
 21
141.7422955681009
 31
0.0
  0
LINE
  5
22BD
330
2
100
AcDbEntity
  8
0
100
AcDbLine
 10
128.0982170539215
 20
79.74229556812599
 30
0.0
 11
128.0982170539142
 21
141.7422955681248
 31
0.0
  0
CIRCLE
  5
22BE
330
2
100
AcDbEntity
  8
0
100
AcDbCircle
 10
195.0982170539215
 20
79.74229556810121
 30
0.0
 40
3.730384757729268
  0
CIRCLE
  5
22BF
330
2
100
AcDbEntity
  8
0
100
AcDbCircle
 10
195.0982170539215
 20
79.74229556810121
 30
0.0
 40
4.250000000000085
  0
LINE
  5
22C0
330
2
100
AcDbEntity
  8
CENTER
100
AcDbLine
 10
200.7714221346792
 20
86.24229556810144
 30
0.0
 11
190.4250119731647
 21
86.24229556810144
 31
0.0
  0
LINE
  5
22C1
330
2
100
AcDbEntity
  8
CENTER
100
AcDbLine
 10
202.3482170539215
 20
79.74229556810121
 30
0.0
 11
187.8482170539215
 21
79.74229556810121
 31
0.0
  0
LINE
  5
22C2
330
2
100
AcDbEntity
  8
0
100
AcDbLine
 10
194.5479645222281
 20
88.86614122860271
 30
0.0
 11
185.97437139342
 21
80.29254809979523
 31
0.0
  0
LINE
  5
22C3
330
2
100
AcDbEntity
  8
0
100
AcDbLine
 10
192.0982170539215
 20
74.74229556810371
 30
0.0
 11
195.0982170539215
 21
74.74229556810371
 31
0.0
  0
LINE
  5
22C4
330
2
100
AcDbEntity
  8
0
100
AcDbLine
 10
193.1337509598548
 20
90.28035479097582
 30
0.0
 11
184.5601578310476
 21
81.70676166216834
 31
0.0
  0
LINE
  5
22C5
330
2
100
AcDbEntity
  8
0
100
AcDbLine
 10
131.5982170539215
 20
127.6687024392937
 30
0.0
 11
131.5982170539215
 21
93.81588869690871
 31
0.0
  0
LINE
  5
22C6
330
2
100
AcDbEntity
  8
0
100
AcDbLine
 10
133.5982170539215
 20
127.6687024392937
 30
0.0
 11
133.5982170539215
 21
93.81588869690871
 31
0.0
  0
CIRCLE
  5
22C7
330
2
100
AcDbEntity
  8
0
100
AcDbCircle
 10
164.0982170539215
 20
110.7422955681012
 30
0.0
 40
19.0
  0
CIRCLE
  5
22C8
330
2
100
AcDbEntity
  8
0
100
AcDbCircle
 10
164.0982170539215
 20
110.7422955681012
 30
0.0
 40
19.5774
  0
CIRCLE
  5
22C9
330
2
100
AcDbEntity
  8
0
100
AcDbCircle
 10
164.0982170539215
 20
110.7422955681012
 30
0.0
 40
23.0
  0
CIRCLE
  5
22CA
330
2
100
AcDbEntity
  8
0
100
AcDbCircle
 10
164.0982170539215
 20
110.7422955681012
 30
0.0
 40
22.42259999999999
  0
CIRCLE
  5
22CB
330
2
100
AcDbEntity
  8
0
100
AcDbCircle
 10
164.0982170539215
 20
110.7422955681012
 30
0.0
 40
25.0
  0
CIRCLE
  5
22CC
330
2
100
AcDbEntity
  8
0
100
AcDbCircle
 10
164.0982170539215
 20
110.7422955681012
 30
0.0
 40
25.5
  0
LINE
  5
22CD
330
2
100
AcDbEntity
  8
0
100
AcDbLine
 10
147.1718101827288
 20
78.24229556810099
 30
0.0
 11
181.0246239251142
 21
78.24229556810076
 31
0.0
  0
LINE
  5
22CE
330
2
100
AcDbEntity
  8
0
100
AcDbLine
 10
147.1718101827288
 20
80.24229556810098
 30
0.0
 11
181.0246239251142
 21
80.24229556810098
 31
0.0
  0
ARC
  5
22CF
330
2
100
AcDbEntity
  8
0
100
AcDbCircle
 10
164.0982170539178
 20
234.7422955681002
 30
0.0
 40
160.0
100
AcDbArc
 50
264.0709145121234
 51
275.9290854878765
  0
ARC
  5
22D0
330
2
100
AcDbEntity
  8
0
100
AcDbCircle
 10
133.4682170539232
 20
79.74229556810121
 30
0.0
 40
5.0
100
AcDbArc
 50
180.0
 51
270.0
  0
LINE
  5
22D1
330
2
100
AcDbEntity
  8
CENTER
100
AcDbLine
 10
125.8482170539215
 20
79.7422955681003
 30
0.0
 11
140.3482170539224
 21
79.74229556810076
 31
0.0
  0
ARC
  5
22D2
330
2
100
AcDbEntity
  8
0
100
AcDbCircle
 10
125.0982170539215
 20
80.24229556810553
 30
0.0
 40
3.0
100
AcDbArc
 50
0.0
 51
90.0
  0
ARC
  5
22D3
330
2
100
AcDbEntity
  8
0
100
AcDbCircle
 10
125.0982170539215
 20
85.24229556810098
 30
0.0
 40
3.0
100
AcDbArc
 50
0.0
 51
90.0
  0
ARC
  5
22D4
330
2
100
AcDbEntity
  8
0
100
AcDbCircle
 10
133.0982170539215
 20
79.74229556812599
 30
0.0
 40
5.0
100
AcDbArc
 50
180.0
 51
270.0
  0
CIRCLE
  5
22D5
330
2
100
AcDbEntity
  8
0
100
AcDbCircle
 10
133.0982170539215
 20
79.74229556810121
 30
0.0
 40
3.730384757729268
  0
CIRCLE
  5
22D6
330
2
100
AcDbEntity
  8
0
100
AcDbCircle
 10
133.0982170539215
 20
79.74229556810121
 30
0.0
 40
4.250000000000085
  0
LINE
  5
22D7
330
2
100
AcDbEntity
  8
CENTER
100
AcDbLine
 10
133.0982170539224
 20
72.49229556810075
 30
0.0
 11
133.0982170539224
 21
86.99229556810099
 31
0.0
  0
LINE
  5
22D8
330
2
100
AcDbEntity
  8
0
100
AcDbLine
 10
135.0626831479891
 20
90.28035479097582
 30
0.0
 11
143.6362762767963
 21
81.70676166216834
 31
0.0
  0
LINE
  5
22D9
330
2
100
AcDbEntity
  8
0
100
AcDbLine
 10
133.6484695856157
 20
88.86614122860271
 30
0.0
 11
142.2220627144239
 21
80.29254809979523
 31
0.0
  0
LINE
  5
22DA
330
2
100
AcDbEntity
  8
0
100
AcDbLine
 10
131.0982170539215
 20
80.89699610648052
 30
0.0
 11
131.0982170539215
 21
78.58759502972214
 31
0.0
  0
LINE
  5
22DB
330
2
100
AcDbEntity
  8
0
100
AcDbLine
 10
133.0982170539215
 20
82.05169664485982
 30
0.0
 11
135.0982170539215
 21
80.89699610648052
 31
0.0
  0
LINE
  5
22DC
330
2
100
AcDbEntity
  8
0
100
AcDbLine
 10
135.0982170539215
 20
78.58759502972191
 30
0.0
 11
133.0982170539215
 21
77.43289449134284
 31
0.0
  0
LINE
  5
22DD
330
2
100
AcDbEntity
  8
0
100
AcDbLine
 10
135.0982170539215
 20
80.89699610648052
 30
0.0
 11
135.0982170539215
 21
78.58759502972191
 31
0.0
  0
LINE
  5
22DE
330
2
100
AcDbEntity
  8
0
100
AcDbLine
 10
133.0982170539215
 20
82.05169664485959
 30
0.0
 11
131.0982170539215
 21
80.89699610648052
 31
0.0
  0
LINE
  5
22DF
330
2
100
AcDbEntity
  8
0
100
AcDbLine
 10
131.0982170539215
 20
78.58759502972214
 30
0.0
 11
133.0982170539215
 21
77.43289449134284
 31
0.0
  0
LINE
  5
22E0
330
2
100
AcDbEntity
  8
0
100
AcDbLine
 10
145.2583930209035
 20
80.62289790554439
 30
0.0
 11
144.4930261561736
 21
78.77513884052167
 31
0.0
  0
ARC
  5
22E1
330
2
100
AcDbEntity
  8
0
100
AcDbCircle
 10
147.1718101827288
 20
85.24229556810098
 30
0.0
 40
5.0
100
AcDbArc
 50
224.9999999999792
 51
270.0
  0
ARC
  5
22E2
330
2
100
AcDbEntity
  8
0
100
AcDbCircle
 10
147.1718101827288
 20
85.24229556810098
 30
0.0
 40
7.0
100
AcDbArc
 50
224.9999999999792
 51
270.0
  0
LINE
  5
22E3
330
2
100
AcDbEntity
  8
0
100
AcDbLine
 10
136.0982170539224
 20
74.74229556810121
 30
0.0
 11
133.4682170539232
 21
74.74229556810121
 31
0.0
  0
ARC
  5
22E4
330
2
100
AcDbEntity
  8
0
100
AcDbCircle
 10
136.0982170539215
 20
79.74229556810371
 30
0.0
 40
5.0
100
AcDbArc
 50
270.0
 51
283.841824318421
  0
LINE
  5
22E5
330
2
100
AcDbEntity
  8
0
100
AcDbLine
 10
136.0982170539215
 20
74.74229556810371
 30
0.0
 11
133.0982170539215
 21
74.74229556810371
 31
0.0
  0
ARC
  5
22E6
330
2
100
AcDbEntity
  8
0
100
AcDbCircle
 10
144.4716973739401
 20
45.75869912319729
 30
0.0
 40
30.0
100
AcDbArc
 50
84.07091451212343
 51
103.841824318421
  0
LINE
  5
22E7
330
2
100
AcDbEntity
  8
0
100
AcDbLine
 10
133.9788193913651
 20
91.902471535083
 30
0.0
 11
132.1310603263424
 21
91.13710467035264
 31
0.0
  0
ARC
  5
22E8
330
2
100
AcDbEntity
  8
0
100
AcDbCircle
 10
138.5982170539215
 20
93.81588869690871
 30
0.0
 40
5.0
100
AcDbArc
 50
180.0
 51
224.9999999999792
  0
ARC
  5
22E9
330
2
100
AcDbEntity
  8
0
100
AcDbCircle
 10
138.5982170539215
 20
93.81588869690871
 30
0.0
 40
7.0
100
AcDbArc
 50
180.0
 51
224.9999999999792
  0
LINE
  5
22EA
330
2
100
AcDbEntity
  8
0
100
AcDbLine
 10
182.9380410869404
 20
80.62289790554439
 30
0.0
 11
183.7034079516703
 21
78.77513884052189
 31
0.0
  0
ARC
  5
22EB
330
2
100
AcDbEntity
  8
0
100
AcDbCircle
 10
181.0246239251142
 20
85.24229556810098
 30
0.0
 40
7.0
100
AcDbArc
 50
270.0
 51
315.0000000000206
  0
ARC
  5
22EC
330
2
100
AcDbEntity
  8
0
100
AcDbCircle
 10
181.0246239251142
 20
85.24229556810098
 30
0.0
 40
5.0
100
AcDbArc
 50
270.0
 51
315.0000000000206
  0
ARC
  5
22ED
330
2
100
AcDbEntity
  8
0
100
AcDbCircle
 10
183.7247367339037
 20
45.75869912319729
 30
0.0
 40
30.0
100
AcDbArc
 50
76.15817568157897
 51
95.92908548787658
  0
ARC
  5
22EE
330
2
100
AcDbEntity
  8
0
100
AcDbCircle
 10
192.0982170539215
 20
79.74229556810371
 30
0.0
 40
5.0
100
AcDbArc
 50
256.1581756815789
 51
270.0
  0
LINE
  5
22EF
330
2
100
AcDbEntity
  8
0
100
AcDbLine
 10
127.5982170539215
 20
101.4686770726053
 30
0.0
 11
127.5982170539215
 21
120.015914063597
 31
0.0
  0
LINE
  5
22F0
330
2
100
AcDbEntity
  8
CENTER
100
AcDbLine
 10
127.4250119731638
 20
135.2422955680998
 30
0.0
 11
137.7714221346783
 21
135.2422955681003
 31
0.0
  0
ARC
  5
22F1
330
2
100
AcDbEntity
  8
0
100
AcDbCircle
 10
125.0982170539215
 20
136.2422955681009
 30
0.0
 40
3.0
100
AcDbArc
 50
270.0
 51
0.0
  0
LINE
  5
22F2
330
2
100
AcDbEntity
  8
0
100
AcDbLine
 10
133.9788193913651
 20
129.5821196011189
 30
0.0
 11
132.1310603263424
 21
130.3474864658491
 31
0.0
  0
ARC
  5
22F3
330
2
100
AcDbEntity
  8
0
100
AcDbCircle
 10
138.5982170539215
 20
127.6687024392937
 30
0.0
 40
7.0
100
AcDbArc
 50
135.0000000000207
 51
180.0
  0
ARC
  5
22F4
330
2
100
AcDbEntity
  8
0
100
AcDbCircle
 10
138.5982170539215
 20
127.6687024392937
 30
0.0
 40
5.0
100
AcDbArc
 50
135.0000000000207
 51
180.0
  0
LINE
  5
22F5
330
2
100
AcDbEntity
  8
0
100
AcDbLine
 10
196.5982170539224
 20
93.81588869690871
 30
0.0
 11
196.5982170539224
 21
127.6687024392937
 31
0.0
  0
LINE
  5
22F6
330
2
100
AcDbEntity
  8
0
100
AcDbLine
 10
194.5982170539224
 20
93.81588869690871
 30
0.0
 11
194.5982170539224
 21
127.6687024392937
 31
0.0
  0
ARC
  5
22F7
330
2
100
AcDbEntity
  8
0
100
AcDbCircle
 10
40.09821705392153
 20
110.7422955681039
 30
0.0
 40
160.0
100
AcDbArc
 50
354.0709145121496
 51
5.92908548785031
  0
LINE
  5
22F8
330
2
100
AcDbEntity
  8
0
100
AcDbLine
 10
195.0982170539215
 20
82.05169664485982
 30
0.0
 11
193.0982170539215
 21
80.89699610648052
 31
0.0
  0
LINE
  5
22F9
330
2
100
AcDbEntity
  8
0
100
AcDbLine
 10
193.0982170539215
 20
78.58759502972191
 30
0.0
 11
195.0982170539215
 21
77.43289449134284
 31
0.0
  0
ARC
  5
22FA
330
2
100
AcDbEntity
  8
0
100
AcDbCircle
 10
189.5982170539215
 20
93.81588869690871
 30
0.0
 40
5.0
100
AcDbArc
 50
315.0000000000206
 51
0.0
  0
CIRCLE
  5
22FB
330
2
100
AcDbEntity
  8
HOJO
100
AcDbCircle
 10
195.5982170539215
 20
86.24229556810144
 30
0.0
 40
2.0
  0
LINE
  5
22FC
330
2
100
AcDbEntity
  8
0
100
AcDbLine
 10
193.0982170539215
 20
80.89699610648052
 30
0.0
 11
193.0982170539215
 21
78.58759502972191
 31
0.0
  0
ARC
  5
22FD
330
2
100
AcDbEntity
  8
0
100
AcDbCircle
 10
195.0982170539215
 20
79.74229556812531
 30
0.0
 40
5.0
100
AcDbArc
 50
270.0
 51
0.0
  0
LINE
  5
22FE
330
2
100
AcDbEntity
  8
CENTER
100
AcDbLine
 10
195.5982170539215
 20
81.0690904873444
 30
0.0
 11
195.5982170539215
 21
91.41550064885848
 31
0.0
  0
LINE
  5
22FF
330
2
100
AcDbEntity
  8
CENTER
100
AcDbLine
 10
195.0982170539215
 20
72.49229556810099
 30
0.0
 11
195.0982170539215
 21
86.99229556810122
 31
0.0
  0
LINE
  5
2300
330
2
100
AcDbEntity
  8
0
100
AcDbLine
 10
197.0982170539215
 20
80.89699610648052
 30
0.0
 11
197.0982170539215
 21
78.58759502972214
 31
0.0
  0
LINE
  5
2301
330
2
100
AcDbEntity
  8
0
100
AcDbLine
 10
195.0982170539215
 20
82.05169664485959
 30
0.0
 11
197.0982170539215
 21
80.89699610648052
 31
0.0
  0
LINE
  5
2302
330
2
100
AcDbEntity
  8
0
100
AcDbLine
 10
197.0982170539215
 20
78.58759502972214
 30
0.0
 11
195.0982170539215
 21
77.43289449134284
 31
0.0
  0
LINE
  5
2303
330
2
100
AcDbEntity
  8
0
100
AcDbLine
 10
194.2176147164787
 20
91.90247153508323
 30
0.0
 11
196.0653737815015
 21
91.13710467035309
 31
0.0
  0
ARC
  5
2304
330
2
100
AcDbEntity
  8
0
100
AcDbCircle
 10
189.5982170539215
 20
93.81588869690871
 30
0.0
 40
7.0
100
AcDbArc
 50
315.0000000000206
 51
0.0
  0
CIRCLE
  5
2305
330
2
100
AcDbEntity
  8
0
100
AcDbCircle
 10
195.5982170539215
 20
86.24229556810144
 30
0.0
 40
1.6
  0
ARC
  5
2306
330
2
100
AcDbEntity
  8
0
100
AcDbCircle
 10
195.0982170539215
 20
82.74229556810372
 30
0.0
 40
5.0
100
AcDbArc
 50
0.0
 51
13.84182431842025
  0
LINE
  5
2307
330
2
100
AcDbEntity
  8
0
100
AcDbLine
 10
200.0982170539215
 20
82.74229556810372
 30
0.0
 11
200.0982170539215
 21
79.74229556812531
 31
0.0
  0
ARC
  5
2308
330
2
100
AcDbEntity
  8
0
100
AcDbCircle
 10
229.0818134988281
 20
91.1157758881219
 30
0.0
 40
30.0
100
AcDbArc
 50
174.0709145121497
 51
193.8418243184202
  0
ARC
  5
2309
330
2
100
AcDbEntity
  8
0
100
AcDbCircle
 10
189.5982170539215
 20
127.6687024392937
 30
0.0
 40
5.0
100
AcDbArc
 50
0.0
 51
44.99999999997927
  0
LINE
  5
230A
330
2
100
AcDbEntity
  8
0
100
AcDbLine
 10
194.2176147164787
 20
129.5821196011191
 30
0.0
 11
196.0653737815015
 21
130.3474864658493
 31
0.0
  0
ARC
  5
230B
330
2
100
AcDbEntity
  8
0
100
AcDbCircle
 10
189.5982170539215
 20
127.6687024392937
 30
0.0
 40
7.0
100
AcDbArc
 50
0.0
 51
44.99999999997927
  0
CIRCLE
  5
230C
330
2
100
AcDbEntity
  8
0
100
AcDbCircle
 10
195.0982170539206
 20
141.7422955680996
 30
0.0
 40
3.730384757729268
  0
CIRCLE
  5
230D
330
2
100
AcDbEntity
  8
0
100
AcDbCircle
 10
195.0982170539206
 20
141.7422955680996
 30
0.0
 40
4.250000000000085
  0
LINE
  5
230E
330
2
100
AcDbEntity
  8
CENTER
100
AcDbLine
 10
202.3482170539206
 20
141.7422955681018
 30
0.0
 11
187.8482170539206
 21
141.7422955681012
 31
0.0
  0
LINE
  5
230F
330
2
100
AcDbEntity
  8
0
100
AcDbLine
 10
192.0982170539215
 20
146.7422955681039
 30
0.0
 11
195.0982170539215
 21
146.7422955681039
 31
0.0
  0
LINE
  5
2310
330
2
100
AcDbEntity
  8
0
100
AcDbLine
 10
147.1718101827288
 20
141.2422955681012
 30
0.0
 11
181.0246239251142
 21
141.2422955681012
 31
0.0
  0
LINE
  5
2311
330
2
100
AcDbEntity
  8
0
100
AcDbLine
 10
147.1718101827288
 20
143.2422955681012
 30
0.0
 11
181.0246239251142
 21
143.2422955681014
 31
0.0
  0
ARC
  5
2312
330
2
100
AcDbEntity
  8
0
100
AcDbCircle
 10
164.0982170539188
 20
-13.25770443189947
 30
0.0
 40
160.0
100
AcDbArc
 50
84.07091451212343
 51
95.92908548787658
  0
ARC
  5
2313
330
2
100
AcDbEntity
  8
0
100
AcDbCircle
 10
133.4682170539214
 20
141.7422955681012
 30
0.0
 40
5.0
100
AcDbArc
 50
90.0
 51
180.0
  0
LINE
  5
2314
330
2
100
AcDbEntity
  8
CENTER
100
AcDbLine
 10
125.8482170539224
 20
141.7422955681023
 30
0.0
 11
140.3482170539233
 21
141.7422955681016
 31
0.0
  0
ARC
  5
2315
330
2
100
AcDbEntity
  8
0
100
AcDbCircle
 10
133.0982170539215
 20
141.7422955681255
 30
0.0
 40
5.0
100
AcDbArc
 50
90.0
 51
180.0
  0
LINE
  5
2316
330
2
100
AcDbEntity
  8
0
100
AcDbLine
 10
133.0982170539233
 20
144.0516966448582
 30
0.0
 11
135.0982170539233
 21
142.8969961064789
 31
0.0
  0
LINE
  5
2317
330
2
100
AcDbEntity
  8
0
100
AcDbLine
 10
133.0982170539233
 20
144.0516966448579
 30
0.0
 11
131.0982170539233
 21
142.8969961064789
 31
0.0
  0
ARC
  5
2318
330
2
100
AcDbEntity
  8
0
100
AcDbCircle
 10
147.1718101827288
 20
136.2422955681014
 30
0.0
 40
7.0
100
AcDbArc
 50
90.0
 51
135.0000000000207
  0
LINE
  5
2319
330
2
100
AcDbEntity
  8
0
100
AcDbLine
 10
136.0982170539224
 20
146.7422955681012
 30
0.0
 11
133.4682170539214
 21
146.7422955681012
 31
0.0
  0
ARC
  5
231A
330
2
100
AcDbEntity
  8
0
100
AcDbCircle
 10
136.0982170539215
 20
141.7422955681039
 30
0.0
 40
5.0
100
AcDbArc
 50
76.15817568157897
 51
90.0
  0
LINE
  5
231B
330
2
100
AcDbEntity
  8
0
100
AcDbLine
 10
136.0982170539215
 20
146.7422955681039
 30
0.0
 11
133.0982170539215
 21
146.7422955681039
 31
0.0
  0
ARC
  5
231C
330
2
100
AcDbEntity
  8
0
100
AcDbCircle
 10
144.4716973739401
 20
175.7258920130103
 30
0.0
 40
30.0
100
AcDbArc
 50
256.1581756815789
 51
275.9290854878765
  0
LINE
  5
231D
330
2
100
AcDbEntity
  8
0
100
AcDbLine
 10
135.0982170539233
 20
140.5875950297203
 30
0.0
 11
133.0982170539233
 21
139.4328944913412
 31
0.0
  0
LINE
  5
231E
330
2
100
AcDbEntity
  8
0
100
AcDbLine
 10
131.0982170539233
 20
140.5875950297205
 30
0.0
 11
133.0982170539233
 21
139.4328944913412
 31
0.0
  0
ARC
  5
231F
330
2
100
AcDbEntity
  8
0
100
AcDbCircle
 10
125.0982170539215
 20
141.2422955680966
 30
0.0
 40
3.0
100
AcDbArc
 50
270.0
 51
0.0
  0
LINE
  5
2320
330
2
100
AcDbEntity
  8
0
100
AcDbLine
 10
131.0982170539233
 20
142.8969961064789
 30
0.0
 11
131.0982170539233
 21
140.5875950297205
 31
0.0
  0
LINE
  5
2321
330
2
100
AcDbEntity
  8
0
100
AcDbLine
 10
135.0982170539233
 20
142.8969961064789
 30
0.0
 11
135.0982170539233
 21
140.5875950297203
 31
0.0
  0
CIRCLE
  5
2322
330
2
100
AcDbEntity
  8
0
100
AcDbCircle
 10
133.0982170539233
 20
141.7422955680996
 30
0.0
 40
3.730384757729268
  0
CIRCLE
  5
2323
330
2
100
AcDbEntity
  8
0
100
AcDbCircle
 10
133.0982170539233
 20
141.7422955680996
 30
0.0
 40
4.250000000000085
  0
LINE
  5
2324
330
2
100
AcDbEntity
  8
0
100
AcDbLine
 10
145.2583930209035
 20
140.8616932306575
 30
0.0
 11
144.4930261561736
 21
142.70945229568
 31
0.0
  0
ARC
  5
2325
330
2
100
AcDbEntity
  8
0
100
AcDbCircle
 10
147.1718101827288
 20
136.2422955681014
 30
0.0
 40
5.0
100
AcDbArc
 50
90.0
 51
135.0000000000207
  0
ARC
  5
2326
330
2
100
AcDbEntity
  8
0
100
AcDbCircle
 10
181.0246239251142
 20
136.2422955681014
 30
0.0
 40
7.0
100
AcDbArc
 50
44.99999999997927
 51
90.0
  0
ARC
  5
2327
330
2
100
AcDbEntity
  8
0
100
AcDbCircle
 10
192.0982170539215
 20
141.7422955681039
 30
0.0
 40
5.0
100
AcDbArc
 50
90.0
 51
103.841824318421
  0
ARC
  5
2328
330
2
100
AcDbEntity
  8
0
100
AcDbCircle
 10
183.7247367339037
 20
175.7258920130103
 30
0.0
 40
30.0
100
AcDbArc
 50
264.0709145121234
 51
283.841824318421
  0
LINE
  5
2329
330
2
100
AcDbEntity
  8
0
100
AcDbLine
 10
182.9380410869404
 20
140.8616932306578
 30
0.0
 11
183.7034079516703
 21
142.7094522956803
 31
0.0
  0
ARC
  5
232A
330
2
100
AcDbEntity
  8
0
100
AcDbCircle
 10
181.0246239251142
 20
136.2422955681014
 30
0.0
 40
5.0
100
AcDbArc
 50
44.99999999997927
 51
90.0
  0
LINE
  5
232B
330
2
100
AcDbEntity
  8
0
100
AcDbLine
 10
195.0982170539197
 20
144.0516966448582
 30
0.0
 11
193.0982170539206
 21
142.8969961064789
 31
0.0
  0
ARC
  5
232C
330
2
100
AcDbEntity
  8
0
100
AcDbCircle
 10
195.0982170539215
 20
141.7422955681253
 30
0.0
 40
5.0
100
AcDbArc
 50
0.0
 51
90.0
  0
LINE
  5
232D
330
2
100
AcDbEntity
  8
0
100
AcDbLine
 10
195.0982170539197
 20
144.0516966448579
 30
0.0
 11
197.0982170539206
 21
142.8969961064789
 31
0.0
  0
LINE
  5
232E
330
2
100
AcDbEntity
  8
0
100
AcDbLine
 10
193.0982170539206
 20
140.5875950297203
 30
0.0
 11
195.0982170539197
 21
139.4328944913412
 31
0.0
  0
LINE
  5
232F
330
2
100
AcDbEntity
  8
0
100
AcDbLine
 10
197.0982170539206
 20
140.5875950297205
 30
0.0
 11
195.0982170539206
 21
139.4328944913412
 31
0.0
  0
ARC
  5
2330
330
2
100
AcDbEntity
  8
0
100
AcDbCircle
 10
195.0982170539215
 20
138.7422955681041
 30
0.0
 40
5.0
100
AcDbArc
 50
346.1581756815797
 51
0.0
  0
LINE
  5
2331
330
2
100
AcDbEntity
  8
0
100
AcDbLine
 10
193.0982170539206
 20
142.8969961064789
 30
0.0
 11
193.0982170539206
 21
140.5875950297203
 31
0.0
  0
LINE
  5
2332
330
2
100
AcDbEntity
  8
0
100
AcDbLine
 10
197.0982170539206
 20
142.8969961064789
 30
0.0
 11
197.0982170539206
 21
140.5875950297205
 31
0.0
  0
LINE
  5
2333
330
2
100
AcDbEntity
  8
0
100
AcDbLine
 10
200.0982170539215
 20
138.7422955681041
 30
0.0
 11
200.0982170539215
 21
141.7422955681253
 31
0.0
  0
LINE
  5
2338
330
2
100
AcDbEntity
  8
CENTER
100
AcDbLine
 10
257.9715760977312
 20
110.7422955681021
 30
0.0
 11
403.9715760980254
 21
110.742295568102
 31
0.0
  0
LINE
  5
233D
330
2
100
AcDbEntity
  8
CENTER
100
AcDbLine
 10
305.971576098025
 20
64.24229556810383
 30
0.0
 11
305.971576098025
 21
157.2422955681003
 31
0.0
  0
ARC
  5
233E
330
2
100
AcDbEntity
  8
0
100
AcDbCircle
 10
350.9715760980282
 20
137.1276431211002
 30
0.0
 40
2.0
100
AcDbArc
 50
180.0
 51
267.9999999999963
  0
LINE
  5
233F
330
2
100
AcDbEntity
  8
0
100
AcDbLine
 10
269.9715760980209
 20
141.8112577827149
 30
0.0
 11
269.9715760980209
 21
133.7422955681029
 31
0.0
  0
LINE
  5
2340
330
2
100
AcDbEntity
  8
0
100
AcDbLine
 10
276.4715760977253
 20
137.4922955680936
 30
0.0
 11
276.4715760977253
 21
83.99229556811048
 31
0.0
  0
LINE
  5
2341
330
2
100
AcDbEntity
  8
0
100
AcDbLine
 10
278.4715760977253
 20
145.9922955680932
 30
0.0
 11
278.4715760977253
 21
75.49229556811048
 31
0.0
  0
LINE
  5
2342
330
2
100
AcDbEntity
  8
0
100
AcDbLine
 10
284.9715760977299
 20
146.7379321341891
 30
0.0
 11
284.9715760977299
 21
74.746659002022
 31
0.0
  0
LINE
  5
2343
330
2
100
AcDbEntity
  8
0
100
AcDbLine
 10
348.9715760980245
 20
80.74229556810548
 30
0.0
 11
348.9715760980245
 21
140.7422955681052
 31
0.0
  0
LINE
  5
2344
330
2
100
AcDbEntity
  8
0
100
AcDbLine
 10
343.9715760980254
 20
75.25718076773461
 30
0.0
 11
343.9715760980263
 21
146.2274103684626
 31
0.0
  0
LINE
  5
2345
330
2
100
AcDbEntity
  8
0
100
AcDbLine
 10
343.9715760980263
 20
127.2698910880984
 30
0.0
 11
284.9715760977299
 21
127.2698910880984
 31
0.0
  0
LINE
  5
2346
330
2
100
AcDbEntity
  8
0
100
AcDbLine
 10
343.9715760980263
 20
94.21470004810572
 30
0.0
 11
284.9715760977299
 21
94.21470004810572
 31
0.0
  0
LINE
  5
2347
330
2
100
AcDbEntity
  8
0
100
AcDbLine
 10
343.9715760980263
 20
79.74229556811048
 30
0.0
 11
284.9715760977299
 21
79.74229556811048
 31
0.0
  0
LINE
  5
2348
330
2
100
AcDbEntity
  8
0
100
AcDbLine
 10
343.9715760980263
 20
82.74229556808865
 30
0.0
 11
284.9715760977299
 21
82.74229556808865
 31
0.0
  0
LINE
  5
2349
330
2
100
AcDbEntity
  8
0
100
AcDbLine
 10
284.9715760977299
 20
74.74229556810207
 30
0.0
 11
343.9715760980254
 21
75.25718076773461
 31
0.0
  0
LINE
  5
234A
330
2
100
AcDbEntity
  8
0
100
AcDbLine
 10
337.0410138454692
 20
74.67381553681736
 30
0.0
 11
305.9715760980227
 21
74.24229556810388
 31
0.0
  0
LINE
  5
234B
330
2
100
AcDbEntity
  8
0
100
AcDbLine
 10
268.9715760977299
 20
133.7422955681029
 30
0.0
 11
268.9715760977307
 21
87.74229556810116
 31
0.0
  0
LINE
  5
234C
330
2
100
AcDbEntity
  8
0
100
AcDbLine
 10
267.9715760977298
 20
133.1649452989138
 30
0.0
 11
267.9715760977317
 21
88.31964583729002
 31
0.0
  0
LINE
  5
234D
330
2
100
AcDbEntity
  8
0
100
AcDbLine
 10
275.9715760977308
 20
130.6375518818243
 30
0.0
 11
275.9715760977308
 21
90.84703925437958
 31
0.0
  0
LINE
  5
234E
330
2
100
AcDbEntity
  8
0
100
AcDbLine
 10
270.4715760977299
 20
87.94229556810142
 30
0.0
 11
270.4715760977808
 21
133.5422955681027
 31
0.0
  0
LINE
  5
234F
330
2
100
AcDbEntity
  8
0
100
AcDbLine
 10
272.4715760977299
 20
87.94229556810165
 30
0.0
 11
272.4715760977299
 21
133.5422955681027
 31
0.0
  0
LINE
  5
2350
330
2
100
AcDbEntity
  8
0
100
AcDbLine
 10
275.9715760977244
 20
135.7422955680966
 30
0.0
 11
275.9715760977298
 21
85.74229556810207
 31
0.0
  0
LINE
  5
2351
330
2
100
AcDbEntity
  8
0
100
AcDbLine
 10
274.902138350568
 20
74.67381553681645
 30
0.0
 11
305.9715760980209
 21
74.24229556810388
 31
0.0
  0
LINE
  5
2352
330
2
100
AcDbEntity
  8
HIDS
100
AcDbLine
 10
276.4715760977253
 20
83.99229556811048
 30
0.0
 11
276.4715760977253
 21
81.07072269284804
 31
0.0
  0
LINE
  5
2353
330
2
100
AcDbEntity
  8
0
100
AcDbLine
 10
272.1715760977297
 20
83.47268032584002
 30
0.0
 11
272.1715760977297
 21
76.01191081038138
 31
0.0
  0
LINE
  5
2354
330
2
100
AcDbEntity
  8
0
100
AcDbLine
 10
272.4715760977299
 20
83.99229556811048
 30
0.0
 11
272.4715760977299
 21
75.49229556811048
 31
0.0
  0
LINE
  5
2355
330
2
100
AcDbEntity
  8
0
100
AcDbLine
 10
277.1715760977297
 20
83.99229556811048
 30
0.0
 11
277.1715760977297
 21
75.49229556811048
 31
0.0
  0
LINE
  5
2356
330
2
100
AcDbEntity
  8
0
100
AcDbLine
 10
269.9715760980209
 20
87.74229556810139
 30
0.0
 11
269.9715760980209
 21
79.67333335348922
 31
0.0
  0
LINE
  5
2357
330
2
100
AcDbEntity
  8
0
100
AcDbLine
 10
272.4715760977299
 20
75.49229556811048
 30
0.0
 11
272.1715760977297
 21
76.01191081038138
 31
0.0
  0
LINE
  5
2358
330
2
100
AcDbEntity
  8
0
100
AcDbLine
 10
272.4715760977299
 20
75.49229556811048
 30
0.0
 11
278.4715760977253
 21
75.49229556811048
 31
0.0
  0
LINE
  5
2359
330
2
100
AcDbEntity
  8
CENTER
  6
CENS
100
AcDbLine
 10
269.1715760977297
 20
79.74229556808456
 30
0.0
 11
288.7202775783264
 21
79.74229556808456
 31
0.0
  0
LINE
  5
235A
330
2
100
AcDbEntity
  8
0
100
AcDbLine
 10
284.9715760977299
 20
82.74229556808865
 30
0.0
 11
279.4628495622266
 21
82.74229556808865
 31
0.0
  0
LINE
  5
235B
330
2
100
AcDbEntity
  8
0
100
AcDbLine
 10
284.9715760977299
 20
79.74229556811048
 30
0.0
 11
279.4628495622266
 21
79.74229556808456
 31
0.0
  0
ARC
  5
235C
330
2
100
AcDbEntity
  8
HIDS
100
AcDbCircle
 10
276.4715760977253
 20
77.41386844335562
 30
0.0
 40
2.0
100
AcDbArc
 50
0.0
 51
45.0000000000069
  0
ARC
  5
235D
330
2
100
AcDbEntity
  8
HIDS
100
AcDbCircle
 10
278.4715760977253
 20
81.07072269284804
 30
0.0
 40
2.0
100
AcDbArc
 50
180.0
 51
225.0000000000069
  0
ARC
  5
235E
330
2
100
AcDbEntity
  8
0
100
AcDbCircle
 10
279.4715760977253
 20
75.79033125318443
 30
0.0
 40
1.0
100
AcDbArc
 50
180.0
 51
269.4999999999824
  0
LINE
  5
235F
330
2
100
AcDbEntity
  8
0
100
AcDbLine
 10
284.9715380200698
 20
74.74229573424833
 30
0.0
 11
279.4628495622266
 21
74.79036933012054
 31
0.0
  0
LINE
  5
2360
330
2
100
AcDbEntity
  8
HIDS
100
AcDbLine
 10
277.057362535352
 20
79.65650913047494
 30
0.0
 11
277.8857896600986
 21
78.82808200572873
 31
0.0
  0
ARC
  5
2361
330
2
100
AcDbEntity
  8
0
100
AcDbCircle
 10
274.9715760980209
 20
79.67333335348922
 30
0.0
 40
5.0
100
AcDbArc
 50
180.0
 51
269.2042764472296
  0
LINE
  5
2362
330
2
100
AcDbEntity
  8
0
100
AcDbLine
 10
272.4715760977299
 20
83.99229556811048
 30
0.0
 11
272.1715760977297
 21
83.47268032584002
 31
0.0
  0
LINE
  5
2363
330
2
100
AcDbEntity
  8
0
100
AcDbLine
 10
272.4715760977299
 20
83.99229556811048
 30
0.0
 11
278.4715760977298
 21
83.99229556811048
 31
0.0
  0
LINE
  5
2364
330
2
100
AcDbEntity
  8
0
100
AcDbLine
 10
284.9715760977299
 20
94.21470004810572
 30
0.0
 11
279.4628495622266
 21
94.21470004810595
 31
0.0
  0
ARC
  5
2365
330
2
100
AcDbEntity
  8
0
100
AcDbCircle
 10
272.2715760977291
 20
88.24229556810161
 30
0.0
 40
0.2
100
AcDbArc
 50
0.0
 51
90.0
  0
ARC
  5
2366
330
2
100
AcDbEntity
  8
0
100
AcDbCircle
 10
270.6715760977297
 20
88.24229556810138
 30
0.0
 40
0.2
100
AcDbArc
 50
90.0
 51
179.9999999999218
  0
ARC
  5
2367
330
2
100
AcDbEntity
  8
0
100
AcDbCircle
 10
270.2715760977291
 20
87.94229556810142
 30
0.0
 40
0.2
100
AcDbArc
 50
270.0
 51
359.9999999999218
  0
LINE
  5
2368
330
2
100
AcDbEntity
  8
0
100
AcDbLine
 10
268.9715760977299
 20
87.74229556810116
 30
0.0
 11
270.2715760977291
 21
87.7422955681016
 31
0.0
  0
LINE
  5
2369
330
2
100
AcDbEntity
  8
0
100
AcDbLine
 10
268.9715760977299
 20
87.74229556810116
 30
0.0
 11
267.9715760977298
 21
88.31964583729092
 31
0.0
  0
LINE
  5
236A
330
2
100
AcDbEntity
  8
0
100
AcDbLine
 10
272.6715760977297
 20
87.7422955681016
 30
0.0
 11
275.9715760977298
 21
87.74229556810206
 31
0.0
  0
LINE
  5
236B
330
2
100
AcDbEntity
  8
0
100
AcDbLine
 10
272.4715760977299
 20
87.94229556810165
 30
0.0
 11
272.6715760977297
 21
87.7422955681016
 31
0.0
  0
LINE
  5
236C
330
2
100
AcDbEntity
  8
0
100
AcDbLine
 10
270.6715760977297
 20
88.44229556810143
 30
0.0
 11
272.2715760977291
 21
88.44229556810166
 31
0.0
  0
LINE
  5
236D
330
2
100
AcDbEntity
  8
0
100
AcDbLine
 10
276.4715760977244
 20
85.24229556810752
 30
0.0
 11
276.4715760977244
 21
83.99229556811048
 31
0.0
  0
LINE
  5
236E
330
2
100
AcDbEntity
  8
0
100
AcDbLine
 10
276.4715760977299
 20
85.24229556810253
 30
0.0
 11
275.9715760977298
 21
85.74229556810207
 31
0.0
  0
LINE
  5
236F
330
2
100
AcDbEntity
  8
0
100
AcDbLine
 10
284.9715760977299
 20
127.2698910880984
 30
0.0
 11
279.4628495622266
 21
127.2698910880981
 31
0.0
  0
ARC
  5
2370
330
2
100
AcDbEntity
  8
0
100
AcDbCircle
 10
272.2715760977291
 20
133.2422955681027
 30
0.0
 40
0.2
100
AcDbArc
 50
270.0
 51
0.0
  0
ARC
  5
2371
330
2
100
AcDbEntity
  8
0
100
AcDbCircle
 10
270.6715760977297
 20
133.2422955681029
 30
0.0
 40
0.2
100
AcDbArc
 50
180.0000000000521
 51
270.0
  0
ARC
  5
2372
330
2
100
AcDbEntity
  8
0
100
AcDbCircle
 10
270.2715760977291
 20
133.5422955681027
 30
0.0
 40
0.2
100
AcDbArc
 50
359.9999999999218
 51
90.0
  0
LINE
  5
2373
330
2
100
AcDbEntity
  8
0
100
AcDbLine
 10
276.4715760977299
 20
136.2422955681018
 30
0.0
 11
275.9715760977244
 21
135.7422955680966
 31
0.0
  0
LINE
  5
2374
330
2
100
AcDbEntity
  8
0
100
AcDbLine
 10
268.9715760977299
 20
133.7422955681029
 30
0.0
 11
270.2715760977291
 21
133.7422955681029
 31
0.0
  0
LINE
  5
2375
330
2
100
AcDbEntity
  8
0
100
AcDbLine
 10
268.9715760977299
 20
133.7422955681029
 30
0.0
 11
267.9715760977298
 21
133.1649452989134
 31
0.0
  0
LINE
  5
2376
330
2
100
AcDbEntity
  8
0
100
AcDbLine
 10
272.6715760977297
 20
133.7422955681027
 30
0.0
 11
275.9715760977298
 21
133.7422955681022
 31
0.0
  0
LINE
  5
2377
330
2
100
AcDbEntity
  8
0
100
AcDbLine
 10
272.4715760977299
 20
133.5422955681027
 30
0.0
 11
272.6715760977297
 21
133.7422955681027
 31
0.0
  0
LINE
  5
2378
330
2
100
AcDbEntity
  8
0
100
AcDbLine
 10
270.6715760977297
 20
133.0422955681029
 30
0.0
 11
272.2715760977291
 21
133.0422955681026
 31
0.0
  0
LINE
  5
2379
330
2
100
AcDbEntity
  8
0
100
AcDbLine
 10
361.9715760980282
 20
88.67367311770824
 30
0.0
 11
361.9715760980282
 21
132.8109180184804
 31
0.0
  0
LINE
  5
237A
330
2
100
AcDbEntity
  8
0
100
AcDbLine
 10
350.901777104623
 20
86.35572966912542
 30
0.0
 11
360.0413750914333
 21
86.67489146367035
 31
0.0
  0
ARC
  5
237B
330
2
100
AcDbEntity
  8
0
100
AcDbCircle
 10
336.9715760980154
 20
79.67333335349014
 30
0.0
 40
5.0
100
AcDbArc
 50
270.7957235527183
 51
297.0504175270652
  0
LINE
  5
237C
330
2
100
AcDbEntity
  8
0
100
AcDbLine
 10
343.9715760980245
 20
80.74229556810548
 30
0.0
 11
348.9715760980245
 21
80.74229556810548
 31
0.0
  0
ARC
  5
237D
330
2
100
AcDbEntity
  8
0
100
AcDbCircle
 10
350.9715760980282
 20
84.35694801508754
 30
0.0
 40
2.0
100
AcDbArc
 50
92.00000000000361
 51
180.0
  0
ARC
  5
237E
330
2
100
AcDbEntity
  8
0
100
AcDbCircle
 10
359.9715760980282
 20
88.67367311770824
 30
0.0
 40
2.0
100
AcDbArc
 50
272.0000000000035
 51
0.0
  0
LINE
  5
237F
330
2
100
AcDbEntity
  8
0
100
AcDbLine
 10
350.901777104623
 20
135.1288614670623
 30
0.0
 11
360.0413750914333
 21
134.8096996725183
 31
0.0
  0
ARC
  5
2380
330
2
100
AcDbEntity
  8
0
100
AcDbCircle
 10
359.9715760980282
 20
132.8109180184804
 30
0.0
 40
2.0
100
AcDbArc
 50
0.0
 51
87.9999999999964
  0
LINE
  5
238C
330
2
100
AcDbEntity
  8
0
100
AcDbLine
 10
343.9715760980263
 20
141.7422955680936
 30
0.0
 11
284.9715760977299
 21
141.7422955680936
 31
0.0
  0
LINE
  5
238D
330
2
100
AcDbEntity
  8
0
100
AcDbLine
 10
343.9715760980263
 20
138.7422955681154
 30
0.0
 11
284.9715760977299
 21
138.7422955681154
 31
0.0
  0
LINE
  5
238E
330
2
100
AcDbEntity
  8
0
100
AcDbLine
 10
284.9715760977299
 20
146.7422955681018
 30
0.0
 11
343.9715760980263
 21
146.2274103684626
 31
0.0
  0
LINE
  5
238F
330
2
100
AcDbEntity
  8
0
100
AcDbLine
 10
337.0410138454692
 20
146.8107755993867
 30
0.0
 11
305.9715760980227
 21
147.2422955681002
 31
0.0
  0
LINE
  5
2391
330
2
100
AcDbEntity
  8
0
100
AcDbLine
 10
274.902138350568
 20
146.8107755993876
 30
0.0
 11
305.9715760980209
 21
147.2422955681002
 31
0.0
  0
LINE
  5
2392
330
2
100
AcDbEntity
  8
0
100
AcDbLine
 10
284.9715760977299
 20
141.7422955680936
 30
0.0
 11
279.4628495622266
 21
141.7422955681154
 31
0.0
  0
LINE
  5
2393
330
2
100
AcDbEntity
  8
0
100
AcDbLine
 10
272.4715760977299
 20
145.9922955680936
 30
0.0
 11
272.1715760977297
 21
145.4726803258227
 31
0.0
  0
LINE
  5
2394
330
2
100
AcDbEntity
  8
0
100
AcDbLine
 10
272.4715760977299
 20
145.9922955680936
 30
0.0
 11
278.4715760977253
 21
145.9922955680932
 31
0.0
  0
LINE
  5
2395
330
2
100
AcDbEntity
  8
CENTER
  6
CENS
100
AcDbLine
 10
269.1715760977297
 20
141.7422955681195
 30
0.0
 11
288.7202775783264
 21
141.7422955681195
 31
0.0
  0
ARC
  5
2396
330
2
100
AcDbEntity
  8
0
100
AcDbCircle
 10
279.4715760977253
 20
145.6942598830196
 30
0.0
 40
1.0
100
AcDbArc
 50
90.50000000001761
 51
180.0
  0
ARC
  5
2397
330
2
100
AcDbEntity
  8
HIDS
100
AcDbCircle
 10
276.4715760977244
 20
144.0707226928485
 30
0.0
 40
2.0
100
AcDbArc
 50
314.999999999993
 51
0.0
  0
ARC
  5
2398
330
2
100
AcDbEntity
  8
0
100
AcDbCircle
 10
279.4715760977244
 20
145.742295568102
 30
0.0
 40
1.0
100
AcDbArc
 50
180.0
 51
180.0
  0
LINE
  5
2399
330
2
100
AcDbEntity
  8
0
100
AcDbLine
 10
284.9715380200698
 20
146.7422954019558
 30
0.0
 11
279.4628495622266
 21
146.694221806084
 31
0.0
  0
LINE
  5
239A
330
2
100
AcDbEntity
  8
HIDS
100
AcDbLine
 10
277.057362535352
 20
141.8280820057291
 30
0.0
 11
277.8857896600977
 21
142.6565091304754
 31
0.0
  0
ARC
  5
239B
330
2
100
AcDbEntity
  8
0
100
AcDbCircle
 10
274.9715760980209
 20
141.8112577827149
 30
0.0
 40
5.0
100
AcDbArc
 50
90.79572355271826
 51
180.0
  0
LINE
  5
239C
330
2
100
AcDbEntity
  8
HIDS
100
AcDbLine
 10
276.4715760977244
 20
140.413868443356
 30
0.0
 11
276.4715760977253
 21
137.4922955680936
 31
0.0
  0
LINE
  5
239D
330
2
100
AcDbEntity
  8
0
100
AcDbLine
 10
272.4715760977299
 20
137.4922955680936
 30
0.0
 11
272.1715760977297
 21
138.0119108103641
 31
0.0
  0
LINE
  5
239E
330
2
100
AcDbEntity
  8
0
100
AcDbLine
 10
272.4715760977299
 20
137.4922955680936
 30
0.0
 11
278.4715760977298
 21
137.4922955680936
 31
0.0
  0
LINE
  5
239F
330
2
100
AcDbEntity
  8
0
100
AcDbLine
 10
284.9715760977299
 20
138.7422955681154
 30
0.0
 11
279.4628495622266
 21
138.7422955681154
 31
0.0
  0
LINE
  5
23A0
330
2
100
AcDbEntity
  8
0
100
AcDbLine
 10
272.1715760977297
 20
138.0119108103641
 30
0.0
 11
272.1715760977297
 21
145.4726803258227
 31
0.0
  0
LINE
  5
23A1
330
2
100
AcDbEntity
  8
0
100
AcDbLine
 10
272.4715760977299
 20
137.4922955680936
 30
0.0
 11
272.4715760977299
 21
145.9922955680936
 31
0.0
  0
LINE
  5
23A2
330
2
100
AcDbEntity
  8
0
100
AcDbLine
 10
277.1715760977297
 20
137.4922955680936
 30
0.0
 11
277.1715760977297
 21
145.9922955680936
 31
0.0
  0
ARC
  5
23A3
330
2
100
AcDbEntity
  8
HIDS
100
AcDbCircle
 10
278.4715760977244
 20
140.413868443356
 30
0.0
 40
2.0
100
AcDbArc
 50
134.999999999993
 51
180.0
  0
ARC
  5
23A5
330
2
100
AcDbEntity
  8
0
100
AcDbCircle
 10
336.9715760980154
 20
141.8112577827139
 30
0.0
 40
5.0
100
AcDbArc
 50
62.94958247298872
 51
89.20427644728171
  0
LINE
  5
23A6
330
2
100
AcDbEntity
  8
0
100
AcDbLine
 10
343.9715760980245
 20
140.7422955681052
 30
0.0
 11
348.9715760980245
 21
140.7422955681052
 31
0.0
  0
LINE
  5
23A8
330
2
100
AcDbEntity
  8
CENTER
100
AcDbLine
 10
567.922771554167
 20
164.7422955680946
 30
0.0
 11
567.922771554167
 21
56.74229556809462
 31
0.0
  0
ARC
  5
23A9
330
2
100
AcDbEntity
  8
0
100
AcDbCircle
 10
502.9391751092604
 20
130.368815248073
 30
0.0
 40
30.0
100
AcDbArc
 50
354.0709145121496
 51
13.84182431842025
  0
LINE
  5
23AA
330
2
100
AcDbEntity
  8
CENTER
100
AcDbLine
 10
536.810073181961
 20
148.3549939403031
 30
0.0
 11
536.810073181961
 21
135.3549939403031
 31
0.0
  0
ARC
  5
23AF
330
2
100
AcDbEntity
  8
0
100
AcDbCircle
 10
691.922771554167
 20
110.7422955680912
 30
0.0
 40
160.0
100
AcDbArc
 50
174.0709145121497
 51
185.9290854878502
  0
ARC
  5
23B0
330
2
100
AcDbEntity
  8
0
100
AcDbCircle
 10
548.2962518741857
 20
45.75869912318455
 30
0.0
 40
30.0
100
AcDbArc
 50
84.07091451212343
 51
103.841824318421
  0
ARC
  5
23B1
330
2
100
AcDbEntity
  8
0
100
AcDbCircle
 10
536.922771554167
 20
82.74229556809098
 30
0.0
 40
5.0
100
AcDbArc
 50
166.1581756815797
 51
180.0
  0
LINE
  5
23B2
330
2
100
AcDbEntity
  8
CENTER
100
AcDbLine
 10
536.810073181961
 20
86.12959719588809
 30
0.0
 11
536.810073181961
 21
73.1295971958881
 31
0.0
  0
LINE
  5
23B3
330
2
100
AcDbEntity
  8
0
100
AcDbLine
 10
531.922771554167
 20
82.74229556809098
 30
0.0
 11
531.922771554167
 21
79.7422955680696
 31
0.0
  0
ARC
  5
23B4
330
2
100
AcDbEntity
  8
0
100
AcDbCircle
 10
536.922771554167
 20
79.7422955680696
 30
0.0
 40
5.0
100
AcDbArc
 50
180.0
 51
270.0
  0
LINE
  5
23B5
330
2
100
AcDbEntity
  8
0
100
AcDbLine
 10
539.9227715541671
 20
74.74229556809098
 30
0.0
 11
536.922771554167
 21
74.74229556809098
 31
0.0
  0
ARC
  5
23B6
330
2
100
AcDbEntity
  8
0
100
AcDbCircle
 10
539.9227715541671
 20
79.74229556809098
 30
0.0
 40
5.0
100
AcDbArc
 50
270.0
 51
283.841824318421
  0
LINE
  5
23B7
330
2
100
AcDbEntity
  8
CENTER
100
AcDbLine
 10
543.3100731819609
 20
79.62959719588809
 30
0.0
 11
530.3100731819609
 21
79.62959719588809
 31
0.0
  0
CIRCLE
  5
23B8
330
2
100
AcDbEntity
  8
HOJO
100
AcDbCircle
 10
536.8100731819591
 20
79.62959719588809
 30
0.0
 40
2.5
  0
CIRCLE
  5
23B9
330
2
100
AcDbEntity
  8
0
100
AcDbCircle
 10
536.810073181961
 20
79.62959719588764
 30
0.0
 40
2.1
  0
ARC
  5
23BA
330
2
100
AcDbEntity
  8
0
100
AcDbCircle
 10
502.9391751092604
 20
91.1157758881094
 30
0.0
 40
30.0
100
AcDbArc
 50
346.1581756815797
 51
5.92908548785031
  0
LINE
  5
23BB
330
2
100
AcDbEntity
  8
0
100
AcDbLine
 10
568.165945455879
 20
83.39229556808447
 30
0.0
 11
568.165945455879
 21
81.74229556808597
 31
0.0
  0
LINE
  5
23BC
330
2
100
AcDbEntity
  8
0
100
AcDbLine
 10
568.2722181933782
 20
83.28604556808466
 30
0.0
 11
569.25457452406
 21
81.74229556808597
 31
0.0
  0
ARC
  5
23BD
330
2
100
AcDbEntity
  8
0
100
AcDbCircle
 10
569.0159454558775
 20
83.39229556808447
 30
0.0
 40
0.8499999999992269
100
AcDbArc
 50
307.5189678667967
 51
90.0
  0
LINE
  5
23BE
330
2
100
AcDbEntity
  8
0
100
AcDbLine
 10
566.9409681933799
 20
84.2422955680837
 30
0.0
 11
565.6909681933808
 21
81.74229556808597
 31
0.0
  0
LINE
  5
23BF
330
2
100
AcDbEntity
  8
0
100
AcDbLine
 10
567.4159681933794
 20
82.11729556808553
 30
0.0
 11
567.4159681933794
 21
81.74229556808597
 31
0.0
  0
LINE
  5
23C0
330
2
100
AcDbEntity
  8
0
100
AcDbLine
 10
566.7784685812954
 20
82.11729556808553
 30
0.0
 11
567.4159681933794
 21
82.11729556808553
 31
0.0
  0
LINE
  5
23C1
330
2
100
AcDbEntity
  8
0
100
AcDbLine
 10
566.7784685812954
 20
82.11729556808553
 30
0.0
 11
566.5909685812954
 21
81.74229556808597
 31
0.0
  0
LINE
  5
23C2
330
2
100
AcDbEntity
  8
0
100
AcDbLine
 10
567.4159681933794
 20
81.74229556808597
 30
0.0
 11
568.165945455879
 21
81.74229556808597
 31
0.0
  0
LINE
  5
23C3
330
2
100
AcDbEntity
  8
0
100
AcDbLine
 10
569.25457452406
 20
81.74229556808597
 30
0.0
 11
570.1545749119738
 21
81.74229556808597
 31
0.0
  0
LINE
  5
23C4
330
2
100
AcDbEntity
  8
0
100
AcDbLine
 10
569.533615887021
 20
82.71811656758144
 30
0.0
 11
570.1545749119738
 21
81.74229556808597
 31
0.0
  0
LINE
  5
23C5
330
2
100
AcDbEntity
  8
0
100
AcDbLine
 10
565.6909681933808
 20
81.74229556808597
 30
0.0
 11
566.5909685812954
 21
81.74229556808597
 31
0.0
  0
LINE
  5
23C6
330
2
100
AcDbEntity
  8
0
100
AcDbLine
 10
566.9409681933799
 20
84.2422955680837
 30
0.0
 11
569.0159454558775
 21
84.2422955680837
 31
0.0
  0
ARC
  5
23C7
330
2
100
AcDbEntity
  8
0
100
AcDbCircle
 10
568.9628431933775
 20
83.33917056808457
 30
0.0
 40
0.0531249999999517
100
AcDbArc
 50
270.0
 51
90.0
  0
LINE
  5
23C8
330
2
100
AcDbEntity
  8
0
100
AcDbLine
 10
568.2722181933782
 20
83.28604556808466
 30
0.0
 11
568.9628431933775
 21
83.28604556808466
 31
0.0
  0
LINE
  5
23C9
330
2
100
AcDbEntity
  8
0
100
AcDbLine
 10
568.165945455879
 20
83.39229556808447
 30
0.0
 11
568.9628431933775
 21
83.39229556808447
 31
0.0
  0
LINE
  5
23CA
330
2
100
AcDbEntity
  8
0
100
AcDbLine
 10
567.4159681933794
 20
83.39229479225435
 30
0.0
 11
567.1784685812951
 21
82.9172955680848
 31
0.0
  0
LINE
  5
23CB
330
2
100
AcDbEntity
  8
0
100
AcDbLine
 10
567.4159681933794
 20
83.39229479225435
 30
0.0
 11
567.4159681933794
 21
82.9172955680848
 31
0.0
  0
LINE
  5
23CC
330
2
100
AcDbEntity
  8
0
100
AcDbLine
 10
567.1784685812951
 20
82.9172955680848
 30
0.0
 11
567.4159681933794
 21
82.9172955680848
 31
0.0
  0
ARC
  5
23D1
330
2
100
AcDbEntity
  8
0
100
AcDbCircle
 10
548.2962518741857
 20
175.7258920129976
 30
0.0
 40
30.0
100
AcDbArc
 50
256.1581756815789
 51
275.9290854878765
  0
LINE
  5
23D2
330
2
100
AcDbEntity
  8
0
100
AcDbLine
 10
539.9227715541671
 20
146.7422955680912
 30
0.0
 11
536.922771554167
 21
146.7422955680912
 31
0.0
  0
ARC
  5
23D3
330
2
100
AcDbEntity
  8
0
100
AcDbCircle
 10
539.9227715541671
 20
141.7422955680912
 30
0.0
 40
5.0
100
AcDbArc
 50
76.15817568157897
 51
90.0
  0
ARC
  5
23D4
330
2
100
AcDbEntity
  8
0
100
AcDbCircle
 10
536.922771554167
 20
141.7422955680696
 30
0.0
 40
5.0
100
AcDbArc
 50
90.0
 51
180.0
  0
LINE
  5
23D5
330
2
100
AcDbEntity
  8
CENTER
100
AcDbLine
 10
543.3100731819609
 20
141.8549939403031
 30
0.0
 11
530.3100731819609
 21
141.8549939403031
 31
0.0
  0
ARC
  5
23D6
330
2
100
AcDbEntity
  8
0
100
AcDbCircle
 10
536.922771554167
 20
138.7422955680914
 30
0.0
 40
5.0
100
AcDbArc
 50
180.0
 51
193.8418243184202
  0
LINE
  5
23D7
330
2
100
AcDbEntity
  8
0
100
AcDbLine
 10
531.922771554167
 20
138.7422955680914
 30
0.0
 11
531.922771554167
 21
141.7422955680696
 31
0.0
  0
CIRCLE
  5
23D8
330
2
100
AcDbEntity
  8
HOJO
100
AcDbCircle
 10
536.810073181961
 20
141.8549939403029
 30
0.0
 40
2.5
  0
CIRCLE
  5
23D9
330
2
100
AcDbEntity
  8
0
100
AcDbCircle
 10
536.810073181961
 20
141.8549939403041
 30
0.0
 40
2.1
  0
LINE
  5
23E2
330
2
100
AcDbEntity
  8
CENTER
100
AcDbLine
 10
599.0354699263758
 20
148.3549939403038
 30
0.0
 11
599.0354699263758
 21
135.3549939403038
 31
0.0
  0
LINE
  5
23E3
330
2
100
AcDbEntity
  8
0
100
AcDbLine
 10
618.422771554178
 20
84.24229556809804
 30
0.0
 11
618.4227715541716
 21
137.2422955680905
 31
0.0
  0
LINE
  5
23E4
330
2
100
AcDbEntity
  8
0
100
AcDbLine
 10
603.922771554167
 20
141.7422955680689
 30
0.0
 11
603.922771554167
 21
79.7422955680696
 31
0.0
  0
LINE
  5
23E6
330
2
100
AcDbEntity
  8
0
100
AcDbLine
 10
627.9227715541679
 20
145.2422955680941
 30
0.0
 11
627.9227715541679
 21
76.24229556809439
 31
0.0
  0
ARC
  5
23E8
330
2
100
AcDbEntity
  8
0
100
AcDbCircle
 10
617.4227715541716
 20
80.24229556809871
 30
0.0
 40
3.0
100
AcDbArc
 50
53.13010235412992
 51
90.0
  0
ARC
  5
23E9
330
2
100
AcDbEntity
  8
0
100
AcDbCircle
 10
620.4227715541716
 20
84.24229556809825
 30
0.0
 40
2.0
100
AcDbArc
 50
180.0
 51
270.0
  0
ARC
  5
23EA
330
2
100
AcDbEntity
  8
0
100
AcDbCircle
 10
615.422771554178
 20
85.24229556809462
 30
0.0
 40
3.0
100
AcDbArc
 50
0.0
 51
90.0
  0
ARC
  5
23EB
330
2
100
AcDbEntity
  8
0
100
AcDbCircle
 10
587.5492912341484
 20
45.75869912318455
 30
0.0
 40
30.0
100
AcDbArc
 50
76.15817568157897
 51
95.92908548787658
  0
ARC
  5
23EC
330
2
100
AcDbEntity
  8
0
100
AcDbCircle
 10
606.922771554167
 20
80.24229556809894
 30
0.0
 40
3.0
100
AcDbArc
 50
90.0
 51
180.0
  0
LINE
  5
23ED
330
2
100
AcDbEntity
  8
CENTER
100
AcDbLine
 10
599.0354699263776
 20
86.12959719588877
 30
0.0
 11
599.0354699263776
 21
73.12959719588878
 31
0.0
  0
ARC
  5
23EE
330
2
100
AcDbEntity
  8
0
100
AcDbCircle
 10
598.922771554167
 20
79.7422955680696
 30
0.0
 40
5.0
100
AcDbArc
 50
270.0
 51
0.0
  0
ARC
  5
23EF
330
2
100
AcDbEntity
  8
0
100
AcDbCircle
 10
595.922771554167
 20
79.74229556809098
 30
0.0
 40
5.0
100
AcDbArc
 50
256.1581756815789
 51
270.0
  0
LINE
  5
23F0
330
2
100
AcDbEntity
  8
0
100
AcDbLine
 10
595.922771554167
 20
74.74229556809098
 30
0.0
 11
598.922771554167
 21
74.74229556809098
 31
0.0
  0
LINE
  5
23F1
330
2
100
AcDbEntity
  8
CENTER
100
AcDbLine
 10
605.5354699263777
 20
79.62959719588877
 30
0.0
 11
592.5354699263777
 21
79.62959719588877
 31
0.0
  0
CIRCLE
  5
23F2
330
2
100
AcDbEntity
  8
HOJO
100
AcDbCircle
 10
599.0354699263776
 20
79.62959719588855
 30
0.0
 40
2.5
  0
CIRCLE
  5
23F3
330
2
100
AcDbEntity
  8
0
100
AcDbCircle
 10
599.0354699263767
 20
79.62959719588764
 30
0.0
 40
2.1
  0
LINE
  5
23F4
330
2
100
AcDbEntity
  8
0
100
AcDbLine
 10
617.4227715541716
 20
83.24229556809871
 30
0.0
 11
606.922771554167
 21
83.24229556809894
 31
0.0
  0
LINE
  5
23F5
330
2
100
AcDbEntity
  8
0
100
AcDbLine
 10
606.9227715541707
 20
88.24229556809461
 30
0.0
 11
615.422771554178
 21
88.24229556809461
 31
0.0
  0
ARC
  5
23F6
330
2
100
AcDbEntity
  8
0
100
AcDbCircle
 10
606.9227715541707
 20
85.24229556809462
 30
0.0
 40
3.0
100
AcDbArc
 50
90.0
 51
180.0
  0
LINE
  5
23F7
330
2
100
AcDbEntity
  8
0
100
AcDbLine
 10
624.922771554167
 20
82.24229556809826
 30
0.0
 11
620.4227715541716
 21
82.24229556809826
 31
0.0
  0
ARC
  5
23F8
330
2
100
AcDbEntity
  8
0
100
AcDbCircle
 10
624.922771554167
 20
79.24229556809826
 30
0.0
 40
3.0
100
AcDbArc
 50
0.0
 51
90.0
  0
ARC
  5
23F9
330
2
100
AcDbEntity
  8
0
100
AcDbCircle
 10
629.922771554168
 20
76.24229556809439
 30
0.0
 40
2.0
100
AcDbArc
 50
180.0
 51
270.0
  0
LINE
  5
23FA
330
2
100
AcDbEntity
  8
0
100
AcDbLine
 10
629.922771554168
 20
74.24229556809439
 30
0.0
 11
639.9227715541679
 21
74.24229556809439
 31
0.0
  0
ARC
  5
23FB
330
2
100
AcDbEntity
  8
0
100
AcDbCircle
 10
629.922771554168
 20
76.74229556809439
 30
0.0
 40
2.0
100
AcDbArc
 50
180.0
 51
270.0
  0
LINE
  5
23FC
330
2
100
AcDbEntity
  8
0
100
AcDbLine
 10
629.922771554168
 20
74.74229556809439
 30
0.0
 11
639.9227715541679
 21
74.74229556809439
 31
0.0
  0
ARC
  5
23FD
330
2
100
AcDbEntity
  8
0
100
AcDbCircle
 10
615.4227715541743
 20
105.2422955680943
 30
0.0
 40
3.0
100
AcDbArc
 50
0.0
 51
90.0
  0
ARC
  5
23FE
330
2
100
AcDbEntity
  8
0
100
AcDbCircle
 10
615.4227715541743
 20
116.2422955680946
 30
0.0
 40
3.0
100
AcDbArc
 50
270.0
 51
0.0
  0
ARC
  5
23FF
330
2
100
AcDbEntity
  8
0
100
AcDbCircle
 10
615.4227715541725
 20
136.2422955680946
 30
0.0
 40
3.0
100
AcDbArc
 50
270.0
 51
0.0
  0
LINE
  5
2400
330
2
100
AcDbEntity
  8
0
100
AcDbLine
 10
606.922771554167
 20
108.2422955680941
 30
0.0
 11
615.4227715541743
 21
108.2422955680943
 31
0.0
  0
ARC
  5
2401
330
2
100
AcDbEntity
  8
0
100
AcDbCircle
 10
606.922771554167
 20
105.2422955680941
 30
0.0
 40
3.0
100
AcDbArc
 50
90.0
 51
180.0
  0
ARC
  5
2402
330
2
100
AcDbEntity
  8
0
100
AcDbCircle
 10
606.922771554167
 20
116.2422955680946
 30
0.0
 40
3.0
100
AcDbArc
 50
180.0
 51
270.0
  0
LINE
  5
2403
330
2
100
AcDbEntity
  8
0
100
AcDbLine
 10
606.922771554167
 20
113.2422955680946
 30
0.0
 11
615.4227715541743
 21
113.2422955680946
 31
0.0
  0
LINE
  5
2404
330
2
100
AcDbEntity
  8
0
100
AcDbLine
 10
606.9227715541707
 20
133.2422955680946
 30
0.0
 11
615.4227715541725
 21
133.2422955680946
 31
0.0
  0
ARC
  5
2405
330
2
100
AcDbEntity
  8
0
100
AcDbCircle
 10
606.9227715541707
 20
136.2422955680946
 30
0.0
 40
3.0
100
AcDbArc
 50
180.0
 51
270.0
  0
ARC
  5
241C
330
2
100
AcDbEntity
  8
0
100
AcDbCircle
 10
617.4227715541716
 20
141.2422955680905
 30
0.0
 40
3.0
100
AcDbArc
 50
270.0
 51
306.86989764587
  0
ARC
  5
241D
330
2
100
AcDbEntity
  8
0
100
AcDbCircle
 10
620.4227715541716
 20
137.2422955680909
 30
0.0
 40
2.0
100
AcDbArc
 50
90.0
 51
180.0
  0
ARC
  5
241E
330
2
100
AcDbEntity
  8
0
100
AcDbCircle
 10
587.5492912341484
 20
175.7258920129976
 30
0.0
 40
30.0
100
AcDbArc
 50
264.0709145121234
 51
283.841824318421
  0
ARC
  5
241F
330
2
100
AcDbEntity
  8
0
100
AcDbCircle
 10
598.922771554167
 20
141.7422955680689
 30
0.0
 40
5.0
100
AcDbArc
 50
0.0
 51
90.0
  0
ARC
  5
2420
330
2
100
AcDbEntity
  8
0
100
AcDbCircle
 10
595.922771554167
 20
141.7422955680912
 30
0.0
 40
5.0
100
AcDbArc
 50
90.0
 51
103.841824318421
  0
LINE
  5
2421
330
2
100
AcDbEntity
  8
0
100
AcDbLine
 10
595.922771554167
 20
146.7422955680912
 30
0.0
 11
598.922771554167
 21
146.7422955680912
 31
0.0
  0
LINE
  5
2422
330
2
100
AcDbEntity
  8
CENTER
100
AcDbLine
 10
605.5354699263759
 20
141.8549939403038
 30
0.0
 11
592.5354699263758
 21
141.8549939403038
 31
0.0
  0
LINE
  5
2423
330
2
100
AcDbEntity
  8
0
100
AcDbLine
 10
617.4227715541716
 20
138.2422955680905
 30
0.0
 11
606.922771554167
 21
138.2422955680903
 31
0.0
  0
ARC
  5
2424
330
2
100
AcDbEntity
  8
0
100
AcDbCircle
 10
606.922771554167
 20
141.2422955680902
 30
0.0
 40
3.0
100
AcDbArc
 50
180.0
 51
270.0
  0
CIRCLE
  5
2425
330
2
100
AcDbEntity
  8
HOJO
100
AcDbCircle
 10
599.0354699263776
 20
141.8549939403047
 30
0.0
 40
2.5
  0
CIRCLE
  5
2426
330
2
100
AcDbEntity
  8
0
100
AcDbCircle
 10
599.0354699263767
 20
141.8549939403038
 30
0.0
 40
2.1
  0
ARC
  5
2427
330
2
100
AcDbEntity
  8
0
100
AcDbCircle
 10
629.922771554168
 20
145.2422955680941
 30
0.0
 40
2.0
100
AcDbArc
 50
90.0
 51
180.0
  0
LINE
  5
2428
330
2
100
AcDbEntity
  8
0
100
AcDbLine
 10
639.9227715541679
 20
147.2422955680941
 30
0.0
 11
629.922771554168
 21
147.2422955680941
 31
0.0
  0
ARC
  5
2429
330
2
100
AcDbEntity
  8
0
100
AcDbCircle
 10
629.922771554168
 20
144.7422955680941
 30
0.0
 40
2.0
100
AcDbArc
 50
90.0
 51
180.0
  0
LINE
  5
242A
330
2
100
AcDbEntity
  8
0
100
AcDbLine
 10
639.9227715541679
 20
146.7422955680941
 30
0.0
 11
629.922771554168
 21
146.7422955680941
 31
0.0
  0
LINE
  5
242B
330
2
100
AcDbEntity
  8
0
100
AcDbLine
 10
624.922771554167
 20
139.2422955680909
 30
0.0
 11
620.4227715541716
 21
139.2422955680909
 31
0.0
  0
ARC
  5
242C
330
2
100
AcDbEntity
  8
0
100
AcDbCircle
 10
624.922771554167
 20
142.2422955680909
 30
0.0
 40
3.0
100
AcDbArc
 50
270.0
 51
0.0
  0
LINE
  5
2451
330
2
100
AcDbEntity
  8
0
100
AcDbLine
 10
532.437656753828
 20
358.3552626908647
 30
0.0
 11
603.4011505781214
 21
358.3552626908638
 31
0.0
  0
LINE
  5
2452
330
2
100
AcDbEntity
  8
0
100
AcDbLine
 10
537.9227715541715
 20
353.3552626908647
 30
0.0
 11
597.9227715541716
 21
353.3552626908647
 31
0.0
  0
LINE
  5
2453
330
2
100
AcDbEntity
  8
0
100
AcDbLine
 10
545.8541491037837
 20
340.3552626908652
 30
0.0
 11
589.9913940045559
 21
340.355262690865
 31
0.0
  0
LINE
  5
2454
330
2
100
AcDbEntity
  8
0
100
AcDbLine
 10
537.9227715541715
 20
358.3552626908647
 30
0.0
 11
537.9227715541715
 21
353.3552626908647
 31
0.0
  0
ARC
  5
2455
330
2
100
AcDbEntity
  8
0
100
AcDbCircle
 10
541.537424001163
 20
351.355262690865
 30
0.0
 40
2.0
100
AcDbArc
 50
2.000000000003725
 51
90.0
  0
ARC
  5
2456
330
2
100
AcDbEntity
  8
0
100
AcDbCircle
 10
545.8541491037837
 20
342.355262690865
 30
0.0
 40
2.0
100
AcDbArc
 50
182.0000000000037
 51
270.0
  0
LINE
  5
2457
330
2
100
AcDbEntity
  8
0
100
AcDbLine
 10
543.5362056552008
 20
351.4250616842699
 30
0.0
 11
543.8553674497458
 21
342.2854636974601
 31
0.0
  0
LINE
  5
2462
330
2
100
AcDbEntity
  8
0
100
AcDbLine
 10
597.9227715541716
 20
358.3552626908647
 30
0.0
 11
597.9227715541716
 21
353.3552626908647
 31
0.0
  0
ARC
  5
2463
330
2
100
AcDbEntity
  8
0
100
AcDbCircle
 10
594.3081191071765
 20
351.355262690865
 30
0.0
 40
2.0
100
AcDbArc
 50
90.0
 51
177.9999999999962
  0
ARC
  5
2464
330
2
100
AcDbEntity
  8
0
100
AcDbCircle
 10
589.9913940045559
 20
342.355262690865
 30
0.0
 40
2.0
100
AcDbArc
 50
270.0
 51
357.9999999999962
  0
LINE
  5
2465
330
2
100
AcDbEntity
  8
0
100
AcDbLine
 10
592.3093374531386
 20
351.4250616842699
 30
0.0
 11
591.9901756585938
 21
342.2854636974601
 31
0.0
  0
ARC
  5
2466
330
2
100
AcDbEntity
  8
0
100
AcDbCircle
 10
617.3710852916507
 20
365.855262690865
 30
0.0
 40
3.0
100
AcDbArc
 50
53.1301023542602
 51
90.0
  0
ARC
  5
2467
330
2
100
AcDbEntity
  8
0
100
AcDbCircle
 10
615.343185407624
 20
370.8552626908647
 30
0.0
 40
3.0
100
AcDbArc
 50
1.499999999989629
 51
90.0
  0
ARC
  5
2468
330
2
100
AcDbEntity
  8
0
100
AcDbCircle
 10
620.3710852916461
 20
369.8552626908686
 30
0.0
 40
2.0
100
AcDbArc
 50
181.4999999999896
 51
270.0
  0
ARC
  5
2469
330
2
100
AcDbEntity
  8
0
100
AcDbCircle
 10
606.4667163217092
 20
365.8552626908647
 30
0.0
 40
3.0
100
AcDbArc
 50
90.0
 51
179.5000000000084
  0
ARC
  5
246A
330
2
100
AcDbEntity
  8
0
100
AcDbCircle
 10
606.510350660663
 20
370.8552626908647
 30
0.0
 40
3.0
100
AcDbArc
 50
90.0
 51
179.5000000000084
  0
LINE
  5
246B
330
2
100
AcDbEntity
  8
0
100
AcDbLine
 10
606.4667163217092
 20
368.8552626908647
 30
0.0
 11
617.3710852916507
 21
368.8552626908649
 31
0.0
  0
LINE
  5
246C
330
2
100
AcDbEntity
  8
0
100
AcDbLine
 10
606.510350660663
 20
373.8552626908647
 30
0.0
 11
615.343185407624
 21
373.8552626908647
 31
0.0
  0
LINE
  5
246D
330
2
100
AcDbEntity
  8
0
100
AcDbLine
 10
620.3710852960145
 20
367.855262690865
 30
0.0
 11
624.8039065296367
 21
367.855262690865
 31
0.0
  0
ARC
  5
246E
330
2
100
AcDbEntity
  8
0
100
AcDbCircle
 10
624.8039065296367
 20
364.8552626908649
 30
0.0
 40
3.0
100
AcDbArc
 50
1.500000000015675
 51
90.0
  0
ARC
  5
246F
330
2
100
AcDbEntity
  8
0
100
AcDbCircle
 10
629.8710852960144
 20
362.3552626908649
 30
0.0
 40
2.0
100
AcDbArc
 50
181.5000000000157
 51
270.0
  0
LINE
  5
2470
330
2
100
AcDbEntity
  8
0
100
AcDbLine
 10
629.8710852960144
 20
360.3552626908649
 30
0.0
 11
639.9227715498024
 21
360.3552626908649
 31
0.0
  0
LINE
  5
2471
330
2
100
AcDbEntity
  8
CENTER
100
AcDbLine
 10
567.9227715541721
 20
444.3552626911585
 30
0.0
 11
567.9227715541721
 21
298.3552626908638
 31
0.0
  0
LINE
  5
2473
330
2
100
AcDbEntity
  8
0
100
AcDbLine
 10
594.6727715541625
 20
425.8552626911637
 30
0.0
 11
541.1727715541798
 21
425.8552626911637
 31
0.0
  0
LINE
  5
2474
330
2
100
AcDbEntity
  8
0
100
AcDbLine
 10
603.1727715541625
 20
423.8552626911635
 30
0.0
 11
532.6727715541807
 21
423.855262691164
 31
0.0
  0
LINE
  5
2475
330
2
100
AcDbEntity
  8
0
100
AcDbLine
 10
603.549507330562
 20
417.3552626911587
 30
0.0
 11
531.9227715541716
 21
417.3552626911587
 31
0.0
  0
LINE
  5
2476
330
2
100
AcDbEntity
  8
0
100
AcDbLine
 10
592.9227715541661
 20
426.3552626911645
 30
0.0
 11
542.9227715541716
 21
426.3552626911589
 31
0.0
  0
LINE
  5
2477
330
2
100
AcDbEntity
  8
0
100
AcDbLine
 10
590.3454212849834
 20
434.3552626911589
 30
0.0
 11
545.5001218233588
 21
434.3552626911578
 31
0.0
  0
LINE
  5
2478
330
2
100
AcDbEntity
  8
0
100
AcDbLine
 10
545.1227715541705
 20
431.8552626911595
 30
0.0
 11
590.7227715541718
 21
431.8552626911078
 31
0.0
  0
LINE
  5
2479
330
2
100
AcDbEntity
  8
0
100
AcDbLine
 10
545.1227715541705
 20
429.8552626911593
 30
0.0
 11
590.7227715541718
 21
429.8552626911591
 31
0.0
  0
LINE
  5
247A
330
2
100
AcDbEntity
  8
0
100
AcDbLine
 10
551.3951760341866
 20
416.8552626908647
 30
0.0
 11
551.3951760341866
 21
359.8552246139291
 31
0.0
  0
LINE
  5
247B
330
2
100
AcDbEntity
  8
0
100
AcDbLine
 10
536.9227715541716
 20
416.8552626908647
 30
0.0
 11
536.9227715541716
 21
359.8552246139291
 31
0.0
  0
LINE
  5
247C
330
2
100
AcDbEntity
  8
0
100
AcDbLine
 10
539.9227715541716
 20
416.8552626908647
 30
0.0
 11
539.9227715541716
 21
359.8552246139291
 31
0.0
  0
LINE
  5
247D
330
2
100
AcDbEntity
  8
0
100
AcDbLine
 10
531.9227715541716
 20
417.3552626911597
 30
0.0
 11
532.437656753828
 21
358.3552626908647
 31
0.0
  0
LINE
  5
247E
330
2
100
AcDbEntity
  8
HIDS
100
AcDbLine
 10
541.1727715541798
 20
425.8552626911637
 30
0.0
 11
538.2511986789173
 21
425.8552626911637
 31
0.0
  0
LINE
  5
247F
330
2
100
AcDbEntity
  8
0
100
AcDbLine
 10
540.6531563119093
 20
430.1552626911593
 30
0.0
 11
533.1923867964511
 21
430.1552626911593
 31
0.0
  0
LINE
  5
2480
330
2
100
AcDbEntity
  8
0
100
AcDbLine
 10
532.6727715541798
 20
429.8552626911591
 30
0.0
 11
533.1923867964511
 21
430.1552626911593
 31
0.0
  0
LINE
  5
2481
330
2
100
AcDbEntity
  8
0
100
AcDbLine
 10
541.1727715541798
 20
429.8552626911591
 30
0.0
 11
540.6531563119093
 21
430.1552626911593
 31
0.0
  0
LINE
  5
2482
330
2
100
AcDbEntity
  8
0
100
AcDbLine
 10
541.1727715541798
 20
429.8552626911591
 30
0.0
 11
532.6727715541798
 21
429.8552626911591
 31
0.0
  0
LINE
  5
2483
330
2
100
AcDbEntity
  8
0
100
AcDbLine
 10
541.1727715541798
 20
425.1552626911593
 30
0.0
 11
532.6727715541798
 21
425.1552626911593
 31
0.0
  0
LINE
  5
2484
330
2
100
AcDbEntity
  8
0
100
AcDbLine
 10
541.1727715541798
 20
429.8552626911591
 30
0.0
 11
541.1727715541798
 21
423.8552626911594
 31
0.0
  0
LINE
  5
2485
330
2
100
AcDbEntity
  8
0
100
AcDbLine
 10
532.6727715541798
 20
429.8552626911591
 30
0.0
 11
532.6727715541807
 21
423.855262691164
 31
0.0
  0
ARC
  5
2486
330
2
100
AcDbEntity
  8
HIDS
100
AcDbCircle
 10
534.5943444294249
 20
425.8552626911637
 30
0.0
 40
2.0
100
AcDbArc
 50
270.0
 51
314.999999999993
  0
ARC
  5
2487
330
2
100
AcDbEntity
  8
HIDS
100
AcDbCircle
 10
538.2511986789173
 20
423.8552626911637
 30
0.0
 40
2.0
100
AcDbArc
 50
90.0
 51
134.999999999993
  0
ARC
  5
2488
330
2
100
AcDbEntity
  8
0
100
AcDbCircle
 10
532.9708074054057
 20
422.855262691164
 30
0.0
 40
1.0
100
AcDbArc
 50
90.0
 51
179.5000000000084
  0
LINE
  5
2489
330
2
100
AcDbEntity
  8
HIDS
100
AcDbLine
 10
536.836985116544
 20
425.2694762535368
 30
0.0
 11
536.0085579917982
 21
424.4410491287906
 31
0.0
  0
ARC
  5
248A
330
2
100
AcDbEntity
  8
0
100
AcDbCircle
 10
545.4227715541707
 20
430.0552626911594
 30
0.0
 40
0.2
100
AcDbArc
 50
270.0
 51
0.0
  0
ARC
  5
248B
330
2
100
AcDbEntity
  8
0
100
AcDbCircle
 10
545.4227715541707
 20
431.6552626911591
 30
0.0
 40
0.2
100
AcDbArc
 50
0.0
 51
89.99999999994789
  0
ARC
  5
248C
330
2
100
AcDbEntity
  8
0
100
AcDbCircle
 10
545.1227715541705
 20
432.0552626911594
 30
0.0
 40
0.2
100
AcDbArc
 50
180.0
 51
269.9999999999478
  0
LINE
  5
248D
330
2
100
AcDbEntity
  8
0
100
AcDbLine
 10
544.9227715541698
 20
433.3552626911593
 30
0.0
 11
544.9227715541707
 21
432.0552626911594
 31
0.0
  0
LINE
  5
248E
330
2
100
AcDbEntity
  8
0
100
AcDbLine
 10
544.9227715541698
 20
433.3552626911592
 30
0.0
 11
545.5001218233597
 21
434.3552626911594
 31
0.0
  0
LINE
  5
248F
330
2
100
AcDbEntity
  8
0
100
AcDbLine
 10
544.9227715541707
 20
429.6552626911593
 30
0.0
 11
544.9227715541716
 21
426.3552626911591
 31
0.0
  0
LINE
  5
2490
330
2
100
AcDbEntity
  8
0
100
AcDbLine
 10
545.1227715541705
 20
429.8552626911593
 30
0.0
 11
544.9227715541707
 21
429.6552626911593
 31
0.0
  0
LINE
  5
2491
330
2
100
AcDbEntity
  8
0
100
AcDbLine
 10
545.6227715541705
 20
431.6552626911593
 30
0.0
 11
545.6227715541705
 21
430.0552626911594
 31
0.0
  0
LINE
  5
2492
330
2
100
AcDbEntity
  8
0
100
AcDbLine
 10
542.422771554177
 20
425.8552626911641
 30
0.0
 11
541.1727715541798
 21
425.8552626911641
 31
0.0
  0
LINE
  5
2493
330
2
100
AcDbEntity
  8
0
100
AcDbLine
 10
542.4227715541716
 20
425.8552626911591
 30
0.0
 11
542.9227715541716
 21
426.3552626911589
 31
0.0
  0
LINE
  5
2494
330
2
100
AcDbEntity
  8
CENTER
  6
CENS
100
AcDbLine
 10
536.9227715541533
 20
433.1552626911594
 30
0.0
 11
536.9227715541533
 21
413.6065612105626
 31
0.0
  0
LINE
  5
2495
330
2
100
AcDbEntity
  8
0
100
AcDbLine
 10
539.9227715541579
 20
417.3552626911587
 30
0.0
 11
539.9227715541579
 21
422.8639892266622
 31
0.0
  0
LINE
  5
2496
330
2
100
AcDbEntity
  8
0
100
AcDbLine
 10
536.9227715541797
 20
417.3552626911587
 30
0.0
 11
536.9227715541797
 21
422.8639892266622
 31
0.0
  0
LINE
  5
2497
330
2
100
AcDbEntity
  8
0
100
AcDbLine
 10
531.9227715541716
 20
417.3552626911587
 30
0.0
 11
531.9708454823418
 21
422.8639892266622
 31
0.0
  0
LINE
  5
2498
330
2
100
AcDbEntity
  8
0
100
AcDbLine
 10
551.3951760341748
 20
417.3552626911587
 30
0.0
 11
551.3951760341748
 21
422.8639892266622
 31
0.0
  0
LINE
  5
2499
330
2
100
AcDbEntity
  8
0
100
AcDbLine
 10
603.7327715541715
 20
396.3552626906558
 30
0.0
 11
603.5495073305615
 21
417.3552626911587
 31
0.0
  0
LINE
  5
249A
330
2
100
AcDbEntity
  8
0
100
AcDbLine
 10
595.9358645149474
 20
417.3552626911581
 30
0.0
 11
596.4602684138541
 21
397.329085742557
 31
0.0
  0
LINE
  5
249B
330
2
100
AcDbEntity
  8
0
100
AcDbLine
 10
618.3717706416952
 20
422.9076165874769
 30
0.0
 11
617.676472785081
 21
396.355262690865
 31
0.0
  0
LINE
  5
249C
330
2
100
AcDbEntity
  8
0
100
AcDbLine
 10
627.8717706460635
 20
430.4076165874819
 30
0.0
 11
626.9800783776596
 21
396.355262690865
 31
0.0
  0
LINE
  5
249D
330
2
100
AcDbEntity
  8
0
100
AcDbLine
 10
584.4503670741548
 20
416.8552626908647
 30
0.0
 11
584.4503670741548
 21
359.8552246139291
 31
0.0
  0
ARC
  5
249F
330
2
100
AcDbEntity
  8
0
100
AcDbCircle
 10
614.8194669762384
 20
390.855262690865
 30
0.0
 40
3.0
100
AcDbArc
 50
1.500000000015675
 51
90.0
  0
LINE
  5
24A0
330
2
100
AcDbEntity
  8
0
100
AcDbLine
 10
618.3717706416952
 20
369.802908794253
 30
0.0
 11
617.676472785081
 21
396.355262690865
 31
0.0
  0
ARC
  5
24A1
330
2
100
AcDbEntity
  8
0
100
AcDbCircle
 10
606.6848880164781
 20
390.8552626908647
 30
0.0
 40
3.0
100
AcDbArc
 50
90.0
 51
179.5000000000084
  0
LINE
  5
24A2
330
2
100
AcDbEntity
  8
0
100
AcDbLine
 10
606.6916237928714
 20
393.8552626908647
 30
0.0
 11
614.8194669762384
 21
393.8552626908649
 31
0.0
  0
ARC
  5
24A3
330
2
100
AcDbEntity
  8
0
100
AcDbCircle
 10
597.4599257388296
 20
397.355262690865
 30
0.0
 40
1.0
100
AcDbArc
 50
181.5000000000157
 51
270.0
  0
LINE
  5
24A4
330
2
100
AcDbEntity
  8
0
100
AcDbLine
 10
603.7327715541715
 20
396.3552626910741
 30
0.0
 11
603.4011505781214
 21
358.3552626908638
 31
0.0
  0
LINE
  5
24A5
330
2
100
AcDbEntity
  8
0
100
AcDbLine
 10
598.9227715541698
 20
396.355262690865
 30
0.0
 11
598.9227715541716
 21
359.8552246139291
 31
0.0
  0
LINE
  5
24A6
330
2
100
AcDbEntity
  8
0
100
AcDbLine
 10
595.9227715541715
 20
396.355262690865
 30
0.0
 11
595.9227715541715
 21
359.8552246139291
 31
0.0
  0
LINE
  5
24A7
330
2
100
AcDbEntity
  8
0
100
AcDbLine
 10
626.9800783776596
 20
396.355262690865
 30
0.0
 11
639.9227715498024
 21
396.355262690865
 31
0.0
  0
LINE
  5
24A8
330
2
100
AcDbEntity
  8
0
100
AcDbLine
 10
627.8717706460635
 20
362.302908794248
 30
0.0
 11
626.9800783776596
 21
396.355262690865
 31
0.0
  0
ARC
  5
24A9
330
2
100
AcDbEntity
  8
0
100
AcDbCircle
 10
620.3710852916461
 20
422.8552626908613
 30
0.0
 40
2.0
100
AcDbArc
 50
90.0
 51
178.5000000000103
  0
ARC
  5
24AA
330
2
100
AcDbEntity
  8
0
100
AcDbCircle
 10
614.8194669762384
 20
401.855262690865
 30
0.0
 40
3.0
100
AcDbArc
 50
270.0
 51
358.4999999999843
  0
ARC
  5
24AB
330
2
100
AcDbEntity
  8
0
100
AcDbCircle
 10
615.2908135644862
 20
419.8552626909513
 30
0.0
 40
3.0
100
AcDbArc
 50
270.0
 51
358.4999999999843
  0
ARC
  5
24AC
330
2
100
AcDbEntity
  8
0
100
AcDbCircle
 10
590.4227715541716
 20
430.0552626911594
 30
0.0
 40
0.2
100
AcDbArc
 50
180.0
 51
270.0
  0
ARC
  5
24AD
330
2
100
AcDbEntity
  8
0
100
AcDbCircle
 10
590.4227715541716
 20
431.6552626911591
 30
0.0
 40
0.2
100
AcDbArc
 50
90.00000000005213
 51
180.0
  0
ARC
  5
24AE
330
2
100
AcDbEntity
  8
0
100
AcDbCircle
 10
590.7227715541718
 20
432.0552626911594
 30
0.0
 40
0.2
100
AcDbArc
 50
269.9999999999478
 51
359.9999999999739
  0
LINE
  5
24AF
330
2
100
AcDbEntity
  8
0
100
AcDbLine
 10
590.9227715541716
 20
433.3552626911593
 30
0.0
 11
590.9227715541716
 21
432.0552626911594
 31
0.0
  0
LINE
  5
24B0
330
2
100
AcDbEntity
  8
0
100
AcDbLine
 10
590.9227715541716
 20
433.3552626911592
 30
0.0
 11
590.3454212849825
 21
434.3552626911594
 31
0.0
  0
LINE
  5
24B1
330
2
100
AcDbEntity
  8
0
100
AcDbLine
 10
590.9227715541716
 20
429.6552626911593
 30
0.0
 11
590.9227715541716
 21
426.3552626911591
 31
0.0
  0
LINE
  5
24B2
330
2
100
AcDbEntity
  8
0
100
AcDbLine
 10
590.7227715541718
 20
429.8552626911591
 30
0.0
 11
590.9227715541716
 21
429.6552626911593
 31
0.0
  0
LINE
  5
24B3
330
2
100
AcDbEntity
  8
0
100
AcDbLine
 10
590.2227715541718
 20
431.6552626911593
 30
0.0
 11
590.2227715541718
 21
430.0552626911594
 31
0.0
  0
ARC
  5
24B4
330
2
100
AcDbEntity
  8
0
100
AcDbCircle
 10
602.5047357029367
 20
422.8552626911635
 30
0.0
 40
1.0
100
AcDbArc
 50
0.4999999999915751
 51
90.0
  0
LINE
  5
24B5
330
2
100
AcDbEntity
  8
HIDS
100
AcDbLine
 10
597.5943444294249
 20
425.8552626911641
 30
0.0
 11
594.6727715541625
 21
425.8552626911637
 31
0.0
  0
LINE
  5
24B6
330
2
100
AcDbEntity
  8
0
100
AcDbLine
 10
595.1923867964329
 20
430.1552626911593
 30
0.0
 11
602.653156311892
 21
430.1552626911593
 31
0.0
  0
LINE
  5
24B7
330
2
100
AcDbEntity
  8
0
100
AcDbLine
 10
603.1727715541625
 20
429.8552626911591
 30
0.0
 11
602.653156311892
 21
430.1552626911593
 31
0.0
  0
LINE
  5
24B8
330
2
100
AcDbEntity
  8
0
100
AcDbLine
 10
594.6727715541625
 20
429.8552626911591
 30
0.0
 11
595.1923867964329
 21
430.1552626911593
 31
0.0
  0
LINE
  5
24B9
330
2
100
AcDbEntity
  8
0
100
AcDbLine
 10
594.6727715541625
 20
429.8552626911591
 30
0.0
 11
603.1727715541625
 21
429.8552626911591
 31
0.0
  0
LINE
  5
24BA
330
2
100
AcDbEntity
  8
0
100
AcDbLine
 10
594.6727715541625
 20
425.1552626911593
 30
0.0
 11
603.1727715541625
 21
425.1552626911593
 31
0.0
  0
LINE
  5
24BB
330
2
100
AcDbEntity
  8
0
100
AcDbLine
 10
594.6727715541625
 20
429.8552626911591
 30
0.0
 11
594.6727715541625
 21
423.8552626911594
 31
0.0
  0
LINE
  5
24BC
330
2
100
AcDbEntity
  8
0
100
AcDbLine
 10
603.1727715541625
 20
429.8552626911591
 30
0.0
 11
603.1727715541625
 21
423.8552626911635
 31
0.0
  0
ARC
  5
24BD
330
2
100
AcDbEntity
  8
HIDS
100
AcDbCircle
 10
601.2511986789173
 20
425.8552626911641
 30
0.0
 40
2.0
100
AcDbArc
 50
225.0000000000069
 51
270.0
  0
ARC
  5
24BE
330
2
100
AcDbEntity
  8
HIDS
100
AcDbCircle
 10
597.5943444294249
 20
423.8552626911642
 30
0.0
 40
2.0
100
AcDbArc
 50
45.0000000000069
 51
90.0
  0
ARC
  5
24BF
330
2
100
AcDbEntity
  8
0
100
AcDbCircle
 10
602.9227715541716
 20
422.8552626911642
 30
0.0
 40
1.0
100
AcDbArc
 50
90.0
 51
90.0
  0
LINE
  5
24C0
330
2
100
AcDbEntity
  8
0
100
AcDbLine
 10
593.4227715541707
 20
425.8552626911591
 30
0.0
 11
592.9227715541661
 21
426.3552626911645
 31
0.0
  0
LINE
  5
24C1
330
2
100
AcDbEntity
  8
HIDS
100
AcDbLine
 10
599.0085579917982
 20
425.2694762535372
 30
0.0
 11
599.8369851165449
 21
424.4410491287911
 31
0.0
  0
ARC
  5
24C2
330
2
100
AcDbEntity
  8
0
100
AcDbCircle
 10
606.6848880164776
 20
401.855262690865
 30
0.0
 40
3.0
100
AcDbArc
 50
180.4999999999915
 51
270.0
  0
LINE
  5
24C3
330
2
100
AcDbEntity
  8
0
100
AcDbLine
 10
606.6848880164776
 20
398.855262690865
 30
0.0
 11
614.8194669762384
 21
398.855262690865
 31
0.0
  0
LINE
  5
24C4
330
2
100
AcDbEntity
  8
0
100
AcDbLine
 10
615.2908135644871
 20
416.8552626909514
 30
0.0
 11
604.0495073307698
 21
416.8552626909507
 31
0.0
  0
LINE
  5
24C5
330
2
100
AcDbEntity
  8
0
100
AcDbLine
 10
603.5495073305615
 20
417.3552626911587
 30
0.0
 11
604.0495073307698
 21
416.8552626909507
 31
0.0
  0
LINE
  5
24C6
330
2
100
AcDbEntity
  8
CENTER
  6
CENS
100
AcDbLine
 10
598.9227715541889
 20
433.1552626911594
 30
0.0
 11
598.9227715541889
 21
413.6065612105626
 31
0.0
  0
LINE
  5
24C7
330
2
100
AcDbEntity
  8
0
100
AcDbLine
 10
584.4503670741675
 20
417.3552626911587
 30
0.0
 11
584.4503670741675
 21
422.8639892266622
 31
0.0
  0
LINE
  5
24C8
330
2
100
AcDbEntity
  8
0
100
AcDbLine
 10
603.5046976260006
 20
422.8639892266618
 30
0.0
 11
603.5527715541717
 21
417.3552626911578
 31
0.0
  0
LINE
  5
24C9
330
2
100
AcDbEntity
  8
0
100
AcDbLine
 10
598.9227715541625
 20
417.3552626911587
 30
0.0
 11
598.9227715541889
 21
422.8639892266622
 31
0.0
  0
LINE
  5
24CA
330
2
100
AcDbEntity
  8
0
100
AcDbLine
 10
595.9227715541843
 20
417.3552626911587
 30
0.0
 11
595.9227715541843
 21
422.8639892266622
 31
0.0
  0
LINE
  5
24CB
330
2
100
AcDbEntity
  8
0
100
AcDbLine
 10
620.3710852960145
 20
424.8552626908649
 30
0.0
 11
624.8039065296367
 21
424.8552626908649
 31
0.0
  0
ARC
  5
24CC
330
2
100
AcDbEntity
  8
0
100
AcDbCircle
 10
624.8039065296367
 20
427.8552626908649
 30
0.0
 40
3.0
100
AcDbArc
 50
270.0
 51
358.4999999999843
  0
ARC
  5
24CD
330
2
100
AcDbEntity
  8
0
100
AcDbCircle
 10
629.8710852960144
 20
430.3552626908649
 30
0.0
 40
2.0
100
AcDbArc
 50
90.0
 51
178.4999999999843
  0
LINE
  5
24CE
330
2
100
AcDbEntity
  8
0
100
AcDbLine
 10
629.8710852960144
 20
432.3552626908649
 30
0.0
 11
639.9227715498024
 21
432.3552626908649
 31
0.0
  0
LINE
  5
2AFE
330
2
100
AcDbEntity
  8
0
100
AcDbLine
 10
363.9715760980259
 20
118.2423527689873
 30
0.0
 11
393.4715760980259
 21
118.2423527689873
 31
0.0
  0
LINE
  5
2AFF
330
2
100
AcDbEntity
  8
0
100
AcDbLine
 10
363.9715760980259
 20
103.2423527689875
 30
0.0
 11
393.4715760980255
 21
103.2423527689884
 31
0.0
  0
LINE
  5
2B00
330
2
100
AcDbEntity
  8
0
100
AcDbLine
 10
372.4715760980255
 20
113.242295568102
 30
0.0
 11
393.9715760980254
 21
113.2422988258868
 31
0.0
  0
LINE
  5
2B01
330
2
100
AcDbEntity
  8
0
100
AcDbLine
 10
372.4701641407625
 20
108.2422959668268
 30
0.0
 11
393.9715760980254
 21
108.2422988258868
 31
0.0
  0
LINE
  5
2B02
330
2
100
AcDbEntity
  8
0
100
AcDbLine
 10
362.9715760980259
 20
121.9536204335073
 30
0.0
 11
362.9715760980259
 21
99.53097070269684
 31
0.0
  0
ARC
  5
2B03
330
2
100
AcDbEntity
  8
0
100
AcDbCircle
 10
362.4715760980259
 20
121.9536204335073
 30
0.0
 40
0.5
100
AcDbArc
 50
0.0
 51
59.99999999999946
  0
ARC
  5
2B04
330
2
100
AcDbEntity
  8
0
100
AcDbCircle
 10
361.5695532345396
 20
120.7423527689873
 30
0.0
 40
2.0
100
AcDbArc
 50
59.99999999999946
 51
78.40388896673717
  0
LINE
  5
2B05
330
2
100
AcDbEntity
  8
0
100
AcDbLine
 10
363.9715760980259
 20
119.2423527689873
 30
0.0
 11
363.9715760980259
 21
102.2423527689873
 31
0.0
  0
LINE
  5
2B06
330
2
100
AcDbEntity
  8
0
100
AcDbLine
 10
363.9715760980259
 20
119.2423527689873
 30
0.0
 11
362.9715760980259
 21
119.8197030381769
 31
0.0
  0
LINE
  5
2B07
330
2
100
AcDbEntity
  8
0
100
AcDbLine
 10
363.9715760980259
 20
102.2422383672167
 30
0.0
 11
362.9715760980259
 21
101.6648880980272
 31
0.0
  0
LINE
  5
2B08
330
2
100
AcDbEntity
  8
0
100
AcDbLine
 10
362.7215760980259
 20
122.3866331353995
 30
0.0
 11
362.5695532345396
 21
122.4744035765562
 31
0.0
  0
ARC
  5
2B09
330
2
100
AcDbEntity
  8
0
100
AcDbCircle
 10
362.4715760980259
 20
99.53097070269684
 30
0.0
 40
0.5
100
AcDbArc
 50
300.0000000000005
 51
0.0
  0
ARC
  5
2B0A
330
2
100
AcDbEntity
  8
0
100
AcDbCircle
 10
361.5695532345396
 20
100.742238367217
 30
0.0
 40
2.0
100
AcDbArc
 50
281.5961110332628
 51
300.0000000000005
  0
LINE
  5
2B0B
330
2
100
AcDbEntity
  8
0
100
AcDbLine
 10
362.7215760980259
 20
99.0979580008048
 30
0.0
 11
362.5695532345396
 21
99.01018755964816
 31
0.0
  0
ARC
  5
2B0C
330
2
100
AcDbEntity
  8
0
100
AcDbCircle
 10
372.4715760980255
 20
110.742295568102
 30
0.0
 40
2.5
100
AcDbArc
 50
90.0
 51
270.0
  0
LINE
  5
2B0D
330
2
100
AcDbEntity
  8
0
100
AcDbLine
 10
393.9715760980259
 20
117.7423527689873
 30
0.0
 11
393.4715760980259
 21
118.2423527689873
 31
0.0
  0
LINE
  5
2B0E
330
2
100
AcDbEntity
  8
0
100
AcDbLine
 10
393.9715760980259
 20
117.7423527689873
 30
0.0
 11
393.9715760980254
 21
103.7423527689884
 31
0.0
  0
LINE
  5
2B0F
330
2
100
AcDbEntity
  8
0
100
AcDbLine
 10
393.4715760980255
 20
103.2423527689884
 30
0.0
 11
393.9715760980254
 21
103.7423527689884
 31
0.0
  0
LINE
  5
2B10
330
2
100
AcDbEntity
  8
0
100
AcDbLine
 10
393.4715760980259
 20
118.2423527689873
 30
0.0
 11
393.4715760980255
 21
113.2422987501243
 31
0.0
  0
LINE
  5
2B11
330
2
100
AcDbEntity
  8
0
100
AcDbLine
 10
393.4715760980255
 20
108.2422987594014
 30
0.0
 11
393.4715760980255
 21
103.2423527689884
 31
0.0
  0
ARC
  5
2B13
330
2
100
AcDbEntity
  8
0
100
AcDbCircle
 10
567.9227715541633
 20
110.7422955680948
 30
0.0
 40
7.500057200868525
100
AcDbArc
 50
199.471066139117
 51
160.5289338608829
  0
ARC
  5
2B14
330
2
100
AcDbEntity
  8
0
100
AcDbCircle
 10
567.9227715541633
 20
110.7422955680948
 30
0.0
 40
8.500057200868525
100
AcDbArc
 50
197.1045165256734
 51
162.8954834743296
  0
ARC
  5
2B15
330
2
100
AcDbEntity
  8
0
100
AcDbCircle
 10
567.9227715541633
 20
110.7422955680946
 30
0.0
 40
9.077407470058233
100
AcDbArc
 50
195.986391246479
 51
164.0136087535209
  0
CIRCLE
  5
2B16
330
2
100
AcDbEntity
  8
0
100
AcDbCircle
 10
567.9227715541633
 20
110.7422955680946
 30
0.0
 40
12.00005720086858
  0
LINE
  5
2B18
330
2
100
AcDbEntity
  8
0
100
AcDbLine
 10
558.4228287550327
 20
108.2422955680946
 30
0.0
 11
563.4228287550322
 21
108.2422955680946
 31
0.0
  0
LINE
  5
2B19
330
2
100
AcDbEntity
  8
0
100
AcDbLine
 10
558.4228287550309
 20
113.2422955680948
 30
0.0
 11
563.4228287550313
 21
113.2422955680948
 31
0.0
  0
LINE
  5
2B1A
330
2
100
AcDbEntity
  8
0
100
AcDbLine
 10
563.4228287550313
 20
113.2422955680948
 30
0.0
 11
563.4228287550322
 21
108.2422955680946
 31
0.0
  0
LINE
  5
2B1B
330
2
100
AcDbEntity
  8
0
100
AcDbLine
 10
558.4228287550309
 20
113.2422955680948
 30
0.0
 11
558.4228287550327
 21
108.2422955680946
 31
0.0
  0
LINE
  5
2B1D
330
2
100
AcDbEntity
  8
0
100
AcDbLine
 10
575.4228287550573
 20
338.3552626908674
 30
0.0
 11
575.4228287550573
 21
308.8552626908674
 31
0.0
  0
LINE
  5
2B1E
330
2
100
AcDbEntity
  8
0
100
AcDbLine
 10
558.4228287550528
 20
308.3552626908681
 30
0.0
 11
558.4228287550528
 21
332.3552626908679
 31
0.0
  0
LINE
  5
2B1F
330
2
100
AcDbEntity
  8
0
100
AcDbLine
 10
560.8516430716655
 20
308.3552626908679
 30
0.0
 11
560.8516430716655
 21
329.8566746481308
 31
0.0
  0
LINE
  5
2B20
330
2
100
AcDbEntity
  8
0
100
AcDbLine
 10
574.9228287550574
 20
308.3552626908674
 30
0.0
 11
558.4228287550528
 21
308.3552626908681
 31
0.0
  0
LINE
  5
2B21
330
2
100
AcDbEntity
  8
0
100
AcDbLine
 10
575.4228287550573
 20
308.8552626908674
 30
0.0
 11
560.851643071665
 21
308.8552626908688
 31
0.0
  0
LINE
  5
2B22
330
2
100
AcDbEntity
  8
0
100
AcDbLine
 10
574.9228287550574
 20
308.3552626908674
 30
0.0
 11
575.4228287550573
 21
308.8552626908674
 31
0.0
  0
LINE
  5
2B24
330
2
100
AcDbEntity
  8
0
100
AcDbLine
 10
579.1340964195775
 20
339.3552626908674
 30
0.0
 11
556.711446688767
 21
339.3552626908674
 31
0.0
  0
LINE
  5
2B25
330
2
100
AcDbEntity
  8
0
100
AcDbLine
 10
576.4228287550573
 20
338.3552626908674
 30
0.0
 11
559.4228287550573
 21
338.3552626908674
 31
0.0
  0
LINE
  5
2B26
330
2
100
AcDbEntity
  8
0
100
AcDbLine
 10
560.4228287550578
 20
338.3552626908674
 30
0.0
 11
560.4228287550578
 21
332.3552626908681
 31
0.0
  0
LINE
  5
2B27
330
2
100
AcDbEntity
  8
0
100
AcDbLine
 10
559.4227143532868
 20
338.3552626908674
 30
0.0
 11
558.8453640840972
 21
339.3552626908674
 31
0.0
  0
ARC
  5
2B28
330
2
100
AcDbEntity
  8
0
100
AcDbCircle
 10
556.711446688767
 20
339.8552626908674
 30
0.0
 40
0.5
100
AcDbArc
 50
210.0000000000004
 51
270.0
  0
ARC
  5
2B29
330
2
100
AcDbEntity
  8
0
100
AcDbCircle
 10
557.9227143532867
 20
340.7572855543537
 30
0.0
 40
2.0
100
AcDbArc
 50
191.5961110332487
 51
210.0000000000004
  0
LINE
  5
2B2A
330
2
100
AcDbEntity
  8
0
100
AcDbLine
 10
556.2784339868746
 20
339.6052626908674
 30
0.0
 11
556.1906635457181
 21
339.7572855543537
 31
0.0
  0
LINE
  5
2B2B
330
2
100
AcDbEntity
  8
0
100
AcDbLine
 10
560.4228287550573
 20
332.3552626908679
 30
0.0
 11
558.4228287550528
 21
332.3552626908679
 31
0.0
  0
LINE
  5
2B2C
330
2
100
AcDbEntity
  8
0
100
AcDbLine
 10
560.4228287550573
 20
332.3552626908679
 30
0.0
 11
560.8516430716655
 21
329.8566746481308
 31
0.0
  0
ARC
  5
2B2D
330
2
100
AcDbEntity
  8
0
100
AcDbCircle
 10
579.1340964195775
 20
339.8552626908674
 30
0.0
 40
0.5
100
AcDbArc
 50
270.0
 51
329.9999999999994
  0
ARC
  5
2B2E
330
2
100
AcDbEntity
  8
0
100
AcDbCircle
 10
577.9228287550573
 20
340.7572855543537
 30
0.0
 40
2.0
100
AcDbArc
 50
329.9999999999994
 51
348.4038889667512
  0
LINE
  5
2B2F
330
2
100
AcDbEntity
  8
0
100
AcDbLine
 10
576.4228287550573
 20
338.3552626908674
 30
0.0
 11
577.0001790242469
 21
339.3552626908674
 31
0.0
  0
LINE
  5
2B30
330
2
100
AcDbEntity
  8
0
100
AcDbLine
 10
579.5671091214695
 20
339.6052626908674
 30
0.0
 11
579.6548795626264
 21
339.7572855543537
 31
0.0
  0
LINE
  5
2B32
330
2
100
AcDbEntity
  8
0
100
AcDbLine
 10
841.4165748926887
 20
102.2422383672066
 30
0.0
 11
842.4165748926887
 21
101.664888098017
 31
0.0
  0
LINE
  5
2B33
330
2
100
AcDbEntity
  8
0
100
AcDbLine
 10
841.4165748926887
 20
119.2423527689771
 30
0.0
 11
842.4165748926887
 21
119.8197030381667
 31
0.0
  0
LINE
  5
2B34
330
2
100
AcDbEntity
  8
0
100
AcDbLine
 10
841.4165748926887
 20
102.2422383672066
 30
0.0
 11
841.4165748926887
 21
119.2422383672065
 31
0.0
  0
LINE
  5
2B35
330
2
100
AcDbEntity
  8
0
100
AcDbLine
 10
841.4165748926887
 20
103.2422383672066
 30
0.0
 11
811.9165748926887
 21
103.2422383672066
 31
0.0
  0
LINE
  5
2B36
330
2
100
AcDbEntity
  8
0
100
AcDbLine
 10
811.4165748926886
 20
103.7422383672065
 30
0.0
 11
811.9165748926887
 21
103.2422383672066
 31
0.0
  0
LINE
  5
2B37
330
2
100
AcDbEntity
  8
0
100
AcDbLine
 10
811.4165748926886
 20
103.7422383672065
 30
0.0
 11
811.4165748926895
 21
117.7422383672061
 31
0.0
  0
LINE
  5
2B38
330
2
100
AcDbEntity
  8
0
100
AcDbLine
 10
811.9165748926896
 20
118.2422383672061
 30
0.0
 11
811.4165748926895
 21
117.7422383672061
 31
0.0
  0
LINE
  5
2B39
330
2
100
AcDbEntity
  8
0
100
AcDbLine
 10
841.4165748926887
 20
118.2422383672061
 30
0.0
 11
811.9165748926896
 21
118.2422383672061
 31
0.0
  0
LINE
  5
2B3A
330
2
100
AcDbEntity
  8
0
100
AcDbLine
 10
811.9165748926887
 20
103.2422383672066
 30
0.0
 11
811.9165748926899
 21
118.2422383672061
 31
0.0
  0
LINE
  5
2B3C
330
2
100
AcDbEntity
  8
0
100
AcDbLine
 10
842.4165748926887
 20
99.53097070268643
 30
0.0
 11
842.4165748926887
 21
121.9536204334968
 31
0.0
  0
ARC
  5
2B3D
330
2
100
AcDbEntity
  8
0
100
AcDbCircle
 10
842.9165748926887
 20
99.53097070268643
 30
0.0
 40
0.5
100
AcDbArc
 50
180.0
 51
239.9999999999994
  0
ARC
  5
2B3E
330
2
100
AcDbEntity
  8
0
100
AcDbCircle
 10
843.8185977561749
 20
100.7422383672065
 30
0.0
 40
2.0
100
AcDbArc
 50
239.9999999999994
 51
258.4038889667506
  0
LINE
  5
2B3F
330
2
100
AcDbEntity
  8
0
100
AcDbLine
 10
842.6665748926886
 20
99.09795800079439
 30
0.0
 11
842.8185977561749
 21
99.01018755963754
 31
0.0
  0
ARC
  5
2B40
330
2
100
AcDbEntity
  8
0
100
AcDbCircle
 10
842.9165748926887
 20
121.9536204334968
 30
0.0
 40
0.5
100
AcDbArc
 50
120.0000000000005
 51
180.0
  0
ARC
  5
2B41
330
2
100
AcDbEntity
  8
0
100
AcDbCircle
 10
843.8185977561749
 20
120.7423527689771
 30
0.0
 40
2.0
100
AcDbArc
 50
101.5961110332493
 51
120.0000000000005
  0
LINE
  5
2B42
330
2
100
AcDbEntity
  8
0
100
AcDbLine
 10
842.6665748926886
 20
122.3866331353893
 30
0.0
 11
842.8185977561749
 21
122.4744035765457
 31
0.0
  0
CIRCLE
  5
2DA7
330
2
100
AcDbEntity
  8
0
100
AcDbCircle
 10
567.9227715541633
 20
110.7422955680946
 30
0.0
 40
19.5774
  0
ENDSEC
  0
SECTION
  2
OBJECTS
  0
DICTIONARY
  5
7
330
0
100
AcDbDictionary
  3
ACAD_COLOR
350
1D32
  3
ACAD_GROUP
350
75
  3
ACAD_LAYOUT
350
61
  3
ACAD_MATERIAL
350
1D08
  3
ACAD_MLEADERSTYLE
350
1D57
  3
ACAD_MLINESTYLE
350
76
  3
ACAD_PLOTSETTINGS
350
77
  3
ACAD_PLOTSTYLENAME
350
6
  3
ACAD_SCALELIST
350
1D35
  3
ACAD_TABLESTYLE
350
1D33
  3
ACAD_VISUALSTYLE
350
1D21
  3
ACADDIM
350
480
  3
ACDB_RECOMPOSE_DATA
350
1D7D
  3
ACDBHEADERROUNDTRIPXREC
350
2DEA
  3
ACDBVARIABLEDICTIONARY
350
102
  3
DWGPROPS
350
2DB7
  0
DICTIONARY
  5
1D86
330
6E
100
AcDbDictionary
280
     1
  3
ACAD_XREC_ROUNDTRIP
360
2DBE
  0
DICTIONARY
  5
AE5
330
66
100
AcDbDictionary
280
     1
  3
ACAD_LAYERSTATES
360
AE6
  0
DICTIONARY
  5
1D69
330
5E
100
AcDbDictionary
280
     1
  3
ACAD_XREC_ROUNDTRIP
360
2DBA
  3
ADSK_XREC_LAYER_RECONCILED
360
1D6A
  0
DICTIONARY
  5
1D6B
330
3E
100
AcDbDictionary
280
     1
  3
ACAD_XREC_ROUNDTRIP
360
2DB9
  3
ADSK_XREC_LAYER_RECONCILED
360
1D6C
  0
DICTIONARY
  5
1D71
330
2B5
100
AcDbDictionary
280
     1
  3
ACAD_XREC_ROUNDTRIP
360
2DC4
  3
ADSK_XREC_LAYER_RECONCILED
360
1D72
  0
DICTIONARY
  5
1D73
330
2BA
100
AcDbDictionary
280
     1
  3
ACAD_XREC_ROUNDTRIP
360
2DC5
  3
ADSK_XREC_LAYER_RECONCILED
360
1D74
  0
DICTIONARY
  5
1D77
330
3FA
100
AcDbDictionary
280
     1
  3
ACAD_XREC_ROUNDTRIP
360
2DC7
  3
ADSK_XREC_LAYER_RECONCILED
360
1D78
  0
DICTIONARY
  5
2E0B
330
2
100
AcDbDictionary
280
     1
  3
ACAD_LAYOUTSELFREF
360
2E0C
  0
DICTIONARY
  5
2E0D
330
2DE4
100
AcDbDictionary
280
     1
  3
ACAD_LAYOUTSELFREF
360
2E0E
  0
DICTIONARY
  5
1D32
102
{ACAD_REACTORS
330
7
102
}
330
7
100
AcDbDictionary
  0
DICTIONARY
  5
75
102
{ACAD_REACTORS
330
7
102
}
330
7
100
AcDbDictionary
  0
DICTIONARY
  5
61
102
{ACAD_REACTORS
330
7
102
}
330
7
100
AcDbDictionary
  0
DICTIONARY
  5
1D08
102
{ACAD_REACTORS
330
7
102
}
330
7
100
AcDbDictionary
  3
BYBLOCK
350
1D11
  3
BYLAYER
350
1D09
  3
GLOBAL
350
1D19
  0
DICTIONARY
  5
1D57
102
{ACAD_REACTORS
330
7
102
}
330
7
100
AcDbDictionary
  3
STANDARD
350
1D58
  0
DICTIONARY
  5
76
102
{ACAD_REACTORS
330
7
102
}
330
7
100
AcDbDictionary
  3
STANDARD
350
78
  0
DICTIONARY
  5
77
102
{ACAD_REACTORS
330
7
102
}
330
7
100
AcDbDictionary
  0
ACDBDICTIONARYWDFLT
  5
6
102
{ACAD_REACTORS
330
7
102
}
330
7
100
AcDbDictionary
281
     1
  3
Normal
350
5
100
AcDbDictionaryWithDefault
340
5
  0
DICTIONARY
  5
1D35
102
{ACAD_REACTORS
330
7
102
}
330
7
100
AcDbDictionary
  3
A0
350
1D36
  3
A1
350
1D37
  3
A2
350
1D38
  3
A3
350
1D39
  3
A4
350
1D3A
  3
A5
350
1D3B
  3
A6
350
1D3C
  3
A7
350
1D3D
  3
A8
350
1D3E
  3
A9
350
1D3F
  3
B0
350
1D40
  3
B1
350
1D41
  3
B2
350
1D42
  3
B3
350
1D43
  3
B4
350
1D44
  3
B5
350
1D45
  3
B6
350
1D46
  3
B7
350
1D47
  3
B8
350
1D48
  3
B9
350
1D49
  3
C0
350
1D4A
  3
C1
350
1D4B
  3
C2
350
1D4C
  3
C3
350
1D4D
  3
C4
350
1D4E
  3
C5
350
1D4F
  3
C6
350
1D50
  3
C7
350
1D51
  3
C8
350
1D52
  3
C9
350
1D53
  3
D0
350
1D54
  3
D1
350
1D55
  3
D2
350
1D56
  0
DICTIONARY
  5
1D33
102
{ACAD_REACTORS
330
7
102
}
330
7
100
AcDbDictionary
  3
STANDARD
350
1D34
  0
DICTIONARY
  5
1D21
102
{ACAD_REACTORS
330
7
102
}
330
7
100
AcDbDictionary
  3
2DWIREFRAME
350
1D27
  3
3D_HIDDEN
350
1D29
  3
3DWIREFRAME
350
1D28
  3
BASIC
350
1D26
  3
BRIGHTEN
350
1D2D
  3
COLORCHANGE
350
1D31
  3
CONCEPTUAL
350
1D2A
  3
DIM
350
1D2C
  3
FACEPATTERN
350
1D30
  3
FLAT
350
1D22
  3
FLATWITHEDGES
350
1D23
  3
GOURAUD
350
1D24
  3
GOURAUDWITHEDGES
350
1D25
  3
LINEPATTERN
350
1D2F
  3
REALISTIC
350
1D2B
  3
THICKEN
350
1D2E
  0
XRECORD
  5
480
102
{ACAD_REACTORS
330
7
102
}
330
7
100
AcDbXrecord
 90
   990106
  3

 60
     0
 61
     0
 62
     1
 63
     3
 64
     1
 65
     0
 66
     0
 67
     3
 68
     1
 69
     0
 70
     0
 71
     0
 72
     0
 40
0.0
170
     2
340
0
  0
XRECORD
  5
1D7D
102
{ACAD_REACTORS
330
7
102
}
330
7
100
AcDbXrecord
 90
        1
330
1D34
  0
DICTIONARY
  5
2DEA
102
{ACAD_REACTORS
330
7
102
}
330
7
100
AcDbDictionary
  3
CEPSNTYPE
350
2DF4
  3
DIMSTYLEDATA
350
2DF8
  3
FINGERPRINTGUID
350
2DF5
  3
HYPERLINKBASE
350
2DED
  3
INSUNITS
350
2DF3
  3
LAYOUTDICT
350
2DEF
  3
LWETCUNION
350
2DF2
  3
PLOTSETDICT
350
2DF0
  3
PLOTSTYLNAMDICT
350
2DF1
  3
PSVPSCALE
350
2DF7
  3
PUCSBASE
350
2DFB
  3
PUCSORGBACK
350
2E01
  3
PUCSORGBOTTOM
350
2DFD
  3
PUCSORGFRONT
350
2E00
  3
PUCSORGLEFT
350
2DFE
  3
PUCSORGRIGHT
350
2DFF
  3
PUCSORGTOP
350
2DFC
  3
PUCSORTHOREF
350
2DF9
  3
PUCSORTHOVIEW
350
2DFA
  3
STYLESHEET
350
2DEE
  3
TSTACKALIGN
350
2DEB
  3
TSTACKSIZE
350
2DEC
  3
UCSBASE
350
2E04
  3
UCSORGBACK
350
2E0A
  3
UCSORGBOTTOM
350
2E06
  3
UCSORGFRONT
350
2E09
  3
UCSORGLEFT
350
2E07
  3
UCSORGRIGHT
350
2E08
  3
UCSORGTOP
350
2E05
  3
UCSORTHOREF
350
2E02
  3
UCSORTHOVIEW
350
2E03
  3
VERSIONGUID
350
2DF6
  0
DICTIONARY
  5
102
102
{ACAD_REACTORS
330
7
102
}
330
7
100
AcDbDictionary
  3
CANNOSCALE
350
1D9E
  3
CMLEADERSTYLE
350
1D9D
  3
CTABLESTYLE
350
1D9C
  3
DIMASSOC
350
103
  3
INDEXCTL
350
1D9F
  3
SORTENTS
350
549
  0
XRECORD
  5
2DB7
102
{ACAD_REACTORS
330
7
102
}
330
7
100
AcDbXrecord
  1
DWGPROPS COOKIE
  2

  3

  4

  6

  7

  8
ymorima
  9

300
=
301
=
302
=
303
=
304
=
305
=
306
=
307
=
308
=
309
=
 40
0.1165381018518518
 41
2454410.570290254
 42
2454425.754192164
  1

 90
        0
  0
XRECORD
  5
2DBE
102
{ACAD_REACTORS
330
1D86
102
}
330
1D86
100
AcDbXrecord
102
VTR_0.000_0.000_1.000_1.000_VISUALSTYLE
340
1D27
102
VTR_0.000_0.000_1.000_1.000_GRIDDISPLAY
 70
     3
102
VTR_0.000_0.000_1.000_1.000_GRIDMAJOR
 70
     5
102
VTR_0.000_0.000_1.000_1.000_DEFAULTLIGHTING
280
     1
102
VTR_0.000_0.000_1.000_1.000_DEFAULTLIGHTINGTYPE
 70
     1
102
VTR_0.000_0.000_1.000_1.000_BRIGHTNESS
141
0.0
102
VTR_0.000_0.000_1.000_1.000_CONTRAST
142
0.0
  0
DICTIONARY
  5
AE6
102
{ACAD_REACTORS
330
AE5
102
}
330
AE5
100
AcDbDictionary
  0
XRECORD
  5
2DBA
102
{ACAD_REACTORS
330
1D69
102
}
330
1D69
100
AcDbXrecord
102
MATERIAL
340
1D19
  0
XRECORD
  5
1D6A
102
{ACAD_REACTORS
330
1D69
102
}
330
1D69
100
AcDbXrecord
290
     1
  0
XRECORD
  5
2DB9
102
{ACAD_REACTORS
330
1D6B
102
}
330
1D6B
100
AcDbXrecord
102
MATERIAL
340
1D19
  0
XRECORD
  5
1D6C
102
{ACAD_REACTORS
330
1D6B
102
}
330
1D6B
100
AcDbXrecord
290
     1
  0
XRECORD
  5
2DC4
102
{ACAD_REACTORS
330
1D71
102
}
330
1D71
100
AcDbXrecord
102
MATERIAL
340
1D19
  0
XRECORD
  5
1D72
102
{ACAD_REACTORS
330
1D71
102
}
330
1D71
100
AcDbXrecord
290
     1
  0
XRECORD
  5
2DC5
102
{ACAD_REACTORS
330
1D73
102
}
330
1D73
100
AcDbXrecord
102
MATERIAL
340
1D19
  0
XRECORD
  5
1D74
102
{ACAD_REACTORS
330
1D73
102
}
330
1D73
100
AcDbXrecord
290
     1
  0
XRECORD
  5
2DC7
102
{ACAD_REACTORS
330
1D77
102
}
330
1D77
100
AcDbXrecord
102
MATERIAL
340
1D19
  0
XRECORD
  5
1D78
102
{ACAD_REACTORS
330
1D77
102
}
330
1D77
100
AcDbXrecord
290
     1
  0
XRECORD
  5
2E0C
102
{ACAD_REACTORS
330
2E0B
102
}
330
2E0B
100
AcDbXrecord
340
2
  0
XRECORD
  5
2E0E
102
{ACAD_REACTORS
330
2E0D
102
}
330
2E0D
100
AcDbXrecord
340
2DE4
  0
ACAD_PROXY_OBJECT
  5
1D11
102
{ACAD_XDICTIONARY
360
1D12
102
}
102
{ACAD_REACTORS
330
1D08
102
}
330
1D08
100
AcDbProxyObject
 90
      499
 91
      510
 93
     1340
310
42109E509B1BD8DAC02004014080404555555555555953FAA155555555555654FEA9AA400014080404555555555555953FAA155555555555654FEA9AA400000000000000E03F4080404555555555555953FAA155555555555654FEA9AA4014080404555555555555953FAA155555555555654FEA9AA4010201011555555555
310
55654FEA8555555555555953FAA6A9005020101155555555555654FEA8555555555555953FAA6A9000
 94
        0
1001
ACAD
1000
AcadProxyRoundTripData
1071
      504
1071
   655383
1070
     0
  0
ACAD_PROXY_OBJECT
  5
1D09
102
{ACAD_XDICTIONARY
360
1D0A
102
}
102
{ACAD_REACTORS
330
1D08
102
}
330
1D08
100
AcDbProxyObject
 90
      499
 91
      510
 93
     1340
310
42109E53185E595C802004014080404555555555555953FAA155555555555654FEA9AA400014080404555555555555953FAA155555555555654FEA9AA400000000000000E03F4080404555555555555953FAA155555555555654FEA9AA4014080404555555555555953FAA155555555555654FEA9AA4010201011555555555
310
55654FEA8555555555555953FAA6A9005020101155555555555654FEA8555555555555953FAA6A9000
 94
        0
1001
ACAD
1000
AcadProxyRoundTripData
1071
      504
1071
   655383
1070
     0
  0
ACAD_PROXY_OBJECT
  5
1D19
102
{ACAD_XDICTIONARY
360
1D1A
102
}
102
{ACAD_REACTORS
330
1D08
102
}
330
1D08
100
AcDbProxyObject
 90
      499
 91
      510
 93
     1332
310
41D1DB1BD8985B002004014080404555555555555953FAA155555555555654FEA9AA400014080404555555555555953FAA155555555555654FEA9AA400000000000000E03F4080404555555555555953FAA155555555555654FEA9AA4014080404555555555555953FAA155555555555654FEA9AA401020101155555555555
310
654FEA8555555555555953FAA6A9005020101155555555555654FEA8555555555555953FAA6A9000
 94
        0
1001
ACAD
1000
AcadProxyRoundTripData
1071
      504
1071
   655383
1070
     0
  0
ACAD_PROXY_OBJECT
  5
1D58
102
{ACAD_REACTORS
330
1D57
102
}
330
1D57
100
AcDbProxyObject
 90
      499
 91
      510
 93
      618
310
40901902A4063FBFFFFFE056BD1B81E855B9FC0AD7A3703D0AD73F4254DD185B99185C990000AD7A3703D0AC73F90141901A02B5E8DC0F42B1CFC02B5E8DC0F42B1CFE5764000000000000300FC6
340
6A
340
0
340
16
340
0
 94
        0
1001
ACAD_MLEADERVER
1070
     2
1001
ACAD
1000
AcadProxyRoundTripData
1071
      508
1071
   655383
1070
     0
  0
MLINESTYLE
  5
78
102
{ACAD_REACTORS
330
76
102
}
330
76
100
AcDbMlineStyle
  2
STANDARD
 70
     0
  3

 62
     0
 51
90.0
 52
90.0
 71
     2
 49
0.5
 62
   256
  6
BYLAYER
 49
-0.5
 62
   256
  6
BYLAYER
  0
ACDBPLACEHOLDER
  5
5
102
{ACAD_REACTORS
330
6
102
}
330
6
100
AcDbPlaceHolder
280
     0
  0
ACAD_PROXY_OBJECT
  5
1D36
102
{ACAD_REACTORS
330
1D35
102
}
330
1D35
100
AcDbProxyObject
 90
      499
 91
      510
 93
       49
310
904313A3100598
 94
        0
1001
ACAD
1000
AcadProxyRoundTripData
1071
      507
1071
   655383
1070
     0
  0
ACAD_PROXY_OBJECT
  5
1D37
102
{ACAD_REACTORS
330
1D35
102
}
330
1D35
100
AcDbProxyObject
 90
      499
 91
      510
 93
      113
310
904313A3200400000000000000406B
 94
        0
1001
ACAD
1000
AcadProxyRoundTripData
1071
      507
1071
   655383
1070
     0
  0
ACAD_PROXY_OBJECT
  5
1D38
102
{ACAD_REACTORS
330
1D35
102
}
330
1D35
100
AcDbProxyObject
 90
      499
 91
      510
 93
      113
310
904313A3400400000000000010406B
 94
        0
1001
ACAD
1000
AcadProxyRoundTripData
1071
      507
1071
   655383
1070
     0
  0
ACAD_PROXY_OBJECT
  5
1D39
102
{ACAD_REACTORS
330
1D35
102
}
330
1D35
100
AcDbProxyObject
 90
      499
 91
      510
 93
      113
310
904313A3500400000000000014406B
 94
        0
1001
ACAD
1000
AcadProxyRoundTripData
1071
      507
1071
   655383
1070
     0
  0
ACAD_PROXY_OBJECT
  5
1D3A
102
{ACAD_REACTORS
330
1D35
102
}
330
1D35
100
AcDbProxyObject
 90
      499
 91
      510
 93
      113
310
904313A3800400000000000020406B
 94
        0
1001
ACAD
1000
AcadProxyRoundTripData
1071
      507
1071
   655383
1070
     0
  0
ACAD_PROXY_OBJECT
  5
1D3B
102
{ACAD_REACTORS
330
1D35
102
}
330
1D35
100
AcDbProxyObject
 90
      499
 91
      510
 93
      121
310
905313A3130004000000000000244051
 94
        0
1001
ACAD
1000
AcadProxyRoundTripData
1071
      507
1071
   655383
1070
     0
  0
ACAD_PROXY_OBJECT
  5
1D3C
102
{ACAD_REACTORS
330
1D35
102
}
330
1D35
100
AcDbProxyObject
 90
      499
 91
      510
 93
      121
310
905313A3136004000000000000304051
 94
        0
1001
ACAD
1000
AcadProxyRoundTripData
1071
      507
1071
   655383
1070
     0
  0
ACAD_PROXY_OBJECT
  5
1D3D
102
{ACAD_REACTORS
330
1D35
102
}
330
1D35
100
AcDbProxyObject
 90
      499
 91
      510
 93
      121
310
905313A3230004000000000000344051
 94
        0
1001
ACAD
1000
AcadProxyRoundTripData
1071
      507
1071
   655383
1070
     0
  0
ACAD_PROXY_OBJECT
  5
1D3E
102
{ACAD_REACTORS
330
1D35
102
}
330
1D35
100
AcDbProxyObject
 90
      499
 91
      510
 93
      121
310
905313A33300040000000000003E4051
 94
        0
1001
ACAD
1000
AcadProxyRoundTripData
1071
      507
1071
   655383
1070
     0
  0
ACAD_PROXY_OBJECT
  5
1D3F
102
{ACAD_REACTORS
330
1D35
102
}
330
1D35
100
AcDbProxyObject
 90
      499
 91
      510
 93
      121
310
905313A3430004000000000000444051
 94
        0
1001
ACAD
1000
AcadProxyRoundTripData
1071
      507
1071
   655383
1070
     0
  0
ACAD_PROXY_OBJECT
  5
1D40
102
{ACAD_REACTORS
330
1D35
102
}
330
1D35
100
AcDbProxyObject
 90
      499
 91
      510
 93
      121
310
905313A3530004000000000000494051
 94
        0
1001
ACAD
1000
AcadProxyRoundTripData
1071
      507
1071
   655383
1070
     0
  0
ACAD_PROXY_OBJECT
  5
1D41
102
{ACAD_REACTORS
330
1D35
102
}
330
1D35
100
AcDbProxyObject
 90
      499
 91
      510
 93
      129
310
906313A313030004000000000000594038
 94
        0
1001
ACAD
1000
AcadProxyRoundTripData
1071
      507
1071
   655383
1070
     0
  0
ACAD_PROXY_OBJECT
  5
1D42
102
{ACAD_REACTORS
330
1D35
102
}
330
1D35
100
AcDbProxyObject
 90
      499
 91
      510
 93
      113
310
904323A31000000000000000010159
 94
        0
1001
ACAD
1000
AcadProxyRoundTripData
1071
      507
1071
   655383
1070
     0
  0
ACAD_PROXY_OBJECT
  5
1D43
102
{ACAD_REACTORS
330
1D35
102
}
330
1D35
100
AcDbProxyObject
 90
      499
 91
      510
 93
      113
310
904343A31000000000000000410159
 94
        0
1001
ACAD
1000
AcadProxyRoundTripData
1071
      507
1071
   655383
1070
     0
  0
ACAD_PROXY_OBJECT
  5
1D44
102
{ACAD_REACTORS
330
1D35
102
}
330
1D35
100
AcDbProxyObject
 90
      499
 91
      510
 93
      113
310
904383A31000000000000000810159
 94
        0
1001
ACAD
1000
AcadProxyRoundTripData
1071
      507
1071
   655383
1070
     0
  0
ACAD_PROXY_OBJECT
  5
1D45
102
{ACAD_REACTORS
330
1D35
102
}
330
1D35
100
AcDbProxyObject
 90
      499
 91
      510
 93
      121
310
90531303A31000000000000000910140
 94
        0
1001
ACAD
1000
AcadProxyRoundTripData
1071
      507
1071
   655383
1070
     0
  0
ACAD_PROXY_OBJECT
  5
1D46
102
{ACAD_REACTORS
330
1D35
102
}
330
1D35
100
AcDbProxyObject
 90
      499
 91
      510
 93
      129
310
9063130303A31000000000000001650138
 94
        0
1001
ACAD
1000
AcadProxyRoundTripData
1071
      507
1071
   655383
1070
     0
  0
ACAD_PROXY_OBJECT
  5
1D47
102
{ACAD_REACTORS
330
1D35
102
}
330
1D35
100
AcDbProxyObject
 90
      499
 91
      510
 93
      265
310
90F312F31323822203D2031272D302200000000000000200FC00000000000028402B
 94
        0
1001
ACAD
1000
AcadProxyRoundTripData
1071
      507
1071
   655383
1070
     0
  0
ACAD_PROXY_OBJECT
  5
1D48
102
{ACAD_REACTORS
330
1D35
102
}
330
1D35
100
AcDbProxyObject
 90
      499
 91
      510
 93
      257
310
90E312F363422203D2031272D302200000000000000240FC000000000000284040
 94
        0
1001
ACAD
1000
AcadProxyRoundTripData
1071
      507
1071
   655383
1070
     0
  0
ACAD_PROXY_OBJECT
  5
1D49
102
{ACAD_REACTORS
330
1D35
102
}
330
1D35
100
AcDbProxyObject
 90
      499
 91
      510
 93
      257
310
90E312F333222203D2031272D302200000000000000280FC000000000000284040
 94
        0
1001
ACAD
1000
AcadProxyRoundTripData
1071
      507
1071
   655383
1070
     0
  0
ACAD_PROXY_OBJECT
  5
1D4A
102
{ACAD_REACTORS
330
1D35
102
}
330
1D35
100
AcDbProxyObject
 90
      499
 91
      510
 93
      257
310
90E312F313622203D2031272D3022000000000000002C0FC000000000000284040
 94
        0
1001
ACAD
1000
AcadProxyRoundTripData
1071
      507
1071
   655383
1070
     0
  0
ACAD_PROXY_OBJECT
  5
1D4B
102
{ACAD_REACTORS
330
1D35
102
}
330
1D35
100
AcDbProxyObject
 90
      499
 91
      510
 93
      257
310
90E332F333222203D2031272D3022000000000000002E0FC000000000000284040
 94
        0
1001
ACAD
1000
AcadProxyRoundTripData
1071
      507
1071
   655383
1070
     0
  0
ACAD_PROXY_OBJECT
  5
1D4C
102
{ACAD_REACTORS
330
1D35
102
}
330
1D35
100
AcDbProxyObject
 90
      499
 91
      510
 93
      249
310
90D312F3822203D2031272D302200000000000000300FC000000000000284040
 94
        0
1001
ACAD
1000
AcadProxyRoundTripData
1071
      507
1071
   655383
1070
     0
  0
ACAD_PROXY_OBJECT
  5
1D4D
102
{ACAD_REACTORS
330
1D35
102
}
330
1D35
100
AcDbProxyObject
 90
      499
 91
      510
 93
      257
310
90E332F313622203D2031272D302200000000000000320FC000000000000284040
 94
        0
1001
ACAD
1000
AcadProxyRoundTripData
1071
      507
1071
   655383
1070
     0
  0
ACAD_PROXY_OBJECT
  5
1D4E
102
{ACAD_REACTORS
330
1D35
102
}
330
1D35
100
AcDbProxyObject
 90
      499
 91
      510
 93
      249
310
90D312F3422203D2031272D302200000000000000340FC000000000000284040
 94
        0
1001
ACAD
1000
AcadProxyRoundTripData
1071
      507
1071
   655383
1070
     0
  0
ACAD_PROXY_OBJECT
  5
1D4F
102
{ACAD_REACTORS
330
1D35
102
}
330
1D35
100
AcDbProxyObject
 90
      499
 91
      510
 93
      249
310
90D332F3822203D2031272D302200000000000000360FC000000000000284040
 94
        0
1001
ACAD
1000
AcadProxyRoundTripData
1071
      507
1071
   655383
1070
     0
  0
ACAD_PROXY_OBJECT
  5
1D50
102
{ACAD_REACTORS
330
1D35
102
}
330
1D35
100
AcDbProxyObject
 90
      499
 91
      510
 93
      249
310
90D312F3222203D2031272D302200000000000000380FC000000000000284040
 94
        0
1001
ACAD
1000
AcadProxyRoundTripData
1071
      507
1071
   655383
1070
     0
  0
ACAD_PROXY_OBJECT
  5
1D51
102
{ACAD_REACTORS
330
1D35
102
}
330
1D35
100
AcDbProxyObject
 90
      499
 91
      510
 93
      249
310
90D332F3422203D2031272D3022000000000000003A0FC000000000000284040
 94
        0
1001
ACAD
1000
AcadProxyRoundTripData
1071
      507
1071
   655383
1070
     0
  0
ACAD_PROXY_OBJECT
  5
1D52
102
{ACAD_REACTORS
330
1D35
102
}
330
1D35
100
AcDbProxyObject
 90
      499
 91
      510
 93
      169
310
90B3122203D2031272D3022004000000000000284020
 94
        0
1001
ACAD
1000
AcadProxyRoundTripData
1071
      507
1071
   655383
1070
     0
  0
ACAD_PROXY_OBJECT
  5
1D53
102
{ACAD_REACTORS
330
1D35
102
}
330
1D35
100
AcDbProxyObject
 90
      499
 91
      510
 93
      265
310
90F312D312F3222203D2031272D3022000000000000003E0FC00000000000028402B
 94
        0
1001
ACAD
1000
AcadProxyRoundTripData
1071
      507
1071
   655383
1070
     0
  0
ACAD_PROXY_OBJECT
  5
1D54
102
{ACAD_REACTORS
330
1D35
102
}
330
1D35
100
AcDbProxyObject
 90
      499
 91
      510
 93
      233
310
90B3322203D2031272D30220000000000000002100000000000000284000
 94
        0
1001
ACAD
1000
AcadProxyRoundTripData
1071
      507
1071
   655383
1070
     0
  0
ACAD_PROXY_OBJECT
  5
1D55
102
{ACAD_REACTORS
330
1D35
102
}
330
1D35
100
AcDbProxyObject
 90
      499
 91
      510
 93
      233
310
90B3622203D2031272D30220000000000000006100000000000000284000
 94
        0
1001
ACAD
1000
AcadProxyRoundTripData
1071
      507
1071
   655383
1070
     0
  0
ACAD_PROXY_OBJECT
  5
1D56
102
{ACAD_REACTORS
330
1D35
102
}
330
1D35
100
AcDbProxyObject
 90
      499
 91
      510
 93
      257
310
90E31272D3022203D2031272D3022000000000000000A100000000000000284040
 94
        0
1001
ACAD
1000
AcadProxyRoundTripData
1071
      507
1071
   655383
1070
     0
  0
ACAD_PROXY_OBJECT
  5
1D34
102
{ACAD_XDICTIONARY
360
1D7B
102
}
102
{ACAD_REACTORS
330
1D33
102
}
330
1D33
100
AcDbProxyObject
 90
      499
 91
      510
 93
     1849
310
4254DD185B99185C990028B81E85EB51B8AE3F2E07A17AD46E2B8FC02B5E8DC0F42B1CFD028000000C1008070000C3001FDFF8000000C1003FBFF000000182007F7FE00000030400FEFFC00000060801FDFF8000000C1003FBFF00000018200000000000000681FA0B0000001820100E000186003FBFF000000182007F7FE0
310
0000030400FEFFC00000060801FDFF8000000C1003FBFF000000182007F7FE000000304000AD7A3703D0AC73F4160000003040201C00030C007F7FE00000030400FEFFC00000060801FDFF8000000C1003FBFF000000182007F7FE00000030400FEFFC000000608000
340
16
340
16
340
16
 94
        0
1001
ACAD
1000
AcadProxyRoundTripData
1071
      506
1071
   655383
1070
     0
  0
ACAD_PROXY_OBJECT
  5
1D27
102
{ACAD_REACTORS
330
1D21
102
}
330
1D21
100
AcDbProxyObject
 90
      499
 91
      510
 93
      444
310
430C9915DA5C99599C985B59401049028333333333333E3BF0000000000000FB0107901411070040501600405405064090741402480A0340
 94
        0
1001
ACAD
1000
AcDbSavedByObjectVersion
1070
     0
1000
AcadProxyRoundTripData
1071
      505
1071
   655383
1070
     0
  0
ACAD_PROXY_OBJECT
  5
1D29
102
{ACAD_REACTORS
330
1D21
102
}
330
1D21
100
AcDbProxyObject
 90
      499
 91
      510
 93
      508
310
428CD108121A5919195B8010640502408333333333333E3BF0000000000000FB01079024090700405020000000000001110200405405064090740C02480A0340
 94
        0
1001
ACAD
1000
AcDbSavedByObjectVersion
1070
     0
1000
AcadProxyRoundTripData
1071
      505
1071
   655383
1070
     0
  0
ACAD_PROXY_OBJECT
  5
1D28
102
{ACAD_REACTORS
330
1D21
102
}
330
1D21
100
AcDbProxyObject
 90
      499
 91
      510
 93
      444
310
430CD915DA5C99599C985B59401059028333333333333E3BF0000000000000FB0107901411070040501600405405064090741402480A0340
 94
        0
1001
ACAD
1000
AcDbSavedByObjectVersion
1070
     0
1000
AcadProxyRoundTripData
1071
      505
1071
   655383
1070
     0
  0
ACAD_PROXY_OBJECT
  5
1D26
102
{ACAD_REACTORS
330
1D21
102
}
330
1D21
100
AcDbProxyObject
 90
      499
 91
      510
 93
      396
310
4190985CDA58C0107406404333333333333E3BF0000000000000FB0107A41107004050150841D405064090741402480A0356
 94
        0
1001
ACAD
1000
AcDbSavedByObjectVersion
1070
     0
1000
AcadProxyRoundTripData
1071
      505
1071
   655383
1070
     0
  0
ACAD_PROXY_OBJECT
  5
1D2D
102
{ACAD_REACTORS
330
1D21
102
}
330
1D21
100
AcDbProxyObject
 90
      499
 91
      510
 93
      436
310
42509C9A59DA1D195B8010C409028333333333333E3BF0000000000000FB010790141107004050150841D405064090741402480A029956
 94
        0
1001
ACAD
1000
AcDbSavedByObjectVersion
1070
     0
1000
AcadProxyRoundTripData
1071
      505
1071
   655383
1070
     0
  0
ACAD_PROXY_OBJECT
  5
1D31
102
{ACAD_REACTORS
330
1D21
102
}
330
1D21
100
AcDbProxyObject
 90
      499
 91
      510
 93
      460
310
4310DBDB1BDC90DA185B99D9401104090240C333333333333E3BF0000000000000FB0108901411070040501508421405064090741402480A0354
 94
        0
1001
ACAD
1000
AcDbSavedByObjectVersion
1070
     0
1000
AcadProxyRoundTripData
1071
      505
1071
   655383
1070
     0
  0
ACAD_PROXY_OBJECT
  5
1D2A
102
{ACAD_REACTORS
330
1D21
102
}
330
1D21
100
AcDbProxyObject
 90
      499
 91
      510
 93
      508
310
42D0DBDB98D95C1D1D585B0010940D028333333333333E3BF0000000000000FB0107902409070040501000000000000111010841D405064090740C02480A0340
 94
        0
1001
ACAD
1000
AcDbSavedByObjectVersion
1070
     0
1000
AcadProxyRoundTripData
1071
      505
1071
   655383
1070
     0
  0
ACAD_PROXY_OBJECT
  5
1D2C
102
{ACAD_REACTORS
330
1D21
102
}
330
1D21
100
AcDbProxyObject
 90
      499
 91
      510
 93
      420
310
41111A5B4010B409028333333333333E3BF0000000000000FB010790141107004050150841D405064090741402480A02677FFFFFDB
 94
        0
1001
ACAD
1000
AcDbSavedByObjectVersion
1070
     0
1000
AcadProxyRoundTripData
1071
      505
1071
   655383
1070
     0
  0
ACAD_PROXY_OBJECT
  5
1D30
102
{ACAD_REACTORS
330
1D21
102
}
330
1D21
100
AcDbProxyObject
 90
      499
 91
      510
 93
      452
310
43119858D95C185D1D195C9B8010F409028333333333333E3BF0000000000000FB010790141107004050150841D405064090741402480A0350
 94
        0
1001
ACAD
1000
AcDbSavedByObjectVersion
1070
     0
1000
AcadProxyRoundTripData
1071
      505
1071
   655383
1070
     0
  0
ACAD_PROXY_OBJECT
  5
1D22
102
{ACAD_REACTORS
330
1D21
102
}
330
1D21
100
AcDbProxyObject
 90
      499
 91
      510
 93
      396
310
41519B185D00240901404333333333333E3BF0000000000000F9010740A41107004050150841D405064090741402480A1B55
 94
        0
1001
ACAD
1000
AcDbSavedByObjectVersion
1070
     0
1000
AcadProxyRoundTripData
1071
      505
1071
   655383
1070
     0
  0
ACAD_PROXY_OBJECT
  5
1D23
102
{ACAD_REACTORS
330
1D21
102
}
330
1D21
100
AcDbProxyObject
 90
      499
 91
      510
 93
      484
310
43919B185D15DA5D1A115919D95CC010140901404333333333333E3BF0000000000000F9010740901411070040501600405405064090741402480A1B50
 94
        0
1001
ACAD
1000
AcDbSavedByObjectVersion
1070
     0
1000
AcadProxyRoundTripData
1071
      505
1071
   655383
1070
     0
  0
ACAD_PROXY_OBJECT
  5
1D24
102
{ACAD_REACTORS
330
1D21
102
}
330
1D21
100
AcDbProxyObject
 90
      499
 91
      510
 93
      420
310
4211DBDD5C985D590010240902404333333333333E3BF0000000000000F9010740A411070040501641D405064090741402480A1B50
 94
        0
1001
ACAD
1000
AcDbSavedByObjectVersion
1070
     0
1000
AcadProxyRoundTripData
1071
      505
1071
   655383
1070
     0
  0
ACAD_PROXY_OBJECT
  5
1D25
102
{ACAD_REACTORS
330
1D21
102
}
330
1D21
100
AcDbProxyObject
 90
      499
 91
      510
 93
      508
310
4451DBDD5C985D5915DA5D1A115919D95CC010340902404333333333333E3BF0000000000000F9010740901411070040501600405405064090741402480A1B50
 94
        0
1001
ACAD
1000
AcDbSavedByObjectVersion
1070
     0
1000
AcadProxyRoundTripData
1071
      505
1071
   655383
1070
     0
  0
ACAD_PROXY_OBJECT
  5
1D2F
102
{ACAD_REACTORS
330
1D21
102
}
330
1D21
100
AcDbProxyObject
 90
      499
 91
      510
 93
      452
310
43131A5B995C185D1D195C9B8010E409028333333333333E3BF0000000000000FB010790141107004050750841D405064090741402483A0350
 94
        0
1001
ACAD
1000
AcDbSavedByObjectVersion
1070
     0
1000
AcadProxyRoundTripData
1071
      505
1071
   655383
1070
     0
  0
ACAD_PROXY_OBJECT
  5
1D2B
102
{ACAD_REACTORS
330
1D21
102
}
330
1D21
100
AcDbProxyObject
 90
      499
 91
      510
 93
      428
310
429499585B1A5CDD1A58C0108409028333333333333E3BF0000000000000FB01079019070040501508421405064090741402480A1B45
 94
        0
1001
ACAD
1000
AcDbSavedByObjectVersion
1070
     0
1000
AcadProxyRoundTripData
1071
      505
1071
   655383
1070
     0
  0
ACAD_PROXY_OBJECT
  5
1D2E
102
{ACAD_REACTORS
330
1D21
102
}
330
1D21
100
AcDbProxyObject
 90
      499
 91
      510
 93
      420
310
42151A1A58DAD95B8010D409028333333333333E3BF0000000000000FB010790141107004050150C41D405064090741402480A0352
 94
        0
1001
ACAD
1000
AcDbSavedByObjectVersion
1070
     0
1000
AcadProxyRoundTripData
1071
      505
1071
   655383
1070
     0
  0
XRECORD
  5
2DF4
102
{ACAD_REACTORS
330
2DEA
102
}
330
2DEA
100
AcDbXrecord
 90
        0
  0
XRECORD
  5
2DF8
102
{ACAD_REACTORS
330
2DEA
102
}
330
2DEA
100
AcDbXrecord
1000
DSTYLE
1002
{
1070
   179
 70
     2
1070
   277
 70
     6
1002
}
  0
XRECORD
  5
2DF5
102
{ACAD_REACTORS
330
2DEA
102
}
330
2DEA
100
AcDbXrecord
  1
{6385560B-F4B1-4644-A7C2-A3E32AC3D232}
  0
XRECORD
  5
2DED
102
{ACAD_REACTORS
330
2DEA
102
}
330
2DEA
100
AcDbXrecord
  1

  0
XRECORD
  5
2DF3
102
{ACAD_REACTORS
330
2DEA
102
}
330
2DEA
100
AcDbXrecord
 90
        0
  0
XRECORD
  5
2DEF
102
{ACAD_REACTORS
330
2DEA
102
}
330
2DEA
100
AcDbXrecord
340
61
  0
XRECORD
  5
2DF2
102
{ACAD_REACTORS
330
2DEA
102
}
330
2DEA
100
AcDbXrecord
 90
    10781
  0
XRECORD
  5
2DF0
102
{ACAD_REACTORS
330
2DEA
102
}
330
2DEA
100
AcDbXrecord
340
77
  0
XRECORD
  5
2DF1
102
{ACAD_REACTORS
330
2DEA
102
}
330
2DEA
100
AcDbXrecord
340
6
  0
XRECORD
  5
2DF7
102
{ACAD_REACTORS
330
2DEA
102
}
330
2DEA
100
AcDbXrecord
 40
0.0
  0
XRECORD
  5
2DFB
102
{ACAD_REACTORS
330
2DEA
102
}
330
2DEA
100
AcDbXrecord
340
0
  0
XRECORD
  5
2E01
102
{ACAD_REACTORS
330
2DEA
102
}
330
2DEA
100
AcDbXrecord
 10
0.0
 20
0.0
 30
0.0
  0
XRECORD
  5
2DFD
102
{ACAD_REACTORS
330
2DEA
102
}
330
2DEA
100
AcDbXrecord
 10
0.0
 20
0.0
 30
0.0
  0
XRECORD
  5
2E00
102
{ACAD_REACTORS
330
2DEA
102
}
330
2DEA
100
AcDbXrecord
 10
0.0
 20
0.0
 30
0.0
  0
XRECORD
  5
2DFE
102
{ACAD_REACTORS
330
2DEA
102
}
330
2DEA
100
AcDbXrecord
 10
0.0
 20
0.0
 30
0.0
  0
XRECORD
  5
2DFF
102
{ACAD_REACTORS
330
2DEA
102
}
330
2DEA
100
AcDbXrecord
 10
0.0
 20
0.0
 30
0.0
  0
XRECORD
  5
2DFC
102
{ACAD_REACTORS
330
2DEA
102
}
330
2DEA
100
AcDbXrecord
 10
0.0
 20
0.0
 30
0.0
  0
XRECORD
  5
2DF9
102
{ACAD_REACTORS
330
2DEA
102
}
330
2DEA
100
AcDbXrecord
340
0
  0
XRECORD
  5
2DFA
102
{ACAD_REACTORS
330
2DEA
102
}
330
2DEA
100
AcDbXrecord
 70
     0
  0
XRECORD
  5
2DEE
102
{ACAD_REACTORS
330
2DEA
102
}
330
2DEA
100
AcDbXrecord
  1
Sekkei.ctb
  0
XRECORD
  5
2DEB
102
{ACAD_REACTORS
330
2DEA
102
}
330
2DEA
100
AcDbXrecord
 90
        1
  0
XRECORD
  5
2DEC
102
{ACAD_REACTORS
330
2DEA
102
}
330
2DEA
100
AcDbXrecord
 90
       70
  0
XRECORD
  5
2E04
102
{ACAD_REACTORS
330
2DEA
102
}
330
2DEA
100
AcDbXrecord
340
0
  0
XRECORD
  5
2E0A
102
{ACAD_REACTORS
330
2DEA
102
}
330
2DEA
100
AcDbXrecord
 10
0.0
 20
0.0
 30
0.0
  0
XRECORD
  5
2E06
102
{ACAD_REACTORS
330
2DEA
102
}
330
2DEA
100
AcDbXrecord
 10
0.0
 20
0.0
 30
0.0
  0
XRECORD
  5
2E09
102
{ACAD_REACTORS
330
2DEA
102
}
330
2DEA
100
AcDbXrecord
 10
0.0
 20
0.0
 30
0.0
  0
XRECORD
  5
2E07
102
{ACAD_REACTORS
330
2DEA
102
}
330
2DEA
100
AcDbXrecord
 10
0.0
 20
0.0
 30
0.0
  0
XRECORD
  5
2E08
102
{ACAD_REACTORS
330
2DEA
102
}
330
2DEA
100
AcDbXrecord
 10
0.0
 20
0.0
 30
0.0
  0
XRECORD
  5
2E05
102
{ACAD_REACTORS
330
2DEA
102
}
330
2DEA
100
AcDbXrecord
 10
0.0
 20
0.0
 30
0.0
  0
XRECORD
  5
2E02
102
{ACAD_REACTORS
330
2DEA
102
}
330
2DEA
100
AcDbXrecord
340
0
  0
XRECORD
  5
2E03
102
{ACAD_REACTORS
330
2DEA
102
}
330
2DEA
100
AcDbXrecord
 70
     0
  0
XRECORD
  5
2DF6
102
{ACAD_REACTORS
330
2DEA
102
}
330
2DEA
100
AcDbXrecord
  1
{D8CE0543-E8E7-4C54-B3A7-5BC9672341E1}
  0
DICTIONARYVAR
  5
1D9E
102
{ACAD_REACTORS
330
102
102
}
330
102
100
DictionaryVariables
280
     0
  1
1:1
  0
DICTIONARYVAR
  5
1D9D
102
{ACAD_REACTORS
330
102
102
}
330
102
100
DictionaryVariables
280
     0
  1
STANDARD
  0
DICTIONARYVAR
  5
1D9C
102
{ACAD_REACTORS
330
102
102
}
330
102
100
DictionaryVariables
280
     0
  1
STANDARD
  0
DICTIONARYVAR
  5
103
102
{ACAD_REACTORS
330
102
102
}
330
102
100
DictionaryVariables
280
     0
  1
1
  0
DICTIONARYVAR
  5
1D9F
102
{ACAD_REACTORS
330
102
102
}
330
102
100
DictionaryVariables
280
     0
  1
0
  0
DICTIONARYVAR
  5
549
102
{ACAD_REACTORS
330
102
102
}
330
102
100
DictionaryVariables
280
     0
  1
96
  0
DICTIONARY
  5
1D12
330
1D11
100
AcDbDictionary
280
     1
  3
ACAD_XREC_ROUNDTRIP
360
2DC9
  3
BUMPTILE
360
1D14
  3
DIFFUSETILE
360
1D13
  3
OPACITYTILE
360
1D17
  3
REFLECTIONTILE
360
1D16
  3
REFRACTIONTILE
360
1D18
  3
SPECULARTILE
360
1D15
  0
DICTIONARY
  5
1D0A
330
1D09
100
AcDbDictionary
280
     1
  3
ACAD_XREC_ROUNDTRIP
360
2DC8
  3
BUMPTILE
360
1D0C
  3
DIFFUSETILE
360
1D0B
  3
OPACITYTILE
360
1D0F
  3
REFLECTIONTILE
360
1D0E
  3
REFRACTIONTILE
360
1D10
  3
SPECULARTILE
360
1D0D
  0
DICTIONARY
  5
1D1A
330
1D19
100
AcDbDictionary
280
     1
  3
ACAD_XREC_ROUNDTRIP
360
2DCA
  3
BUMPTILE
360
1D1C
  3
DIFFUSETILE
360
1D1B
  3
OPACITYTILE
360
1D1F
  3
REFLECTIONTILE
360
1D1E
  3
REFRACTIONTILE
360
1D20
  3
SPECULARTILE
360
1D1D
  0
DICTIONARY
  5
1D7B
330
1D34
100
AcDbDictionary
280
     1
  3
ACAD_ROUNDTRIP_2008_TABLES
360
2DB6
  3
ACAD_XREC_ROUNDTRIP
360
2DCB
  0
XRECORD
  5
2DC9
102
{ACAD_REACTORS
330
1D12
102
}
330
1D12
100
AcDbXrecord
102
MATERIAL
148
0.0
149
0.0
149
0.0
 93
        0
 94
      127
282
     0
 72
     0
 77
     0
171
     0
175
     0
179
     0
273
     0
  0
XRECORD
  5
1D14
102
{ACAD_REACTORS
330
1D12
102
}
330
1D12
100
AcDbXrecord
270
     1
271
     1
  0
XRECORD
  5
1D13
102
{ACAD_REACTORS
330
1D12
102
}
330
1D12
100
AcDbXrecord
270
     1
271
     1
  0
XRECORD
  5
1D17
102
{ACAD_REACTORS
330
1D12
102
}
330
1D12
100
AcDbXrecord
270
     1
271
     1
  0
XRECORD
  5
1D16
102
{ACAD_REACTORS
330
1D12
102
}
330
1D12
100
AcDbXrecord
270
     1
271
     1
  0
XRECORD
  5
1D18
102
{ACAD_REACTORS
330
1D12
102
}
330
1D12
100
AcDbXrecord
270
     1
271
     1
  0
XRECORD
  5
1D15
102
{ACAD_REACTORS
330
1D12
102
}
330
1D12
100
AcDbXrecord
270
     1
271
     1
  0
XRECORD
  5
2DC8
102
{ACAD_REACTORS
330
1D0A
102
}
330
1D0A
100
AcDbXrecord
102
MATERIAL
148
0.0
149
0.0
149
0.0
 93
        0
 94
      127
282
     0
 72
     0
 77
     0
171
     0
175
     0
179
     0
273
     0
  0
XRECORD
  5
1D0C
102
{ACAD_REACTORS
330
1D0A
102
}
330
1D0A
100
AcDbXrecord
270
     1
271
     1
  0
XRECORD
  5
1D0B
102
{ACAD_REACTORS
330
1D0A
102
}
330
1D0A
100
AcDbXrecord
270
     1
271
     1
  0
XRECORD
  5
1D0F
102
{ACAD_REACTORS
330
1D0A
102
}
330
1D0A
100
AcDbXrecord
270
     1
271
     1
  0
XRECORD
  5
1D0E
102
{ACAD_REACTORS
330
1D0A
102
}
330
1D0A
100
AcDbXrecord
270
     1
271
     1
  0
XRECORD
  5
1D10
102
{ACAD_REACTORS
330
1D0A
102
}
330
1D0A
100
AcDbXrecord
270
     1
271
     1
  0
XRECORD
  5
1D0D
102
{ACAD_REACTORS
330
1D0A
102
}
330
1D0A
100
AcDbXrecord
270
     1
271
     1
  0
XRECORD
  5
2DCA
102
{ACAD_REACTORS
330
1D1A
102
}
330
1D1A
100
AcDbXrecord
102
MATERIAL
148
0.0
149
0.0
149
0.0
 93
        0
 94
      127
282
     0
 72
     0
 77
     0
171
     0
175
     0
179
     0
273
     0
  0
XRECORD
  5
1D1C
102
{ACAD_REACTORS
330
1D1A
102
}
330
1D1A
100
AcDbXrecord
270
     1
271
     1
  0
XRECORD
  5
1D1B
102
{ACAD_REACTORS
330
1D1A
102
}
330
1D1A
100
AcDbXrecord
270
     1
271
     1
  0
XRECORD
  5
1D1F
102
{ACAD_REACTORS
330
1D1A
102
}
330
1D1A
100
AcDbXrecord
270
     1
271
     1
  0
XRECORD
  5
1D1E
102
{ACAD_REACTORS
330
1D1A
102
}
330
1D1A
100
AcDbXrecord
270
     1
271
     1
  0
XRECORD
  5
1D20
102
{ACAD_REACTORS
330
1D1A
102
}
330
1D1A
100
AcDbXrecord
270
     1
271
     1
  0
XRECORD
  5
1D1D
102
{ACAD_REACTORS
330
1D1A
102
}
330
1D1A
100
AcDbXrecord
270
     1
271
     1
  0
ACAD_PROXY_OBJECT
  5
2DB6
102
{ACAD_REACTORS
330
1D7B
102
}
330
1D7B
100
AcDbProxyObject
 90
      499
 91
      510
 93
     5304
310
40D054060020000020000003200101A000080002A5058000000C100000000000000340FD012E07A17AD46E2B8FCB81E85EB51B8AE3F2E07A17AD46E2B8FCB81E85EB51B8AE3F02B5E8DC0F42B1CFC0AD7A3703D0AC73F419019018000000C1003FBFFFFFE02B5E8DC0F42A9CFD029018000000C1003FBFFFFFE02B5E8DC0F4
310
2A9CFD049018000000C1003FBFFFFFE02B5E8DC0F42A9CFD089018000000C1003FBFFFFFE02B5E8DC0F42A9CFD109018000000C1003FBFFFFFE02B5E8DC0F42A9CFD209018000000C1003FBFFFFFE02B5E8DC0F42A9CFD01405075F5449544C450041501A8000000C800406800020000A9416000000304000AD7A3703D0AC7
310
3F404B81E85EB51B8AE3F2E07A17AD46E2B8FCB81E85EB51B8AE3F2E07A17AD46E2B8FC0AD7A3703D0AC73F02B5E8DC0F42B1CFD0640640600000030400FEFFFFFF80AD7A3703D0AA73F40A40600000030400FEFFFFFF80AD7A3703D0AA73F41240600000030400FEFFFFFF80AD7A3703D0AA73F42240600000030400FEFFF
310
FFF80AD7A3703D0AA73F44240600000030400FEFFFFFF80AD7A3703D0AA73F48240600000030400FEFFFFFF80AD7A3703D0AA73F409014217D2115051115480105406A0000003200101A000080002A5028000000C10002B5E8DC0F42B1CFD012E07A17AD46E2B8FCB81E85EB51B8AE3F2E07A17AD46E2B8FCB81E85EB51B8A
310
E3F02B5E8DC0F42B1CFC0AD7A3703D0AC73F419019018000000C1003FBFFFFFE02B5E8DC0F42A9CFD029018000000C1003FBFFFFFE02B5E8DC0F42A9CFD049018000000C1003FBFFFFFE02B5E8DC0F42A9CFD089018000000C1003FBFFFFFE02B5E8DC0F42A9CFD109018000000C1003FBFFFFFE02B5E8DC0F42A9CFD20901
310
8000000C1003FBFFFFFE02B5E8DC0F42A9CFD03409065F444154410000
340
16
340
0
340
0
340
0
340
0
340
0
340
0
340
16
340
0
340
0
340
0
340
0
340
0
340
0
340
16
340
0
340
0
340
0
340
0
340
0
340
0
 94
        0
1001
ACAD
1000
AcadProxyRoundTripData
1071
      509
1071
   655383
1070
     0
  0
XRECORD
  5
2DCB
102
{ACAD_REACTORS
330
1D7B
102
}
330
1D7B
100
AcDbXrecord
102
ACAD_ROUNDTRIP_PRE2007_TABLESTYLE
 90
      512
 91
        0
  1

 92
      512
 93
        0
  2

 94
      512
 95
        0
  3

  0
ENDSEC
  0
EOF
