  0
SECTION
  2
HEADER
  9
$ACADVER
  1
AC1014
  9
$ACADMAINTVER
 70
     9
  9
$DWGCODEPAGE
  3
ANSI_932
  9
$INSBASE
 10
0.0
 20
0.0
 30
0.0
  9
$EXTMIN
 10
39.41773954964492
 20
51.48611662205212
 30
0.0
  9
$EXTMAX
 10
768.2034383367247
 20
506.3725808750673
 30
0.0
  9
$LIMMIN
 10
0.0
 20
0.0
  9
$LIMMAX
 10
297.0
 20
210.0
  9
$ORTHOMODE
 70
     1
  9
$REGENMODE
 70
     1
  9
$FILLMODE
 70
     1
  9
$QTEXTMODE
 70
     0
  9
$MIRRTEXT
 70
     0
  9
$DRAGMODE
 70
     2
  9
$LTSCALE
 40
2.0
  9
$OSMODE
 70
    37
  9
$ATTMODE
 70
     1
  9
$TEXTSIZE
 40
2.0
  9
$TRACEWID
 40
1.0
  9
$TEXTSTYLE
  7
STANDARD
  9
$CLAYER
  8
0
  9
$CELTYPE
  6
BYLAYER
  9
$CECOLOR
 62
   256
  9
$CELTSCALE
 40
1.0
  9
$DELOBJ
 70
     1
  9
$DISPSILH
 70
     0
  9
$DIMSCALE
 40
2.0
  9
$DIMASZ
 40
1.8
  9
$DIMEXO
 40
0.625
  9
$DIMDLI
 40
3.75
  9
$DIMRND
 40
0.0
  9
$DIMDLE
 40
0.0
  9
$DIMEXE
 40
0.8
  9
$DIMTP
 40
0.0
  9
$DIMTM
 40
0.0
  9
$DIMTXT
 40
1.8
  9
$DIMCEN
 40
2.5
  9
$DIMTSZ
 40
0.0
  9
$DIMTOL
 70
     0
  9
$DIMLIM
 70
     0
  9
$DIMTIH
 70
     0
  9
$DIMTOH
 70
     0
  9
$DIMSE1
 70
     0
  9
$DIMSE2
 70
     0
  9
$DIMTAD
 70
     1
  9
$DIMZIN
 70
     8
  9
$DIMBLK
  1

  9
$DIMASO
 70
     1
  9
$DIMSHO
 70
     1
  9
$DIMPOST
  1

  9
$DIMAPOST
  1

  9
$DIMALT
 70
     0
  9
$DIMALTD
 70
     4
  9
$DIMALTF
 40
0.0394
  9
$DIMLFAC
 40
1.0
  9
$DIMTOFL
 70
     1
  9
$DIMTVP
 40
0.0
  9
$DIMTIX
 70
     0
  9
$DIMSOXD
 70
     0
  9
$DIMSAH
 70
     0
  9
$DIMBLK1
  1

  9
$DIMBLK2
  1

  9
$DIMSTYLE
  2
STANDARD
  9
$DIMCLRD
 70
     0
  9
$DIMCLRE
 70
     0
  9
$DIMCLRT
 70
     0
  9
$DIMTFAC
 40
1.0
  9
$DIMGAP
 40
0.75
  9
$DIMJUST
 70
     0
  9
$DIMSD1
 70
     0
  9
$DIMSD2
 70
     0
  9
$DIMTOLJ
 70
     1
  9
$DIMTZIN
 70
     0
  9
$DIMALTZ
 70
     0
  9
$DIMALTTZ
 70
     0
  9
$DIMFIT
 70
     3
  9
$DIMUPT
 70
     0
  9
$DIMUNIT
 70
     8
  9
$DIMDEC
 70
     2
  9
$DIMTDEC
 70
     2
  9
$DIMALTU
 70
     8
  9
$DIMALTTD
 70
     4
  9
$DIMTXSTY
  7
STANDARD
  9
$DIMAUNIT
 70
     0
  9
$LUNITS
 70
     2
  9
$LUPREC
 70
     3
  9
$SKETCHINC
 40
1.0
  9
$FILLETRAD
 40
2.0
  9
$AUNITS
 70
     0
  9
$AUPREC
 70
     2
  9
$MENU
  1
.
  9
$ELEVATION
 40
0.0
  9
$PELEVATION
 40
0.0
  9
$THICKNESS
 40
0.0
  9
$LIMCHECK
 70
     0
  9
$BLIPMODE
 70
     0
  9
$CHAMFERA
 40
0.0
  9
$CHAMFERB
 40
0.0
  9
$CHAMFERC
 40
20.0
  9
$CHAMFERD
 40
0.0
  9
$SKPOLY
 70
     0
  9
$TDCREATE
 40
2454411.495290613
  9
$TDUPDATE
 40
2454426.366341319
  9
$TDINDWG
 40
0.0270623380
  9
$TDUSRTIMER
 40
0.0270623380
  9
$USRTIMER
 70
     1
  9
$ANGBASE
 50
0.0
  9
$ANGDIR
 70
     0
  9
$PDMODE
 70
     0
  9
$PDSIZE
 40
-10.0
  9
$PLINEWID
 40
0.0
  9
$COORDS
 70
     0
  9
$SPLFRAME
 70
     0
  9
$SPLINETYPE
 70
     6
  9
$SPLINESEGS
 70
     8
  9
$ATTDIA
 70
     0
  9
$ATTREQ
 70
     1
  9
$HANDLING
 70
-16383
  9
$HANDSEED
  5
1DFF
  9
$SURFTAB1
 70
     6
  9
$SURFTAB2
 70
     6
  9
$SURFTYPE
 70
     6
  9
$SURFU
 70
     6
  9
$SURFV
 70
     6
  9
$UCSNAME
  2

  9
$UCSORG
 10
0.0
 20
0.0
 30
0.0
  9
$UCSXDIR
 10
1.0
 20
0.0
 30
0.0
  9
$UCSYDIR
 10
0.0
 20
1.0
 30
0.0
  9
$PUCSNAME
  2

  9
$PUCSORG
 10
0.0
 20
0.0
 30
0.0
  9
$PUCSXDIR
 10
1.0
 20
0.0
 30
0.0
  9
$PUCSYDIR
 10
0.0
 20
1.0
 30
0.0
  9
$USERI1
 70
     0
  9
$USERI2
 70
     0
  9
$USERI3
 70
     0
  9
$USERI4
 70
     0
  9
$USERI5
 70
     0
  9
$USERR1
 40
0.0
  9
$USERR2
 40
0.0
  9
$USERR3
 40
0.0
  9
$USERR4
 40
0.0
  9
$USERR5
 40
0.0
  9
$WORLDVIEW
 70
     1
  9
$SHADEDGE
 70
     3
  9
$SHADEDIF
 70
    70
  9
$TILEMODE
 70
     1
  9
$MAXACTVP
 70
    48
  9
$PINSBASE
 10
0.0
 20
0.0
 30
0.0
  9
$PLIMCHECK
 70
     0
  9
$PEXTMIN
 10
0.0
 20
0.0
 30
0.0
  9
$PEXTMAX
 10
0.0
 20
0.0
 30
0.0
  9
$PLIMMIN
 10
0.0
 20
0.0
  9
$PLIMMAX
 10
12.0
 20
9.0
  9
$UNITMODE
 70
     0
  9
$VISRETAIN
 70
     1
  9
$PLINEGEN
 70
     0
  9
$PSLTSCALE
 70
     1
  9
$TREEDEPTH
 70
  3020
  9
$PICKSTYLE
 70
     1
  9
$CMLSTYLE
  2
STANDARD
  9
$CMLJUST
 70
     0
  9
$CMLSCALE
 40
1.0
  9
$PROXYGRAPHICS
 70
     1
  9
$MEASUREMENT
 70
     0
  0
ENDSEC
  0
SECTION
  2
CLASSES
  0
CLASS
  1
DICTIONARYVAR
  2
AcDbDictionaryVar
  3
AutoCAD 2000
 90
        0
280
     0
281
     0
  0
CLASS
  1
ACDBDICTIONARYWDFLT
  2
AcDbDictionaryWithDefault
  3
AutoCAD 2000
 90
        0
280
     0
281
     0
  0
CLASS
  1
ACDBPLACEHOLDER
  2
AcDbPlaceHolder
  3
AutoCAD 2000
 90
        0
280
     0
281
     0
  0
CLASS
  1
LAYOUT
  2
AcDbLayout
  3
AutoCAD 2000
 90
        0
280
     0
281
     0
  0
CLASS
  1
MATERIAL
  2
AcDbMaterial
  3
ObjectDBX Classes
 90
     1153
280
     0
281
     0
  0
CLASS
  1
VISUALSTYLE
  2
AcDbVisualStyle
  3
ObjectDBX Classes
 90
     4095
280
     0
281
     0
  0
CLASS
  1
TABLESTYLE
  2
AcDbTableStyle
  3
ObjectDBX Classes
 90
     4095
280
     0
281
     0
  0
CLASS
  1
SCALE
  2
AcDbScale
  3
ObjectDBX Classes
 90
     1153
280
     0
281
     0
  0
CLASS
  1
MLEADERSTYLE
  2
AcDbMLeaderStyle
  3
ACDB_MLEADERSTYLE_CLASS
 90
     4095
280
     0
281
     0
  0
CLASS
  1
CELLSTYLEMAP
  2
AcDbCellStyleMap
  3
ObjectDBX Classes
 90
     1152
280
     0
281
     0
  0
CLASS
  1
ACAD_PROXY_OBJECT_WRAPPER
  2
AcDbProxyObjectWrapper
  3
AutoCAD 2000
 90
        0
280
     0
281
     0
  0
CLASS
  1
LONG_TRANSACTION
  2
AcDbLongTransaction
  3
AutoCAD 2000
 90
        0
280
     0
281
     0
  0
CLASS
  1
LWPOLYLINE
  2
AcDbPolyline
  3
AutoCAD 2000
 90
        0
280
     0
281
     1
  0
CLASS
  1
HATCH
  2
AcDbHatch
  3
AutoCAD 2000
 90
        0
280
     0
281
     1
  0
CLASS
  1
XRECORD
  2
AcDbXrecord
  3
AutoCAD 2000
 90
        0
280
     0
281
     0
  0
ENDSEC
  0
SECTION
  2
TABLES
  0
TABLE
  2
VPORT
  5
6E
102
{ACAD_XDICTIONARY
360
1C69
102
}
330
0
100
AcDbSymbolTable
 70
     2
  0
VPORT
  5
1DD9
330
6E
100
AcDbSymbolTableRecord
100
AcDbViewportTableRecord
  2
*ACTIVE
 70
     0
 10
0.0
 20
0.0
 11
1.0
 21
1.0
 12
448.1002270700346
 22
270.7919634246333
 13
0.0
 23
0.0
 14
10.0
 24
10.0
 15
10.0
 25
10.0
 16
0.0
 26
0.0
 36
1.0
 17
0.0
 27
0.0
 37
0.0
 40
475.00025909026
 41
1.753504672897196
 42
50.0
 43
0.0
 44
0.0
 50
0.0
 51
0.0
 71
     0
 72
   100
 73
     1
 74
     3
 75
     0
 76
     0
 77
     0
 78
     0
  0
ENDTAB
  0
TABLE
  2
LTYPE
  5
69
330
0
100
AcDbSymbolTable
 70
     8
  0
LTYPE
  5
6A
330
69
100
AcDbSymbolTableRecord
100
AcDbLinetypeTableRecord
  2
BYBLOCK
 70
     0
  3

 72
    65
 73
     0
 40
0.0
  0
LTYPE
  5
6B
330
69
100
AcDbSymbolTableRecord
100
AcDbLinetypeTableRecord
  2
BYLAYER
 70
     0
  3

 72
    65
 73
     0
 40
0.0
  0
LTYPE
  5
8
330
69
100
AcDbSymbolTableRecord
100
AcDbLinetypeTableRecord
  2
CONTINUOUS
 70
     0
  3
Solid line
 72
    65
 73
     0
 40
0.0
  0
LTYPE
  5
27C
330
69
100
AcDbSymbolTableRecord
100
AcDbLinetypeTableRecord
  2
SEKKEI_A2_
 70
     0
  3
center(A2)  ____ _ ____ _ ____ _ ____ _ ____ _ 
 72
    65
 73
     4
 40
14.28749999999999
 49
9.525
 74
     0
 49
-1.587499999999999
 74
     0
 49
1.587499999999999
 74
     0
 49
-1.587499999999999
 74
     0
  0
LTYPE
  5
48F
330
69
100
AcDbSymbolTableRecord
100
AcDbLinetypeTableRecord
  2
SEKKEI_H
 70
     0
  3
Hidden-S _ _ _ _ _ _ _ _ _ _ _ _ _ _ _ _ _
 72
    65
 73
     2
 40
2.381249999999999
 49
1.587499999999999
 74
     0
 49
-0.79375
 74
     0
  0
LTYPE
  5
494
330
69
100
AcDbSymbolTableRecord
100
AcDbLinetypeTableRecord
  2
SEKKEI_P_S
 70
     0
  3
Phantom_S   __ _ _ __ _ _ __ _ _ ___
 72
    65
 73
     6
 40
7.5
 49
3.75
 74
     0
 49
-0.75
 74
     0
 49
0.75
 74
     0
 49
-0.75
 74
     0
 49
0.75
 74
     0
 49
-0.75
 74
     0
  0
LTYPE
  5
7EF
330
69
100
AcDbSymbolTableRecord
100
AcDbLinetypeTableRecord
  2
PHANTOM3
 70
     0
  3
Phantom  ___ _ _ ___ _ _ ___ _ _ ___ _ _
 72
    65
 73
     6
 40
9.0
 49
4.0
 74
     0
 49
-1.0
 74
     0
 49
1.0
 74
     0
 49
-1.0
 74
     0
 49
1.0
 74
     0
 49
-1.0
 74
     0
  0
LTYPE
  5
7F0
330
69
100
AcDbSymbolTableRecord
100
AcDbLinetypeTableRecord
  2
HIDDEN3
 70
     0
  3
Hidden (.3x) _ _ _ _ _ _ _ _ _ _ _ _ _ _ _ _ _
 72
    65
 73
     2
 40
2.857499999999999
 49
1.905
 74
     0
 49
-0.9525
 74
     0
  0
LTYPE
  5
B11
330
69
100
AcDbSymbolTableRecord
100
AcDbLinetypeTableRecord
  2
CENS
 70
     0
  3
(一点鎖線１)---- - ---- - ---- - ---- - ---- - 
 72
    65
 73
     4
 40
7.0
 49
4.0
 74
     0
 49
-1.0
 74
     0
 49
1.0
 74
     0
 49
-1.0
 74
     0
  0
ENDTAB
  0
TABLE
  2
LAYER
  5
66
102
{ACAD_XDICTIONARY
360
B12
102
}
330
0
100
AcDbSymbolTable
 70
    10
  0
LAYER
  5
5E
102
{ACAD_XDICTIONARY
360
1C4E
102
}
330
66
100
AcDbSymbolTableRecord
100
AcDbLayerTableRecord
  2
0
 70
     0
 62
     7
  6
CONTINUOUS
  0
LAYER
  5
3E
102
{ACAD_XDICTIONARY
360
1C50
102
}
330
66
100
AcDbSymbolTableRecord
100
AcDbLayerTableRecord
  2
CENTER
 70
     0
 62
     3
  6
SEKKEI_A2_
  0
LAYER
  5
2B5
102
{ACAD_XDICTIONARY
360
1C56
102
}
330
66
100
AcDbSymbolTableRecord
100
AcDbLayerTableRecord
  2
HIDS
 70
     0
 62
     1
  6
HIDDEN3
  0
LAYER
  5
2BA
102
{ACAD_XDICTIONARY
360
1C58
102
}
330
66
100
AcDbSymbolTableRecord
100
AcDbLayerTableRecord
  2
HOJO
 70
     0
 62
     4
  6
CONTINUOUS
  0
LAYER
  5
478
102
{ACAD_XDICTIONARY
360
1C5C
102
}
330
66
100
AcDbSymbolTableRecord
100
AcDbLayerTableRecord
  2
PHAS
 70
     0
 62
     2
  6
PHANTOM3
  0
LAYER
  5
1D9A
102
{ACAD_XDICTIONARY
360
1D9B
102
}
330
66
100
AcDbSymbolTableRecord
100
AcDbLayerTableRecord
  2
TITLE
 70
     0
 62
     4
  6
CONTINUOUS
  0
ENDTAB
  0
TABLE
  2
STYLE
  5
67
330
0
100
AcDbSymbolTable
 70
     2
  0
STYLE
  5
16
330
67
100
AcDbSymbolTableRecord
100
AcDbTextStyleTableRecord
  2
STANDARD
 70
     0
 40
0.0
 41
1.0
 50
0.0
 71
     0
 42
2.0
  3
simplex.shx
  4
extfont.shx
  0
ENDTAB
  0
TABLE
  2
VIEW
  5
6C
330
0
100
AcDbSymbolTable
 70
     0
  0
ENDTAB
  0
TABLE
  2
UCS
  5
6D
330
0
100
AcDbSymbolTable
 70
     0
  0
ENDTAB
  0
TABLE
  2
APPID
  5
70
330
0
100
AcDbSymbolTable
 70
     3
  0
APPID
  5
71
330
70
100
AcDbSymbolTableRecord
100
AcDbRegAppTableRecord
  2
ACAD
 70
     0
  0
APPID
  5
1A74
330
70
100
AcDbSymbolTableRecord
100
AcDbRegAppTableRecord
  2
ACAD_MLEADERVER
 70
     0
  0
APPID
  5
1CDC
330
70
100
AcDbSymbolTableRecord
100
AcDbRegAppTableRecord
  2
ACAD_DSTYLE_DIMRADIAL_EXTENSION
 70
     0
  0
ENDTAB
  0
TABLE
  2
DIMSTYLE
  5
72
330
0
100
AcDbSymbolTable
 70
     1
  0
DIMSTYLE
105
73
330
72
100
AcDbSymbolTableRecord
100
AcDbDimStyleTableRecord
  2
STANDARD
 70
     0
  3

  4

  5

  6

  7

 40
2.0
 41
1.8
 42
0.625
 43
3.75
 44
0.8
 45
0.0
 46
0.0
 47
0.0
 48
0.0
140
1.8
141
2.5
142
0.0
143
0.0394
144
1.0
145
0.0
146
1.0
147
0.75
 71
     0
 72
     0
 73
     0
 74
     0
 75
     0
 76
     0
 77
     1
 78
     8
170
     0
171
     4
172
     1
173
     0
174
     0
175
     0
176
     0
177
     0
178
     0
270
     8
271
     2
272
     2
273
     8
274
     4
340
16
275
     0
280
     0
281
     0
282
     0
283
     1
284
     0
285
     0
286
     0
287
     3
288
     0
  0
ENDTAB
  0
TABLE
  2
BLOCK_RECORD
  5
1
330
0
100
AcDbSymbolTable
 70
    56
  0
BLOCK_RECORD
  5
2
102
{ACAD_XDICTIONARY
360
1DFB
102
}
330
1
100
AcDbSymbolTableRecord
100
AcDbBlockTableRecord
  2
*MODEL_SPACE
  0
BLOCK_RECORD
  5
1DD4
102
{ACAD_XDICTIONARY
360
1DFD
102
}
330
1
100
AcDbSymbolTableRecord
100
AcDbBlockTableRecord
  2
*PAPER_SPACE
  0
ENDTAB
  0
ENDSEC
  0
SECTION
  2
BLOCKS
  0
BLOCK
  5
5D
330
2
100
AcDbEntity
  8
0
100
AcDbBlockBegin
  2
*MODEL_SPACE
 70
     0
 10
0.0
 20
0.0
 30
0.0
  3
*MODEL_SPACE
  1

  0
ENDBLK
  5
5F
330
2
100
AcDbEntity
  8
0
100
AcDbBlockEnd
  0
BLOCK
  5
1DD6
330
1DD4
100
AcDbEntity
 67
     1
  8
0
100
AcDbBlockBegin
  2
*PAPER_SPACE
 70
     0
 10
0.0
 20
0.0
 30
0.0
  3
*PAPER_SPACE
  1

  0
ENDBLK
  5
1DD7
330
1DD4
100
AcDbEntity
 67
     1
  8
0
100
AcDbBlockEnd
  0
ENDSEC
  0
SECTION
  2
ENTITIES
  0
LINE
  5
FB9
330
2
100
AcDbEntity
  8
0
100
AcDbLine
 10
740.203545336725
 20
298.4190043008688
 30
0.0
 11
740.2035453367245
 21
290.508290015166
 31
0.0
  0
LINE
  5
FBA
330
2
100
AcDbEntity
  8
CENTER
100
AcDbLine
 10
717.203545336725
 20
305.2182863416814
 30
0.0
 11
717.203545336725
 21
219.6197222600562
 31
0.0
  0
LINE
  5
FBB
330
2
100
AcDbEntity
  8
0
100
AcDbLine
 10
687.2035453367246
 20
297.9564803079587
 30
0.0
 11
687.2035453367227
 21
226.8815282937789
 31
0.0
  0
LINE
  5
FBC
330
2
100
AcDbEntity
  8
CENTER
100
AcDbLine
 10
455.6503885559343
 20
390.3726878750671
 30
0.0
 11
455.6503885559338
 21
506.3725808750673
 31
0.0
  0
LINE
  5
FBD
330
2
100
AcDbEntity
  8
CENTER
100
AcDbLine
 10
412.8511065151214
 20
455.3726878750671
 30
0.0
 11
592.4503461065248
 21
455.3726878750671
 31
0.0
  0
LINE
  5
FBE
330
2
100
AcDbEntity
  8
CENTER
100
AcDbLine
 10
652.2035453367245
 20
262.4190043008688
 30
0.0
 11
768.2034383367247
 21
262.4190043008688
 31
0.0
  0
LINE
  5
FBF
330
2
100
AcDbEntity
  8
0
100
AcDbLine
 10
682.203545336725
 20
292.4190038399005
 30
0.0
 11
682.203545336725
 21
232.4190038399005
 31
0.0
  0
LINE
  5
FC0
330
2
100
AcDbEntity
  8
0
100
AcDbLine
 10
687.203545336725
 20
292.4190038399005
 30
0.0
 11
682.203545336725
 21
292.4190038399005
 31
0.0
  0
LINE
  5
FC1
330
2
100
AcDbEntity
  8
0
100
AcDbLine
 10
687.203545336725
 20
232.4190038399005
 30
0.0
 11
682.203545336725
 21
232.4190038399005
 31
0.0
  0
LINE
  5
FC2
330
2
100
AcDbEntity
  8
CENTER
100
AcDbLine
 10
219.2177400106136
 20
262.4190043008688
 30
0.0
 11
39.41773954964492
 21
262.4190043008688
 31
0.0
  0
LINE
  5
FC3
330
2
100
AcDbEntity
  8
0
100
AcDbLine
 10
740.2035453367209
 20
234.3297185865734
 30
0.0
 11
740.2035453367204
 21
226.4190043008688
 31
0.0
  0
LINE
  5
FC4
330
2
100
AcDbEntity
  8
CENTER
100
AcDbLine
 10
176.2177400106131
 20
219.4190043008688
 30
0.0
 11
176.2177400106131
 21
305.4190043008688
 31
0.0
  0
LINE
  5
FC5
330
2
100
AcDbEntity
  8
0
100
AcDbLine
 10
740.203545336725
 20
298.4190043008688
 30
0.0
 11
687.2035453367246
 21
297.9564803079587
 31
0.0
  0
LINE
  5
FC6
330
2
100
AcDbEntity
  8
0
100
AcDbLine
 10
740.2035453367204
 20
226.4190043008688
 30
0.0
 11
687.2035453367227
 21
226.8815282937789
 31
0.0
  0
LINE
  5
FC7
330
2
100
AcDbEntity
  8
CENTER
100
AcDbLine
 10
404.6503885559343
 20
262.4190043008688
 30
0.0
 11
592.4503461065246
 21
262.4190043008688
 31
0.0
  0
LINE
  5
FC8
330
2
100
AcDbEntity
  8
CENTER
100
AcDbLine
 10
493.7214563678001
 20
300.4900721127343
 30
0.0
 11
417.5793207440695
 21
224.3479364890044
 31
0.0
  0
LINE
  5
FC9
330
2
100
AcDbEntity
  8
CENTER
100
AcDbLine
 10
417.5793207440715
 20
300.4900721127351
 30
0.0
 11
493.7214563677964
 21
224.3479364889996
 31
0.0
  0
CIRCLE
  5
FCA
330
2
100
AcDbEntity
  8
CENTER
100
AcDbCircle
 10
455.6503885559343
 20
262.4190043008688
 30
0.0
 40
44.0
  0
LINE
  5
FCB
330
2
100
AcDbEntity
  8
CENTER
100
AcDbLine
 10
455.6503885559343
 20
313.4190043008688
 30
0.0
 11
455.6503885559343
 21
211.4190043008688
 31
0.0
  0
LINE
  5
FCC
330
2
100
AcDbEntity
  8
CENTER
100
AcDbLine
 10
424.537690183726
 20
300.0317026730767
 30
0.0
 11
424.537690183726
 21
287.0317026730767
 31
0.0
  0
LINE
  5
FCD
330
2
100
AcDbEntity
  8
CENTER
100
AcDbLine
 10
431.0376901837259
 20
293.5317026730767
 30
0.0
 11
418.0376901837259
 21
293.5317026730767
 31
0.0
  0
LINE
  5
FCE
330
2
100
AcDbEntity
  8
CENTER
100
AcDbLine
 10
486.7630869281426
 20
300.0317026730767
 30
0.0
 11
486.7630869281426
 21
287.0317026730767
 31
0.0
  0
LINE
  5
FCF
330
2
100
AcDbEntity
  8
CENTER
100
AcDbLine
 10
493.2630869281426
 20
293.5317026730767
 30
0.0
 11
480.2630869281427
 21
293.5317026730767
 31
0.0
  0
LINE
  5
FD0
330
2
100
AcDbEntity
  8
CENTER
100
AcDbLine
 10
486.7630869281426
 20
237.8063059286609
 30
0.0
 11
486.7630869281426
 21
224.8063059286609
 31
0.0
  0
LINE
  5
FD1
330
2
100
AcDbEntity
  8
CENTER
100
AcDbLine
 10
493.2630869281426
 20
231.3063059286609
 30
0.0
 11
480.2630869281427
 21
231.3063059286609
 31
0.0
  0
LINE
  5
FD2
330
2
100
AcDbEntity
  8
CENTER
100
AcDbLine
 10
424.537690183726
 20
237.8063059286609
 30
0.0
 11
424.537690183726
 21
224.8063059286609
 31
0.0
  0
LINE
  5
FD3
330
2
100
AcDbEntity
  8
CENTER
100
AcDbLine
 10
431.0376901837259
 20
231.3063059286609
 30
0.0
 11
418.0376901837259
 21
231.3063059286609
 31
0.0
  0
LINE
  5
FD4
330
2
100
AcDbEntity
  8
0
100
AcDbLine
 10
84.41773954964469
 20
233.9190043008688
 30
0.0
 11
84.41773954964469
 21
290.9190043008688
 31
0.0
  0
LINE
  5
FD5
330
2
100
AcDbEntity
  8
0
100
AcDbLine
 10
92.41773954964514
 20
235.9190043008688
 30
0.0
 11
92.4177395496447
 21
288.9190043008688
 31
0.0
  0
LINE
  5
FD6
330
2
100
AcDbEntity
  8
0
100
AcDbLine
 10
84.41773954964469
 20
290.4190043008688
 30
0.0
 11
90.41773954964469
 21
290.4190043008688
 31
0.0
  0
ARC
  5
FD7
330
2
100
AcDbEntity
  8
0
100
AcDbCircle
 10
90.41773954964469
 20
288.4190043008688
 30
0.0
 40
2.0
100
AcDbArc
 50
0.0
 51
90.0
  0
LINE
  5
FD8
330
2
100
AcDbEntity
  8
0
100
AcDbLine
 10
84.41773954964469
 20
234.4190043008688
 30
0.0
 11
90.41773954964515
 21
234.4190043008688
 31
0.0
  0
ARC
  5
FD9
330
2
100
AcDbEntity
  8
0
100
AcDbCircle
 10
90.41773954964515
 20
236.4190043008688
 30
0.0
 40
2.0
100
AcDbArc
 50
270.0
 51
0.0
  0
ARC
  5
FDA
330
2
100
AcDbEntity
  8
0
100
AcDbCircle
 10
390.6667921110295
 20
242.7924846208856
 30
0.0
 40
30.0
100
AcDbArc
 50
346.1581756815798
 51
5.929085487876394
  0
LINE
  5
FDB
330
2
100
AcDbEntity
  8
0
100
AcDbLine
 10
491.6503885559348
 20
293.4190043008688
 30
0.0
 11
491.6503885559348
 21
231.4190043008688
 31
0.0
  0
LINE
  5
FDC
330
2
100
AcDbEntity
  8
0
100
AcDbLine
 10
539.4503890169041
 20
288.9190043008688
 30
0.0
 11
539.4503890169041
 21
235.9190043008688
 31
0.0
  0
LINE
  5
FDD
330
2
100
AcDbEntity
  8
0
100
AcDbLine
 10
547.4503890169041
 20
290.9190043008688
 30
0.0
 11
547.4503890169041
 21
233.9190043008688
 31
0.0
  0
LINE
  5
FDE
330
2
100
AcDbEntity
  8
0
100
AcDbLine
 10
519.6503885559366
 20
285.4190043008688
 30
0.0
 11
519.6503885559366
 21
239.4190043008688
 31
0.0
  0
CIRCLE
  5
FDF
330
2
100
AcDbEntity
  8
0
100
AcDbCircle
 10
455.6503885559362
 20
262.4190043008688
 30
0.0
 40
30.0
  0
CIRCLE
  5
FE0
330
2
100
AcDbEntity
  8
0
100
AcDbCircle
 10
455.6503885559362
 20
262.4190043008688
 30
0.0
 40
24.0
  0
ARC
  5
FE1
330
2
100
AcDbEntity
  8
0
100
AcDbCircle
 10
475.2769082359175
 20
197.4354078559603
 30
0.0
 40
30.0
100
AcDbArc
 50
76.15817568161926
 51
95.92908548785013
  0
ARC
  5
FE2
330
2
100
AcDbEntity
  8
0
100
AcDbCircle
 10
455.6503885559362
 20
386.419004300867
 30
0.0
 40
160.0
100
AcDbArc
 50
264.0709145121499
 51
275.92908548785
  0
CIRCLE
  5
FE3
330
2
100
AcDbEntity
  8
HOJO
100
AcDbCircle
 10
424.5376901837278
 20
231.3063059286609
 30
0.0
 40
2.5
  0
CIRCLE
  5
FE4
330
2
100
AcDbEntity
  8
0
100
AcDbCircle
 10
424.5376901837278
 20
231.3063059286609
 30
0.0
 40
2.0
  0
LINE
  5
FE5
330
2
100
AcDbEntity
  8
0
100
AcDbLine
 10
424.6503885559361
 20
226.4190043008688
 30
0.0
 11
427.6503885559361
 21
226.4190043008688
 31
0.0
  0
LINE
  5
FE6
330
2
100
AcDbEntity
  8
0
100
AcDbLine
 10
419.6503885559361
 20
234.419004300867
 30
0.0
 11
419.6503885559361
 21
231.4190043008688
 31
0.0
  0
ARC
  5
FE7
330
2
100
AcDbEntity
  8
0
100
AcDbCircle
 10
424.6503885559361
 20
234.419004300867
 30
0.0
 40
5.0
100
AcDbArc
 50
166.1581756815798
 51
180.0
  0
ARC
  5
FE8
330
2
100
AcDbEntity
  8
0
100
AcDbCircle
 10
436.0238688759543
 20
197.4354078559603
 30
0.0
 40
30.0
100
AcDbArc
 50
84.07091451214986
 51
103.8418243183807
  0
ARC
  5
FE9
330
2
100
AcDbEntity
  8
0
100
AcDbCircle
 10
427.6503885559361
 20
231.419004300867
 30
0.0
 40
5.0
100
AcDbArc
 50
270.0
 51
283.8418243183807
  0
LINE
  5
FEA
330
2
100
AcDbEntity
  8
0
100
AcDbLine
 10
547.4503890169041
 20
234.4190043008688
 30
0.0
 11
541.4503890169042
 21
234.4190043008688
 31
0.0
  0
LINE
  5
FEB
330
2
100
AcDbEntity
  8
0
100
AcDbLine
 10
494.6503885559348
 20
234.4190043008688
 30
0.0
 11
514.6503885559366
 21
234.4190043008688
 31
0.0
  0
CIRCLE
  5
FEC
330
2
100
AcDbEntity
  8
0
100
AcDbCircle
 10
486.7630869281445
 20
231.3063059286609
 30
0.0
 40
2.0
  0
CIRCLE
  5
FED
330
2
100
AcDbEntity
  8
HOJO
100
AcDbCircle
 10
486.7630869281445
 20
231.3063059286609
 30
0.0
 40
2.5
  0
LINE
  5
FEE
330
2
100
AcDbEntity
  8
0
100
AcDbLine
 10
483.6503885559356
 20
226.4190043008688
 30
0.0
 11
486.6503885559348
 21
226.4190043008688
 31
0.0
  0
ARC
  5
FEF
330
2
100
AcDbEntity
  8
0
100
AcDbCircle
 10
483.6503885559356
 20
231.419004300867
 30
0.0
 40
5.0
100
AcDbArc
 50
256.1581756815797
 51
270.0
  0
ARC
  5
FF0
330
2
100
AcDbEntity
  8
0
100
AcDbCircle
 10
514.6503885559366
 20
239.4190043008688
 30
0.0
 40
5.0
100
AcDbArc
 50
270.0
 51
0.0
  0
ARC
  5
FF1
330
2
100
AcDbEntity
  8
0
100
AcDbCircle
 10
541.4503890169042
 20
236.4190043008688
 30
0.0
 40
2.0
100
AcDbArc
 50
180.0
 51
270.0
  0
ARC
  5
FF2
330
2
100
AcDbEntity
  8
0
100
AcDbCircle
 10
475.2769082359179
 20
327.4026007457736
 30
0.0
 40
30.0
100
AcDbArc
 50
264.0709145121499
 51
283.8418243183807
  0
ARC
  5
FF3
330
2
100
AcDbEntity
  8
0
100
AcDbCircle
 10
424.6503885559361
 20
290.419004300867
 30
0.0
 40
5.0
100
AcDbArc
 50
180.0
 51
193.8418243184201
  0
CIRCLE
  5
FF4
330
2
100
AcDbEntity
  8
0
100
AcDbCircle
 10
455.6503885559362
 20
262.4190043008688
 30
0.0
 40
19.0
  0
ARC
  5
FF5
330
2
100
AcDbEntity
  8
0
100
AcDbCircle
 10
579.6503885559361
 20
262.419004300867
 30
0.0
 40
160.0
100
AcDbArc
 50
174.0709145121236
 51
185.9290854878763
  0
ARC
  5
FF6
330
2
100
AcDbEntity
  8
0
100
AcDbCircle
 10
390.6667921110295
 20
282.0455239808483
 30
0.0
 40
30.0
100
AcDbArc
 50
354.0709145121236
 51
13.84182431842014
  0
ARC
  5
FF7
330
2
100
AcDbEntity
  8
0
100
AcDbCircle
 10
455.6503885559362
 20
138.419004300867
 30
0.0
 40
160.0
100
AcDbArc
 50
84.07091451214986
 51
95.92908548785013
  0
CIRCLE
  5
FF8
330
2
100
AcDbEntity
  8
HOJO
100
AcDbCircle
 10
424.5376901837278
 20
293.5317026730767
 30
0.0
 40
2.5
  0
CIRCLE
  5
FF9
330
2
100
AcDbEntity
  8
0
100
AcDbCircle
 10
424.5376901837278
 20
293.5317026730767
 30
0.0
 40
2.0
  0
LINE
  5
FFA
330
2
100
AcDbEntity
  8
0
100
AcDbLine
 10
424.6503885559361
 20
298.4190043008688
 30
0.0
 11
427.6503885559361
 21
298.4190043008688
 31
0.0
  0
ARC
  5
FFB
330
2
100
AcDbEntity
  8
0
100
AcDbCircle
 10
424.6503885559361
 20
293.4190043008688
 30
0.0
 40
5.0
100
AcDbArc
 50
90.0
 51
180.0
  0
LINE
  5
FFC
330
2
100
AcDbEntity
  8
0
100
AcDbLine
 10
419.6503885559361
 20
293.4190043008688
 30
0.0
 11
419.6503885559361
 21
290.419004300867
 31
0.0
  0
ARC
  5
FFD
330
2
100
AcDbEntity
  8
0
100
AcDbCircle
 10
436.0238688759543
 20
327.4026007457736
 30
0.0
 40
30.0
100
AcDbArc
 50
256.1581756815797
 51
275.92908548785
  0
ARC
  5
FFE
330
2
100
AcDbEntity
  8
0
100
AcDbCircle
 10
427.6503885559361
 20
293.4190043008669
 30
0.0
 40
5.0
100
AcDbArc
 50
76.15817568161926
 51
90.0
  0
LINE
  5
FFF
330
2
100
AcDbEntity
  8
0
100
AcDbLine
 10
547.4503890169041
 20
290.4190043008688
 30
0.0
 11
541.4503890169042
 21
290.4190043008688
 31
0.0
  0
ARC
  5
1000
330
2
100
AcDbEntity
  8
0
100
AcDbCircle
 10
541.4503890169042
 20
288.4190043008688
 30
0.0
 40
2.0
100
AcDbArc
 50
90.0
 51
180.0
  0
ARC
  5
1001
330
2
100
AcDbEntity
  8
0
100
AcDbCircle
 10
514.6503885559366
 20
285.4190043008688
 30
0.0
 40
5.0
100
AcDbArc
 50
0.0
 51
90.0
  0
LINE
  5
1002
330
2
100
AcDbEntity
  8
0
100
AcDbLine
 10
494.6503885559348
 20
290.4190043008688
 30
0.0
 11
514.6503885559366
 21
290.4190043008688
 31
0.0
  0
ARC
  5
1003
330
2
100
AcDbEntity
  8
0
100
AcDbCircle
 10
486.6503885559348
 20
293.4190043008688
 30
0.0
 40
5.0
100
AcDbArc
 50
0.0
 51
90.0
  0
LINE
  5
1004
330
2
100
AcDbEntity
  8
0
100
AcDbLine
 10
483.6503885559356
 20
298.4190043008688
 30
0.0
 11
486.6503885559348
 21
298.4190043008688
 31
0.0
  0
ARC
  5
1005
330
2
100
AcDbEntity
  8
0
100
AcDbCircle
 10
483.6503885559356
 20
293.4190043008669
 30
0.0
 40
5.0
100
AcDbArc
 50
90.0
 51
103.8418243183807
  0
CIRCLE
  5
1006
330
2
100
AcDbEntity
  8
HOJO
100
AcDbCircle
 10
486.7630869281445
 20
293.5317026730767
 30
0.0
 40
2.5
  0
CIRCLE
  5
1007
330
2
100
AcDbEntity
  8
0
100
AcDbCircle
 10
486.7630869281445
 20
293.5317026730767
 30
0.0
 40
2.0
  0
LINE
  5
1008
330
2
100
AcDbEntity
  8
0
100
AcDbLine
 10
420.1129125488444
 20
425.3726878750671
 30
0.0
 11
419.6503885559338
 21
478.3726878750671
 31
0.0
  0
LINE
  5
1009
330
2
100
AcDbEntity
  8
0
100
AcDbLine
 10
547.4503890169024
 20
483.3726878750671
 30
0.0
 11
547.4503890169024
 21
427.3726878750671
 31
0.0
  0
LINE
  5
100A
330
2
100
AcDbEntity
  8
0
100
AcDbLine
 10
425.6503890169026
 20
420.372687875067
 30
0.0
 11
485.6503890169026
 21
420.372687875067
 31
0.0
  0
LINE
  5
100B
330
2
100
AcDbEntity
  8
0
100
AcDbLine
 10
420.1129125488444
 20
425.3726878750671
 30
0.0
 11
491.1835011291234
 21
425.3726878750653
 31
0.0
  0
LINE
  5
100C
330
2
100
AcDbEntity
  8
0
100
AcDbLine
 10
425.6503890169026
 20
425.3726878750671
 30
0.0
 11
425.6503890169026
 21
420.372687875067
 31
0.0
  0
LINE
  5
100D
330
2
100
AcDbEntity
  8
0
100
AcDbLine
 10
492.6879216806026
 20
427.3726878750671
 30
0.0
 11
517.6241317957903
 21
427.3726878750671
 31
0.0
  0
LINE
  5
100E
330
2
100
AcDbEntity
  8
0
100
AcDbLine
 10
485.6503890169026
 20
425.3726878750671
 30
0.0
 11
485.6503890169026
 21
420.372687875067
 31
0.0
  0
LINE
  5
100F
330
2
100
AcDbEntity
  8
0
100
AcDbLine
 10
419.6503885559338
 20
478.3726878750671
 30
0.0
 11
519.6503885559402
 21
478.3726878750599
 31
0.0
  0
ARC
  5
1010
330
2
100
AcDbEntity
  8
0
100
AcDbCircle
 10
494.6503885559348
 20
293.4190043008688
 30
0.0
 40
3.0
100
AcDbArc
 50
180.0
 51
270.0
  0
ARC
  5
1011
330
2
100
AcDbEntity
  8
0
100
AcDbCircle
 10
424.6503885559361
 20
231.4190043008688
 30
0.0
 40
5.0
100
AcDbArc
 50
180.0
 51
270.0
  0
ARC
  5
1012
330
2
100
AcDbEntity
  8
0
100
AcDbCircle
 10
486.6503885559348
 20
231.4190043008688
 30
0.0
 40
5.0
100
AcDbArc
 50
270.0
 51
0.0
  0
ARC
  5
1013
330
2
100
AcDbEntity
  8
0
100
AcDbCircle
 10
494.6503885559348
 20
231.419004300867
 30
0.0
 40
3.0
100
AcDbArc
 50
90.0
 51
180.0
  0
LINE
  5
1014
330
2
100
AcDbEntity
  8
0
100
AcDbLine
 10
102.9177395496456
 20
282.919004300867
 30
0.0
 11
102.9177395496456
 21
241.919004300867
 31
0.0
  0
ARC
  5
1015
330
2
100
AcDbEntity
  8
0
100
AcDbCircle
 10
110.2177400106131
 20
284.919004300867
 30
0.0
 40
2.0
100
AcDbArc
 50
270.0
 51
0.0
  0
ARC
  5
1016
330
2
100
AcDbEntity
  8
0
100
AcDbCircle
 10
100.9177395496456
 20
282.919004300867
 30
0.0
 40
2.0
100
AcDbArc
 50
0.0
 51
90.0
  0
ARC
  5
1017
330
2
100
AcDbEntity
  8
0
100
AcDbCircle
 10
104.3818411647828
 20
284.919004300867
 30
0.0
 40
2.0
100
AcDbArc
 50
210.0000000000008
 51
270.0
  0
LINE
  5
1018
330
2
100
AcDbEntity
  8
0
100
AcDbLine
 10
100.9177395496456
 20
284.919004300867
 30
0.0
 11
97.34594277992052
 21
284.919004300867
 31
0.0
  0
LINE
  5
1019
330
2
100
AcDbEntity
  8
0
100
AcDbLine
 10
104.3818411647828
 20
282.919004300867
 30
0.0
 11
110.2177400106131
 21
282.919004300867
 31
0.0
  0
ARC
  5
101A
330
2
100
AcDbEntity
  8
0
100
AcDbCircle
 10
110.2177400106131
 20
239.919004300867
 30
0.0
 40
2.0
100
AcDbArc
 50
0.0
 51
90.0
  0
ARC
  5
101B
330
2
100
AcDbEntity
  8
0
100
AcDbCircle
 10
104.3818411647828
 20
239.919004300867
 30
0.0
 40
2.0
100
AcDbArc
 50
90.0
 51
149.9999999999991
  0
LINE
  5
101C
330
2
100
AcDbEntity
  8
0
100
AcDbLine
 10
104.3818411647828
 20
241.919004300867
 30
0.0
 11
110.2177400106131
 21
241.919004300867
 31
0.0
  0
ARC
  5
101D
330
2
100
AcDbEntity
  8
0
100
AcDbCircle
 10
100.9177395496456
 20
241.919004300867
 30
0.0
 40
2.0
100
AcDbArc
 50
270.0
 51
0.0
  0
LINE
  5
101E
330
2
100
AcDbEntity
  8
0
100
AcDbLine
 10
100.9177395496456
 20
239.919004300867
 30
0.0
 11
97.34594277992052
 21
239.919004300867
 31
0.0
  0
LINE
  5
101F
330
2
100
AcDbEntity
  8
0
100
AcDbLine
 10
472.1779840759179
 20
478.3726878750635
 30
0.0
 11
472.1779840759179
 21
426.8726878750653
 31
0.0
  0
LINE
  5
1020
330
2
100
AcDbEntity
  8
0
100
AcDbLine
 10
439.1227930359507
 20
478.3726878750654
 30
0.0
 11
439.1227930359507
 21
426.8726878750671
 31
0.0
  0
LINE
  5
1021
330
2
100
AcDbEntity
  8
0
100
AcDbLine
 10
528.3612057832804
 20
455.3726878750671
 30
0.0
 11
528.8993881104786
 21
475.9250417716825
 31
0.0
  0
LINE
  5
1022
330
2
100
AcDbEntity
  8
0
100
AcDbLine
 10
538.7171832129631
 20
455.3726878750671
 30
0.0
 11
539.3993881087924
 21
481.4250417716825
 31
0.0
  0
ARC
  5
1023
330
2
100
AcDbEntity
  8
0
100
AcDbCircle
 10
534.5613055931551
 20
427.8726878750671
 30
0.0
 40
5.0
100
AcDbArc
 50
12.37362511621985
 51
90.0
  0
LINE
  5
1024
330
2
100
AcDbEntity
  8
0
100
AcDbLine
 10
528.3612057832804
 20
455.3726878750671
 30
0.0
 11
528.8993881104786
 21
434.8203339784517
 31
0.0
  0
ARC
  5
1025
330
2
100
AcDbEntity
  8
0
100
AcDbCircle
 10
527.4346011452924
 20
432.872687875067
 30
0.0
 40
2.0
100
AcDbArc
 50
30.00000000000083
 51
90.0
  0
LINE
  5
1026
330
2
100
AcDbEntity
  8
0
100
AcDbLine
 10
521.6503885559339
 20
434.8726878750671
 30
0.0
 11
527.4346011452924
 21
434.8726878750671
 31
0.0
  0
ARC
  5
1027
330
2
100
AcDbEntity
  8
0
100
AcDbCircle
 10
530.8987027604295
 20
434.8726878750671
 30
0.0
 40
2.0
100
AcDbArc
 50
181.4999999999897
 51
270.0
  0
LINE
  5
1028
330
2
100
AcDbEntity
  8
0
100
AcDbLine
 10
534.5613055931551
 20
432.872687875067
 30
0.0
 11
530.8987027604295
 21
432.872687875067
 31
0.0
  0
LINE
  5
1029
330
2
100
AcDbEntity
  8
0
100
AcDbLine
 10
538.7171832129631
 20
455.3726878750671
 30
0.0
 11
539.3993881087924
 21
429.3203339784517
 31
0.0
  0
LINE
  5
102A
330
2
100
AcDbEntity
  8
0
100
AcDbLine
 10
547.4503890169024
 20
427.3726878750671
 30
0.0
 11
541.3987027587434
 21
427.3726878750671
 31
0.0
  0
ARC
  5
102B
330
2
100
AcDbEntity
  8
0
100
AcDbCircle
 10
541.3987027587434
 20
429.3726878750671
 30
0.0
 40
2.0
100
AcDbArc
 50
181.4999999999897
 51
270.0
  0
ARC
  5
102C
330
2
100
AcDbEntity
  8
0
100
AcDbCircle
 10
534.5613055931551
 20
482.8726878750671
 30
0.0
 40
5.0
100
AcDbArc
 50
270.0
 51
347.6263748837801
  0
ARC
  5
102D
330
2
100
AcDbEntity
  8
0
100
AcDbCircle
 10
527.4346011452924
 20
477.8726878750672
 30
0.0
 40
2.0
100
AcDbArc
 50
270.0
 51
329.9999999999991
  0
ARC
  5
102E
330
2
100
AcDbEntity
  8
0
100
AcDbCircle
 10
530.8987027604295
 20
475.8726878750671
 30
0.0
 40
2.0
100
AcDbArc
 50
90.0
 51
178.5000000000102
  0
LINE
  5
102F
330
2
100
AcDbEntity
  8
0
100
AcDbLine
 10
521.654828146601
 20
475.8726878750671
 30
0.0
 11
527.4346011452924
 21
475.8726878750671
 31
0.0
  0
LINE
  5
1030
330
2
100
AcDbEntity
  8
0
100
AcDbLine
 10
534.5613055931551
 20
477.8726878750672
 30
0.0
 11
530.8987027604295
 21
477.8726878750672
 31
0.0
  0
LINE
  5
1031
330
2
100
AcDbEntity
  8
0
100
AcDbLine
 10
547.4503890169024
 20
483.3726878750671
 30
0.0
 11
541.3987027587434
 21
483.3726878750671
 31
0.0
  0
ARC
  5
1032
330
2
100
AcDbEntity
  8
0
100
AcDbCircle
 10
541.3987027587434
 20
481.3726878750672
 30
0.0
 40
2.0
100
AcDbArc
 50
90.0
 51
178.5000000000102
  0
LINE
  5
1033
330
2
100
AcDbEntity
  8
CENTER
100
AcDbLine
 10
541.4157835431312
 20
483.3726878750671
 30
0.0
 11
541.3987027587434
 21
483.3726878750671
 31
0.0
  0
LINE
  5
1034
330
2
100
AcDbEntity
  8
0
100
AcDbLine
 10
424.6503885559348
 20
426.8726878750671
 30
0.0
 11
424.6503885559365
 21
478.3726878750635
 31
0.0
  0
LINE
  5
1035
330
2
100
AcDbEntity
  8
0
100
AcDbLine
 10
427.6503885559366
 20
426.8726878750671
 30
0.0
 11
427.6503885559357
 21
478.3726878750635
 31
0.0
  0
LINE
  5
1036
330
2
100
AcDbEntity
  8
0
100
AcDbLine
 10
483.7630869540723
 20
426.8726878750653
 30
0.0
 11
483.7630869540723
 21
478.3726878750635
 31
0.0
  0
LINE
  5
1037
330
2
100
AcDbEntity
  8
0
100
AcDbLine
 10
486.7630869540715
 20
426.8726878750653
 30
0.0
 11
486.7630869540723
 21
478.3726878750635
 31
0.0
  0
LINE
  5
1038
330
2
100
AcDbEntity
  8
0
100
AcDbLine
 10
514.663481516721
 20
478.3726878750617
 30
0.0
 11
515.2402572588314
 21
456.3465109267558
 31
0.0
  0
ARC
  5
1039
330
2
100
AcDbEntity
  8
0
100
AcDbCircle
 10
516.2399145838069
 20
456.3726878750671
 30
0.0
 40
1.0
100
AcDbArc
 50
181.5000000001981
 51
270.0
  0
LINE
  5
103A
330
2
100
AcDbEntity
  8
0
100
AcDbLine
 10
516.2399145838069
 20
455.3726878750671
 30
0.0
 11
519.6503885559338
 21
455.3726878750671
 31
0.0
  0
LINE
  5
103B
330
2
100
AcDbEntity
  8
0
100
AcDbLine
 10
538.7171832129631
 20
455.3726878750671
 30
0.0
 11
547.4503890169024
 21
455.3726878750671
 31
0.0
  0
ARC
  5
103C
330
2
100
AcDbEntity
  8
0
100
AcDbCircle
 10
521.6503885559339
 20
432.872687875067
 30
0.0
 40
2.0
100
AcDbArc
 50
90.0
 51
180.0
  0
LINE
  5
103D
330
2
100
AcDbEntity
  8
0
100
AcDbLine
 10
433.5817661055482
 20
407.3726878750671
 30
0.0
 11
477.7190110063204
 21
407.3726878750671
 31
0.0
  0
LINE
  5
103E
330
2
100
AcDbEntity
  8
0
100
AcDbLine
 10
431.2638226569645
 20
418.4424868684722
 30
0.0
 11
431.5829844515094
 21
409.3028888816619
 31
0.0
  0
ARC
  5
103F
330
2
100
AcDbEntity
  8
0
100
AcDbCircle
 10
429.2650410029266
 20
418.3726878750671
 30
0.0
 40
2.0
100
AcDbArc
 50
2.000000000003654
 51
90.0
  0
ARC
  5
1040
330
2
100
AcDbEntity
  8
0
100
AcDbCircle
 10
433.5817661055482
 20
409.3726878750671
 30
0.0
 40
2.0
100
AcDbArc
 50
182.0000000000036
 51
270.0
  0
LINE
  5
1041
330
2
100
AcDbEntity
  8
0
100
AcDbLine
 10
480.0369544549041
 20
418.4424868684722
 30
0.0
 11
479.7177926603592
 21
409.3028888816619
 31
0.0
  0
ARC
  5
1042
330
2
100
AcDbEntity
  8
0
100
AcDbCircle
 10
482.035736108942
 20
418.3726878750671
 30
0.0
 40
2.0
100
AcDbArc
 50
90.0
 51
177.9999999999963
  0
ARC
  5
1043
330
2
100
AcDbEntity
  8
0
100
AcDbCircle
 10
477.7190110063204
 20
409.3726878750671
 30
0.0
 40
2.0
100
AcDbArc
 50
270.0
 51
357.9999999999963
  0
LINE
  5
1044
330
2
100
AcDbEntity
  8
0
100
AcDbLine
 10
669.203545336725
 20
284.4876262902866
 30
0.0
 11
669.2035453367241
 21
240.3503813895144
 31
0.0
  0
LINE
  5
1045
330
2
100
AcDbEntity
  8
0
100
AcDbLine
 10
680.2733443301296
 20
286.8055697388694
 30
0.0
 11
671.1337463433194
 21
286.4864079443245
 31
0.0
  0
ARC
  5
1046
330
2
100
AcDbEntity
  8
0
100
AcDbCircle
 10
680.203545336725
 20
288.8043513929073
 30
0.0
 40
2.0
100
AcDbArc
 50
272.0000000000036
 51
0.0
  0
ARC
  5
1047
330
2
100
AcDbEntity
  8
0
100
AcDbCircle
 10
671.203545336725
 20
284.4876262902866
 30
0.0
 40
2.0
100
AcDbArc
 50
92.00000000000365
 51
180.0
  0
LINE
  5
1048
330
2
100
AcDbEntity
  8
0
100
AcDbLine
 10
680.2733443301296
 20
238.0324379409298
 30
0.0
 11
671.1337463433194
 21
238.3515997354747
 31
0.0
  0
ARC
  5
1049
330
2
100
AcDbEntity
  8
0
100
AcDbCircle
 10
680.203545336725
 20
236.0336562868919
 30
0.0
 40
2.0
100
AcDbArc
 50
0.0
 51
87.99999999999636
  0
ARC
  5
104A
330
2
100
AcDbEntity
  8
0
100
AcDbCircle
 10
671.203545336725
 20
240.3503813895144
 30
0.0
 40
2.0
100
AcDbArc
 50
180.0
 51
267.9999999999963
  0
LINE
  5
104B
330
2
100
AcDbEntity
  8
0
100
AcDbLine
 10
717.2634792473013
 20
290.9179340524786
 30
0.0
 11
742.2571082259881
 21
290.4716192492864
 31
0.0
  0
LINE
  5
104C
330
2
100
AcDbEntity
  8
0
100
AcDbLine
 10
689.2035453367372
 20
237.3659111504852
 30
0.0
 11
689.2035453367377
 21
287.4720974512505
 31
0.0
  0
ARC
  5
104D
330
2
100
AcDbEntity
  8
0
100
AcDbCircle
 10
692.2035453367373
 20
287.4720974512505
 30
0.0
 40
3.0
100
AcDbArc
 50
91.02303018866145
 51
180.0
  0
LINE
  5
104E
330
2
100
AcDbEntity
  8
0
100
AcDbLine
 10
745.2035453367373
 20
287.4720974512505
 30
0.0
 11
745.2035453367377
 21
237.3659111505107
 31
0.0
  0
ARC
  5
104F
330
2
100
AcDbEntity
  8
0
100
AcDbCircle
 10
742.2035453367373
 20
287.4720974512505
 30
0.0
 40
3.0
100
AcDbArc
 50
0.0
 51
88.97696981131245
  0
LINE
  5
1050
330
2
100
AcDbEntity
  8
0
100
AcDbLine
 10
692.1499824474865
 20
290.4716192492864
 30
0.0
 11
700.6977718723678
 21
290.6242583461598
 31
0.0
  0
ARC
  5
1051
330
2
100
AcDbEntity
  8
0
100
AcDbCircle
 10
742.2035453367396
 20
237.3659111504888
 30
0.0
 40
3.0
100
AcDbArc
 50
271.0230301886614
 51
0.0
  0
LINE
  5
1052
330
2
100
AcDbEntity
  8
0
100
AcDbLine
 10
717.20354533674
 20
233.9190043008561
 30
0.0
 11
742.2571082259903
 21
234.366389352453
 31
0.0
  0
LINE
  5
1053
330
2
100
AcDbEntity
  8
0
100
AcDbLine
 10
692.1499824474892
 20
234.3663893524494
 30
0.0
 11
717.20354533674
 21
233.9190043008561
 31
0.0
  0
ARC
  5
1054
330
2
100
AcDbEntity
  8
0
100
AcDbCircle
 10
692.2035453367396
 20
237.3659111504852
 30
0.0
 40
3.0
100
AcDbArc
 50
180.0
 51
268.9769698113385
  0
LINE
  5
1055
330
2
100
AcDbEntity
  8
0
100
AcDbLine
 10
453.4185851951518
 20
233.4190043008579
 30
0.0
 11
454.3185855830659
 21
233.4190043008579
 31
0.0
  0
LINE
  5
1056
330
2
100
AcDbEntity
  8
0
100
AcDbLine
 10
454.6685851951504
 20
235.9190043008542
 30
0.0
 11
453.4185851951518
 21
233.4190043008579
 31
0.0
  0
ARC
  5
1057
330
2
100
AcDbEntity
  8
0
100
AcDbCircle
 10
456.7435624576485
 20
235.0690043008557
 30
0.0
 40
0.8499999999992269
100
AcDbArc
 50
307.5189678668365
 51
90.0
  0
LINE
  5
1058
330
2
100
AcDbEntity
  8
0
100
AcDbLine
 10
457.261232888791
 20
234.3948253003522
 30
0.0
 11
457.8821919137442
 21
233.4190043008579
 31
0.0
  0
LINE
  5
1059
330
2
100
AcDbEntity
  8
0
100
AcDbLine
 10
456.9821915258301
 20
233.4190043008579
 30
0.0
 11
457.8821919137442
 21
233.4190043008579
 31
0.0
  0
LINE
  5
105A
330
2
100
AcDbEntity
  8
0
100
AcDbLine
 10
455.1435851951498
 20
233.4190043008579
 30
0.0
 11
455.8935624576495
 21
233.4190043008579
 31
0.0
  0
LINE
  5
105B
330
2
100
AcDbEntity
  8
0
100
AcDbLine
 10
454.5060855830659
 20
233.7940043008579
 30
0.0
 11
454.3185855830659
 21
233.4190043008579
 31
0.0
  0
LINE
  5
105C
330
2
100
AcDbEntity
  8
0
100
AcDbLine
 10
454.5060855830659
 20
233.7940043008579
 30
0.0
 11
455.1435851951498
 21
233.7940043008579
 31
0.0
  0
LINE
  5
105D
330
2
100
AcDbEntity
  8
0
100
AcDbLine
 10
455.1435851951498
 20
233.7940043008579
 30
0.0
 11
455.1435851951498
 21
233.4190043008579
 31
0.0
  0
LINE
  5
105E
330
2
100
AcDbEntity
  8
0
100
AcDbLine
 10
454.9060855830655
 20
234.5940043008571
 30
0.0
 11
455.1435851951498
 21
234.5940043008571
 31
0.0
  0
LINE
  5
105F
330
2
100
AcDbEntity
  8
0
100
AcDbLine
 10
455.1435851951498
 20
235.0690035250258
 30
0.0
 11
455.1435851951498
 21
234.5940043008571
 31
0.0
  0
LINE
  5
1060
330
2
100
AcDbEntity
  8
0
100
AcDbLine
 10
455.1435851951498
 20
235.0690035250258
 30
0.0
 11
454.9060855830655
 21
234.5940043008571
 31
0.0
  0
LINE
  5
1061
330
2
100
AcDbEntity
  8
0
100
AcDbLine
 10
455.9998351951492
 20
234.9627543008568
 30
0.0
 11
456.9821915258301
 21
233.4190043008579
 31
0.0
  0
LINE
  5
1062
330
2
100
AcDbEntity
  8
0
100
AcDbLine
 10
455.8935624576495
 20
235.0690043008557
 30
0.0
 11
455.8935624576495
 21
233.4190043008579
 31
0.0
  0
LINE
  5
1063
330
2
100
AcDbEntity
  8
0
100
AcDbLine
 10
455.8935624576495
 20
235.0690043008557
 30
0.0
 11
456.6904601951485
 21
235.0690043008557
 31
0.0
  0
LINE
  5
1064
330
2
100
AcDbEntity
  8
0
100
AcDbLine
 10
455.9998351951492
 20
234.9627543008568
 30
0.0
 11
456.6904601951485
 21
234.9627543008568
 31
0.0
  0
ARC
  5
1065
330
2
100
AcDbEntity
  8
0
100
AcDbCircle
 10
456.6904601951485
 20
235.0158793008553
 30
0.0
 40
0.0531249999999517
100
AcDbArc
 50
270.0
 51
90.0
  0
LINE
  5
1066
330
2
100
AcDbEntity
  8
0
100
AcDbLine
 10
454.6685851951504
 20
235.9190043008542
 30
0.0
 11
456.7435624576485
 21
235.9190043008542
 31
0.0
  0
ARC
  5
1067
330
2
100
AcDbEntity
  8
0
100
AcDbCircle
 10
521.6503885559257
 20
284.9190043008724
 30
0.0
 40
2.0
100
AcDbArc
 50
180.0
 51
270.0
  0
LINE
  5
1068
330
2
100
AcDbEntity
  8
0
100
AcDbLine
 10
527.486287401756
 20
282.9190043008724
 30
0.0
 11
521.6503885559257
 21
282.9190043008724
 31
0.0
  0
ARC
  5
1069
330
2
100
AcDbEntity
  8
0
100
AcDbCircle
 10
527.486287401756
 20
284.9190043008724
 30
0.0
 40
2.0
100
AcDbArc
 50
270.0
 51
329.9999999999991
  0
ARC
  5
106A
330
2
100
AcDbEntity
  8
0
100
AcDbCircle
 10
530.9503890168932
 20
282.9190043008724
 30
0.0
 40
2.0
100
AcDbArc
 50
90.0
 51
180.0
  0
LINE
  5
106B
330
2
100
AcDbEntity
  8
0
100
AcDbLine
 10
530.9503890168932
 20
284.9190043008724
 30
0.0
 11
534.5221857866293
 21
284.9190043008724
 31
0.0
  0
LINE
  5
106C
330
2
100
AcDbEntity
  8
0
100
AcDbLine
 10
528.9503890168933
 20
241.9190043008724
 30
0.0
 11
528.9503890168933
 21
282.9190043008724
 31
0.0
  0
ARC
  5
106D
330
2
100
AcDbEntity
  8
0
100
AcDbCircle
 10
521.6503885559257
 20
239.9190043008724
 30
0.0
 40
2.0
100
AcDbArc
 50
90.0
 51
180.0
  0
LINE
  5
106E
330
2
100
AcDbEntity
  8
0
100
AcDbLine
 10
527.486287401756
 20
241.9190043008724
 30
0.0
 11
521.6503885559257
 21
241.9190043008724
 31
0.0
  0
ARC
  5
106F
330
2
100
AcDbEntity
  8
0
100
AcDbCircle
 10
527.486287401756
 20
239.9190043008724
 30
0.0
 40
2.0
100
AcDbArc
 50
30.00000000000083
 51
90.0
  0
ARC
  5
1070
330
2
100
AcDbEntity
  8
0
100
AcDbCircle
 10
530.9503890168932
 20
241.9190043008724
 30
0.0
 40
2.0
100
AcDbArc
 50
180.0
 51
270.0
  0
LINE
  5
1071
330
2
100
AcDbEntity
  8
0
100
AcDbLine
 10
530.9503890168932
 20
239.9190043008724
 30
0.0
 11
534.5221857866284
 21
239.9190043008724
 31
0.0
  0
ARC
  5
1073
330
2
100
AcDbEntity
  8
0
100
AcDbCircle
 10
90.41773954964515
 20
235.9190043008688
 30
0.0
 40
2.0
100
AcDbArc
 50
270.0
 51
0.0
  0
LINE
  5
1074
330
2
100
AcDbEntity
  8
0
100
AcDbLine
 10
84.41773954964469
 20
233.9190043008688
 30
0.0
 11
90.41773954964515
 21
233.9190043008688
 31
0.0
  0
ARC
  5
1075
330
2
100
AcDbEntity
  8
0
100
AcDbCircle
 10
97.34594277992052
 20
234.919004300867
 30
0.0
 40
5.0
100
AcDbArc
 50
90.0
 51
171.7867892982768
  0
ARC
  5
1076
330
2
100
AcDbEntity
  8
0
100
AcDbCircle
 10
90.41773954964469
 20
288.9190043008688
 30
0.0
 40
2.0
100
AcDbArc
 50
0.0
 51
90.0
  0
LINE
  5
1077
330
2
100
AcDbEntity
  8
0
100
AcDbLine
 10
84.41773954964469
 20
290.9190043008688
 30
0.0
 11
90.41773954964469
 21
290.9190043008688
 31
0.0
  0
ARC
  5
1078
330
2
100
AcDbEntity
  8
0
100
AcDbCircle
 10
97.34594277992052
 20
289.919004300867
 30
0.0
 40
5.0
100
AcDbArc
 50
188.2132107017231
 51
270.0
  0
ARC
  5
1079
330
2
100
AcDbEntity
  8
0
100
AcDbCircle
 10
541.4503890169042
 20
288.9190043008688
 30
0.0
 40
2.0
100
AcDbArc
 50
90.0
 51
180.0
  0
LINE
  5
107A
330
2
100
AcDbEntity
  8
0
100
AcDbLine
 10
547.4503890169041
 20
290.9190043008688
 30
0.0
 11
541.4503890169042
 21
290.9190043008688
 31
0.0
  0
ARC
  5
107B
330
2
100
AcDbEntity
  8
0
100
AcDbCircle
 10
534.5221857866293
 20
289.9190043008724
 30
0.0
 40
5.0
100
AcDbArc
 50
270.0
 51
351.7867892982769
  0
ARC
  5
107C
330
2
100
AcDbEntity
  8
0
100
AcDbCircle
 10
541.4503890169042
 20
235.9190043008688
 30
0.0
 40
2.0
100
AcDbArc
 50
180.0
 51
270.0
  0
LINE
  5
107D
330
2
100
AcDbEntity
  8
0
100
AcDbLine
 10
547.4503890169041
 20
233.9190043008688
 30
0.0
 11
541.4503890169042
 21
233.9190043008688
 31
0.0
  0
ARC
  5
107E
330
2
100
AcDbEntity
  8
0
100
AcDbCircle
 10
534.5221857866284
 20
234.9190043008724
 30
0.0
 40
5.0
100
AcDbArc
 50
8.213210701723122
 51
90.0
  0
LINE
  5
107F
330
2
100
AcDbEntity
  8
CENTER
100
AcDbLine
 10
305.9029907300275
 20
219.6197222600435
 30
0.0
 11
305.9029907300275
 21
305.2182863416687
 31
0.0
  0
LINE
  5
1080
330
2
100
AcDbEntity
  8
0
100
AcDbLine
 10
335.9029907300275
 20
226.8815282937661
 30
0.0
 11
335.9029907300294
 21
297.956480307946
 31
0.0
  0
LINE
  5
1081
330
2
100
AcDbEntity
  8
CENTER
100
AcDbLine
 10
370.902990730028
 20
262.4190043008561
 30
0.0
 11
238.9029907300835
 21
262.4190043008561
 31
0.0
  0
LINE
  5
1082
330
2
100
AcDbEntity
  8
0
100
AcDbLine
 10
340.9029907300275
 20
232.4190047618244
 30
0.0
 11
340.9029907300275
 21
292.4190047618243
 31
0.0
  0
LINE
  5
1083
330
2
100
AcDbEntity
  8
0
100
AcDbLine
 10
335.9029907300275
 20
232.4190047618244
 30
0.0
 11
340.9029907300275
 21
232.4190047618244
 31
0.0
  0
LINE
  5
1084
330
2
100
AcDbEntity
  8
0
100
AcDbLine
 10
335.9029907300275
 20
292.4190047618243
 30
0.0
 11
340.9029907300275
 21
292.4190047618243
 31
0.0
  0
LINE
  5
1085
330
2
100
AcDbEntity
  8
0
100
AcDbLine
 10
282.9029907300271
 20
226.419004300856
 30
0.0
 11
335.9029907300275
 21
226.8815282937661
 31
0.0
  0
LINE
  5
1086
330
2
100
AcDbEntity
  8
0
100
AcDbLine
 10
282.9029907300334
 20
298.4190043008561
 30
0.0
 11
335.9029907300294
 21
297.956480307946
 31
0.0
  0
LINE
  5
1087
330
2
100
AcDbEntity
  8
0
100
AcDbLine
 10
353.9029907300275
 20
240.3503823114383
 30
0.0
 11
353.902990730028
 21
284.4876272122105
 31
0.0
  0
LINE
  5
1088
330
2
100
AcDbEntity
  8
0
100
AcDbLine
 10
342.8331917366229
 20
238.0324388628536
 30
0.0
 11
351.9727897234331
 21
238.3516006573985
 31
0.0
  0
ARC
  5
1089
330
2
100
AcDbEntity
  8
0
100
AcDbCircle
 10
342.9029907300275
 20
236.0336572088157
 30
0.0
 40
2.0
100
AcDbArc
 50
92.00000000000365
 51
180.0
  0
ARC
  5
108A
330
2
100
AcDbEntity
  8
0
100
AcDbCircle
 10
351.9029907300275
 20
240.3503823114383
 30
0.0
 40
2.0
100
AcDbArc
 50
272.0000000000036
 51
0.0
  0
LINE
  5
108B
330
2
100
AcDbEntity
  8
0
100
AcDbLine
 10
342.8331917366229
 20
286.8055706607933
 30
0.0
 11
351.9727897234331
 21
286.4864088662483
 31
0.0
  0
ARC
  5
108C
330
2
100
AcDbEntity
  8
0
100
AcDbCircle
 10
342.9029907300275
 20
288.8043523148311
 30
0.0
 40
2.0
100
AcDbArc
 50
180.0
 51
267.9999999999963
  0
ARC
  5
108D
330
2
100
AcDbEntity
  8
0
100
AcDbCircle
 10
351.9029907300275
 20
284.4876272122105
 30
0.0
 40
2.0
100
AcDbArc
 50
0.0
 51
87.99999999999636
  0
LINE
  5
108E
330
2
100
AcDbEntity
  8
0
100
AcDbLine
 10
282.902990730033
 20
293.4190043008688
 30
0.0
 11
334.9029907300293
 21
293.4190043008688
 31
0.0
  0
LINE
  5
108F
330
2
100
AcDbEntity
  8
0
100
AcDbLine
 10
282.9029907300325
 20
290.419004300867
 30
0.0
 11
334.9029907300293
 21
290.419004300867
 31
0.0
  0
LINE
  5
1090
330
2
100
AcDbEntity
  8
0
100
AcDbLine
 10
282.9029907300316
 20
278.9465998208501
 30
0.0
 11
334.9029907300289
 21
278.9465998208501
 31
0.0
  0
LINE
  5
1091
330
2
100
AcDbEntity
  8
0
100
AcDbLine
 10
282.902990730033
 20
231.4190043008415
 30
0.0
 11
334.9029907300275
 21
231.4190043008415
 31
0.0
  0
LINE
  5
1092
330
2
100
AcDbEntity
  8
0
100
AcDbLine
 10
282.9029907300325
 20
234.4190043008433
 30
0.0
 11
334.9029907300275
 21
234.4190043008433
 31
0.0
  0
LINE
  5
1093
330
2
100
AcDbEntity
  8
0
100
AcDbLine
 10
282.9029907300316
 20
245.8914087808602
 30
0.0
 11
334.902990730028
 21
245.8914087808602
 31
0.0
  0
LINE
  5
1094
330
2
100
AcDbEntity
  8
0
100
AcDbLine
 10
491.1835011291234
 20
425.3726878750653
 30
0.0
 11
491.6460251225641
 21
478.3726878750617
 31
0.0
  0
ARC
  5
1095
330
2
100
AcDbEntity
  8
0
100
AcDbCircle
 10
492.6879216806026
 20
425.8726878750671
 30
0.0
 40
1.5
100
AcDbArc
 50
90.0
 51
179.4999999994091
  0
LINE
  5
1096
330
2
100
AcDbEntity
  8
0
100
AcDbLine
 10
519.6503885559338
 20
478.3726878750599
 30
0.0
 11
519.8511065151167
 21
455.3726878750671
 31
0.0
  0
ARC
  5
1097
330
2
100
AcDbEntity
  8
0
100
AcDbCircle
 10
521.654828146601
 20
477.8726878750672
 30
0.0
 40
2.0
100
AcDbArc
 50
180.4999999999655
 51
270.0
  0
LINE
  5
1098
330
2
100
AcDbEntity
  8
0
100
AcDbLine
 10
519.6240556419187
 20
429.3552348040706
 30
0.0
 11
519.8511065151167
 21
455.3726878750671
 31
0.0
  0
LINE
  5
1099
330
2
100
AcDbEntity
  8
0
100
AcDbLine
 10
740.203545336725
 20
293.4190043008688
 30
0.0
 11
688.2035453367246
 21
293.4190043008688
 31
0.0
  0
LINE
  5
109A
330
2
100
AcDbEntity
  8
0
100
AcDbLine
 10
740.203545336725
 20
231.419004300867
 30
0.0
 11
688.2035453367227
 21
231.419004300867
 31
0.0
  0
LINE
  5
109B
330
2
100
AcDbEntity
  8
CENTER
100
AcDbLine
 10
214.4677400106131
 20
293.4190043008688
 30
0.0
 11
199.9677400106131
 21
293.4190043008688
 31
0.0
  0
CIRCLE
  5
109C
330
2
100
AcDbEntity
  8
HOJO
100
AcDbCircle
 10
206.7177400106127
 20
241.4190043008688
 30
0.0
 40
2.0
  0
CIRCLE
  5
109D
330
2
100
AcDbEntity
  8
HOJO
100
AcDbCircle
 10
206.7177400106127
 20
283.4190043008688
 30
0.0
 40
2.0
  0
LINE
  5
109E
330
2
100
AcDbEntity
  8
CENTER
100
AcDbLine
 10
214.4677400106131
 20
231.4190043008688
 30
0.0
 11
199.9677400106131
 21
231.4190043008688
 31
0.0
  0
CIRCLE
  5
109F
330
2
100
AcDbEntity
  8
HOJO
100
AcDbCircle
 10
127.2177400106127
 20
285.9190043008706
 30
0.0
 40
2.0
  0
LINE
  5
10A0
330
2
100
AcDbEntity
  8
CENTER
100
AcDbLine
 10
117.2177400106127
 20
292.6690043008688
 30
0.0
 11
117.2177400106122
 21
278.1690043008688
 31
0.0
  0
CIRCLE
  5
10A1
330
2
100
AcDbEntity
  8
HOJO
100
AcDbCircle
 10
127.2177400106127
 20
238.919004300867
 30
0.0
 40
2.0
  0
LINE
  5
10A2
330
2
100
AcDbEntity
  8
CENTER
100
AcDbLine
 10
109.9677400106127
 20
285.4190043008688
 30
0.0
 11
124.4677400106127
 21
285.4190043008688
 31
0.0
  0
ARC
  5
10A3
330
2
100
AcDbEntity
  8
0
100
AcDbCircle
 10
161.2177400106131
 20
277.4190043008688
 30
0.0
 40
13.0
100
AcDbArc
 50
90.0
 51
180.0
  0
ARC
  5
10A4
330
2
100
AcDbEntity
  8
0
100
AcDbCircle
 10
161.2177400106131
 20
247.4190043008688
 30
0.0
 40
13.0
100
AcDbArc
 50
180.0
 51
270.0
  0
ARC
  5
10A5
330
2
100
AcDbEntity
  8
0
100
AcDbCircle
 10
161.2177400106131
 20
277.4190043008688
 30
0.0
 40
12.0
100
AcDbArc
 50
90.0
 51
180.0
  0
ARC
  5
10A6
330
2
100
AcDbEntity
  8
0
100
AcDbCircle
 10
161.2177400106131
 20
247.4190043008688
 30
0.0
 40
12.0
100
AcDbArc
 50
180.0
 51
270.0
  0
CIRCLE
  5
10A7
330
2
100
AcDbEntity
  8
0
100
AcDbCircle
 10
176.2177400106131
 20
262.4190043008688
 30
0.0
 40
22.42259999999999
  0
CIRCLE
  5
10A8
330
2
100
AcDbEntity
  8
0
100
AcDbCircle
 10
176.2177400106131
 20
262.4190043008688
 30
0.0
 40
25.5
  0
CIRCLE
  5
10A9
330
2
100
AcDbEntity
  8
0
100
AcDbCircle
 10
176.2177400106131
 20
262.4190043008688
 30
0.0
 40
25.0
  0
CIRCLE
  5
10AA
330
2
100
AcDbEntity
  8
0
100
AcDbCircle
 10
176.2177400106131
 20
262.4190043008688
 30
0.0
 40
23.0
  0
ARC
  5
10AB
330
2
100
AcDbEntity
  8
0
100
AcDbCircle
 10
156.5912203306318
 20
327.4026007457754
 30
0.0
 40
30.0
100
AcDbArc
 50
256.1581756815797
 51
275.92908548785
  0
ARC
  5
10AC
330
2
100
AcDbEntity
  8
0
100
AcDbCircle
 10
156.5912203306318
 20
197.4354078559621
 30
0.0
 40
30.0
100
AcDbArc
 50
84.07091451214986
 51
103.8418243183807
  0
ARC
  5
10AD
330
2
100
AcDbEntity
  8
0
100
AcDbCircle
 10
191.2177400106131
 20
277.4190043008688
 30
0.0
 40
13.0
100
AcDbArc
 50
0.0
 51
90.0
  0
ARC
  5
10AE
330
2
100
AcDbEntity
  8
0
100
AcDbCircle
 10
191.2177400106131
 20
277.4190043008688
 30
0.0
 40
12.0
100
AcDbArc
 50
0.0
 51
90.0
  0
ARC
  5
10AF
330
2
100
AcDbEntity
  8
0
100
AcDbCircle
 10
209.436636705476
 20
285.9190043008688
 30
0.0
 40
2.0
100
AcDbArc
 50
353.0475109494038
 51
90.0
  0
ARC
  5
10B0
330
2
100
AcDbEntity
  8
0
100
AcDbCircle
 10
241.2013364555198
 20
282.0455239808501
 30
0.0
 40
30.0
100
AcDbArc
 50
166.1581756815798
 51
185.9290854878763
  0
ARC
  5
10B1
330
2
100
AcDbEntity
  8
0
100
AcDbCircle
 10
207.2177400106131
 20
293.4190043008688
 30
0.0
 40
5.5
100
AcDbArc
 50
180.0
 51
270.0
  0
LINE
  5
10B2
330
2
100
AcDbEntity
  8
0
100
AcDbLine
 10
191.2177400106131
 20
290.4190043008688
 30
0.0
 11
161.2177400106131
 21
290.4190043008688
 31
0.0
  0
LINE
  5
10B3
330
2
100
AcDbEntity
  8
0
100
AcDbLine
 10
191.2177400106131
 20
289.4190043008688
 30
0.0
 11
161.2177400106131
 21
289.4190043008688
 31
0.0
  0
ARC
  5
10B4
330
2
100
AcDbEntity
  8
0
100
AcDbCircle
 10
176.2177400106131
 20
138.4190043008688
 30
0.0
 40
160.0
100
AcDbArc
 50
84.07091451214986
 51
95.92908548785013
  0
LINE
  5
10B5
330
2
100
AcDbEntity
  8
0
100
AcDbLine
 10
207.2177400106131
 20
298.4190043008688
 30
0.0
 11
204.2177400106131
 21
298.4190043008688
 31
0.0
  0
ARC
  5
10B6
330
2
100
AcDbEntity
  8
0
100
AcDbCircle
 10
207.2177400106131
 20
293.4190043008688
 30
0.0
 40
5.0
100
AcDbArc
 50
0.0
 51
90.0
  0
ARC
  5
10B7
330
2
100
AcDbEntity
  8
0
100
AcDbCircle
 10
207.2177400106131
 20
290.4190043008688
 30
0.0
 40
5.0
100
AcDbArc
 50
346.1581756815798
 51
0.0
  0
LINE
  5
10B8
330
2
100
AcDbEntity
  8
0
100
AcDbLine
 10
212.2177400106131
 20
290.4190043008688
 30
0.0
 11
212.2177400106131
 21
293.4190043008688
 31
0.0
  0
LINE
  5
10B9
330
2
100
AcDbEntity
  8
0
100
AcDbLine
 10
207.2177400106131
 20
287.9190043008688
 30
0.0
 11
209.436636705476
 21
287.9190043008688
 31
0.0
  0
ARC
  5
10BA
330
2
100
AcDbEntity
  8
0
100
AcDbCircle
 10
204.2177400106131
 20
293.4190043008688
 30
0.0
 40
5.0
100
AcDbArc
 50
90.0
 51
103.8418243183807
  0
ARC
  5
10BB
330
2
100
AcDbEntity
  8
0
100
AcDbCircle
 10
195.8442596905949
 20
327.4026007457754
 30
0.0
 40
30.0
100
AcDbArc
 50
264.0709145121499
 51
283.8418243183807
  0
ARC
  5
10BC
330
2
100
AcDbEntity
  8
0
100
AcDbCircle
 10
199.7177400106131
 20
295.6379009957322
 30
0.0
 40
2.0
100
AcDbArc
 50
0.0
 51
96.95248905056299
  0
LINE
  5
10BD
330
2
100
AcDbEntity
  8
0
100
AcDbLine
 10
201.7177400106131
 20
293.4190043008688
 30
0.0
 11
201.7177400106131
 21
295.6379009957322
 31
0.0
  0
ARC
  5
10BE
330
2
100
AcDbEntity
  8
0
100
AcDbCircle
 10
191.2177400106131
 20
247.4190043008688
 30
0.0
 40
13.0
100
AcDbArc
 50
270.0
 51
0.0
  0
ARC
  5
10BF
330
2
100
AcDbEntity
  8
0
100
AcDbCircle
 10
191.2177400106131
 20
247.4190043008688
 30
0.0
 40
12.0
100
AcDbArc
 50
270.0
 51
0.0
  0
CIRCLE
  5
10C0
330
2
100
AcDbEntity
  8
0
100
AcDbCircle
 10
206.7177400106131
 20
241.4190043008688
 30
0.0
 40
2.5
  0
CIRCLE
  5
10C1
330
2
100
AcDbEntity
  8
0
100
AcDbCircle
 10
206.7177400106131
 20
241.4190043008688
 30
0.0
 40
1.6
  0
CIRCLE
  5
10C2
330
2
100
AcDbEntity
  8
0
100
AcDbCircle
 10
206.7177400106131
 20
241.4190043008688
 30
0.0
 40
3.0
  0
ARC
  5
10C3
330
2
100
AcDbEntity
  8
0
100
AcDbCircle
 10
241.2013364555198
 20
242.7924846208874
 30
0.0
 40
30.0
100
AcDbArc
 50
174.0709145121236
 51
193.8418243184201
  0
CIRCLE
  5
10C4
330
2
100
AcDbEntity
  8
0
100
AcDbCircle
 10
176.2177400106131
 20
262.4190043008688
 30
0.0
 40
19.0
  0
CIRCLE
  5
10C5
330
2
100
AcDbEntity
  8
0
100
AcDbCircle
 10
176.2177400106131
 20
262.4190043008688
 30
0.0
 40
19.5774
  0
LINE
  5
10C6
330
2
100
AcDbEntity
  8
0
100
AcDbLine
 10
204.2177400106131
 20
277.4190043008688
 30
0.0
 11
204.2177400106131
 21
247.4190043008688
 31
0.0
  0
LINE
  5
10C7
330
2
100
AcDbEntity
  8
0
100
AcDbLine
 10
203.2177400106131
 20
277.4190043008688
 30
0.0
 11
203.2177400106131
 21
247.4190043008688
 31
0.0
  0
ARC
  5
10C8
330
2
100
AcDbEntity
  8
0
100
AcDbCircle
 10
52.21774001061362
 20
262.4190043008688
 30
0.0
 40
160.0
100
AcDbArc
 50
354.0709145121236
 51
5.929085487876394
  0
CIRCLE
  5
10C9
330
2
100
AcDbEntity
  8
0
100
AcDbCircle
 10
206.7177400106131
 20
283.4190043008688
 30
0.0
 40
3.0
  0
CIRCLE
  5
10CA
330
2
100
AcDbEntity
  8
0
100
AcDbCircle
 10
206.7177400106131
 20
283.4190043008688
 30
0.0
 40
2.5
  0
CIRCLE
  5
10CB
330
2
100
AcDbEntity
  8
0
100
AcDbCircle
 10
206.7177400106131
 20
283.4190043008688
 30
0.0
 40
1.6
  0
LINE
  5
10CC
330
2
100
AcDbEntity
  8
0
100
AcDbLine
 10
191.2177400106131
 20
234.4190043008688
 30
0.0
 11
161.2177400106131
 21
234.4190043008688
 31
0.0
  0
LINE
  5
10CD
330
2
100
AcDbEntity
  8
0
100
AcDbLine
 10
191.2177400106131
 20
235.4190043008688
 30
0.0
 11
161.2177400106131
 21
235.4190043008688
 31
0.0
  0
ARC
  5
10CE
330
2
100
AcDbEntity
  8
0
100
AcDbCircle
 10
176.2177400106131
 20
386.4190043008688
 30
0.0
 40
160.0
100
AcDbArc
 50
264.0709145121499
 51
275.92908548785
  0
ARC
  5
10CF
330
2
100
AcDbEntity
  8
0
100
AcDbCircle
 10
207.2177400106131
 20
231.4190043008688
 30
0.0
 40
5.5
100
AcDbArc
 50
90.0
 51
180.0
  0
LINE
  5
10D0
330
2
100
AcDbEntity
  8
0
100
AcDbLine
 10
207.2177400106131
 20
226.4190043008688
 30
0.0
 11
204.2177400106131
 21
226.4190043008688
 31
0.0
  0
ARC
  5
10D1
330
2
100
AcDbEntity
  8
0
100
AcDbCircle
 10
207.2177400106131
 20
231.4190043008688
 30
0.0
 40
5.0
100
AcDbArc
 50
270.0
 51
0.0
  0
ARC
  5
10D2
330
2
100
AcDbEntity
  8
0
100
AcDbCircle
 10
209.436636705476
 20
238.9190043008688
 30
0.0
 40
2.0
100
AcDbArc
 50
270.0
 51
6.952489050596161
  0
LINE
  5
10D3
330
2
100
AcDbEntity
  8
0
100
AcDbLine
 10
207.2177400106131
 20
236.9190043008688
 30
0.0
 11
209.436636705476
 21
236.9190043008688
 31
0.0
  0
ARC
  5
10D4
330
2
100
AcDbEntity
  8
0
100
AcDbCircle
 10
207.2177400106131
 20
234.4190043008688
 30
0.0
 40
5.0
100
AcDbArc
 50
0.0
 51
13.84182431842014
  0
LINE
  5
10D5
330
2
100
AcDbEntity
  8
0
100
AcDbLine
 10
212.2177400106131
 20
231.4190043008688
 30
0.0
 11
212.2177400106131
 21
234.4190043008688
 31
0.0
  0
ARC
  5
10D6
330
2
100
AcDbEntity
  8
0
100
AcDbCircle
 10
199.7177400106131
 20
229.2001076060054
 30
0.0
 40
2.0
100
AcDbArc
 50
263.0475109494369
 51
0.0
  0
LINE
  5
10D7
330
2
100
AcDbEntity
  8
0
100
AcDbLine
 10
201.7177400106131
 20
231.4190043008688
 30
0.0
 11
201.7177400106131
 21
229.2001076060054
 31
0.0
  0
ARC
  5
10D8
330
2
100
AcDbEntity
  8
0
100
AcDbCircle
 10
195.8442596905949
 20
197.4354078559621
 30
0.0
 40
30.0
100
AcDbArc
 50
76.15817568161926
 51
95.92908548785013
  0
ARC
  5
10D9
330
2
100
AcDbEntity
  8
0
100
AcDbCircle
 10
204.2177400106131
 20
231.4190043008688
 30
0.0
 40
5.0
100
AcDbArc
 50
256.1581756815797
 51
270.0
  0
LINE
  5
10DA
330
2
100
AcDbEntity
  8
0
100
AcDbLine
 10
122.7177400106127
 20
288.4190043008688
 30
0.0
 11
122.7177400106127
 21
285.4190043008688
 31
0.0
  0
CIRCLE
  5
10DB
330
2
100
AcDbEntity
  8
0
100
AcDbCircle
 10
127.2177400106127
 20
285.9190043008706
 30
0.0
 40
1.6
  0
ARC
  5
10DC
330
2
100
AcDbEntity
  8
0
100
AcDbCircle
 10
117.2177400106127
 20
285.4190043008688
 30
0.0
 40
5.0
100
AcDbArc
 50
90.0
 51
180.0
  0
LINE
  5
10DD
330
2
100
AcDbEntity
  8
0
100
AcDbLine
 10
140.2177400106136
 20
231.4190043008688
 30
0.0
 11
140.2177400106145
 21
293.4190043008688
 31
0.0
  0
ARC
  5
10DE
330
2
100
AcDbEntity
  8
0
100
AcDbCircle
 10
124.7177400106127
 20
288.4190043008688
 30
0.0
 40
2.0
100
AcDbArc
 50
90.0
 51
180.0
  0
LINE
  5
10DF
330
2
100
AcDbEntity
  8
0
100
AcDbLine
 10
137.2177400106145
 20
290.4190043008688
 30
0.0
 11
117.2177400106127
 21
290.4190043008688
 31
0.0
  0
ARC
  5
10E0
330
2
100
AcDbEntity
  8
0
100
AcDbCircle
 10
137.2177400106145
 20
293.4190043008688
 30
0.0
 40
3.0
100
AcDbArc
 50
270.0
 51
0.0
  0
ARC
  5
10E1
330
2
100
AcDbEntity
  8
0
100
AcDbCircle
 10
145.2177400106145
 20
293.4190043008688
 30
0.0
 40
5.0
100
AcDbArc
 50
90.0
 51
180.0
  0
ARC
  5
10E2
330
2
100
AcDbEntity
  8
0
100
AcDbCircle
 10
148.2177400106136
 20
293.4190043008688
 30
0.0
 40
5.0
100
AcDbArc
 50
76.15817568161926
 51
90.0
  0
LINE
  5
10E3
330
2
100
AcDbEntity
  8
0
100
AcDbLine
 10
148.2177400106136
 20
298.4190043008688
 30
0.0
 11
145.2177400106145
 21
298.4190043008688
 31
0.0
  0
ARC
  5
10E4
330
2
100
AcDbEntity
  8
0
100
AcDbCircle
 10
117.2177400106136
 20
239.4190043008688
 30
0.0
 40
5.5
100
AcDbArc
 50
0.0
 51
90.0
  0
CIRCLE
  5
10E5
330
2
100
AcDbEntity
  8
0
100
AcDbCircle
 10
127.2177400106127
 20
238.919004300867
 30
0.0
 40
1.6
  0
LINE
  5
10E6
330
2
100
AcDbEntity
  8
0
100
AcDbLine
 10
112.2177400106127
 20
239.4190043008688
 30
0.0
 11
112.2177400106127
 21
285.4190043008688
 31
0.0
  0
ARC
  5
10E7
330
2
100
AcDbEntity
  8
0
100
AcDbCircle
 10
117.2177400106127
 20
285.4190043008688
 30
0.0
 40
5.5
100
AcDbArc
 50
270.0
 51
0.0
  0
LINE
  5
10E8
330
2
100
AcDbEntity
  8
0
100
AcDbLine
 10
148.2177400106131
 20
277.4190043008688
 30
0.0
 11
148.2177400106131
 21
247.4190043008688
 31
0.0
  0
LINE
  5
10E9
330
2
100
AcDbEntity
  8
0
100
AcDbLine
 10
149.2177400106131
 20
277.4190043008688
 30
0.0
 11
149.2177400106131
 21
247.4190043008688
 31
0.0
  0
LINE
  5
10EA
330
2
100
AcDbEntity
  8
0
100
AcDbLine
 10
114.2177400106127
 20
279.9190043008688
 30
0.0
 11
117.2177400106127
 21
279.9190043008688
 31
0.0
  0
ARC
  5
10EB
330
2
100
AcDbEntity
  8
0
100
AcDbCircle
 10
114.2177400106127
 20
277.9190043008688
 30
0.0
 40
2.0
100
AcDbArc
 50
90.0
 51
180.0
  0
LINE
  5
10EC
330
2
100
AcDbEntity
  8
0
100
AcDbLine
 10
114.2177400106136
 20
244.9190043008688
 30
0.0
 11
117.2177400106131
 21
244.9190043008688
 31
0.0
  0
ARC
  5
10ED
330
2
100
AcDbEntity
  8
0
100
AcDbCircle
 10
114.2177400106131
 20
246.9190043008688
 30
0.0
 40
2.0
100
AcDbArc
 50
180.0
 51
270.0
  0
ARC
  5
10EE
330
2
100
AcDbEntity
  8
0
100
AcDbCircle
 10
124.717740010614
 20
236.4190043008688
 30
0.0
 40
2.0
100
AcDbArc
 50
180.0
 51
270.0
  0
LINE
  5
10EF
330
2
100
AcDbEntity
  8
0
100
AcDbLine
 10
137.2177400106136
 20
234.4190043008688
 30
0.0
 11
117.2177400106127
 21
234.4190043008688
 31
0.0
  0
ARC
  5
10F0
330
2
100
AcDbEntity
  8
0
100
AcDbCircle
 10
137.2177400106136
 20
231.4190043008688
 30
0.0
 40
3.0
100
AcDbArc
 50
0.0
 51
90.0
  0
ARC
  5
10F1
330
2
100
AcDbEntity
  8
0
100
AcDbCircle
 10
145.2177400106136
 20
231.4190043008688
 30
0.0
 40
5.0
100
AcDbArc
 50
180.0
 51
270.0
  0
LINE
  5
10F2
330
2
100
AcDbEntity
  8
0
100
AcDbLine
 10
148.2177400106136
 20
226.4190043008688
 30
0.0
 11
145.2177400106136
 21
226.4190043008688
 31
0.0
  0
ARC
  5
10F3
330
2
100
AcDbEntity
  8
0
100
AcDbCircle
 10
148.2177400106136
 20
231.4190043008688
 30
0.0
 40
5.0
100
AcDbArc
 50
270.0
 51
283.8418243183807
  0
ARC
  5
10F4
330
2
100
AcDbEntity
  8
0
100
AcDbCircle
 10
117.2177400106127
 20
239.4190043008688
 30
0.0
 40
5.0
100
AcDbArc
 50
180.0
 51
270.0
  0
LINE
  5
10F5
330
2
100
AcDbEntity
  8
0
100
AcDbLine
 10
122.717740010614
 20
236.4190043008688
 30
0.0
 11
122.7177400106136
 21
239.4190043008688
 31
0.0
  0
LINE
  5
10F6
330
2
100
AcDbEntity
  8
0
100
AcDbLine
 10
199.7030213848518
 20
285.904285675107
 30
0.0
 11
200.4101281660384
 21
286.6113924562936
 31
0.0
  0
LINE
  5
10F7
330
2
100
AcDbEntity
  8
0
100
AcDbLine
 10
200.4101281660384
 20
238.226616145444
 30
0.0
 11
199.7030213848518
 21
238.9337229266306
 31
0.0
  0
LINE
  5
10F8
330
2
100
AcDbEntity
  8
0
100
AcDbLine
 10
152.0253518551883
 20
238.226616145444
 30
0.0
 11
152.7324586363745
 21
238.9337229266306
 31
0.0
  0
LINE
  5
10F9
330
2
100
AcDbEntity
  8
0
100
AcDbLine
 10
152.7324586363745
 20
285.904285675107
 30
0.0
 11
152.0253518551883
 21
286.6113924562936
 31
0.0
  0
LINE
  5
10FA
330
2
100
AcDbEntity
  8
CENTER
100
AcDbLine
 10
207.2177400106141
 20
224.1690043008688
 30
0.0
 11
207.2177400106136
 21
238.6690043008688
 31
0.0
  0
LINE
  5
10FB
330
2
100
AcDbEntity
  8
CENTER
100
AcDbLine
 10
207.2177400106131
 20
300.6690043008688
 30
0.0
 11
207.2177400106131
 21
286.1690043008688
 31
0.0
  0
LINE
  5
10FC
330
2
100
AcDbEntity
  8
CENTER
100
AcDbLine
 10
127.2177400106127
 20
290.0201091418689
 30
0.0
 11
127.2177400106127
 21
281.8178994598724
 31
0.0
  0
LINE
  5
10FD
330
2
100
AcDbEntity
  8
CENTER
100
AcDbLine
 10
123.1166351696149
 20
285.9190043008706
 30
0.0
 11
131.3188448516109
 21
285.9190043008706
 31
0.0
  0
LINE
  5
10FE
330
2
100
AcDbEntity
  8
CENTER
100
AcDbLine
 10
127.2177400106127
 20
234.8178994598687
 30
0.0
 11
127.2177400106127
 21
243.0201091418652
 31
0.0
  0
LINE
  5
10FF
330
2
100
AcDbEntity
  8
CENTER
100
AcDbLine
 10
123.1166351696149
 20
238.919004300867
 30
0.0
 11
131.3188448516109
 21
238.919004300867
 31
0.0
  0
LINE
  5
1100
330
2
100
AcDbEntity
  8
CENTER
100
AcDbLine
 10
117.2177400106127
 20
232.169004300867
 30
0.0
 11
117.2177400106122
 21
246.6690043008688
 31
0.0
  0
LINE
  5
1101
330
2
100
AcDbEntity
  8
CENTER
100
AcDbLine
 10
109.9677400106127
 20
239.4190043008688
 30
0.0
 11
124.4677400106127
 21
239.4190043008688
 31
0.0
  0
LINE
  5
1102
330
2
100
AcDbEntity
  8
0
100
AcDbLine
 10
282.9029907300303
 20
298.4190043008561
 30
0.0
 11
274.3942641945361
 21
298.3447497693136
 31
0.0
  0
LINE
  5
1103
330
2
100
AcDbEntity
  8
0
100
AcDbLine
 10
272.4029907300825
 20
289.0047907384827
 30
0.0
 11
272.4029907300825
 21
235.8332178632294
 31
0.0
  0
LINE
  5
1104
330
2
100
AcDbEntity
  8
HIDS
  6
SEKKEI_H
100
AcDbLine
 10
272.6958839488963
 20
289.7118975196694
 30
0.0
 11
273.1100975112692
 21
290.1261110820427
 31
0.0
  0
LINE
  5
1105
330
2
100
AcDbEntity
  8
0
100
AcDbLine
 10
271.9029907300825
 20
287.4190043008561
 30
0.0
 11
272.4029907300825
 21
287.9190043008561
 31
0.0
  0
LINE
  5
1106
330
2
100
AcDbEntity
  8
0
100
AcDbLine
 10
266.2029907300832
 20
285.4190043008561
 30
0.0
 11
264.902990730083
 21
285.4190043008561
 31
0.0
  0
LINE
  5
1107
330
2
100
AcDbEntity
  8
0
100
AcDbLine
 10
263.902990730083
 20
284.8416540316661
 30
0.0
 11
263.902990730083
 21
239.9963545700442
 31
0.0
  0
LINE
  5
1108
330
2
100
AcDbEntity
  8
0
100
AcDbLine
 10
271.9029907300825
 20
285.4190043008561
 30
0.0
 11
268.6029907300833
 21
285.4190043008561
 31
0.0
  0
LINE
  5
1109
330
2
100
AcDbEntity
  8
0
100
AcDbLine
 10
263.902990730083
 20
284.8416540316661
 30
0.0
 11
264.902990730083
 21
285.4190043008561
 31
0.0
  0
LINE
  5
110A
330
2
100
AcDbEntity
  8
0
100
AcDbLine
 10
266.2029907300827
 20
239.4190043008561
 30
0.0
 11
264.902990730083
 21
239.4190043008561
 31
0.0
  0
LINE
  5
110B
330
2
100
AcDbEntity
  8
0
100
AcDbLine
 10
271.9029907300825
 20
237.4190043008561
 30
0.0
 11
272.4029907300825
 21
236.9190043008561
 31
0.0
  0
LINE
  5
110C
330
2
100
AcDbEntity
  8
0
100
AcDbLine
 10
271.9029907300825
 20
239.4190043008561
 30
0.0
 11
268.6029907300828
 21
239.4190043008561
 31
0.0
  0
LINE
  5
110D
330
2
100
AcDbEntity
  8
0
100
AcDbLine
 10
271.9029907300825
 20
287.4190043008561
 30
0.0
 11
271.9029907300825
 21
237.4190043008561
 31
0.0
  0
LINE
  5
110E
330
2
100
AcDbEntity
  8
0
100
AcDbLine
 10
263.9029907300825
 20
239.9963545700442
 30
0.0
 11
264.902990730083
 21
239.4190043008561
 31
0.0
  0
LINE
  5
110F
330
2
100
AcDbEntity
  8
0
100
AcDbLine
 10
273.4029907300343
 20
289.1690043008688
 30
0.0
 11
273.4029907300343
 21
235.6690043008433
 31
0.0
  0
LINE
  5
1110
330
2
100
AcDbEntity
  8
HIDS
  6
SEKKEI_H
100
AcDbLine
 10
273.4029907300343
 20
235.6690043008433
 30
0.0
 11
273.4029907300343
 21
227.4932207554624
 31
0.0
  0
ARC
  5
1111
330
2
100
AcDbEntity
  8
0
100
AcDbCircle
 10
274.4029907300344
 20
297.3447878462497
 30
0.0
 40
1.0
100
AcDbArc
 50
90.49999999999155
 51
161.0818891053111
  0
ARC
  5
1112
330
2
100
AcDbEntity
  8
HIDS
  6
SEKKEI_H
100
AcDbCircle
 10
274.4029907300344
 20
297.3447878462497
 30
0.0
 40
1.0
100
AcDbArc
 50
161.0818891053111
 51
180.0
  0
LINE
  5
1113
330
2
100
AcDbEntity
  8
HIDS
  6
SEKKEI_H
100
AcDbLine
 10
272.6958839488963
 20
235.1261110820427
 30
0.0
 11
273.110097511221
 21
234.7118975197185
 31
0.0
  0
ARC
  5
1114
330
2
100
AcDbEntity
  8
HIDS
  6
SEKKEI_H
100
AcDbCircle
 10
273.4029907300826
 20
289.0047907384827
 30
0.0
 40
1.0
100
AcDbArc
 50
134.9999999999859
 51
170.5484482344709
  0
ARC
  5
1115
330
2
100
AcDbEntity
  8
0
100
AcDbCircle
 10
273.4029907300826
 20
289.0047907384827
 30
0.0
 40
1.0
100
AcDbArc
 50
170.5484482344709
 51
180.0
  0
ARC
  5
1116
330
2
100
AcDbEntity
  8
HIDS
  6
SEKKEI_H
100
AcDbCircle
 10
272.4029907300825
 20
290.8332178632294
 30
0.0
 40
1.0
100
AcDbArc
 50
314.9999999999859
 51
0.0
  0
ARC
  5
1117
330
2
100
AcDbEntity
  8
0
100
AcDbCircle
 10
273.4029907300826
 20
235.8332178632294
 30
0.0
 40
1.0
100
AcDbArc
 50
180.0
 51
189.4515517656346
  0
ARC
  5
1118
330
2
100
AcDbEntity
  8
HIDS
  6
SEKKEI_H
100
AcDbCircle
 10
273.4029907300826
 20
235.8332178632294
 30
0.0
 40
1.0
100
AcDbArc
 50
189.4515517656346
 51
225.0000000000141
  0
ARC
  5
1119
330
2
100
AcDbEntity
  8
HIDS
  6
SEKKEI_H
100
AcDbCircle
 10
272.4029907300344
 20
234.0047907385318
 30
0.0
 40
1.0
100
AcDbArc
 50
0.0
 51
45.00000000001409
  0
LINE
  5
111A
330
2
100
AcDbEntity
  8
0
100
AcDbLine
 10
266.402990730083
 20
285.2190043008553
 30
0.0
 11
266.402990730083
 21
239.619004300855
 31
0.0
  0
LINE
  5
111B
330
2
100
AcDbEntity
  8
0
100
AcDbLine
 10
268.2029907300827
 20
240.119004300855
 30
0.0
 11
266.6029907300828
 21
240.119004300855
 31
0.0
  0
LINE
  5
111C
330
2
100
AcDbEntity
  8
0
100
AcDbLine
 10
268.402990730083
 20
285.2190043008553
 30
0.0
 11
268.402990730083
 21
239.619004300855
 31
0.0
  0
ARC
  5
111D
330
2
100
AcDbEntity
  8
0
100
AcDbCircle
 10
266.2029907300827
 20
239.619004300855
 30
0.0
 40
0.2
100
AcDbArc
 50
270.0
 51
0.0
  0
ARC
  5
111E
330
2
100
AcDbEntity
  8
0
100
AcDbCircle
 10
266.6029907300828
 20
239.9190043008561
 30
0.0
 40
0.2
100
AcDbArc
 50
90.0
 51
180.0
  0
ARC
  5
111F
330
2
100
AcDbEntity
  8
0
100
AcDbCircle
 10
268.2029907300827
 20
239.9190043008561
 30
0.0
 40
0.2
100
AcDbArc
 50
0.0
 51
90.0
  0
LINE
  5
1120
330
2
100
AcDbEntity
  8
0
100
AcDbLine
 10
268.402990730083
 20
239.619004300855
 30
0.0
 11
268.6029907300828
 21
239.4190043008561
 31
0.0
  0
LINE
  5
1121
330
2
100
AcDbEntity
  8
0
100
AcDbLine
 10
268.402990730083
 20
285.2190043008553
 30
0.0
 11
268.6029907300828
 21
285.4190043008561
 31
0.0
  0
LINE
  5
1122
330
2
100
AcDbEntity
  8
0
100
AcDbLine
 10
268.2029907300827
 20
284.7190043008554
 30
0.0
 11
266.6029907300828
 21
284.7190043008554
 31
0.0
  0
ARC
  5
1123
330
2
100
AcDbEntity
  8
0
100
AcDbCircle
 10
268.2029907300827
 20
284.9190043008561
 30
0.0
 40
0.2
100
AcDbArc
 50
270.0
 51
0.0
  0
ARC
  5
1124
330
2
100
AcDbEntity
  8
0
100
AcDbCircle
 10
266.6029907300828
 20
284.9190043008561
 30
0.0
 40
0.2
100
AcDbArc
 50
180.0
 51
270.0
  0
ARC
  5
1125
330
2
100
AcDbEntity
  8
0
100
AcDbCircle
 10
266.2029907300832
 20
285.2190043008553
 30
0.0
 40
0.2
100
AcDbArc
 50
0.0
 51
90.0
  0
LINE
  5
1126
330
2
100
AcDbEntity
  8
0
100
AcDbLine
 10
268.6029907300828
 20
239.4190043008561
 30
0.0
 11
268.6029907300838
 21
285.4190043008561
 31
0.0
  0
LINE
  5
1127
330
2
100
AcDbEntity
  8
0
100
AcDbLine
 10
264.902990730083
 20
285.4190043008561
 30
0.0
 11
264.902990730083
 21
239.4190043008561
 31
0.0
  0
LINE
  5
1128
330
2
100
AcDbEntity
  8
0
100
AcDbLine
 10
282.9029907300303
 20
293.4190043008561
 30
0.0
 11
277.3942641944834
 21
293.4190043008561
 31
0.0
  0
LINE
  5
1129
330
2
100
AcDbEntity
  8
0
100
AcDbLine
 10
282.9029907300303
 20
290.419004300856
 30
0.0
 11
277.3942641944834
 21
290.419004300856
 31
0.0
  0
LINE
  5
112A
330
2
100
AcDbEntity
  8
0
100
AcDbLine
 10
282.9029907300303
 20
278.9465998208392
 30
0.0
 11
274.3942641945361
 21
278.9465998208392
 31
0.0
  0
LINE
  5
112B
330
2
100
AcDbEntity
  8
0
100
AcDbLine
 10
282.9029907300303
 20
231.4190043008561
 30
0.0
 11
277.3942641944834
 21
231.4190043008561
 31
0.0
  0
LINE
  5
112C
330
2
100
AcDbEntity
  8
0
100
AcDbLine
 10
282.9029907300303
 20
234.419004300856
 30
0.0
 11
277.3942641944834
 21
234.419004300856
 31
0.0
  0
LINE
  5
112D
330
2
100
AcDbEntity
  8
0
100
AcDbLine
 10
282.9029907300303
 20
245.8914087808729
 30
0.0
 11
274.3942641945361
 21
245.8914087808729
 31
0.0
  0
LINE
  5
112E
330
2
100
AcDbEntity
  8
0
100
AcDbLine
 10
275.9073539977309
 20
287.9146789446216
 30
0.0
 11
274.3942641945361
 21
287.9014744099526
 31
0.0
  0
LINE
  5
112F
330
2
100
AcDbEntity
  8
0
100
AcDbLine
 10
276.4029907299816
 20
288.4146599061509
 30
0.0
 11
276.4029907299816
 21
297.3709684496201
 31
0.0
  0
ARC
  5
1130
330
2
100
AcDbEntity
  8
0
100
AcDbCircle
 10
275.9029907299816
 20
288.4146599061509
 30
0.0
 40
0.5
100
AcDbArc
 50
270.4999999999915
 51
0.0
  0
ARC
  5
1131
330
2
100
AcDbEntity
  8
0
100
AcDbCircle
 10
277.4029907299816
 20
297.3709684496201
 30
0.0
 40
1.0
100
AcDbArc
 50
90.49999999999155
 51
180.0
  0
ARC
  5
1132
330
2
100
AcDbEntity
  8
0
100
AcDbCircle
 10
274.4029907300344
 20
286.9015124868887
 30
0.0
 40
1.0
100
AcDbArc
 50
90.49999999999155
 51
180.0
  0
LINE
  5
1133
330
2
100
AcDbEntity
  8
0
100
AcDbLine
 10
282.9029907300303
 20
226.419004300856
 30
0.0
 11
282.9029907300303
 21
298.4190043008561
 31
0.0
  0
LINE
  5
1134
330
2
100
AcDbEntity
  8
0
100
AcDbLine
 10
263.9029907300825
 20
239.9963545700442
 30
0.0
 11
263.9029907300825
 21
250.4190503008552
 31
0.0
  0
LINE
  5
1135
330
2
100
AcDbEntity
  8
0
100
AcDbLine
 10
282.9029907300303
 20
226.419004300856
 30
0.0
 11
274.3942641945361
 21
226.4932588323985
 31
0.0
  0
ARC
  5
1136
330
2
100
AcDbEntity
  8
HIDS
  6
SEKKEI_H
100
AcDbCircle
 10
274.4029907300344
 20
227.4932207554624
 30
0.0
 40
1.0
100
AcDbArc
 50
180.0
 51
198.9181108946889
  0
ARC
  5
1137
330
2
100
AcDbEntity
  8
0
100
AcDbCircle
 10
274.4029907300344
 20
227.4932207554624
 30
0.0
 40
1.0
100
AcDbArc
 50
198.9181108946889
 51
269.5000000000084
  0
LINE
  5
1138
330
2
100
AcDbEntity
  8
0
100
AcDbLine
 10
275.9073539977309
 20
236.9233296570905
 30
0.0
 11
274.3942641945361
 21
236.9365341917577
 31
0.0
  0
LINE
  5
1139
330
2
100
AcDbEntity
  8
0
100
AcDbLine
 10
276.4029907299816
 20
236.4233486955612
 30
0.0
 11
276.4029907299816
 21
227.1690043008433
 31
0.0
  0
ARC
  5
113A
330
2
100
AcDbEntity
  8
0
100
AcDbCircle
 10
275.9029907299816
 20
236.4233486955612
 30
0.0
 40
0.5
100
AcDbArc
 50
0.0
 51
89.50000000000846
  0
ARC
  5
113B
330
2
100
AcDbEntity
  8
0
100
AcDbCircle
 10
277.4029907299816
 20
227.4670401520901
 30
0.0
 40
1.0
100
AcDbArc
 50
180.0
 51
269.5000000000084
  0
ARC
  5
113C
330
2
100
AcDbEntity
  8
0
100
AcDbCircle
 10
274.4029907300344
 20
237.9364961148216
 30
0.0
 40
1.0
100
AcDbArc
 50
180.0
 51
269.5000000000084
  0
LINE
  5
113D
330
2
100
AcDbEntity
  8
0
100
AcDbLine
 10
429.0646021183063
 20
488.8726878750126
 30
0.0
 11
482.2361749935605
 21
488.8726878750126
 31
0.0
  0
LINE
  5
113E
330
2
100
AcDbEntity
  8
0
100
AcDbLine
 10
419.6503885559338
 20
478.3726878750654
 30
0.0
 11
419.7246430874763
 21
486.8814144105595
 31
0.0
  0
LINE
  5
113F
330
2
100
AcDbEntity
  8
HIDS
  6
SEKKEI_H
100
AcDbLine
 10
428.3574953371196
 20
488.5797946561992
 30
0.0
 11
427.9432817747467
 21
488.1655810938259
 31
0.0
  0
LINE
  5
1140
330
2
100
AcDbEntity
  8
0
100
AcDbLine
 10
430.6503885559334
 20
489.3726878750126
 30
0.0
 11
430.1503885559334
 21
488.8726878750126
 31
0.0
  0
LINE
  5
1141
330
2
100
AcDbEntity
  8
0
100
AcDbLine
 10
432.6503885559334
 20
495.0726878750115
 30
0.0
 11
432.6503885559334
 21
496.3726878750126
 31
0.0
  0
LINE
  5
1142
330
2
100
AcDbEntity
  8
0
100
AcDbLine
 10
432.6503885559334
 20
489.3726878750126
 30
0.0
 11
432.6503885559334
 21
492.6726878750119
 31
0.0
  0
LINE
  5
1143
330
2
100
AcDbEntity
  8
0
100
AcDbLine
 10
433.2277388251234
 20
497.3726878750126
 30
0.0
 11
478.0730382867448
 21
497.3726878750126
 31
0.0
  0
LINE
  5
1144
330
2
100
AcDbEntity
  8
0
100
AcDbLine
 10
433.2277388251229
 20
497.3726878750126
 30
0.0
 11
432.6503885559334
 21
496.3726878750126
 31
0.0
  0
LINE
  5
1145
330
2
100
AcDbEntity
  8
0
100
AcDbLine
 10
478.6503885559343
 20
495.0726878750115
 30
0.0
 11
478.6503885559343
 21
496.3726878750126
 31
0.0
  0
LINE
  5
1146
330
2
100
AcDbEntity
  8
0
100
AcDbLine
 10
480.6503885559343
 20
489.3726878750126
 30
0.0
 11
481.1503885559338
 21
488.8726878750126
 31
0.0
  0
LINE
  5
1147
330
2
100
AcDbEntity
  8
0
100
AcDbLine
 10
478.6503885559343
 20
489.3726878750126
 30
0.0
 11
478.6503885559343
 21
492.6726878750119
 31
0.0
  0
LINE
  5
1148
330
2
100
AcDbEntity
  8
0
100
AcDbLine
 10
430.6503885559334
 20
489.3726878750126
 30
0.0
 11
480.6503885559343
 21
489.3726878750126
 31
0.0
  0
LINE
  5
1149
330
2
100
AcDbEntity
  8
0
100
AcDbLine
 10
478.0730382867448
 20
497.3726878750126
 30
0.0
 11
478.6503885559343
 21
496.3726878750126
 31
0.0
  0
LINE
  5
114A
330
2
100
AcDbEntity
  8
0
100
AcDbLine
 10
492.6503885559339
 20
485.8726878751126
 30
0.0
 11
510.4003885559348
 21
485.8726878751126
 31
0.0
  0
ARC
  5
114B
330
2
100
AcDbEntity
  8
0
100
AcDbCircle
 10
518.5936258369077
 20
484.8726878751127
 30
0.0
 40
1.0
100
AcDbArc
 50
0.4999999999654926
 51
72.13575521903521
  0
LINE
  5
114C
330
2
100
AcDbEntity
  8
0
100
AcDbLine
 10
509.5904447863829
 20
484.8726878751127
 30
0.0
 11
518.6023527046984
 21
484.8726878751127
 31
0.0
  0
ARC
  5
114D
330
2
100
AcDbEntity
  8
0
100
AcDbCircle
 10
518.6023527046984
 20
483.8726878751126
 30
0.0
 40
1.0
100
AcDbArc
 50
0.4999999999654926
 51
90.0
  0
LINE
  5
114E
330
2
100
AcDbEntity
  8
HIDS
  6
SEKKEI_H
100
AcDbLine
 10
420.7246050105407
 20
487.8726878750598
 30
0.0
 11
428.9003885559343
 21
487.8726878750598
 31
0.0
  0
LINE
  5
114F
330
2
100
AcDbEntity
  8
0
100
AcDbLine
 10
428.9003885559343
 20
487.8726878750598
 30
0.0
 11
490.6503885559338
 21
487.8726878750598
 31
0.0
  0
ARC
  5
1150
330
2
100
AcDbEntity
  8
HIDS
  6
SEKKEI_H
100
AcDbCircle
 10
420.7246050105407
 20
486.8726878750599
 30
0.0
 40
1.0
100
AcDbArc
 50
90.0
 51
108.9181108939103
  0
ARC
  5
1151
330
2
100
AcDbEntity
  8
0
100
AcDbCircle
 10
420.7246050105407
 20
486.8726878750599
 30
0.0
 40
1.0
100
AcDbArc
 50
108.9181108939103
 51
179.5000000000344
  0
LINE
  5
1152
330
2
100
AcDbEntity
  8
0
100
AcDbLine
 10
482.9432817747472
 20
488.5797946561992
 30
0.0
 11
483.3574953370714
 21
488.1655810938751
 31
0.0
  0
ARC
  5
1153
330
2
100
AcDbEntity
  8
0
100
AcDbCircle
 10
492.6503885559339
 20
486.8726878751126
 30
0.0
 40
1.0
100
AcDbArc
 50
180.000000001459
 51
270.0
  0
ARC
  5
1154
330
2
100
AcDbEntity
  8
0
100
AcDbCircle
 10
490.6503885559338
 20
486.8726878750599
 30
0.0
 40
1.0
100
AcDbArc
 50
0.0000000015633062
 51
90.0
  0
LINE
  5
1155
330
2
100
AcDbEntity
  8
0
100
AcDbLine
 10
491.6503885559339
 20
486.8726878750635
 30
0.0
 11
491.6503885559339
 21
486.8726878750599
 31
0.0
  0
LINE
  5
1156
330
2
100
AcDbEntity
  8
0
100
AcDbLine
 10
519.6503885559334
 20
478.3726878750654
 30
0.0
 11
519.5935877599715
 21
484.8814144106122
 31
0.0
  0
ARC
  5
1157
330
2
100
AcDbEntity
  8
0
100
AcDbCircle
 10
429.0646021183063
 20
487.8726878750126
 30
0.0
 40
1.0
100
AcDbArc
 50
90.0
 51
99.4515517648093
  0
ARC
  5
1158
330
2
100
AcDbEntity
  8
HIDS
  6
SEKKEI_H
100
AcDbCircle
 10
429.0646021183063
 20
487.8726878750126
 30
0.0
 40
1.0
100
AcDbArc
 50
99.4515517648093
 51
134.9999999999951
  0
ARC
  5
1159
330
2
100
AcDbEntity
  8
HIDS
  6
SEKKEI_H
100
AcDbCircle
 10
427.23617499356
 20
488.8726878750126
 30
0.0
 40
1.0
100
AcDbArc
 50
270.0
 51
314.9999999999951
  0
ARC
  5
115A
330
2
100
AcDbEntity
  8
0
100
AcDbCircle
 10
482.2361749935605
 20
487.8726878750126
 30
0.0
 40
1.0
100
AcDbArc
 50
45.00000000000489
 51
90.0
  0
ARC
  5
115B
330
2
100
AcDbEntity
  8
0
100
AcDbCircle
 10
484.0646021182585
 20
488.8726878750599
 30
0.0
 40
1.0
100
AcDbArc
 50
225.0000000000048
 51
270.0
  0
LINE
  5
115C
330
2
100
AcDbEntity
  8
0
100
AcDbLine
 10
432.8503885559337
 20
494.8726878750126
 30
0.0
 11
478.450388555934
 21
494.8726878750126
 31
0.0
  0
LINE
  5
115D
330
2
100
AcDbEntity
  8
0
100
AcDbLine
 10
477.950388555934
 20
493.0726878750115
 30
0.0
 11
477.950388555934
 21
494.6726878750118
 31
0.0
  0
LINE
  5
115E
330
2
100
AcDbEntity
  8
0
100
AcDbLine
 10
432.8503885559337
 20
492.8726878750126
 30
0.0
 11
478.450388555934
 21
492.8726878750126
 31
0.0
  0
ARC
  5
115F
330
2
100
AcDbEntity
  8
0
100
AcDbCircle
 10
478.450388555934
 20
495.0726878750115
 30
0.0
 40
0.2
100
AcDbArc
 50
270.0
 51
0.0
  0
ARC
  5
1160
330
2
100
AcDbEntity
  8
0
100
AcDbCircle
 10
478.1503885559338
 20
494.6726878750118
 30
0.0
 40
0.2
100
AcDbArc
 50
90.0
 51
180.0
  0
ARC
  5
1161
330
2
100
AcDbEntity
  8
0
100
AcDbCircle
 10
478.1503885559338
 20
493.0726878750115
 30
0.0
 40
0.2
100
AcDbArc
 50
180.0
 51
270.0
  0
LINE
  5
1162
330
2
100
AcDbEntity
  8
0
100
AcDbLine
 10
478.450388555934
 20
492.8726878750126
 30
0.0
 11
478.6503885559343
 21
492.6726878750119
 31
0.0
  0
LINE
  5
1163
330
2
100
AcDbEntity
  8
0
100
AcDbLine
 10
432.8503885559337
 20
492.8726878750126
 30
0.0
 11
432.6503885559339
 21
492.6726878750119
 31
0.0
  0
LINE
  5
1164
330
2
100
AcDbEntity
  8
0
100
AcDbLine
 10
433.3503885559337
 20
493.0726878750115
 30
0.0
 11
433.3503885559337
 21
494.6726878750118
 31
0.0
  0
ARC
  5
1165
330
2
100
AcDbEntity
  8
0
100
AcDbCircle
 10
433.1503885559339
 20
493.0726878750115
 30
0.0
 40
0.2
100
AcDbArc
 50
270.0
 51
0.0
  0
ARC
  5
1166
330
2
100
AcDbEntity
  8
0
100
AcDbCircle
 10
433.1503885559339
 20
494.6726878750118
 30
0.0
 40
0.2
100
AcDbArc
 50
0.0
 51
90.0
  0
ARC
  5
1167
330
2
100
AcDbEntity
  8
0
100
AcDbCircle
 10
432.8503885559337
 20
495.0726878750115
 30
0.0
 40
0.2
100
AcDbArc
 50
180.0
 51
270.0
  0
LINE
  5
1168
330
2
100
AcDbEntity
  8
0
100
AcDbLine
 10
478.6503885559343
 20
492.6726878750119
 30
0.0
 11
432.6503885559334
 21
492.6726878750119
 31
0.0
  0
LINE
  5
1169
330
2
100
AcDbEntity
  8
0
100
AcDbLine
 10
432.6503885559334
 20
496.3726878750126
 30
0.0
 11
478.6503885559343
 21
496.3726878750126
 31
0.0
  0
LINE
  5
116A
330
2
100
AcDbEntity
  8
0
100
AcDbLine
 10
491.6503885559334
 20
478.3726878750654
 30
0.0
 11
491.6503885559334
 21
486.8726878750599
 31
0.0
  0
ARC
  5
116B
330
2
100
AcDbEntity
  8
0
100
AcDbCircle
 10
508.1762312240096
 20
484.8726878751181
 30
0.0
 40
1.0
100
AcDbArc
 50
19.47122063452669
 51
90.0
  0
ARC
  5
116C
330
2
100
AcDbEntity
  8
0
100
AcDbCircle
 10
509.5904447863829
 20
485.3726878751199
 30
0.0
 40
0.5
100
AcDbArc
 50
199.4712206345266
 51
270.0
  0
LINE
  5
116D
330
2
100
AcDbEntity
  8
0
100
AcDbLine
 10
424.6503885559339
 20
478.3726878750654
 30
0.0
 11
424.6503885559339
 21
483.8814144106122
 31
0.0
  0
LINE
  5
116E
330
2
100
AcDbEntity
  8
0
100
AcDbLine
 10
427.6503885559338
 20
478.3726878750654
 30
0.0
 11
427.6503885559338
 21
483.8814144106122
 31
0.0
  0
LINE
  5
116F
330
2
100
AcDbEntity
  8
0
100
AcDbLine
 10
439.1227930359507
 20
478.3726878750654
 30
0.0
 11
439.1227930359507
 21
486.8726878750126
 31
0.0
  0
LINE
  5
1170
330
2
100
AcDbEntity
  8
0
100
AcDbLine
 10
486.6503885559343
 20
478.3726878750654
 30
0.0
 11
486.6503885559343
 21
486.8726878750126
 31
0.0
  0
LINE
  5
1171
330
2
100
AcDbEntity
  8
0
100
AcDbLine
 10
483.6503885559343
 20
478.3726878750654
 30
0.0
 11
483.6503885559343
 21
486.8726878750126
 31
0.0
  0
LINE
  5
1172
330
2
100
AcDbEntity
  8
0
100
AcDbLine
 10
472.1779840759174
 20
478.3726878750654
 30
0.0
 11
472.1779840759174
 21
486.8726878750126
 31
0.0
  0
LINE
  5
1173
330
2
100
AcDbEntity
  8
0
100
AcDbLine
 10
430.1547139121683
 20
485.3683246073646
 30
0.0
 11
430.1679184468364
 21
486.8814144105595
 31
0.0
  0
LINE
  5
1174
330
2
100
AcDbEntity
  8
0
100
AcDbLine
 10
429.6547329506386
 20
484.8726878751127
 30
0.0
 11
420.6984244071689
 21
484.8726878751127
 31
0.0
  0
ARC
  5
1175
330
2
100
AcDbEntity
  8
0
100
AcDbCircle
 10
429.6547329506386
 20
485.3726878751126
 30
0.0
 40
0.5
100
AcDbArc
 50
270.0
 51
359.5000000000345
  0
ARC
  5
1176
330
2
100
AcDbEntity
  8
0
100
AcDbCircle
 10
420.6984244071689
 20
483.8726878751126
 30
0.0
 40
1.0
100
AcDbArc
 50
90.0
 51
179.5000000000344
  0
ARC
  5
1177
330
2
100
AcDbEntity
  8
0
100
AcDbCircle
 10
431.1678803699003
 20
486.8726878750617
 30
0.0
 40
1.0
100
AcDbArc
 50
89.99999999997395
 51
179.5000000000344
  0
LINE
  5
1178
330
2
100
AcDbEntity
  8
0
100
AcDbLine
 10
740.2035453367277
 20
226.4190043008688
 30
0.0
 11
740.2035453367268
 21
234.3297185865734
 31
0.0
  0
LINE
  5
1179
330
2
100
AcDbEntity
  8
0
100
AcDbLine
 10
740.2035453367223
 20
290.508290015166
 30
0.0
 11
740.2035453367213
 21
298.4190043008688
 31
0.0
  0
LINE
  5
117A
330
2
100
AcDbEntity
  8
0
100
AcDbLine
 10
740.2035453367241
 20
226.4190043008688
 30
0.0
 11
740.2035453367241
 21
234.3297185865734
 31
0.0
  0
LINE
  5
117B
330
2
100
AcDbEntity
  8
0
100
AcDbLine
 10
740.2035453367245
 20
290.508290015166
 30
0.0
 11
740.2035453367245
 21
298.4190043008688
 31
0.0
  0
LINE
  5
117C
330
2
100
AcDbEntity
  8
0
100
AcDbLine
 10
740.2035453367245
 20
226.4190043008688
 30
0.0
 11
740.2035453367245
 21
234.3297185865734
 31
0.0
  0
LINE
  5
117D
330
2
100
AcDbEntity
  8
0
100
AcDbLine
 10
740.2035453367245
 20
290.508290015166
 30
0.0
 11
740.2035453367245
 21
298.4190043008688
 31
0.0
  0
LINE
  5
117E
330
2
100
AcDbEntity
  8
0
100
AcDbLine
 10
740.2035453367277
 20
298.4190043008688
 30
0.0
 11
740.2035453367268
 21
290.508290015166
 31
0.0
  0
LINE
  5
117F
330
2
100
AcDbEntity
  8
0
100
AcDbLine
 10
740.2035453367223
 20
234.3297185865734
 30
0.0
 11
740.2035453367213
 21
226.4190043008688
 31
0.0
  0
LINE
  5
1180
330
2
100
AcDbEntity
  8
0
100
AcDbLine
 10
750.7035453366722
 20
243.6690043008688
 30
0.0
 11
750.7035453366722
 21
281.1690043008688
 31
0.0
  0
LINE
  5
1181
330
2
100
AcDbEntity
  8
0
100
AcDbLine
 10
740.2035453367245
 20
226.4190043008688
 30
0.0
 11
748.7122718722186
 21
226.4932588324112
 31
0.0
  0
LINE
  5
1182
330
2
100
AcDbEntity
  8
0
100
AcDbLine
 10
756.9035453366721
 20
239.4190043008669
 30
0.0
 11
758.2035453366718
 21
239.4190043008669
 31
0.0
  0
LINE
  5
1183
330
2
100
AcDbEntity
  8
0
100
AcDbLine
 10
753.0035453367734
 20
239.4190043008669
 30
0.0
 11
754.5035453366715
 21
239.4190043008669
 31
0.0
  0
LINE
  5
1184
330
2
100
AcDbEntity
  8
0
100
AcDbLine
 10
759.2035453366722
 20
239.996354570057
 30
0.0
 11
759.2035453366722
 21
284.8416540316788
 31
0.0
  0
LINE
  5
1185
330
2
100
AcDbEntity
  8
0
100
AcDbLine
 10
759.2035453366722
 20
239.996354570057
 30
0.0
 11
758.2035453366718
 21
239.4190043008669
 31
0.0
  0
LINE
  5
1186
330
2
100
AcDbEntity
  8
0
100
AcDbLine
 10
756.9035453366721
 20
285.4190043008688
 30
0.0
 11
758.2035453366723
 21
285.4190043008688
 31
0.0
  0
LINE
  5
1187
330
2
100
AcDbEntity
  8
0
100
AcDbLine
 10
753.0035453367734
 20
285.4190043008688
 30
0.0
 11
754.503545336672
 21
285.4190043008688
 31
0.0
  0
LINE
  5
1188
330
2
100
AcDbEntity
  8
0
100
AcDbLine
 10
751.2035453366722
 20
243.6690043008688
 30
0.0
 11
751.2035453366722
 21
281.1690043008688
 31
0.0
  0
LINE
  5
1189
330
2
100
AcDbEntity
  8
0
100
AcDbLine
 10
759.2035453366722
 20
284.8416540316788
 30
0.0
 11
758.2035453366723
 21
285.4190043008688
 31
0.0
  0
LINE
  5
118A
330
2
100
AcDbEntity
  8
0
100
AcDbLine
 10
749.7035453367204
 20
227.4932207554751
 30
0.0
 11
749.7035453367204
 21
235.169004300867
 31
0.0
  0
LINE
  5
118B
330
2
100
AcDbEntity
  8
0
100
AcDbLine
 10
749.7035453367204
 20
243.6690043008688
 30
0.0
 11
749.7035453367204
 21
281.1690043008688
 31
0.0
  0
LINE
  5
118C
330
2
100
AcDbEntity
  8
0
100
AcDbLine
 10
749.7035453367204
 20
289.6690043008688
 30
0.0
 11
749.7035453367204
 21
297.4190043008688
 31
0.0
  0
ARC
  5
118D
330
2
100
AcDbEntity
  8
0
100
AcDbCircle
 10
748.7035453367204
 20
227.4932207554751
 30
0.0
 40
1.0
100
AcDbArc
 50
270.4999999999915
 51
0.0
  0
LINE
  5
118E
330
2
100
AcDbEntity
  8
0
100
AcDbLine
 10
740.2035453367245
 20
298.4190043008688
 30
0.0
 11
740.2035453367245
 21
290.508290015166
 31
0.0
  0
LINE
  5
118F
330
2
100
AcDbEntity
  8
0
100
AcDbLine
 10
740.2035453367245
 20
234.3297185865734
 30
0.0
 11
740.2035453367245
 21
226.4190043008688
 31
0.0
  0
LINE
  5
1190
330
2
100
AcDbEntity
  8
0
100
AcDbLine
 10
756.7035453366713
 20
239.6190043008677
 30
0.0
 11
756.7035453366722
 21
285.2190043008681
 31
0.0
  0
LINE
  5
1191
330
2
100
AcDbEntity
  8
0
100
AcDbLine
 10
754.903545336672
 20
284.719004300868
 30
0.0
 11
756.5035453366724
 21
284.719004300868
 31
0.0
  0
LINE
  5
1192
330
2
100
AcDbEntity
  8
0
100
AcDbLine
 10
754.7035453366718
 20
239.6190043008677
 30
0.0
 11
754.7035453366718
 21
285.2190043008681
 31
0.0
  0
ARC
  5
1193
330
2
100
AcDbEntity
  8
0
100
AcDbCircle
 10
756.9035453366721
 20
285.2190043008681
 30
0.0
 40
0.2
100
AcDbArc
 50
90.0
 51
180.0
  0
ARC
  5
1194
330
2
100
AcDbEntity
  8
0
100
AcDbCircle
 10
756.5035453366724
 20
284.9190043008688
 30
0.0
 40
0.2
100
AcDbArc
 50
270.0
 51
0.0
  0
ARC
  5
1195
330
2
100
AcDbEntity
  8
0
100
AcDbCircle
 10
754.903545336672
 20
284.9190043008688
 30
0.0
 40
0.2
100
AcDbArc
 50
180.0
 51
270.0
  0
LINE
  5
1196
330
2
100
AcDbEntity
  8
0
100
AcDbLine
 10
754.7035453366718
 20
285.2190043008681
 30
0.0
 11
754.503545336672
 21
285.4190043008688
 31
0.0
  0
LINE
  5
1197
330
2
100
AcDbEntity
  8
0
100
AcDbLine
 10
754.7035453366718
 20
239.6190043008677
 30
0.0
 11
754.503545336672
 21
239.4190043008688
 31
0.0
  0
LINE
  5
1198
330
2
100
AcDbEntity
  8
0
100
AcDbLine
 10
754.903545336672
 20
240.1190043008677
 30
0.0
 11
756.503545336672
 21
240.1190043008677
 31
0.0
  0
ARC
  5
1199
330
2
100
AcDbEntity
  8
0
100
AcDbCircle
 10
754.903545336672
 20
239.9190043008688
 30
0.0
 40
0.2
100
AcDbArc
 50
90.0
 51
180.0
  0
ARC
  5
119A
330
2
100
AcDbEntity
  8
0
100
AcDbCircle
 10
756.503545336672
 20
239.9190043008688
 30
0.0
 40
0.2
100
AcDbArc
 50
0.0
 51
90.0
  0
ARC
  5
119B
330
2
100
AcDbEntity
  8
0
100
AcDbCircle
 10
756.9035453366721
 20
239.6190043008677
 30
0.0
 40
0.2
100
AcDbArc
 50
180.0
 51
270.0
  0
LINE
  5
119C
330
2
100
AcDbEntity
  8
0
100
AcDbLine
 10
754.503545336672
 20
285.4190043008688
 30
0.0
 11
754.5035453366715
 21
239.4190043008669
 31
0.0
  0
LINE
  5
119D
330
2
100
AcDbEntity
  8
0
100
AcDbLine
 10
758.2035453366718
 20
239.4190043008669
 30
0.0
 11
758.2035453366723
 21
285.4190043008688
 31
0.0
  0
LINE
  5
119E
330
2
100
AcDbEntity
  8
0
100
AcDbLine
 10
742.8763533205207
 20
290.3956790589631
 30
0.0
 11
746.7122718722228
 21
290.3622035049078
 31
0.0
  0
LINE
  5
119F
330
2
100
AcDbEntity
  8
0
100
AcDbLine
 10
749.7035453367204
 20
297.3447878462625
 30
0.0
 11
749.7035453367204
 21
289.6690043008688
 31
0.0
  0
LINE
  5
11A0
330
2
100
AcDbEntity
  8
0
100
AcDbLine
 10
749.7035453367204
 20
235.169004300867
 30
0.0
 11
749.7035453367204
 21
227.4932207554751
 31
0.0
  0
LINE
  5
11A1
330
2
100
AcDbEntity
  8
0
100
AcDbLine
 10
740.2035453367245
 20
298.4190043008688
 30
0.0
 11
740.2035453367245
 21
290.508290015166
 31
0.0
  0
LINE
  5
11A2
330
2
100
AcDbEntity
  8
0
100
AcDbLine
 10
740.2035453367245
 20
234.3297185865734
 30
0.0
 11
740.2035453367245
 21
226.4190043008688
 31
0.0
  0
LINE
  5
11A3
330
2
100
AcDbEntity
  8
0
100
AcDbLine
 10
740.2035453367245
 20
298.4190043008688
 30
0.0
 11
748.7122718722186
 21
298.3447497693263
 31
0.0
  0
ARC
  5
11A4
330
2
100
AcDbEntity
  8
0
100
AcDbCircle
 10
748.7035453367204
 20
297.3447878462625
 30
0.0
 40
1.0
100
AcDbArc
 50
0.0
 51
89.50000000000846
  0
LINE
  5
11A5
330
2
100
AcDbEntity
  8
0
100
AcDbLine
 10
747.1991820690239
 20
279.9627528728046
 30
0.0
 11
747.7035453367245
 21
279.9583513612501
 31
0.0
  0
LINE
  5
11A6
330
2
100
AcDbEntity
  8
0
100
AcDbLine
 10
746.7035453367732
 20
280.4627338343338
 30
0.0
 11
746.7035453367732
 21
289.3709684496329
 31
0.0
  0
ARC
  5
11A7
330
2
100
AcDbEntity
  8
0
100
AcDbCircle
 10
745.7035453367732
 20
289.3709684496329
 30
0.0
 40
1.0
100
AcDbArc
 50
0.0
 51
89.50000000000846
  0
ARC
  5
11A8
330
2
100
AcDbEntity
  8
0
100
AcDbCircle
 10
747.2035453367732
 20
280.4627338343338
 30
0.0
 40
0.5
100
AcDbArc
 50
180.0
 51
269.5000000000084
  0
ARC
  5
11A9
330
2
100
AcDbEntity
  8
0
100
AcDbCircle
 10
746.7035453367246
 20
289.3622415818421
 30
0.0
 40
1.0
100
AcDbArc
 50
17.86424478095049
 51
89.50000000000846
  0
LINE
  5
11AA
330
2
100
AcDbEntity
  8
0
100
AcDbLine
 10
742.876353320508
 20
234.4423295427727
 30
0.0
 11
746.7122718722228
 21
234.4758050968298
 31
0.0
  0
LINE
  5
11AB
330
2
100
AcDbEntity
  8
0
100
AcDbLine
 10
747.1991820690239
 20
244.8752557289312
 30
0.0
 11
747.7035453367245
 21
244.8796572404875
 31
0.0
  0
LINE
  5
11AC
330
2
100
AcDbEntity
  8
0
100
AcDbLine
 10
746.7035453367732
 20
244.3752747674019
 30
0.0
 11
746.7035453367732
 21
235.4670401521029
 31
0.0
  0
ARC
  5
11AD
330
2
100
AcDbEntity
  8
0
100
AcDbCircle
 10
745.7035453367732
 20
235.4670401521029
 30
0.0
 40
1.0
100
AcDbArc
 50
270.4999999999915
 51
0.0
  0
ARC
  5
11AE
330
2
100
AcDbEntity
  8
0
100
AcDbCircle
 10
747.2035453367732
 20
244.3752747674019
 30
0.0
 40
0.5
100
AcDbArc
 50
90.49999999999155
 51
180.0
  0
ARC
  5
11AF
330
2
100
AcDbEntity
  8
0
100
AcDbCircle
 10
746.7035453367246
 20
235.4757670198937
 30
0.0
 40
1.0
100
AcDbArc
 50
270.4999999999915
 51
342.1357552190495
  0
LINE
  5
11B0
330
2
100
AcDbEntity
  8
0
100
AcDbLine
 10
747.7035453367245
 20
281.1690043008688
 30
0.0
 11
747.7035453367245
 21
243.6690043008688
 31
0.0
  0
LINE
  5
11B1
330
2
100
AcDbEntity
  8
0
100
AcDbLine
 10
115.2177400106127
 20
240.573704839247
 30
0.0
 11
115.2177400106127
 21
238.2643037624888
 31
0.0
  0
LINE
  5
11B2
330
2
100
AcDbEntity
  8
0
100
AcDbLine
 10
119.2177400106127
 20
240.573704839247
 30
0.0
 11
119.2177400106127
 21
238.2643037624888
 31
0.0
  0
CIRCLE
  5
11B3
330
2
100
AcDbEntity
  8
0
100
AcDbCircle
 10
117.2177400106127
 20
239.4190043008688
 30
0.0
 40
3.730384757729268
  0
CIRCLE
  5
11B4
330
2
100
AcDbEntity
  8
0
100
AcDbCircle
 10
117.2177400106127
 20
239.4190043008688
 30
0.0
 40
4.250000000000085
  0
LINE
  5
11B5
330
2
100
AcDbEntity
  8
0
100
AcDbLine
 10
119.2177400106127
 20
238.2643037624888
 30
0.0
 11
117.2177400106127
 21
237.1096032241088
 31
0.0
  0
LINE
  5
11B6
330
2
100
AcDbEntity
  8
0
100
AcDbLine
 10
115.2177400106127
 20
238.2643037624888
 30
0.0
 11
117.2177400106122
 21
237.1096032241088
 31
0.0
  0
LINE
  5
11B7
330
2
100
AcDbEntity
  8
0
100
AcDbLine
 10
117.2177400106122
 20
241.728405377627
 30
0.0
 11
119.2177400106127
 21
240.573704839247
 31
0.0
  0
LINE
  5
11B8
330
2
100
AcDbEntity
  8
0
100
AcDbLine
 10
117.2177400106122
 20
241.728405377627
 30
0.0
 11
115.2177400106127
 21
240.573704839247
 31
0.0
  0
LINE
  5
11B9
330
2
100
AcDbEntity
  8
0
100
AcDbLine
 10
115.2177400106127
 20
286.5737048392488
 30
0.0
 11
115.2177400106127
 21
284.2643037624888
 31
0.0
  0
LINE
  5
11BA
330
2
100
AcDbEntity
  8
0
100
AcDbLine
 10
119.2177400106127
 20
286.5737048392488
 30
0.0
 11
119.2177400106127
 21
284.2643037624888
 31
0.0
  0
CIRCLE
  5
11BB
330
2
100
AcDbEntity
  8
0
100
AcDbCircle
 10
117.2177400106127
 20
285.4190043008688
 30
0.0
 40
3.730384757729268
  0
CIRCLE
  5
11BC
330
2
100
AcDbEntity
  8
0
100
AcDbCircle
 10
117.2177400106127
 20
285.4190043008688
 30
0.0
 40
4.250000000000085
  0
LINE
  5
11BD
330
2
100
AcDbEntity
  8
0
100
AcDbLine
 10
119.2177400106127
 20
284.2643037624888
 30
0.0
 11
117.2177400106127
 21
283.1096032241106
 31
0.0
  0
LINE
  5
11BE
330
2
100
AcDbEntity
  8
0
100
AcDbLine
 10
115.2177400106127
 20
284.2643037624888
 30
0.0
 11
117.2177400106122
 21
283.1096032241106
 31
0.0
  0
LINE
  5
11BF
330
2
100
AcDbEntity
  8
0
100
AcDbLine
 10
117.2177400106122
 20
287.728405377627
 30
0.0
 11
119.2177400106127
 21
286.5737048392488
 31
0.0
  0
LINE
  5
11C0
330
2
100
AcDbEntity
  8
0
100
AcDbLine
 10
117.2177400106122
 20
287.728405377627
 30
0.0
 11
115.2177400106127
 21
286.5737048392488
 31
0.0
  0
LINE
  5
11C1
330
2
100
AcDbEntity
  8
0
100
AcDbLine
 10
205.2177400106131
 20
294.5737048392469
 30
0.0
 11
205.2177400106131
 21
292.2643037624888
 31
0.0
  0
LINE
  5
11C2
330
2
100
AcDbEntity
  8
0
100
AcDbLine
 10
209.2177400106131
 20
294.5737048392469
 30
0.0
 11
209.2177400106131
 21
292.2643037624888
 31
0.0
  0
CIRCLE
  5
11C3
330
2
100
AcDbEntity
  8
0
100
AcDbCircle
 10
207.2177400106131
 20
293.4190043008688
 30
0.0
 40
3.730384757729268
  0
CIRCLE
  5
11C4
330
2
100
AcDbEntity
  8
0
100
AcDbCircle
 10
207.2177400106131
 20
293.4190043008688
 30
0.0
 40
4.250000000000085
  0
LINE
  5
11C5
330
2
100
AcDbEntity
  8
0
100
AcDbLine
 10
209.2177400106131
 20
292.2643037624888
 30
0.0
 11
207.2177400106131
 21
291.1096032241106
 31
0.0
  0
LINE
  5
11C6
330
2
100
AcDbEntity
  8
0
100
AcDbLine
 10
205.2177400106131
 20
292.2643037624888
 30
0.0
 11
207.2177400106131
 21
291.1096032241106
 31
0.0
  0
LINE
  5
11C7
330
2
100
AcDbEntity
  8
0
100
AcDbLine
 10
207.2177400106131
 20
295.7284053776269
 30
0.0
 11
209.2177400106131
 21
294.5737048392469
 31
0.0
  0
LINE
  5
11C8
330
2
100
AcDbEntity
  8
0
100
AcDbLine
 10
207.2177400106131
 20
295.7284053776269
 30
0.0
 11
205.2177400106131
 21
294.5737048392469
 31
0.0
  0
LINE
  5
11C9
330
2
100
AcDbEntity
  8
0
100
AcDbLine
 10
205.2177400106136
 20
232.573704839247
 30
0.0
 11
205.2177400106136
 21
230.2643037624888
 31
0.0
  0
LINE
  5
11CA
330
2
100
AcDbEntity
  8
0
100
AcDbLine
 10
209.2177400106136
 20
232.573704839247
 30
0.0
 11
209.2177400106136
 21
230.2643037624888
 31
0.0
  0
CIRCLE
  5
11CB
330
2
100
AcDbEntity
  8
0
100
AcDbCircle
 10
207.2177400106136
 20
231.4190043008688
 30
0.0
 40
3.730384757729268
  0
CIRCLE
  5
11CC
330
2
100
AcDbEntity
  8
0
100
AcDbCircle
 10
207.2177400106136
 20
231.4190043008688
 30
0.0
 40
4.250000000000085
  0
LINE
  5
11CD
330
2
100
AcDbEntity
  8
0
100
AcDbLine
 10
209.2177400106136
 20
230.2643037624888
 30
0.0
 11
207.2177400106136
 21
229.1096032241106
 31
0.0
  0
LINE
  5
11CE
330
2
100
AcDbEntity
  8
0
100
AcDbLine
 10
205.2177400106136
 20
230.2643037624888
 30
0.0
 11
207.2177400106136
 21
229.1096032241106
 31
0.0
  0
LINE
  5
11CF
330
2
100
AcDbEntity
  8
0
100
AcDbLine
 10
207.2177400106136
 20
233.728405377627
 30
0.0
 11
209.2177400106136
 21
232.573704839247
 31
0.0
  0
LINE
  5
11D0
330
2
100
AcDbEntity
  8
0
100
AcDbLine
 10
207.2177400106136
 20
233.728405377627
 30
0.0
 11
205.2177400106136
 21
232.573704839247
 31
0.0
  0
LINE
  5
11D1
330
2
100
AcDbEntity
  8
CENTER
  6
CENS
100
AcDbLine
 10
266.2388350437106
 20
293.4190043008688
 30
0.0
 11
286.973247333736
 21
293.4190043008688
 31
0.0
  0
LINE
  5
11D2
330
2
100
AcDbEntity
  8
0
100
AcDbLine
 10
275.1029907299814
 20
289.1690043008688
 30
0.0
 11
275.1029907299814
 21
297.6690043008688
 31
0.0
  0
LINE
  5
11D3
330
2
100
AcDbEntity
  8
0
100
AcDbLine
 10
270.4029907299816
 20
289.1690043008688
 30
0.0
 11
270.4029907299816
 21
297.6690043008688
 31
0.0
  0
LINE
  5
11D4
330
2
100
AcDbEntity
  8
0
100
AcDbLine
 10
270.1029907299814
 20
289.6886195431392
 30
0.0
 11
270.1029907299814
 21
297.1493890585983
 31
0.0
  0
LINE
  5
11D5
330
2
100
AcDbEntity
  8
0
100
AcDbLine
 10
270.4029907299816
 20
289.1690043008688
 30
0.0
 11
270.1029907299814
 21
289.6886195431392
 31
0.0
  0
LINE
  5
11D6
330
2
100
AcDbEntity
  8
0
100
AcDbLine
 10
270.4029907299816
 20
289.1690043008688
 30
0.0
 11
276.4029907299816
 21
289.1690043008688
 31
0.0
  0
LINE
  5
11D7
330
2
100
AcDbEntity
  8
0
100
AcDbLine
 10
270.4029907299816
 20
297.6690043008688
 30
0.0
 11
276.4029907299816
 21
297.6690043008688
 31
0.0
  0
LINE
  5
11D8
330
2
100
AcDbEntity
  8
0
100
AcDbLine
 10
270.4029907299816
 20
297.6690043008688
 30
0.0
 11
270.1029907299814
 21
297.1493890585983
 31
0.0
  0
LINE
  5
11D9
330
2
100
AcDbEntity
  8
0
100
AcDbLine
 10
276.4029907299816
 20
297.6690043008688
 30
0.0
 11
276.4029907299816
 21
289.1690043008688
 31
0.0
  0
LINE
  5
11DA
330
2
100
AcDbEntity
  8
HIDS
  6
SEKKEI_H
100
AcDbLine
 10
273.4029907300343
 20
297.3447878462497
 30
0.0
 11
273.4029907300343
 21
289.1690043008688
 31
0.0
  0
LINE
  5
11DB
330
2
100
AcDbEntity
  8
0
100
AcDbLine
 10
275.1029907299814
 20
235.6690043008433
 30
0.0
 11
275.1029907299814
 21
227.1690043008433
 31
0.0
  0
LINE
  5
11DC
330
2
100
AcDbEntity
  8
0
100
AcDbLine
 10
270.4029907299816
 20
235.6690043008433
 30
0.0
 11
270.4029907299816
 21
227.1690043008433
 31
0.0
  0
LINE
  5
11DD
330
2
100
AcDbEntity
  8
0
100
AcDbLine
 10
270.1029907299814
 20
235.1493890585729
 30
0.0
 11
270.1029907299814
 21
227.6886195431138
 31
0.0
  0
LINE
  5
11DE
330
2
100
AcDbEntity
  8
0
100
AcDbLine
 10
270.4029907299816
 20
235.6690043008433
 30
0.0
 11
270.1029907299814
 21
235.1493890585729
 31
0.0
  0
LINE
  5
11DF
330
2
100
AcDbEntity
  8
0
100
AcDbLine
 10
270.4029907299816
 20
235.6690043008433
 30
0.0
 11
276.4029907299816
 21
235.6690043008433
 31
0.0
  0
LINE
  5
11E0
330
2
100
AcDbEntity
  8
0
100
AcDbLine
 10
270.4029907299816
 20
227.1690043008433
 30
0.0
 11
276.4029907299816
 21
227.1690043008433
 31
0.0
  0
LINE
  5
11E1
330
2
100
AcDbEntity
  8
0
100
AcDbLine
 10
270.4029907299816
 20
227.1690043008433
 30
0.0
 11
270.1029907299814
 21
227.6886195431138
 31
0.0
  0
LINE
  5
11E2
330
2
100
AcDbEntity
  8
CENTER
  6
CENS
100
AcDbLine
 10
266.2388350437106
 20
231.4190043008433
 30
0.0
 11
286.973247333736
 21
231.4190043008433
 31
0.0
  0
LINE
  5
11E3
330
2
100
AcDbEntity
  8
CENTER
  6
CENS
100
AcDbLine
 10
424.6503885559343
 20
495.0368435613849
 30
0.0
 11
424.6503885559343
 21
474.3024312713582
 31
0.0
  0
LINE
  5
11E4
330
2
100
AcDbEntity
  8
0
100
AcDbLine
 10
420.4003885559343
 20
486.1726878751137
 30
0.0
 11
428.9003885559343
 21
486.1726878751137
 31
0.0
  0
LINE
  5
11E5
330
2
100
AcDbEntity
  8
0
100
AcDbLine
 10
420.4003885559343
 20
490.8726878751126
 30
0.0
 11
428.9003885559343
 21
490.8726878751126
 31
0.0
  0
LINE
  5
11E6
330
2
100
AcDbEntity
  8
0
100
AcDbLine
 10
420.9200037982047
 20
491.1726878751137
 30
0.0
 11
428.3807733136634
 21
491.1726878751137
 31
0.0
  0
LINE
  5
11E7
330
2
100
AcDbEntity
  8
0
100
AcDbLine
 10
420.4003885559343
 20
490.8726878751126
 30
0.0
 11
420.9200037982047
 21
491.1726878751137
 31
0.0
  0
LINE
  5
11E8
330
2
100
AcDbEntity
  8
0
100
AcDbLine
 10
420.4003885559343
 20
490.8726878751126
 30
0.0
 11
420.4003885559343
 21
484.8726878751127
 31
0.0
  0
LINE
  5
11E9
330
2
100
AcDbEntity
  8
0
100
AcDbLine
 10
428.9003885559343
 20
490.8726878751126
 30
0.0
 11
428.9003885559343
 21
484.8726878751127
 31
0.0
  0
LINE
  5
11EA
330
2
100
AcDbEntity
  8
0
100
AcDbLine
 10
428.9003885559343
 20
490.8726878751126
 30
0.0
 11
428.3807733136634
 21
491.1726878751137
 31
0.0
  0
LINE
  5
11EB
330
2
100
AcDbEntity
  8
CENTER
  6
CENS
100
AcDbLine
 10
514.6503885559347
 20
495.0368435613849
 30
0.0
 11
514.6503885559347
 21
474.3024312713582
 31
0.0
  0
LINE
  5
11EC
330
2
100
AcDbEntity
  8
0
100
AcDbLine
 10
510.4003885559348
 20
486.1726878751137
 30
0.0
 11
518.9003885559348
 21
486.1726878751137
 31
0.0
  0
LINE
  5
11ED
330
2
100
AcDbEntity
  8
0
100
AcDbLine
 10
510.4003885559348
 20
490.8726878751126
 30
0.0
 11
518.9003885559348
 21
490.8726878751126
 31
0.0
  0
LINE
  5
11EE
330
2
100
AcDbEntity
  8
0
100
AcDbLine
 10
510.9200037982052
 20
491.1726878751137
 30
0.0
 11
518.3807733136639
 21
491.1726878751137
 31
0.0
  0
LINE
  5
11EF
330
2
100
AcDbEntity
  8
0
100
AcDbLine
 10
510.4003885559348
 20
490.8726878751126
 30
0.0
 11
510.9200037982052
 21
491.1726878751137
 31
0.0
  0
LINE
  5
11F0
330
2
100
AcDbEntity
  8
0
100
AcDbLine
 10
510.4003885559348
 20
490.8726878751126
 30
0.0
 11
510.4003885559348
 21
484.8726878751127
 31
0.0
  0
LINE
  5
11F1
330
2
100
AcDbEntity
  8
0
100
AcDbLine
 10
518.9003885559348
 20
490.8726878751126
 30
0.0
 11
518.9003885559348
 21
484.8726878751127
 31
0.0
  0
LINE
  5
11F2
330
2
100
AcDbEntity
  8
0
100
AcDbLine
 10
518.9003885559348
 20
490.8726878751126
 30
0.0
 11
518.3807733136639
 21
491.1726878751137
 31
0.0
  0
LINE
  5
11F3
330
2
100
AcDbEntity
  8
CENTER
  6
CENS
100
AcDbLine
 10
755.924656800639
 20
285.4190043008688
 30
0.0
 11
736.1332887330188
 21
285.4190043008688
 31
0.0
  0
LINE
  5
11F4
330
2
100
AcDbEntity
  8
0
100
AcDbLine
 10
748.0035453367734
 20
289.6690043008688
 30
0.0
 11
748.0035453367734
 21
281.1690043008688
 31
0.0
  0
LINE
  5
11F5
330
2
100
AcDbEntity
  8
0
100
AcDbLine
 10
752.7035453367732
 20
289.6690043008688
 30
0.0
 11
752.7035453367732
 21
281.1690043008688
 31
0.0
  0
LINE
  5
11F6
330
2
100
AcDbEntity
  8
0
100
AcDbLine
 10
753.0035453367734
 20
289.1493890585983
 30
0.0
 11
753.0035453367734
 21
281.6886195431393
 31
0.0
  0
LINE
  5
11F7
330
2
100
AcDbEntity
  8
0
100
AcDbLine
 10
752.7035453367732
 20
289.6690043008688
 30
0.0
 11
753.0035453367734
 21
289.1493890585983
 31
0.0
  0
LINE
  5
11F8
330
2
100
AcDbEntity
  8
0
100
AcDbLine
 10
752.7035453367732
 20
289.6690043008688
 30
0.0
 11
746.7035453367732
 21
289.6690043008688
 31
0.0
  0
LINE
  5
11F9
330
2
100
AcDbEntity
  8
0
100
AcDbLine
 10
752.7035453367732
 20
281.1690043008688
 30
0.0
 11
746.7035453367732
 21
281.1690043008688
 31
0.0
  0
LINE
  5
11FA
330
2
100
AcDbEntity
  8
0
100
AcDbLine
 10
752.7035453367732
 20
281.1690043008688
 30
0.0
 11
753.0035453367734
 21
281.6886195431393
 31
0.0
  0
LINE
  5
11FB
330
2
100
AcDbEntity
  8
CENTER
  6
CENS
100
AcDbLine
 10
755.924656800639
 20
239.4190043008688
 30
0.0
 11
736.1332887330188
 21
239.4190043008688
 31
0.0
  0
LINE
  5
11FC
330
2
100
AcDbEntity
  8
0
100
AcDbLine
 10
748.0035453367734
 20
235.1690043008688
 30
0.0
 11
748.0035453367734
 21
243.6690043008688
 31
0.0
  0
LINE
  5
11FD
330
2
100
AcDbEntity
  8
0
100
AcDbLine
 10
752.7035453367732
 20
235.1690043008688
 30
0.0
 11
752.7035453367732
 21
243.6690043008688
 31
0.0
  0
LINE
  5
11FE
330
2
100
AcDbEntity
  8
0
100
AcDbLine
 10
753.0035453367734
 20
235.6886195431392
 30
0.0
 11
753.0035453367734
 21
243.1493890585965
 31
0.0
  0
LINE
  5
11FF
330
2
100
AcDbEntity
  8
0
100
AcDbLine
 10
752.7035453367732
 20
235.1690043008688
 30
0.0
 11
753.0035453367734
 21
235.6886195431392
 31
0.0
  0
LINE
  5
1200
330
2
100
AcDbEntity
  8
0
100
AcDbLine
 10
752.7035453367732
 20
235.1690043008688
 30
0.0
 11
746.7035453367732
 21
235.1690043008688
 31
0.0
  0
LINE
  5
1201
330
2
100
AcDbEntity
  8
0
100
AcDbLine
 10
752.7035453367732
 20
243.6690043008688
 30
0.0
 11
746.7035453367732
 21
243.6690043008688
 31
0.0
  0
LINE
  5
1202
330
2
100
AcDbEntity
  8
0
100
AcDbLine
 10
752.7035453367732
 20
243.6690043008688
 30
0.0
 11
753.0035453367734
 21
243.1493890585965
 31
0.0
  0
LINE
  5
1203
330
2
100
AcDbEntity
  8
0
100
AcDbLine
 10
363.902990730028
 20
274.418958300855
 30
0.0
 11
353.902990730028
 21
274.418958300855
 31
0.0
  0
LINE
  5
1204
330
2
100
AcDbEntity
  8
0
100
AcDbLine
 10
363.902990730028
 20
250.4190503008552
 30
0.0
 11
353.9029907300275
 21
250.4190503008552
 31
0.0
  0
LINE
  5
1205
330
2
100
AcDbEntity
  8
0
100
AcDbLine
 10
363.902990730028
 20
250.4190043008561
 30
0.0
 11
363.902990730028
 21
274.4190043008561
 31
0.0
  0
LINE
  5
1206
330
2
100
AcDbEntity
  8
0
100
AcDbLine
 10
458.1503885559361
 20
272.21899930087
 30
0.0
 11
458.1503885559361
 21
269.4900721127355
 31
0.0
  0
ARC
  5
1207
330
2
100
AcDbEntity
  8
0
100
AcDbCircle
 10
455.6503885559362
 20
262.4190043008688
 30
0.0
 40
7.5
100
AcDbArc
 50
109.4712206344939
 51
70.52877936550601
  0
LINE
  5
1208
330
2
100
AcDbEntity
  8
0
100
AcDbLine
 10
453.1503885559361
 20
272.21899930087
 30
0.0
 11
458.1503885559361
 21
272.21899930087
 31
0.0
  0
LINE
  5
1209
330
2
100
AcDbEntity
  8
0
100
AcDbLine
 10
453.1503885559361
 20
269.4900721127355
 30
0.0
 11
453.1503885559361
 21
272.21899930087
 31
0.0
  0
CIRCLE
  5
120A
330
2
100
AcDbEntity
  8
0
100
AcDbCircle
 10
455.6503885559362
 20
262.4190043008688
 30
0.0
 40
12.0
  0
ARC
  5
120B
330
2
100
AcDbEntity
  8
0
100
AcDbCircle
 10
455.6503885559362
 20
262.4190043008688
 30
0.0
 40
8.654499867667865
100
AcDbArc
 50
106.7901411806983
 51
73.20985881930162
  0
LINE
  5
120C
330
2
100
AcDbEntity
  8
0
100
AcDbLine
 10
178.7177400106168
 20
272.21899930087
 30
0.0
 11
178.7177400106168
 21
269.4900721127355
 31
0.0
  0
ARC
  5
120D
330
2
100
AcDbEntity
  8
0
100
AcDbCircle
 10
176.2177400106168
 20
262.4190043008688
 30
0.0
 40
7.5
100
AcDbArc
 50
109.4712206344939
 51
70.52877936550601
  0
LINE
  5
120E
330
2
100
AcDbEntity
  8
0
100
AcDbLine
 10
173.7177400106168
 20
272.21899930087
 30
0.0
 11
178.7177400106168
 21
272.21899930087
 31
0.0
  0
LINE
  5
120F
330
2
100
AcDbEntity
  8
0
100
AcDbLine
 10
173.7177400106168
 20
269.4900721127355
 30
0.0
 11
173.7177400106168
 21
272.21899930087
 31
0.0
  0
CIRCLE
  5
1210
330
2
100
AcDbEntity
  8
0
100
AcDbCircle
 10
176.2177400106168
 20
262.4190043008688
 30
0.0
 40
12.0
  0
ARC
  5
1211
330
2
100
AcDbEntity
  8
0
100
AcDbCircle
 10
176.2177400106168
 20
262.4190043008688
 30
0.0
 40
8.654499867667865
100
AcDbArc
 50
106.7901411806983
 51
73.20985881930162
  0
LINE
  5
1212
330
2
100
AcDbEntity
  8
0
100
AcDbLine
 10
467.6503425559342
 20
397.3726878750671
 30
0.0
 11
467.6503425559342
 21
407.3726878750671
 31
0.0
  0
LINE
  5
1213
330
2
100
AcDbEntity
  8
0
100
AcDbLine
 10
443.650434555934
 20
397.3726878750671
 30
0.0
 11
443.650434555934
 21
407.3726878750671
 31
0.0
  0
LINE
  5
1214
330
2
100
AcDbEntity
  8
0
100
AcDbLine
 10
443.6503885559338
 20
397.3726878750671
 30
0.0
 11
467.6503885559339
 21
397.3726878750671
 31
0.0
  0
LINE
  5
1215
330
2
100
AcDbEntity
  8
0
100
AcDbLine
 10
467.6503425559342
 20
499.3725808750673
 30
0.0
 11
443.650434555934
 21
499.3725808750673
 31
0.0
  0
LINE
  5
1216
330
2
100
AcDbEntity
  8
0
100
AcDbLine
 10
443.650434555934
 20
497.3726878750126
 30
0.0
 11
443.650434555934
 21
499.3725808750673
 31
0.0
  0
LINE
  5
1217
330
2
100
AcDbEntity
  8
0
100
AcDbLine
 10
467.6503425559342
 20
497.3726878750126
 30
0.0
 11
467.6503425559342
 21
499.3725808750673
 31
0.0
  0
LINE
  5
1218
330
2
100
AcDbEntity
  8
0
100
AcDbLine
 10
659.2035453367246
 20
250.4190503008552
 30
0.0
 11
669.2035453367245
 21
250.4190503008552
 31
0.0
  0
LINE
  5
1219
330
2
100
AcDbEntity
  8
0
100
AcDbLine
 10
659.2035453367246
 20
274.418958300855
 30
0.0
 11
669.2035453367245
 21
274.418958300855
 31
0.0
  0
LINE
  5
121A
330
2
100
AcDbEntity
  8
0
100
AcDbLine
 10
659.2035453367246
 20
274.4190043008561
 30
0.0
 11
659.2035453367246
 21
250.4190043008561
 31
0.0
  0
LINE
  5
121B
330
2
100
AcDbEntity
  8
0
100
AcDbLine
 10
761.2034383367247
 20
250.4190503008552
 30
0.0
 11
761.2034383367247
 21
274.418958300855
 31
0.0
  0
LINE
  5
121C
330
2
100
AcDbEntity
  8
0
100
AcDbLine
 10
759.2035453366718
 20
274.418958300855
 30
0.0
 11
761.2034383367247
 21
274.418958300855
 31
0.0
  0
LINE
  5
121D
330
2
100
AcDbEntity
  8
0
100
AcDbLine
 10
759.2035453366718
 20
250.4190503008552
 30
0.0
 11
761.2034383367247
 21
250.4190503008552
 31
0.0
  0
LINE
  5
121E
330
2
100
AcDbEntity
  8
0
100
AcDbLine
 10
308.7735425786043
 20
58.28539866286473
 30
0.0
 11
308.7735425786065
 21
82.87074286540292
 31
0.0
  0
LINE
  5
121F
330
2
100
AcDbEntity
  8
0
100
AcDbLine
 10
308.7735425786084
 20
105.7000544603283
 30
0.0
 11
308.7735425786106
 21
130.2853986628647
 31
0.0
  0
LINE
  5
1220
330
2
100
AcDbEntity
  8
CENTER
100
AcDbLine
 10
331.7735425786047
 20
51.48611662205212
 30
0.0
 11
331.7735425786047
 21
137.0846807036773
 31
0.0
  0
LINE
  5
1221
330
2
100
AcDbEntity
  8
0
100
AcDbLine
 10
361.7735425786047
 20
58.7479226557748
 30
0.0
 11
361.7735425786051
 21
83.08561670667904
 31
0.0
  0
LINE
  5
1222
330
2
100
AcDbEntity
  8
0
100
AcDbLine
 10
361.7735425786061
 20
105.4851806190522
 30
0.0
 11
361.773542578607
 21
129.8228746699546
 31
0.0
  0
LINE
  5
1223
330
2
100
AcDbEntity
  8
CENTER
100
AcDbLine
 10
396.7735425786051
 20
94.28539866286474
 30
0.0
 11
280.773649578605
 21
94.28539866286474
 31
0.0
  0
LINE
  5
1224
330
2
100
AcDbEntity
  8
0
100
AcDbLine
 10
366.7735425786047
 20
64.28539912383303
 30
0.0
 11
366.7735425786047
 21
83.35645772699308
 31
0.0
  0
LINE
  5
1225
330
2
100
AcDbEntity
  8
0
100
AcDbLine
 10
366.7735425786047
 20
105.2143395987382
 30
0.0
 11
366.7735425786047
 21
124.285399123833
 31
0.0
  0
LINE
  5
1226
330
2
100
AcDbEntity
  8
0
100
AcDbLine
 10
361.7735425786047
 20
64.28539912383303
 30
0.0
 11
366.7735425786047
 21
64.28539912383303
 31
0.0
  0
LINE
  5
1227
330
2
100
AcDbEntity
  8
0
100
AcDbLine
 10
361.7735425786047
 20
124.285399123833
 30
0.0
 11
366.7735425786047
 21
124.285399123833
 31
0.0
  0
LINE
  5
1228
330
2
100
AcDbEntity
  8
0
100
AcDbLine
 10
308.7735425786043
 20
58.28539866286473
 30
0.0
 11
361.7735425786047
 21
58.7479226557748
 31
0.0
  0
LINE
  5
1229
330
2
100
AcDbEntity
  8
0
100
AcDbLine
 10
308.7735425786106
 20
130.2853986628647
 30
0.0
 11
361.773542578607
 21
129.8228746699546
 31
0.0
  0
LINE
  5
122A
330
2
100
AcDbEntity
  8
0
100
AcDbLine
 10
379.7735425786047
 20
72.21677667344692
 30
0.0
 11
379.7735425786047
 21
82.28544466286576
 31
0.0
  0
LINE
  5
122B
330
2
100
AcDbEntity
  8
0
100
AcDbLine
 10
379.7735425786052
 20
106.2853526628655
 30
0.0
 11
379.7735425786052
 21
116.3540215742191
 31
0.0
  0
LINE
  5
122C
330
2
100
AcDbEntity
  8
0
100
AcDbLine
 10
368.7037435852
 20
69.89883322486412
 30
0.0
 11
377.8433415720103
 21
70.21799501940904
 31
0.0
  0
ARC
  5
122D
330
2
100
AcDbEntity
  8
0
100
AcDbCircle
 10
368.7735425786047
 20
67.90005157082624
 30
0.0
 40
2.0
100
AcDbArc
 50
92.00000000000365
 51
180.0
  0
ARC
  5
122E
330
2
100
AcDbEntity
  8
0
100
AcDbCircle
 10
377.7735425786047
 20
72.21677667344692
 30
0.0
 40
2.0
100
AcDbArc
 50
272.0000000000036
 51
0.0
  0
LINE
  5
122F
330
2
100
AcDbEntity
  8
0
100
AcDbLine
 10
368.7037435852
 20
118.6719650228037
 30
0.0
 11
377.8433415720103
 21
118.3528032282588
 31
0.0
  0
ARC
  5
1230
330
2
100
AcDbEntity
  8
0
100
AcDbCircle
 10
368.7735425786047
 20
120.6707466768416
 30
0.0
 40
2.0
100
AcDbArc
 50
180.0
 51
267.9999999999963
  0
ARC
  5
1231
330
2
100
AcDbEntity
  8
0
100
AcDbCircle
 10
377.7735425786047
 20
116.3540215742191
 30
0.0
 40
2.0
100
AcDbArc
 50
0.0
 51
87.99999999999636
  0
LINE
  5
1232
330
2
100
AcDbEntity
  8
0
100
AcDbLine
 10
308.7735425786102
 20
125.2853986628792
 30
0.0
 11
360.7735425786065
 21
125.2853986628792
 31
0.0
  0
LINE
  5
1233
330
2
100
AcDbEntity
  8
0
100
AcDbLine
 10
308.7735425786097
 20
122.2853986628774
 30
0.0
 11
360.7735425786065
 21
122.2853986628774
 31
0.0
  0
LINE
  5
1234
330
2
100
AcDbEntity
  8
0
100
AcDbLine
 10
308.7735425786088
 20
110.8129941828606
 30
0.0
 11
360.773542578606
 21
110.8129941828606
 31
0.0
  0
LINE
  5
1235
330
2
100
AcDbEntity
  8
0
100
AcDbLine
 10
308.7735425786102
 20
63.28539866285201
 30
0.0
 11
360.7735425786047
 21
63.28539866285201
 31
0.0
  0
LINE
  5
1236
330
2
100
AcDbEntity
  8
0
100
AcDbLine
 10
308.7735425786097
 20
66.28539866285382
 30
0.0
 11
360.7735425786047
 21
66.28539866285382
 31
0.0
  0
LINE
  5
1237
330
2
100
AcDbEntity
  8
0
100
AcDbLine
 10
308.7735425786088
 20
77.75780314287067
 30
0.0
 11
360.7735425786052
 21
77.75780314287067
 31
0.0
  0
LINE
  5
1238
330
2
100
AcDbEntity
  8
0
100
AcDbLine
 10
299.2735425786079
 20
74.35103486303296
 30
0.0
 11
299.2735425786079
 21
82.28544466286576
 31
0.0
  0
LINE
  5
1239
330
2
100
AcDbEntity
  8
0
100
AcDbLine
 10
299.2735425786079
 20
106.2853526628655
 30
0.0
 11
299.2735425786079
 21
114.2197624626965
 31
0.0
  0
LINE
  5
123A
330
2
100
AcDbEntity
  8
0
100
AcDbLine
 10
299.2735425786074
 20
113.2853986628665
 30
0.0
 11
290.7735425786097
 21
113.2853986628647
 31
0.0
  0
LINE
  5
123B
330
2
100
AcDbEntity
  8
0
100
AcDbLine
 10
290.7735425786097
 20
113.2853986628647
 30
0.0
 11
289.7735425786097
 21
113.8627489320529
 31
0.0
  0
LINE
  5
123C
330
2
100
AcDbEntity
  8
0
100
AcDbLine
 10
299.2735425786079
 20
75.28539866286656
 30
0.0
 11
290.7735425786092
 21
75.28539866286656
 31
0.0
  0
LINE
  5
123D
330
2
100
AcDbEntity
  8
0
100
AcDbLine
 10
308.7735425786074
 20
130.2853986628647
 30
0.0
 11
300.2648160431133
 21
130.2111441313222
 31
0.0
  0
LINE
  5
123E
330
2
100
AcDbEntity
  8
0
100
AcDbLine
 10
298.2735425786597
 20
120.8711851004932
 30
0.0
 11
298.2735425786597
 21
114.5842669752305
 31
0.0
  0
LINE
  5
123F
330
2
100
AcDbEntity
  8
0
100
AcDbLine
 10
298.2735425786597
 20
73.98653035050074
 30
0.0
 11
298.2735425786597
 21
67.69961222523807
 31
0.0
  0
LINE
  5
1240
330
2
100
AcDbEntity
  8
HIDS
  6
SEKKEI_H
100
AcDbLine
 10
298.5664357974735
 20
121.5782918816799
 30
0.0
 11
298.9806493598464
 21
121.9925054440514
 31
0.0
  0
LINE
  5
1241
330
2
100
AcDbEntity
  8
0
100
AcDbLine
 10
297.7735425786597
 20
119.2853986628665
 30
0.0
 11
298.2735425786597
 21
119.7853986628665
 31
0.0
  0
LINE
  5
1242
330
2
100
AcDbEntity
  8
0
100
AcDbLine
 10
290.7735425786097
 20
113.2853986628647
 30
0.0
 11
290.7735425786097
 21
106.2853526628655
 31
0.0
  0
LINE
  5
1243
330
2
100
AcDbEntity
  8
0
100
AcDbLine
 10
290.7735425786092
 20
82.28544466286576
 30
0.0
 11
290.7735425786092
 21
75.28539866286656
 31
0.0
  0
LINE
  5
1244
330
2
100
AcDbEntity
  8
0
100
AcDbLine
 10
292.0735425786604
 20
117.2853986628665
 30
0.0
 11
290.7735425786602
 21
117.2853986628665
 31
0.0
  0
LINE
  5
1245
330
2
100
AcDbEntity
  8
0
100
AcDbLine
 10
290.7735425786092
 20
75.28539866286656
 30
0.0
 11
289.7735425786093
 21
74.70804839367656
 31
0.0
  0
LINE
  5
1246
330
2
100
AcDbEntity
  8
0
100
AcDbLine
 10
289.7735425786602
 20
82.28544466286576
 30
0.0
 11
289.7735425786602
 21
71.86274893205473
 31
0.0
  0
LINE
  5
1247
330
2
100
AcDbEntity
  8
0
100
AcDbLine
 10
297.7735425786597
 20
117.2853986628665
 30
0.0
 11
294.4735425786605
 21
117.2853986628665
 31
0.0
  0
LINE
  5
1248
330
2
100
AcDbEntity
  8
0
100
AcDbLine
 10
289.7735425786602
 20
116.7080483936765
 30
0.0
 11
290.7735425786602
 21
117.2853986628665
 31
0.0
  0
LINE
  5
1249
330
2
100
AcDbEntity
  8
0
100
AcDbLine
 10
289.7735425786602
 20
116.7080483936765
 30
0.0
 11
289.7735425786602
 21
106.2853526628655
 31
0.0
  0
LINE
  5
124A
330
2
100
AcDbEntity
  8
0
100
AcDbLine
 10
292.0735425786599
 20
71.28539866286473
 30
0.0
 11
290.7735425786602
 21
71.28539866286473
 31
0.0
  0
LINE
  5
124B
330
2
100
AcDbEntity
  8
0
100
AcDbLine
 10
297.7735425786597
 20
69.28539866286474
 30
0.0
 11
298.2735425786597
 21
68.78539866286473
 31
0.0
  0
LINE
  5
124C
330
2
100
AcDbEntity
  8
0
100
AcDbLine
 10
297.7735425786597
 20
71.28539866286473
 30
0.0
 11
294.47354257866
 21
71.28539866286473
 31
0.0
  0
LINE
  5
124D
330
2
100
AcDbEntity
  8
0
100
AcDbLine
 10
297.7735425786597
 20
119.2853986628665
 30
0.0
 11
297.7735425786597
 21
114.6725717978947
 31
0.0
  0
LINE
  5
124E
330
2
100
AcDbEntity
  8
0
100
AcDbLine
 10
297.7735425786597
 20
73.89822552783471
 30
0.0
 11
297.7735425786597
 21
69.28539866286474
 31
0.0
  0
LINE
  5
124F
330
2
100
AcDbEntity
  8
0
100
AcDbLine
 10
289.7735425786597
 20
71.86274893205473
 30
0.0
 11
290.7735425786602
 21
71.28539866286473
 31
0.0
  0
LINE
  5
1250
330
2
100
AcDbEntity
  8
0
100
AcDbLine
 10
299.2735425786115
 20
121.0353986628774
 30
0.0
 11
299.2735425786115
 21
114.2489390795922
 31
0.0
  0
LINE
  5
1251
330
2
100
AcDbEntity
  8
0
100
AcDbLine
 10
299.2735425786115
 20
74.32185824613725
 30
0.0
 11
299.2735425786115
 21
67.535398662852
 31
0.0
  0
LINE
  5
1252
330
2
100
AcDbEntity
  8
HIDS
  6
SEKKEI_H
100
AcDbLine
 10
299.2735425786115
 20
67.535398662852
 30
0.0
 11
299.2735425786115
 21
59.35961511747109
 31
0.0
  0
ARC
  5
1253
330
2
100
AcDbEntity
  8
0
100
AcDbCircle
 10
300.2735425786115
 20
129.2111822082583
 30
0.0
 40
1.0
100
AcDbArc
 50
90.49999999999155
 51
161.0818891053111
  0
ARC
  5
1254
330
2
100
AcDbEntity
  8
HIDS
  6
SEKKEI_H
100
AcDbCircle
 10
300.2735425786115
 20
129.2111822082583
 30
0.0
 40
1.0
100
AcDbArc
 50
161.0818891053111
 51
180.0
  0
LINE
  5
1255
330
2
100
AcDbEntity
  8
HIDS
  6
SEKKEI_H
100
AcDbLine
 10
298.5664357974735
 20
66.9925054440514
 30
0.0
 11
298.9806493597982
 21
66.57829188172718
 31
0.0
  0
ARC
  5
1256
330
2
100
AcDbEntity
  8
HIDS
  6
SEKKEI_H
100
AcDbCircle
 10
299.2735425786597
 20
120.8711851004932
 30
0.0
 40
1.0
100
AcDbArc
 50
134.9999999999859
 51
170.5484482344709
  0
ARC
  5
1257
330
2
100
AcDbEntity
  8
0
100
AcDbCircle
 10
299.2735425786597
 20
120.8711851004932
 30
0.0
 40
1.0
100
AcDbArc
 50
170.5484482344709
 51
180.0
  0
ARC
  5
1258
330
2
100
AcDbEntity
  8
HIDS
  6
SEKKEI_H
100
AcDbCircle
 10
298.2735425786597
 20
122.6996122252398
 30
0.0
 40
1.0
100
AcDbArc
 50
314.9999999999859
 51
0.0
  0
ARC
  5
1259
330
2
100
AcDbEntity
  8
0
100
AcDbCircle
 10
299.2735425786597
 20
67.69961222523807
 30
0.0
 40
1.0
100
AcDbArc
 50
180.0
 51
189.4515517656346
  0
ARC
  5
125A
330
2
100
AcDbEntity
  8
HIDS
  6
SEKKEI_H
100
AcDbCircle
 10
299.2735425786597
 20
67.69961222523807
 30
0.0
 40
1.0
100
AcDbArc
 50
189.4515517656346
 51
225.0000000000141
  0
ARC
  5
125B
330
2
100
AcDbEntity
  8
HIDS
  6
SEKKEI_H
100
AcDbCircle
 10
298.2735425786115
 20
65.87118510054051
 30
0.0
 40
1.0
100
AcDbArc
 50
0.0
 51
45.00000000001409
  0
LINE
  5
125C
330
2
100
AcDbEntity
  8
0
100
AcDbLine
 10
292.2735425786606
 20
117.0853986628658
 30
0.0
 11
292.2735425786606
 21
114.5994237866339
 31
0.0
  0
LINE
  5
125D
330
2
100
AcDbEntity
  8
0
100
AcDbLine
 10
292.2735425786602
 20
73.97137353909738
 30
0.0
 11
292.2735425786602
 21
71.48539866286546
 31
0.0
  0
LINE
  5
125E
330
2
100
AcDbEntity
  8
0
100
AcDbLine
 10
294.0735425786599
 20
71.98539866286546
 30
0.0
 11
292.47354257866
 21
71.98539866286546
 31
0.0
  0
LINE
  5
125F
330
2
100
AcDbEntity
  8
0
100
AcDbLine
 10
294.2735425786602
 20
117.0853986628658
 30
0.0
 11
294.2735425786602
 21
114.5110178099507
 31
0.0
  0
LINE
  5
1260
330
2
100
AcDbEntity
  8
0
100
AcDbLine
 10
294.2735425786602
 20
74.0597795157787
 30
0.0
 11
294.2735425786602
 21
71.48539866286546
 31
0.0
  0
ARC
  5
1261
330
2
100
AcDbEntity
  8
0
100
AcDbCircle
 10
292.0735425786599
 20
71.48539866286546
 30
0.0
 40
0.2
100
AcDbArc
 50
270.0
 51
0.0
  0
ARC
  5
1262
330
2
100
AcDbEntity
  8
0
100
AcDbCircle
 10
292.47354257866
 20
71.78539866286474
 30
0.0
 40
0.2
100
AcDbArc
 50
90.0
 51
180.0
  0
ARC
  5
1263
330
2
100
AcDbEntity
  8
0
100
AcDbCircle
 10
294.0735425786599
 20
71.78539866286474
 30
0.0
 40
0.2
100
AcDbArc
 50
0.0
 51
90.0
  0
LINE
  5
1264
330
2
100
AcDbEntity
  8
0
100
AcDbLine
 10
294.2735425786602
 20
71.48539866286546
 30
0.0
 11
294.47354257866
 21
71.28539866286473
 31
0.0
  0
LINE
  5
1265
330
2
100
AcDbEntity
  8
0
100
AcDbLine
 10
294.2735425786602
 20
117.0853986628658
 30
0.0
 11
294.47354257866
 21
117.2853986628647
 31
0.0
  0
LINE
  5
1266
330
2
100
AcDbEntity
  8
0
100
AcDbLine
 10
294.0735425786599
 20
116.5853986628658
 30
0.0
 11
292.47354257866
 21
116.5853986628658
 31
0.0
  0
ARC
  5
1267
330
2
100
AcDbEntity
  8
0
100
AcDbCircle
 10
294.0735425786599
 20
116.7853986628647
 30
0.0
 40
0.2
100
AcDbArc
 50
270.0
 51
0.0
  0
ARC
  5
1268
330
2
100
AcDbEntity
  8
0
100
AcDbCircle
 10
292.47354257866
 20
116.7853986628647
 30
0.0
 40
0.2
100
AcDbArc
 50
180.0
 51
270.0
  0
ARC
  5
1269
330
2
100
AcDbEntity
  8
0
100
AcDbCircle
 10
292.0735425786604
 20
117.0853986628658
 30
0.0
 40
0.2
100
AcDbArc
 50
0.0
 51
90.0
  0
LINE
  5
126A
330
2
100
AcDbEntity
  8
0
100
AcDbLine
 10
294.47354257866
 20
71.28539866286473
 30
0.0
 11
294.47354257866
 21
74.04300561723312
 31
0.0
  0
LINE
  5
126B
330
2
100
AcDbEntity
  8
0
100
AcDbLine
 10
294.4735425786605
 20
114.5277917084981
 30
0.0
 11
294.4735425786605
 21
117.2853986628665
 31
0.0
  0
LINE
  5
126C
330
2
100
AcDbEntity
  8
0
100
AcDbLine
 10
290.7735425786602
 20
117.2853986628665
 30
0.0
 11
290.7735425786602
 21
115.0417330479535
 31
0.0
  0
LINE
  5
126D
330
2
100
AcDbEntity
  8
0
100
AcDbLine
 10
290.7735425786602
 20
73.52906427777771
 30
0.0
 11
290.7735425786602
 21
71.28539866286473
 31
0.0
  0
LINE
  5
126E
330
2
100
AcDbEntity
  8
0
100
AcDbLine
 10
308.7735425786074
 20
125.2853986628647
 30
0.0
 11
303.2648160430606
 21
125.2853986628647
 31
0.0
  0
LINE
  5
126F
330
2
100
AcDbEntity
  8
0
100
AcDbLine
 10
308.7735425786074
 20
122.2853986628647
 30
0.0
 11
303.2648160430606
 21
122.2853986628647
 31
0.0
  0
LINE
  5
1270
330
2
100
AcDbEntity
  8
0
100
AcDbLine
 10
308.7735425786074
 20
110.8129941828478
 30
0.0
 11
301.1226312738365
 21
110.8129941828478
 31
0.0
  0
LINE
  5
1271
330
2
100
AcDbEntity
  8
0
100
AcDbLine
 10
308.7735425786074
 20
63.28539866286473
 30
0.0
 11
303.2648160430606
 21
63.28539866286473
 31
0.0
  0
LINE
  5
1272
330
2
100
AcDbEntity
  8
0
100
AcDbLine
 10
308.7735425786074
 20
66.28539866286473
 30
0.0
 11
303.2648160430606
 21
66.28539866286473
 31
0.0
  0
LINE
  5
1273
330
2
100
AcDbEntity
  8
0
100
AcDbLine
 10
308.7735425786074
 20
77.75780314288159
 30
0.0
 11
301.1226312738365
 21
77.75780314288159
 31
0.0
  0
LINE
  5
1274
330
2
100
AcDbEntity
  8
0
100
AcDbLine
 10
301.7779058463081
 20
119.7810733066303
 30
0.0
 11
300.2648160431133
 21
119.7678687719631
 31
0.0
  0
LINE
  5
1275
330
2
100
AcDbEntity
  8
0
100
AcDbLine
 10
302.2735425785588
 20
120.2810542681595
 30
0.0
 11
302.2735425785588
 21
129.2373628116306
 31
0.0
  0
ARC
  5
1276
330
2
100
AcDbEntity
  8
0
100
AcDbCircle
 10
301.7735425785588
 20
120.2810542681595
 30
0.0
 40
0.5
100
AcDbArc
 50
270.4999999999915
 51
0.0
  0
ARC
  5
1277
330
2
100
AcDbEntity
  8
0
100
AcDbCircle
 10
303.2735425785588
 20
129.2373628116306
 30
0.0
 40
1.0
100
AcDbArc
 50
90.49999999999155
 51
180.0
  0
ARC
  5
1278
330
2
100
AcDbEntity
  8
0
100
AcDbCircle
 10
300.2735425786115
 20
118.7679068488991
 30
0.0
 40
1.0
100
AcDbArc
 50
90.49999999999155
 51
180.0
  0
LINE
  5
1279
330
2
100
AcDbEntity
  8
0
100
AcDbLine
 10
289.7735425786597
 20
71.86274893205473
 30
0.0
 11
289.7735425786597
 21
82.28544466286576
 31
0.0
  0
LINE
  5
127A
330
2
100
AcDbEntity
  8
0
100
AcDbLine
 10
289.7735425786597
 20
106.2853526628655
 30
0.0
 11
289.7735425786602
 21
116.7080483936765
 31
0.0
  0
LINE
  5
127B
330
2
100
AcDbEntity
  8
0
100
AcDbLine
 10
308.7735425786074
 20
58.28539866286473
 30
0.0
 11
300.2648160431133
 21
58.3596531944072
 31
0.0
  0
ARC
  5
127C
330
2
100
AcDbEntity
  8
HIDS
  6
SEKKEI_H
100
AcDbCircle
 10
300.2735425786115
 20
59.35961511747109
 30
0.0
 40
1.0
100
AcDbArc
 50
180.0
 51
198.9181108946889
  0
ARC
  5
127D
330
2
100
AcDbEntity
  8
0
100
AcDbCircle
 10
300.2735425786115
 20
59.35961511747109
 30
0.0
 40
1.0
100
AcDbArc
 50
198.9181108946889
 51
269.5000000000084
  0
LINE
  5
127E
330
2
100
AcDbEntity
  8
0
100
AcDbLine
 10
301.7779058463081
 20
68.78972401909914
 30
0.0
 11
300.2648160431133
 21
68.80292855376819
 31
0.0
  0
LINE
  5
127F
330
2
100
AcDbEntity
  8
0
100
AcDbLine
 10
302.2735425785588
 20
68.28974305756992
 30
0.0
 11
302.2735425785588
 21
59.035398662852
 31
0.0
  0
ARC
  5
1280
330
2
100
AcDbEntity
  8
0
100
AcDbCircle
 10
301.7735425785588
 20
68.28974305756992
 30
0.0
 40
0.5
100
AcDbArc
 50
0.0
 51
89.50000000000846
  0
ARC
  5
1281
330
2
100
AcDbEntity
  8
0
100
AcDbCircle
 10
303.2735425785588
 20
59.33343451410064
 30
0.0
 40
1.0
100
AcDbArc
 50
180.0
 51
269.5000000000084
  0
ARC
  5
1282
330
2
100
AcDbEntity
  8
0
100
AcDbCircle
 10
300.2735425786115
 20
69.80289047683209
 30
0.0
 40
1.0
100
AcDbArc
 50
180.0
 51
269.5000000000084
  0
LINE
  5
1283
330
2
100
AcDbEntity
  8
CENTER
  6
CENS
100
AcDbLine
 10
292.1093868922878
 20
125.2853986628774
 30
0.0
 11
312.8437991823131
 21
125.2853986628774
 31
0.0
  0
LINE
  5
1284
330
2
100
AcDbEntity
  8
0
100
AcDbLine
 10
300.9735425785586
 20
121.0353986628774
 30
0.0
 11
300.9735425785586
 21
129.5353986628774
 31
0.0
  0
LINE
  5
1285
330
2
100
AcDbEntity
  8
0
100
AcDbLine
 10
296.2735425785588
 20
121.0353986628774
 30
0.0
 11
296.2735425785588
 21
129.5353986628774
 31
0.0
  0
LINE
  5
1286
330
2
100
AcDbEntity
  8
0
100
AcDbLine
 10
295.9735425785586
 20
121.5550139051479
 30
0.0
 11
295.9735425785586
 21
129.015783420607
 31
0.0
  0
LINE
  5
1287
330
2
100
AcDbEntity
  8
0
100
AcDbLine
 10
296.2735425785588
 20
121.0353986628774
 30
0.0
 11
295.9735425785586
 21
121.5550139051479
 31
0.0
  0
LINE
  5
1288
330
2
100
AcDbEntity
  8
0
100
AcDbLine
 10
296.2735425785588
 20
121.0353986628774
 30
0.0
 11
302.2735425785588
 21
121.0353986628774
 31
0.0
  0
LINE
  5
1289
330
2
100
AcDbEntity
  8
0
100
AcDbLine
 10
296.2735425785588
 20
129.5353986628774
 30
0.0
 11
302.2735425785588
 21
129.5353986628774
 31
0.0
  0
LINE
  5
128A
330
2
100
AcDbEntity
  8
0
100
AcDbLine
 10
296.2735425785588
 20
129.5353986628774
 30
0.0
 11
295.9735425785586
 21
129.015783420607
 31
0.0
  0
LINE
  5
128B
330
2
100
AcDbEntity
  8
0
100
AcDbLine
 10
302.2735425785588
 20
129.5353986628774
 30
0.0
 11
302.2735425785588
 21
121.0353986628774
 31
0.0
  0
LINE
  5
128C
330
2
100
AcDbEntity
  8
HIDS
  6
SEKKEI_H
100
AcDbLine
 10
299.2735425786115
 20
129.2111822082583
 30
0.0
 11
299.2735425786115
 21
121.0353986628774
 31
0.0
  0
LINE
  5
128D
330
2
100
AcDbEntity
  8
0
100
AcDbLine
 10
300.9735425785586
 20
67.535398662852
 30
0.0
 11
300.9735425785586
 21
59.035398662852
 31
0.0
  0
LINE
  5
128E
330
2
100
AcDbEntity
  8
0
100
AcDbLine
 10
296.2735425785588
 20
67.535398662852
 30
0.0
 11
296.2735425785588
 21
59.035398662852
 31
0.0
  0
LINE
  5
128F
330
2
100
AcDbEntity
  8
0
100
AcDbLine
 10
295.9735425785586
 20
67.01578342058155
 30
0.0
 11
295.9735425785586
 21
59.55501390512245
 31
0.0
  0
LINE
  5
1290
330
2
100
AcDbEntity
  8
0
100
AcDbLine
 10
296.2735425785588
 20
67.535398662852
 30
0.0
 11
295.9735425785586
 21
67.01578342058155
 31
0.0
  0
LINE
  5
1291
330
2
100
AcDbEntity
  8
0
100
AcDbLine
 10
296.2735425785588
 20
67.535398662852
 30
0.0
 11
302.2735425785588
 21
67.535398662852
 31
0.0
  0
LINE
  5
1292
330
2
100
AcDbEntity
  8
0
100
AcDbLine
 10
296.2735425785588
 20
59.035398662852
 30
0.0
 11
302.2735425785588
 21
59.035398662852
 31
0.0
  0
LINE
  5
1293
330
2
100
AcDbEntity
  8
0
100
AcDbLine
 10
296.2735425785588
 20
59.035398662852
 30
0.0
 11
295.9735425785586
 21
59.55501390512245
 31
0.0
  0
LINE
  5
1294
330
2
100
AcDbEntity
  8
CENTER
  6
CENS
100
AcDbLine
 10
292.1093868922878
 20
63.28539866285201
 30
0.0
 11
312.8437991823131
 21
63.28539866285201
 31
0.0
  0
LINE
  5
1295
330
2
100
AcDbEntity
  8
0
100
AcDbLine
 10
378.7735425786056
 20
106.2853526628655
 30
0.0
 11
378.7735425786056
 21
113.2853991238366
 31
0.0
  0
LINE
  5
1296
330
2
100
AcDbEntity
  8
0
100
AcDbLine
 10
378.7735425786093
 20
113.2853991238384
 30
0.0
 11
370.7735425786024
 21
113.2853991238384
 31
0.0
  0
LINE
  5
1297
330
2
100
AcDbEntity
  8
0
100
AcDbLine
 10
378.7735425786015
 20
113.285399123833
 30
0.0
 11
379.7735425786015
 21
113.862749393023
 31
0.0
  0
LINE
  5
1298
330
2
100
AcDbEntity
  8
0
100
AcDbLine
 10
370.7735425786024
 20
106.2853526628655
 30
0.0
 11
370.7735425786024
 21
114.4828735487767
 31
0.0
  0
LINE
  5
1299
330
2
100
AcDbEntity
  8
CENTER
  6
CENS
100
AcDbLine
 10
383.2735425786052
 20
98.21603689236372
 30
0.0
 11
383.2735425786052
 21
110.2146010953142
 31
0.0
  0
LINE
  5
129A
330
2
100
AcDbEntity
  8
0
100
AcDbLine
 10
380.7735425786052
 20
101.7854416628647
 30
0.0
 11
374.923634578605
 21
101.7854416628647
 31
0.0
  0
LINE
  5
129B
330
2
100
AcDbEntity
  8
0
100
AcDbLine
 10
389.7735425786052
 20
106.2853526628655
 30
0.0
 11
369.2859333858016
 21
106.2853526628655
 31
0.0
  0
LINE
  5
129C
330
2
100
AcDbEntity
  8
0
100
AcDbLine
 10
389.7735425786052
 20
104.0853986628658
 30
0.0
 11
287.773649578605
 21
104.0853986628658
 31
0.0
  0
LINE
  5
129D
330
2
100
AcDbEntity
  8
0
100
AcDbLine
 10
380.7735425786052
 20
102.2853986628647
 30
0.0
 11
380.7735425786052
 21
86.28539866286473
 31
0.0
  0
LINE
  5
129E
330
2
100
AcDbEntity
  8
0
100
AcDbLine
 10
385.7735425786052
 20
102.2853986628647
 30
0.0
 11
380.7735425786052
 21
102.2853986628647
 31
0.0
  0
LINE
  5
129F
330
2
100
AcDbEntity
  8
0
100
AcDbLine
 10
381.6735425786048
 20
106.2853986628647
 30
0.0
 11
381.6735425786048
 21
104.0854026628653
 31
0.0
  0
LINE
  5
12A0
330
2
100
AcDbEntity
  8
0
100
AcDbLine
 10
364.7735425786052
 20
102.2854416628647
 30
0.0
 11
308.773649578605
 21
102.2854416628647
 31
0.0
  0
LINE
  5
12A1
330
2
100
AcDbEntity
  8
0
100
AcDbLine
 10
364.7735425786052
 20
102.2854416628647
 30
0.0
 11
364.7735425786052
 21
86.28535566286473
 31
0.0
  0
LINE
  5
12A2
330
2
100
AcDbEntity
  8
0
100
AcDbLine
 10
373.7736345786049
 20
101.7854416628647
 30
0.0
 11
364.7735425786052
 21
101.7854416628647
 31
0.0
  0
LINE
  5
12A3
330
2
100
AcDbEntity
  8
0
100
AcDbLine
 10
374.9236689149695
 20
102.1354476628653
 30
0.0
 11
373.7736689149564
 21
102.1354476628653
 31
0.0
  0
LINE
  5
12A4
330
2
100
AcDbEntity
  8
0
100
AcDbLine
 10
380.7735425786052
 20
86.78546155504909
 30
0.0
 11
374.9236023945497
 21
86.78550079527804
 31
0.0
  0
LINE
  5
12A5
330
2
100
AcDbEntity
  8
0
100
AcDbLine
 10
389.7735425786052
 20
82.28544466286576
 30
0.0
 11
369.2859333858016
 21
82.28544466286576
 31
0.0
  0
LINE
  5
12A6
330
2
100
AcDbEntity
  8
0
100
AcDbLine
 10
380.7735425786052
 20
86.28539866286473
 30
0.0
 11
385.7735425786052
 21
86.28539866286473
 31
0.0
  0
LINE
  5
12A7
330
2
100
AcDbEntity
  8
0
100
AcDbLine
 10
373.7736002424819
 20
86.43549963742726
 30
0.0
 11
373.7736689149564
 21
102.1354476628653
 31
0.0
  0
LINE
  5
12A8
330
2
100
AcDbEntity
  8
0
100
AcDbLine
 10
374.9236002424729
 20
86.43549479528109
 30
0.0
 11
374.9236689149695
 21
102.1354476628653
 31
0.0
  0
LINE
  5
12A9
330
2
100
AcDbEntity
  8
0
100
AcDbLine
 10
364.7735425786052
 20
86.78541534901114
 30
0.0
 11
373.7736023945583
 21
86.78550563742238
 31
0.0
  0
LINE
  5
12AA
330
2
100
AcDbEntity
  8
0
100
AcDbLine
 10
374.9236002424729
 20
86.43549479528109
 30
0.0
 11
373.7736002424819
 21
86.43549963742726
 31
0.0
  0
LINE
  5
12AB
330
2
100
AcDbEntity
  8
0
100
AcDbLine
 10
389.7735425786052
 20
82.28539866286473
 30
0.0
 11
389.7735425786052
 21
106.2853986628647
 31
0.0
  0
LINE
  5
12AC
330
2
100
AcDbEntity
  8
0
100
AcDbLine
 10
387.7735425786052
 20
86.78539866286474
 30
0.0
 11
387.7735425786052
 21
101.7853986628647
 31
0.0
  0
LINE
  5
12AD
330
2
100
AcDbEntity
  8
0
100
AcDbLine
 10
385.7735425786052
 20
86.28539866286473
 30
0.0
 11
385.7735425786052
 21
102.2853986628647
 31
0.0
  0
LINE
  5
12AE
330
2
100
AcDbEntity
  8
0
100
AcDbLine
 10
387.7735425786052
 20
101.7853986628647
 30
0.0
 11
385.7735425786052
 21
101.7853986628647
 31
0.0
  0
LINE
  5
12AF
330
2
100
AcDbEntity
  8
0
100
AcDbLine
 10
387.7735425786052
 20
101.7853986628647
 30
0.0
 11
389.7735425786052
 21
102.940107662865
 31
0.0
  0
LINE
  5
12B0
330
2
100
AcDbEntity
  8
0
100
AcDbLine
 10
384.8735425786046
 20
106.2853986628647
 30
0.0
 11
384.8735425786046
 21
104.0854026628653
 31
0.0
  0
LINE
  5
12B1
330
2
100
AcDbEntity
  8
0
100
AcDbLine
 10
287.773649578605
 20
106.2853526628655
 30
0.0
 11
287.773649578605
 21
82.28544466286576
 31
0.0
  0
LINE
  5
12B2
330
2
100
AcDbEntity
  8
0
100
AcDbLine
 10
301.2498324586356
 20
82.28544466286576
 30
0.0
 11
287.773649578605
 21
82.28544466286576
 31
0.0
  0
LINE
  5
12B3
330
2
100
AcDbEntity
  8
0
100
AcDbLine
 10
296.7736618385809
 20
86.43549479519743
 30
0.0
 11
295.6235638385812
 21
86.43549479519743
 31
0.0
  0
LINE
  5
12B4
330
2
100
AcDbEntity
  8
0
100
AcDbLine
 10
296.7736618385809
 20
86.43549479519743
 30
0.0
 11
296.7736373185461
 21
102.1354476628653
 31
0.0
  0
LINE
  5
12B5
330
2
100
AcDbEntity
  8
0
100
AcDbLine
 10
308.773649578605
 20
86.785500795198
 30
0.0
 11
296.7736612919454
 21
86.785500795198
 31
0.0
  0
LINE
  5
12B6
330
2
100
AcDbEntity
  8
0
100
AcDbLine
 10
289.7736622290287
 20
86.785500795198
 30
0.0
 11
289.7736369280794
 21
101.7854489660257
 31
0.0
  0
LINE
  5
12B7
330
2
100
AcDbEntity
  8
0
100
AcDbLine
 10
295.6235638385812
 20
86.43549479519743
 30
0.0
 11
295.6235393185454
 21
102.1354476628653
 31
0.0
  0
LINE
  5
12B8
330
2
100
AcDbEntity
  8
0
100
AcDbLine
 10
295.6235642290287
 20
86.785500795198
 30
0.0
 11
289.7736622290287
 21
86.785500795198
 31
0.0
  0
LINE
  5
12B9
330
2
100
AcDbEntity
  8
0
100
AcDbLine
 10
289.7736622290287
 20
86.785500795198
 30
0.0
 11
287.7736622290287
 21
85.63089879519749
 31
0.0
  0
LINE
  5
12BA
330
2
100
AcDbEntity
  8
0
100
AcDbLine
 10
308.773649578605
 20
101.7854416628647
 30
0.0
 11
296.773649578605
 21
101.7854416628647
 31
0.0
  0
LINE
  5
12BB
330
2
100
AcDbEntity
  8
0
100
AcDbLine
 10
296.7736373185461
 20
102.1354476628653
 30
0.0
 11
295.6235393185454
 21
102.1354476628653
 31
0.0
  0
LINE
  5
12BC
330
2
100
AcDbEntity
  8
0
100
AcDbLine
 10
301.2498324586356
 20
106.2853526628655
 30
0.0
 11
287.773649578605
 21
106.2853526628655
 31
0.0
  0
LINE
  5
12BD
330
2
100
AcDbEntity
  8
0
100
AcDbLine
 10
295.6235515786049
 20
101.7854416628647
 30
0.0
 11
289.773649578605
 21
101.7854416628647
 31
0.0
  0
LINE
  5
12BE
330
2
100
AcDbEntity
  8
0
100
AcDbLine
 10
289.773649578605
 20
101.7854416628647
 30
0.0
 11
287.773649578605
 21
102.9400436628652
 31
0.0
  0
LINE
  5
12BF
330
2
100
AcDbEntity
  8
0
100
AcDbLine
 10
308.773649578605
 20
102.2854416628647
 30
0.0
 11
308.773649578605
 21
86.28535566286473
 31
0.0
  0
LINE
  5
12C0
330
2
100
AcDbEntity
  8
0
100
AcDbLine
 10
387.7735425786052
 20
86.78539866286474
 30
0.0
 11
389.7735425786052
 21
85.63070566286615
 31
0.0
  0
LINE
  5
12C1
330
2
100
AcDbEntity
  8
0
100
AcDbLine
 10
385.7735425786052
 20
86.78539866286474
 30
0.0
 11
387.7735425786052
 21
86.78539866286474
 31
0.0
  0
LINE
  5
12C2
330
2
100
AcDbEntity
  8
HOJO
100
AcDbLine
 10
381.2735425786052
 20
106.2853986628647
 30
0.0
 11
381.2735425786052
 21
104.0854026628653
 31
0.0
  0
LINE
  5
12C3
330
2
100
AcDbEntity
  8
HOJO
100
AcDbLine
 10
385.2735425786052
 20
106.2853986628647
 30
0.0
 11
385.2735425786052
 21
104.0854026628653
 31
0.0
  0
LINE
  5
12C4
330
2
100
AcDbEntity
  8
0
100
AcDbLine
 10
364.7735425786052
 20
86.28535566286473
 30
0.0
 11
308.773649578605
 21
86.28535566286473
 31
0.0
  0
SPLINE
  5
12C5
330
2
100
AcDbEntity
  8
HOJO
100
AcDbSpline
210
0.0
220
0.0
230
1.0
 70
     8
 71
     3
 72
    28
 73
    24
 74
     0
 42
0.0000000001
 43
0.0000000001
 40
0.3704670071059328
 40
0.3704670071059328
 40
0.3704670071059328
 40
0.3704670071059328
 40
3.677988812247246
 40
8.791018463267651
 40
11.534409059157
 40
14.79083261228259
 40
19.41725208020484
 40
26.25498910818945
 40
31.0677594716429
 40
39.54887928070277
 40
46.10466196545195
 40
53.81000657351095
 40
60.87988603969266
 40
73.04898303406338
 40
77.92364065281924
 40
83.05458567163176
 40
86.41606547814928
 40
90.22352725249445
 40
93.43259640502891
 40
96.2888849479885
 40
99.23414206954802
 40
102.5663758078584
 40
105.6447949485796
 40
105.6447949485796
 40
105.6447949485796
 40
105.6447949485796
 10
289.7735425786643
 20
115.4404780619983
 30
0.0
 10
290.8191169560475
 20
115.0036631286506
 30
0.0
 10
293.4865941122409
 20
113.9710573757669
 30
0.0
 10
297.2098102154375
 20
115.2651586372134
 30
0.0
 10
301.0753071551428
 20
113.5151903168275
 30
0.0
 10
301.2041069723638
 20
109.7823044901774
 30
0.0
 10
300.5853929236625
 20
103.4747856924436
 30
0.0
 10
308.1614240851906
 20
106.433277419815
 30
0.0
 10
314.3130864772822
 20
104.5141639730949
 30
0.0
 10
321.08684661243
 20
106.9334693109498
 30
0.0
 10
328.582886637889
 20
104.8001405522276
 30
0.0
 10
335.6779555292698
 20
106.9936541530418
 30
0.0
 10
344.5788743674377
 20
104.4533000116911
 30
0.0
 10
352.6749809869818
 20
107.4379217458822
 30
0.0
 10
359.9588287599747
 20
104.5566162014651
 30
0.0
 10
364.2269249430489
 20
106.4917426526548
 30
0.0
 10
368.838184658746
 20
104.0723393737857
 30
0.0
 10
370.1987754048975
 20
108.7362754759719
 30
0.0
 10
369.003637967636
 20
111.6712341663564
 30
0.0
 10
370.4382117389075
 20
114.9225349107159
 30
0.0
 10
373.7798280599702
 20
115.2829722924429
 30
0.0
 10
376.8748328649123
 20
114.3619225419092
 30
0.0
 10
378.8232592677616
 20
115.524932352327
 30
0.0
 10
379.7735425786052
 20
115.977649099484
 30
0.0
  0
LINE
  5
12C6
330
2
100
AcDbEntity
  8
0
100
AcDbLine
 10
370.7735425786024
 20
106.2853526628655
 30
0.0
 11
378.7735425786056
 21
113.2853991238366
 31
0.0
  0
LINE
  5
12C7
330
2
100
AcDbEntity
  8
0
100
AcDbLine
 10
370.7735425786024
 20
113.2853991238384
 30
0.0
 11
378.7735425786056
 21
106.2853526628655
 31
0.0
  0
LINE
  5
12C8
330
2
100
AcDbEntity
  8
0
100
AcDbLine
 10
378.7735425786056
 20
82.28544466286576
 30
0.0
 11
378.7735425786056
 21
75.28539820189462
 31
0.0
  0
LINE
  5
12C9
330
2
100
AcDbEntity
  8
0
100
AcDbLine
 10
378.7735425786093
 20
75.2853982018928
 30
0.0
 11
370.7735425786024
 21
75.2853982018928
 31
0.0
  0
LINE
  5
12CA
330
2
100
AcDbEntity
  8
0
100
AcDbLine
 10
378.7735425786015
 20
75.28539820189644
 30
0.0
 11
379.7735425786015
 21
74.70804793270644
 31
0.0
  0
LINE
  5
12CB
330
2
100
AcDbEntity
  8
0
100
AcDbLine
 10
370.7735425786024
 20
82.28544466286576
 30
0.0
 11
370.7735425786024
 21
74.08792377695272
 31
0.0
  0
LINE
  5
12CC
330
2
100
AcDbEntity
  8
0
100
AcDbLine
 10
370.7735425786024
 20
82.28544466286576
 30
0.0
 11
378.7735425786056
 21
75.28539820189462
 31
0.0
  0
LINE
  5
12CD
330
2
100
AcDbEntity
  8
0
100
AcDbLine
 10
370.7735425786024
 20
75.2853982018928
 30
0.0
 11
378.7735425786056
 21
82.28544466286576
 31
0.0
  0
SPLINE
  5
12CE
330
2
100
AcDbEntity
  8
HOJO
100
AcDbSpline
210
0.0
220
0.0
230
1.0
 70
     8
 71
     3
 72
    28
 73
    24
 74
     0
 42
0.0000000001
 43
0.0000000001
 40
0.3704670071059328
 40
0.3704670071059328
 40
0.3704670071059328
 40
0.3704670071059328
 40
3.677988812247246
 40
8.791018463267651
 40
11.534409059157
 40
14.79083261228259
 40
19.41725208020484
 40
26.25498910818945
 40
31.0677594716429
 40
39.54887928070277
 40
46.10466196545195
 40
53.81000657351095
 40
60.87988603969266
 40
73.04898303406338
 40
77.92364065281924
 40
83.05458567163176
 40
86.41606547814928
 40
90.22352725249445
 40
93.43259640502891
 40
96.2888849479885
 40
99.23414206954802
 40
102.5663758078584
 40
105.6447949485796
 40
105.6447949485796
 40
105.6447949485796
 40
105.6447949485796
 10
289.7735425786643
 20
73.13031926373281
 30
0.0
 10
290.8191169560475
 20
73.56713419708052
 30
0.0
 10
293.4865941122409
 20
74.59973994996238
 30
0.0
 10
297.2098102154375
 20
73.3056386885159
 30
0.0
 10
301.0753071551428
 20
75.05560700890367
 30
0.0
 10
301.2041069723638
 20
78.78849283555195
 30
0.0
 10
300.5853929236625
 20
85.09601163328756
 30
0.0
 10
308.1614240851906
 20
82.13751990591431
 30
0.0
 10
314.3130864772822
 20
84.05663335263438
 30
0.0
 10
321.08684661243
 20
81.63732801478131
 30
0.0
 10
328.582886637889
 20
83.77065677350168
 30
0.0
 10
335.6779555292698
 20
81.57714317268931
 30
0.0
 10
344.5788743674377
 20
84.11749731404
 30
0.0
 10
352.6749809869818
 20
81.13287557984717
 30
0.0
 10
359.9588287599747
 20
84.01418112426602
 30
0.0
 10
364.2269249430489
 20
82.07905467307631
 30
0.0
 10
368.838184658746
 20
84.49845795194363
 30
0.0
 10
370.1987754048975
 20
79.83452184975743
 30
0.0
 10
369.003637967636
 20
76.89956315937473
 30
0.0
 10
370.4382117389075
 20
73.64826241501527
 30
0.0
 10
373.7798280599702
 20
73.28782503328824
 30
0.0
 10
376.8748328649123
 20
74.20887478382013
 30
0.0
 10
378.8232592677616
 20
73.04586497340409
 30
0.0
 10
379.7735425786052
 20
72.59314822624531
 30
0.0
  0
LINE
  5
12CF
330
2
100
AcDbEntity
  8
0
100
AcDbLine
 10
290.7735425786083
 20
113.2853986628647
 30
0.0
 11
299.2735425786079
 21
106.2853526628655
 31
0.0
  0
LINE
  5
12D0
330
2
100
AcDbEntity
  8
0
100
AcDbLine
 10
299.2735425786074
 20
113.2853986628665
 30
0.0
 11
290.7735425786097
 21
106.2853526628655
 31
0.0
  0
LINE
  5
12D1
330
2
100
AcDbEntity
  8
0
100
AcDbLine
 10
299.2735425786079
 20
82.28544466286576
 30
0.0
 11
290.7735425786092
 21
75.28539866286656
 31
0.0
  0
LINE
  5
12D2
330
2
100
AcDbEntity
  8
0
100
AcDbLine
 10
290.7735425786092
 20
82.28544466286576
 30
0.0
 11
299.2735425786079
 21
75.28539866286656
 31
0.0
  0
CIRCLE
  5
12D3
330
2
100
AcDbEntity
  8
0
100
AcDbCircle
 10
357.402990730028
 20
262.4190043008561
 30
0.0
 40
1.6
  0
CIRCLE
  5
12D4
330
2
100
AcDbEntity
  8
HOJO
100
AcDbCircle
 10
357.402990730028
 20
262.4190043008561
 30
0.0
 40
2.0
  0
CIRCLE
  5
12D5
330
2
100
AcDbEntity
  8
0
100
AcDbCircle
 10
455.6503885559343
 20
403.872687875067
 30
0.0
 40
1.6
  0
CIRCLE
  5
12D6
330
2
100
AcDbEntity
  8
HOJO
100
AcDbCircle
 10
455.6503885559343
 20
403.872687875067
 30
0.0
 40
2.0
  0
LINE
  5
12D7
330
2
100
AcDbEntity
  8
CENTER
100
AcDbLine
 10
450.9225482480576
 20
403.872687875067
 30
0.0
 11
460.378228863811
 21
403.872687875067
 31
0.0
  0
LINE
  5
12D8
330
2
100
AcDbEntity
  8
0
100
AcDbLine
 10
261.9030977300278
 20
274.418958300855
 30
0.0
 11
261.9030977300274
 21
250.4190503008552
 31
0.0
  0
LINE
  5
12D9
330
2
100
AcDbEntity
  8
0
100
AcDbLine
 10
263.9029907300821
 20
250.4190503008552
 30
0.0
 11
261.9030977300274
 21
250.4190503008552
 31
0.0
  0
LINE
  5
12DA
330
2
100
AcDbEntity
  8
0
100
AcDbLine
 10
263.9029907300825
 20
274.418958300855
 30
0.0
 11
261.9030977300278
 21
274.418958300855
 31
0.0
  0
LINE
  5
12DB
330
2
100
AcDbEntity
  8
CENTER
100
AcDbLine
 10
206.7177400106127
 20
247.0286409177492
 30
0.0
 11
206.7177400106127
 21
235.8093676839884
 31
0.0
  0
LINE
  5
12DC
330
2
100
AcDbEntity
  8
CENTER
100
AcDbLine
 10
201.1081033937323
 20
241.4190043008688
 30
0.0
 11
212.327376627493
 21
241.4190043008688
 31
0.0
  0
LINE
  5
12DD
330
2
100
AcDbEntity
  8
CENTER
100
AcDbLine
 10
206.7177400106127
 20
277.8093676839884
 30
0.0
 11
206.7177400106127
 21
289.0286409177491
 31
0.0
  0
LINE
  5
12DE
330
2
100
AcDbEntity
  8
CENTER
100
AcDbLine
 10
201.1081033937323
 20
283.4190043008688
 30
0.0
 11
212.327376627493
 21
283.4190043008688
 31
0.0
  0
LINE
  5
12DF
330
2
100
AcDbEntity
  8
0
100
AcDbLine
 10
752.7035453367709
 20
289.1690043008815
 30
0.0
 11
752.7035453367709
 21
297.6690043008815
 31
0.0
  0
LINE
  5
12E0
330
2
100
AcDbEntity
  8
0
100
AcDbLine
 10
753.0035453367711
 20
289.688619543152
 30
0.0
 11
753.0035453367711
 21
297.1493890586111
 31
0.0
  0
LINE
  5
12E1
330
2
100
AcDbEntity
  8
0
100
AcDbLine
 10
752.8478829040659
 20
289.419004300877
 30
0.0
 11
753.0035453367711
 21
289.688619543152
 31
0.0
  0
LINE
  5
12E2
330
2
100
AcDbEntity
  8
0
100
AcDbLine
 10
752.7035453367709
 20
297.6690043008815
 30
0.0
 11
749.6495282596923
 21
297.6690043008815
 31
0.0
  0
LINE
  5
12E3
330
2
100
AcDbEntity
  8
0
100
AcDbLine
 10
752.7035453367709
 20
297.6690043008815
 30
0.0
 11
753.0035453367711
 21
297.1493890586111
 31
0.0
  0
LINE
  5
12E4
330
2
100
AcDbEntity
  8
0
100
AcDbLine
 10
752.7035453367709
 20
235.6690043008561
 30
0.0
 11
752.7035453367709
 21
227.1690043008561
 31
0.0
  0
LINE
  5
12E5
330
2
100
AcDbEntity
  8
0
100
AcDbLine
 10
753.0035453367711
 20
235.1493890585856
 30
0.0
 11
753.0035453367711
 21
227.6886195431265
 31
0.0
  0
LINE
  5
12E6
330
2
100
AcDbEntity
  8
0
100
AcDbLine
 10
752.8478829040659
 20
235.4190043008606
 30
0.0
 11
753.0035453367711
 21
235.1493890585856
 31
0.0
  0
LINE
  5
12E7
330
2
100
AcDbEntity
  8
0
100
AcDbLine
 10
752.7035453367709
 20
227.1690043008561
 30
0.0
 11
749.6495282596923
 21
227.1690043008561
 31
0.0
  0
LINE
  5
12E8
330
2
100
AcDbEntity
  8
0
100
AcDbLine
 10
752.7035453367709
 20
227.1690043008561
 30
0.0
 11
753.0035453367711
 21
227.6886195431265
 31
0.0
  0
LINE
  5
12E9
330
2
100
AcDbEntity
  8
CENTER
100
AcDbLine
 10
357.402990730028
 20
266.6520429862825
 30
0.0
 11
357.402990730028
 21
258.1859656154296
 31
0.0
  0
LINE
  5
12EA
330
2
100
AcDbEntity
  8
0
100
AcDbLine
 10
270.4029907299793
 20
289.6690043008561
 30
0.0
 11
270.4029907299793
 21
285.4190043008561
 31
0.0
  0
LINE
  5
12EB
330
2
100
AcDbEntity
  8
0
100
AcDbLine
 10
270.1029907299791
 20
289.1493890585856
 30
0.0
 11
270.1029907299789
 21
285.4190043008561
 31
0.0
  0
LINE
  5
12EC
330
2
100
AcDbEntity
  8
0
100
AcDbLine
 10
270.2586531626861
 20
289.4190043008642
 30
0.0
 11
270.1029907299791
 21
289.1493890585856
 31
0.0
  0
LINE
  5
12ED
330
2
100
AcDbEntity
  8
0
100
AcDbLine
 10
270.4029907299793
 20
235.1690043008561
 30
0.0
 11
270.4029907299793
 21
239.4190043008561
 31
0.0
  0
LINE
  5
12EE
330
2
100
AcDbEntity
  8
0
100
AcDbLine
 10
270.1029907299791
 20
235.6886195431265
 30
0.0
 11
270.1029907299789
 21
239.4190043008561
 31
0.0
  0
LINE
  5
12EF
330
2
100
AcDbEntity
  8
0
100
AcDbLine
 10
270.2586531626866
 20
235.4190043008479
 30
0.0
 11
270.1029907299791
 21
235.6886195431265
 31
0.0
  0
LINE
  5
12F0
330
2
100
AcDbEntity
  8
CENTER
  6
CENS
100
AcDbLine
 10
736.0426545427437
 20
293.4190043008688
 30
0.0
 11
756.7770668327691
 21
293.4190043008688
 31
0.0
  0
LINE
  5
12F1
330
2
100
AcDbEntity
  8
CENTER
  6
CENS
100
AcDbLine
 10
736.0426545427437
 20
231.4190043008433
 30
0.0
 11
756.7770668327691
 21
231.4190043008433
 31
0.0
  0
ARC
  5
12F3
330
2
100
AcDbEntity
  8
0
100
AcDbCircle
 10
717.203545336725
 20
262.4190043008688
 30
0.0
 40
27.00000000000004
100
AcDbArc
 50
313.6028189726618
 51
73.73979529164896
  0
CIRCLE
  5
12F4
330
2
100
AcDbEntity
  8
HIDS
100
AcDbCircle
 10
717.203545336725
 20
262.4190043008688
 30
0.0
 40
17.49999999999926
  0
CIRCLE
  5
12F5
330
2
100
AcDbEntity
  8
0
100
AcDbCircle
 10
717.203545336725
 20
262.4190043008688
 30
0.0
 40
15.0
  0
LINE
  5
12F6
330
2
100
AcDbEntity
  8
0
100
AcDbLine
 10
701.203545336725
 20
282.4190043008688
 30
0.0
 11
733.203545336725
 21
282.4190043008688
 31
0.0
  0
LINE
  5
12F7
330
2
100
AcDbEntity
  8
HIDS
100
AcDbLine
 10
703.453545336725
 20
288.4190043008688
 30
0.0
 11
703.453545336725
 21
273.2443218481725
 31
0.0
  0
ARC
  5
12F8
330
2
100
AcDbEntity
  8
0
100
AcDbCircle
 10
717.203545336725
 20
262.4190043008688
 30
0.0
 40
27.00000000000004
100
AcDbArc
 50
133.6028189726618
 51
253.7397952916489
  0
ARC
  5
12F9
330
2
100
AcDbEntity
  8
0
100
AcDbCircle
 10
701.203545336725
 20
286.4190043008688
 30
0.0
 40
2.0
100
AcDbArc
 50
90.0
 51
180.0
  0
ARC
  5
12FA
330
2
100
AcDbEntity
  8
0
100
AcDbCircle
 10
697.203545336725
 20
283.4190043008688
 30
0.0
 40
2.0
100
AcDbArc
 50
313.6028189726618
 51
0.0
  0
ARC
  5
12FB
330
2
100
AcDbEntity
  8
0
100
AcDbCircle
 10
701.203545336725
 20
278.4190043008688
 30
0.0
 40
4.0
100
AcDbArc
 50
90.0
 51
180.0
  0
LINE
  5
12FC
330
2
100
AcDbEntity
  8
0
100
AcDbLine
 10
724.2035453367259
 20
288.4190043008688
 30
0.0
 11
700.0785470485814
 21
288.4190043008688
 31
0.0
  0
LINE
  5
12FD
330
2
100
AcDbEntity
  8
0
100
AcDbLine
 10
699.203545336725
 20
286.4190043008688
 30
0.0
 11
699.203545336725
 21
283.4190043008688
 31
0.0
  0
LINE
  5
12FE
330
2
100
AcDbEntity
  8
HIDS
100
AcDbLine
 10
714.953545336725
 20
279.7737586926763
 30
0.0
 11
714.953545336725
 21
288.4190043008688
 31
0.0
  0
ARC
  5
12FF
330
2
100
AcDbEntity
  8
0
100
AcDbCircle
 10
724.2035453367259
 20
286.4190043008688
 30
0.0
 40
2.0
100
AcDbArc
 50
73.73979529164896
 51
90.0
  0
LINE
  5
1300
330
2
100
AcDbEntity
  8
0
100
AcDbLine
 10
737.203545336725
 20
278.4190043008688
 30
0.0
 11
737.203545336725
 21
246.4190043008688
 31
0.0
  0
ARC
  5
1301
330
2
100
AcDbEntity
  8
0
100
AcDbCircle
 10
742.203545336725
 20
287.4190043008688
 30
0.0
 40
3.0
100
AcDbArc
 50
0.0
 51
90.0
  0
ARC
  5
1302
330
2
100
AcDbEntity
  8
0
100
AcDbCircle
 10
733.203545336725
 20
278.4190043008688
 30
0.0
 40
4.0
100
AcDbArc
 50
0.0
 51
90.0
  0
LINE
  5
1303
330
2
100
AcDbEntity
  8
0
100
AcDbLine
 10
710.203545336725
 20
236.4190043008688
 30
0.0
 11
733.203545336725
 21
236.4190043008688
 31
0.0
  0
LINE
  5
1304
330
2
100
AcDbEntity
  8
0
100
AcDbLine
 10
692.203545336725
 20
234.4190043008688
 30
0.0
 11
742.203545336725
 21
234.4190043008688
 31
0.0
  0
LINE
  5
1305
330
2
100
AcDbEntity
  8
0
100
AcDbLine
 10
733.203545336725
 20
242.4190043008688
 30
0.0
 11
701.203545336725
 21
242.4190043008688
 31
0.0
  0
LINE
  5
1306
330
2
100
AcDbEntity
  8
0
100
AcDbLine
 10
697.203545336725
 20
246.4190043008688
 30
0.0
 11
697.203545336725
 21
278.4190043008688
 31
0.0
  0
ARC
  5
1307
330
2
100
AcDbEntity
  8
0
100
AcDbCircle
 10
701.203545336725
 20
246.4190043008688
 30
0.0
 40
4.0
100
AcDbArc
 50
180.0
 51
270.0
  0
ARC
  5
1308
330
2
100
AcDbEntity
  8
0
100
AcDbCircle
 10
692.203545336725
 20
237.4190043008688
 30
0.0
 40
3.0
100
AcDbArc
 50
180.0
 51
270.0
  0
ARC
  5
1309
330
2
100
AcDbEntity
  8
0
100
AcDbCircle
 10
710.203545336725
 20
238.4190043008688
 30
0.0
 40
2.0
100
AcDbArc
 50
253.7397952916489
 51
270.0
  0
ARC
  5
130A
330
2
100
AcDbEntity
  8
0
100
AcDbCircle
 10
692.203545336725
 20
287.4190043008688
 30
0.0
 40
3.0
100
AcDbArc
 50
90.0
 51
180.0
  0
ARC
  5
130B
330
2
100
AcDbEntity
  8
0
100
AcDbCircle
 10
737.203545336725
 20
241.4190043008688
 30
0.0
 40
2.0
100
AcDbArc
 50
133.6028189726618
 51
180.0
  0
ARC
  5
130C
330
2
100
AcDbEntity
  8
0
100
AcDbCircle
 10
733.203545336725
 20
246.4190043008688
 30
0.0
 40
4.0
100
AcDbArc
 50
270.0
 51
0.0
  0
ARC
  5
130D
330
2
100
AcDbEntity
  8
0
100
AcDbCircle
 10
733.203545336725
 20
238.4190043008688
 30
0.0
 40
2.0
100
AcDbArc
 50
270.0
 51
0.0
  0
LINE
  5
130E
330
2
100
AcDbEntity
  8
0
100
AcDbLine
 10
735.203545336725
 20
238.4190043008688
 30
0.0
 11
735.203545336725
 21
241.4190043008688
 31
0.0
  0
ARC
  5
130F
330
2
100
AcDbEntity
  8
0
100
AcDbCircle
 10
742.203545336725
 20
237.4190043008688
 30
0.0
 40
3.0
100
AcDbArc
 50
270.0
 51
0.0
  0
LINE
  5
1310
330
2
100
AcDbEntity
  8
0
100
AcDbLine
 10
692.203545336725
 20
290.4190043008688
 30
0.0
 11
700.5805822557128
 21
290.4190043008688
 31
0.0
  0
LINE
  5
1311
330
2
100
AcDbEntity
  8
0
100
AcDbLine
 10
717.5765084177369
 20
290.4190043008688
 30
0.0
 11
742.2035453367259
 21
290.4190043008688
 31
0.0
  0
LINE
  5
1312
330
2
100
AcDbEntity
  8
CENTER
100
AcDbLine
 10
741.5987292876613
 20
233.1488203499333
 30
0.0
 11
741.5987292876613
 21
242.8988203499333
 31
0.0
  0
LINE
  5
1313
330
2
100
AcDbEntity
  8
CENTER
100
AcDbLine
 10
736.7237292876613
 20
238.0238203499333
 30
0.0
 11
746.4737292876614
 21
238.0238203499333
 31
0.0
  0
LINE
  5
1314
330
2
100
AcDbEntity
  8
CENTER
100
AcDbLine
 10
692.8083613857896
 20
233.1488203499333
 30
0.0
 11
692.8083613857896
 21
242.8988203499333
 31
0.0
  0
LINE
  5
1315
330
2
100
AcDbEntity
  8
CENTER
100
AcDbLine
 10
687.9333613857895
 20
238.0238203499333
 30
0.0
 11
697.6833613857896
 21
238.0238203499333
 31
0.0
  0
LINE
  5
1316
330
2
100
AcDbEntity
  8
CENTER
100
AcDbLine
 10
692.8083613857896
 20
281.9391882518043
 30
0.0
 11
692.8083613857896
 21
291.6891882518043
 31
0.0
  0
LINE
  5
1317
330
2
100
AcDbEntity
  8
CENTER
100
AcDbLine
 10
687.9333613857895
 20
286.8141882518043
 30
0.0
 11
697.6833613857896
 21
286.8141882518043
 31
0.0
  0
LINE
  5
1318
330
2
100
AcDbEntity
  8
CENTER
100
AcDbLine
 10
741.5987292876613
 20
281.9391882518043
 30
0.0
 11
741.5987292876613
 21
291.6891882518043
 31
0.0
  0
LINE
  5
1319
330
2
100
AcDbEntity
  8
CENTER
100
AcDbLine
 10
736.7237292876613
 20
286.8141882518043
 30
0.0
 11
746.4737292876614
 21
286.8141882518043
 31
0.0
  0
CIRCLE
  5
131A
330
2
100
AcDbEntity
  8
0
100
AcDbCircle
 10
717.203545336725
 20
262.4190043008688
 30
0.0
 40
12.25000000258501
  0
ARC
  5
131B
330
2
100
AcDbEntity
  8
0
100
AcDbCircle
 10
717.203545336725
 20
262.4190043008688
 30
0.0
 40
4.577350271774776
100
AcDbArc
 50
9.430449844994965
 51
170.569550155005
  0
ARC
  5
131C
330
2
100
AcDbEntity
  8
0
100
AcDbCircle
 10
717.203545336725
 20
262.4190043008688
 30
0.0
 40
4.577350271774776
100
AcDbArc
 50
189.4304498449949
 51
350.569550155005
  0
CIRCLE
  5
131D
330
2
100
AcDbEntity
  8
0
100
AcDbCircle
 10
717.203545336725
 20
262.4190043008688
 30
0.0
 40
4.000000002585125
  0
CIRCLE
  5
131E
330
2
100
AcDbEntity
  8
0
100
AcDbCircle
 10
692.8083613857896
 20
286.8141882518043
 30
0.0
 40
1.732050807568871
  0
LWPOLYLINE
  5
131F
330
2
100
AcDbEntity
  8
0
100
AcDbPolyline
 90
        6
 70
     1
 43
0.0
 10
694.3083613857895
 20
287.6802136555892
 10
692.8083613857896
 20
288.5462390593742
 10
691.3083613857895
 20
287.6802136555892
 10
691.3083613857895
 20
285.9481628480202
 10
692.8083613857896
 20
285.0821374442361
 10
694.3083613857895
 20
285.9481628480202
  0
CIRCLE
  5
1320
330
2
100
AcDbEntity
  8
0
100
AcDbCircle
 10
692.8083613857896
 20
286.8141882518043
 30
0.0
 40
3.499999999999717
  0
CIRCLE
  5
1321
330
2
100
AcDbEntity
  8
0
100
AcDbCircle
 10
692.8083613857896
 20
286.8141882518043
 30
0.0
 40
2.980384757729353
  0
CIRCLE
  5
1322
330
2
100
AcDbEntity
  8
0
100
AcDbCircle
 10
741.5987292876613
 20
286.8141882518043
 30
0.0
 40
1.732050807568871
  0
LWPOLYLINE
  5
1323
330
2
100
AcDbEntity
  8
0
100
AcDbPolyline
 90
        6
 70
     1
 43
0.0
 10
743.0987292876614
 20
287.6802136555892
 10
741.5987292876613
 20
288.5462390593733
 10
740.0987292876614
 20
287.6802136555892
 10
740.0987292876614
 20
285.9481628480202
 10
741.5987292876613
 20
285.0821374442361
 10
743.0987292876614
 20
285.9481628480202
  0
CIRCLE
  5
1324
330
2
100
AcDbEntity
  8
0
100
AcDbCircle
 10
741.5987292876613
 20
286.8141882518043
 30
0.0
 40
3.499999999999717
  0
CIRCLE
  5
1325
330
2
100
AcDbEntity
  8
0
100
AcDbCircle
 10
741.5987292876613
 20
286.8141882518043
 30
0.0
 40
2.980384757729353
  0
CIRCLE
  5
1326
330
2
100
AcDbEntity
  8
0
100
AcDbCircle
 10
741.5987292876613
 20
238.0238203499333
 30
0.0
 40
1.732050807568871
  0
LWPOLYLINE
  5
1327
330
2
100
AcDbEntity
  8
0
100
AcDbPolyline
 90
        6
 70
     1
 43
0.0
 10
743.0987292876614
 20
238.8898457537174
 10
741.5987292876613
 20
239.7558711575015
 10
740.0987292876614
 20
238.8898457537174
 10
740.0987292876614
 20
237.1577949461483
 10
741.5987292876613
 20
236.2917695423643
 10
743.0987292876614
 20
237.1577949461483
  0
CIRCLE
  5
1328
330
2
100
AcDbEntity
  8
0
100
AcDbCircle
 10
741.5987292876613
 20
238.0238203499333
 30
0.0
 40
3.499999999999717
  0
CIRCLE
  5
1329
330
2
100
AcDbEntity
  8
0
100
AcDbCircle
 10
741.5987292876613
 20
238.0238203499333
 30
0.0
 40
2.980384757729353
  0
CIRCLE
  5
132A
330
2
100
AcDbEntity
  8
0
100
AcDbCircle
 10
692.8083613857896
 20
238.0238203499333
 30
0.0
 40
1.732050807568871
  0
LWPOLYLINE
  5
132B
330
2
100
AcDbEntity
  8
0
100
AcDbPolyline
 90
        6
 70
     1
 43
0.0
 10
694.3083613857895
 20
238.8898457537174
 10
692.8083613857896
 20
239.7558711575015
 10
691.3083613857895
 20
238.8898457537174
 10
691.3083613857895
 20
237.1577949461483
 10
692.8083613857896
 20
236.2917695423643
 10
694.3083613857895
 20
237.1577949461483
  0
CIRCLE
  5
132C
330
2
100
AcDbEntity
  8
0
100
AcDbCircle
 10
692.8083613857896
 20
238.0238203499333
 30
0.0
 40
3.499999999999717
  0
CIRCLE
  5
132D
330
2
100
AcDbEntity
  8
0
100
AcDbCircle
 10
692.8083613857896
 20
238.0238203499333
 30
0.0
 40
2.980384757729353
  0
LINE
  5
132E
330
2
100
AcDbEntity
  8
HIDS
100
AcDbLine
 10
713.2035453367259
 20
273.9975404777782
 30
0.0
 11
713.2035453367259
 21
267.4190043008688
 31
0.0
  0
LINE
  5
132F
330
2
100
AcDbEntity
  8
0
100
AcDbLine
 10
729.4305645973634
 20
261.6690043008688
 30
0.0
 11
721.1326037481009
 21
261.6690043008688
 31
0.0
  0
LINE
  5
1330
330
2
100
AcDbEntity
  8
0
100
AcDbLine
 10
721.1326037481009
 20
263.1690043008688
 30
0.0
 11
729.4305645973634
 21
263.1690043008688
 31
0.0
  0
LINE
  5
1331
330
2
100
AcDbEntity
  8
HIDS
100
AcDbLine
 10
707.2035453367259
 20
261.6690043008688
 30
0.0
 11
707.2035453367259
 21
255.3435184518261
 31
0.0
  0
LINE
  5
1332
330
2
100
AcDbEntity
  8
HIDS
100
AcDbLine
 10
711.2035453367259
 20
261.6690043008688
 30
0.0
 11
711.2035453367259
 21
251.7389996192218
 31
0.0
  0
LINE
  5
1333
330
2
100
AcDbEntity
  8
HIDS
100
AcDbLine
 10
706.020410713553
 20
267.4190043008688
 30
0.0
 11
713.2035453367259
 21
267.4190043008688
 31
0.0
  0
LINE
  5
1334
330
2
100
AcDbEntity
  8
0
100
AcDbLine
 10
704.9765260760884
 20
263.1690043008688
 30
0.0
 11
713.27448692535
 21
263.1690043008688
 31
0.0
  0
LINE
  5
1335
330
2
100
AcDbEntity
  8
0
100
AcDbLine
 10
704.9765260760884
 20
261.6690043008688
 30
0.0
 11
713.27448692535
 21
261.6690043008688
 31
0.0
  0
LINE
  5
1336
330
2
100
AcDbEntity
  8
HIDS
100
AcDbLine
 10
711.7035453367259
 20
267.4190043008688
 30
0.0
 11
711.7035453367259
 21
263.1690043008688
 31
0.0
  0
LINE
  5
1337
330
2
100
AcDbEntity
  8
HIDS
100
AcDbLine
 10
706.7035453367259
 20
267.4190043008688
 30
0.0
 11
706.7035453367259
 21
263.1690043008688
 31
0.0
  0
LINE
  5
1338
330
2
100
AcDbEntity
  8
HIDS
100
AcDbLine
 10
712.1839300944555
 20
271.4190043008688
 30
0.0
 11
708.8931602674281
 21
271.4190043008688
 31
0.0
  0
LINE
  5
1339
330
2
100
AcDbEntity
  8
0
100
AcDbLine
 10
705.7035453367259
 20
271.1190043008686
 30
0.0
 11
708.5795961253722
 21
271.1190043008686
 31
0.0
  0
LINE
  5
133A
330
2
100
AcDbEntity
  8
0
100
AcDbLine
 10
705.7035453367259
 20
267.4190043008688
 30
0.0
 11
706.020410713553
 21
267.4190043008688
 31
0.0
  0
LINE
  5
133B
330
2
100
AcDbEntity
  8
0
100
AcDbLine
 10
705.7035453367259
 20
271.1190043008686
 30
0.0
 11
706.2231605789963
 21
271.4190043008688
 31
0.0
  0
LINE
  5
133C
330
2
100
AcDbEntity
  8
0
100
AcDbLine
 10
705.7035453367259
 20
271.1190043008686
 30
0.0
 11
705.7035453367259
 21
267.4190043008688
 31
0.0
  0
LINE
  5
133D
330
2
100
AcDbEntity
  8
HIDS
100
AcDbLine
 10
712.1839300944555
 20
271.4190043008688
 30
0.0
 11
712.7035453367259
 21
271.1190043008686
 31
0.0
  0
LINE
  5
133E
330
2
100
AcDbEntity
  8
HIDS
100
AcDbLine
 10
712.7035453367259
 20
267.4190043008688
 30
0.0
 11
712.7035453367259
 21
271.1190043008686
 31
0.0
  0
LINE
  5
133F
330
2
100
AcDbEntity
  8
HIDS
100
AcDbLine
 10
708.5795961253722
 20
271.1190043008686
 30
0.0
 11
712.7035453367259
 21
271.1190043008686
 31
0.0
  0
LINE
  5
1340
330
2
100
AcDbEntity
  8
0
100
AcDbLine
 10
708.8931602674281
 20
271.4190043008688
 30
0.0
 11
706.2231605789963
 21
271.4190043008688
 31
0.0
  0
LINE
  5
1341
330
2
100
AcDbEntity
  8
HIDS
100
AcDbLine
 10
706.020410713553
 20
267.4190043008688
 30
0.0
 11
712.7035453367259
 21
267.4190043008688
 31
0.0
  0
LINE
  5
1342
330
2
100
AcDbEntity
  8
HIDS
100
AcDbLine
 10
707.2035453367259
 20
267.4190043008688
 30
0.0
 11
707.2035453367259
 21
263.1690043008688
 31
0.0
  0
LINE
  5
1343
330
2
100
AcDbEntity
  8
HIDS
100
AcDbLine
 10
711.2035453367259
 20
267.4190043008688
 30
0.0
 11
711.2035453367259
 21
263.1690043008688
 31
0.0
  0
LINE
  5
1344
330
2
100
AcDbEntity
  8
HIDS
100
AcDbLine
 10
711.2035453367259
 20
267.4190043008688
 30
0.0
 11
710.8702120033919
 21
265.7523376342027
 31
0.0
  0
LINE
  5
1345
330
2
100
AcDbEntity
  8
HIDS
100
AcDbLine
 10
707.2035453367259
 20
267.4190043008688
 30
0.0
 11
707.536878670059
 21
265.7523376342027
 31
0.0
  0
LINE
  5
1346
330
2
100
AcDbEntity
  8
0
100
AcDbLine
 10
708.0035453367251
 20
252.4190043008688
 30
0.0
 11
710.1280594876823
 21
252.4190043008688
 31
0.0
  0
LINE
  5
1347
330
2
100
AcDbEntity
  8
0
100
AcDbLine
 10
707.2035453367259
 20
253.219004300869
 30
0.0
 11
709.1151276917223
 21
253.219004300869
 31
0.0
  0
LINE
  5
1348
330
2
100
AcDbEntity
  8
HIDS
100
AcDbLine
 10
711.2035453367259
 20
265.7523376342027
 30
0.0
 11
707.2035453367259
 21
265.7523376342027
 31
0.0
  0
LINE
  5
1349
330
2
100
AcDbEntity
  8
HIDS
100
AcDbLine
 10
707.536878670059
 20
265.7523376342027
 30
0.0
 11
707.536878670059
 21
263.1690043008688
 31
0.0
  0
LINE
  5
134A
330
2
100
AcDbEntity
  8
0
100
AcDbLine
 10
707.2035453367259
 20
253.219004300869
 30
0.0
 11
708.0035453367251
 21
252.4190043008688
 31
0.0
  0
LINE
  5
134B
330
2
100
AcDbEntity
  8
HIDS
100
AcDbLine
 10
710.8702120033919
 20
265.7523376342027
 30
0.0
 11
710.8702120033919
 21
263.1690043008688
 31
0.0
  0
LINE
  5
134C
330
2
100
AcDbEntity
  8
HIDS
100
AcDbLine
 10
711.2035453367259
 20
253.219004300869
 30
0.0
 11
709.2035453367259
 21
253.219004300869
 31
0.0
  0
LINE
  5
134D
330
2
100
AcDbEntity
  8
0
100
AcDbLine
 10
710.4035453367258
 20
252.4190043008688
 30
0.0
 11
710.1280594876823
 21
252.4190043008688
 31
0.0
  0
LINE
  5
134E
330
2
100
AcDbEntity
  8
HIDS
100
AcDbLine
 10
711.2035453367259
 20
253.219004300869
 30
0.0
 11
710.4035453367258
 21
252.4190043008688
 31
0.0
  0
LINE
  5
134F
330
2
100
AcDbEntity
  8
0
100
AcDbLine
 10
711.2035453367259
 20
263.1690043008688
 30
0.0
 11
711.2035453367259
 21
261.6690043008688
 31
0.0
  0
LINE
  5
1350
330
2
100
AcDbEntity
  8
HOJO
100
AcDbLine
 10
710.8702120033919
 20
263.1690043008688
 30
0.0
 11
710.8702120033919
 21
261.6690043008688
 31
0.0
  0
LINE
  5
1351
330
2
100
AcDbEntity
  8
HOJO
100
AcDbLine
 10
707.536878670059
 20
263.1690043008688
 30
0.0
 11
707.536878670059
 21
261.6690043008688
 31
0.0
  0
LINE
  5
1352
330
2
100
AcDbEntity
  8
0
100
AcDbLine
 10
707.2035453367259
 20
263.1690043008688
 30
0.0
 11
707.2035453367259
 21
261.6690043008688
 31
0.0
  0
LINE
  5
1353
330
2
100
AcDbEntity
  8
HIDS
100
AcDbLine
 10
707.536878670059
 20
261.6690043008688
 30
0.0
 11
707.536878670059
 21
254.8945072707969
 31
0.0
  0
LINE
  5
1354
330
2
100
AcDbEntity
  8
HIDS
100
AcDbLine
 10
707.2035453367259
 20
261.6690043008688
 30
0.0
 11
707.2035453367259
 21
255.3435184518261
 31
0.0
  0
LINE
  5
1355
330
2
100
AcDbEntity
  8
HIDS
100
AcDbLine
 10
710.8702120033919
 20
261.6690043008688
 30
0.0
 11
710.8702120033919
 21
252.885670967536
 31
0.0
  0
LINE
  5
1356
330
2
100
AcDbEntity
  8
HIDS
100
AcDbLine
 10
711.2035453367259
 20
261.6690043008688
 30
0.0
 11
711.2035453367259
 21
253.219004300869
 31
0.0
  0
LINE
  5
1357
330
2
100
AcDbEntity
  8
0
100
AcDbLine
 10
709.1151276917223
 20
253.219004300869
 30
0.0
 11
709.2035453367259
 21
253.219004300869
 31
0.0
  0
LINE
  5
1358
330
2
100
AcDbEntity
  8
HOJO
100
AcDbLine
 10
707.536878670059
 20
254.8945072707969
 30
0.0
 11
707.536878670059
 21
252.885670967536
 31
0.0
  0
LINE
  5
1359
330
2
100
AcDbEntity
  8
0
100
AcDbLine
 10
707.2035453367259
 20
255.3435184518261
 30
0.0
 11
707.2035453367259
 21
253.219004300869
 31
0.0
  0
LINE
  5
135A
330
2
100
AcDbEntity
  8
0
100
AcDbLine
 10
718.2035453367259
 20
288.4190043008688
 30
0.0
 11
718.2035453367259
 21
288.4190043008688
 31
0.0
  0
LINE
  5
135C
330
2
100
AcDbEntity
  8
0
100
AcDbLine
 10
704.328545336725
 20
292.6651897527203
 30
0.0
 11
714.0785453367252
 21
292.6651897527203
 31
0.0
  0
ARC
  5
135D
330
2
100
AcDbEntity
  8
0
100
AcDbCircle
 10
704.328545336725
 20
288.4151897527203
 30
0.0
 40
4.25
100
AcDbArc
 50
90.0
 51
179.948574696702
  0
ARC
  5
135E
330
2
100
AcDbEntity
  8
0
100
AcDbCircle
 10
713.828545336725
 20
288.4151897527203
 30
0.0
 40
4.25
100
AcDbArc
 50
0.0
 51
90.0
  0
LINE
  5
135F
330
2
100
AcDbEntity
  8
0
100
AcDbLine
 10
46.41773954964469
 20
282.4190043008688
 30
0.0
 11
46.41773954964469
 21
242.4190043008688
 31
0.0
  0
LINE
  5
1360
330
2
100
AcDbEntity
  8
0
100
AcDbLine
 10
71.41778246002218
 20
288.8030164761334
 30
0.0
 11
51.38283473676915
 21
288.4533051627908
 31
0.0
  0
ARC
  5
1361
330
2
100
AcDbEntity
  8
0
100
AcDbCircle
 10
51.41773954964469
 20
286.4536097724771
 30
0.0
 40
2.0
100
AcDbArc
 50
90.99999999997569
 51
180.0
  0
ARC
  5
1362
330
2
100
AcDbEntity
  8
0
100
AcDbCircle
 10
47.41773954964469
 20
284.4367640218846
 30
0.0
 40
2.0
100
AcDbArc
 50
270.9999999999757
 51
0.0
  0
LINE
  5
1363
330
2
100
AcDbEntity
  8
0
100
AcDbLine
 10
46.41773954964469
 20
282.4190043008688
 30
0.0
 11
47.45264436251841
 21
282.4370686315718
 31
0.0
  0
LINE
  5
1364
330
2
100
AcDbEntity
  8
0
100
AcDbLine
 10
49.41773954964469
 20
286.4536097724771
 30
0.0
 11
49.41773954964469
 21
238.3843988292605
 31
0.0
  0
LINE
  5
1365
330
2
100
AcDbEntity
  8
0
100
AcDbLine
 10
84.41773954964469
 20
290.419004298284
 30
0.0
 11
77.40905592452349
 21
290.3578404429003
 31
0.0
  0
LINE
  5
1366
330
2
100
AcDbEntity
  8
0
100
AcDbLine
 10
84.41773954964469
 20
234.4190043034536
 30
0.0
 11
77.40901301136933
 21
234.4801685333345
 31
0.0
  0
LINE
  5
1367
330
2
100
AcDbEntity
  8
0
100
AcDbLine
 10
71.41778246002218
 20
236.0349921256042
 30
0.0
 11
51.38283473676915
 21
236.3847034389468
 31
0.0
  0
ARC
  5
1368
330
2
100
AcDbEntity
  8
0
100
AcDbCircle
 10
51.41773954964469
 20
238.3843988292605
 30
0.0
 40
2.0
100
AcDbArc
 50
180.0
 51
269.0000000000242
  0
ARC
  5
1369
330
2
100
AcDbEntity
  8
0
100
AcDbCircle
 10
47.41773954964469
 20
240.4012445798529
 30
0.0
 40
2.0
100
AcDbArc
 50
0.0
 51
89.0000000000243
  0
LINE
  5
136A
330
2
100
AcDbEntity
  8
0
100
AcDbLine
 10
46.41773954964469
 20
242.4190043008688
 30
0.0
 11
47.45264436251841
 21
242.4009399701657
 31
0.0
  0
ARC
  5
136B
330
2
100
AcDbEntity
  8
0
100
AcDbCircle
 10
77.41778246002127
 20
289.3578785198364
 30
0.0
 40
1.0
100
AcDbArc
 50
90.49999999996549
 51
180.0
  0
ARC
  5
136C
330
2
100
AcDbEntity
  8
0
100
AcDbCircle
 10
74.82252555851232
 20
290.8627511440694
 30
0.0
 40
2.0
100
AcDbArc
 50
322.9042291269399
 51
329.8924849549449
  0
ARC
  5
136D
330
2
100
AcDbEntity
  8
0
100
AcDbCircle
 10
77.41778246002127
 20
235.4801300819012
 30
0.0
 40
1.0
100
AcDbArc
 50
180.0
 51
269.5000000000345
  0
ARC
  5
136E
330
2
100
AcDbEntity
  8
0
100
AcDbCircle
 10
74.82252555851232
 20
233.9752574576682
 30
0.0
 40
2.0
100
AcDbArc
 50
30.1075150449967
 51
37.09577087306008
  0
LINE
  5
136F
330
2
100
AcDbEntity
  8
0
100
AcDbLine
 10
75.41778246002218
 20
290.3142384654906
 30
0.0
 11
76.41778246002218
 21
290.3142384654906
 31
0.0
  0
LINE
  5
1370
330
2
100
AcDbEntity
  8
0
100
AcDbLine
 10
76.41778246002218
 20
290.3142384654906
 30
0.0
 11
76.41778246002218
 21
283.3142384654906
 31
0.0
  0
LINE
  5
1371
330
2
100
AcDbEntity
  8
0
100
AcDbLine
 10
76.41778246002218
 20
283.3142384654906
 30
0.0
 11
75.41778246002218
 21
283.3142384654906
 31
0.0
  0
LINE
  5
1372
330
2
100
AcDbEntity
  8
0
100
AcDbLine
 10
75.41778246002218
 20
283.3142384654906
 30
0.0
 11
75.41778246002218
 21
290.3142384654906
 31
0.0
  0
LINE
  5
1373
330
2
100
AcDbEntity
  8
0
100
AcDbLine
 10
71.41778246002218
 20
289.7946232232192
 30
0.0
 11
71.41778246002218
 21
283.833853707761
 31
0.0
  0
LINE
  5
1374
330
2
100
AcDbEntity
  8
0
100
AcDbLine
 10
71.71778246002237
 20
283.3142384654906
 30
0.0
 11
71.71778246002237
 21
290.3142384654906
 31
0.0
  0
LINE
  5
1375
330
2
100
AcDbEntity
  8
0
100
AcDbLine
 10
71.71778246002237
 20
283.3142384654906
 30
0.0
 11
75.41778246002218
 21
283.3142384654906
 31
0.0
  0
LINE
  5
1376
330
2
100
AcDbEntity
  8
0
100
AcDbLine
 10
71.71778246002237
 20
283.3142384654906
 30
0.0
 11
71.41778246002218
 21
283.833853707761
 31
0.0
  0
LINE
  5
1377
330
2
100
AcDbEntity
  8
0
100
AcDbLine
 10
71.41778246002218
 20
289.7946232232192
 30
0.0
 11
71.71778246002237
 21
290.3142384654906
 31
0.0
  0
LINE
  5
1378
330
2
100
AcDbEntity
  8
0
100
AcDbLine
 10
75.41778246002218
 20
290.3142384654906
 30
0.0
 11
71.71778246002237
 21
290.3142384654906
 31
0.0
  0
LINE
  5
1379
330
2
100
AcDbEntity
  8
0
100
AcDbLine
 10
75.41778246002218
 20
234.523770136247
 30
0.0
 11
76.41778246002218
 21
234.523770136247
 31
0.0
  0
LINE
  5
137A
330
2
100
AcDbEntity
  8
0
100
AcDbLine
 10
76.41778246002218
 20
241.523770136247
 30
0.0
 11
75.41778246002218
 21
241.523770136247
 31
0.0
  0
LINE
  5
137B
330
2
100
AcDbEntity
  8
0
100
AcDbLine
 10
75.41778246002218
 20
241.523770136247
 30
0.0
 11
75.41778246002218
 21
234.523770136247
 31
0.0
  0
LINE
  5
137C
330
2
100
AcDbEntity
  8
0
100
AcDbLine
 10
71.41778246002218
 20
235.0433853785184
 30
0.0
 11
71.41778246002218
 21
241.0041548939765
 31
0.0
  0
LINE
  5
137D
330
2
100
AcDbEntity
  8
0
100
AcDbLine
 10
71.71778246002237
 20
241.523770136247
 30
0.0
 11
71.71778246002237
 21
234.523770136247
 31
0.0
  0
LINE
  5
137E
330
2
100
AcDbEntity
  8
0
100
AcDbLine
 10
71.71778246002237
 20
241.523770136247
 30
0.0
 11
75.41778246002218
 21
241.523770136247
 31
0.0
  0
LINE
  5
137F
330
2
100
AcDbEntity
  8
0
100
AcDbLine
 10
71.71778246002237
 20
241.523770136247
 30
0.0
 11
71.41778246002218
 21
241.0041548939765
 31
0.0
  0
LINE
  5
1380
330
2
100
AcDbEntity
  8
0
100
AcDbLine
 10
71.41778246002218
 20
235.0433853785184
 30
0.0
 11
71.71778246002237
 21
234.523770136247
 31
0.0
  0
LINE
  5
1381
330
2
100
AcDbEntity
  8
0
100
AcDbLine
 10
75.41778246002218
 20
234.523770136247
 30
0.0
 11
71.71778246002237
 21
234.523770136247
 31
0.0
  0
LINE
  5
1382
330
2
100
AcDbEntity
  8
0
100
AcDbLine
 10
76.41778246002218
 20
234.523770136247
 30
0.0
 11
76.41778246002218
 21
241.523770136247
 31
0.0
  0
LINE
  5
1383
330
2
100
AcDbEntity
  8
0
100
AcDbLine
 10
76.41778246002127
 20
235.4801300819012
 30
0.0
 11
76.41778246002127
 21
289.3578785198364
 31
0.0
  0
LINE
  5
1384
330
2
100
AcDbEntity
  8
0
100
AcDbLine
 10
53.48835325167079
 20
292.490665688348
 30
0.0
 11
63.48683020323574
 21
292.6651897527203
 31
0.0
  0
ARC
  5
1385
330
2
100
AcDbEntity
  8
0
100
AcDbCircle
 10
63.556639828985
 20
288.6657989720946
 30
0.0
 40
3.999999999999995
100
AcDbArc
 50
1.000000000001775
 51
90.99999999997569
  0
LINE
  5
1386
330
2
100
AcDbEntity
  8
0
100
AcDbLine
 10
67.55603060960971
 20
288.7356085978439
 30
0.0
 11
49.55877209679442
 21
288.4214652819732
 31
0.0
  0
LINE
  5
1387
330
2
100
AcDbEntity
  8
0
100
AcDbLine
 10
49.55877209679442
 20
288.4214652819732
 30
0.0
 11
49.55877209679442
 21
288.4214652819732
 31
0.0
  0
ARC
  5
1388
330
2
100
AcDbEntity
  8
0
100
AcDbCircle
 10
53.55816287742005
 20
288.4912749077224
 30
0.0
 40
3.999999999999995
100
AcDbArc
 50
90.99999999997569
 51
181.0000000000017
  0
LINE
  5
1389
330
2
100
AcDbEntity
  8
0
100
AcDbLine
 10
75.41778246002127
 20
242.2943925033709
 30
0.0
 11
50.41869147467355
 21
242.5125562652887
 31
0.0
  0
LINE
  5
138A
330
2
100
AcDbEntity
  8
CENTER
  6
CENS
100
AcDbLine
 10
66.41778246002218
 20
286.8142384654906
 30
0.0
 11
89.41773954964469
 21
286.8142384654906
 31
0.0
  0
LINE
  5
138B
330
2
100
AcDbEntity
  8
CENTER
  6
CENS
100
AcDbLine
 10
66.41778246002218
 20
238.023770136247
 30
0.0
 11
89.41773954964469
 21
238.023770136247
 31
0.0
  0
CIRCLE
  5
138C
330
2
100
AcDbEntity
  8
CENTER
100
AcDbCircle
 10
717.203545336725
 20
262.4190043008688
 30
0.0
 40
23.0
  0
CIRCLE
  5
138D
330
2
100
AcDbEntity
  8
0
100
AcDbCircle
 10
733.4670013040156
 20
278.6824602681603
 30
0.0
 40
1.6
  0
CIRCLE
  5
138E
330
2
100
AcDbEntity
  8
HOJO
100
AcDbCircle
 10
733.4670013040156
 20
278.6824602681603
 30
0.0
 40
2.0
  0
LINE
  5
138F
330
2
100
AcDbEntity
  8
CENTER
100
AcDbLine
 10
737.969208439337
 20
278.6824602681603
 30
0.0
 11
728.9647941686942
 21
278.6824602681603
 31
0.0
  0
CIRCLE
  5
1390
330
2
100
AcDbEntity
  8
0
100
AcDbCircle
 10
700.9400893694353
 20
278.6824602681603
 30
0.0
 40
1.6
  0
LINE
  5
1391
330
2
100
AcDbEntity
  8
CENTER
100
AcDbLine
 10
700.9400893694353
 20
283.1846674034817
 30
0.0
 11
700.9400893694353
 21
274.180253132838
 31
0.0
  0
CIRCLE
  5
1392
330
2
100
AcDbEntity
  8
HOJO
100
AcDbCircle
 10
700.9400893694353
 20
278.6824602681603
 30
0.0
 40
2.0
  0
LINE
  5
1393
330
2
100
AcDbEntity
  8
CENTER
100
AcDbLine
 10
696.437882234113
 20
278.6824602681603
 30
0.0
 11
705.4422965047567
 21
278.6824602681603
 31
0.0
  0
LINE
  5
1394
330
2
100
AcDbEntity
  8
CENTER
100
AcDbLine
 10
733.4670013040156
 20
283.1846674034817
 30
0.0
 11
733.4670013040156
 21
274.180253132838
 31
0.0
  0
LINE
  5
1395
330
2
100
AcDbEntity
  8
CENTER
100
AcDbLine
 10
737.969208439337
 20
246.1555483335773
 30
0.0
 11
728.9647941686942
 21
246.1555483335773
 31
0.0
  0
CIRCLE
  5
1396
330
2
100
AcDbEntity
  8
0
100
AcDbCircle
 10
733.4670013040156
 20
246.1555483335773
 30
0.0
 40
1.6
  0
CIRCLE
  5
1397
330
2
100
AcDbEntity
  8
HOJO
100
AcDbCircle
 10
733.4670013040156
 20
246.1555483335773
 30
0.0
 40
2.0
  0
LINE
  5
1398
330
2
100
AcDbEntity
  8
CENTER
100
AcDbLine
 10
696.437882234113
 20
246.1555483335773
 30
0.0
 11
705.4422965047567
 21
246.1555483335773
 31
0.0
  0
CIRCLE
  5
1399
330
2
100
AcDbEntity
  8
HOJO
100
AcDbCircle
 10
700.9400893694353
 20
246.1555483335773
 30
0.0
 40
2.0
  0
LINE
  5
139A
330
2
100
AcDbEntity
  8
CENTER
100
AcDbLine
 10
700.9400893694353
 20
241.6533411982558
 30
0.0
 11
700.9400893694353
 21
250.6577554688996
 31
0.0
  0
CIRCLE
  5
139B
330
2
100
AcDbEntity
  8
0
100
AcDbCircle
 10
700.9400893694353
 20
246.1555483335773
 30
0.0
 40
1.6
  0
LINE
  5
139C
330
2
100
AcDbEntity
  8
CENTER
100
AcDbLine
 10
733.4670013040156
 20
241.6533411982558
 30
0.0
 11
733.4670013040156
 21
250.6577554688996
 31
0.0
  0
LINE
  5
139D
330
2
100
AcDbEntity
  8
CENTER
  6
CENS
100
AcDbLine
 10
709.203545336725
 20
297.8458714833754
 30
0.0
 11
709.203545336725
 21
250.2024394858321
 31
0.0
  0
LINE
  5
139E
330
2
100
AcDbEntity
  8
CENTER
  6
CENS
100
AcDbLine
 10
58.4177395496447
 20
297.8458714833754
 30
0.0
 11
58.4177395496447
 21
275.7916108167732
 31
0.0
  0
LINE
  5
139F
330
2
100
AcDbEntity
  8
0
100
AcDbLine
 10
585.4503890169041
 20
282.4190043008688
 30
0.0
 11
585.4503890169041
 21
242.4190043008688
 31
0.0
  0
LINE
  5
13A0
330
2
100
AcDbEntity
  8
0
100
AcDbLine
 10
560.4503461065267
 20
288.8030164761334
 30
0.0
 11
580.4852938297797
 21
288.4533051627908
 31
0.0
  0
ARC
  5
13A1
330
2
100
AcDbEntity
  8
0
100
AcDbCircle
 10
580.4503890169042
 20
286.4536097724771
 30
0.0
 40
2.0
100
AcDbArc
 50
0.0
 51
89.0000000000243
  0
ARC
  5
13A2
330
2
100
AcDbEntity
  8
0
100
AcDbCircle
 10
584.4503890169042
 20
284.4367640218846
 30
0.0
 40
2.0
100
AcDbArc
 50
180.0
 51
269.0000000000242
  0
LINE
  5
13A3
330
2
100
AcDbEntity
  8
0
100
AcDbLine
 10
585.4503890169041
 20
282.4190043008688
 30
0.0
 11
584.4154842040304
 21
282.4370686315718
 31
0.0
  0
LINE
  5
13A4
330
2
100
AcDbEntity
  8
0
100
AcDbLine
 10
582.4503890169041
 20
286.4536097724771
 30
0.0
 11
582.4503890169041
 21
279.5842043167244
 31
0.0
  0
LINE
  5
13A5
330
2
100
AcDbEntity
  8
0
100
AcDbLine
 10
582.4503890169041
 20
262.4190043008688
 30
0.0
 11
582.4503890169041
 21
238.3843988292605
 31
0.0
  0
LINE
  5
13A6
330
2
100
AcDbEntity
  8
0
100
AcDbLine
 10
547.4503890169041
 20
290.419004298284
 30
0.0
 11
554.4590726420254
 21
290.3578404429003
 31
0.0
  0
LINE
  5
13A7
330
2
100
AcDbEntity
  8
0
100
AcDbLine
 10
547.4503890169041
 20
234.4190043034536
 30
0.0
 11
554.4591155551795
 21
234.4801685333345
 31
0.0
  0
LINE
  5
13A8
330
2
100
AcDbEntity
  8
0
100
AcDbLine
 10
560.4503461065267
 20
236.0349921256042
 30
0.0
 11
580.4852938297797
 21
236.3847034389468
 31
0.0
  0
ARC
  5
13A9
330
2
100
AcDbEntity
  8
0
100
AcDbCircle
 10
580.4503890169042
 20
238.3843988292605
 30
0.0
 40
2.0
100
AcDbArc
 50
270.9999999999757
 51
0.0
  0
ARC
  5
13AA
330
2
100
AcDbEntity
  8
0
100
AcDbCircle
 10
584.4503890169042
 20
240.4012445798529
 30
0.0
 40
2.0
100
AcDbArc
 50
90.99999999997569
 51
180.0
  0
LINE
  5
13AB
330
2
100
AcDbEntity
  8
0
100
AcDbLine
 10
585.4503890169041
 20
242.4190043008688
 30
0.0
 11
584.4154842040304
 21
242.4009399701657
 31
0.0
  0
LINE
  5
13AC
330
2
100
AcDbEntity
  8
0
100
AcDbLine
 10
555.4503461065276
 20
289.3578785198364
 30
0.0
 11
555.4503461065276
 21
267.6167475184951
 31
0.0
  0
ARC
  5
13AD
330
2
100
AcDbEntity
  8
0
100
AcDbCircle
 10
554.4503461065276
 20
289.3578785198364
 30
0.0
 40
1.0
100
AcDbArc
 50
0.0
 51
89.5000000000345
  0
ARC
  5
13AE
330
2
100
AcDbEntity
  8
0
100
AcDbCircle
 10
557.0456030080365
 20
290.8627511440694
 30
0.0
 40
2.0
100
AcDbArc
 50
210.107515045055
 51
217.0957708730601
  0
ARC
  5
13AF
330
2
100
AcDbEntity
  8
0
100
AcDbCircle
 10
554.4503461065276
 20
235.4801300819012
 30
0.0
 40
1.0
100
AcDbArc
 50
270.4999999999654
 51
0.0
  0
ARC
  5
13B0
330
2
100
AcDbEntity
  8
0
100
AcDbCircle
 10
557.0456030080365
 20
233.9752574576682
 30
0.0
 40
2.0
100
AcDbArc
 50
142.9042291269398
 51
149.8924849550032
  0
LINE
  5
13B1
330
2
100
AcDbEntity
  8
0
100
AcDbLine
 10
556.4503461065267
 20
290.3142384654906
 30
0.0
 11
555.4503461065267
 21
290.3142384654906
 31
0.0
  0
LINE
  5
13B2
330
2
100
AcDbEntity
  8
0
100
AcDbLine
 10
555.4503461065267
 20
290.3142384654906
 30
0.0
 11
555.4503461065267
 21
283.3142384654906
 31
0.0
  0
LINE
  5
13B3
330
2
100
AcDbEntity
  8
0
100
AcDbLine
 10
555.4503461065267
 20
283.3142384654906
 30
0.0
 11
556.4503461065267
 21
283.3142384654906
 31
0.0
  0
LINE
  5
13B4
330
2
100
AcDbEntity
  8
0
100
AcDbLine
 10
556.4503461065267
 20
283.3142384654906
 30
0.0
 11
556.4503461065267
 21
290.3142384654906
 31
0.0
  0
LINE
  5
13B5
330
2
100
AcDbEntity
  8
0
100
AcDbLine
 10
560.4503461065267
 20
289.7946232232192
 30
0.0
 11
560.4503461065267
 21
283.833853707761
 31
0.0
  0
LINE
  5
13B6
330
2
100
AcDbEntity
  8
0
100
AcDbLine
 10
560.1503461065265
 20
283.3142384654906
 30
0.0
 11
560.1503461065265
 21
290.3142384654906
 31
0.0
  0
LINE
  5
13B7
330
2
100
AcDbEntity
  8
0
100
AcDbLine
 10
560.1503461065265
 20
283.3142384654906
 30
0.0
 11
556.4503461065267
 21
283.3142384654906
 31
0.0
  0
LINE
  5
13B8
330
2
100
AcDbEntity
  8
0
100
AcDbLine
 10
560.1503461065265
 20
283.3142384654906
 30
0.0
 11
560.4503461065267
 21
283.833853707761
 31
0.0
  0
LINE
  5
13B9
330
2
100
AcDbEntity
  8
0
100
AcDbLine
 10
560.4503461065267
 20
289.7946232232192
 30
0.0
 11
560.1503461065265
 21
290.3142384654906
 31
0.0
  0
LINE
  5
13BA
330
2
100
AcDbEntity
  8
0
100
AcDbLine
 10
556.4503461065267
 20
290.3142384654906
 30
0.0
 11
560.1503461065265
 21
290.3142384654906
 31
0.0
  0
LINE
  5
13BB
330
2
100
AcDbEntity
  8
0
100
AcDbLine
 10
556.4503461065267
 20
234.523770136247
 30
0.0
 11
555.4503461065267
 21
234.523770136247
 31
0.0
  0
LINE
  5
13BC
330
2
100
AcDbEntity
  8
0
100
AcDbLine
 10
555.4503461065267
 20
241.523770136247
 30
0.0
 11
556.4503461065267
 21
241.523770136247
 31
0.0
  0
LINE
  5
13BD
330
2
100
AcDbEntity
  8
0
100
AcDbLine
 10
556.4503461065267
 20
241.523770136247
 30
0.0
 11
556.4503461065267
 21
234.523770136247
 31
0.0
  0
LINE
  5
13BE
330
2
100
AcDbEntity
  8
0
100
AcDbLine
 10
560.4503461065267
 20
235.0433853785184
 30
0.0
 11
560.4503461065267
 21
241.0041548939765
 31
0.0
  0
LINE
  5
13BF
330
2
100
AcDbEntity
  8
0
100
AcDbLine
 10
560.1503461065265
 20
241.523770136247
 30
0.0
 11
560.1503461065265
 21
234.523770136247
 31
0.0
  0
LINE
  5
13C0
330
2
100
AcDbEntity
  8
0
100
AcDbLine
 10
560.1503461065265
 20
241.523770136247
 30
0.0
 11
556.4503461065267
 21
241.523770136247
 31
0.0
  0
LINE
  5
13C1
330
2
100
AcDbEntity
  8
0
100
AcDbLine
 10
560.1503461065265
 20
241.523770136247
 30
0.0
 11
560.4503461065267
 21
241.0041548939765
 31
0.0
  0
LINE
  5
13C2
330
2
100
AcDbEntity
  8
0
100
AcDbLine
 10
560.4503461065267
 20
235.0433853785184
 30
0.0
 11
560.1503461065265
 21
234.523770136247
 31
0.0
  0
LINE
  5
13C3
330
2
100
AcDbEntity
  8
0
100
AcDbLine
 10
556.4503461065267
 20
234.523770136247
 30
0.0
 11
560.1503461065265
 21
234.523770136247
 31
0.0
  0
LINE
  5
13C4
330
2
100
AcDbEntity
  8
0
100
AcDbLine
 10
555.4503461065267
 20
234.523770136247
 30
0.0
 11
555.4503461065267
 21
241.523770136247
 31
0.0
  0
LINE
  5
13C5
330
2
100
AcDbEntity
  8
0
100
AcDbLine
 10
581.4503890169041
 20
277.5517158139177
 30
0.0
 11
581.4503890169041
 21
262.4190043008688
 31
0.0
  0
LINE
  5
13C6
330
2
100
AcDbEntity
  8
0
100
AcDbLine
 10
585.4503890169041
 20
277.4190043008688
 30
0.0
 11
581.4503746896959
 21
277.4190043008688
 31
0.0
  0
ARC
  5
13C7
330
2
100
AcDbEntity
  8
0
100
AcDbCircle
 10
579.4503890169042
 20
277.5386228531328
 30
0.0
 40
2.0
100
AcDbArc
 50
0.0
 51
52.22196899348834
  0
LINE
  5
13C8
330
2
100
AcDbEntity
  8
0
100
AcDbLine
 10
568.9503890169041
 20
266.4190043008688
 30
0.0
 11
579.9503890169042
 21
266.4190043008688
 31
0.0
  0
LINE
  5
13C9
330
2
100
AcDbEntity
  8
0
100
AcDbLine
 10
568.9503890169041
 20
262.4190043008688
 30
0.0
 11
568.9503890169041
 21
270.8697951686549
 31
0.0
  0
LINE
  5
13CA
330
2
100
AcDbEntity
  8
0
100
AcDbLine
 10
575.5069508446238
 20
274.6690043008688
 30
0.0
 11
580.9503890169041
 21
274.6690043008688
 31
0.0
  0
LINE
  5
13CB
330
2
100
AcDbEntity
  8
0
100
AcDbLine
 10
580.9503890169041
 20
274.6690043008688
 30
0.0
 11
580.9503890169041
 21
262.4190043008688
 31
0.0
  0
LINE
  5
13CC
330
2
100
AcDbEntity
  8
0
100
AcDbLine
 10
579.9503890169042
 20
266.4190043008688
 30
0.0
 11
580.9503890169041
 21
266.9963545700588
 31
0.0
  0
LINE
  5
13CD
330
2
100
AcDbEntity
  8
0
100
AcDbLine
 10
566.9503890169042
 20
270.761929814565
 30
0.0
 11
566.9503890169042
 21
262.4190043008688
 31
0.0
  0
LINE
  5
13CE
330
2
100
AcDbEntity
  8
0
100
AcDbLine
 10
560.4503890169041
 20
266.4190043008688
 30
0.0
 11
566.9503890169042
 21
266.4190043008688
 31
0.0
  0
LINE
  5
13CF
330
2
100
AcDbEntity
  8
0
100
AcDbLine
 10
562.4503890169042
 20
266.4190043008688
 30
0.0
 11
566.9503890169042
 21
266.4190043008688
 31
0.0
  0
LINE
  5
13D0
330
2
100
AcDbEntity
  8
0
100
AcDbLine
 10
556.9503890169041
 20
265.4190043008688
 30
0.0
 11
555.2183382093359
 21
262.4190043008688
 31
0.0
  0
LINE
  5
13D1
330
2
100
AcDbEntity
  8
0
100
AcDbLine
 10
556.9503890169041
 20
266.6690043008688
 30
0.0
 11
556.9503890169041
 21
262.4190043008688
 31
0.0
  0
LINE
  5
13D2
330
2
100
AcDbEntity
  8
0
100
AcDbLine
 10
560.4503890169041
 20
266.4190043008688
 30
0.0
 11
560.4503890169041
 21
262.4190043008688
 31
0.0
  0
LINE
  5
13D3
330
2
100
AcDbEntity
  8
0
100
AcDbLine
 10
560.4503890169041
 20
266.6690043008688
 30
0.0
 11
556.9503890169041
 21
266.6690043008688
 31
0.0
  0
LINE
  5
13D4
330
2
100
AcDbEntity
  8
0
100
AcDbLine
 10
560.4503890169041
 20
266.4190043008688
 30
0.0
 11
560.4503890169041
 21
266.6690043008688
 31
0.0
  0
SPLINE
  5
13D5
330
2
100
AcDbEntity
  8
HOJO
100
AcDbSpline
210
0.0
220
0.0
230
1.0
 70
     8
 71
     3
 72
    16
 73
    12
 74
     0
 42
0.0000000001
 43
0.0000000001
 40
1.229586671925319
 40
1.229586671925319
 40
1.229586671925319
 40
1.229586671925319
 40
9.059721493801909
 40
14.01454332224558
 40
17.68854249089321
 40
25.49282471102274
 40
30.81266567978604
 40
35.19147887412627
 40
39.07871238777226
 40
41.42088313435808
 40
41.93957356983536
 40
41.93957356983536
 40
41.93957356983536
 40
41.93957356983536
 10
585.4503890169123
 20
279.9911669777697
 30
0.0
 10
582.6402496059261
 20
279.7239766894248
 30
0.0
 10
578.2316318245782
 20
279.0248527965299
 30
0.0
 10
575.3399850419407
 20
274.0537306820055
 30
0.0
 10
571.0004844450038
 20
270.3689578395573
 30
0.0
 10
564.9669893068246
 20
271.133793841956
 30
0.0
 10
559.2950078217661
 20
269.589263329743
 30
0.0
 10
555.2946891009922
 20
267.5996892306169
 30
0.0
 10
552.0785932315318
 20
265.6441483910488
 30
0.0
 10
551.3780218918498
 20
263.4343378652542
 30
0.0
 10
550.959182425581
 20
262.5731963015891
 30
0.0
 10
550.880126032356
 20
262.4190043008688
 30
0.0
  0
LINE
  5
13D6
330
2
100
AcDbEntity
  8
0
100
AcDbLine
 10
555.4503461065276
 20
235.4801300819012
 30
0.0
 11
555.4503461065276
 21
262.4190043008688
 31
0.0
  0
LINE
  5
13D7
330
2
100
AcDbEntity
  8
0
100
AcDbLine
 10
579.9503890169042
 20
266.4190043008688
 30
0.0
 11
579.9503890169042
 21
262.4190043008688
 31
0.0
  0
LINE
  5
13D8
330
2
100
AcDbEntity
  8
0
100
AcDbLine
 10
578.3797753148781
 20
292.490665688348
 30
0.0
 11
568.3812983633131
 21
292.6651897527203
 31
0.0
  0
ARC
  5
13D9
330
2
100
AcDbEntity
  8
0
100
AcDbCircle
 10
568.3114887375638
 20
288.6657989720946
 30
0.0
 40
3.999999999999995
100
AcDbArc
 50
89.0000000000243
 51
178.9999999999982
  0
LINE
  5
13DA
330
2
100
AcDbEntity
  8
0
100
AcDbLine
 10
564.3120979569391
 20
288.7356085978439
 30
0.0
 11
582.3093564697544
 21
288.4214652819732
 31
0.0
  0
LINE
  5
13DB
330
2
100
AcDbEntity
  8
0
100
AcDbLine
 10
582.3093564697544
 20
288.4214652819732
 30
0.0
 11
582.3093564697544
 21
288.4214652819732
 31
0.0
  0
ARC
  5
13DC
330
2
100
AcDbEntity
  8
0
100
AcDbCircle
 10
578.3099656891288
 20
288.4912749077224
 30
0.0
 40
3.999999999999995
100
AcDbArc
 50
358.9999999999982
 51
89.0000000000243
  0
LINE
  5
13DD
330
2
100
AcDbEntity
  8
CENTER
  6
CENS
100
AcDbLine
 10
565.4503461065266
 20
286.8142384654906
 30
0.0
 11
542.4503890169042
 21
286.8142384654906
 31
0.0
  0
LINE
  5
13DE
330
2
100
AcDbEntity
  8
CENTER
  6
CENS
100
AcDbLine
 10
565.4503461065266
 20
238.023770136247
 30
0.0
 11
542.4503890169042
 21
238.023770136247
 31
0.0
  0
LINE
  5
13DF
330
2
100
AcDbEntity
  8
0
100
AcDbLine
 10
556.4503461065275
 20
282.5436160983667
 30
0.0
 11
581.4494370918753
 21
282.3254523364489
 31
0.0
  0
LINE
  5
13E0
330
2
100
AcDbEntity
  8
CENTER
  6
CENS
100
AcDbLine
 10
573.4503890169041
 20
297.8458714833754
 30
0.0
 11
573.4503890169041
 21
275.7916108167732
 31
0.0
  0
LINE
  5
13E1
330
2
100
AcDbEntity
  8
0
100
AcDbLine
 10
582.450346106524
 20
430.3380824012988
 30
0.0
 11
582.4503461065249
 21
480.4072933488355
 31
0.0
  0
LINE
  5
13E2
330
2
100
AcDbEntity
  8
0
100
AcDbLine
 10
555.4503461065248
 20
427.4774537104462
 30
0.0
 11
555.4503461065248
 21
483.2679220396889
 31
0.0
  0
LINE
  5
13E3
330
2
100
AcDbEntity
  8
0
100
AcDbLine
 10
585.4503461065248
 20
475.372687875068
 30
0.0
 11
585.4503461065248
 21
435.3726878750671
 31
0.0
  0
LINE
  5
13E4
330
2
100
AcDbEntity
  8
CENTER
  6
CENS
100
AcDbLine
 10
573.4503890169023
 20
436.5433665452614
 30
0.0
 11
573.4503890169023
 21
458.2020092048737
 31
0.0
  0
LINE
  5
13E5
330
2
100
AcDbEntity
  8
0
100
AcDbLine
 10
560.4454513631988
 20
482.7567847415507
 30
0.0
 11
580.4852509194004
 21
482.4069887391492
 31
0.0
  0
ARC
  5
13E6
330
2
100
AcDbEntity
  8
0
100
AcDbCircle
 10
580.4503461065248
 20
480.4072933488355
 30
0.0
 40
2.0
100
AcDbArc
 50
0.0
 51
89.0000000000243
  0
ARC
  5
13E7
330
2
100
AcDbEntity
  8
0
100
AcDbCircle
 10
584.4503461065248
 20
477.3995593816184
 30
0.0
 40
2.0
100
AcDbArc
 50
180.0
 51
268.5000000000103
  0
LINE
  5
13E8
330
2
100
AcDbEntity
  8
0
100
AcDbLine
 10
585.4503461065248
 20
475.372687875068
 30
0.0
 11
584.3979922099094
 21
475.4002447316674
 31
0.0
  0
LINE
  5
13E9
330
2
100
AcDbEntity
  8
0
100
AcDbLine
 10
560.4454513631988
 20
427.9885910085845
 30
0.0
 11
580.4852509193994
 21
428.3383870109859
 31
0.0
  0
LINE
  5
13EA
330
2
100
AcDbEntity
  8
0
100
AcDbLine
 10
580.4852509194004
 20
437.338387010986
 30
0.0
 11
557.4154412936511
 21
436.9357019860867
 31
0.0
  0
LINE
  5
13EB
330
2
100
AcDbEntity
  8
CENTER
  6
CENS
100
AcDbLine
 10
584.279710346708
 20
447.3726878750671
 30
0.0
 11
562.6210676870966
 21
447.3726878750671
 31
0.0
  0
ARC
  5
13EC
330
2
100
AcDbEntity
  8
0
100
AcDbCircle
 10
580.4503461065248
 20
439.3380824012988
 30
0.0
 40
2.0
100
AcDbArc
 50
270.9999999999757
 51
0.0
  0
ARC
  5
13ED
330
2
100
AcDbEntity
  8
0
100
AcDbCircle
 10
584.4503461065248
 20
433.3458163685158
 30
0.0
 40
2.0
100
AcDbArc
 50
91.49999999998968
 51
180.0
  0
LINE
  5
13EE
330
2
100
AcDbEntity
  8
0
100
AcDbLine
 10
585.4503461065248
 20
435.3726878750671
 30
0.0
 11
584.3979922099094
 21
435.3451310184677
 31
0.0
  0
ARC
  5
13EF
330
2
100
AcDbEntity
  8
0
100
AcDbCircle
 10
580.4503461065248
 20
430.3380824012988
 30
0.0
 40
2.0
100
AcDbArc
 50
270.9999999999757
 51
0.0
  0
ARC
  5
13F0
330
2
100
AcDbEntity
  8
0
100
AcDbCircle
 10
557.4503461065249
 20
434.9360065957738
 30
0.0
 40
2.0
100
AcDbArc
 50
90.99999999997569
 51
180.0
  0
LINE
  5
13F1
330
2
100
AcDbEntity
  8
0
100
AcDbLine
 10
557.4503461065249
 20
462.6526878750668
 30
0.0
 11
580.4503461065239
 21
462.6526878750668
 31
0.0
  0
LINE
  5
13F2
330
2
100
AcDbEntity
  8
0
100
AcDbLine
 10
547.4503890169024
 20
427.3726878750671
 30
0.0
 11
554.4590726420235
 21
427.4338517304508
 31
0.0
  0
ARC
  5
13F3
330
2
100
AcDbEntity
  8
0
100
AcDbCircle
 10
554.4503461065248
 20
428.4338136535156
 30
0.0
 40
1.0
100
AcDbArc
 50
270.4999999999654
 51
0.0
  0
ARC
  5
13F4
330
2
100
AcDbEntity
  8
0
100
AcDbCircle
 10
556.0753020070421
 20
425.9120051117392
 30
0.0
 40
2.0
100
AcDbArc
 50
108.2086269045676
 51
122.7961663449187
  0
LINE
  5
13F5
330
2
100
AcDbEntity
  8
0
100
AcDbLine
 10
547.4503890169024
 20
483.3726878750671
 30
0.0
 11
554.4590726420235
 21
483.3115240196844
 31
0.0
  0
ARC
  5
13F6
330
2
100
AcDbEntity
  8
0
100
AcDbCircle
 10
554.4503461065248
 20
482.3115620966196
 30
0.0
 40
1.0
100
AcDbArc
 50
0.0
 51
89.5000000000345
  0
ARC
  5
13F7
330
2
100
AcDbEntity
  8
0
100
AcDbCircle
 10
556.0753020070421
 20
484.833370638396
 30
0.0
 40
2.0
100
AcDbArc
 50
237.2038336550812
 51
251.791373095426
  0
LINE
  5
13F8
330
2
100
AcDbEntity
  8
0
100
AcDbLine
 10
556.4503461065249
 20
427.4774537104462
 30
0.0
 11
555.4503461065248
 21
427.4774537104462
 31
0.0
  0
LINE
  5
13F9
330
2
100
AcDbEntity
  8
0
100
AcDbLine
 10
555.4503461065248
 20
434.4774537104462
 30
0.0
 11
556.4503461065249
 21
434.4774537104462
 31
0.0
  0
LINE
  5
13FA
330
2
100
AcDbEntity
  8
0
100
AcDbLine
 10
556.4503461065249
 20
434.4774537104462
 30
0.0
 11
556.4503461065249
 21
427.4774537104462
 31
0.0
  0
LINE
  5
13FB
330
2
100
AcDbEntity
  8
0
100
AcDbLine
 10
560.4503461065248
 20
427.9970689527167
 30
0.0
 11
560.4503461065248
 21
433.9578384681757
 31
0.0
  0
LINE
  5
13FC
330
2
100
AcDbEntity
  8
0
100
AcDbLine
 10
560.1503461065256
 20
434.4774537104462
 30
0.0
 11
560.1503461065256
 21
427.4774537104462
 31
0.0
  0
LINE
  5
13FD
330
2
100
AcDbEntity
  8
0
100
AcDbLine
 10
560.1503461065256
 20
434.4774537104462
 30
0.0
 11
556.4503461065249
 21
434.4774537104462
 31
0.0
  0
LINE
  5
13FE
330
2
100
AcDbEntity
  8
0
100
AcDbLine
 10
560.1503461065256
 20
434.4774537104462
 30
0.0
 11
560.4503461065248
 21
433.9578384681757
 31
0.0
  0
LINE
  5
13FF
330
2
100
AcDbEntity
  8
0
100
AcDbLine
 10
560.4503461065248
 20
427.9970689527167
 30
0.0
 11
560.1503461065256
 21
427.4774537104462
 31
0.0
  0
LINE
  5
1400
330
2
100
AcDbEntity
  8
0
100
AcDbLine
 10
556.4503461065249
 20
427.4774537104462
 30
0.0
 11
560.1503461065256
 21
427.4774537104462
 31
0.0
  0
LINE
  5
1401
330
2
100
AcDbEntity
  8
0
100
AcDbLine
 10
556.4503461065249
 20
483.2679220396889
 30
0.0
 11
555.4503461065248
 21
483.2679220396889
 31
0.0
  0
LINE
  5
1402
330
2
100
AcDbEntity
  8
0
100
AcDbLine
 10
555.4503461065248
 20
476.2679220396889
 30
0.0
 11
556.4503461065249
 21
476.2679220396889
 31
0.0
  0
LINE
  5
1403
330
2
100
AcDbEntity
  8
0
100
AcDbLine
 10
556.4503461065249
 20
476.2679220396889
 30
0.0
 11
556.4503461065249
 21
483.2679220396889
 31
0.0
  0
LINE
  5
1404
330
2
100
AcDbEntity
  8
0
100
AcDbLine
 10
560.4503461065248
 20
482.7483067974176
 30
0.0
 11
560.4503461065248
 21
476.7875372819593
 31
0.0
  0
LINE
  5
1405
330
2
100
AcDbEntity
  8
0
100
AcDbLine
 10
560.1503461065256
 20
476.2679220396889
 30
0.0
 11
560.1503461065256
 21
483.2679220396889
 31
0.0
  0
LINE
  5
1406
330
2
100
AcDbEntity
  8
0
100
AcDbLine
 10
560.1503461065256
 20
476.2679220396889
 30
0.0
 11
556.4503461065249
 21
476.2679220396889
 31
0.0
  0
LINE
  5
1407
330
2
100
AcDbEntity
  8
0
100
AcDbLine
 10
560.1503461065256
 20
476.2679220396889
 30
0.0
 11
560.4503461065248
 21
476.7875372819593
 31
0.0
  0
LINE
  5
1408
330
2
100
AcDbEntity
  8
0
100
AcDbLine
 10
560.4503461065248
 20
482.7483067974176
 30
0.0
 11
560.1503461065256
 21
483.2679220396889
 31
0.0
  0
LINE
  5
1409
330
2
100
AcDbEntity
  8
0
100
AcDbLine
 10
556.4503461065249
 20
483.2679220396889
 30
0.0
 11
560.1503461065256
 21
483.2679220396889
 31
0.0
  0
CIRCLE
  5
140A
330
2
100
AcDbEntity
  8
0
100
AcDbCircle
 10
573.4503890169023
 20
447.3726878750671
 30
0.0
 40
8.858967452849583
  0
LINE
  5
140B
330
2
100
AcDbEntity
  8
CENTER
  6
CENS
100
AcDbLine
 10
565.4503461065249
 20
430.9774537104462
 30
0.0
 11
542.4503890169023
 21
430.9774537104462
 31
0.0
  0
LINE
  5
140C
330
2
100
AcDbEntity
  8
CENTER
  6
CENS
100
AcDbLine
 10
565.4503461065249
 20
479.7679220396889
 30
0.0
 11
542.4503890169023
 21
479.7679220396889
 31
0.0
  0
LINE
  5
140D
330
2
100
AcDbEntity
  8
PHAS
  6
SEKKEI_P_S
100
AcDbLine
 10
245.9029907300835
 20
250.8828937563289
 30
0.0
 11
245.9029907300835
 21
273.9550998453836
 31
0.0
  0
LINE
  5
140E
330
2
100
AcDbEntity
  8
PHAS
  6
SEKKEI_P_S
100
AcDbLine
 10
250.0347124865709
 20
245.9588615781389
 30
0.0
 11
260.7765867300829
 21
244.0646953008558
 31
0.0
  0
ARC
  5
140F
330
2
100
AcDbEntity
  8
PHAS
  6
SEKKEI_P_S
100
AcDbCircle
 10
250.9029907300834
 20
250.8828937563289
 30
0.0
 40
5.0
100
AcDbArc
 50
180.0
 51
259.9995653374257
  0
LINE
  5
1410
330
2
100
AcDbEntity
  8
PHAS
  6
SEKKEI_P_S
100
AcDbLine
 10
261.602987730085
 20
284.2998943008564
 30
0.0
 11
261.6029877300832
 21
240.5380993008561
 31
0.0
  0
ARC
  5
1411
330
2
100
AcDbEntity
  8
PHAS
  6
SEKKEI_P_S
100
AcDbCircle
 10
260.6029877300832
 20
243.0798933008558
 30
0.0
 40
1.0
100
AcDbArc
 50
0.0
 51
79.99999999999483
  0
LINE
  5
1412
330
2
100
AcDbEntity
  8
PHAS
  6
SEKKEI_P_S
100
AcDbLine
 10
271.4029907300816
 20
236.419004300856
 30
0.0
 11
271.4029907300834
 21
288.419004300856
 31
0.0
  0
ARC
  5
1413
330
2
100
AcDbEntity
  8
PHAS
  6
SEKKEI_P_S
100
AcDbCircle
 10
250.9029907300834
 20
273.9550998453836
 30
0.0
 40
5.0
100
AcDbArc
 50
100.0004346625742
 51
180.0
  0
LINE
  5
1414
330
2
100
AcDbEntity
  8
PHAS
  6
SEKKEI_P_S
100
AcDbLine
 10
250.0347124865709
 20
278.8791320235727
 30
0.0
 11
260.7765867300829
 21
280.7732983008558
 31
0.0
  0
ARC
  5
1415
330
2
100
AcDbEntity
  8
PHAS
  6
SEKKEI_P_S
100
AcDbCircle
 10
264.6029877300832
 20
284.2998943008564
 30
0.0
 40
3.0
100
AcDbArc
 50
103.0417940599513
 51
180.0
  0
ARC
  5
1416
330
2
100
AcDbEntity
  8
PHAS
  6
SEKKEI_P_S
100
AcDbCircle
 10
260.6029877300832
 20
281.7581003008557
 30
0.0
 40
1.0
100
AcDbArc
 50
280.0000000000051
 51
0.0
  0
LINE
  5
1417
330
2
100
AcDbEntity
  8
PHAS
  6
SEKKEI_P_S
100
AcDbLine
 10
268.9029907300835
 20
288.3753643008562
 30
0.0
 11
263.9260025017235
 21
287.2225114500192
 31
0.0
  0
LINE
  5
1418
330
2
100
AcDbEntity
  8
PHAS
  6
SEKKEI_P_S
100
AcDbLine
 10
268.9029907300835
 20
288.3753643008562
 30
0.0
 11
271.4029907300834
 21
288.419004300856
 31
0.0
  0
ARC
  5
1419
330
2
100
AcDbEntity
  8
PHAS
  6
SEKKEI_P_S
100
AcDbCircle
 10
264.6029877300832
 20
240.5381143008557
 30
0.0
 40
3.0
100
AcDbArc
 50
180.0
 51
256.9582059400486
  0
LINE
  5
141A
330
2
100
AcDbEntity
  8
PHAS
  6
SEKKEI_P_S
100
AcDbLine
 10
268.9029907300835
 20
236.4626443008559
 30
0.0
 11
263.9260025017235
 21
237.6154971516929
 31
0.0
  0
LINE
  5
141B
330
2
100
AcDbEntity
  8
PHAS
  6
SEKKEI_P_S
100
AcDbLine
 10
268.9029907300835
 20
236.4626443008559
 30
0.0
 11
271.4029907300816
 21
236.419004300856
 31
0.0
  0
TEXT
  5
1458
330
2
100
AcDbEntity
  8
TITLE
100
AcDbText
 10
263.6849202452542
 20
459.8353173378618
 30
0.0
 40
5.0
  1
AFCZ15S-10~30M100S1
100
AcDbText
  0
TEXT
  5
1459
330
2
100
AcDbEntity
  8
TITLE
100
AcDbText
 10
263.6849202452542
 20
452.3353173378618
 30
0.0
 40
5.0
  1
AFCZ15S-10~30L100S1
100
AcDbText
  0
CIRCLE
  5
1D8F
330
2
100
AcDbEntity
  8
0
100
AcDbCircle
 10
455.6503885559325
 20
262.4190043008688
 30
0.0
 40
19.5774
  0
ARC
  5
1D94
330
2
100
AcDbEntity
  8
0
100
AcDbCircle
 10
517.6241317957903
 20
429.372687875067
 30
0.0
 40
2.0
100
AcDbArc
 50
270.0
 51
359.5000000000105
  0
ENDSEC
  0
SECTION
  2
OBJECTS
  0
DICTIONARY
  5
7
330
0
100
AcDbDictionary
  3
ACAD_COLOR
350
1C1C
  3
ACAD_GROUP
350
75
  3
ACAD_LAYOUT
350
61
  3
ACAD_MATERIAL
350
1BF2
  3
ACAD_MLEADERSTYLE
350
1C41
  3
ACAD_MLINESTYLE
350
76
  3
ACAD_PLOTSETTINGS
350
77
  3
ACAD_PLOTSTYLENAME
350
6
  3
ACAD_SCALELIST
350
1C1F
  3
ACAD_TABLESTYLE
350
1C1D
  3
ACAD_VISUALSTYLE
350
1C0B
  3
ACADDIM
350
480
  3
ACDB_RECOMPOSE_DATA
350
1C60
  3
ACDBHEADERROUNDTRIPXREC
350
1DDA
  3
ACDBVARIABLEDICTIONARY
350
102
  3
DWGPROPS
350
1DA3
  0
DICTIONARY
  5
1C69
330
6E
100
AcDbDictionary
280
     1
  3
ACAD_XREC_ROUNDTRIP
360
1DAB
  0
DICTIONARY
  5
B12
330
66
100
AcDbDictionary
280
     1
  3
ACAD_LAYERSTATES
360
B13
  0
DICTIONARY
  5
1C4E
330
5E
100
AcDbDictionary
280
     1
  3
ACAD_XREC_ROUNDTRIP
360
1DA6
  3
ADSK_XREC_LAYER_RECONCILED
360
1C4F
  0
DICTIONARY
  5
1C50
330
3E
100
AcDbDictionary
280
     1
  3
ACAD_XREC_ROUNDTRIP
360
1DA5
  3
ADSK_XREC_LAYER_RECONCILED
360
1C51
  0
DICTIONARY
  5
1C56
330
2B5
100
AcDbDictionary
280
     1
  3
ACAD_XREC_ROUNDTRIP
360
1DB1
  3
ADSK_XREC_LAYER_RECONCILED
360
1C57
  0
DICTIONARY
  5
1C58
330
2BA
100
AcDbDictionary
280
     1
  3
ACAD_XREC_ROUNDTRIP
360
1DB2
  3
ADSK_XREC_LAYER_RECONCILED
360
1C59
  0
DICTIONARY
  5
1C5C
330
478
100
AcDbDictionary
280
     1
  3
ACAD_XREC_ROUNDTRIP
360
1DB4
  3
ADSK_XREC_LAYER_RECONCILED
360
1C5D
  0
DICTIONARY
  5
1D9B
330
1D9A
100
AcDbDictionary
280
     1
  3
ACAD_XREC_ROUNDTRIP
360
1DC1
  0
DICTIONARY
  5
1DFB
330
2
100
AcDbDictionary
280
     1
  3
ACAD_LAYOUTSELFREF
360
1DFC
  0
DICTIONARY
  5
1DFD
330
1DD4
100
AcDbDictionary
280
     1
  3
ACAD_LAYOUTSELFREF
360
1DFE
  0
DICTIONARY
  5
1C1C
102
{ACAD_REACTORS
330
7
102
}
330
7
100
AcDbDictionary
  0
DICTIONARY
  5
75
102
{ACAD_REACTORS
330
7
102
}
330
7
100
AcDbDictionary
  0
DICTIONARY
  5
61
102
{ACAD_REACTORS
330
7
102
}
330
7
100
AcDbDictionary
  0
DICTIONARY
  5
1BF2
102
{ACAD_REACTORS
330
7
102
}
330
7
100
AcDbDictionary
  3
BYBLOCK
350
1BFB
  3
BYLAYER
350
1BF3
  3
GLOBAL
350
1C03
  0
DICTIONARY
  5
1C41
102
{ACAD_REACTORS
330
7
102
}
330
7
100
AcDbDictionary
  3
STANDARD
350
1C42
  0
DICTIONARY
  5
76
102
{ACAD_REACTORS
330
7
102
}
330
7
100
AcDbDictionary
  3
STANDARD
350
78
  0
DICTIONARY
  5
77
102
{ACAD_REACTORS
330
7
102
}
330
7
100
AcDbDictionary
  0
ACDBDICTIONARYWDFLT
  5
6
102
{ACAD_REACTORS
330
7
102
}
330
7
100
AcDbDictionary
281
     1
  3
Normal
350
5
100
AcDbDictionaryWithDefault
340
5
  0
DICTIONARY
  5
1C1F
102
{ACAD_REACTORS
330
7
102
}
330
7
100
AcDbDictionary
  3
A0
350
1C20
  3
A1
350
1C21
  3
A2
350
1C22
  3
A3
350
1C23
  3
A4
350
1C24
  3
A5
350
1C25
  3
A6
350
1C26
  3
A7
350
1C27
  3
A8
350
1C28
  3
A9
350
1C29
  3
B0
350
1C2A
  3
B1
350
1C2B
  3
B2
350
1C2C
  3
B3
350
1C2D
  3
B4
350
1C2E
  3
B5
350
1C2F
  3
B6
350
1C30
  3
B7
350
1C31
  3
B8
350
1C32
  3
B9
350
1C33
  3
C0
350
1C34
  3
C1
350
1C35
  3
C2
350
1C36
  3
C3
350
1C37
  3
C4
350
1C38
  3
C5
350
1C39
  3
C6
350
1C3A
  3
C7
350
1C3B
  3
C8
350
1C3C
  3
C9
350
1C3D
  3
D0
350
1C3E
  3
D1
350
1C3F
  3
D2
350
1C40
  0
DICTIONARY
  5
1C1D
102
{ACAD_REACTORS
330
7
102
}
330
7
100
AcDbDictionary
  3
STANDARD
350
1C1E
  0
DICTIONARY
  5
1C0B
102
{ACAD_REACTORS
330
7
102
}
330
7
100
AcDbDictionary
  3
2DWIREFRAME
350
1C11
  3
3D_HIDDEN
350
1C13
  3
3DWIREFRAME
350
1C12
  3
BASIC
350
1C10
  3
BRIGHTEN
350
1C17
  3
COLORCHANGE
350
1C1B
  3
CONCEPTUAL
350
1C14
  3
DIM
350
1C16
  3
FACEPATTERN
350
1C1A
  3
FLAT
350
1C0C
  3
FLATWITHEDGES
350
1C0D
  3
GOURAUD
350
1C0E
  3
GOURAUDWITHEDGES
350
1C0F
  3
LINEPATTERN
350
1C19
  3
REALISTIC
350
1C15
  3
THICKEN
350
1C18
  0
XRECORD
  5
480
102
{ACAD_REACTORS
330
7
102
}
330
7
100
AcDbXrecord
 90
   990106
  3

 60
     0
 61
     0
 62
     1
 63
     3
 64
     1
 65
     0
 66
     0
 67
     3
 68
     1
 69
     0
 70
     0
 71
     0
 72
     0
 40
0.0
170
     2
340
0
  0
XRECORD
  5
1C60
102
{ACAD_REACTORS
330
7
102
}
330
7
100
AcDbXrecord
 90
        1
330
1C1E
  0
DICTIONARY
  5
1DDA
102
{ACAD_REACTORS
330
7
102
}
330
7
100
AcDbDictionary
  3
CEPSNTYPE
350
1DE4
  3
DIMSTYLEDATA
350
1DE8
  3
FINGERPRINTGUID
350
1DE5
  3
HYPERLINKBASE
350
1DDD
  3
INSUNITS
350
1DE3
  3
LAYOUTDICT
350
1DDF
  3
LWETCUNION
350
1DE2
  3
PLOTSETDICT
350
1DE0
  3
PLOTSTYLNAMDICT
350
1DE1
  3
PSVPSCALE
350
1DE7
  3
PUCSBASE
350
1DEB
  3
PUCSORGBACK
350
1DF1
  3
PUCSORGBOTTOM
350
1DED
  3
PUCSORGFRONT
350
1DF0
  3
PUCSORGLEFT
350
1DEE
  3
PUCSORGRIGHT
350
1DEF
  3
PUCSORGTOP
350
1DEC
  3
PUCSORTHOREF
350
1DE9
  3
PUCSORTHOVIEW
350
1DEA
  3
STYLESHEET
350
1DDE
  3
TSTACKALIGN
350
1DDB
  3
TSTACKSIZE
350
1DDC
  3
UCSBASE
350
1DF4
  3
UCSORGBACK
350
1DFA
  3
UCSORGBOTTOM
350
1DF6
  3
UCSORGFRONT
350
1DF9
  3
UCSORGLEFT
350
1DF7
  3
UCSORGRIGHT
350
1DF8
  3
UCSORGTOP
350
1DF5
  3
UCSORTHOREF
350
1DF2
  3
UCSORTHOVIEW
350
1DF3
  3
VERSIONGUID
350
1DE6
  0
DICTIONARY
  5
102
102
{ACAD_REACTORS
330
7
102
}
330
7
100
AcDbDictionary
  3
CANNOSCALE
350
1C82
  3
CMLEADERSTYLE
350
1C81
  3
CTABLESTYLE
350
1C80
  3
DIMASSOC
350
103
  3
INDEXCTL
350
1C83
  3
SORTENTS
350
549
  0
XRECORD
  5
1DA3
102
{ACAD_REACTORS
330
7
102
}
330
7
100
AcDbXrecord
  1
DWGPROPS COOKIE
  2

  3

  4

  6

  7

  8
ymorima
  9

300
=
301
=
302
=
303
=
304
=
305
=
306
=
307
=
308
=
309
=
 40
0.0268778819444445
 41
2454411.495290613
 42
2454426.365247569
  1

 90
        0
  0
XRECORD
  5
1DAB
102
{ACAD_REACTORS
330
1C69
102
}
330
1C69
100
AcDbXrecord
102
VTR_0.000_0.000_1.000_1.000_VISUALSTYLE
340
1C11
102
VTR_0.000_0.000_1.000_1.000_GRIDDISPLAY
 70
     3
102
VTR_0.000_0.000_1.000_1.000_GRIDMAJOR
 70
     5
102
VTR_0.000_0.000_1.000_1.000_DEFAULTLIGHTING
280
     1
102
VTR_0.000_0.000_1.000_1.000_DEFAULTLIGHTINGTYPE
 70
     1
102
VTR_0.000_0.000_1.000_1.000_BRIGHTNESS
141
0.0
102
VTR_0.000_0.000_1.000_1.000_CONTRAST
142
0.0
  0
DICTIONARY
  5
B13
102
{ACAD_REACTORS
330
B12
102
}
330
B12
100
AcDbDictionary
  0
XRECORD
  5
1DA6
102
{ACAD_REACTORS
330
1C4E
102
}
330
1C4E
100
AcDbXrecord
102
MATERIAL
340
1C03
  0
XRECORD
  5
1C4F
102
{ACAD_REACTORS
330
1C4E
102
}
330
1C4E
100
AcDbXrecord
290
     1
  0
XRECORD
  5
1DA5
102
{ACAD_REACTORS
330
1C50
102
}
330
1C50
100
AcDbXrecord
102
MATERIAL
340
1C03
  0
XRECORD
  5
1C51
102
{ACAD_REACTORS
330
1C50
102
}
330
1C50
100
AcDbXrecord
290
     1
  0
XRECORD
  5
1DB1
102
{ACAD_REACTORS
330
1C56
102
}
330
1C56
100
AcDbXrecord
102
MATERIAL
340
1C03
  0
XRECORD
  5
1C57
102
{ACAD_REACTORS
330
1C56
102
}
330
1C56
100
AcDbXrecord
290
     1
  0
XRECORD
  5
1DB2
102
{ACAD_REACTORS
330
1C58
102
}
330
1C58
100
AcDbXrecord
102
MATERIAL
340
1C03
  0
XRECORD
  5
1C59
102
{ACAD_REACTORS
330
1C58
102
}
330
1C58
100
AcDbXrecord
290
     1
  0
XRECORD
  5
1DB4
102
{ACAD_REACTORS
330
1C5C
102
}
330
1C5C
100
AcDbXrecord
102
MATERIAL
340
1C03
  0
XRECORD
  5
1C5D
102
{ACAD_REACTORS
330
1C5C
102
}
330
1C5C
100
AcDbXrecord
290
     1
  0
XRECORD
  5
1DC1
102
{ACAD_REACTORS
330
1D9B
102
}
330
1D9B
100
AcDbXrecord
102
MATERIAL
340
1C03
  0
XRECORD
  5
1DFC
102
{ACAD_REACTORS
330
1DFB
102
}
330
1DFB
100
AcDbXrecord
340
2
  0
XRECORD
  5
1DFE
102
{ACAD_REACTORS
330
1DFD
102
}
330
1DFD
100
AcDbXrecord
340
1DD4
  0
ACAD_PROXY_OBJECT
  5
1BFB
102
{ACAD_XDICTIONARY
360
1BFC
102
}
102
{ACAD_REACTORS
330
1BF2
102
}
330
1BF2
100
AcDbProxyObject
 90
      499
 91
      510
 93
     1340
310
42109E509B1BD8DAC02004014080404555555555555953FAA155555555555654FEA9AA400014080404555555555555953FAA155555555555654FEA9AA400000000000000E03F4080404555555555555953FAA155555555555654FEA9AA4014080404555555555555953FAA155555555555654FEA9AA4010201011555555555
310
55654FEA8555555555555953FAA6A9005020101155555555555654FEA8555555555555953FAA6A9001
 94
        0
1001
ACAD
1000
AcadProxyRoundTripData
1071
      504
1071
   655383
1070
     0
  0
ACAD_PROXY_OBJECT
  5
1BF3
102
{ACAD_XDICTIONARY
360
1BF4
102
}
102
{ACAD_REACTORS
330
1BF2
102
}
330
1BF2
100
AcDbProxyObject
 90
      499
 91
      510
 93
     1340
310
42109E53185E595C802004014080404555555555555953FAA155555555555654FEA9AA400014080404555555555555953FAA155555555555654FEA9AA400000000000000E03F4080404555555555555953FAA155555555555654FEA9AA4014080404555555555555953FAA155555555555654FEA9AA4010201011555555555
310
55654FEA8555555555555953FAA6A9005020101155555555555654FEA8555555555555953FAA6A9001
 94
        0
1001
ACAD
1000
AcadProxyRoundTripData
1071
      504
1071
   655383
1070
     0
  0
ACAD_PROXY_OBJECT
  5
1C03
102
{ACAD_XDICTIONARY
360
1C04
102
}
102
{ACAD_REACTORS
330
1BF2
102
}
330
1BF2
100
AcDbProxyObject
 90
      499
 91
      510
 93
     1332
310
41D1DB1BD8985B002004014080404555555555555953FAA155555555555654FEA9AA400014080404555555555555953FAA155555555555654FEA9AA400000000000000E03F4080404555555555555953FAA155555555555654FEA9AA4014080404555555555555953FAA155555555555654FEA9AA401020101155555555555
310
654FEA8555555555555953FAA6A9005020101155555555555654FEA8555555555555953FAA6A9000
 94
        0
1001
ACAD
1000
AcadProxyRoundTripData
1071
      504
1071
   655383
1070
     0
  0
ACAD_PROXY_OBJECT
  5
1C42
102
{ACAD_REACTORS
330
1C41
102
}
330
1C41
100
AcDbProxyObject
 90
      499
 91
      510
 93
      618
310
40901902A4063FBFFFFFE056BD1B81E855B9FC0AD7A3703D0AD73F4254DD185B99185C990000AD7A3703D0AC73F90141901A02B5E8DC0F42B1CFC02B5E8DC0F42B1CFE5764000000000000300FC6
340
6A
340
0
340
16
340
0
 94
        0
1001
ACAD_MLEADERVER
1070
     2
1001
ACAD
1000
AcadProxyRoundTripData
1071
      508
1071
   655383
1070
     0
  0
MLINESTYLE
  5
78
102
{ACAD_REACTORS
330
76
102
}
330
76
100
AcDbMlineStyle
  2
STANDARD
 70
     0
  3

 62
     0
 51
90.0
 52
90.0
 71
     2
 49
0.5
 62
   256
  6
BYLAYER
 49
-0.5
 62
   256
  6
BYLAYER
  0
ACDBPLACEHOLDER
  5
5
102
{ACAD_REACTORS
330
6
102
}
330
6
100
AcDbPlaceHolder
280
     0
  0
ACAD_PROXY_OBJECT
  5
1C20
102
{ACAD_REACTORS
330
1C1F
102
}
330
1C1F
100
AcDbProxyObject
 90
      499
 91
      510
 93
       49
310
904313A3100598
 94
        0
1001
ACAD
1000
AcadProxyRoundTripData
1071
      507
1071
   655383
1070
     0
  0
ACAD_PROXY_OBJECT
  5
1C21
102
{ACAD_REACTORS
330
1C1F
102
}
330
1C1F
100
AcDbProxyObject
 90
      499
 91
      510
 93
      113
310
904313A3200400000000000000406B
 94
        0
1001
ACAD
1000
AcadProxyRoundTripData
1071
      507
1071
   655383
1070
     0
  0
ACAD_PROXY_OBJECT
  5
1C22
102
{ACAD_REACTORS
330
1C1F
102
}
330
1C1F
100
AcDbProxyObject
 90
      499
 91
      510
 93
      113
310
904313A3400400000000000010406B
 94
        0
1001
ACAD
1000
AcadProxyRoundTripData
1071
      507
1071
   655383
1070
     0
  0
ACAD_PROXY_OBJECT
  5
1C23
102
{ACAD_REACTORS
330
1C1F
102
}
330
1C1F
100
AcDbProxyObject
 90
      499
 91
      510
 93
      113
310
904313A3500400000000000014406B
 94
        0
1001
ACAD
1000
AcadProxyRoundTripData
1071
      507
1071
   655383
1070
     0
  0
ACAD_PROXY_OBJECT
  5
1C24
102
{ACAD_REACTORS
330
1C1F
102
}
330
1C1F
100
AcDbProxyObject
 90
      499
 91
      510
 93
      113
310
904313A3800400000000000020406B
 94
        0
1001
ACAD
1000
AcadProxyRoundTripData
1071
      507
1071
   655383
1070
     0
  0
ACAD_PROXY_OBJECT
  5
1C25
102
{ACAD_REACTORS
330
1C1F
102
}
330
1C1F
100
AcDbProxyObject
 90
      499
 91
      510
 93
      121
310
905313A3130004000000000000244051
 94
        0
1001
ACAD
1000
AcadProxyRoundTripData
1071
      507
1071
   655383
1070
     0
  0
ACAD_PROXY_OBJECT
  5
1C26
102
{ACAD_REACTORS
330
1C1F
102
}
330
1C1F
100
AcDbProxyObject
 90
      499
 91
      510
 93
      121
310
905313A3136004000000000000304051
 94
        0
1001
ACAD
1000
AcadProxyRoundTripData
1071
      507
1071
   655383
1070
     0
  0
ACAD_PROXY_OBJECT
  5
1C27
102
{ACAD_REACTORS
330
1C1F
102
}
330
1C1F
100
AcDbProxyObject
 90
      499
 91
      510
 93
      121
310
905313A3230004000000000000344051
 94
        0
1001
ACAD
1000
AcadProxyRoundTripData
1071
      507
1071
   655383
1070
     0
  0
ACAD_PROXY_OBJECT
  5
1C28
102
{ACAD_REACTORS
330
1C1F
102
}
330
1C1F
100
AcDbProxyObject
 90
      499
 91
      510
 93
      121
310
905313A33300040000000000003E4051
 94
        0
1001
ACAD
1000
AcadProxyRoundTripData
1071
      507
1071
   655383
1070
     0
  0
ACAD_PROXY_OBJECT
  5
1C29
102
{ACAD_REACTORS
330
1C1F
102
}
330
1C1F
100
AcDbProxyObject
 90
      499
 91
      510
 93
      121
310
905313A3430004000000000000444051
 94
        0
1001
ACAD
1000
AcadProxyRoundTripData
1071
      507
1071
   655383
1070
     0
  0
ACAD_PROXY_OBJECT
  5
1C2A
102
{ACAD_REACTORS
330
1C1F
102
}
330
1C1F
100
AcDbProxyObject
 90
      499
 91
      510
 93
      121
310
905313A3530004000000000000494051
 94
        0
1001
ACAD
1000
AcadProxyRoundTripData
1071
      507
1071
   655383
1070
     0
  0
ACAD_PROXY_OBJECT
  5
1C2B
102
{ACAD_REACTORS
330
1C1F
102
}
330
1C1F
100
AcDbProxyObject
 90
      499
 91
      510
 93
      129
310
906313A313030004000000000000594038
 94
        0
1001
ACAD
1000
AcadProxyRoundTripData
1071
      507
1071
   655383
1070
     0
  0
ACAD_PROXY_OBJECT
  5
1C2C
102
{ACAD_REACTORS
330
1C1F
102
}
330
1C1F
100
AcDbProxyObject
 90
      499
 91
      510
 93
      113
310
904323A31000000000000000010159
 94
        0
1001
ACAD
1000
AcadProxyRoundTripData
1071
      507
1071
   655383
1070
     0
  0
ACAD_PROXY_OBJECT
  5
1C2D
102
{ACAD_REACTORS
330
1C1F
102
}
330
1C1F
100
AcDbProxyObject
 90
      499
 91
      510
 93
      113
310
904343A31000000000000000410159
 94
        0
1001
ACAD
1000
AcadProxyRoundTripData
1071
      507
1071
   655383
1070
     0
  0
ACAD_PROXY_OBJECT
  5
1C2E
102
{ACAD_REACTORS
330
1C1F
102
}
330
1C1F
100
AcDbProxyObject
 90
      499
 91
      510
 93
      113
310
904383A31000000000000000810159
 94
        0
1001
ACAD
1000
AcadProxyRoundTripData
1071
      507
1071
   655383
1070
     0
  0
ACAD_PROXY_OBJECT
  5
1C2F
102
{ACAD_REACTORS
330
1C1F
102
}
330
1C1F
100
AcDbProxyObject
 90
      499
 91
      510
 93
      121
310
90531303A31000000000000000910140
 94
        0
1001
ACAD
1000
AcadProxyRoundTripData
1071
      507
1071
   655383
1070
     0
  0
ACAD_PROXY_OBJECT
  5
1C30
102
{ACAD_REACTORS
330
1C1F
102
}
330
1C1F
100
AcDbProxyObject
 90
      499
 91
      510
 93
      129
310
9063130303A31000000000000001650138
 94
        0
1001
ACAD
1000
AcadProxyRoundTripData
1071
      507
1071
   655383
1070
     0
  0
ACAD_PROXY_OBJECT
  5
1C31
102
{ACAD_REACTORS
330
1C1F
102
}
330
1C1F
100
AcDbProxyObject
 90
      499
 91
      510
 93
      265
310
90F312F31323822203D2031272D302200000000000000200FC00000000000028402B
 94
        0
1001
ACAD
1000
AcadProxyRoundTripData
1071
      507
1071
   655383
1070
     0
  0
ACAD_PROXY_OBJECT
  5
1C32
102
{ACAD_REACTORS
330
1C1F
102
}
330
1C1F
100
AcDbProxyObject
 90
      499
 91
      510
 93
      257
310
90E312F363422203D2031272D302200000000000000240FC000000000000284040
 94
        0
1001
ACAD
1000
AcadProxyRoundTripData
1071
      507
1071
   655383
1070
     0
  0
ACAD_PROXY_OBJECT
  5
1C33
102
{ACAD_REACTORS
330
1C1F
102
}
330
1C1F
100
AcDbProxyObject
 90
      499
 91
      510
 93
      257
310
90E312F333222203D2031272D302200000000000000280FC000000000000284040
 94
        0
1001
ACAD
1000
AcadProxyRoundTripData
1071
      507
1071
   655383
1070
     0
  0
ACAD_PROXY_OBJECT
  5
1C34
102
{ACAD_REACTORS
330
1C1F
102
}
330
1C1F
100
AcDbProxyObject
 90
      499
 91
      510
 93
      257
310
90E312F313622203D2031272D3022000000000000002C0FC000000000000284040
 94
        0
1001
ACAD
1000
AcadProxyRoundTripData
1071
      507
1071
   655383
1070
     0
  0
ACAD_PROXY_OBJECT
  5
1C35
102
{ACAD_REACTORS
330
1C1F
102
}
330
1C1F
100
AcDbProxyObject
 90
      499
 91
      510
 93
      257
310
90E332F333222203D2031272D3022000000000000002E0FC000000000000284040
 94
        0
1001
ACAD
1000
AcadProxyRoundTripData
1071
      507
1071
   655383
1070
     0
  0
ACAD_PROXY_OBJECT
  5
1C36
102
{ACAD_REACTORS
330
1C1F
102
}
330
1C1F
100
AcDbProxyObject
 90
      499
 91
      510
 93
      249
310
90D312F3822203D2031272D302200000000000000300FC000000000000284040
 94
        0
1001
ACAD
1000
AcadProxyRoundTripData
1071
      507
1071
   655383
1070
     0
  0
ACAD_PROXY_OBJECT
  5
1C37
102
{ACAD_REACTORS
330
1C1F
102
}
330
1C1F
100
AcDbProxyObject
 90
      499
 91
      510
 93
      257
310
90E332F313622203D2031272D302200000000000000320FC000000000000284040
 94
        0
1001
ACAD
1000
AcadProxyRoundTripData
1071
      507
1071
   655383
1070
     0
  0
ACAD_PROXY_OBJECT
  5
1C38
102
{ACAD_REACTORS
330
1C1F
102
}
330
1C1F
100
AcDbProxyObject
 90
      499
 91
      510
 93
      249
310
90D312F3422203D2031272D302200000000000000340FC000000000000284040
 94
        0
1001
ACAD
1000
AcadProxyRoundTripData
1071
      507
1071
   655383
1070
     0
  0
ACAD_PROXY_OBJECT
  5
1C39
102
{ACAD_REACTORS
330
1C1F
102
}
330
1C1F
100
AcDbProxyObject
 90
      499
 91
      510
 93
      249
310
90D332F3822203D2031272D302200000000000000360FC000000000000284040
 94
        0
1001
ACAD
1000
AcadProxyRoundTripData
1071
      507
1071
   655383
1070
     0
  0
ACAD_PROXY_OBJECT
  5
1C3A
102
{ACAD_REACTORS
330
1C1F
102
}
330
1C1F
100
AcDbProxyObject
 90
      499
 91
      510
 93
      249
310
90D312F3222203D2031272D302200000000000000380FC000000000000284040
 94
        0
1001
ACAD
1000
AcadProxyRoundTripData
1071
      507
1071
   655383
1070
     0
  0
ACAD_PROXY_OBJECT
  5
1C3B
102
{ACAD_REACTORS
330
1C1F
102
}
330
1C1F
100
AcDbProxyObject
 90
      499
 91
      510
 93
      249
310
90D332F3422203D2031272D3022000000000000003A0FC000000000000284040
 94
        0
1001
ACAD
1000
AcadProxyRoundTripData
1071
      507
1071
   655383
1070
     0
  0
ACAD_PROXY_OBJECT
  5
1C3C
102
{ACAD_REACTORS
330
1C1F
102
}
330
1C1F
100
AcDbProxyObject
 90
      499
 91
      510
 93
      169
310
90B3122203D2031272D3022004000000000000284020
 94
        0
1001
ACAD
1000
AcadProxyRoundTripData
1071
      507
1071
   655383
1070
     0
  0
ACAD_PROXY_OBJECT
  5
1C3D
102
{ACAD_REACTORS
330
1C1F
102
}
330
1C1F
100
AcDbProxyObject
 90
      499
 91
      510
 93
      265
310
90F312D312F3222203D2031272D3022000000000000003E0FC00000000000028402B
 94
        0
1001
ACAD
1000
AcadProxyRoundTripData
1071
      507
1071
   655383
1070
     0
  0
ACAD_PROXY_OBJECT
  5
1C3E
102
{ACAD_REACTORS
330
1C1F
102
}
330
1C1F
100
AcDbProxyObject
 90
      499
 91
      510
 93
      233
310
90B3322203D2031272D30220000000000000002100000000000000284000
 94
        0
1001
ACAD
1000
AcadProxyRoundTripData
1071
      507
1071
   655383
1070
     0
  0
ACAD_PROXY_OBJECT
  5
1C3F
102
{ACAD_REACTORS
330
1C1F
102
}
330
1C1F
100
AcDbProxyObject
 90
      499
 91
      510
 93
      233
310
90B3622203D2031272D30220000000000000006100000000000000284000
 94
        0
1001
ACAD
1000
AcadProxyRoundTripData
1071
      507
1071
   655383
1070
     0
  0
ACAD_PROXY_OBJECT
  5
1C40
102
{ACAD_REACTORS
330
1C1F
102
}
330
1C1F
100
AcDbProxyObject
 90
      499
 91
      510
 93
      257
310
90E31272D3022203D2031272D3022000000000000000A100000000000000284040
 94
        0
1001
ACAD
1000
AcadProxyRoundTripData
1071
      507
1071
   655383
1070
     0
  0
ACAD_PROXY_OBJECT
  5
1C1E
102
{ACAD_XDICTIONARY
360
1C5E
102
}
102
{ACAD_REACTORS
330
1C1D
102
}
330
1C1D
100
AcDbProxyObject
 90
      499
 91
      510
 93
     1849
310
4254DD185B99185C990028B81E85EB51B8AE3F2E07A17AD46E2B8FC02B5E8DC0F42B1CFD028000000C1008070000C3001FDFF8000000C1003FBFF000000182007F7FE00000030400FEFFC00000060801FDFF8000000C1003FBFF00000018200000000000000681FA0B0000001820100E000186003FBFF000000182007F7FE0
310
0000030400FEFFC00000060801FDFF8000000C1003FBFF000000182007F7FE000000304000AD7A3703D0AC73F4160000003040201C00030C007F7FE00000030400FEFFC00000060801FDFF8000000C1003FBFF000000182007F7FE00000030400FEFFC00000060804D
340
16
340
16
340
16
 94
        0
1001
ACAD
1000
AcadProxyRoundTripData
1071
      506
1071
   655383
1070
     0
  0
ACAD_PROXY_OBJECT
  5
1C11
102
{ACAD_REACTORS
330
1C0B
102
}
330
1C0B
100
AcDbProxyObject
 90
      499
 91
      510
 93
      444
310
430C9915DA5C99599C985B59401049028333333333333E3BF0000000000000FB0107901411070040501600405405064090741402480A0340
 94
        0
1001
ACAD
1000
AcDbSavedByObjectVersion
1070
     0
1000
AcadProxyRoundTripData
1071
      505
1071
   655383
1070
     0
  0
ACAD_PROXY_OBJECT
  5
1C13
102
{ACAD_REACTORS
330
1C0B
102
}
330
1C0B
100
AcDbProxyObject
 90
      499
 91
      510
 93
      508
310
428CD108121A5919195B8010640502408333333333333E3BF0000000000000FB01079024090700405020000000000001110200405405064090740C02480A0340
 94
        0
1001
ACAD
1000
AcDbSavedByObjectVersion
1070
     0
1000
AcadProxyRoundTripData
1071
      505
1071
   655383
1070
     0
  0
ACAD_PROXY_OBJECT
  5
1C12
102
{ACAD_REACTORS
330
1C0B
102
}
330
1C0B
100
AcDbProxyObject
 90
      499
 91
      510
 93
      444
310
430CD915DA5C99599C985B59401059028333333333333E3BF0000000000000FB0107901411070040501600405405064090741402480A0340
 94
        0
1001
ACAD
1000
AcDbSavedByObjectVersion
1070
     0
1000
AcadProxyRoundTripData
1071
      505
1071
   655383
1070
     0
  0
ACAD_PROXY_OBJECT
  5
1C10
102
{ACAD_REACTORS
330
1C0B
102
}
330
1C0B
100
AcDbProxyObject
 90
      499
 91
      510
 93
      396
310
4190985CDA58C0107406404333333333333E3BF0000000000000FB0107A41107004050150841D405064090741402480A0356
 94
        0
1001
ACAD
1000
AcDbSavedByObjectVersion
1070
     0
1000
AcadProxyRoundTripData
1071
      505
1071
   655383
1070
     0
  0
ACAD_PROXY_OBJECT
  5
1C17
102
{ACAD_REACTORS
330
1C0B
102
}
330
1C0B
100
AcDbProxyObject
 90
      499
 91
      510
 93
      436
310
42509C9A59DA1D195B8010C409028333333333333E3BF0000000000000FB010790141107004050150841D405064090741402480A029956
 94
        0
1001
ACAD
1000
AcDbSavedByObjectVersion
1070
     0
1000
AcadProxyRoundTripData
1071
      505
1071
   655383
1070
     0
  0
ACAD_PROXY_OBJECT
  5
1C1B
102
{ACAD_REACTORS
330
1C0B
102
}
330
1C0B
100
AcDbProxyObject
 90
      499
 91
      510
 93
      460
310
4310DBDB1BDC90DA185B99D9401104090240C333333333333E3BF0000000000000FB0108901411070040501508421405064090741402480A0354
 94
        0
1001
ACAD
1000
AcDbSavedByObjectVersion
1070
     0
1000
AcadProxyRoundTripData
1071
      505
1071
   655383
1070
     0
  0
ACAD_PROXY_OBJECT
  5
1C14
102
{ACAD_REACTORS
330
1C0B
102
}
330
1C0B
100
AcDbProxyObject
 90
      499
 91
      510
 93
      508
310
42D0DBDB98D95C1D1D585B0010940D028333333333333E3BF0000000000000FB0107902409070040501000000000000111010841D405064090740C02480A0340
 94
        0
1001
ACAD
1000
AcDbSavedByObjectVersion
1070
     0
1000
AcadProxyRoundTripData
1071
      505
1071
   655383
1070
     0
  0
ACAD_PROXY_OBJECT
  5
1C16
102
{ACAD_REACTORS
330
1C0B
102
}
330
1C0B
100
AcDbProxyObject
 90
      499
 91
      510
 93
      420
310
41111A5B4010B409028333333333333E3BF0000000000000FB010790141107004050150841D405064090741402480A02677FFFFFDB
 94
        0
1001
ACAD
1000
AcDbSavedByObjectVersion
1070
     0
1000
AcadProxyRoundTripData
1071
      505
1071
   655383
1070
     0
  0
ACAD_PROXY_OBJECT
  5
1C1A
102
{ACAD_REACTORS
330
1C0B
102
}
330
1C0B
100
AcDbProxyObject
 90
      499
 91
      510
 93
      452
310
43119858D95C185D1D195C9B8010F409028333333333333E3BF0000000000000FB010790141107004050150841D405064090741402480A0350
 94
        0
1001
ACAD
1000
AcDbSavedByObjectVersion
1070
     0
1000
AcadProxyRoundTripData
1071
      505
1071
   655383
1070
     0
  0
ACAD_PROXY_OBJECT
  5
1C0C
102
{ACAD_REACTORS
330
1C0B
102
}
330
1C0B
100
AcDbProxyObject
 90
      499
 91
      510
 93
      396
310
41519B185D00240901404333333333333E3BF0000000000000F9010740A41107004050150841D405064090741402480A1B55
 94
        0
1001
ACAD
1000
AcDbSavedByObjectVersion
1070
     0
1000
AcadProxyRoundTripData
1071
      505
1071
   655383
1070
     0
  0
ACAD_PROXY_OBJECT
  5
1C0D
102
{ACAD_REACTORS
330
1C0B
102
}
330
1C0B
100
AcDbProxyObject
 90
      499
 91
      510
 93
      484
310
43919B185D15DA5D1A115919D95CC010140901404333333333333E3BF0000000000000F9010740901411070040501600405405064090741402480A1B50
 94
        0
1001
ACAD
1000
AcDbSavedByObjectVersion
1070
     0
1000
AcadProxyRoundTripData
1071
      505
1071
   655383
1070
     0
  0
ACAD_PROXY_OBJECT
  5
1C0E
102
{ACAD_REACTORS
330
1C0B
102
}
330
1C0B
100
AcDbProxyObject
 90
      499
 91
      510
 93
      420
310
4211DBDD5C985D590010240902404333333333333E3BF0000000000000F9010740A411070040501641D405064090741402480A1B50
 94
        0
1001
ACAD
1000
AcDbSavedByObjectVersion
1070
     0
1000
AcadProxyRoundTripData
1071
      505
1071
   655383
1070
     0
  0
ACAD_PROXY_OBJECT
  5
1C0F
102
{ACAD_REACTORS
330
1C0B
102
}
330
1C0B
100
AcDbProxyObject
 90
      499
 91
      510
 93
      508
310
4451DBDD5C985D5915DA5D1A115919D95CC010340902404333333333333E3BF0000000000000F9010740901411070040501600405405064090741402480A1B50
 94
        0
1001
ACAD
1000
AcDbSavedByObjectVersion
1070
     0
1000
AcadProxyRoundTripData
1071
      505
1071
   655383
1070
     0
  0
ACAD_PROXY_OBJECT
  5
1C19
102
{ACAD_REACTORS
330
1C0B
102
}
330
1C0B
100
AcDbProxyObject
 90
      499
 91
      510
 93
      452
310
43131A5B995C185D1D195C9B8010E409028333333333333E3BF0000000000000FB010790141107004050750841D405064090741402483A0350
 94
        0
1001
ACAD
1000
AcDbSavedByObjectVersion
1070
     0
1000
AcadProxyRoundTripData
1071
      505
1071
   655383
1070
     0
  0
ACAD_PROXY_OBJECT
  5
1C15
102
{ACAD_REACTORS
330
1C0B
102
}
330
1C0B
100
AcDbProxyObject
 90
      499
 91
      510
 93
      428
310
429499585B1A5CDD1A58C0108409028333333333333E3BF0000000000000FB01079019070040501508421405064090741402480A1B45
 94
        0
1001
ACAD
1000
AcDbSavedByObjectVersion
1070
     0
1000
AcadProxyRoundTripData
1071
      505
1071
   655383
1070
     0
  0
ACAD_PROXY_OBJECT
  5
1C18
102
{ACAD_REACTORS
330
1C0B
102
}
330
1C0B
100
AcDbProxyObject
 90
      499
 91
      510
 93
      420
310
42151A1A58DAD95B8010D409028333333333333E3BF0000000000000FB010790141107004050150C41D405064090741402480A0352
 94
        0
1001
ACAD
1000
AcDbSavedByObjectVersion
1070
     0
1000
AcadProxyRoundTripData
1071
      505
1071
   655383
1070
     0
  0
XRECORD
  5
1DE4
102
{ACAD_REACTORS
330
1DDA
102
}
330
1DDA
100
AcDbXrecord
 90
        0
  0
XRECORD
  5
1DE8
102
{ACAD_REACTORS
330
1DDA
102
}
330
1DDA
100
AcDbXrecord
1000
DSTYLE
1002
{
1070
   179
 70
     2
1070
   277
 70
     6
1002
}
  0
XRECORD
  5
1DE5
102
{ACAD_REACTORS
330
1DDA
102
}
330
1DDA
100
AcDbXrecord
  1
{6385560B-F4B1-4644-A7C2-A3E32AC3D232}
  0
XRECORD
  5
1DDD
102
{ACAD_REACTORS
330
1DDA
102
}
330
1DDA
100
AcDbXrecord
  1

  0
XRECORD
  5
1DE3
102
{ACAD_REACTORS
330
1DDA
102
}
330
1DDA
100
AcDbXrecord
 90
        0
  0
XRECORD
  5
1DDF
102
{ACAD_REACTORS
330
1DDA
102
}
330
1DDA
100
AcDbXrecord
340
61
  0
XRECORD
  5
1DE2
102
{ACAD_REACTORS
330
1DDA
102
}
330
1DDA
100
AcDbXrecord
 90
    10781
  0
XRECORD
  5
1DE0
102
{ACAD_REACTORS
330
1DDA
102
}
330
1DDA
100
AcDbXrecord
340
77
  0
XRECORD
  5
1DE1
102
{ACAD_REACTORS
330
1DDA
102
}
330
1DDA
100
AcDbXrecord
340
6
  0
XRECORD
  5
1DE7
102
{ACAD_REACTORS
330
1DDA
102
}
330
1DDA
100
AcDbXrecord
 40
0.0
  0
XRECORD
  5
1DEB
102
{ACAD_REACTORS
330
1DDA
102
}
330
1DDA
100
AcDbXrecord
340
0
  0
XRECORD
  5
1DF1
102
{ACAD_REACTORS
330
1DDA
102
}
330
1DDA
100
AcDbXrecord
 10
0.0
 20
0.0
 30
0.0
  0
XRECORD
  5
1DED
102
{ACAD_REACTORS
330
1DDA
102
}
330
1DDA
100
AcDbXrecord
 10
0.0
 20
0.0
 30
0.0
  0
XRECORD
  5
1DF0
102
{ACAD_REACTORS
330
1DDA
102
}
330
1DDA
100
AcDbXrecord
 10
0.0
 20
0.0
 30
0.0
  0
XRECORD
  5
1DEE
102
{ACAD_REACTORS
330
1DDA
102
}
330
1DDA
100
AcDbXrecord
 10
0.0
 20
0.0
 30
0.0
  0
XRECORD
  5
1DEF
102
{ACAD_REACTORS
330
1DDA
102
}
330
1DDA
100
AcDbXrecord
 10
0.0
 20
0.0
 30
0.0
  0
XRECORD
  5
1DEC
102
{ACAD_REACTORS
330
1DDA
102
}
330
1DDA
100
AcDbXrecord
 10
0.0
 20
0.0
 30
0.0
  0
XRECORD
  5
1DE9
102
{ACAD_REACTORS
330
1DDA
102
}
330
1DDA
100
AcDbXrecord
340
0
  0
XRECORD
  5
1DEA
102
{ACAD_REACTORS
330
1DDA
102
}
330
1DDA
100
AcDbXrecord
 70
     0
  0
XRECORD
  5
1DDE
102
{ACAD_REACTORS
330
1DDA
102
}
330
1DDA
100
AcDbXrecord
  1
Sekkei.ctb
  0
XRECORD
  5
1DDB
102
{ACAD_REACTORS
330
1DDA
102
}
330
1DDA
100
AcDbXrecord
 90
        1
  0
XRECORD
  5
1DDC
102
{ACAD_REACTORS
330
1DDA
102
}
330
1DDA
100
AcDbXrecord
 90
       70
  0
XRECORD
  5
1DF4
102
{ACAD_REACTORS
330
1DDA
102
}
330
1DDA
100
AcDbXrecord
340
0
  0
XRECORD
  5
1DFA
102
{ACAD_REACTORS
330
1DDA
102
}
330
1DDA
100
AcDbXrecord
 10
0.0
 20
0.0
 30
0.0
  0
XRECORD
  5
1DF6
102
{ACAD_REACTORS
330
1DDA
102
}
330
1DDA
100
AcDbXrecord
 10
0.0
 20
0.0
 30
0.0
  0
XRECORD
  5
1DF9
102
{ACAD_REACTORS
330
1DDA
102
}
330
1DDA
100
AcDbXrecord
 10
0.0
 20
0.0
 30
0.0
  0
XRECORD
  5
1DF7
102
{ACAD_REACTORS
330
1DDA
102
}
330
1DDA
100
AcDbXrecord
 10
0.0
 20
0.0
 30
0.0
  0
XRECORD
  5
1DF8
102
{ACAD_REACTORS
330
1DDA
102
}
330
1DDA
100
AcDbXrecord
 10
0.0
 20
0.0
 30
0.0
  0
XRECORD
  5
1DF5
102
{ACAD_REACTORS
330
1DDA
102
}
330
1DDA
100
AcDbXrecord
 10
0.0
 20
0.0
 30
0.0
  0
XRECORD
  5
1DF2
102
{ACAD_REACTORS
330
1DDA
102
}
330
1DDA
100
AcDbXrecord
340
0
  0
XRECORD
  5
1DF3
102
{ACAD_REACTORS
330
1DDA
102
}
330
1DDA
100
AcDbXrecord
 70
     0
  0
XRECORD
  5
1DE6
102
{ACAD_REACTORS
330
1DDA
102
}
330
1DDA
100
AcDbXrecord
  1
{BB2D4A9F-BE5A-4845-8B95-E62E722DC333}
  0
DICTIONARYVAR
  5
1C82
102
{ACAD_REACTORS
330
102
102
}
330
102
100
DictionaryVariables
280
     0
  1
1:1
  0
DICTIONARYVAR
  5
1C81
102
{ACAD_REACTORS
330
102
102
}
330
102
100
DictionaryVariables
280
     0
  1
STANDARD
  0
DICTIONARYVAR
  5
1C80
102
{ACAD_REACTORS
330
102
102
}
330
102
100
DictionaryVariables
280
     0
  1
STANDARD
  0
DICTIONARYVAR
  5
103
102
{ACAD_REACTORS
330
102
102
}
330
102
100
DictionaryVariables
280
     0
  1
1
  0
DICTIONARYVAR
  5
1C83
102
{ACAD_REACTORS
330
102
102
}
330
102
100
DictionaryVariables
280
     0
  1
0
  0
DICTIONARYVAR
  5
549
102
{ACAD_REACTORS
330
102
102
}
330
102
100
DictionaryVariables
280
     0
  1
96
  0
DICTIONARY
  5
1BFC
330
1BFB
100
AcDbDictionary
280
     1
  3
ACAD_XREC_ROUNDTRIP
360
1DBE
  3
BUMPTILE
360
1BFE
  3
DIFFUSETILE
360
1BFD
  3
OPACITYTILE
360
1C01
  3
REFLECTIONTILE
360
1C00
  3
REFRACTIONTILE
360
1C02
  3
SPECULARTILE
360
1BFF
  0
DICTIONARY
  5
1BF4
330
1BF3
100
AcDbDictionary
280
     1
  3
ACAD_XREC_ROUNDTRIP
360
1DBD
  3
BUMPTILE
360
1BF6
  3
DIFFUSETILE
360
1BF5
  3
OPACITYTILE
360
1BF9
  3
REFLECTIONTILE
360
1BF8
  3
REFRACTIONTILE
360
1BFA
  3
SPECULARTILE
360
1BF7
  0
DICTIONARY
  5
1C04
330
1C03
100
AcDbDictionary
280
     1
  3
ACAD_XREC_ROUNDTRIP
360
1DBF
  3
BUMPTILE
360
1C06
  3
DIFFUSETILE
360
1C05
  3
OPACITYTILE
360
1C09
  3
REFLECTIONTILE
360
1C08
  3
REFRACTIONTILE
360
1C0A
  3
SPECULARTILE
360
1C07
  0
DICTIONARY
  5
1C5E
330
1C1E
100
AcDbDictionary
280
     1
  3
ACAD_ROUNDTRIP_2008_TABLES
360
1DA2
  3
ACAD_XREC_ROUNDTRIP
360
1DC0
  0
XRECORD
  5
1DBE
102
{ACAD_REACTORS
330
1BFC
102
}
330
1BFC
100
AcDbXrecord
102
MATERIAL
148
0.0
149
0.0
149
0.0
 93
        0
 94
      127
282
     0
 72
     0
 77
     0
171
     0
175
     0
179
     0
273
     0
  0
XRECORD
  5
1BFE
102
{ACAD_REACTORS
330
1BFC
102
}
330
1BFC
100
AcDbXrecord
270
     1
271
     1
  0
XRECORD
  5
1BFD
102
{ACAD_REACTORS
330
1BFC
102
}
330
1BFC
100
AcDbXrecord
270
     1
271
     1
  0
XRECORD
  5
1C01
102
{ACAD_REACTORS
330
1BFC
102
}
330
1BFC
100
AcDbXrecord
270
     1
271
     1
  0
XRECORD
  5
1C00
102
{ACAD_REACTORS
330
1BFC
102
}
330
1BFC
100
AcDbXrecord
270
     1
271
     1
  0
XRECORD
  5
1C02
102
{ACAD_REACTORS
330
1BFC
102
}
330
1BFC
100
AcDbXrecord
270
     1
271
     1
  0
XRECORD
  5
1BFF
102
{ACAD_REACTORS
330
1BFC
102
}
330
1BFC
100
AcDbXrecord
270
     1
271
     1
  0
XRECORD
  5
1DBD
102
{ACAD_REACTORS
330
1BF4
102
}
330
1BF4
100
AcDbXrecord
102
MATERIAL
148
0.0
149
0.0
149
0.0
 93
        0
 94
      127
282
     0
 72
     0
 77
     0
171
     0
175
     0
179
     0
273
     0
  0
XRECORD
  5
1BF6
102
{ACAD_REACTORS
330
1BF4
102
}
330
1BF4
100
AcDbXrecord
270
     1
271
     1
  0
XRECORD
  5
1BF5
102
{ACAD_REACTORS
330
1BF4
102
}
330
1BF4
100
AcDbXrecord
270
     1
271
     1
  0
XRECORD
  5
1BF9
102
{ACAD_REACTORS
330
1BF4
102
}
330
1BF4
100
AcDbXrecord
270
     1
271
     1
  0
XRECORD
  5
1BF8
102
{ACAD_REACTORS
330
1BF4
102
}
330
1BF4
100
AcDbXrecord
270
     1
271
     1
  0
XRECORD
  5
1BFA
102
{ACAD_REACTORS
330
1BF4
102
}
330
1BF4
100
AcDbXrecord
270
     1
271
     1
  0
XRECORD
  5
1BF7
102
{ACAD_REACTORS
330
1BF4
102
}
330
1BF4
100
AcDbXrecord
270
     1
271
     1
  0
XRECORD
  5
1DBF
102
{ACAD_REACTORS
330
1C04
102
}
330
1C04
100
AcDbXrecord
102
MATERIAL
148
0.0
149
0.0
149
0.0
 93
        0
 94
      127
282
     0
 72
     0
 77
     0
171
     0
175
     0
179
     0
273
     0
  0
XRECORD
  5
1C06
102
{ACAD_REACTORS
330
1C04
102
}
330
1C04
100
AcDbXrecord
270
     1
271
     1
  0
XRECORD
  5
1C05
102
{ACAD_REACTORS
330
1C04
102
}
330
1C04
100
AcDbXrecord
270
     1
271
     1
  0
XRECORD
  5
1C09
102
{ACAD_REACTORS
330
1C04
102
}
330
1C04
100
AcDbXrecord
270
     1
271
     1
  0
XRECORD
  5
1C08
102
{ACAD_REACTORS
330
1C04
102
}
330
1C04
100
AcDbXrecord
270
     1
271
     1
  0
XRECORD
  5
1C0A
102
{ACAD_REACTORS
330
1C04
102
}
330
1C04
100
AcDbXrecord
270
     1
271
     1
  0
XRECORD
  5
1C07
102
{ACAD_REACTORS
330
1C04
102
}
330
1C04
100
AcDbXrecord
270
     1
271
     1
  0
ACAD_PROXY_OBJECT
  5
1DA2
102
{ACAD_REACTORS
330
1C5E
102
}
330
1C5E
100
AcDbProxyObject
 90
      499
 91
      510
 93
     5304
310
40D054060020000020000003200101A000080002A5058000000C100000000000000340FD012E07A17AD46E2B8FCB81E85EB51B8AE3F2E07A17AD46E2B8FCB81E85EB51B8AE3F02B5E8DC0F42B1CFC0AD7A3703D0AC73F419019018000000C1003FBFFFFFE02B5E8DC0F42A9CFD029018000000C1003FBFFFFFE02B5E8DC0F4
310
2A9CFD049018000000C1003FBFFFFFE02B5E8DC0F42A9CFD089018000000C1003FBFFFFFE02B5E8DC0F42A9CFD109018000000C1003FBFFFFFE02B5E8DC0F42A9CFD209018000000C1003FBFFFFFE02B5E8DC0F42A9CFD01405075F5449544C450041501A8000000C800406800020000A9416000000304000AD7A3703D0AC7
310
3F404B81E85EB51B8AE3F2E07A17AD46E2B8FCB81E85EB51B8AE3F2E07A17AD46E2B8FC0AD7A3703D0AC73F02B5E8DC0F42B1CFD0640640600000030400FEFFFFFF80AD7A3703D0AA73F40A40600000030400FEFFFFFF80AD7A3703D0AA73F41240600000030400FEFFFFFF80AD7A3703D0AA73F42240600000030400FEFFF
310
FFF80AD7A3703D0AA73F44240600000030400FEFFFFFF80AD7A3703D0AA73F48240600000030400FEFFFFFF80AD7A3703D0AA73F409014217D2115051115480105406A0000003200101A000080002A5028000000C10002B5E8DC0F42B1CFD012E07A17AD46E2B8FCB81E85EB51B8AE3F2E07A17AD46E2B8FCB81E85EB51B8A
310
E3F02B5E8DC0F42B1CFC0AD7A3703D0AC73F419019018000000C1003FBFFFFFE02B5E8DC0F42A9CFD029018000000C1003FBFFFFFE02B5E8DC0F42A9CFD049018000000C1003FBFFFFFE02B5E8DC0F42A9CFD089018000000C1003FBFFFFFE02B5E8DC0F42A9CFD109018000000C1003FBFFFFFE02B5E8DC0F42A9CFD20901
310
8000000C1003FBFFFFFE02B5E8DC0F42A9CFD03409065F4441544100AA
340
16
340
0
340
0
340
0
340
0
340
0
340
0
340
16
340
0
340
0
340
0
340
0
340
0
340
0
340
16
340
0
340
0
340
0
340
0
340
0
340
0
 94
        0
1001
ACAD
1000
AcadProxyRoundTripData
1071
      509
1071
   655383
1070
     0
  0
XRECORD
  5
1DC0
102
{ACAD_REACTORS
330
1C5E
102
}
330
1C5E
100
AcDbXrecord
102
ACAD_ROUNDTRIP_PRE2007_TABLESTYLE
 90
      512
 91
        0
  1

 92
      512
 93
        0
  2

 94
      512
 95
        0
  3

  0
ENDSEC
  0
EOF
