  0
SECTION
  2
HEADER
  9
$ACADVER
  1
AC1014
  9
$ACADMAINTVER
 70
     9
  9
$DWGCODEPAGE
  3
ANSI_932
  9
$INSBASE
 10
0.0
 20
0.0
 30
0.0
  9
$EXTMIN
 10
39.86246371466165
 20
81.26385539498148
 30
0.0
  9
$EXTMAX
 10
768.6481625017417
 20
536.1503196479964
 30
0.0
  9
$LIMMIN
 10
0.0
 20
0.0
  9
$LIMMAX
 10
297.0
 20
210.0
  9
$ORTHOMODE
 70
     1
  9
$REGENMODE
 70
     1
  9
$FILLMODE
 70
     1
  9
$QTEXTMODE
 70
     0
  9
$MIRRTEXT
 70
     0
  9
$DRAGMODE
 70
     2
  9
$LTSCALE
 40
2.0
  9
$OSMODE
 70
    37
  9
$ATTMODE
 70
     1
  9
$TEXTSIZE
 40
2.0
  9
$TRACEWID
 40
1.0
  9
$TEXTSTYLE
  7
STANDARD
  9
$CLAYER
  8
0
  9
$CELTYPE
  6
BYLAYER
  9
$CECOLOR
 62
   256
  9
$CELTSCALE
 40
1.0
  9
$DELOBJ
 70
     1
  9
$DISPSILH
 70
     0
  9
$DIMSCALE
 40
2.0
  9
$DIMASZ
 40
1.8
  9
$DIMEXO
 40
0.625
  9
$DIMDLI
 40
3.75
  9
$DIMRND
 40
0.0
  9
$DIMDLE
 40
0.0
  9
$DIMEXE
 40
0.8
  9
$DIMTP
 40
0.0
  9
$DIMTM
 40
0.0
  9
$DIMTXT
 40
1.8
  9
$DIMCEN
 40
2.5
  9
$DIMTSZ
 40
0.0
  9
$DIMTOL
 70
     0
  9
$DIMLIM
 70
     0
  9
$DIMTIH
 70
     0
  9
$DIMTOH
 70
     0
  9
$DIMSE1
 70
     0
  9
$DIMSE2
 70
     0
  9
$DIMTAD
 70
     1
  9
$DIMZIN
 70
     8
  9
$DIMBLK
  1

  9
$DIMASO
 70
     1
  9
$DIMSHO
 70
     1
  9
$DIMPOST
  1

  9
$DIMAPOST
  1

  9
$DIMALT
 70
     0
  9
$DIMALTD
 70
     4
  9
$DIMALTF
 40
0.0394
  9
$DIMLFAC
 40
1.0
  9
$DIMTOFL
 70
     1
  9
$DIMTVP
 40
0.0
  9
$DIMTIX
 70
     0
  9
$DIMSOXD
 70
     0
  9
$DIMSAH
 70
     0
  9
$DIMBLK1
  1

  9
$DIMBLK2
  1

  9
$DIMSTYLE
  2
STANDARD
  9
$DIMCLRD
 70
     0
  9
$DIMCLRE
 70
     0
  9
$DIMCLRT
 70
     0
  9
$DIMTFAC
 40
1.0
  9
$DIMGAP
 40
0.75
  9
$DIMJUST
 70
     0
  9
$DIMSD1
 70
     0
  9
$DIMSD2
 70
     0
  9
$DIMTOLJ
 70
     1
  9
$DIMTZIN
 70
     0
  9
$DIMALTZ
 70
     0
  9
$DIMALTTZ
 70
     0
  9
$DIMFIT
 70
     3
  9
$DIMUPT
 70
     0
  9
$DIMUNIT
 70
     8
  9
$DIMDEC
 70
     2
  9
$DIMTDEC
 70
     2
  9
$DIMALTU
 70
     8
  9
$DIMALTTD
 70
     4
  9
$DIMTXSTY
  7
STANDARD
  9
$DIMAUNIT
 70
     0
  9
$LUNITS
 70
     2
  9
$LUPREC
 70
     3
  9
$SKETCHINC
 40
1.0
  9
$FILLETRAD
 40
2.0
  9
$AUNITS
 70
     0
  9
$AUPREC
 70
     2
  9
$MENU
  1
.
  9
$ELEVATION
 40
0.0
  9
$PELEVATION
 40
0.0
  9
$THICKNESS
 40
0.0
  9
$LIMCHECK
 70
     0
  9
$BLIPMODE
 70
     0
  9
$CHAMFERA
 40
0.0
  9
$CHAMFERB
 40
0.0
  9
$CHAMFERC
 40
20.0
  9
$CHAMFERD
 40
0.0
  9
$SKPOLY
 70
     0
  9
$TDCREATE
 40
2454411.541237881
  9
$TDUPDATE
 40
2454426.366139861
  9
$TDINDWG
 40
0.0120938079
  9
$TDUSRTIMER
 40
0.0120938079
  9
$USRTIMER
 70
     1
  9
$ANGBASE
 50
0.0
  9
$ANGDIR
 70
     0
  9
$PDMODE
 70
     0
  9
$PDSIZE
 40
-10.0
  9
$PLINEWID
 40
0.0
  9
$COORDS
 70
     0
  9
$SPLFRAME
 70
     0
  9
$SPLINETYPE
 70
     6
  9
$SPLINESEGS
 70
     8
  9
$ATTDIA
 70
     0
  9
$ATTREQ
 70
     1
  9
$HANDLING
 70
-16383
  9
$HANDSEED
  5
1C9D
  9
$SURFTAB1
 70
     6
  9
$SURFTAB2
 70
     6
  9
$SURFTYPE
 70
     6
  9
$SURFU
 70
     6
  9
$SURFV
 70
     6
  9
$UCSNAME
  2

  9
$UCSORG
 10
0.0
 20
0.0
 30
0.0
  9
$UCSXDIR
 10
1.0
 20
0.0
 30
0.0
  9
$UCSYDIR
 10
0.0
 20
1.0
 30
0.0
  9
$PUCSNAME
  2

  9
$PUCSORG
 10
0.0
 20
0.0
 30
0.0
  9
$PUCSXDIR
 10
1.0
 20
0.0
 30
0.0
  9
$PUCSYDIR
 10
0.0
 20
1.0
 30
0.0
  9
$USERI1
 70
     0
  9
$USERI2
 70
     0
  9
$USERI3
 70
     0
  9
$USERI4
 70
     0
  9
$USERI5
 70
     0
  9
$USERR1
 40
0.0
  9
$USERR2
 40
0.0
  9
$USERR3
 40
0.0
  9
$USERR4
 40
0.0
  9
$USERR5
 40
0.0
  9
$WORLDVIEW
 70
     1
  9
$SHADEDGE
 70
     3
  9
$SHADEDIF
 70
    70
  9
$TILEMODE
 70
     1
  9
$MAXACTVP
 70
    48
  9
$PINSBASE
 10
0.0
 20
0.0
 30
0.0
  9
$PLIMCHECK
 70
     0
  9
$PEXTMIN
 10
0.0
 20
0.0
 30
0.0
  9
$PEXTMAX
 10
0.0
 20
0.0
 30
0.0
  9
$PLIMMIN
 10
0.0
 20
0.0
  9
$PLIMMAX
 10
12.0
 20
9.0
  9
$UNITMODE
 70
     0
  9
$VISRETAIN
 70
     1
  9
$PLINEGEN
 70
     0
  9
$PSLTSCALE
 70
     1
  9
$TREEDEPTH
 70
  3020
  9
$PICKSTYLE
 70
     1
  9
$CMLSTYLE
  2
STANDARD
  9
$CMLJUST
 70
     0
  9
$CMLSCALE
 40
1.0
  9
$PROXYGRAPHICS
 70
     1
  9
$MEASUREMENT
 70
     0
  0
ENDSEC
  0
SECTION
  2
CLASSES
  0
CLASS
  1
DICTIONARYVAR
  2
AcDbDictionaryVar
  3
AutoCAD 2000
 90
        0
280
     0
281
     0
  0
CLASS
  1
ACDBDICTIONARYWDFLT
  2
AcDbDictionaryWithDefault
  3
AutoCAD 2000
 90
        0
280
     0
281
     0
  0
CLASS
  1
ACDBPLACEHOLDER
  2
AcDbPlaceHolder
  3
AutoCAD 2000
 90
        0
280
     0
281
     0
  0
CLASS
  1
LAYOUT
  2
AcDbLayout
  3
AutoCAD 2000
 90
        0
280
     0
281
     0
  0
CLASS
  1
MATERIAL
  2
AcDbMaterial
  3
ObjectDBX Classes
 90
     1153
280
     0
281
     0
  0
CLASS
  1
VISUALSTYLE
  2
AcDbVisualStyle
  3
ObjectDBX Classes
 90
     4095
280
     0
281
     0
  0
CLASS
  1
TABLESTYLE
  2
AcDbTableStyle
  3
ObjectDBX Classes
 90
     4095
280
     0
281
     0
  0
CLASS
  1
SCALE
  2
AcDbScale
  3
ObjectDBX Classes
 90
     1153
280
     0
281
     0
  0
CLASS
  1
MLEADERSTYLE
  2
AcDbMLeaderStyle
  3
ACDB_MLEADERSTYLE_CLASS
 90
     4095
280
     0
281
     0
  0
CLASS
  1
CELLSTYLEMAP
  2
AcDbCellStyleMap
  3
ObjectDBX Classes
 90
     1152
280
     0
281
     0
  0
CLASS
  1
ACAD_PROXY_OBJECT_WRAPPER
  2
AcDbProxyObjectWrapper
  3
AutoCAD 2000
 90
        0
280
     0
281
     0
  0
CLASS
  1
LONG_TRANSACTION
  2
AcDbLongTransaction
  3
AutoCAD 2000
 90
        0
280
     0
281
     0
  0
CLASS
  1
LWPOLYLINE
  2
AcDbPolyline
  3
AutoCAD 2000
 90
        0
280
     0
281
     1
  0
CLASS
  1
HATCH
  2
AcDbHatch
  3
AutoCAD 2000
 90
        0
280
     0
281
     1
  0
CLASS
  1
XRECORD
  2
AcDbXrecord
  3
AutoCAD 2000
 90
        0
280
     0
281
     0
  0
ENDSEC
  0
SECTION
  2
TABLES
  0
TABLE
  2
VPORT
  5
6E
102
{ACAD_XDICTIONARY
360
1AE8
102
}
330
0
100
AcDbSymbolTable
 70
     2
  0
VPORT
  5
1C77
330
6E
100
AcDbSymbolTableRecord
100
AcDbViewportTableRecord
  2
*ACTIVE
 70
     0
 10
0.0
 20
0.0
 11
1.0
 21
1.0
 12
448.5496459392829
 22
300.5516442180986
 13
0.0
 23
0.0
 14
10.0
 24
10.0
 15
10.0
 25
10.0
 16
0.0
 26
0.0
 36
1.0
 17
0.0
 27
0.0
 37
0.0
 40
474.9043143560852
 41
1.753504672897196
 42
50.0
 43
0.0
 44
0.0
 50
0.0
 51
0.0
 71
     0
 72
   100
 73
     1
 74
     3
 75
     0
 76
     0
 77
     0
 78
     0
  0
ENDTAB
  0
TABLE
  2
LTYPE
  5
69
330
0
100
AcDbSymbolTable
 70
     8
  0
LTYPE
  5
6A
330
69
100
AcDbSymbolTableRecord
100
AcDbLinetypeTableRecord
  2
BYBLOCK
 70
     0
  3

 72
    65
 73
     0
 40
0.0
  0
LTYPE
  5
6B
330
69
100
AcDbSymbolTableRecord
100
AcDbLinetypeTableRecord
  2
BYLAYER
 70
     0
  3

 72
    65
 73
     0
 40
0.0
  0
LTYPE
  5
8
330
69
100
AcDbSymbolTableRecord
100
AcDbLinetypeTableRecord
  2
CONTINUOUS
 70
     0
  3
Solid line
 72
    65
 73
     0
 40
0.0
  0
LTYPE
  5
27C
330
69
100
AcDbSymbolTableRecord
100
AcDbLinetypeTableRecord
  2
SEKKEI_A2_
 70
     0
  3
center(A2)  ____ _ ____ _ ____ _ ____ _ ____ _ 
 72
    65
 73
     4
 40
14.28749999999999
 49
9.525
 74
     0
 49
-1.587499999999999
 74
     0
 49
1.587499999999999
 74
     0
 49
-1.587499999999999
 74
     0
  0
LTYPE
  5
48F
330
69
100
AcDbSymbolTableRecord
100
AcDbLinetypeTableRecord
  2
SEKKEI_H
 70
     0
  3
Hidden-S _ _ _ _ _ _ _ _ _ _ _ _ _ _ _ _ _
 72
    65
 73
     2
 40
2.381249999999999
 49
1.587499999999999
 74
     0
 49
-0.79375
 74
     0
  0
LTYPE
  5
494
330
69
100
AcDbSymbolTableRecord
100
AcDbLinetypeTableRecord
  2
SEKKEI_P_S
 70
     0
  3
Phantom_S   __ _ _ __ _ _ __ _ _ ___
 72
    65
 73
     6
 40
7.5
 49
3.75
 74
     0
 49
-0.75
 74
     0
 49
0.75
 74
     0
 49
-0.75
 74
     0
 49
0.75
 74
     0
 49
-0.75
 74
     0
  0
LTYPE
  5
7EF
330
69
100
AcDbSymbolTableRecord
100
AcDbLinetypeTableRecord
  2
PHANTOM3
 70
     0
  3
Phantom  ___ _ _ ___ _ _ ___ _ _ ___ _ _
 72
    65
 73
     6
 40
9.0
 49
4.0
 74
     0
 49
-1.0
 74
     0
 49
1.0
 74
     0
 49
-1.0
 74
     0
 49
1.0
 74
     0
 49
-1.0
 74
     0
  0
LTYPE
  5
7F0
330
69
100
AcDbSymbolTableRecord
100
AcDbLinetypeTableRecord
  2
HIDDEN3
 70
     0
  3
Hidden (.3x) _ _ _ _ _ _ _ _ _ _ _ _ _ _ _ _ _
 72
    65
 73
     2
 40
2.857499999999999
 49
1.905
 74
     0
 49
-0.9525
 74
     0
  0
LTYPE
  5
B0F
330
69
100
AcDbSymbolTableRecord
100
AcDbLinetypeTableRecord
  2
CENS
 70
     0
  3
(一点鎖線１)---- - ---- - ---- - ---- - ---- - 
 72
    65
 73
     4
 40
7.0
 49
4.0
 74
     0
 49
-1.0
 74
     0
 49
1.0
 74
     0
 49
-1.0
 74
     0
  0
ENDTAB
  0
TABLE
  2
LAYER
  5
66
102
{ACAD_XDICTIONARY
360
B10
102
}
330
0
100
AcDbSymbolTable
 70
    10
  0
LAYER
  5
5E
102
{ACAD_XDICTIONARY
360
1A8C
102
}
330
66
100
AcDbSymbolTableRecord
100
AcDbLayerTableRecord
  2
0
 70
     0
 62
     7
  6
CONTINUOUS
  0
LAYER
  5
3E
102
{ACAD_XDICTIONARY
360
1A8E
102
}
330
66
100
AcDbSymbolTableRecord
100
AcDbLayerTableRecord
  2
CENTER
 70
     0
 62
     3
  6
SEKKEI_A2_
  0
LAYER
  5
2B5
102
{ACAD_XDICTIONARY
360
1A94
102
}
330
66
100
AcDbSymbolTableRecord
100
AcDbLayerTableRecord
  2
HIDS
 70
     0
 62
     1
  6
HIDDEN3
  0
LAYER
  5
2BA
102
{ACAD_XDICTIONARY
360
1A96
102
}
330
66
100
AcDbSymbolTableRecord
100
AcDbLayerTableRecord
  2
HOJO
 70
     0
 62
     4
  6
CONTINUOUS
  0
LAYER
  5
478
102
{ACAD_XDICTIONARY
360
1A9A
102
}
330
66
100
AcDbSymbolTableRecord
100
AcDbLayerTableRecord
  2
PHAS
 70
     0
 62
     2
  6
PHANTOM3
  0
LAYER
  5
1C38
102
{ACAD_XDICTIONARY
360
1C39
102
}
330
66
100
AcDbSymbolTableRecord
100
AcDbLayerTableRecord
  2
TITLE
 70
     0
 62
     4
  6
CONTINUOUS
  0
ENDTAB
  0
TABLE
  2
STYLE
  5
67
330
0
100
AcDbSymbolTable
 70
     2
  0
STYLE
  5
16
330
67
100
AcDbSymbolTableRecord
100
AcDbTextStyleTableRecord
  2
STANDARD
 70
     0
 40
0.0
 41
1.0
 50
0.0
 71
     0
 42
2.0
  3
simplex.shx
  4
extfont.shx
  0
ENDTAB
  0
TABLE
  2
VIEW
  5
6C
330
0
100
AcDbSymbolTable
 70
     0
  0
ENDTAB
  0
TABLE
  2
UCS
  5
6D
330
0
100
AcDbSymbolTable
 70
     0
  0
ENDTAB
  0
TABLE
  2
APPID
  5
70
330
0
100
AcDbSymbolTable
 70
     3
  0
APPID
  5
71
330
70
100
AcDbSymbolTableRecord
100
AcDbRegAppTableRecord
  2
ACAD
 70
     0
  0
APPID
  5
1A80
330
70
100
AcDbSymbolTableRecord
100
AcDbRegAppTableRecord
  2
ACAD_MLEADERVER
 70
     0
  0
APPID
  5
1B84
330
70
100
AcDbSymbolTableRecord
100
AcDbRegAppTableRecord
  2
ACAD_DSTYLE_DIMRADIAL_EXTENSION
 70
     0
  0
ENDTAB
  0
TABLE
  2
DIMSTYLE
  5
72
330
0
100
AcDbSymbolTable
 70
     1
  0
DIMSTYLE
105
73
102
{ACAD_REACTORS
330
FBD
330
1323
330
1324
330
1331
330
133D
102
}
330
72
100
AcDbSymbolTableRecord
100
AcDbDimStyleTableRecord
  2
STANDARD
 70
     0
  3

  4

  5

  6

  7

 40
2.0
 41
1.8
 42
0.625
 43
3.75
 44
0.8
 45
0.0
 46
0.0
 47
0.0
 48
0.0
140
1.8
141
2.5
142
0.0
143
0.0394
144
1.0
145
0.0
146
1.0
147
0.75
 71
     0
 72
     0
 73
     0
 74
     0
 75
     0
 76
     0
 77
     1
 78
     8
170
     0
171
     4
172
     1
173
     0
174
     0
175
     0
176
     0
177
     0
178
     0
270
     8
271
     2
272
     2
273
     8
274
     4
340
16
275
     0
280
     0
281
     0
282
     0
283
     1
284
     0
285
     0
286
     0
287
     3
288
     0
  0
ENDTAB
  0
TABLE
  2
BLOCK_RECORD
  5
1
330
0
100
AcDbSymbolTable
 70
    56
  0
BLOCK_RECORD
  5
2
102
{ACAD_XDICTIONARY
360
1C99
102
}
330
1
100
AcDbSymbolTableRecord
100
AcDbBlockTableRecord
  2
*MODEL_SPACE
  0
BLOCK_RECORD
  5
1C72
102
{ACAD_XDICTIONARY
360
1C9B
102
}
330
1
100
AcDbSymbolTableRecord
100
AcDbBlockTableRecord
  2
*PAPER_SPACE
  0
ENDTAB
  0
ENDSEC
  0
SECTION
  2
BLOCKS
  0
BLOCK
  5
5D
330
2
100
AcDbEntity
  8
0
100
AcDbBlockBegin
  2
*MODEL_SPACE
 70
     0
 10
0.0
 20
0.0
 30
0.0
  3
*MODEL_SPACE
  1

  0
ENDBLK
  5
5F
330
2
100
AcDbEntity
  8
0
100
AcDbBlockEnd
  0
BLOCK
  5
1C74
330
1C72
100
AcDbEntity
 67
     1
  8
0
100
AcDbBlockBegin
  2
*PAPER_SPACE
 70
     0
 10
0.0
 20
0.0
 30
0.0
  3
*PAPER_SPACE
  1

  0
ENDBLK
  5
1C75
330
1C72
100
AcDbEntity
 67
     1
  8
0
100
AcDbBlockEnd
  0
ENDSEC
  0
SECTION
  2
ENTITIES
  0
TEXT
  5
FBF
330
2
100
AcDbEntity
  8
TITLE
100
AcDbText
 10
255.2326309658771
 20
487.2394431175763
 30
0.0
 40
5.0
  1
AFCZ15S-10~30M100S3
100
AcDbText
  0
TEXT
  5
FC0
330
2
100
AcDbEntity
  8
TITLE
100
AcDbText
 10
255.2326309658771
 20
479.7394431175763
 30
0.0
 40
5.0
  1
AFCZ15S-10~30L100S3
100
AcDbText
  0
LINE
  5
FC2
330
2
100
AcDbEntity
  8
0
100
AcDbLine
 10
740.648269501742
 20
328.196743073798
 30
0.0
 11
740.6482695017415
 21
320.2860287880951
 31
0.0
  0
LINE
  5
FC3
330
2
100
AcDbEntity
  8
CENTER
100
AcDbLine
 10
717.6482695017419
 20
334.9960251146106
 30
0.0
 11
717.6482695017419
 21
249.3974610329853
 31
0.0
  0
LINE
  5
FC4
330
2
100
AcDbEntity
  8
0
100
AcDbLine
 10
687.6482695017415
 20
327.7342190808879
 30
0.0
 11
687.6482695017397
 21
256.659267066708
 31
0.0
  0
LINE
  5
FC5
330
2
100
AcDbEntity
  8
CENTER
100
AcDbLine
 10
652.6482695017415
 20
292.196743073798
 30
0.0
 11
768.6481625017417
 21
292.196743073798
 31
0.0
  0
LINE
  5
FC6
330
2
100
AcDbEntity
  8
0
100
AcDbLine
 10
682.6482695017419
 20
322.1967426128297
 30
0.0
 11
682.6482695017419
 21
262.1967426128297
 31
0.0
  0
LINE
  5
FC7
330
2
100
AcDbEntity
  8
0
100
AcDbLine
 10
687.6482695017419
 20
322.1967426128297
 30
0.0
 11
682.6482695017419
 21
322.1967426128297
 31
0.0
  0
LINE
  5
FC8
330
2
100
AcDbEntity
  8
0
100
AcDbLine
 10
687.6482695017419
 20
262.1967426128297
 30
0.0
 11
682.6482695017419
 21
262.1967426128297
 31
0.0
  0
LINE
  5
FC9
330
2
100
AcDbEntity
  8
0
100
AcDbLine
 10
740.6482695017379
 20
264.1074573595026
 30
0.0
 11
740.6482695017374
 21
256.196743073798
 31
0.0
  0
LINE
  5
FCA
330
2
100
AcDbEntity
  8
0
100
AcDbLine
 10
740.648269501742
 20
328.196743073798
 30
0.0
 11
687.6482695017415
 21
327.7342190808879
 31
0.0
  0
LINE
  5
FCB
330
2
100
AcDbEntity
  8
0
100
AcDbLine
 10
740.6482695017374
 20
256.196743073798
 30
0.0
 11
687.6482695017397
 21
256.659267066708
 31
0.0
  0
LINE
  5
FCC
330
2
100
AcDbEntity
  8
0
100
AcDbLine
 10
669.648269501742
 20
314.2653650632158
 30
0.0
 11
669.6482695017411
 21
270.1281201624436
 31
0.0
  0
LINE
  5
FCD
330
2
100
AcDbEntity
  8
0
100
AcDbLine
 10
680.7180684951466
 20
316.5833085117986
 30
0.0
 11
671.5784705083364
 21
316.2641467172537
 31
0.0
  0
ARC
  5
FCE
330
2
100
AcDbEntity
  8
0
100
AcDbCircle
 10
680.648269501742
 20
318.5820901658365
 30
0.0
 40
2.0
100
AcDbArc
 50
272.0000000000036
 51
0.0
  0
ARC
  5
FCF
330
2
100
AcDbEntity
  8
0
100
AcDbCircle
 10
671.6482695017419
 20
314.2653650632158
 30
0.0
 40
2.0
100
AcDbArc
 50
92.00000000000365
 51
180.0
  0
LINE
  5
FD0
330
2
100
AcDbEntity
  8
0
100
AcDbLine
 10
680.7180684951466
 20
267.8101767138589
 30
0.0
 11
671.5784705083364
 21
268.1293385084039
 31
0.0
  0
ARC
  5
FD1
330
2
100
AcDbEntity
  8
0
100
AcDbCircle
 10
680.648269501742
 20
265.811395059821
 30
0.0
 40
2.0
100
AcDbArc
 50
0.0
 51
87.99999999999636
  0
ARC
  5
FD2
330
2
100
AcDbEntity
  8
0
100
AcDbCircle
 10
671.6482695017419
 20
270.1281201624436
 30
0.0
 40
2.0
100
AcDbArc
 50
180.0
 51
267.9999999999963
  0
LINE
  5
FD3
330
2
100
AcDbEntity
  8
0
100
AcDbLine
 10
717.7082034123203
 20
320.6956728254078
 30
0.0
 11
742.701832391005
 21
320.2493580222156
 31
0.0
  0
LINE
  5
FD4
330
2
100
AcDbEntity
  8
0
100
AcDbLine
 10
689.6482695017542
 20
267.1436499234144
 30
0.0
 11
689.6482695017547
 21
317.2498362241797
 31
0.0
  0
ARC
  5
FD5
330
2
100
AcDbEntity
  8
0
100
AcDbCircle
 10
692.6482695017543
 20
317.2498362241797
 30
0.0
 40
3.0
100
AcDbArc
 50
91.02303018866145
 51
180.0
  0
LINE
  5
FD6
330
2
100
AcDbEntity
  8
0
100
AcDbLine
 10
745.6482695017542
 20
317.2498362241797
 30
0.0
 11
745.6482695017547
 21
267.1436499234399
 31
0.0
  0
ARC
  5
FD7
330
2
100
AcDbEntity
  8
0
100
AcDbCircle
 10
742.6482695017543
 20
317.2498362241797
 30
0.0
 40
3.0
100
AcDbArc
 50
0.0
 51
88.97696981131245
  0
LINE
  5
FD8
330
2
100
AcDbEntity
  8
0
100
AcDbLine
 10
692.5947066125035
 20
320.2493580222156
 30
0.0
 11
701.142496037385
 21
320.401997119089
 31
0.0
  0
ARC
  5
FD9
330
2
100
AcDbEntity
  8
0
100
AcDbCircle
 10
742.6482695017565
 20
267.1436499234181
 30
0.0
 40
3.0
100
AcDbArc
 50
271.0230301886614
 51
0.0
  0
LINE
  5
FDA
330
2
100
AcDbEntity
  8
0
100
AcDbLine
 10
717.6482695017569
 20
263.6967430737852
 30
0.0
 11
742.7018323910073
 21
264.1441281253822
 31
0.0
  0
LINE
  5
FDB
330
2
100
AcDbEntity
  8
0
100
AcDbLine
 10
692.5947066125062
 20
264.1441281253785
 30
0.0
 11
717.6482695017569
 21
263.6967430737852
 31
0.0
  0
ARC
  5
FDC
330
2
100
AcDbEntity
  8
0
100
AcDbCircle
 10
692.6482695017565
 20
267.1436499234144
 30
0.0
 40
3.0
100
AcDbArc
 50
180.0
 51
268.9769698113385
  0
LINE
  5
FDD
330
2
100
AcDbEntity
  8
0
100
AcDbLine
 10
740.648269501742
 20
323.196743073798
 30
0.0
 11
688.6482695017415
 21
323.196743073798
 31
0.0
  0
LINE
  5
FDE
330
2
100
AcDbEntity
  8
0
100
AcDbLine
 10
740.648269501742
 20
261.1967430737962
 30
0.0
 11
688.6482695017397
 21
261.1967430737962
 31
0.0
  0
LINE
  5
FDF
330
2
100
AcDbEntity
  8
0
100
AcDbLine
 10
740.6482695017447
 20
256.196743073798
 30
0.0
 11
740.6482695017437
 21
264.1074573595026
 31
0.0
  0
LINE
  5
FE0
330
2
100
AcDbEntity
  8
0
100
AcDbLine
 10
740.6482695017392
 20
320.2860287880951
 30
0.0
 11
740.6482695017383
 21
328.196743073798
 31
0.0
  0
LINE
  5
FE1
330
2
100
AcDbEntity
  8
0
100
AcDbLine
 10
740.6482695017411
 20
256.196743073798
 30
0.0
 11
740.6482695017411
 21
264.1074573595026
 31
0.0
  0
LINE
  5
FE2
330
2
100
AcDbEntity
  8
0
100
AcDbLine
 10
740.6482695017415
 20
320.2860287880951
 30
0.0
 11
740.6482695017415
 21
328.196743073798
 31
0.0
  0
LINE
  5
FE3
330
2
100
AcDbEntity
  8
0
100
AcDbLine
 10
740.6482695017415
 20
256.196743073798
 30
0.0
 11
740.6482695017415
 21
264.1074573595026
 31
0.0
  0
LINE
  5
FE4
330
2
100
AcDbEntity
  8
0
100
AcDbLine
 10
740.6482695017415
 20
320.2860287880951
 30
0.0
 11
740.6482695017415
 21
328.196743073798
 31
0.0
  0
LINE
  5
FE5
330
2
100
AcDbEntity
  8
0
100
AcDbLine
 10
740.6482695017447
 20
328.196743073798
 30
0.0
 11
740.6482695017437
 21
320.2860287880951
 31
0.0
  0
LINE
  5
FE6
330
2
100
AcDbEntity
  8
0
100
AcDbLine
 10
740.6482695017392
 20
264.1074573595026
 30
0.0
 11
740.6482695017383
 21
256.196743073798
 31
0.0
  0
LINE
  5
FE7
330
2
100
AcDbEntity
  8
0
100
AcDbLine
 10
751.1482695016892
 20
273.446743073798
 30
0.0
 11
751.1482695016892
 21
310.946743073798
 31
0.0
  0
LINE
  5
FE8
330
2
100
AcDbEntity
  8
0
100
AcDbLine
 10
740.6482695017415
 20
256.196743073798
 30
0.0
 11
749.1569960372356
 21
256.2709976053404
 31
0.0
  0
LINE
  5
FE9
330
2
100
AcDbEntity
  8
0
100
AcDbLine
 10
757.348269501689
 20
269.1967430737962
 30
0.0
 11
758.6482695016887
 21
269.1967430737962
 31
0.0
  0
LINE
  5
FEA
330
2
100
AcDbEntity
  8
0
100
AcDbLine
 10
753.4482695017904
 20
269.1967430737962
 30
0.0
 11
754.9482695016885
 21
269.1967430737962
 31
0.0
  0
LINE
  5
FEB
330
2
100
AcDbEntity
  8
0
100
AcDbLine
 10
759.6482695016892
 20
269.7740933429861
 30
0.0
 11
758.6482695016887
 21
269.1967430737962
 31
0.0
  0
LINE
  5
FEC
330
2
100
AcDbEntity
  8
0
100
AcDbLine
 10
757.348269501689
 20
315.196743073798
 30
0.0
 11
758.6482695016892
 21
315.196743073798
 31
0.0
  0
LINE
  5
FED
330
2
100
AcDbEntity
  8
0
100
AcDbLine
 10
753.4482695017904
 20
315.196743073798
 30
0.0
 11
754.9482695016889
 21
315.196743073798
 31
0.0
  0
LINE
  5
FEE
330
2
100
AcDbEntity
  8
0
100
AcDbLine
 10
751.6482695016892
 20
273.446743073798
 30
0.0
 11
751.6482695016892
 21
310.946743073798
 31
0.0
  0
LINE
  5
FEF
330
2
100
AcDbEntity
  8
0
100
AcDbLine
 10
759.6482695016892
 20
314.619392804608
 30
0.0
 11
758.6482695016892
 21
315.196743073798
 31
0.0
  0
LINE
  5
FF0
330
2
100
AcDbEntity
  8
0
100
AcDbLine
 10
750.1482695017374
 20
257.2709595284043
 30
0.0
 11
750.1482695017374
 21
264.9467430737962
 31
0.0
  0
LINE
  5
FF1
330
2
100
AcDbEntity
  8
0
100
AcDbLine
 10
750.1482695017374
 20
319.446743073798
 30
0.0
 11
750.1482695017374
 21
327.196743073798
 31
0.0
  0
ARC
  5
FF2
330
2
100
AcDbEntity
  8
0
100
AcDbCircle
 10
749.1482695017374
 20
257.2709595284043
 30
0.0
 40
1.0
100
AcDbArc
 50
270.4999999999915
 51
0.0
  0
LINE
  5
FF3
330
2
100
AcDbEntity
  8
0
100
AcDbLine
 10
740.6482695017415
 20
328.196743073798
 30
0.0
 11
740.6482695017415
 21
320.2860287880951
 31
0.0
  0
LINE
  5
FF4
330
2
100
AcDbEntity
  8
0
100
AcDbLine
 10
740.6482695017415
 20
264.1074573595026
 30
0.0
 11
740.6482695017415
 21
256.196743073798
 31
0.0
  0
LINE
  5
FF5
330
2
100
AcDbEntity
  8
0
100
AcDbLine
 10
757.1482695016883
 20
269.3967430737969
 30
0.0
 11
757.1482695016892
 21
314.9967430737973
 31
0.0
  0
LINE
  5
FF6
330
2
100
AcDbEntity
  8
0
100
AcDbLine
 10
755.348269501689
 20
314.4967430737973
 30
0.0
 11
756.9482695016894
 21
314.4967430737973
 31
0.0
  0
LINE
  5
FF7
330
2
100
AcDbEntity
  8
0
100
AcDbLine
 10
755.1482695016887
 20
269.3967430737969
 30
0.0
 11
755.1482695016887
 21
314.9967430737973
 31
0.0
  0
ARC
  5
FF8
330
2
100
AcDbEntity
  8
0
100
AcDbCircle
 10
757.348269501689
 20
314.9967430737973
 30
0.0
 40
0.2
100
AcDbArc
 50
90.0
 51
180.0
  0
ARC
  5
FF9
330
2
100
AcDbEntity
  8
0
100
AcDbCircle
 10
756.9482695016894
 20
314.696743073798
 30
0.0
 40
0.2
100
AcDbArc
 50
270.0
 51
0.0
  0
ARC
  5
FFA
330
2
100
AcDbEntity
  8
0
100
AcDbCircle
 10
755.348269501689
 20
314.696743073798
 30
0.0
 40
0.2
100
AcDbArc
 50
180.0
 51
270.0
  0
LINE
  5
FFB
330
2
100
AcDbEntity
  8
0
100
AcDbLine
 10
755.1482695016887
 20
314.9967430737973
 30
0.0
 11
754.9482695016889
 21
315.196743073798
 31
0.0
  0
LINE
  5
FFC
330
2
100
AcDbEntity
  8
0
100
AcDbLine
 10
755.1482695016887
 20
269.3967430737969
 30
0.0
 11
754.9482695016889
 21
269.196743073798
 31
0.0
  0
LINE
  5
FFD
330
2
100
AcDbEntity
  8
0
100
AcDbLine
 10
755.348269501689
 20
269.8967430737969
 30
0.0
 11
756.948269501689
 21
269.8967430737969
 31
0.0
  0
ARC
  5
FFE
330
2
100
AcDbEntity
  8
0
100
AcDbCircle
 10
755.348269501689
 20
269.696743073798
 30
0.0
 40
0.2
100
AcDbArc
 50
90.0
 51
180.0
  0
ARC
  5
FFF
330
2
100
AcDbEntity
  8
0
100
AcDbCircle
 10
756.948269501689
 20
269.696743073798
 30
0.0
 40
0.2
100
AcDbArc
 50
0.0
 51
90.0
  0
ARC
  5
1000
330
2
100
AcDbEntity
  8
0
100
AcDbCircle
 10
757.348269501689
 20
269.3967430737969
 30
0.0
 40
0.2
100
AcDbArc
 50
180.0
 51
270.0
  0
LINE
  5
1001
330
2
100
AcDbEntity
  8
0
100
AcDbLine
 10
754.9482695016889
 20
315.196743073798
 30
0.0
 11
754.9482695016885
 21
269.1967430737962
 31
0.0
  0
LINE
  5
1002
330
2
100
AcDbEntity
  8
0
100
AcDbLine
 10
758.6482695016887
 20
269.1967430737962
 30
0.0
 11
758.6482695016892
 21
315.196743073798
 31
0.0
  0
LINE
  5
1003
330
2
100
AcDbEntity
  8
0
100
AcDbLine
 10
743.3210774855377
 20
320.1734178318923
 30
0.0
 11
747.1569960372398
 21
320.139942277837
 31
0.0
  0
LINE
  5
1004
330
2
100
AcDbEntity
  8
0
100
AcDbLine
 10
750.1482695017374
 20
327.1225266191916
 30
0.0
 11
750.1482695017374
 21
319.446743073798
 31
0.0
  0
LINE
  5
1005
330
2
100
AcDbEntity
  8
0
100
AcDbLine
 10
750.1482695017374
 20
310.946743073798
 30
0.0
 11
750.1482695017374
 21
273.446743073798
 31
0.0
  0
LINE
  5
1006
330
2
100
AcDbEntity
  8
0
100
AcDbLine
 10
750.1482695017374
 20
264.9467430737962
 30
0.0
 11
750.1482695017374
 21
257.2709595284043
 31
0.0
  0
LINE
  5
1007
330
2
100
AcDbEntity
  8
0
100
AcDbLine
 10
740.6482695017415
 20
328.196743073798
 30
0.0
 11
740.6482695017415
 21
320.2860287880951
 31
0.0
  0
LINE
  5
1008
330
2
100
AcDbEntity
  8
0
100
AcDbLine
 10
740.6482695017415
 20
264.1074573595026
 30
0.0
 11
740.6482695017415
 21
256.196743073798
 31
0.0
  0
LINE
  5
1009
330
2
100
AcDbEntity
  8
0
100
AcDbLine
 10
759.6482695016892
 20
314.619392804608
 30
0.0
 11
759.6482695016892
 21
269.7740933429861
 31
0.0
  0
LINE
  5
100A
330
2
100
AcDbEntity
  8
0
100
AcDbLine
 10
740.6482695017415
 20
328.196743073798
 30
0.0
 11
749.1569960372356
 21
328.1224885422555
 31
0.0
  0
ARC
  5
100B
330
2
100
AcDbEntity
  8
0
100
AcDbCircle
 10
749.1482695017374
 20
327.1225266191916
 30
0.0
 40
1.0
100
AcDbArc
 50
0.0
 51
89.50000000000846
  0
LINE
  5
100C
330
2
100
AcDbEntity
  8
0
100
AcDbLine
 10
747.6439062340408
 20
309.7404916457338
 30
0.0
 11
748.1482695017415
 21
309.7360901341792
 31
0.0
  0
LINE
  5
100D
330
2
100
AcDbEntity
  8
0
100
AcDbLine
 10
747.1482695017901
 20
310.240472607263
 30
0.0
 11
747.1482695017901
 21
319.1487072225621
 31
0.0
  0
ARC
  5
100E
330
2
100
AcDbEntity
  8
0
100
AcDbCircle
 10
746.1482695017902
 20
319.1487072225621
 30
0.0
 40
1.0
100
AcDbArc
 50
0.0
 51
89.50000000000846
  0
ARC
  5
100F
330
2
100
AcDbEntity
  8
0
100
AcDbCircle
 10
747.6482695017901
 20
310.240472607263
 30
0.0
 40
0.5
100
AcDbArc
 50
180.0
 51
269.5000000000084
  0
ARC
  5
1010
330
2
100
AcDbEntity
  8
0
100
AcDbCircle
 10
747.1482695017415
 20
319.1399803547713
 30
0.0
 40
1.0
100
AcDbArc
 50
17.86424478095049
 51
89.50000000000846
  0
LINE
  5
1011
330
2
100
AcDbEntity
  8
0
100
AcDbLine
 10
743.321077485525
 20
264.2200683157018
 30
0.0
 11
747.1569960372398
 21
264.2535438697589
 31
0.0
  0
LINE
  5
1012
330
2
100
AcDbEntity
  8
0
100
AcDbLine
 10
747.6439062340408
 20
274.6529945018604
 30
0.0
 11
748.1482695017415
 21
274.6573960134167
 31
0.0
  0
LINE
  5
1013
330
2
100
AcDbEntity
  8
0
100
AcDbLine
 10
747.1482695017901
 20
274.1530135403312
 30
0.0
 11
747.1482695017901
 21
265.2447789250321
 31
0.0
  0
ARC
  5
1014
330
2
100
AcDbEntity
  8
0
100
AcDbCircle
 10
746.1482695017902
 20
265.2447789250321
 30
0.0
 40
1.0
100
AcDbArc
 50
270.4999999999915
 51
0.0
  0
ARC
  5
1015
330
2
100
AcDbEntity
  8
0
100
AcDbCircle
 10
747.6482695017901
 20
274.1530135403312
 30
0.0
 40
0.5
100
AcDbArc
 50
90.49999999999155
 51
180.0
  0
ARC
  5
1016
330
2
100
AcDbEntity
  8
0
100
AcDbCircle
 10
747.1482695017415
 20
265.2535057928228
 30
0.0
 40
1.0
100
AcDbArc
 50
270.4999999999915
 51
342.1357552190495
  0
LINE
  5
1017
330
2
100
AcDbEntity
  8
0
100
AcDbLine
 10
748.1482695017415
 20
310.946743073798
 30
0.0
 11
748.1482695017415
 21
273.446743073798
 31
0.0
  0
LINE
  5
1018
330
2
100
AcDbEntity
  8
CENTER
  6
CENS
100
AcDbLine
 10
756.369380965656
 20
315.196743073798
 30
0.0
 11
736.5780128980357
 21
315.196743073798
 31
0.0
  0
LINE
  5
1019
330
2
100
AcDbEntity
  8
0
100
AcDbLine
 10
748.4482695017903
 20
319.446743073798
 30
0.0
 11
748.4482695017903
 21
310.946743073798
 31
0.0
  0
LINE
  5
101A
330
2
100
AcDbEntity
  8
0
100
AcDbLine
 10
753.1482695017902
 20
319.446743073798
 30
0.0
 11
753.1482695017902
 21
310.946743073798
 31
0.0
  0
LINE
  5
101B
330
2
100
AcDbEntity
  8
0
100
AcDbLine
 10
753.4482695017904
 20
318.9271278315275
 30
0.0
 11
753.4482695017904
 21
311.4663583160684
 31
0.0
  0
LINE
  5
101C
330
2
100
AcDbEntity
  8
0
100
AcDbLine
 10
753.1482695017902
 20
319.446743073798
 30
0.0
 11
753.4482695017904
 21
318.9271278315275
 31
0.0
  0
LINE
  5
101D
330
2
100
AcDbEntity
  8
0
100
AcDbLine
 10
753.1482695017902
 20
319.446743073798
 30
0.0
 11
747.1482695017901
 21
319.446743073798
 31
0.0
  0
LINE
  5
101E
330
2
100
AcDbEntity
  8
0
100
AcDbLine
 10
753.1482695017902
 20
310.946743073798
 30
0.0
 11
747.1482695017901
 21
310.946743073798
 31
0.0
  0
LINE
  5
101F
330
2
100
AcDbEntity
  8
0
100
AcDbLine
 10
753.1482695017902
 20
310.946743073798
 30
0.0
 11
753.4482695017904
 21
311.4663583160684
 31
0.0
  0
LINE
  5
1020
330
2
100
AcDbEntity
  8
CENTER
  6
CENS
100
AcDbLine
 10
756.369380965656
 20
269.196743073798
 30
0.0
 11
736.5780128980357
 21
269.196743073798
 31
0.0
  0
LINE
  5
1021
330
2
100
AcDbEntity
  8
0
100
AcDbLine
 10
748.4482695017903
 20
264.946743073798
 30
0.0
 11
748.4482695017903
 21
273.446743073798
 31
0.0
  0
LINE
  5
1022
330
2
100
AcDbEntity
  8
0
100
AcDbLine
 10
753.1482695017902
 20
264.946743073798
 30
0.0
 11
753.1482695017902
 21
273.446743073798
 31
0.0
  0
LINE
  5
1023
330
2
100
AcDbEntity
  8
0
100
AcDbLine
 10
753.4482695017904
 20
265.4663583160684
 30
0.0
 11
753.4482695017904
 21
272.9271278315257
 31
0.0
  0
LINE
  5
1024
330
2
100
AcDbEntity
  8
0
100
AcDbLine
 10
753.1482695017902
 20
264.946743073798
 30
0.0
 11
753.4482695017904
 21
265.4663583160684
 31
0.0
  0
LINE
  5
1025
330
2
100
AcDbEntity
  8
0
100
AcDbLine
 10
753.1482695017902
 20
264.946743073798
 30
0.0
 11
747.1482695017901
 21
264.946743073798
 31
0.0
  0
LINE
  5
1026
330
2
100
AcDbEntity
  8
0
100
AcDbLine
 10
753.1482695017902
 20
273.446743073798
 30
0.0
 11
747.1482695017901
 21
273.446743073798
 31
0.0
  0
LINE
  5
1027
330
2
100
AcDbEntity
  8
0
100
AcDbLine
 10
753.1482695017902
 20
273.446743073798
 30
0.0
 11
753.4482695017904
 21
272.9271278315257
 31
0.0
  0
LINE
  5
1028
330
2
100
AcDbEntity
  8
0
100
AcDbLine
 10
659.6482695017415
 20
280.1967890737845
 30
0.0
 11
669.6482695017415
 21
280.1967890737845
 31
0.0
  0
LINE
  5
1029
330
2
100
AcDbEntity
  8
0
100
AcDbLine
 10
659.6482695017415
 20
304.1966970737842
 30
0.0
 11
669.6482695017415
 21
304.1966970737842
 31
0.0
  0
LINE
  5
102A
330
2
100
AcDbEntity
  8
0
100
AcDbLine
 10
659.6482695017415
 20
304.1967430737853
 30
0.0
 11
659.6482695017415
 21
280.1967430737852
 31
0.0
  0
LINE
  5
102B
330
2
100
AcDbEntity
  8
0
100
AcDbLine
 10
761.6481625017416
 20
280.1967890737845
 30
0.0
 11
761.6481625017416
 21
304.1966970737842
 31
0.0
  0
LINE
  5
102C
330
2
100
AcDbEntity
  8
0
100
AcDbLine
 10
759.6482695016888
 20
304.1966970737842
 30
0.0
 11
761.6481625017416
 21
304.1966970737842
 31
0.0
  0
LINE
  5
102D
330
2
100
AcDbEntity
  8
0
100
AcDbLine
 10
759.6482695016888
 20
280.1967890737845
 30
0.0
 11
761.6481625017416
 21
280.1967890737845
 31
0.0
  0
LINE
  5
102E
330
2
100
AcDbEntity
  8
0
100
AcDbLine
 10
753.1482695017879
 20
318.9467430738107
 30
0.0
 11
753.1482695017879
 21
327.4467430738107
 31
0.0
  0
LINE
  5
102F
330
2
100
AcDbEntity
  8
0
100
AcDbLine
 10
753.4482695017881
 20
319.4663583160811
 30
0.0
 11
753.4482695017881
 21
326.9271278315402
 31
0.0
  0
LINE
  5
1030
330
2
100
AcDbEntity
  8
0
100
AcDbLine
 10
753.2926070690831
 20
319.1967430738062
 30
0.0
 11
753.4482695017881
 21
319.4663583160811
 31
0.0
  0
LINE
  5
1031
330
2
100
AcDbEntity
  8
0
100
AcDbLine
 10
753.1482695017879
 20
327.4467430738107
 30
0.0
 11
750.0942524247092
 21
327.4467430738107
 31
0.0
  0
LINE
  5
1032
330
2
100
AcDbEntity
  8
0
100
AcDbLine
 10
753.1482695017879
 20
327.4467430738107
 30
0.0
 11
753.4482695017881
 21
326.9271278315402
 31
0.0
  0
LINE
  5
1033
330
2
100
AcDbEntity
  8
0
100
AcDbLine
 10
753.1482695017879
 20
265.4467430737852
 30
0.0
 11
753.1482695017879
 21
256.9467430737852
 31
0.0
  0
LINE
  5
1034
330
2
100
AcDbEntity
  8
0
100
AcDbLine
 10
753.4482695017881
 20
264.9271278315148
 30
0.0
 11
753.4482695017881
 21
257.4663583160557
 31
0.0
  0
LINE
  5
1035
330
2
100
AcDbEntity
  8
0
100
AcDbLine
 10
753.2926070690831
 20
265.1967430737898
 30
0.0
 11
753.4482695017881
 21
264.9271278315148
 31
0.0
  0
LINE
  5
1036
330
2
100
AcDbEntity
  8
0
100
AcDbLine
 10
753.1482695017879
 20
256.9467430737852
 30
0.0
 11
750.0942524247092
 21
256.9467430737852
 31
0.0
  0
LINE
  5
1037
330
2
100
AcDbEntity
  8
0
100
AcDbLine
 10
753.1482695017879
 20
256.9467430737852
 30
0.0
 11
753.4482695017881
 21
257.4663583160557
 31
0.0
  0
LINE
  5
1038
330
2
100
AcDbEntity
  8
CENTER
  6
CENS
100
AcDbLine
 10
736.4873787077607
 20
323.196743073798
 30
0.0
 11
757.2217909977861
 21
323.196743073798
 31
0.0
  0
LINE
  5
1039
330
2
100
AcDbEntity
  8
CENTER
  6
CENS
100
AcDbLine
 10
736.4873787077607
 20
261.1967430737725
 30
0.0
 11
757.2217909977861
 21
261.1967430737725
 31
0.0
  0
LINE
  5
103A
330
2
100
AcDbEntity
  8
CENTER
100
AcDbLine
 10
456.0951127209513
 20
420.1504266479963
 30
0.0
 11
456.0951127209508
 21
536.1503196479964
 31
0.0
  0
LINE
  5
103B
330
2
100
AcDbEntity
  8
CENTER
100
AcDbLine
 10
413.2958306801387
 20
485.1504266479962
 30
0.0
 11
592.8950702715418
 21
485.1504266479962
 31
0.0
  0
LINE
  5
103C
330
2
100
AcDbEntity
  8
CENTER
100
AcDbLine
 10
219.6624641756305
 20
292.196743073798
 30
0.0
 11
39.86246371466165
 21
292.196743073798
 31
0.0
  0
LINE
  5
103D
330
2
100
AcDbEntity
  8
CENTER
100
AcDbLine
 10
176.6624641756301
 20
249.196743073798
 30
0.0
 11
176.6624641756301
 21
335.196743073798
 31
0.0
  0
LINE
  5
103E
330
2
100
AcDbEntity
  8
CENTER
100
AcDbLine
 10
405.0951127209513
 20
292.196743073798
 30
0.0
 11
592.8950702715414
 21
292.196743073798
 31
0.0
  0
LINE
  5
103F
330
2
100
AcDbEntity
  8
CENTER
100
AcDbLine
 10
494.1661805328171
 20
330.2678108856635
 30
0.0
 11
418.0240449090864
 21
254.1256752619336
 31
0.0
  0
LINE
  5
1040
330
2
100
AcDbEntity
  8
CENTER
100
AcDbLine
 10
418.0240449090883
 20
330.2678108856643
 30
0.0
 11
494.1661805328134
 21
254.1256752619288
 31
0.0
  0
CIRCLE
  5
1041
330
2
100
AcDbEntity
  8
CENTER
100
AcDbCircle
 10
456.0951127209513
 20
292.196743073798
 30
0.0
 40
44.0
  0
LINE
  5
1042
330
2
100
AcDbEntity
  8
CENTER
100
AcDbLine
 10
456.0951127209513
 20
343.196743073798
 30
0.0
 11
456.0951127209513
 21
241.196743073798
 31
0.0
  0
LINE
  5
1043
330
2
100
AcDbEntity
  8
CENTER
100
AcDbLine
 10
424.9824143487429
 20
329.8094414460059
 30
0.0
 11
424.9824143487429
 21
316.8094414460059
 31
0.0
  0
LINE
  5
1044
330
2
100
AcDbEntity
  8
CENTER
100
AcDbLine
 10
431.4824143487429
 20
323.3094414460059
 30
0.0
 11
418.4824143487429
 21
323.3094414460059
 31
0.0
  0
LINE
  5
1045
330
2
100
AcDbEntity
  8
CENTER
100
AcDbLine
 10
487.2078110931596
 20
329.8094414460059
 30
0.0
 11
487.2078110931596
 21
316.8094414460059
 31
0.0
  0
LINE
  5
1046
330
2
100
AcDbEntity
  8
CENTER
100
AcDbLine
 10
493.7078110931596
 20
323.3094414460059
 30
0.0
 11
480.7078110931596
 21
323.3094414460059
 31
0.0
  0
LINE
  5
1047
330
2
100
AcDbEntity
  8
CENTER
100
AcDbLine
 10
487.2078110931596
 20
267.5840447015901
 30
0.0
 11
487.2078110931596
 21
254.5840447015901
 31
0.0
  0
LINE
  5
1048
330
2
100
AcDbEntity
  8
CENTER
100
AcDbLine
 10
493.7078110931596
 20
261.0840447015901
 30
0.0
 11
480.7078110931596
 21
261.0840447015901
 31
0.0
  0
LINE
  5
1049
330
2
100
AcDbEntity
  8
CENTER
100
AcDbLine
 10
424.9824143487429
 20
267.5840447015901
 30
0.0
 11
424.9824143487429
 21
254.5840447015901
 31
0.0
  0
LINE
  5
104A
330
2
100
AcDbEntity
  8
CENTER
100
AcDbLine
 10
431.4824143487429
 20
261.0840447015901
 30
0.0
 11
418.4824143487429
 21
261.0840447015901
 31
0.0
  0
LINE
  5
104B
330
2
100
AcDbEntity
  8
0
100
AcDbLine
 10
84.86246371466165
 20
263.696743073798
 30
0.0
 11
84.86246371466165
 21
320.696743073798
 31
0.0
  0
LINE
  5
104C
330
2
100
AcDbEntity
  8
0
100
AcDbLine
 10
92.8624637146621
 20
265.696743073798
 30
0.0
 11
92.86246371466166
 21
318.696743073798
 31
0.0
  0
LINE
  5
104D
330
2
100
AcDbEntity
  8
0
100
AcDbLine
 10
84.86246371466165
 20
320.196743073798
 30
0.0
 11
90.86246371466165
 21
320.196743073798
 31
0.0
  0
ARC
  5
104E
330
2
100
AcDbEntity
  8
0
100
AcDbCircle
 10
90.86246371466165
 20
318.196743073798
 30
0.0
 40
2.0
100
AcDbArc
 50
0.0
 51
90.0
  0
LINE
  5
104F
330
2
100
AcDbEntity
  8
0
100
AcDbLine
 10
84.86246371466165
 20
264.196743073798
 30
0.0
 11
90.86246371466211
 21
264.196743073798
 31
0.0
  0
ARC
  5
1050
330
2
100
AcDbEntity
  8
0
100
AcDbCircle
 10
90.86246371466211
 20
266.196743073798
 30
0.0
 40
2.0
100
AcDbArc
 50
270.0
 51
0.0
  0
ARC
  5
1051
330
2
100
AcDbEntity
  8
0
100
AcDbCircle
 10
391.1115162760464
 20
272.5702233938148
 30
0.0
 40
30.0
100
AcDbArc
 50
346.1581756815798
 51
5.929085487876394
  0
LINE
  5
1052
330
2
100
AcDbEntity
  8
0
100
AcDbLine
 10
492.0951127209518
 20
323.196743073798
 30
0.0
 11
492.0951127209518
 21
261.196743073798
 31
0.0
  0
LINE
  5
1053
330
2
100
AcDbEntity
  8
0
100
AcDbLine
 10
539.8951131819211
 20
318.696743073798
 30
0.0
 11
539.8951131819211
 21
265.696743073798
 31
0.0
  0
LINE
  5
1054
330
2
100
AcDbEntity
  8
0
100
AcDbLine
 10
547.8951131819211
 20
320.696743073798
 30
0.0
 11
547.8951131819211
 21
263.696743073798
 31
0.0
  0
LINE
  5
1055
330
2
100
AcDbEntity
  8
0
100
AcDbLine
 10
520.0951127209536
 20
315.196743073798
 30
0.0
 11
520.0951127209536
 21
269.196743073798
 31
0.0
  0
CIRCLE
  5
1056
330
2
100
AcDbEntity
  8
0
100
AcDbCircle
 10
456.0951127209531
 20
292.196743073798
 30
0.0
 40
30.0
  0
CIRCLE
  5
1057
330
2
100
AcDbEntity
  8
0
100
AcDbCircle
 10
456.0951127209531
 20
292.196743073798
 30
0.0
 40
24.0
  0
ARC
  5
1058
330
2
100
AcDbEntity
  8
0
100
AcDbCircle
 10
475.7216324009345
 20
227.2131466288895
 30
0.0
 40
30.0
100
AcDbArc
 50
76.15817568161926
 51
95.92908548785013
  0
ARC
  5
1059
330
2
100
AcDbEntity
  8
0
100
AcDbCircle
 10
456.0951127209531
 20
416.1967430737962
 30
0.0
 40
160.0
100
AcDbArc
 50
264.0709145121498
 51
275.9290854878501
  0
CIRCLE
  5
105A
330
2
100
AcDbEntity
  8
HOJO
100
AcDbCircle
 10
424.9824143487447
 20
261.0840447015901
 30
0.0
 40
2.5
  0
CIRCLE
  5
105B
330
2
100
AcDbEntity
  8
0
100
AcDbCircle
 10
424.9824143487447
 20
261.0840447015901
 30
0.0
 40
2.0
  0
LINE
  5
105C
330
2
100
AcDbEntity
  8
0
100
AcDbLine
 10
425.0951127209531
 20
256.196743073798
 30
0.0
 11
428.0951127209531
 21
256.196743073798
 31
0.0
  0
LINE
  5
105D
330
2
100
AcDbEntity
  8
0
100
AcDbLine
 10
420.0951127209531
 20
264.1967430737961
 30
0.0
 11
420.0951127209531
 21
261.196743073798
 31
0.0
  0
ARC
  5
105E
330
2
100
AcDbEntity
  8
0
100
AcDbCircle
 10
425.0951127209531
 20
264.1967430737961
 30
0.0
 40
5.0
100
AcDbArc
 50
166.1581756815798
 51
180.0
  0
ARC
  5
105F
330
2
100
AcDbEntity
  8
0
100
AcDbCircle
 10
436.4685930409713
 20
227.2131466288895
 30
0.0
 40
30.0
100
AcDbArc
 50
84.07091451214986
 51
103.8418243183807
  0
ARC
  5
1060
330
2
100
AcDbEntity
  8
0
100
AcDbCircle
 10
428.0951127209531
 20
261.1967430737962
 30
0.0
 40
5.0
100
AcDbArc
 50
270.0
 51
283.8418243183807
  0
LINE
  5
1061
330
2
100
AcDbEntity
  8
0
100
AcDbLine
 10
547.8951131819211
 20
264.196743073798
 30
0.0
 11
541.8951131819211
 21
264.196743073798
 31
0.0
  0
LINE
  5
1062
330
2
100
AcDbEntity
  8
0
100
AcDbLine
 10
495.0951127209517
 20
264.196743073798
 30
0.0
 11
515.0951127209536
 21
264.196743073798
 31
0.0
  0
CIRCLE
  5
1063
330
2
100
AcDbEntity
  8
0
100
AcDbCircle
 10
487.2078110931615
 20
261.0840447015901
 30
0.0
 40
2.0
  0
CIRCLE
  5
1064
330
2
100
AcDbEntity
  8
HOJO
100
AcDbCircle
 10
487.2078110931615
 20
261.0840447015901
 30
0.0
 40
2.5
  0
LINE
  5
1065
330
2
100
AcDbEntity
  8
0
100
AcDbLine
 10
484.0951127209526
 20
256.196743073798
 30
0.0
 11
487.0951127209517
 21
256.196743073798
 31
0.0
  0
ARC
  5
1066
330
2
100
AcDbEntity
  8
0
100
AcDbCircle
 10
484.0951127209526
 20
261.1967430737962
 30
0.0
 40
5.0
100
AcDbArc
 50
256.1581756815797
 51
270.0
  0
ARC
  5
1067
330
2
100
AcDbEntity
  8
0
100
AcDbCircle
 10
515.0951127209536
 20
269.196743073798
 30
0.0
 40
5.0
100
AcDbArc
 50
270.0
 51
0.0
  0
ARC
  5
1068
330
2
100
AcDbEntity
  8
0
100
AcDbCircle
 10
541.8951131819211
 20
266.196743073798
 30
0.0
 40
2.0
100
AcDbArc
 50
180.0
 51
270.0
  0
ARC
  5
1069
330
2
100
AcDbEntity
  8
0
100
AcDbCircle
 10
475.7216324009349
 20
357.1803395187028
 30
0.0
 40
30.0
100
AcDbArc
 50
264.0709145121498
 51
283.8418243183807
  0
ARC
  5
106A
330
2
100
AcDbEntity
  8
0
100
AcDbCircle
 10
425.0951127209531
 20
320.1967430737961
 30
0.0
 40
5.0
100
AcDbArc
 50
180.0
 51
193.8418243184201
  0
CIRCLE
  5
106B
330
2
100
AcDbEntity
  8
0
100
AcDbCircle
 10
456.0951127209531
 20
292.196743073798
 30
0.0
 40
19.0
  0
ARC
  5
106C
330
2
100
AcDbEntity
  8
0
100
AcDbCircle
 10
580.0951127209531
 20
292.1967430737962
 30
0.0
 40
160.0
100
AcDbArc
 50
174.0709145121236
 51
185.9290854878763
  0
ARC
  5
106D
330
2
100
AcDbEntity
  8
0
100
AcDbCircle
 10
391.1115162760464
 20
311.8232627537775
 30
0.0
 40
30.0
100
AcDbArc
 50
354.0709145121236
 51
13.84182431842014
  0
ARC
  5
106E
330
2
100
AcDbEntity
  8
0
100
AcDbCircle
 10
456.0951127209531
 20
168.1967430737961
 30
0.0
 40
160.0
100
AcDbArc
 50
84.07091451214986
 51
95.92908548785013
  0
CIRCLE
  5
106F
330
2
100
AcDbEntity
  8
HOJO
100
AcDbCircle
 10
424.9824143487447
 20
323.3094414460059
 30
0.0
 40
2.5
  0
CIRCLE
  5
1070
330
2
100
AcDbEntity
  8
0
100
AcDbCircle
 10
424.9824143487447
 20
323.3094414460059
 30
0.0
 40
2.0
  0
LINE
  5
1071
330
2
100
AcDbEntity
  8
0
100
AcDbLine
 10
425.0951127209531
 20
328.196743073798
 30
0.0
 11
428.0951127209531
 21
328.196743073798
 31
0.0
  0
ARC
  5
1072
330
2
100
AcDbEntity
  8
0
100
AcDbCircle
 10
425.0951127209531
 20
323.196743073798
 30
0.0
 40
5.0
100
AcDbArc
 50
90.0
 51
180.0
  0
LINE
  5
1073
330
2
100
AcDbEntity
  8
0
100
AcDbLine
 10
420.0951127209531
 20
323.196743073798
 30
0.0
 11
420.0951127209531
 21
320.1967430737961
 31
0.0
  0
ARC
  5
1074
330
2
100
AcDbEntity
  8
0
100
AcDbCircle
 10
436.4685930409713
 20
357.1803395187028
 30
0.0
 40
30.0
100
AcDbArc
 50
256.1581756815797
 51
275.9290854878501
  0
ARC
  5
1075
330
2
100
AcDbEntity
  8
0
100
AcDbCircle
 10
428.0951127209531
 20
323.1967430737962
 30
0.0
 40
5.0
100
AcDbArc
 50
76.15817568161926
 51
90.0
  0
LINE
  5
1076
330
2
100
AcDbEntity
  8
0
100
AcDbLine
 10
547.8951131819211
 20
320.196743073798
 30
0.0
 11
541.8951131819211
 21
320.196743073798
 31
0.0
  0
ARC
  5
1077
330
2
100
AcDbEntity
  8
0
100
AcDbCircle
 10
541.8951131819211
 20
318.196743073798
 30
0.0
 40
2.0
100
AcDbArc
 50
90.0
 51
180.0
  0
ARC
  5
1078
330
2
100
AcDbEntity
  8
0
100
AcDbCircle
 10
515.0951127209536
 20
315.196743073798
 30
0.0
 40
5.0
100
AcDbArc
 50
0.0
 51
90.0
  0
LINE
  5
1079
330
2
100
AcDbEntity
  8
0
100
AcDbLine
 10
495.0951127209517
 20
320.196743073798
 30
0.0
 11
515.0951127209536
 21
320.196743073798
 31
0.0
  0
ARC
  5
107A
330
2
100
AcDbEntity
  8
0
100
AcDbCircle
 10
487.0951127209517
 20
323.196743073798
 30
0.0
 40
5.0
100
AcDbArc
 50
0.0
 51
90.0
  0
LINE
  5
107B
330
2
100
AcDbEntity
  8
0
100
AcDbLine
 10
484.0951127209526
 20
328.196743073798
 30
0.0
 11
487.0951127209517
 21
328.196743073798
 31
0.0
  0
ARC
  5
107C
330
2
100
AcDbEntity
  8
0
100
AcDbCircle
 10
484.0951127209526
 20
323.1967430737962
 30
0.0
 40
5.0
100
AcDbArc
 50
90.0
 51
103.8418243183807
  0
CIRCLE
  5
107D
330
2
100
AcDbEntity
  8
HOJO
100
AcDbCircle
 10
487.2078110931615
 20
323.3094414460059
 30
0.0
 40
2.5
  0
CIRCLE
  5
107E
330
2
100
AcDbEntity
  8
0
100
AcDbCircle
 10
487.2078110931615
 20
323.3094414460059
 30
0.0
 40
2.0
  0
LINE
  5
107F
330
2
100
AcDbEntity
  8
0
100
AcDbLine
 10
420.5576367138613
 20
455.1504266479962
 30
0.0
 11
420.0951127209508
 21
508.1504266479963
 31
0.0
  0
LINE
  5
1080
330
2
100
AcDbEntity
  8
0
100
AcDbLine
 10
547.8951131819193
 20
513.1504266479963
 30
0.0
 11
547.8951131819193
 21
457.1504266479963
 31
0.0
  0
LINE
  5
1081
330
2
100
AcDbEntity
  8
0
100
AcDbLine
 10
426.0951131819195
 20
450.1504266479963
 30
0.0
 11
486.0951131819196
 21
450.1504266479963
 31
0.0
  0
LINE
  5
1082
330
2
100
AcDbEntity
  8
0
100
AcDbLine
 10
420.5576367138613
 20
455.1504266479962
 30
0.0
 11
491.6282252941404
 21
455.1504266479945
 31
0.0
  0
LINE
  5
1083
330
2
100
AcDbEntity
  8
0
100
AcDbLine
 10
426.0951131819195
 20
455.1504266479962
 30
0.0
 11
426.0951131819195
 21
450.1504266479963
 31
0.0
  0
LINE
  5
1084
330
2
100
AcDbEntity
  8
0
100
AcDbLine
 10
493.1326458456195
 20
457.1504266479963
 30
0.0
 11
518.0688559608072
 21
457.1504266479963
 31
0.0
  0
LINE
  5
1085
330
2
100
AcDbEntity
  8
0
100
AcDbLine
 10
486.0951131819196
 20
455.1504266479962
 30
0.0
 11
486.0951131819196
 21
450.1504266479963
 31
0.0
  0
LINE
  5
1086
330
2
100
AcDbEntity
  8
0
100
AcDbLine
 10
420.0951127209508
 20
508.1504266479963
 30
0.0
 11
520.0951127209572
 21
508.150426647989
 31
0.0
  0
ARC
  5
1087
330
2
100
AcDbEntity
  8
0
100
AcDbCircle
 10
495.0951127209517
 20
323.196743073798
 30
0.0
 40
3.0
100
AcDbArc
 50
180.0
 51
270.0
  0
ARC
  5
1088
330
2
100
AcDbEntity
  8
0
100
AcDbCircle
 10
425.0951127209531
 20
261.196743073798
 30
0.0
 40
5.0
100
AcDbArc
 50
180.0
 51
270.0
  0
ARC
  5
1089
330
2
100
AcDbEntity
  8
0
100
AcDbCircle
 10
487.0951127209517
 20
261.196743073798
 30
0.0
 40
5.0
100
AcDbArc
 50
270.0
 51
0.0
  0
ARC
  5
108A
330
2
100
AcDbEntity
  8
0
100
AcDbCircle
 10
495.0951127209517
 20
261.1967430737962
 30
0.0
 40
3.0
100
AcDbArc
 50
90.0
 51
180.0
  0
LINE
  5
108B
330
2
100
AcDbEntity
  8
0
100
AcDbLine
 10
103.3624637146625
 20
312.6967430737962
 30
0.0
 11
103.3624637146625
 21
271.6967430737962
 31
0.0
  0
ARC
  5
108C
330
2
100
AcDbEntity
  8
0
100
AcDbCircle
 10
110.6624641756301
 20
314.6967430737962
 30
0.0
 40
2.0
100
AcDbArc
 50
270.0
 51
0.0
  0
ARC
  5
108D
330
2
100
AcDbEntity
  8
0
100
AcDbCircle
 10
101.3624637146625
 20
312.6967430737962
 30
0.0
 40
2.0
100
AcDbArc
 50
0.0
 51
90.0
  0
ARC
  5
108E
330
2
100
AcDbEntity
  8
0
100
AcDbCircle
 10
104.8265653297997
 20
314.6967430737962
 30
0.0
 40
2.0
100
AcDbArc
 50
209.9999999999972
 51
270.0
  0
LINE
  5
108F
330
2
100
AcDbEntity
  8
0
100
AcDbLine
 10
101.3624637146625
 20
314.6967430737962
 30
0.0
 11
97.79066694493748
 21
314.6967430737962
 31
0.0
  0
LINE
  5
1090
330
2
100
AcDbEntity
  8
0
100
AcDbLine
 10
104.8265653297997
 20
312.6967430737962
 30
0.0
 11
110.6624641756301
 21
312.6967430737962
 31
0.0
  0
ARC
  5
1091
330
2
100
AcDbEntity
  8
0
100
AcDbCircle
 10
110.6624641756301
 20
269.6967430737962
 30
0.0
 40
2.0
100
AcDbArc
 50
0.0
 51
90.0
  0
ARC
  5
1092
330
2
100
AcDbEntity
  8
0
100
AcDbCircle
 10
104.8265653297997
 20
269.6967430737962
 30
0.0
 40
2.0
100
AcDbArc
 50
90.0
 51
150.0000000000027
  0
LINE
  5
1093
330
2
100
AcDbEntity
  8
0
100
AcDbLine
 10
104.8265653297997
 20
271.6967430737962
 30
0.0
 11
110.6624641756301
 21
271.6967430737962
 31
0.0
  0
ARC
  5
1094
330
2
100
AcDbEntity
  8
0
100
AcDbCircle
 10
101.3624637146625
 20
271.6967430737962
 30
0.0
 40
2.0
100
AcDbArc
 50
270.0
 51
0.0
  0
LINE
  5
1095
330
2
100
AcDbEntity
  8
0
100
AcDbLine
 10
101.3624637146625
 20
269.6967430737962
 30
0.0
 11
97.79066694493748
 21
269.6967430737962
 31
0.0
  0
LINE
  5
1096
330
2
100
AcDbEntity
  8
0
100
AcDbLine
 10
472.6227082409349
 20
508.1504266479926
 30
0.0
 11
472.6227082409349
 21
456.6504266479944
 31
0.0
  0
LINE
  5
1097
330
2
100
AcDbEntity
  8
0
100
AcDbLine
 10
439.5675172009677
 20
508.1504266479945
 30
0.0
 11
439.5675172009677
 21
456.6504266479963
 31
0.0
  0
LINE
  5
1098
330
2
100
AcDbEntity
  8
0
100
AcDbLine
 10
528.8059299482974
 20
485.1504266479962
 30
0.0
 11
529.3441122754956
 21
505.7027805446117
 31
0.0
  0
LINE
  5
1099
330
2
100
AcDbEntity
  8
0
100
AcDbLine
 10
539.1619073779801
 20
485.1504266479962
 30
0.0
 11
539.8441122738094
 21
511.2027805446117
 31
0.0
  0
ARC
  5
109A
330
2
100
AcDbEntity
  8
0
100
AcDbCircle
 10
535.0060297581721
 20
457.6504266479963
 30
0.0
 40
5.0
100
AcDbArc
 50
12.37362511621985
 51
90.0
  0
LINE
  5
109B
330
2
100
AcDbEntity
  8
0
100
AcDbLine
 10
528.8059299482974
 20
485.1504266479962
 30
0.0
 11
529.3441122754956
 21
464.5980727513808
 31
0.0
  0
ARC
  5
109C
330
2
100
AcDbEntity
  8
0
100
AcDbCircle
 10
527.8793253103093
 20
462.6504266479963
 30
0.0
 40
2.0
100
AcDbArc
 50
29.99999999999721
 51
90.0
  0
LINE
  5
109D
330
2
100
AcDbEntity
  8
0
100
AcDbLine
 10
522.0951127209509
 20
464.6504266479963
 30
0.0
 11
527.8793253103093
 21
464.6504266479963
 31
0.0
  0
ARC
  5
109E
330
2
100
AcDbEntity
  8
0
100
AcDbCircle
 10
531.3434269254465
 20
464.6504266479963
 30
0.0
 40
2.0
100
AcDbArc
 50
181.4999999999897
 51
270.0
  0
LINE
  5
109F
330
2
100
AcDbEntity
  8
0
100
AcDbLine
 10
535.0060297581721
 20
462.6504266479963
 30
0.0
 11
531.3434269254465
 21
462.6504266479963
 31
0.0
  0
LINE
  5
10A0
330
2
100
AcDbEntity
  8
0
100
AcDbLine
 10
539.1619073779801
 20
485.1504266479962
 30
0.0
 11
539.8441122738094
 21
459.0980727513809
 31
0.0
  0
LINE
  5
10A1
330
2
100
AcDbEntity
  8
0
100
AcDbLine
 10
547.8951131819193
 20
457.1504266479963
 30
0.0
 11
541.8434269237604
 21
457.1504266479963
 31
0.0
  0
ARC
  5
10A2
330
2
100
AcDbEntity
  8
0
100
AcDbCircle
 10
541.8434269237604
 20
459.1504266479963
 30
0.0
 40
2.0
100
AcDbArc
 50
181.4999999999897
 51
270.0
  0
ARC
  5
10A3
330
2
100
AcDbEntity
  8
0
100
AcDbCircle
 10
535.0060297581721
 20
512.6504266479962
 30
0.0
 40
5.0
100
AcDbArc
 50
270.0
 51
347.6263748837801
  0
ARC
  5
10A4
330
2
100
AcDbEntity
  8
0
100
AcDbCircle
 10
527.8793253103093
 20
507.6504266479963
 30
0.0
 40
2.0
100
AcDbArc
 50
270.0
 51
330.0000000000027
  0
ARC
  5
10A5
330
2
100
AcDbEntity
  8
0
100
AcDbCircle
 10
531.3434269254465
 20
505.6504266479962
 30
0.0
 40
2.0
100
AcDbArc
 50
90.0
 51
178.5000000000102
  0
LINE
  5
10A6
330
2
100
AcDbEntity
  8
0
100
AcDbLine
 10
522.0995523116179
 20
505.6504266479962
 30
0.0
 11
527.8793253103093
 21
505.6504266479962
 31
0.0
  0
LINE
  5
10A7
330
2
100
AcDbEntity
  8
0
100
AcDbLine
 10
535.0060297581721
 20
507.6504266479963
 30
0.0
 11
531.3434269254465
 21
507.6504266479963
 31
0.0
  0
LINE
  5
10A8
330
2
100
AcDbEntity
  8
0
100
AcDbLine
 10
547.8951131819193
 20
513.1504266479963
 30
0.0
 11
541.8434269237604
 21
513.1504266479963
 31
0.0
  0
ARC
  5
10A9
330
2
100
AcDbEntity
  8
0
100
AcDbCircle
 10
541.8434269237604
 20
511.1504266479963
 30
0.0
 40
2.0
100
AcDbArc
 50
90.0
 51
178.5000000000102
  0
LINE
  5
10AA
330
2
100
AcDbEntity
  8
CENTER
100
AcDbLine
 10
541.8605077081482
 20
513.1504266479963
 30
0.0
 11
541.8434269237604
 21
513.1504266479963
 31
0.0
  0
LINE
  5
10AB
330
2
100
AcDbEntity
  8
0
100
AcDbLine
 10
425.0951127209517
 20
456.6504266479963
 30
0.0
 11
425.0951127209535
 21
508.1504266479926
 31
0.0
  0
LINE
  5
10AC
330
2
100
AcDbEntity
  8
0
100
AcDbLine
 10
428.0951127209536
 20
456.6504266479963
 30
0.0
 11
428.0951127209526
 21
508.1504266479926
 31
0.0
  0
LINE
  5
10AD
330
2
100
AcDbEntity
  8
0
100
AcDbLine
 10
484.2078111190893
 20
456.6504266479944
 30
0.0
 11
484.2078111190893
 21
508.1504266479926
 31
0.0
  0
LINE
  5
10AE
330
2
100
AcDbEntity
  8
0
100
AcDbLine
 10
487.2078111190884
 20
456.6504266479944
 30
0.0
 11
487.2078111190893
 21
508.1504266479926
 31
0.0
  0
LINE
  5
10AF
330
2
100
AcDbEntity
  8
0
100
AcDbLine
 10
515.1082056817379
 20
508.1504266479909
 30
0.0
 11
515.6849814238483
 21
486.1242496996849
 31
0.0
  0
ARC
  5
10B0
330
2
100
AcDbEntity
  8
0
100
AcDbCircle
 10
516.6846387488239
 20
486.1504266479963
 30
0.0
 40
1.0
100
AcDbArc
 50
181.5000000001981
 51
270.0
  0
LINE
  5
10B1
330
2
100
AcDbEntity
  8
0
100
AcDbLine
 10
516.6846387488239
 20
485.1504266479962
 30
0.0
 11
520.0951127209508
 21
485.1504266479962
 31
0.0
  0
LINE
  5
10B2
330
2
100
AcDbEntity
  8
0
100
AcDbLine
 10
539.1619073779801
 20
485.1504266479962
 30
0.0
 11
547.8951131819193
 21
485.1504266479962
 31
0.0
  0
ARC
  5
10B3
330
2
100
AcDbEntity
  8
0
100
AcDbCircle
 10
522.0951127209509
 20
462.6504266479963
 30
0.0
 40
2.0
100
AcDbArc
 50
90.0
 51
180.0
  0
LINE
  5
10B4
330
2
100
AcDbEntity
  8
0
100
AcDbLine
 10
434.0264902705651
 20
437.1504266479963
 30
0.0
 11
478.1637351713373
 21
437.1504266479963
 31
0.0
  0
LINE
  5
10B5
330
2
100
AcDbEntity
  8
0
100
AcDbLine
 10
431.7085468219814
 20
448.2202256414014
 30
0.0
 11
432.0277086165264
 21
439.0806276545911
 31
0.0
  0
ARC
  5
10B6
330
2
100
AcDbEntity
  8
0
100
AcDbCircle
 10
429.7097651679435
 20
448.1504266479963
 30
0.0
 40
2.0
100
AcDbArc
 50
2.000000000003654
 51
90.0
  0
ARC
  5
10B7
330
2
100
AcDbEntity
  8
0
100
AcDbCircle
 10
434.0264902705651
 20
439.1504266479962
 30
0.0
 40
2.0
100
AcDbArc
 50
182.0000000000036
 51
270.0
  0
LINE
  5
10B8
330
2
100
AcDbEntity
  8
0
100
AcDbLine
 10
480.4816786199211
 20
448.2202256414014
 30
0.0
 11
480.1625168253762
 21
439.0806276545911
 31
0.0
  0
ARC
  5
10B9
330
2
100
AcDbEntity
  8
0
100
AcDbCircle
 10
482.480460273959
 20
448.1504266479963
 30
0.0
 40
2.0
100
AcDbArc
 50
90.0
 51
177.9999999999963
  0
ARC
  5
10BA
330
2
100
AcDbEntity
  8
0
100
AcDbCircle
 10
478.1637351713373
 20
439.1504266479962
 30
0.0
 40
2.0
100
AcDbArc
 50
270.0
 51
357.9999999999963
  0
LINE
  5
10BB
330
2
100
AcDbEntity
  8
0
100
AcDbLine
 10
453.8633093601687
 20
263.1967430737871
 30
0.0
 11
454.7633097480829
 21
263.1967430737871
 31
0.0
  0
LINE
  5
10BC
330
2
100
AcDbEntity
  8
0
100
AcDbLine
 10
455.1133093601674
 20
265.6967430737834
 30
0.0
 11
453.8633093601687
 21
263.1967430737871
 31
0.0
  0
ARC
  5
10BD
330
2
100
AcDbEntity
  8
0
100
AcDbCircle
 10
457.1882866226655
 20
264.8467430737849
 30
0.0
 40
0.8499999999992269
100
AcDbArc
 50
307.5189678668365
 51
90.0
  0
LINE
  5
10BE
330
2
100
AcDbEntity
  8
0
100
AcDbLine
 10
457.705957053808
 20
264.1725640732814
 30
0.0
 11
458.3269160787612
 21
263.1967430737871
 31
0.0
  0
LINE
  5
10BF
330
2
100
AcDbEntity
  8
0
100
AcDbLine
 10
457.426915690847
 20
263.1967430737871
 30
0.0
 11
458.3269160787612
 21
263.1967430737871
 31
0.0
  0
LINE
  5
10C0
330
2
100
AcDbEntity
  8
0
100
AcDbLine
 10
455.5883093601668
 20
263.1967430737871
 30
0.0
 11
456.3382866226665
 21
263.1967430737871
 31
0.0
  0
LINE
  5
10C1
330
2
100
AcDbEntity
  8
0
100
AcDbLine
 10
454.9508097480829
 20
263.5717430737871
 30
0.0
 11
454.7633097480829
 21
263.1967430737871
 31
0.0
  0
LINE
  5
10C2
330
2
100
AcDbEntity
  8
0
100
AcDbLine
 10
454.9508097480829
 20
263.5717430737871
 30
0.0
 11
455.5883093601668
 21
263.5717430737871
 31
0.0
  0
LINE
  5
10C3
330
2
100
AcDbEntity
  8
0
100
AcDbLine
 10
455.5883093601668
 20
263.5717430737871
 30
0.0
 11
455.5883093601668
 21
263.1967430737871
 31
0.0
  0
LINE
  5
10C4
330
2
100
AcDbEntity
  8
0
100
AcDbLine
 10
455.3508097480825
 20
264.3717430737863
 30
0.0
 11
455.5883093601668
 21
264.3717430737863
 31
0.0
  0
LINE
  5
10C5
330
2
100
AcDbEntity
  8
0
100
AcDbLine
 10
455.5883093601668
 20
264.846742297955
 30
0.0
 11
455.5883093601668
 21
264.3717430737863
 31
0.0
  0
LINE
  5
10C6
330
2
100
AcDbEntity
  8
0
100
AcDbLine
 10
455.5883093601668
 20
264.846742297955
 30
0.0
 11
455.3508097480825
 21
264.3717430737863
 31
0.0
  0
LINE
  5
10C7
330
2
100
AcDbEntity
  8
0
100
AcDbLine
 10
456.4445593601662
 20
264.7404930737859
 30
0.0
 11
457.426915690847
 21
263.1967430737871
 31
0.0
  0
LINE
  5
10C8
330
2
100
AcDbEntity
  8
0
100
AcDbLine
 10
456.3382866226665
 20
264.8467430737849
 30
0.0
 11
456.3382866226665
 21
263.1967430737871
 31
0.0
  0
LINE
  5
10C9
330
2
100
AcDbEntity
  8
0
100
AcDbLine
 10
456.3382866226665
 20
264.8467430737849
 30
0.0
 11
457.1351843601654
 21
264.8467430737849
 31
0.0
  0
LINE
  5
10CA
330
2
100
AcDbEntity
  8
0
100
AcDbLine
 10
456.4445593601662
 20
264.7404930737859
 30
0.0
 11
457.1351843601654
 21
264.7404930737859
 31
0.0
  0
ARC
  5
10CB
330
2
100
AcDbEntity
  8
0
100
AcDbCircle
 10
457.1351843601654
 20
264.7936180737845
 30
0.0
 40
0.0531249999999517
100
AcDbArc
 50
270.0
 51
90.0
  0
LINE
  5
10CC
330
2
100
AcDbEntity
  8
0
100
AcDbLine
 10
455.1133093601674
 20
265.6967430737834
 30
0.0
 11
457.1882866226655
 21
265.6967430737834
 31
0.0
  0
ARC
  5
10CD
330
2
100
AcDbEntity
  8
0
100
AcDbCircle
 10
522.0951127209426
 20
314.6967430738016
 30
0.0
 40
2.0
100
AcDbArc
 50
180.0
 51
270.0
  0
LINE
  5
10CE
330
2
100
AcDbEntity
  8
0
100
AcDbLine
 10
527.931011566773
 20
312.6967430738016
 30
0.0
 11
522.0951127209426
 21
312.6967430738016
 31
0.0
  0
ARC
  5
10CF
330
2
100
AcDbEntity
  8
0
100
AcDbCircle
 10
527.931011566773
 20
314.6967430738016
 30
0.0
 40
2.0
100
AcDbArc
 50
270.0
 51
330.0000000000027
  0
ARC
  5
10D0
330
2
100
AcDbEntity
  8
0
100
AcDbCircle
 10
531.3951131819102
 20
312.6967430738016
 30
0.0
 40
2.0
100
AcDbArc
 50
90.0
 51
180.0
  0
LINE
  5
10D1
330
2
100
AcDbEntity
  8
0
100
AcDbLine
 10
531.3951131819102
 20
314.6967430738016
 30
0.0
 11
534.9669099516462
 21
314.6967430738016
 31
0.0
  0
LINE
  5
10D2
330
2
100
AcDbEntity
  8
0
100
AcDbLine
 10
529.3951131819102
 20
271.6967430738016
 30
0.0
 11
529.3951131819102
 21
312.6967430738016
 31
0.0
  0
ARC
  5
10D3
330
2
100
AcDbEntity
  8
0
100
AcDbCircle
 10
522.0951127209426
 20
269.6967430738016
 30
0.0
 40
2.0
100
AcDbArc
 50
90.0
 51
180.0
  0
LINE
  5
10D4
330
2
100
AcDbEntity
  8
0
100
AcDbLine
 10
527.931011566773
 20
271.6967430738016
 30
0.0
 11
522.0951127209426
 21
271.6967430738016
 31
0.0
  0
ARC
  5
10D5
330
2
100
AcDbEntity
  8
0
100
AcDbCircle
 10
527.931011566773
 20
269.6967430738016
 30
0.0
 40
2.0
100
AcDbArc
 50
29.99999999999721
 51
90.0
  0
ARC
  5
10D6
330
2
100
AcDbEntity
  8
0
100
AcDbCircle
 10
531.3951131819102
 20
271.6967430738016
 30
0.0
 40
2.0
100
AcDbArc
 50
180.0
 51
270.0
  0
LINE
  5
10D7
330
2
100
AcDbEntity
  8
0
100
AcDbLine
 10
531.3951131819102
 20
269.6967430738016
 30
0.0
 11
534.9669099516453
 21
269.6967430738016
 31
0.0
  0
ARC
  5
10D9
330
2
100
AcDbEntity
  8
0
100
AcDbCircle
 10
90.86246371466211
 20
265.696743073798
 30
0.0
 40
2.0
100
AcDbArc
 50
270.0
 51
0.0
  0
LINE
  5
10DA
330
2
100
AcDbEntity
  8
0
100
AcDbLine
 10
84.86246371466165
 20
263.696743073798
 30
0.0
 11
90.86246371466211
 21
263.696743073798
 31
0.0
  0
ARC
  5
10DB
330
2
100
AcDbEntity
  8
0
100
AcDbCircle
 10
97.79066694493748
 20
264.6967430737962
 30
0.0
 40
5.0
100
AcDbArc
 50
90.0
 51
171.7867892982768
  0
ARC
  5
10DC
330
2
100
AcDbEntity
  8
0
100
AcDbCircle
 10
90.86246371466165
 20
318.696743073798
 30
0.0
 40
2.0
100
AcDbArc
 50
0.0
 51
90.0
  0
LINE
  5
10DD
330
2
100
AcDbEntity
  8
0
100
AcDbLine
 10
84.86246371466165
 20
320.696743073798
 30
0.0
 11
90.86246371466165
 21
320.696743073798
 31
0.0
  0
ARC
  5
10DE
330
2
100
AcDbEntity
  8
0
100
AcDbCircle
 10
97.79066694493748
 20
319.6967430737962
 30
0.0
 40
5.0
100
AcDbArc
 50
188.2132107017231
 51
270.0
  0
ARC
  5
10DF
330
2
100
AcDbEntity
  8
0
100
AcDbCircle
 10
541.8951131819211
 20
318.696743073798
 30
0.0
 40
2.0
100
AcDbArc
 50
90.0
 51
180.0
  0
LINE
  5
10E0
330
2
100
AcDbEntity
  8
0
100
AcDbLine
 10
547.8951131819211
 20
320.696743073798
 30
0.0
 11
541.8951131819211
 21
320.696743073798
 31
0.0
  0
ARC
  5
10E1
330
2
100
AcDbEntity
  8
0
100
AcDbCircle
 10
534.9669099516462
 20
319.6967430738016
 30
0.0
 40
5.0
100
AcDbArc
 50
270.0
 51
351.7867892982769
  0
ARC
  5
10E2
330
2
100
AcDbEntity
  8
0
100
AcDbCircle
 10
541.8951131819211
 20
265.696743073798
 30
0.0
 40
2.0
100
AcDbArc
 50
180.0
 51
270.0
  0
LINE
  5
10E3
330
2
100
AcDbEntity
  8
0
100
AcDbLine
 10
547.8951131819211
 20
263.696743073798
 30
0.0
 11
541.8951131819211
 21
263.696743073798
 31
0.0
  0
ARC
  5
10E4
330
2
100
AcDbEntity
  8
0
100
AcDbCircle
 10
534.9669099516453
 20
264.6967430738016
 30
0.0
 40
5.0
100
AcDbArc
 50
8.213210701723122
 51
90.0
  0
LINE
  5
10E5
330
2
100
AcDbEntity
  8
CENTER
100
AcDbLine
 10
306.3477148950445
 20
249.3974610329726
 30
0.0
 11
306.3477148950445
 21
334.9960251145978
 31
0.0
  0
LINE
  5
10E6
330
2
100
AcDbEntity
  8
0
100
AcDbLine
 10
336.3477148950445
 20
256.6592670666953
 30
0.0
 11
336.3477148950463
 21
327.7342190808752
 31
0.0
  0
LINE
  5
10E7
330
2
100
AcDbEntity
  8
CENTER
100
AcDbLine
 10
371.3477148950449
 20
292.1967430737852
 30
0.0
 11
239.3477148951004
 21
292.1967430737852
 31
0.0
  0
LINE
  5
10E8
330
2
100
AcDbEntity
  8
0
100
AcDbLine
 10
341.3477148950445
 20
262.1967435347535
 30
0.0
 11
341.3477148950445
 21
322.1967435347536
 31
0.0
  0
LINE
  5
10E9
330
2
100
AcDbEntity
  8
0
100
AcDbLine
 10
336.3477148950445
 20
262.1967435347535
 30
0.0
 11
341.3477148950445
 21
262.1967435347535
 31
0.0
  0
LINE
  5
10EA
330
2
100
AcDbEntity
  8
0
100
AcDbLine
 10
336.3477148950445
 20
322.1967435347536
 30
0.0
 11
341.3477148950445
 21
322.1967435347536
 31
0.0
  0
LINE
  5
10EB
330
2
100
AcDbEntity
  8
0
100
AcDbLine
 10
283.347714895044
 20
256.1967430737853
 30
0.0
 11
336.3477148950445
 21
256.6592670666953
 31
0.0
  0
LINE
  5
10EC
330
2
100
AcDbEntity
  8
0
100
AcDbLine
 10
283.3477148950504
 20
328.1967430737852
 30
0.0
 11
336.3477148950463
 21
327.7342190808752
 31
0.0
  0
LINE
  5
10ED
330
2
100
AcDbEntity
  8
0
100
AcDbLine
 10
354.3477148950445
 20
270.1281210843674
 30
0.0
 11
354.3477148950449
 21
314.2653659851396
 31
0.0
  0
LINE
  5
10EE
330
2
100
AcDbEntity
  8
0
100
AcDbLine
 10
343.2779159016398
 20
267.8101776357828
 30
0.0
 11
352.4175138884501
 21
268.1293394303277
 31
0.0
  0
ARC
  5
10EF
330
2
100
AcDbEntity
  8
0
100
AcDbCircle
 10
343.3477148950445
 20
265.8113959817449
 30
0.0
 40
2.0
100
AcDbArc
 50
92.00000000000365
 51
180.0
  0
ARC
  5
10F0
330
2
100
AcDbEntity
  8
0
100
AcDbCircle
 10
352.3477148950445
 20
270.1281210843674
 30
0.0
 40
2.0
100
AcDbArc
 50
272.0000000000036
 51
0.0
  0
LINE
  5
10F1
330
2
100
AcDbEntity
  8
0
100
AcDbLine
 10
343.2779159016398
 20
316.5833094337224
 30
0.0
 11
352.4175138884501
 21
316.2641476391775
 31
0.0
  0
ARC
  5
10F2
330
2
100
AcDbEntity
  8
0
100
AcDbCircle
 10
343.3477148950445
 20
318.5820910877603
 30
0.0
 40
2.0
100
AcDbArc
 50
180.0
 51
267.9999999999963
  0
ARC
  5
10F3
330
2
100
AcDbEntity
  8
0
100
AcDbCircle
 10
352.3477148950445
 20
314.2653659851396
 30
0.0
 40
2.0
100
AcDbArc
 50
0.0
 51
87.99999999999636
  0
LINE
  5
10F4
330
2
100
AcDbEntity
  8
0
100
AcDbLine
 10
283.3477148950499
 20
323.196743073798
 30
0.0
 11
335.3477148950463
 21
323.196743073798
 31
0.0
  0
LINE
  5
10F5
330
2
100
AcDbEntity
  8
0
100
AcDbLine
 10
283.3477148950495
 20
320.1967430737961
 30
0.0
 11
335.3477148950463
 21
320.1967430737961
 31
0.0
  0
LINE
  5
10F6
330
2
100
AcDbEntity
  8
0
100
AcDbLine
 10
283.3477148950486
 20
308.7243385937793
 30
0.0
 11
335.3477148950458
 21
308.7243385937793
 31
0.0
  0
LINE
  5
10F7
330
2
100
AcDbEntity
  8
0
100
AcDbLine
 10
283.3477148950499
 20
261.1967430737707
 30
0.0
 11
335.3477148950445
 21
261.1967430737707
 31
0.0
  0
LINE
  5
10F8
330
2
100
AcDbEntity
  8
0
100
AcDbLine
 10
283.3477148950495
 20
264.1967430737725
 30
0.0
 11
335.3477148950445
 21
264.1967430737725
 31
0.0
  0
LINE
  5
10F9
330
2
100
AcDbEntity
  8
0
100
AcDbLine
 10
283.3477148950486
 20
275.6691475537893
 30
0.0
 11
335.347714895045
 21
275.6691475537893
 31
0.0
  0
LINE
  5
10FA
330
2
100
AcDbEntity
  8
0
100
AcDbLine
 10
491.6282252941404
 20
455.1504266479945
 30
0.0
 11
492.0907492875811
 21
508.1504266479909
 31
0.0
  0
ARC
  5
10FB
330
2
100
AcDbEntity
  8
0
100
AcDbCircle
 10
493.1326458456195
 20
455.6504266479962
 30
0.0
 40
1.5
100
AcDbArc
 50
90.0
 51
179.4999999994091
  0
LINE
  5
10FC
330
2
100
AcDbEntity
  8
0
100
AcDbLine
 10
520.0951127209508
 20
508.150426647989
 30
0.0
 11
520.2958306801336
 21
485.1504266479962
 31
0.0
  0
ARC
  5
10FD
330
2
100
AcDbEntity
  8
0
100
AcDbCircle
 10
522.0995523116179
 20
507.6504266479963
 30
0.0
 40
2.0
100
AcDbArc
 50
180.4999999999655
 51
270.0
  0
LINE
  5
10FE
330
2
100
AcDbEntity
  8
0
100
AcDbLine
 10
520.0687798069355
 20
459.1329735769999
 30
0.0
 11
520.2958306801336
 21
485.1504266479962
 31
0.0
  0
LINE
  5
10FF
330
2
100
AcDbEntity
  8
CENTER
100
AcDbLine
 10
214.9124641756301
 20
323.196743073798
 30
0.0
 11
200.4124641756301
 21
323.196743073798
 31
0.0
  0
CIRCLE
  5
1100
330
2
100
AcDbEntity
  8
HOJO
100
AcDbCircle
 10
207.1624641756296
 20
271.196743073798
 30
0.0
 40
2.0
  0
CIRCLE
  5
1101
330
2
100
AcDbEntity
  8
HOJO
100
AcDbCircle
 10
207.1624641756296
 20
313.196743073798
 30
0.0
 40
2.0
  0
LINE
  5
1102
330
2
100
AcDbEntity
  8
CENTER
100
AcDbLine
 10
214.9124641756301
 20
261.196743073798
 30
0.0
 11
200.4124641756301
 21
261.196743073798
 31
0.0
  0
CIRCLE
  5
1103
330
2
100
AcDbEntity
  8
HOJO
100
AcDbCircle
 10
127.6624641756296
 20
315.6967430737998
 30
0.0
 40
2.0
  0
LINE
  5
1104
330
2
100
AcDbEntity
  8
CENTER
100
AcDbLine
 10
117.6624641756296
 20
322.446743073798
 30
0.0
 11
117.6624641756292
 21
307.946743073798
 31
0.0
  0
CIRCLE
  5
1105
330
2
100
AcDbEntity
  8
HOJO
100
AcDbCircle
 10
127.6624641756296
 20
268.6967430737961
 30
0.0
 40
2.0
  0
LINE
  5
1106
330
2
100
AcDbEntity
  8
CENTER
100
AcDbLine
 10
110.4124641756296
 20
315.196743073798
 30
0.0
 11
124.9124641756296
 21
315.196743073798
 31
0.0
  0
ARC
  5
1107
330
2
100
AcDbEntity
  8
0
100
AcDbCircle
 10
161.6624641756301
 20
307.196743073798
 30
0.0
 40
13.0
100
AcDbArc
 50
90.0
 51
180.0
  0
ARC
  5
1108
330
2
100
AcDbEntity
  8
0
100
AcDbCircle
 10
161.6624641756301
 20
277.196743073798
 30
0.0
 40
13.0
100
AcDbArc
 50
180.0
 51
270.0
  0
ARC
  5
1109
330
2
100
AcDbEntity
  8
0
100
AcDbCircle
 10
161.6624641756301
 20
307.196743073798
 30
0.0
 40
12.0
100
AcDbArc
 50
90.0
 51
180.0
  0
ARC
  5
110A
330
2
100
AcDbEntity
  8
0
100
AcDbCircle
 10
161.6624641756301
 20
277.196743073798
 30
0.0
 40
12.0
100
AcDbArc
 50
180.0
 51
270.0
  0
CIRCLE
  5
110B
330
2
100
AcDbEntity
  8
0
100
AcDbCircle
 10
176.6624641756301
 20
292.196743073798
 30
0.0
 40
22.42259999999999
  0
CIRCLE
  5
110C
330
2
100
AcDbEntity
  8
0
100
AcDbCircle
 10
176.6624641756301
 20
292.196743073798
 30
0.0
 40
25.5
  0
CIRCLE
  5
110D
330
2
100
AcDbEntity
  8
0
100
AcDbCircle
 10
176.6624641756301
 20
292.196743073798
 30
0.0
 40
25.0
  0
CIRCLE
  5
110E
330
2
100
AcDbEntity
  8
0
100
AcDbCircle
 10
176.6624641756301
 20
292.196743073798
 30
0.0
 40
23.0
  0
ARC
  5
110F
330
2
100
AcDbEntity
  8
0
100
AcDbCircle
 10
157.0359444956487
 20
357.1803395187046
 30
0.0
 40
30.0
100
AcDbArc
 50
256.1581756815797
 51
275.9290854878501
  0
ARC
  5
1110
330
2
100
AcDbEntity
  8
0
100
AcDbCircle
 10
157.0359444956487
 20
227.2131466288913
 30
0.0
 40
30.0
100
AcDbArc
 50
84.07091451214986
 51
103.8418243183807
  0
ARC
  5
1111
330
2
100
AcDbEntity
  8
0
100
AcDbCircle
 10
191.6624641756301
 20
307.196743073798
 30
0.0
 40
13.0
100
AcDbArc
 50
0.0
 51
90.0
  0
ARC
  5
1112
330
2
100
AcDbEntity
  8
0
100
AcDbCircle
 10
191.6624641756301
 20
307.196743073798
 30
0.0
 40
12.0
100
AcDbArc
 50
0.0
 51
90.0
  0
ARC
  5
1113
330
2
100
AcDbEntity
  8
0
100
AcDbCircle
 10
209.881360870493
 20
315.696743073798
 30
0.0
 40
2.0
100
AcDbArc
 50
353.0475109494038
 51
90.0
  0
ARC
  5
1114
330
2
100
AcDbEntity
  8
0
100
AcDbCircle
 10
241.6460606205367
 20
311.8232627537793
 30
0.0
 40
30.0
100
AcDbArc
 50
166.1581756815798
 51
185.9290854878763
  0
ARC
  5
1115
330
2
100
AcDbEntity
  8
0
100
AcDbCircle
 10
207.6624641756301
 20
323.196743073798
 30
0.0
 40
5.5
100
AcDbArc
 50
180.0
 51
270.0
  0
LINE
  5
1116
330
2
100
AcDbEntity
  8
0
100
AcDbLine
 10
191.6624641756301
 20
320.196743073798
 30
0.0
 11
161.6624641756301
 21
320.196743073798
 31
0.0
  0
LINE
  5
1117
330
2
100
AcDbEntity
  8
0
100
AcDbLine
 10
191.6624641756301
 20
319.196743073798
 30
0.0
 11
161.6624641756301
 21
319.196743073798
 31
0.0
  0
ARC
  5
1118
330
2
100
AcDbEntity
  8
0
100
AcDbCircle
 10
176.6624641756301
 20
168.196743073798
 30
0.0
 40
160.0
100
AcDbArc
 50
84.07091451214986
 51
95.92908548785013
  0
LINE
  5
1119
330
2
100
AcDbEntity
  8
0
100
AcDbLine
 10
207.6624641756301
 20
328.196743073798
 30
0.0
 11
204.6624641756301
 21
328.196743073798
 31
0.0
  0
ARC
  5
111A
330
2
100
AcDbEntity
  8
0
100
AcDbCircle
 10
207.6624641756301
 20
323.196743073798
 30
0.0
 40
5.0
100
AcDbArc
 50
0.0
 51
90.0
  0
ARC
  5
111B
330
2
100
AcDbEntity
  8
0
100
AcDbCircle
 10
207.6624641756301
 20
320.196743073798
 30
0.0
 40
5.0
100
AcDbArc
 50
346.1581756815798
 51
0.0
  0
LINE
  5
111C
330
2
100
AcDbEntity
  8
0
100
AcDbLine
 10
212.6624641756301
 20
320.196743073798
 30
0.0
 11
212.6624641756301
 21
323.196743073798
 31
0.0
  0
LINE
  5
111D
330
2
100
AcDbEntity
  8
0
100
AcDbLine
 10
207.6624641756301
 20
317.696743073798
 30
0.0
 11
209.881360870493
 21
317.696743073798
 31
0.0
  0
ARC
  5
111E
330
2
100
AcDbEntity
  8
0
100
AcDbCircle
 10
204.6624641756301
 20
323.196743073798
 30
0.0
 40
5.0
100
AcDbArc
 50
90.0
 51
103.8418243183807
  0
ARC
  5
111F
330
2
100
AcDbEntity
  8
0
100
AcDbCircle
 10
196.2889838556119
 20
357.1803395187046
 30
0.0
 40
30.0
100
AcDbArc
 50
264.0709145121498
 51
283.8418243183807
  0
ARC
  5
1120
330
2
100
AcDbEntity
  8
0
100
AcDbCircle
 10
200.1624641756301
 20
325.4156397686613
 30
0.0
 40
2.0
100
AcDbArc
 50
0.0
 51
96.95248905056947
  0
LINE
  5
1121
330
2
100
AcDbEntity
  8
0
100
AcDbLine
 10
202.1624641756301
 20
323.196743073798
 30
0.0
 11
202.1624641756301
 21
325.4156397686613
 31
0.0
  0
ARC
  5
1122
330
2
100
AcDbEntity
  8
0
100
AcDbCircle
 10
191.6624641756301
 20
277.196743073798
 30
0.0
 40
13.0
100
AcDbArc
 50
270.0
 51
0.0
  0
ARC
  5
1123
330
2
100
AcDbEntity
  8
0
100
AcDbCircle
 10
191.6624641756301
 20
277.196743073798
 30
0.0
 40
12.0
100
AcDbArc
 50
270.0
 51
0.0
  0
CIRCLE
  5
1124
330
2
100
AcDbEntity
  8
0
100
AcDbCircle
 10
207.1624641756301
 20
271.196743073798
 30
0.0
 40
2.5
  0
CIRCLE
  5
1125
330
2
100
AcDbEntity
  8
0
100
AcDbCircle
 10
207.1624641756301
 20
271.196743073798
 30
0.0
 40
1.6
  0
CIRCLE
  5
1126
330
2
100
AcDbEntity
  8
0
100
AcDbCircle
 10
207.1624641756301
 20
271.196743073798
 30
0.0
 40
3.0
  0
ARC
  5
1127
330
2
100
AcDbEntity
  8
0
100
AcDbCircle
 10
241.6460606205367
 20
272.5702233938166
 30
0.0
 40
30.0
100
AcDbArc
 50
174.0709145121236
 51
193.8418243184201
  0
CIRCLE
  5
1128
330
2
100
AcDbEntity
  8
0
100
AcDbCircle
 10
176.6624641756301
 20
292.196743073798
 30
0.0
 40
19.0
  0
CIRCLE
  5
1129
330
2
100
AcDbEntity
  8
0
100
AcDbCircle
 10
176.6624641756301
 20
292.196743073798
 30
0.0
 40
19.5774
  0
LINE
  5
112A
330
2
100
AcDbEntity
  8
0
100
AcDbLine
 10
204.6624641756301
 20
307.196743073798
 30
0.0
 11
204.6624641756301
 21
277.196743073798
 31
0.0
  0
LINE
  5
112B
330
2
100
AcDbEntity
  8
0
100
AcDbLine
 10
203.6624641756301
 20
307.196743073798
 30
0.0
 11
203.6624641756301
 21
277.196743073798
 31
0.0
  0
ARC
  5
112C
330
2
100
AcDbEntity
  8
0
100
AcDbCircle
 10
52.66246417563059
 20
292.196743073798
 30
0.0
 40
160.0
100
AcDbArc
 50
354.0709145121236
 51
5.929085487876394
  0
CIRCLE
  5
112D
330
2
100
AcDbEntity
  8
0
100
AcDbCircle
 10
207.1624641756301
 20
313.196743073798
 30
0.0
 40
3.0
  0
CIRCLE
  5
112E
330
2
100
AcDbEntity
  8
0
100
AcDbCircle
 10
207.1624641756301
 20
313.196743073798
 30
0.0
 40
2.5
  0
CIRCLE
  5
112F
330
2
100
AcDbEntity
  8
0
100
AcDbCircle
 10
207.1624641756301
 20
313.196743073798
 30
0.0
 40
1.6
  0
LINE
  5
1130
330
2
100
AcDbEntity
  8
0
100
AcDbLine
 10
191.6624641756301
 20
264.196743073798
 30
0.0
 11
161.6624641756301
 21
264.196743073798
 31
0.0
  0
LINE
  5
1131
330
2
100
AcDbEntity
  8
0
100
AcDbLine
 10
191.6624641756301
 20
265.196743073798
 30
0.0
 11
161.6624641756301
 21
265.196743073798
 31
0.0
  0
ARC
  5
1132
330
2
100
AcDbEntity
  8
0
100
AcDbCircle
 10
176.6624641756301
 20
416.196743073798
 30
0.0
 40
160.0
100
AcDbArc
 50
264.0709145121498
 51
275.9290854878501
  0
ARC
  5
1133
330
2
100
AcDbEntity
  8
0
100
AcDbCircle
 10
207.6624641756301
 20
261.196743073798
 30
0.0
 40
5.5
100
AcDbArc
 50
90.0
 51
180.0
  0
LINE
  5
1134
330
2
100
AcDbEntity
  8
0
100
AcDbLine
 10
207.6624641756301
 20
256.196743073798
 30
0.0
 11
204.6624641756301
 21
256.196743073798
 31
0.0
  0
ARC
  5
1135
330
2
100
AcDbEntity
  8
0
100
AcDbCircle
 10
207.6624641756301
 20
261.196743073798
 30
0.0
 40
5.0
100
AcDbArc
 50
270.0
 51
0.0
  0
ARC
  5
1136
330
2
100
AcDbEntity
  8
0
100
AcDbCircle
 10
209.881360870493
 20
268.696743073798
 30
0.0
 40
2.0
100
AcDbArc
 50
270.0
 51
6.952489050596161
  0
LINE
  5
1137
330
2
100
AcDbEntity
  8
0
100
AcDbLine
 10
207.6624641756301
 20
266.696743073798
 30
0.0
 11
209.881360870493
 21
266.696743073798
 31
0.0
  0
ARC
  5
1138
330
2
100
AcDbEntity
  8
0
100
AcDbCircle
 10
207.6624641756301
 20
264.196743073798
 30
0.0
 40
5.0
100
AcDbArc
 50
0.0
 51
13.84182431842014
  0
LINE
  5
1139
330
2
100
AcDbEntity
  8
0
100
AcDbLine
 10
212.6624641756301
 20
261.196743073798
 30
0.0
 11
212.6624641756301
 21
264.196743073798
 31
0.0
  0
ARC
  5
113A
330
2
100
AcDbEntity
  8
0
100
AcDbCircle
 10
200.1624641756301
 20
258.9778463789346
 30
0.0
 40
2.0
100
AcDbArc
 50
263.0475109494305
 51
0.0
  0
LINE
  5
113B
330
2
100
AcDbEntity
  8
0
100
AcDbLine
 10
202.1624641756301
 20
261.196743073798
 30
0.0
 11
202.1624641756301
 21
258.9778463789346
 31
0.0
  0
ARC
  5
113C
330
2
100
AcDbEntity
  8
0
100
AcDbCircle
 10
196.2889838556119
 20
227.2131466288913
 30
0.0
 40
30.0
100
AcDbArc
 50
76.15817568161926
 51
95.92908548785013
  0
ARC
  5
113D
330
2
100
AcDbEntity
  8
0
100
AcDbCircle
 10
204.6624641756301
 20
261.196743073798
 30
0.0
 40
5.0
100
AcDbArc
 50
256.1581756815797
 51
270.0
  0
LINE
  5
113E
330
2
100
AcDbEntity
  8
0
100
AcDbLine
 10
123.1624641756296
 20
318.196743073798
 30
0.0
 11
123.1624641756296
 21
315.196743073798
 31
0.0
  0
CIRCLE
  5
113F
330
2
100
AcDbEntity
  8
0
100
AcDbCircle
 10
127.6624641756296
 20
315.6967430737998
 30
0.0
 40
1.6
  0
ARC
  5
1140
330
2
100
AcDbEntity
  8
0
100
AcDbCircle
 10
117.6624641756296
 20
315.196743073798
 30
0.0
 40
5.0
100
AcDbArc
 50
90.0
 51
180.0
  0
LINE
  5
1141
330
2
100
AcDbEntity
  8
0
100
AcDbLine
 10
140.6624641756305
 20
261.196743073798
 30
0.0
 11
140.6624641756315
 21
323.196743073798
 31
0.0
  0
ARC
  5
1142
330
2
100
AcDbEntity
  8
0
100
AcDbCircle
 10
125.1624641756296
 20
318.196743073798
 30
0.0
 40
2.0
100
AcDbArc
 50
90.0
 51
180.0
  0
LINE
  5
1143
330
2
100
AcDbEntity
  8
0
100
AcDbLine
 10
137.6624641756315
 20
320.196743073798
 30
0.0
 11
117.6624641756296
 21
320.196743073798
 31
0.0
  0
ARC
  5
1144
330
2
100
AcDbEntity
  8
0
100
AcDbCircle
 10
137.6624641756315
 20
323.196743073798
 30
0.0
 40
3.0
100
AcDbArc
 50
270.0
 51
0.0
  0
ARC
  5
1145
330
2
100
AcDbEntity
  8
0
100
AcDbCircle
 10
145.6624641756315
 20
323.196743073798
 30
0.0
 40
5.0
100
AcDbArc
 50
90.0
 51
180.0
  0
ARC
  5
1146
330
2
100
AcDbEntity
  8
0
100
AcDbCircle
 10
148.6624641756305
 20
323.196743073798
 30
0.0
 40
5.0
100
AcDbArc
 50
76.15817568161926
 51
90.0
  0
LINE
  5
1147
330
2
100
AcDbEntity
  8
0
100
AcDbLine
 10
148.6624641756305
 20
328.196743073798
 30
0.0
 11
145.6624641756315
 21
328.196743073798
 31
0.0
  0
ARC
  5
1148
330
2
100
AcDbEntity
  8
0
100
AcDbCircle
 10
117.6624641756305
 20
269.196743073798
 30
0.0
 40
5.5
100
AcDbArc
 50
0.0
 51
90.0
  0
CIRCLE
  5
1149
330
2
100
AcDbEntity
  8
0
100
AcDbCircle
 10
127.6624641756296
 20
268.6967430737961
 30
0.0
 40
1.6
  0
LINE
  5
114A
330
2
100
AcDbEntity
  8
0
100
AcDbLine
 10
112.6624641756296
 20
269.196743073798
 30
0.0
 11
112.6624641756296
 21
315.196743073798
 31
0.0
  0
ARC
  5
114B
330
2
100
AcDbEntity
  8
0
100
AcDbCircle
 10
117.6624641756296
 20
315.196743073798
 30
0.0
 40
5.5
100
AcDbArc
 50
270.0
 51
0.0
  0
LINE
  5
114C
330
2
100
AcDbEntity
  8
0
100
AcDbLine
 10
148.6624641756301
 20
307.196743073798
 30
0.0
 11
148.6624641756301
 21
277.196743073798
 31
0.0
  0
LINE
  5
114D
330
2
100
AcDbEntity
  8
0
100
AcDbLine
 10
149.6624641756301
 20
307.196743073798
 30
0.0
 11
149.6624641756301
 21
277.196743073798
 31
0.0
  0
LINE
  5
114E
330
2
100
AcDbEntity
  8
0
100
AcDbLine
 10
114.6624641756296
 20
309.696743073798
 30
0.0
 11
117.6624641756296
 21
309.696743073798
 31
0.0
  0
ARC
  5
114F
330
2
100
AcDbEntity
  8
0
100
AcDbCircle
 10
114.6624641756296
 20
307.696743073798
 30
0.0
 40
2.0
100
AcDbArc
 50
90.0
 51
180.0
  0
LINE
  5
1150
330
2
100
AcDbEntity
  8
0
100
AcDbLine
 10
114.6624641756305
 20
274.696743073798
 30
0.0
 11
117.6624641756301
 21
274.696743073798
 31
0.0
  0
ARC
  5
1151
330
2
100
AcDbEntity
  8
0
100
AcDbCircle
 10
114.6624641756301
 20
276.696743073798
 30
0.0
 40
2.0
100
AcDbArc
 50
180.0
 51
270.0
  0
ARC
  5
1152
330
2
100
AcDbEntity
  8
0
100
AcDbCircle
 10
125.162464175631
 20
266.196743073798
 30
0.0
 40
2.0
100
AcDbArc
 50
180.0
 51
270.0
  0
LINE
  5
1153
330
2
100
AcDbEntity
  8
0
100
AcDbLine
 10
137.6624641756305
 20
264.196743073798
 30
0.0
 11
117.6624641756296
 21
264.196743073798
 31
0.0
  0
ARC
  5
1154
330
2
100
AcDbEntity
  8
0
100
AcDbCircle
 10
137.6624641756305
 20
261.196743073798
 30
0.0
 40
3.0
100
AcDbArc
 50
0.0
 51
90.0
  0
ARC
  5
1155
330
2
100
AcDbEntity
  8
0
100
AcDbCircle
 10
145.6624641756306
 20
261.196743073798
 30
0.0
 40
5.0
100
AcDbArc
 50
180.0
 51
270.0
  0
LINE
  5
1156
330
2
100
AcDbEntity
  8
0
100
AcDbLine
 10
148.6624641756305
 20
256.196743073798
 30
0.0
 11
145.6624641756306
 21
256.196743073798
 31
0.0
  0
ARC
  5
1157
330
2
100
AcDbEntity
  8
0
100
AcDbCircle
 10
148.6624641756305
 20
261.196743073798
 30
0.0
 40
5.0
100
AcDbArc
 50
270.0
 51
283.8418243183807
  0
ARC
  5
1158
330
2
100
AcDbEntity
  8
0
100
AcDbCircle
 10
117.6624641756296
 20
269.196743073798
 30
0.0
 40
5.0
100
AcDbArc
 50
180.0
 51
270.0
  0
LINE
  5
1159
330
2
100
AcDbEntity
  8
0
100
AcDbLine
 10
123.162464175631
 20
266.196743073798
 30
0.0
 11
123.1624641756305
 21
269.196743073798
 31
0.0
  0
LINE
  5
115A
330
2
100
AcDbEntity
  8
0
100
AcDbLine
 10
200.1477455498687
 20
315.6820244480361
 30
0.0
 11
200.8548523310554
 21
316.3891312292228
 31
0.0
  0
LINE
  5
115B
330
2
100
AcDbEntity
  8
0
100
AcDbLine
 10
200.8548523310554
 20
268.0043549183731
 30
0.0
 11
200.1477455498687
 21
268.7114616995598
 31
0.0
  0
LINE
  5
115C
330
2
100
AcDbEntity
  8
0
100
AcDbLine
 10
152.4700760202052
 20
268.0043549183731
 30
0.0
 11
153.1771828013915
 21
268.7114616995598
 31
0.0
  0
LINE
  5
115D
330
2
100
AcDbEntity
  8
0
100
AcDbLine
 10
153.1771828013915
 20
315.6820244480361
 30
0.0
 11
152.4700760202052
 21
316.3891312292228
 31
0.0
  0
LINE
  5
115E
330
2
100
AcDbEntity
  8
CENTER
100
AcDbLine
 10
207.662464175631
 20
253.946743073798
 30
0.0
 11
207.6624641756306
 21
268.446743073798
 31
0.0
  0
LINE
  5
115F
330
2
100
AcDbEntity
  8
CENTER
100
AcDbLine
 10
207.6624641756301
 20
330.446743073798
 30
0.0
 11
207.6624641756301
 21
315.946743073798
 31
0.0
  0
LINE
  5
1160
330
2
100
AcDbEntity
  8
CENTER
100
AcDbLine
 10
127.6624641756296
 20
319.797847914798
 30
0.0
 11
127.6624641756296
 21
311.5956382328016
 31
0.0
  0
LINE
  5
1161
330
2
100
AcDbEntity
  8
CENTER
100
AcDbLine
 10
123.5613593346319
 20
315.6967430737998
 30
0.0
 11
131.7635690166279
 21
315.6967430737998
 31
0.0
  0
LINE
  5
1162
330
2
100
AcDbEntity
  8
CENTER
100
AcDbLine
 10
127.6624641756296
 20
264.5956382327979
 30
0.0
 11
127.6624641756296
 21
272.7978479147944
 31
0.0
  0
LINE
  5
1163
330
2
100
AcDbEntity
  8
CENTER
100
AcDbLine
 10
123.5613593346319
 20
268.6967430737961
 30
0.0
 11
131.7635690166279
 21
268.6967430737961
 31
0.0
  0
LINE
  5
1164
330
2
100
AcDbEntity
  8
CENTER
100
AcDbLine
 10
117.6624641756296
 20
261.9467430737961
 30
0.0
 11
117.6624641756292
 21
276.446743073798
 31
0.0
  0
LINE
  5
1165
330
2
100
AcDbEntity
  8
CENTER
100
AcDbLine
 10
110.4124641756296
 20
269.196743073798
 30
0.0
 11
124.9124641756296
 21
269.196743073798
 31
0.0
  0
LINE
  5
1166
330
2
100
AcDbEntity
  8
0
100
AcDbLine
 10
283.3477148950472
 20
328.1967430737852
 30
0.0
 11
274.8389883595531
 21
328.1224885422428
 31
0.0
  0
LINE
  5
1167
330
2
100
AcDbEntity
  8
0
100
AcDbLine
 10
272.8477148950995
 20
318.7825295114119
 30
0.0
 11
272.8477148950995
 21
265.6109566361586
 31
0.0
  0
LINE
  5
1168
330
2
100
AcDbEntity
  8
HIDS
  6
SEKKEI_H
100
AcDbLine
 10
273.1406081139133
 20
319.4896362925986
 30
0.0
 11
273.5548216762862
 21
319.9038498549719
 31
0.0
  0
LINE
  5
1169
330
2
100
AcDbEntity
  8
0
100
AcDbLine
 10
272.3477148950995
 20
317.1967430737852
 30
0.0
 11
272.8477148950995
 21
317.6967430737852
 31
0.0
  0
LINE
  5
116A
330
2
100
AcDbEntity
  8
0
100
AcDbLine
 10
266.6477148951002
 20
315.1967430737852
 30
0.0
 11
265.3477148951
 21
315.1967430737852
 31
0.0
  0
LINE
  5
116B
330
2
100
AcDbEntity
  8
0
100
AcDbLine
 10
264.3477148951
 20
314.6193928045953
 30
0.0
 11
264.3477148951
 21
269.7740933429734
 31
0.0
  0
LINE
  5
116C
330
2
100
AcDbEntity
  8
0
100
AcDbLine
 10
272.3477148950995
 20
315.1967430737852
 30
0.0
 11
269.0477148951003
 21
315.1967430737852
 31
0.0
  0
LINE
  5
116D
330
2
100
AcDbEntity
  8
0
100
AcDbLine
 10
264.3477148951
 20
314.6193928045953
 30
0.0
 11
265.3477148951
 21
315.1967430737852
 31
0.0
  0
LINE
  5
116E
330
2
100
AcDbEntity
  8
0
100
AcDbLine
 10
266.6477148950997
 20
269.1967430737852
 30
0.0
 11
265.3477148951
 21
269.1967430737852
 31
0.0
  0
LINE
  5
116F
330
2
100
AcDbEntity
  8
0
100
AcDbLine
 10
272.3477148950995
 20
267.1967430737852
 30
0.0
 11
272.8477148950995
 21
266.6967430737853
 31
0.0
  0
LINE
  5
1170
330
2
100
AcDbEntity
  8
0
100
AcDbLine
 10
272.3477148950995
 20
269.1967430737852
 30
0.0
 11
269.0477148950998
 21
269.1967430737852
 31
0.0
  0
LINE
  5
1171
330
2
100
AcDbEntity
  8
0
100
AcDbLine
 10
272.3477148950995
 20
317.1967430737852
 30
0.0
 11
272.3477148950995
 21
267.1967430737852
 31
0.0
  0
LINE
  5
1172
330
2
100
AcDbEntity
  8
0
100
AcDbLine
 10
264.3477148950995
 20
269.7740933429734
 30
0.0
 11
265.3477148951
 21
269.1967430737852
 31
0.0
  0
LINE
  5
1173
330
2
100
AcDbEntity
  8
0
100
AcDbLine
 10
273.8477148950513
 20
318.946743073798
 30
0.0
 11
273.8477148950513
 21
265.4467430737725
 31
0.0
  0
LINE
  5
1174
330
2
100
AcDbEntity
  8
HIDS
  6
SEKKEI_H
100
AcDbLine
 10
273.8477148950513
 20
265.4467430737725
 30
0.0
 11
273.8477148950513
 21
257.2709595283916
 31
0.0
  0
ARC
  5
1175
330
2
100
AcDbEntity
  8
0
100
AcDbCircle
 10
274.8477148950513
 20
327.1225266191789
 30
0.0
 40
1.0
100
AcDbArc
 50
90.49999999999155
 51
161.0818891053111
  0
ARC
  5
1176
330
2
100
AcDbEntity
  8
HIDS
  6
SEKKEI_H
100
AcDbCircle
 10
274.8477148950513
 20
327.1225266191789
 30
0.0
 40
1.0
100
AcDbArc
 50
161.0818891053111
 51
180.0
  0
LINE
  5
1177
330
2
100
AcDbEntity
  8
HIDS
  6
SEKKEI_H
100
AcDbLine
 10
273.1406081139133
 20
264.9038498549719
 30
0.0
 11
273.554821676238
 21
264.4896362926477
 31
0.0
  0
ARC
  5
1178
330
2
100
AcDbEntity
  8
HIDS
  6
SEKKEI_H
100
AcDbCircle
 10
273.8477148950995
 20
318.7825295114119
 30
0.0
 40
1.0
100
AcDbArc
 50
134.9999999999905
 51
170.5484482344701
  0
ARC
  5
1179
330
2
100
AcDbEntity
  8
0
100
AcDbCircle
 10
273.8477148950995
 20
318.7825295114119
 30
0.0
 40
1.0
100
AcDbArc
 50
170.5484482344701
 51
180.0
  0
ARC
  5
117A
330
2
100
AcDbEntity
  8
HIDS
  6
SEKKEI_H
100
AcDbCircle
 10
272.8477148950995
 20
320.6109566361586
 30
0.0
 40
1.0
100
AcDbArc
 50
314.9999999999905
 51
0.0
  0
ARC
  5
117B
330
2
100
AcDbEntity
  8
0
100
AcDbCircle
 10
273.8477148950995
 20
265.6109566361586
 30
0.0
 40
1.0
100
AcDbArc
 50
180.0
 51
189.4515517656347
  0
ARC
  5
117C
330
2
100
AcDbEntity
  8
HIDS
  6
SEKKEI_H
100
AcDbCircle
 10
273.8477148950995
 20
265.6109566361586
 30
0.0
 40
1.0
100
AcDbArc
 50
189.4515517656347
 51
225.0000000000095
  0
ARC
  5
117D
330
2
100
AcDbEntity
  8
HIDS
  6
SEKKEI_H
100
AcDbCircle
 10
272.8477148950513
 20
263.782529511461
 30
0.0
 40
1.0
100
AcDbArc
 50
0.0
 51
45.00000000000949
  0
LINE
  5
117E
330
2
100
AcDbEntity
  8
0
100
AcDbLine
 10
266.8477148951
 20
314.9967430737845
 30
0.0
 11
266.8477148951
 21
269.3967430737842
 31
0.0
  0
LINE
  5
117F
330
2
100
AcDbEntity
  8
0
100
AcDbLine
 10
268.6477148950997
 20
269.8967430737841
 30
0.0
 11
267.0477148950998
 21
269.8967430737841
 31
0.0
  0
LINE
  5
1180
330
2
100
AcDbEntity
  8
0
100
AcDbLine
 10
268.8477148951
 20
314.9967430737845
 30
0.0
 11
268.8477148951
 21
269.3967430737842
 31
0.0
  0
ARC
  5
1181
330
2
100
AcDbEntity
  8
0
100
AcDbCircle
 10
266.6477148950997
 20
269.3967430737842
 30
0.0
 40
0.2
100
AcDbArc
 50
270.0
 51
0.0
  0
ARC
  5
1182
330
2
100
AcDbEntity
  8
0
100
AcDbCircle
 10
267.0477148950998
 20
269.6967430737852
 30
0.0
 40
0.2
100
AcDbArc
 50
90.0
 51
180.0
  0
ARC
  5
1183
330
2
100
AcDbEntity
  8
0
100
AcDbCircle
 10
268.6477148950997
 20
269.6967430737852
 30
0.0
 40
0.2
100
AcDbArc
 50
0.0
 51
90.0
  0
LINE
  5
1184
330
2
100
AcDbEntity
  8
0
100
AcDbLine
 10
268.8477148951
 20
269.3967430737842
 30
0.0
 11
269.0477148950998
 21
269.1967430737852
 31
0.0
  0
LINE
  5
1185
330
2
100
AcDbEntity
  8
0
100
AcDbLine
 10
268.8477148951
 20
314.9967430737845
 30
0.0
 11
269.0477148950998
 21
315.1967430737852
 31
0.0
  0
LINE
  5
1186
330
2
100
AcDbEntity
  8
0
100
AcDbLine
 10
268.6477148950997
 20
314.4967430737845
 30
0.0
 11
267.0477148950998
 21
314.4967430737845
 31
0.0
  0
ARC
  5
1187
330
2
100
AcDbEntity
  8
0
100
AcDbCircle
 10
268.6477148950997
 20
314.6967430737853
 30
0.0
 40
0.2
100
AcDbArc
 50
270.0
 51
0.0
  0
ARC
  5
1188
330
2
100
AcDbEntity
  8
0
100
AcDbCircle
 10
267.0477148950998
 20
314.6967430737853
 30
0.0
 40
0.2
100
AcDbArc
 50
180.0
 51
270.0
  0
ARC
  5
1189
330
2
100
AcDbEntity
  8
0
100
AcDbCircle
 10
266.6477148951002
 20
314.9967430737845
 30
0.0
 40
0.2
100
AcDbArc
 50
0.0
 51
90.0
  0
LINE
  5
118A
330
2
100
AcDbEntity
  8
0
100
AcDbLine
 10
269.0477148950998
 20
269.1967430737852
 30
0.0
 11
269.0477148951007
 21
315.1967430737852
 31
0.0
  0
LINE
  5
118B
330
2
100
AcDbEntity
  8
0
100
AcDbLine
 10
265.3477148951
 20
315.1967430737852
 30
0.0
 11
265.3477148951
 21
269.1967430737852
 31
0.0
  0
LINE
  5
118C
330
2
100
AcDbEntity
  8
0
100
AcDbLine
 10
283.3477148950472
 20
323.1967430737852
 30
0.0
 11
277.8389883595003
 21
323.1967430737852
 31
0.0
  0
LINE
  5
118D
330
2
100
AcDbEntity
  8
0
100
AcDbLine
 10
283.3477148950472
 20
320.1967430737852
 30
0.0
 11
277.8389883595003
 21
320.1967430737852
 31
0.0
  0
LINE
  5
118E
330
2
100
AcDbEntity
  8
0
100
AcDbLine
 10
283.3477148950472
 20
308.7243385937684
 30
0.0
 11
274.8389883595531
 21
308.7243385937684
 31
0.0
  0
LINE
  5
118F
330
2
100
AcDbEntity
  8
0
100
AcDbLine
 10
283.3477148950472
 20
261.1967430737852
 30
0.0
 11
277.8389883595003
 21
261.1967430737852
 31
0.0
  0
LINE
  5
1190
330
2
100
AcDbEntity
  8
0
100
AcDbLine
 10
283.3477148950472
 20
264.1967430737853
 30
0.0
 11
277.8389883595003
 21
264.1967430737853
 31
0.0
  0
LINE
  5
1191
330
2
100
AcDbEntity
  8
0
100
AcDbLine
 10
283.3477148950472
 20
275.6691475538021
 30
0.0
 11
274.8389883595531
 21
275.6691475538021
 31
0.0
  0
LINE
  5
1192
330
2
100
AcDbEntity
  8
0
100
AcDbLine
 10
276.3520781627479
 20
317.6924177175509
 30
0.0
 11
274.8389883595531
 21
317.6792131828818
 31
0.0
  0
LINE
  5
1193
330
2
100
AcDbEntity
  8
0
100
AcDbLine
 10
276.8477148949985
 20
318.19239867908
 30
0.0
 11
276.8477148949985
 21
327.1487072225493
 31
0.0
  0
ARC
  5
1194
330
2
100
AcDbEntity
  8
0
100
AcDbCircle
 10
276.3477148949986
 20
318.19239867908
 30
0.0
 40
0.5
100
AcDbArc
 50
270.4999999999915
 51
0.0
  0
ARC
  5
1195
330
2
100
AcDbEntity
  8
0
100
AcDbCircle
 10
277.8477148949986
 20
327.1487072225493
 30
0.0
 40
1.0
100
AcDbArc
 50
90.49999999999155
 51
180.0
  0
ARC
  5
1196
330
2
100
AcDbEntity
  8
0
100
AcDbCircle
 10
274.8477148950513
 20
316.6792512598179
 30
0.0
 40
1.0
100
AcDbArc
 50
90.49999999999155
 51
180.0
  0
LINE
  5
1197
330
2
100
AcDbEntity
  8
0
100
AcDbLine
 10
283.3477148950472
 20
256.1967430737853
 30
0.0
 11
283.3477148950472
 21
328.1967430737852
 31
0.0
  0
LINE
  5
1198
330
2
100
AcDbEntity
  8
0
100
AcDbLine
 10
264.3477148950995
 20
269.7740933429734
 30
0.0
 11
264.3477148950995
 21
280.1967890737845
 31
0.0
  0
LINE
  5
1199
330
2
100
AcDbEntity
  8
0
100
AcDbLine
 10
283.3477148950472
 20
256.1967430737853
 30
0.0
 11
274.8389883595531
 21
256.2709976053277
 31
0.0
  0
ARC
  5
119A
330
2
100
AcDbEntity
  8
HIDS
  6
SEKKEI_H
100
AcDbCircle
 10
274.8477148950513
 20
257.2709595283916
 30
0.0
 40
1.0
100
AcDbArc
 50
180.0
 51
198.9181108946888
  0
ARC
  5
119B
330
2
100
AcDbEntity
  8
0
100
AcDbCircle
 10
274.8477148950513
 20
257.2709595283916
 30
0.0
 40
1.0
100
AcDbArc
 50
198.9181108946888
 51
269.5000000000084
  0
LINE
  5
119C
330
2
100
AcDbEntity
  8
0
100
AcDbLine
 10
276.3520781627479
 20
266.7010684300196
 30
0.0
 11
274.8389883595531
 21
266.7142729646869
 31
0.0
  0
LINE
  5
119D
330
2
100
AcDbEntity
  8
0
100
AcDbLine
 10
276.8477148949985
 20
266.2010874684904
 30
0.0
 11
276.8477148949985
 21
256.9467430737725
 31
0.0
  0
ARC
  5
119E
330
2
100
AcDbEntity
  8
0
100
AcDbCircle
 10
276.3477148949986
 20
266.2010874684904
 30
0.0
 40
0.5
100
AcDbArc
 50
0.0
 51
89.50000000000846
  0
ARC
  5
119F
330
2
100
AcDbEntity
  8
0
100
AcDbCircle
 10
277.8477148949986
 20
257.2447789250194
 30
0.0
 40
1.0
100
AcDbArc
 50
180.0
 51
269.5000000000084
  0
ARC
  5
11A0
330
2
100
AcDbEntity
  8
0
100
AcDbCircle
 10
274.8477148950513
 20
267.7142348877508
 30
0.0
 40
1.0
100
AcDbArc
 50
180.0
 51
269.5000000000084
  0
LINE
  5
11A1
330
2
100
AcDbEntity
  8
0
100
AcDbLine
 10
429.5093262833233
 20
518.6504266479416
 30
0.0
 11
482.6808991585775
 21
518.6504266479416
 31
0.0
  0
LINE
  5
11A2
330
2
100
AcDbEntity
  8
0
100
AcDbLine
 10
420.0951127209508
 20
508.1504266479945
 30
0.0
 11
420.1693672524933
 21
516.6591531834885
 31
0.0
  0
LINE
  5
11A3
330
2
100
AcDbEntity
  8
HIDS
  6
SEKKEI_H
100
AcDbLine
 10
428.8022195021365
 20
518.3575334291283
 30
0.0
 11
428.3880059397637
 21
517.943319866755
 31
0.0
  0
LINE
  5
11A4
330
2
100
AcDbEntity
  8
0
100
AcDbLine
 10
431.0951127209504
 20
519.1504266479417
 30
0.0
 11
430.5951127209503
 21
518.6504266479416
 31
0.0
  0
LINE
  5
11A5
330
2
100
AcDbEntity
  8
0
100
AcDbLine
 10
433.0951127209504
 20
524.8504266479406
 30
0.0
 11
433.0951127209504
 21
526.1504266479416
 31
0.0
  0
LINE
  5
11A6
330
2
100
AcDbEntity
  8
0
100
AcDbLine
 10
433.0951127209504
 20
519.1504266479417
 30
0.0
 11
433.0951127209504
 21
522.4504266479409
 31
0.0
  0
LINE
  5
11A7
330
2
100
AcDbEntity
  8
0
100
AcDbLine
 10
433.6724629901404
 20
527.1504266479417
 30
0.0
 11
478.5177624517618
 21
527.1504266479417
 31
0.0
  0
LINE
  5
11A8
330
2
100
AcDbEntity
  8
0
100
AcDbLine
 10
433.6724629901399
 20
527.1504266479417
 30
0.0
 11
433.0951127209504
 21
526.1504266479416
 31
0.0
  0
LINE
  5
11A9
330
2
100
AcDbEntity
  8
0
100
AcDbLine
 10
479.0951127209512
 20
524.8504266479406
 30
0.0
 11
479.0951127209512
 21
526.1504266479416
 31
0.0
  0
LINE
  5
11AA
330
2
100
AcDbEntity
  8
0
100
AcDbLine
 10
481.0951127209513
 20
519.1504266479417
 30
0.0
 11
481.5951127209508
 21
518.6504266479416
 31
0.0
  0
LINE
  5
11AB
330
2
100
AcDbEntity
  8
0
100
AcDbLine
 10
479.0951127209512
 20
519.1504266479417
 30
0.0
 11
479.0951127209512
 21
522.4504266479409
 31
0.0
  0
LINE
  5
11AC
330
2
100
AcDbEntity
  8
0
100
AcDbLine
 10
431.0951127209504
 20
519.1504266479417
 30
0.0
 11
481.0951127209513
 21
519.1504266479417
 31
0.0
  0
LINE
  5
11AD
330
2
100
AcDbEntity
  8
0
100
AcDbLine
 10
478.5177624517618
 20
527.1504266479417
 30
0.0
 11
479.0951127209512
 21
526.1504266479416
 31
0.0
  0
LINE
  5
11AE
330
2
100
AcDbEntity
  8
0
100
AcDbLine
 10
493.0951127209509
 20
515.6504266480417
 30
0.0
 11
510.8451127209518
 21
515.6504266480417
 31
0.0
  0
ARC
  5
11AF
330
2
100
AcDbEntity
  8
0
100
AcDbCircle
 10
519.0383500019246
 20
514.6504266480417
 30
0.0
 40
1.0
100
AcDbArc
 50
0.4999999999654926
 51
72.13575521903521
  0
LINE
  5
11B0
330
2
100
AcDbEntity
  8
0
100
AcDbLine
 10
510.0351689513998
 20
514.6504266480417
 30
0.0
 11
519.0470768697154
 21
514.6504266480417
 31
0.0
  0
ARC
  5
11B1
330
2
100
AcDbEntity
  8
0
100
AcDbCircle
 10
519.0470768697154
 20
513.6504266480417
 30
0.0
 40
1.0
100
AcDbArc
 50
0.4999999999654926
 51
90.0
  0
LINE
  5
11B2
330
2
100
AcDbEntity
  8
HIDS
  6
SEKKEI_H
100
AcDbLine
 10
421.1693291755576
 20
517.650426647989
 30
0.0
 11
429.3451127209513
 21
517.650426647989
 31
0.0
  0
LINE
  5
11B3
330
2
100
AcDbEntity
  8
0
100
AcDbLine
 10
429.3451127209513
 20
517.650426647989
 30
0.0
 11
491.0951127209508
 21
517.650426647989
 31
0.0
  0
ARC
  5
11B4
330
2
100
AcDbEntity
  8
HIDS
  6
SEKKEI_H
100
AcDbCircle
 10
421.1693291755576
 20
516.6504266479889
 30
0.0
 40
1.0
100
AcDbArc
 50
90.0
 51
108.9181108939165
  0
ARC
  5
11B5
330
2
100
AcDbEntity
  8
0
100
AcDbCircle
 10
421.1693291755576
 20
516.6504266479889
 30
0.0
 40
1.0
100
AcDbArc
 50
108.9181108939165
 51
179.5000000000344
  0
LINE
  5
11B6
330
2
100
AcDbEntity
  8
0
100
AcDbLine
 10
483.3880059397642
 20
518.3575334291283
 30
0.0
 11
483.8022195020884
 21
517.9433198668041
 31
0.0
  0
ARC
  5
11B7
330
2
100
AcDbEntity
  8
0
100
AcDbCircle
 10
493.0951127209509
 20
516.6504266480417
 30
0.0
 40
1.0
100
AcDbArc
 50
180.000000001459
 51
270.0
  0
ARC
  5
11B8
330
2
100
AcDbEntity
  8
0
100
AcDbCircle
 10
491.0951127209508
 20
516.6504266479889
 30
0.0
 40
1.0
100
AcDbArc
 50
0.0000000015633062
 51
90.0
  0
LINE
  5
11B9
330
2
100
AcDbEntity
  8
0
100
AcDbLine
 10
492.0951127209508
 20
516.6504266479925
 30
0.0
 11
492.0951127209508
 21
516.6504266479889
 31
0.0
  0
LINE
  5
11BA
330
2
100
AcDbEntity
  8
0
100
AcDbLine
 10
520.0951127209504
 20
508.1504266479945
 30
0.0
 11
520.0383119249885
 21
514.6591531835412
 31
0.0
  0
ARC
  5
11BB
330
2
100
AcDbEntity
  8
0
100
AcDbCircle
 10
429.5093262833233
 20
517.6504266479416
 30
0.0
 40
1.0
100
AcDbArc
 50
90.0
 51
99.45155176481543
  0
ARC
  5
11BC
330
2
100
AcDbEntity
  8
HIDS
  6
SEKKEI_H
100
AcDbCircle
 10
429.5093262833233
 20
517.6504266479416
 30
0.0
 40
1.0
100
AcDbArc
 50
99.45155176481543
 51
134.9999999999951
  0
ARC
  5
11BD
330
2
100
AcDbEntity
  8
HIDS
  6
SEKKEI_H
100
AcDbCircle
 10
427.680899158577
 20
518.6504266479416
 30
0.0
 40
1.0
100
AcDbArc
 50
270.0
 51
314.9999999999951
  0
ARC
  5
11BE
330
2
100
AcDbEntity
  8
0
100
AcDbCircle
 10
482.6808991585775
 20
517.6504266479416
 30
0.0
 40
1.0
100
AcDbArc
 50
45.00000000000489
 51
90.0
  0
ARC
  5
11BF
330
2
100
AcDbEntity
  8
0
100
AcDbCircle
 10
484.5093262832754
 20
518.6504266479889
 30
0.0
 40
1.0
100
AcDbArc
 50
225.0000000000048
 51
270.0
  0
LINE
  5
11C0
330
2
100
AcDbEntity
  8
0
100
AcDbLine
 10
433.2951127209506
 20
524.6504266479417
 30
0.0
 11
478.895112720951
 21
524.6504266479417
 31
0.0
  0
LINE
  5
11C1
330
2
100
AcDbEntity
  8
0
100
AcDbLine
 10
478.395112720951
 20
522.8504266479405
 30
0.0
 11
478.395112720951
 21
524.4504266479409
 31
0.0
  0
LINE
  5
11C2
330
2
100
AcDbEntity
  8
0
100
AcDbLine
 10
433.2951127209506
 20
522.6504266479416
 30
0.0
 11
478.895112720951
 21
522.6504266479416
 31
0.0
  0
ARC
  5
11C3
330
2
100
AcDbEntity
  8
0
100
AcDbCircle
 10
478.895112720951
 20
524.8504266479406
 30
0.0
 40
0.2
100
AcDbArc
 50
270.0
 51
0.0
  0
ARC
  5
11C4
330
2
100
AcDbEntity
  8
0
100
AcDbCircle
 10
478.5951127209508
 20
524.4504266479409
 30
0.0
 40
0.2
100
AcDbArc
 50
90.0
 51
180.0
  0
ARC
  5
11C5
330
2
100
AcDbEntity
  8
0
100
AcDbCircle
 10
478.5951127209508
 20
522.8504266479405
 30
0.0
 40
0.2
100
AcDbArc
 50
180.0
 51
270.0
  0
LINE
  5
11C6
330
2
100
AcDbEntity
  8
0
100
AcDbLine
 10
478.895112720951
 20
522.6504266479416
 30
0.0
 11
479.0951127209512
 21
522.4504266479409
 31
0.0
  0
LINE
  5
11C7
330
2
100
AcDbEntity
  8
0
100
AcDbLine
 10
433.2951127209506
 20
522.6504266479416
 30
0.0
 11
433.0951127209508
 21
522.4504266479409
 31
0.0
  0
LINE
  5
11C8
330
2
100
AcDbEntity
  8
0
100
AcDbLine
 10
433.7951127209506
 20
522.8504266479405
 30
0.0
 11
433.7951127209506
 21
524.4504266479409
 31
0.0
  0
ARC
  5
11C9
330
2
100
AcDbEntity
  8
0
100
AcDbCircle
 10
433.5951127209508
 20
522.8504266479405
 30
0.0
 40
0.2
100
AcDbArc
 50
270.0
 51
0.0
  0
ARC
  5
11CA
330
2
100
AcDbEntity
  8
0
100
AcDbCircle
 10
433.5951127209508
 20
524.4504266479409
 30
0.0
 40
0.2
100
AcDbArc
 50
0.0
 51
90.0
  0
ARC
  5
11CB
330
2
100
AcDbEntity
  8
0
100
AcDbCircle
 10
433.2951127209506
 20
524.8504266479406
 30
0.0
 40
0.2
100
AcDbArc
 50
180.0
 51
270.0
  0
LINE
  5
11CC
330
2
100
AcDbEntity
  8
0
100
AcDbLine
 10
479.0951127209512
 20
522.4504266479409
 30
0.0
 11
433.0951127209504
 21
522.4504266479409
 31
0.0
  0
LINE
  5
11CD
330
2
100
AcDbEntity
  8
0
100
AcDbLine
 10
433.0951127209504
 20
526.1504266479416
 30
0.0
 11
479.0951127209512
 21
526.1504266479416
 31
0.0
  0
LINE
  5
11CE
330
2
100
AcDbEntity
  8
0
100
AcDbLine
 10
492.0951127209503
 20
508.1504266479945
 30
0.0
 11
492.0951127209503
 21
516.6504266479889
 31
0.0
  0
ARC
  5
11CF
330
2
100
AcDbEntity
  8
0
100
AcDbCircle
 10
508.6209553890265
 20
514.6504266480471
 30
0.0
 40
1.0
100
AcDbArc
 50
19.47122063452926
 51
90.0
  0
ARC
  5
11D0
330
2
100
AcDbEntity
  8
0
100
AcDbCircle
 10
510.0351689513998
 20
515.150426648049
 30
0.0
 40
0.5
100
AcDbArc
 50
199.4712206345292
 51
270.0
  0
LINE
  5
11D1
330
2
100
AcDbEntity
  8
0
100
AcDbLine
 10
425.0951127209508
 20
508.1504266479945
 30
0.0
 11
425.0951127209508
 21
513.6591531835413
 31
0.0
  0
LINE
  5
11D2
330
2
100
AcDbEntity
  8
0
100
AcDbLine
 10
428.0951127209508
 20
508.1504266479945
 30
0.0
 11
428.0951127209508
 21
513.6591531835413
 31
0.0
  0
LINE
  5
11D3
330
2
100
AcDbEntity
  8
0
100
AcDbLine
 10
439.5675172009677
 20
508.1504266479945
 30
0.0
 11
439.5675172009677
 21
516.6504266479416
 31
0.0
  0
LINE
  5
11D4
330
2
100
AcDbEntity
  8
0
100
AcDbLine
 10
487.0951127209512
 20
508.1504266479945
 30
0.0
 11
487.0951127209512
 21
516.6504266479416
 31
0.0
  0
LINE
  5
11D5
330
2
100
AcDbEntity
  8
0
100
AcDbLine
 10
484.0951127209513
 20
508.1504266479945
 30
0.0
 11
484.0951127209513
 21
516.6504266479416
 31
0.0
  0
LINE
  5
11D6
330
2
100
AcDbEntity
  8
0
100
AcDbLine
 10
472.6227082409344
 20
508.1504266479945
 30
0.0
 11
472.6227082409344
 21
516.6504266479416
 31
0.0
  0
LINE
  5
11D7
330
2
100
AcDbEntity
  8
0
100
AcDbLine
 10
430.5994380771852
 20
515.1460633802937
 30
0.0
 11
430.6126426118534
 21
516.6591531834885
 31
0.0
  0
LINE
  5
11D8
330
2
100
AcDbEntity
  8
0
100
AcDbLine
 10
430.0994571156556
 20
514.6504266480417
 30
0.0
 11
421.1431485721858
 21
514.6504266480417
 31
0.0
  0
ARC
  5
11D9
330
2
100
AcDbEntity
  8
0
100
AcDbCircle
 10
430.0994571156556
 20
515.1504266480417
 30
0.0
 40
0.5
100
AcDbArc
 50
270.0
 51
359.5000000000345
  0
ARC
  5
11DA
330
2
100
AcDbEntity
  8
0
100
AcDbCircle
 10
421.1431485721858
 20
513.6504266480417
 30
0.0
 40
1.0
100
AcDbArc
 50
90.0
 51
179.5000000000344
  0
ARC
  5
11DB
330
2
100
AcDbEntity
  8
0
100
AcDbCircle
 10
431.6126045349172
 20
516.6504266479908
 30
0.0
 40
1.0
100
AcDbArc
 50
89.99999999997395
 51
179.5000000000344
  0
LINE
  5
11DC
330
2
100
AcDbEntity
  8
0
100
AcDbLine
 10
115.6624641756296
 20
270.3514436121762
 30
0.0
 11
115.6624641756296
 21
268.042042535418
 31
0.0
  0
LINE
  5
11DD
330
2
100
AcDbEntity
  8
0
100
AcDbLine
 10
119.6624641756296
 20
270.3514436121762
 30
0.0
 11
119.6624641756296
 21
268.042042535418
 31
0.0
  0
CIRCLE
  5
11DE
330
2
100
AcDbEntity
  8
0
100
AcDbCircle
 10
117.6624641756296
 20
269.196743073798
 30
0.0
 40
3.730384757729268
  0
CIRCLE
  5
11DF
330
2
100
AcDbEntity
  8
0
100
AcDbCircle
 10
117.6624641756296
 20
269.196743073798
 30
0.0
 40
4.250000000000085
  0
LINE
  5
11E0
330
2
100
AcDbEntity
  8
0
100
AcDbLine
 10
119.6624641756296
 20
268.042042535418
 30
0.0
 11
117.6624641756296
 21
266.887341997038
 31
0.0
  0
LINE
  5
11E1
330
2
100
AcDbEntity
  8
0
100
AcDbLine
 10
115.6624641756296
 20
268.042042535418
 30
0.0
 11
117.6624641756292
 21
266.887341997038
 31
0.0
  0
LINE
  5
11E2
330
2
100
AcDbEntity
  8
0
100
AcDbLine
 10
117.6624641756292
 20
271.5061441505561
 30
0.0
 11
119.6624641756296
 21
270.3514436121762
 31
0.0
  0
LINE
  5
11E3
330
2
100
AcDbEntity
  8
0
100
AcDbLine
 10
117.6624641756292
 20
271.5061441505561
 30
0.0
 11
115.6624641756296
 21
270.3514436121762
 31
0.0
  0
LINE
  5
11E4
330
2
100
AcDbEntity
  8
0
100
AcDbLine
 10
115.6624641756296
 20
316.351443612178
 30
0.0
 11
115.6624641756296
 21
314.042042535418
 31
0.0
  0
LINE
  5
11E5
330
2
100
AcDbEntity
  8
0
100
AcDbLine
 10
119.6624641756296
 20
316.351443612178
 30
0.0
 11
119.6624641756296
 21
314.042042535418
 31
0.0
  0
CIRCLE
  5
11E6
330
2
100
AcDbEntity
  8
0
100
AcDbCircle
 10
117.6624641756296
 20
315.196743073798
 30
0.0
 40
3.730384757729268
  0
CIRCLE
  5
11E7
330
2
100
AcDbEntity
  8
0
100
AcDbCircle
 10
117.6624641756296
 20
315.196743073798
 30
0.0
 40
4.250000000000085
  0
LINE
  5
11E8
330
2
100
AcDbEntity
  8
0
100
AcDbLine
 10
119.6624641756296
 20
314.042042535418
 30
0.0
 11
117.6624641756296
 21
312.8873419970398
 31
0.0
  0
LINE
  5
11E9
330
2
100
AcDbEntity
  8
0
100
AcDbLine
 10
115.6624641756296
 20
314.042042535418
 30
0.0
 11
117.6624641756292
 21
312.8873419970398
 31
0.0
  0
LINE
  5
11EA
330
2
100
AcDbEntity
  8
0
100
AcDbLine
 10
117.6624641756292
 20
317.5061441505561
 30
0.0
 11
119.6624641756296
 21
316.351443612178
 31
0.0
  0
LINE
  5
11EB
330
2
100
AcDbEntity
  8
0
100
AcDbLine
 10
117.6624641756292
 20
317.5061441505561
 30
0.0
 11
115.6624641756296
 21
316.351443612178
 31
0.0
  0
LINE
  5
11EC
330
2
100
AcDbEntity
  8
0
100
AcDbLine
 10
205.6624641756301
 20
324.3514436121762
 30
0.0
 11
205.6624641756301
 21
322.042042535418
 31
0.0
  0
LINE
  5
11ED
330
2
100
AcDbEntity
  8
0
100
AcDbLine
 10
209.6624641756301
 20
324.3514436121762
 30
0.0
 11
209.6624641756301
 21
322.042042535418
 31
0.0
  0
CIRCLE
  5
11EE
330
2
100
AcDbEntity
  8
0
100
AcDbCircle
 10
207.6624641756301
 20
323.196743073798
 30
0.0
 40
3.730384757729268
  0
CIRCLE
  5
11EF
330
2
100
AcDbEntity
  8
0
100
AcDbCircle
 10
207.6624641756301
 20
323.196743073798
 30
0.0
 40
4.250000000000085
  0
LINE
  5
11F0
330
2
100
AcDbEntity
  8
0
100
AcDbLine
 10
209.6624641756301
 20
322.042042535418
 30
0.0
 11
207.6624641756301
 21
320.8873419970398
 31
0.0
  0
LINE
  5
11F1
330
2
100
AcDbEntity
  8
0
100
AcDbLine
 10
205.6624641756301
 20
322.042042535418
 30
0.0
 11
207.6624641756301
 21
320.8873419970398
 31
0.0
  0
LINE
  5
11F2
330
2
100
AcDbEntity
  8
0
100
AcDbLine
 10
207.6624641756301
 20
325.5061441505561
 30
0.0
 11
209.6624641756301
 21
324.3514436121762
 31
0.0
  0
LINE
  5
11F3
330
2
100
AcDbEntity
  8
0
100
AcDbLine
 10
207.6624641756301
 20
325.5061441505561
 30
0.0
 11
205.6624641756301
 21
324.3514436121762
 31
0.0
  0
LINE
  5
11F4
330
2
100
AcDbEntity
  8
0
100
AcDbLine
 10
205.6624641756306
 20
262.3514436121761
 30
0.0
 11
205.6624641756306
 21
260.042042535418
 31
0.0
  0
LINE
  5
11F5
330
2
100
AcDbEntity
  8
0
100
AcDbLine
 10
209.6624641756306
 20
262.3514436121761
 30
0.0
 11
209.6624641756306
 21
260.042042535418
 31
0.0
  0
CIRCLE
  5
11F6
330
2
100
AcDbEntity
  8
0
100
AcDbCircle
 10
207.6624641756306
 20
261.196743073798
 30
0.0
 40
3.730384757729268
  0
CIRCLE
  5
11F7
330
2
100
AcDbEntity
  8
0
100
AcDbCircle
 10
207.6624641756306
 20
261.196743073798
 30
0.0
 40
4.250000000000085
  0
LINE
  5
11F8
330
2
100
AcDbEntity
  8
0
100
AcDbLine
 10
209.6624641756306
 20
260.042042535418
 30
0.0
 11
207.6624641756306
 21
258.8873419970398
 31
0.0
  0
LINE
  5
11F9
330
2
100
AcDbEntity
  8
0
100
AcDbLine
 10
205.6624641756306
 20
260.042042535418
 30
0.0
 11
207.6624641756306
 21
258.8873419970398
 31
0.0
  0
LINE
  5
11FA
330
2
100
AcDbEntity
  8
0
100
AcDbLine
 10
207.6624641756306
 20
263.5061441505561
 30
0.0
 11
209.6624641756306
 21
262.3514436121761
 31
0.0
  0
LINE
  5
11FB
330
2
100
AcDbEntity
  8
0
100
AcDbLine
 10
207.6624641756306
 20
263.5061441505561
 30
0.0
 11
205.6624641756306
 21
262.3514436121761
 31
0.0
  0
LINE
  5
11FC
330
2
100
AcDbEntity
  8
CENTER
  6
CENS
100
AcDbLine
 10
266.6835592087276
 20
323.196743073798
 30
0.0
 11
287.4179714987529
 21
323.196743073798
 31
0.0
  0
LINE
  5
11FD
330
2
100
AcDbEntity
  8
0
100
AcDbLine
 10
275.5477148949984
 20
318.946743073798
 30
0.0
 11
275.5477148949984
 21
327.446743073798
 31
0.0
  0
LINE
  5
11FE
330
2
100
AcDbEntity
  8
0
100
AcDbLine
 10
270.8477148949985
 20
318.946743073798
 30
0.0
 11
270.8477148949985
 21
327.446743073798
 31
0.0
  0
LINE
  5
11FF
330
2
100
AcDbEntity
  8
0
100
AcDbLine
 10
270.5477148949984
 20
319.4663583160684
 30
0.0
 11
270.5477148949984
 21
326.9271278315275
 31
0.0
  0
LINE
  5
1200
330
2
100
AcDbEntity
  8
0
100
AcDbLine
 10
270.8477148949985
 20
318.946743073798
 30
0.0
 11
270.5477148949984
 21
319.4663583160684
 31
0.0
  0
LINE
  5
1201
330
2
100
AcDbEntity
  8
0
100
AcDbLine
 10
270.8477148949985
 20
318.946743073798
 30
0.0
 11
276.8477148949985
 21
318.946743073798
 31
0.0
  0
LINE
  5
1202
330
2
100
AcDbEntity
  8
0
100
AcDbLine
 10
270.8477148949985
 20
327.446743073798
 30
0.0
 11
276.8477148949985
 21
327.446743073798
 31
0.0
  0
LINE
  5
1203
330
2
100
AcDbEntity
  8
0
100
AcDbLine
 10
270.8477148949985
 20
327.446743073798
 30
0.0
 11
270.5477148949984
 21
326.9271278315275
 31
0.0
  0
LINE
  5
1204
330
2
100
AcDbEntity
  8
0
100
AcDbLine
 10
276.8477148949985
 20
327.446743073798
 30
0.0
 11
276.8477148949985
 21
318.946743073798
 31
0.0
  0
LINE
  5
1205
330
2
100
AcDbEntity
  8
HIDS
  6
SEKKEI_H
100
AcDbLine
 10
273.8477148950513
 20
327.1225266191789
 30
0.0
 11
273.8477148950513
 21
318.946743073798
 31
0.0
  0
LINE
  5
1206
330
2
100
AcDbEntity
  8
0
100
AcDbLine
 10
275.5477148949984
 20
265.4467430737725
 30
0.0
 11
275.5477148949984
 21
256.9467430737725
 31
0.0
  0
LINE
  5
1207
330
2
100
AcDbEntity
  8
0
100
AcDbLine
 10
270.8477148949985
 20
265.4467430737725
 30
0.0
 11
270.8477148949985
 21
256.9467430737725
 31
0.0
  0
LINE
  5
1208
330
2
100
AcDbEntity
  8
0
100
AcDbLine
 10
270.5477148949984
 20
264.927127831502
 30
0.0
 11
270.5477148949984
 21
257.4663583160429
 31
0.0
  0
LINE
  5
1209
330
2
100
AcDbEntity
  8
0
100
AcDbLine
 10
270.8477148949985
 20
265.4467430737725
 30
0.0
 11
270.5477148949984
 21
264.927127831502
 31
0.0
  0
LINE
  5
120A
330
2
100
AcDbEntity
  8
0
100
AcDbLine
 10
270.8477148949985
 20
265.4467430737725
 30
0.0
 11
276.8477148949985
 21
265.4467430737725
 31
0.0
  0
LINE
  5
120B
330
2
100
AcDbEntity
  8
0
100
AcDbLine
 10
270.8477148949985
 20
256.9467430737725
 30
0.0
 11
276.8477148949985
 21
256.9467430737725
 31
0.0
  0
LINE
  5
120C
330
2
100
AcDbEntity
  8
0
100
AcDbLine
 10
270.8477148949985
 20
256.9467430737725
 30
0.0
 11
270.5477148949984
 21
257.4663583160429
 31
0.0
  0
LINE
  5
120D
330
2
100
AcDbEntity
  8
CENTER
  6
CENS
100
AcDbLine
 10
266.6835592087276
 20
261.1967430737725
 30
0.0
 11
287.4179714987529
 21
261.1967430737725
 31
0.0
  0
LINE
  5
120E
330
2
100
AcDbEntity
  8
CENTER
  6
CENS
100
AcDbLine
 10
425.0951127209512
 20
524.8145823343141
 30
0.0
 11
425.0951127209512
 21
504.0801700442874
 31
0.0
  0
LINE
  5
120F
330
2
100
AcDbEntity
  8
0
100
AcDbLine
 10
420.8451127209513
 20
515.9504266480428
 30
0.0
 11
429.3451127209513
 21
515.9504266480428
 31
0.0
  0
LINE
  5
1210
330
2
100
AcDbEntity
  8
0
100
AcDbLine
 10
420.8451127209513
 20
520.6504266480417
 30
0.0
 11
429.3451127209513
 21
520.6504266480417
 31
0.0
  0
LINE
  5
1211
330
2
100
AcDbEntity
  8
0
100
AcDbLine
 10
421.3647279632217
 20
520.9504266480428
 30
0.0
 11
428.8254974786804
 21
520.9504266480428
 31
0.0
  0
LINE
  5
1212
330
2
100
AcDbEntity
  8
0
100
AcDbLine
 10
420.8451127209513
 20
520.6504266480417
 30
0.0
 11
421.3647279632217
 21
520.9504266480428
 31
0.0
  0
LINE
  5
1213
330
2
100
AcDbEntity
  8
0
100
AcDbLine
 10
420.8451127209513
 20
520.6504266480417
 30
0.0
 11
420.8451127209513
 21
514.6504266480417
 31
0.0
  0
LINE
  5
1214
330
2
100
AcDbEntity
  8
0
100
AcDbLine
 10
429.3451127209513
 20
520.6504266480417
 30
0.0
 11
429.3451127209513
 21
514.6504266480417
 31
0.0
  0
LINE
  5
1215
330
2
100
AcDbEntity
  8
0
100
AcDbLine
 10
429.3451127209513
 20
520.6504266480417
 30
0.0
 11
428.8254974786804
 21
520.9504266480428
 31
0.0
  0
LINE
  5
1216
330
2
100
AcDbEntity
  8
CENTER
  6
CENS
100
AcDbLine
 10
515.0951127209517
 20
524.8145823343141
 30
0.0
 11
515.0951127209517
 21
504.0801700442874
 31
0.0
  0
LINE
  5
1217
330
2
100
AcDbEntity
  8
0
100
AcDbLine
 10
510.8451127209518
 20
515.9504266480428
 30
0.0
 11
519.3451127209518
 21
515.9504266480428
 31
0.0
  0
LINE
  5
1218
330
2
100
AcDbEntity
  8
0
100
AcDbLine
 10
510.8451127209518
 20
520.6504266480417
 30
0.0
 11
519.3451127209518
 21
520.6504266480417
 31
0.0
  0
LINE
  5
1219
330
2
100
AcDbEntity
  8
0
100
AcDbLine
 10
511.3647279632222
 20
520.9504266480428
 30
0.0
 11
518.8254974786808
 21
520.9504266480428
 31
0.0
  0
LINE
  5
121A
330
2
100
AcDbEntity
  8
0
100
AcDbLine
 10
510.8451127209518
 20
520.6504266480417
 30
0.0
 11
511.3647279632222
 21
520.9504266480428
 31
0.0
  0
LINE
  5
121B
330
2
100
AcDbEntity
  8
0
100
AcDbLine
 10
510.8451127209518
 20
520.6504266480417
 30
0.0
 11
510.8451127209518
 21
514.6504266480417
 31
0.0
  0
LINE
  5
121C
330
2
100
AcDbEntity
  8
0
100
AcDbLine
 10
519.3451127209518
 20
520.6504266480417
 30
0.0
 11
519.3451127209518
 21
514.6504266480417
 31
0.0
  0
LINE
  5
121D
330
2
100
AcDbEntity
  8
0
100
AcDbLine
 10
519.3451127209518
 20
520.6504266480417
 30
0.0
 11
518.8254974786808
 21
520.9504266480428
 31
0.0
  0
LINE
  5
121E
330
2
100
AcDbEntity
  8
0
100
AcDbLine
 10
364.347714895045
 20
304.1966970737842
 30
0.0
 11
354.3477148950449
 21
304.1966970737842
 31
0.0
  0
LINE
  5
121F
330
2
100
AcDbEntity
  8
0
100
AcDbLine
 10
364.347714895045
 20
280.1967890737845
 30
0.0
 11
354.3477148950445
 21
280.1967890737845
 31
0.0
  0
LINE
  5
1220
330
2
100
AcDbEntity
  8
0
100
AcDbLine
 10
364.347714895045
 20
280.1967430737852
 30
0.0
 11
364.347714895045
 21
304.1967430737853
 31
0.0
  0
LINE
  5
1221
330
2
100
AcDbEntity
  8
0
100
AcDbLine
 10
458.5951127209531
 20
301.9967380737992
 30
0.0
 11
458.5951127209531
 21
299.2678108856646
 31
0.0
  0
ARC
  5
1222
330
2
100
AcDbEntity
  8
0
100
AcDbCircle
 10
456.0951127209531
 20
292.196743073798
 30
0.0
 40
7.5
100
AcDbArc
 50
109.4712206344877
 51
70.52877936551219
  0
LINE
  5
1223
330
2
100
AcDbEntity
  8
0
100
AcDbLine
 10
453.5951127209531
 20
301.9967380737992
 30
0.0
 11
458.5951127209531
 21
301.9967380737992
 31
0.0
  0
LINE
  5
1224
330
2
100
AcDbEntity
  8
0
100
AcDbLine
 10
453.5951127209531
 20
299.2678108856646
 30
0.0
 11
453.5951127209531
 21
301.9967380737992
 31
0.0
  0
CIRCLE
  5
1225
330
2
100
AcDbEntity
  8
0
100
AcDbCircle
 10
456.0951127209531
 20
292.196743073798
 30
0.0
 40
12.0
  0
ARC
  5
1226
330
2
100
AcDbEntity
  8
0
100
AcDbCircle
 10
456.0951127209531
 20
292.196743073798
 30
0.0
 40
8.654499867667865
100
AcDbArc
 50
106.7901411806983
 51
73.20985881930162
  0
LINE
  5
1227
330
2
100
AcDbEntity
  8
0
100
AcDbLine
 10
179.1624641756337
 20
301.9967380737992
 30
0.0
 11
179.1624641756337
 21
299.2678108856646
 31
0.0
  0
ARC
  5
1228
330
2
100
AcDbEntity
  8
0
100
AcDbCircle
 10
176.6624641756337
 20
292.196743073798
 30
0.0
 40
7.5
100
AcDbArc
 50
109.4712206344877
 51
70.52877936551219
  0
LINE
  5
1229
330
2
100
AcDbEntity
  8
0
100
AcDbLine
 10
174.1624641756337
 20
301.9967380737992
 30
0.0
 11
179.1624641756337
 21
301.9967380737992
 31
0.0
  0
LINE
  5
122A
330
2
100
AcDbEntity
  8
0
100
AcDbLine
 10
174.1624641756337
 20
299.2678108856646
 30
0.0
 11
174.1624641756337
 21
301.9967380737992
 31
0.0
  0
CIRCLE
  5
122B
330
2
100
AcDbEntity
  8
0
100
AcDbCircle
 10
176.6624641756337
 20
292.196743073798
 30
0.0
 40
12.0
  0
ARC
  5
122C
330
2
100
AcDbEntity
  8
0
100
AcDbCircle
 10
176.6624641756337
 20
292.196743073798
 30
0.0
 40
8.654499867667865
100
AcDbArc
 50
106.7901411806983
 51
73.20985881930162
  0
LINE
  5
122D
330
2
100
AcDbEntity
  8
0
100
AcDbLine
 10
468.0950667209511
 20
427.1504266479963
 30
0.0
 11
468.0950667209511
 21
437.1504266479963
 31
0.0
  0
LINE
  5
122E
330
2
100
AcDbEntity
  8
0
100
AcDbLine
 10
444.0951587209509
 20
427.1504266479963
 30
0.0
 11
444.0951587209509
 21
437.1504266479963
 31
0.0
  0
LINE
  5
122F
330
2
100
AcDbEntity
  8
0
100
AcDbLine
 10
444.0951127209508
 20
427.1504266479963
 30
0.0
 11
468.0951127209509
 21
427.1504266479963
 31
0.0
  0
LINE
  5
1230
330
2
100
AcDbEntity
  8
0
100
AcDbLine
 10
468.0950667209511
 20
529.1503196479964
 30
0.0
 11
444.0951587209509
 21
529.1503196479964
 31
0.0
  0
LINE
  5
1231
330
2
100
AcDbEntity
  8
0
100
AcDbLine
 10
444.0951587209509
 20
527.1504266479417
 30
0.0
 11
444.0951587209509
 21
529.1503196479964
 31
0.0
  0
LINE
  5
1232
330
2
100
AcDbEntity
  8
0
100
AcDbLine
 10
468.0950667209511
 20
527.1504266479417
 30
0.0
 11
468.0950667209511
 21
529.1503196479964
 31
0.0
  0
LINE
  5
1233
330
2
100
AcDbEntity
  8
0
100
AcDbLine
 10
309.2182667436212
 20
88.06313743579408
 30
0.0
 11
309.2182667436235
 21
112.6484816383322
 31
0.0
  0
LINE
  5
1234
330
2
100
AcDbEntity
  8
0
100
AcDbLine
 10
309.2182667436253
 20
135.4777932332577
 30
0.0
 11
309.2182667436276
 21
160.0631374357941
 31
0.0
  0
LINE
  5
1235
330
2
100
AcDbEntity
  8
CENTER
100
AcDbLine
 10
332.2182667436217
 20
81.26385539498148
 30
0.0
 11
332.2182667436217
 21
166.8624194766067
 31
0.0
  0
LINE
  5
1236
330
2
100
AcDbEntity
  8
0
100
AcDbLine
 10
362.2182667436216
 20
88.52566142870415
 30
0.0
 11
362.2182667436221
 21
112.8633554796083
 31
0.0
  0
LINE
  5
1237
330
2
100
AcDbEntity
  8
0
100
AcDbLine
 10
362.218266743623
 20
135.2629193919816
 30
0.0
 11
362.218266743624
 21
159.600613442884
 31
0.0
  0
LINE
  5
1238
330
2
100
AcDbEntity
  8
CENTER
100
AcDbLine
 10
397.2182667436221
 20
124.063137435794
 30
0.0
 11
281.218373743622
 21
124.063137435794
 31
0.0
  0
LINE
  5
1239
330
2
100
AcDbEntity
  8
0
100
AcDbLine
 10
367.2182667436217
 20
94.06313789676238
 30
0.0
 11
367.2182667436217
 21
113.1341964999224
 31
0.0
  0
LINE
  5
123A
330
2
100
AcDbEntity
  8
0
100
AcDbLine
 10
367.2182667436217
 20
134.9920783716675
 30
0.0
 11
367.2182667436217
 21
154.0631378967623
 31
0.0
  0
LINE
  5
123B
330
2
100
AcDbEntity
  8
0
100
AcDbLine
 10
362.2182667436216
 20
94.06313789676238
 30
0.0
 11
367.2182667436217
 21
94.06313789676238
 31
0.0
  0
LINE
  5
123C
330
2
100
AcDbEntity
  8
0
100
AcDbLine
 10
362.2182667436216
 20
154.0631378967623
 30
0.0
 11
367.2182667436217
 21
154.0631378967623
 31
0.0
  0
LINE
  5
123D
330
2
100
AcDbEntity
  8
0
100
AcDbLine
 10
309.2182667436212
 20
88.06313743579408
 30
0.0
 11
362.2182667436216
 21
88.52566142870415
 31
0.0
  0
LINE
  5
123E
330
2
100
AcDbEntity
  8
0
100
AcDbLine
 10
309.2182667436276
 20
160.0631374357941
 30
0.0
 11
362.218266743624
 21
159.600613442884
 31
0.0
  0
LINE
  5
123F
330
2
100
AcDbEntity
  8
0
100
AcDbLine
 10
380.2182667436217
 20
101.9945154463762
 30
0.0
 11
380.2182667436217
 21
112.0631834357951
 31
0.0
  0
LINE
  5
1240
330
2
100
AcDbEntity
  8
0
100
AcDbLine
 10
380.2182667436221
 20
136.0630914357948
 30
0.0
 11
380.2182667436221
 21
146.1317603471484
 31
0.0
  0
LINE
  5
1241
330
2
100
AcDbEntity
  8
0
100
AcDbLine
 10
369.148467750217
 20
99.67657199779347
 30
0.0
 11
378.2880657370272
 21
99.9957337923384
 31
0.0
  0
ARC
  5
1242
330
2
100
AcDbEntity
  8
0
100
AcDbCircle
 10
369.2182667436217
 20
97.67779034375559
 30
0.0
 40
2.0
100
AcDbArc
 50
92.00000000000365
 51
180.0
  0
ARC
  5
1243
330
2
100
AcDbEntity
  8
0
100
AcDbCircle
 10
378.2182667436217
 20
101.9945154463762
 30
0.0
 40
2.0
100
AcDbArc
 50
272.0000000000036
 51
0.0
  0
LINE
  5
1244
330
2
100
AcDbEntity
  8
0
100
AcDbLine
 10
369.148467750217
 20
148.4497037957331
 30
0.0
 11
378.2880657370272
 21
148.1305420011881
 31
0.0
  0
ARC
  5
1245
330
2
100
AcDbEntity
  8
0
100
AcDbCircle
 10
369.2182667436217
 20
150.448485449771
 30
0.0
 40
2.0
100
AcDbArc
 50
180.0
 51
267.9999999999963
  0
ARC
  5
1246
330
2
100
AcDbEntity
  8
0
100
AcDbCircle
 10
378.2182667436217
 20
146.1317603471484
 30
0.0
 40
2.0
100
AcDbArc
 50
0.0
 51
87.99999999999636
  0
LINE
  5
1247
330
2
100
AcDbEntity
  8
0
100
AcDbLine
 10
309.2182667436271
 20
155.0631374358086
 30
0.0
 11
361.2182667436235
 21
155.0631374358086
 31
0.0
  0
LINE
  5
1248
330
2
100
AcDbEntity
  8
0
100
AcDbLine
 10
309.2182667436267
 20
152.0631374358068
 30
0.0
 11
361.2182667436235
 21
152.0631374358068
 31
0.0
  0
LINE
  5
1249
330
2
100
AcDbEntity
  8
0
100
AcDbLine
 10
309.2182667436258
 20
140.5907329557899
 30
0.0
 11
361.218266743623
 21
140.5907329557899
 31
0.0
  0
LINE
  5
124A
330
2
100
AcDbEntity
  8
0
100
AcDbLine
 10
309.2182667436271
 20
93.06313743578135
 30
0.0
 11
361.2182667436217
 21
93.06313743578135
 31
0.0
  0
LINE
  5
124B
330
2
100
AcDbEntity
  8
0
100
AcDbLine
 10
309.2182667436267
 20
96.06313743578319
 30
0.0
 11
361.2182667436217
 21
96.06313743578319
 31
0.0
  0
LINE
  5
124C
330
2
100
AcDbEntity
  8
0
100
AcDbLine
 10
309.2182667436258
 20
107.5355419158
 30
0.0
 11
361.2182667436221
 21
107.5355419158
 31
0.0
  0
LINE
  5
124D
330
2
100
AcDbEntity
  8
0
100
AcDbLine
 10
299.7182667436248
 20
104.1287736359623
 30
0.0
 11
299.7182667436248
 21
112.0631834357951
 31
0.0
  0
LINE
  5
124E
330
2
100
AcDbEntity
  8
0
100
AcDbLine
 10
299.7182667436248
 20
136.0630914357948
 30
0.0
 11
299.7182667436248
 21
143.9975012356258
 31
0.0
  0
LINE
  5
124F
330
2
100
AcDbEntity
  8
0
100
AcDbLine
 10
299.7182667436244
 20
143.0631374357959
 30
0.0
 11
291.2182667436267
 21
143.063137435794
 31
0.0
  0
LINE
  5
1250
330
2
100
AcDbEntity
  8
0
100
AcDbLine
 10
291.2182667436267
 20
143.063137435794
 30
0.0
 11
290.2182667436267
 21
143.6404877049822
 31
0.0
  0
LINE
  5
1251
330
2
100
AcDbEntity
  8
0
100
AcDbLine
 10
299.7182667436248
 20
105.0631374357959
 30
0.0
 11
291.2182667436262
 21
105.0631374357959
 31
0.0
  0
LINE
  5
1252
330
2
100
AcDbEntity
  8
0
100
AcDbLine
 10
309.2182667436244
 20
160.0631374357941
 30
0.0
 11
300.7095402081302
 21
159.9888829042516
 31
0.0
  0
LINE
  5
1253
330
2
100
AcDbEntity
  8
0
100
AcDbLine
 10
298.7182667436767
 20
150.6489238734225
 30
0.0
 11
298.7182667436767
 21
144.3620057481598
 31
0.0
  0
LINE
  5
1254
330
2
100
AcDbEntity
  8
0
100
AcDbLine
 10
298.7182667436767
 20
103.7642691234301
 30
0.0
 11
298.7182667436767
 21
97.47735099816743
 31
0.0
  0
LINE
  5
1255
330
2
100
AcDbEntity
  8
HIDS
  6
SEKKEI_H
100
AcDbLine
 10
299.0111599624905
 20
151.3560306546092
 30
0.0
 11
299.4253735248634
 21
151.7702442169807
 31
0.0
  0
LINE
  5
1256
330
2
100
AcDbEntity
  8
0
100
AcDbLine
 10
298.2182667436767
 20
149.0631374357959
 30
0.0
 11
298.7182667436767
 21
149.5631374357959
 31
0.0
  0
LINE
  5
1257
330
2
100
AcDbEntity
  8
0
100
AcDbLine
 10
291.2182667436267
 20
143.063137435794
 30
0.0
 11
291.2182667436267
 21
136.0630914357948
 31
0.0
  0
LINE
  5
1258
330
2
100
AcDbEntity
  8
0
100
AcDbLine
 10
291.2182667436262
 20
112.0631834357951
 30
0.0
 11
291.2182667436262
 21
105.0631374357959
 31
0.0
  0
LINE
  5
1259
330
2
100
AcDbEntity
  8
0
100
AcDbLine
 10
292.5182667436773
 20
147.0631374357959
 30
0.0
 11
291.2182667436772
 21
147.0631374357959
 31
0.0
  0
LINE
  5
125A
330
2
100
AcDbEntity
  8
0
100
AcDbLine
 10
291.2182667436262
 20
105.0631374357959
 30
0.0
 11
290.2182667436262
 21
104.4857871666059
 31
0.0
  0
LINE
  5
125B
330
2
100
AcDbEntity
  8
0
100
AcDbLine
 10
290.2182667436771
 20
112.0631834357951
 30
0.0
 11
290.2182667436771
 21
101.640487704984
 31
0.0
  0
LINE
  5
125C
330
2
100
AcDbEntity
  8
0
100
AcDbLine
 10
298.2182667436767
 20
147.0631374357959
 30
0.0
 11
294.9182667436774
 21
147.0631374357959
 31
0.0
  0
LINE
  5
125D
330
2
100
AcDbEntity
  8
0
100
AcDbLine
 10
290.2182667436771
 20
146.4857871666059
 30
0.0
 11
291.2182667436772
 21
147.0631374357959
 31
0.0
  0
LINE
  5
125E
330
2
100
AcDbEntity
  8
0
100
AcDbLine
 10
290.2182667436771
 20
146.4857871666059
 30
0.0
 11
290.2182667436771
 21
136.0630914357948
 31
0.0
  0
LINE
  5
125F
330
2
100
AcDbEntity
  8
0
100
AcDbLine
 10
292.5182667436769
 20
101.063137435794
 30
0.0
 11
291.2182667436772
 21
101.063137435794
 31
0.0
  0
LINE
  5
1260
330
2
100
AcDbEntity
  8
0
100
AcDbLine
 10
298.2182667436767
 20
99.0631374357941
 30
0.0
 11
298.7182667436767
 21
98.56313743579409
 31
0.0
  0
LINE
  5
1261
330
2
100
AcDbEntity
  8
0
100
AcDbLine
 10
298.2182667436767
 20
101.063137435794
 30
0.0
 11
294.918266743677
 21
101.063137435794
 31
0.0
  0
LINE
  5
1262
330
2
100
AcDbEntity
  8
0
100
AcDbLine
 10
298.2182667436767
 20
149.0631374357959
 30
0.0
 11
298.2182667436767
 21
144.4503105708241
 31
0.0
  0
LINE
  5
1263
330
2
100
AcDbEntity
  8
0
100
AcDbLine
 10
298.2182667436767
 20
103.675964300764
 30
0.0
 11
298.2182667436767
 21
99.0631374357941
 31
0.0
  0
LINE
  5
1264
330
2
100
AcDbEntity
  8
0
100
AcDbLine
 10
290.2182667436767
 20
101.640487704984
 30
0.0
 11
291.2182667436772
 21
101.063137435794
 31
0.0
  0
LINE
  5
1265
330
2
100
AcDbEntity
  8
0
100
AcDbLine
 10
299.7182667436285
 20
150.8131374358068
 30
0.0
 11
299.7182667436285
 21
144.0266778525215
 31
0.0
  0
LINE
  5
1266
330
2
100
AcDbEntity
  8
0
100
AcDbLine
 10
299.7182667436285
 20
104.0995970190666
 30
0.0
 11
299.7182667436285
 21
97.31313743578136
 31
0.0
  0
LINE
  5
1267
330
2
100
AcDbEntity
  8
HIDS
  6
SEKKEI_H
100
AcDbLine
 10
299.7182667436285
 20
97.31313743578136
 30
0.0
 11
299.7182667436285
 21
89.13735389040045
 31
0.0
  0
ARC
  5
1268
330
2
100
AcDbEntity
  8
0
100
AcDbCircle
 10
300.7182667436285
 20
158.9889209811877
 30
0.0
 40
1.0
100
AcDbArc
 50
90.49999999999155
 51
161.0818891053111
  0
ARC
  5
1269
330
2
100
AcDbEntity
  8
HIDS
  6
SEKKEI_H
100
AcDbCircle
 10
300.7182667436285
 20
158.9889209811877
 30
0.0
 40
1.0
100
AcDbArc
 50
161.0818891053111
 51
180.0
  0
LINE
  5
126A
330
2
100
AcDbEntity
  8
HIDS
  6
SEKKEI_H
100
AcDbLine
 10
299.0111599624905
 20
96.77024421698076
 30
0.0
 11
299.4253735248152
 21
96.35603065465653
 31
0.0
  0
ARC
  5
126B
330
2
100
AcDbEntity
  8
HIDS
  6
SEKKEI_H
100
AcDbCircle
 10
299.7182667436767
 20
150.6489238734225
 30
0.0
 40
1.0
100
AcDbArc
 50
134.9999999999905
 51
170.5484482344701
  0
ARC
  5
126C
330
2
100
AcDbEntity
  8
0
100
AcDbCircle
 10
299.7182667436767
 20
150.6489238734225
 30
0.0
 40
1.0
100
AcDbArc
 50
170.5484482344701
 51
180.0
  0
ARC
  5
126D
330
2
100
AcDbEntity
  8
HIDS
  6
SEKKEI_H
100
AcDbCircle
 10
298.7182667436767
 20
152.4773509981692
 30
0.0
 40
1.0
100
AcDbArc
 50
314.9999999999905
 51
0.0
  0
ARC
  5
126E
330
2
100
AcDbEntity
  8
0
100
AcDbCircle
 10
299.7182667436767
 20
97.47735099816743
 30
0.0
 40
1.0
100
AcDbArc
 50
180.0
 51
189.4515517656347
  0
ARC
  5
126F
330
2
100
AcDbEntity
  8
HIDS
  6
SEKKEI_H
100
AcDbCircle
 10
299.7182667436767
 20
97.47735099816743
 30
0.0
 40
1.0
100
AcDbArc
 50
189.4515517656347
 51
225.0000000000095
  0
ARC
  5
1270
330
2
100
AcDbEntity
  8
HIDS
  6
SEKKEI_H
100
AcDbCircle
 10
298.7182667436285
 20
95.64892387346986
 30
0.0
 40
1.0
100
AcDbArc
 50
0.0
 51
45.00000000000949
  0
LINE
  5
1271
330
2
100
AcDbEntity
  8
0
100
AcDbLine
 10
292.7182667436776
 20
146.8631374357951
 30
0.0
 11
292.7182667436776
 21
144.3771625595632
 31
0.0
  0
LINE
  5
1272
330
2
100
AcDbEntity
  8
0
100
AcDbLine
 10
292.7182667436771
 20
103.7491123120267
 30
0.0
 11
292.7182667436771
 21
101.2631374357948
 31
0.0
  0
LINE
  5
1273
330
2
100
AcDbEntity
  8
0
100
AcDbLine
 10
294.5182667436769
 20
101.7631374357948
 30
0.0
 11
292.918266743677
 21
101.7631374357948
 31
0.0
  0
LINE
  5
1274
330
2
100
AcDbEntity
  8
0
100
AcDbLine
 10
294.7182667436771
 20
146.8631374357951
 30
0.0
 11
294.7182667436771
 21
144.2887565828801
 31
0.0
  0
LINE
  5
1275
330
2
100
AcDbEntity
  8
0
100
AcDbLine
 10
294.7182667436771
 20
103.837518288708
 30
0.0
 11
294.7182667436771
 21
101.2631374357948
 31
0.0
  0
ARC
  5
1276
330
2
100
AcDbEntity
  8
0
100
AcDbCircle
 10
292.5182667436769
 20
101.2631374357948
 30
0.0
 40
0.2
100
AcDbArc
 50
270.0
 51
0.0
  0
ARC
  5
1277
330
2
100
AcDbEntity
  8
0
100
AcDbCircle
 10
292.918266743677
 20
101.563137435794
 30
0.0
 40
0.2
100
AcDbArc
 50
90.0
 51
180.0
  0
ARC
  5
1278
330
2
100
AcDbEntity
  8
0
100
AcDbCircle
 10
294.5182667436769
 20
101.563137435794
 30
0.0
 40
0.2
100
AcDbArc
 50
0.0
 51
90.0
  0
LINE
  5
1279
330
2
100
AcDbEntity
  8
0
100
AcDbLine
 10
294.7182667436771
 20
101.2631374357948
 30
0.0
 11
294.918266743677
 21
101.063137435794
 31
0.0
  0
LINE
  5
127A
330
2
100
AcDbEntity
  8
0
100
AcDbLine
 10
294.7182667436771
 20
146.8631374357951
 30
0.0
 11
294.918266743677
 21
147.063137435794
 31
0.0
  0
LINE
  5
127B
330
2
100
AcDbEntity
  8
0
100
AcDbLine
 10
294.5182667436769
 20
146.3631374357951
 30
0.0
 11
292.918266743677
 21
146.3631374357951
 31
0.0
  0
ARC
  5
127C
330
2
100
AcDbEntity
  8
0
100
AcDbCircle
 10
294.5182667436769
 20
146.5631374357941
 30
0.0
 40
0.2
100
AcDbArc
 50
270.0
 51
0.0
  0
ARC
  5
127D
330
2
100
AcDbEntity
  8
0
100
AcDbCircle
 10
292.918266743677
 20
146.5631374357941
 30
0.0
 40
0.2
100
AcDbArc
 50
180.0
 51
270.0
  0
ARC
  5
127E
330
2
100
AcDbEntity
  8
0
100
AcDbCircle
 10
292.5182667436773
 20
146.8631374357951
 30
0.0
 40
0.2
100
AcDbArc
 50
0.0
 51
90.0
  0
LINE
  5
127F
330
2
100
AcDbEntity
  8
0
100
AcDbLine
 10
294.918266743677
 20
101.063137435794
 30
0.0
 11
294.918266743677
 21
103.8207443901624
 31
0.0
  0
LINE
  5
1280
330
2
100
AcDbEntity
  8
0
100
AcDbLine
 10
294.9182667436774
 20
144.3055304814275
 30
0.0
 11
294.9182667436774
 21
147.0631374357959
 31
0.0
  0
LINE
  5
1281
330
2
100
AcDbEntity
  8
0
100
AcDbLine
 10
291.2182667436772
 20
147.0631374357959
 30
0.0
 11
291.2182667436772
 21
144.8194718208829
 31
0.0
  0
LINE
  5
1282
330
2
100
AcDbEntity
  8
0
100
AcDbLine
 10
291.2182667436772
 20
103.306803050707
 30
0.0
 11
291.2182667436772
 21
101.063137435794
 31
0.0
  0
LINE
  5
1283
330
2
100
AcDbEntity
  8
0
100
AcDbLine
 10
309.2182667436244
 20
155.0631374357941
 30
0.0
 11
303.7095402080775
 21
155.0631374357941
 31
0.0
  0
LINE
  5
1284
330
2
100
AcDbEntity
  8
0
100
AcDbLine
 10
309.2182667436244
 20
152.063137435794
 30
0.0
 11
303.7095402080775
 21
152.063137435794
 31
0.0
  0
LINE
  5
1285
330
2
100
AcDbEntity
  8
0
100
AcDbLine
 10
309.2182667436244
 20
140.5907329557772
 30
0.0
 11
301.5673554388535
 21
140.5907329557772
 31
0.0
  0
LINE
  5
1286
330
2
100
AcDbEntity
  8
0
100
AcDbLine
 10
309.2182667436244
 20
93.06313743579408
 30
0.0
 11
303.7095402080775
 21
93.06313743579408
 31
0.0
  0
LINE
  5
1287
330
2
100
AcDbEntity
  8
0
100
AcDbLine
 10
309.2182667436244
 20
96.06313743579409
 30
0.0
 11
303.7095402080775
 21
96.06313743579409
 31
0.0
  0
LINE
  5
1288
330
2
100
AcDbEntity
  8
0
100
AcDbLine
 10
309.2182667436244
 20
107.5355419158109
 30
0.0
 11
301.5673554388535
 21
107.5355419158109
 31
0.0
  0
LINE
  5
1289
330
2
100
AcDbEntity
  8
0
100
AcDbLine
 10
302.2226300113251
 20
149.5588120795597
 30
0.0
 11
300.7095402081302
 21
149.5456075448924
 31
0.0
  0
LINE
  5
128A
330
2
100
AcDbEntity
  8
0
100
AcDbLine
 10
302.7182667435758
 20
150.0587930410889
 30
0.0
 11
302.7182667435758
 21
159.01510158456
 31
0.0
  0
ARC
  5
128B
330
2
100
AcDbEntity
  8
0
100
AcDbCircle
 10
302.2182667435757
 20
150.0587930410889
 30
0.0
 40
0.5
100
AcDbArc
 50
270.4999999999915
 51
0.0
  0
ARC
  5
128C
330
2
100
AcDbEntity
  8
0
100
AcDbCircle
 10
303.7182667435757
 20
159.01510158456
 30
0.0
 40
1.0
100
AcDbArc
 50
90.49999999999155
 51
180.0
  0
ARC
  5
128D
330
2
100
AcDbEntity
  8
0
100
AcDbCircle
 10
300.7182667436285
 20
148.5456456218285
 30
0.0
 40
1.0
100
AcDbArc
 50
90.49999999999155
 51
180.0
  0
LINE
  5
128E
330
2
100
AcDbEntity
  8
0
100
AcDbLine
 10
290.2182667436767
 20
101.640487704984
 30
0.0
 11
290.2182667436767
 21
112.0631834357951
 31
0.0
  0
LINE
  5
128F
330
2
100
AcDbEntity
  8
0
100
AcDbLine
 10
290.2182667436767
 20
136.0630914357948
 30
0.0
 11
290.2182667436771
 21
146.4857871666059
 31
0.0
  0
LINE
  5
1290
330
2
100
AcDbEntity
  8
0
100
AcDbLine
 10
309.2182667436244
 20
88.06313743579408
 30
0.0
 11
300.7095402081302
 21
88.13739196733655
 31
0.0
  0
ARC
  5
1291
330
2
100
AcDbEntity
  8
HIDS
  6
SEKKEI_H
100
AcDbCircle
 10
300.7182667436285
 20
89.13735389040045
 30
0.0
 40
1.0
100
AcDbArc
 50
180.0
 51
198.9181108946888
  0
ARC
  5
1292
330
2
100
AcDbEntity
  8
0
100
AcDbCircle
 10
300.7182667436285
 20
89.13735389040045
 30
0.0
 40
1.0
100
AcDbArc
 50
198.9181108946888
 51
269.5000000000084
  0
LINE
  5
1293
330
2
100
AcDbEntity
  8
0
100
AcDbLine
 10
302.2226300113251
 20
98.5674627920285
 30
0.0
 11
300.7095402081302
 21
98.58066732669755
 31
0.0
  0
LINE
  5
1294
330
2
100
AcDbEntity
  8
0
100
AcDbLine
 10
302.7182667435758
 20
98.06748183049927
 30
0.0
 11
302.7182667435758
 21
88.81313743578136
 31
0.0
  0
ARC
  5
1295
330
2
100
AcDbEntity
  8
0
100
AcDbCircle
 10
302.2182667435757
 20
98.06748183049927
 30
0.0
 40
0.5
100
AcDbArc
 50
0.0
 51
89.50000000000846
  0
ARC
  5
1296
330
2
100
AcDbEntity
  8
0
100
AcDbCircle
 10
303.7182667435757
 20
89.11117328702999
 30
0.0
 40
1.0
100
AcDbArc
 50
180.0
 51
269.5000000000084
  0
ARC
  5
1297
330
2
100
AcDbEntity
  8
0
100
AcDbCircle
 10
300.7182667436285
 20
99.58062924976145
 30
0.0
 40
1.0
100
AcDbArc
 50
180.0
 51
269.5000000000084
  0
LINE
  5
1298
330
2
100
AcDbEntity
  8
CENTER
  6
CENS
100
AcDbLine
 10
292.5541110573048
 20
155.0631374358068
 30
0.0
 11
313.2885233473301
 21
155.0631374358068
 31
0.0
  0
LINE
  5
1299
330
2
100
AcDbEntity
  8
0
100
AcDbLine
 10
301.4182667435755
 20
150.8131374358068
 30
0.0
 11
301.4182667435755
 21
159.3131374358068
 31
0.0
  0
LINE
  5
129A
330
2
100
AcDbEntity
  8
0
100
AcDbLine
 10
296.7182667435757
 20
150.8131374358068
 30
0.0
 11
296.7182667435757
 21
159.3131374358068
 31
0.0
  0
LINE
  5
129B
330
2
100
AcDbEntity
  8
0
100
AcDbLine
 10
296.4182667435756
 20
151.3327526780772
 30
0.0
 11
296.4182667435756
 21
158.7935221935363
 31
0.0
  0
LINE
  5
129C
330
2
100
AcDbEntity
  8
0
100
AcDbLine
 10
296.7182667435757
 20
150.8131374358068
 30
0.0
 11
296.4182667435756
 21
151.3327526780772
 31
0.0
  0
LINE
  5
129D
330
2
100
AcDbEntity
  8
0
100
AcDbLine
 10
296.7182667435757
 20
150.8131374358068
 30
0.0
 11
302.7182667435758
 21
150.8131374358068
 31
0.0
  0
LINE
  5
129E
330
2
100
AcDbEntity
  8
0
100
AcDbLine
 10
296.7182667435757
 20
159.3131374358068
 30
0.0
 11
302.7182667435758
 21
159.3131374358068
 31
0.0
  0
LINE
  5
129F
330
2
100
AcDbEntity
  8
0
100
AcDbLine
 10
296.7182667435757
 20
159.3131374358068
 30
0.0
 11
296.4182667435756
 21
158.7935221935363
 31
0.0
  0
LINE
  5
12A0
330
2
100
AcDbEntity
  8
0
100
AcDbLine
 10
302.7182667435758
 20
159.3131374358068
 30
0.0
 11
302.7182667435758
 21
150.8131374358068
 31
0.0
  0
LINE
  5
12A1
330
2
100
AcDbEntity
  8
HIDS
  6
SEKKEI_H
100
AcDbLine
 10
299.7182667436285
 20
158.9889209811877
 30
0.0
 11
299.7182667436285
 21
150.8131374358068
 31
0.0
  0
LINE
  5
12A2
330
2
100
AcDbEntity
  8
0
100
AcDbLine
 10
301.4182667435755
 20
97.31313743578136
 30
0.0
 11
301.4182667435755
 21
88.81313743578136
 31
0.0
  0
LINE
  5
12A3
330
2
100
AcDbEntity
  8
0
100
AcDbLine
 10
296.7182667435757
 20
97.31313743578136
 30
0.0
 11
296.7182667435757
 21
88.81313743578136
 31
0.0
  0
LINE
  5
12A4
330
2
100
AcDbEntity
  8
0
100
AcDbLine
 10
296.4182667435756
 20
96.79352219351091
 30
0.0
 11
296.4182667435756
 21
89.3327526780518
 31
0.0
  0
LINE
  5
12A5
330
2
100
AcDbEntity
  8
0
100
AcDbLine
 10
296.7182667435757
 20
97.31313743578136
 30
0.0
 11
296.4182667435756
 21
96.79352219351091
 31
0.0
  0
LINE
  5
12A6
330
2
100
AcDbEntity
  8
0
100
AcDbLine
 10
296.7182667435757
 20
97.31313743578136
 30
0.0
 11
302.7182667435758
 21
97.31313743578136
 31
0.0
  0
LINE
  5
12A7
330
2
100
AcDbEntity
  8
0
100
AcDbLine
 10
296.7182667435757
 20
88.81313743578136
 30
0.0
 11
302.7182667435758
 21
88.81313743578136
 31
0.0
  0
LINE
  5
12A8
330
2
100
AcDbEntity
  8
0
100
AcDbLine
 10
296.7182667435757
 20
88.81313743578136
 30
0.0
 11
296.4182667435756
 21
89.3327526780518
 31
0.0
  0
LINE
  5
12A9
330
2
100
AcDbEntity
  8
CENTER
  6
CENS
100
AcDbLine
 10
292.5541110573048
 20
93.06313743578135
 30
0.0
 11
313.2885233473301
 21
93.06313743578135
 31
0.0
  0
LINE
  5
12AA
330
2
100
AcDbEntity
  8
0
100
AcDbLine
 10
379.2182667436226
 20
136.0630914357948
 30
0.0
 11
379.2182667436226
 21
143.063137896766
 31
0.0
  0
LINE
  5
12AB
330
2
100
AcDbEntity
  8
0
100
AcDbLine
 10
379.2182667436262
 20
143.0631378967678
 30
0.0
 11
371.2182667436194
 21
143.0631378967678
 31
0.0
  0
LINE
  5
12AC
330
2
100
AcDbEntity
  8
0
100
AcDbLine
 10
379.2182667436185
 20
143.0631378967623
 30
0.0
 11
380.2182667436185
 21
143.6404881659523
 31
0.0
  0
LINE
  5
12AD
330
2
100
AcDbEntity
  8
0
100
AcDbLine
 10
371.2182667436194
 20
136.0630914357948
 30
0.0
 11
371.2182667436194
 21
144.2606123217061
 31
0.0
  0
LINE
  5
12AE
330
2
100
AcDbEntity
  8
CENTER
  6
CENS
100
AcDbLine
 10
383.7182667436221
 20
127.993775665293
 30
0.0
 11
383.7182667436221
 21
139.9923398682436
 31
0.0
  0
LINE
  5
12AF
330
2
100
AcDbEntity
  8
0
100
AcDbLine
 10
381.2182667436221
 20
131.563180435794
 30
0.0
 11
375.368358743622
 21
131.563180435794
 31
0.0
  0
LINE
  5
12B0
330
2
100
AcDbEntity
  8
0
100
AcDbLine
 10
390.2182667436221
 20
136.0630914357948
 30
0.0
 11
369.7306575508186
 21
136.0630914357948
 31
0.0
  0
LINE
  5
12B1
330
2
100
AcDbEntity
  8
0
100
AcDbLine
 10
390.2182667436221
 20
133.8631374357951
 30
0.0
 11
288.218373743622
 21
133.8631374357951
 31
0.0
  0
LINE
  5
12B2
330
2
100
AcDbEntity
  8
0
100
AcDbLine
 10
381.2182667436221
 20
132.063137435794
 30
0.0
 11
381.2182667436221
 21
116.063137435794
 31
0.0
  0
LINE
  5
12B3
330
2
100
AcDbEntity
  8
0
100
AcDbLine
 10
386.2182667436221
 20
132.063137435794
 30
0.0
 11
381.2182667436221
 21
132.063137435794
 31
0.0
  0
LINE
  5
12B4
330
2
100
AcDbEntity
  8
0
100
AcDbLine
 10
382.1182667436218
 20
136.0631374357941
 30
0.0
 11
382.1182667436218
 21
133.8631414357947
 31
0.0
  0
LINE
  5
12B5
330
2
100
AcDbEntity
  8
0
100
AcDbLine
 10
365.2182667436221
 20
132.0631804357941
 30
0.0
 11
309.2183737436219
 21
132.0631804357941
 31
0.0
  0
LINE
  5
12B6
330
2
100
AcDbEntity
  8
0
100
AcDbLine
 10
365.2182667436221
 20
132.0631804357941
 30
0.0
 11
365.2182667436221
 21
116.063094435794
 31
0.0
  0
LINE
  5
12B7
330
2
100
AcDbEntity
  8
0
100
AcDbLine
 10
374.2183587436219
 20
131.563180435794
 30
0.0
 11
365.2182667436221
 21
131.563180435794
 31
0.0
  0
LINE
  5
12B8
330
2
100
AcDbEntity
  8
0
100
AcDbLine
 10
375.3683930799865
 20
131.9131864357946
 30
0.0
 11
374.2183930799732
 21
131.9131864357946
 31
0.0
  0
LINE
  5
12B9
330
2
100
AcDbEntity
  8
0
100
AcDbLine
 10
381.2182667436221
 20
116.5632003279784
 30
0.0
 11
375.3683265595667
 21
116.5632395682073
 31
0.0
  0
LINE
  5
12BA
330
2
100
AcDbEntity
  8
0
100
AcDbLine
 10
390.2182667436221
 20
112.0631834357951
 30
0.0
 11
369.7306575508186
 21
112.0631834357951
 31
0.0
  0
LINE
  5
12BB
330
2
100
AcDbEntity
  8
0
100
AcDbLine
 10
381.2182667436221
 20
116.063137435794
 30
0.0
 11
386.2182667436221
 21
116.063137435794
 31
0.0
  0
LINE
  5
12BC
330
2
100
AcDbEntity
  8
0
100
AcDbLine
 10
374.2183244074989
 20
116.2132384103566
 30
0.0
 11
374.2183930799732
 21
131.9131864357946
 31
0.0
  0
LINE
  5
12BD
330
2
100
AcDbEntity
  8
0
100
AcDbLine
 10
375.3683244074899
 20
116.2132335682104
 30
0.0
 11
375.3683930799865
 21
131.9131864357946
 31
0.0
  0
LINE
  5
12BE
330
2
100
AcDbEntity
  8
0
100
AcDbLine
 10
365.2182667436221
 20
116.5631541219404
 30
0.0
 11
374.2183265595753
 21
116.5632444103517
 31
0.0
  0
LINE
  5
12BF
330
2
100
AcDbEntity
  8
0
100
AcDbLine
 10
375.3683244074899
 20
116.2132335682104
 30
0.0
 11
374.2183244074989
 21
116.2132384103566
 31
0.0
  0
LINE
  5
12C0
330
2
100
AcDbEntity
  8
0
100
AcDbLine
 10
390.2182667436221
 20
112.0631374357941
 30
0.0
 11
390.2182667436221
 21
136.0631374357941
 31
0.0
  0
LINE
  5
12C1
330
2
100
AcDbEntity
  8
0
100
AcDbLine
 10
388.2182667436221
 20
116.563137435794
 30
0.0
 11
388.2182667436221
 21
131.563137435794
 31
0.0
  0
LINE
  5
12C2
330
2
100
AcDbEntity
  8
0
100
AcDbLine
 10
386.2182667436221
 20
116.063137435794
 30
0.0
 11
386.2182667436221
 21
132.063137435794
 31
0.0
  0
LINE
  5
12C3
330
2
100
AcDbEntity
  8
0
100
AcDbLine
 10
388.2182667436221
 20
131.563137435794
 30
0.0
 11
386.2182667436221
 21
131.563137435794
 31
0.0
  0
LINE
  5
12C4
330
2
100
AcDbEntity
  8
0
100
AcDbLine
 10
388.2182667436221
 20
131.563137435794
 30
0.0
 11
390.2182667436221
 21
132.7178464357944
 31
0.0
  0
LINE
  5
12C5
330
2
100
AcDbEntity
  8
0
100
AcDbLine
 10
385.3182667436216
 20
136.0631374357941
 30
0.0
 11
385.3182667436216
 21
133.8631414357947
 31
0.0
  0
LINE
  5
12C6
330
2
100
AcDbEntity
  8
0
100
AcDbLine
 10
288.218373743622
 20
136.0630914357948
 30
0.0
 11
288.218373743622
 21
112.0631834357951
 31
0.0
  0
LINE
  5
12C7
330
2
100
AcDbEntity
  8
0
100
AcDbLine
 10
301.6945566236525
 20
112.0631834357951
 30
0.0
 11
288.218373743622
 21
112.0631834357951
 31
0.0
  0
LINE
  5
12C8
330
2
100
AcDbEntity
  8
0
100
AcDbLine
 10
297.2183860035978
 20
116.2132335681267
 30
0.0
 11
296.0682880035982
 21
116.2132335681267
 31
0.0
  0
LINE
  5
12C9
330
2
100
AcDbEntity
  8
0
100
AcDbLine
 10
297.2183860035978
 20
116.2132335681267
 30
0.0
 11
297.2183614835632
 21
131.9131864357946
 31
0.0
  0
LINE
  5
12CA
330
2
100
AcDbEntity
  8
0
100
AcDbLine
 10
309.2183737436219
 20
116.5632395681273
 30
0.0
 11
297.2183854569624
 21
116.5632395681273
 31
0.0
  0
LINE
  5
12CB
330
2
100
AcDbEntity
  8
0
100
AcDbLine
 10
290.2183863940457
 20
116.5632395681273
 30
0.0
 11
290.2183610930963
 21
131.5631877389552
 31
0.0
  0
LINE
  5
12CC
330
2
100
AcDbEntity
  8
0
100
AcDbLine
 10
296.0682880035982
 20
116.2132335681267
 30
0.0
 11
296.0682634835624
 21
131.9131864357946
 31
0.0
  0
LINE
  5
12CD
330
2
100
AcDbEntity
  8
0
100
AcDbLine
 10
296.0682883940456
 20
116.5632395681273
 30
0.0
 11
290.2183863940457
 21
116.5632395681273
 31
0.0
  0
LINE
  5
12CE
330
2
100
AcDbEntity
  8
0
100
AcDbLine
 10
290.2183863940457
 20
116.5632395681273
 30
0.0
 11
288.2183863940457
 21
115.4086375681268
 31
0.0
  0
LINE
  5
12CF
330
2
100
AcDbEntity
  8
0
100
AcDbLine
 10
309.2183737436219
 20
131.563180435794
 30
0.0
 11
297.218373743622
 21
131.563180435794
 31
0.0
  0
LINE
  5
12D0
330
2
100
AcDbEntity
  8
0
100
AcDbLine
 10
297.2183614835632
 20
131.9131864357946
 30
0.0
 11
296.0682634835624
 21
131.9131864357946
 31
0.0
  0
LINE
  5
12D1
330
2
100
AcDbEntity
  8
0
100
AcDbLine
 10
301.6945566236525
 20
136.0630914357948
 30
0.0
 11
288.218373743622
 21
136.0630914357948
 31
0.0
  0
LINE
  5
12D2
330
2
100
AcDbEntity
  8
0
100
AcDbLine
 10
296.0682757436219
 20
131.563180435794
 30
0.0
 11
290.2183737436219
 21
131.563180435794
 31
0.0
  0
LINE
  5
12D3
330
2
100
AcDbEntity
  8
0
100
AcDbLine
 10
290.2183737436219
 20
131.563180435794
 30
0.0
 11
288.218373743622
 21
132.7177824357946
 31
0.0
  0
LINE
  5
12D4
330
2
100
AcDbEntity
  8
0
100
AcDbLine
 10
309.2183737436219
 20
132.0631804357941
 30
0.0
 11
309.2183737436219
 21
116.063094435794
 31
0.0
  0
LINE
  5
12D5
330
2
100
AcDbEntity
  8
0
100
AcDbLine
 10
388.2182667436221
 20
116.563137435794
 30
0.0
 11
390.2182667436221
 21
115.4084444357954
 31
0.0
  0
LINE
  5
12D6
330
2
100
AcDbEntity
  8
0
100
AcDbLine
 10
386.2182667436221
 20
116.563137435794
 30
0.0
 11
388.2182667436221
 21
116.563137435794
 31
0.0
  0
LINE
  5
12D7
330
2
100
AcDbEntity
  8
HOJO
100
AcDbLine
 10
381.7182667436221
 20
136.0631374357941
 30
0.0
 11
381.7182667436221
 21
133.8631414357947
 31
0.0
  0
LINE
  5
12D8
330
2
100
AcDbEntity
  8
HOJO
100
AcDbLine
 10
385.7182667436221
 20
136.0631374357941
 30
0.0
 11
385.7182667436221
 21
133.8631414357947
 31
0.0
  0
LINE
  5
12D9
330
2
100
AcDbEntity
  8
0
100
AcDbLine
 10
365.2182667436221
 20
116.063094435794
 30
0.0
 11
309.2183737436219
 21
116.063094435794
 31
0.0
  0
SPLINE
  5
12DA
330
2
100
AcDbEntity
  8
HOJO
100
AcDbSpline
210
0.0
220
0.0
230
1.0
 70
     8
 71
     3
 72
    28
 73
    24
 74
     0
 42
0.0000000001
 43
0.0000000001
 40
0.3704670071059328
 40
0.3704670071059328
 40
0.3704670071059328
 40
0.3704670071059328
 40
3.677988812247246
 40
8.791018463267651
 40
11.534409059157
 40
14.79083261228259
 40
19.41725208020484
 40
26.25498910818945
 40
31.0677594716429
 40
39.54887928070277
 40
46.10466196545195
 40
53.81000657351095
 40
60.87988603969266
 40
73.04898303406338
 40
77.92364065281924
 40
83.05458567163176
 40
86.41606547814928
 40
90.22352725249445
 40
93.43259640502891
 40
96.2888849479885
 40
99.23414206954802
 40
102.5663758078584
 40
105.6447949485796
 40
105.6447949485796
 40
105.6447949485796
 40
105.6447949485796
 10
290.2182667436812
 20
145.2182168349277
 30
0.0
 10
291.2638411210645
 20
144.78140190158
 30
0.0
 10
293.9313182772579
 20
143.7487961486963
 30
0.0
 10
297.6545343804545
 20
145.0428974101428
 30
0.0
 10
301.5200313201597
 20
143.2929290897568
 30
0.0
 10
301.6488311373808
 20
139.5600432631068
 30
0.0
 10
301.0301170886795
 20
133.252524465373
 30
0.0
 10
308.6061482502076
 20
136.2110161927444
 30
0.0
 10
314.7578106422991
 20
134.2919027460243
 30
0.0
 10
321.5315707774469
 20
136.7112080838792
 30
0.0
 10
329.0276108029059
 20
134.577879325157
 30
0.0
 10
336.1226796942868
 20
136.7713929259712
 30
0.0
 10
345.0235985324547
 20
134.2310387846205
 30
0.0
 10
353.1197051519987
 20
137.2156605188115
 30
0.0
 10
360.4035529249916
 20
134.3343549743945
 30
0.0
 10
364.6716491080659
 20
136.2694814255842
 30
0.0
 10
369.282908823763
 20
133.8500781467151
 30
0.0
 10
370.6434995699145
 20
138.5140142489013
 30
0.0
 10
369.4483621326529
 20
141.4489729392858
 30
0.0
 10
370.8829359039244
 20
144.7002736836453
 30
0.0
 10
374.2245522249871
 20
145.0607110653723
 30
0.0
 10
377.3195570299293
 20
144.1396613148386
 30
0.0
 10
379.2679834327785
 20
145.3026711252564
 30
0.0
 10
380.2182667436221
 20
145.7553878724134
 30
0.0
  0
LINE
  5
12DB
330
2
100
AcDbEntity
  8
0
100
AcDbLine
 10
371.2182667436194
 20
136.0630914357948
 30
0.0
 11
379.2182667436226
 21
143.063137896766
 31
0.0
  0
LINE
  5
12DC
330
2
100
AcDbEntity
  8
0
100
AcDbLine
 10
371.2182667436194
 20
143.0631378967678
 30
0.0
 11
379.2182667436226
 21
136.0630914357948
 31
0.0
  0
LINE
  5
12DD
330
2
100
AcDbEntity
  8
0
100
AcDbLine
 10
379.2182667436226
 20
112.0631834357951
 30
0.0
 11
379.2182667436226
 21
105.0631369748239
 31
0.0
  0
LINE
  5
12DE
330
2
100
AcDbEntity
  8
0
100
AcDbLine
 10
379.2182667436262
 20
105.0631369748221
 30
0.0
 11
371.2182667436194
 21
105.0631369748221
 31
0.0
  0
LINE
  5
12DF
330
2
100
AcDbEntity
  8
0
100
AcDbLine
 10
379.2182667436185
 20
105.0631369748257
 30
0.0
 11
380.2182667436185
 21
104.4857867056357
 31
0.0
  0
LINE
  5
12E0
330
2
100
AcDbEntity
  8
0
100
AcDbLine
 10
371.2182667436194
 20
112.0631834357951
 30
0.0
 11
371.2182667436194
 21
103.865662549882
 31
0.0
  0
LINE
  5
12E1
330
2
100
AcDbEntity
  8
0
100
AcDbLine
 10
371.2182667436194
 20
112.0631834357951
 30
0.0
 11
379.2182667436226
 21
105.0631369748239
 31
0.0
  0
LINE
  5
12E2
330
2
100
AcDbEntity
  8
0
100
AcDbLine
 10
371.2182667436194
 20
105.0631369748221
 30
0.0
 11
379.2182667436226
 21
112.0631834357951
 31
0.0
  0
SPLINE
  5
12E3
330
2
100
AcDbEntity
  8
HOJO
100
AcDbSpline
210
0.0
220
0.0
230
1.0
 70
     8
 71
     3
 72
    28
 73
    24
 74
     0
 42
0.0000000001
 43
0.0000000001
 40
0.3704670071059328
 40
0.3704670071059328
 40
0.3704670071059328
 40
0.3704670071059328
 40
3.677988812247246
 40
8.791018463267651
 40
11.534409059157
 40
14.79083261228259
 40
19.41725208020484
 40
26.25498910818945
 40
31.0677594716429
 40
39.54887928070277
 40
46.10466196545195
 40
53.81000657351095
 40
60.87988603969266
 40
73.04898303406338
 40
77.92364065281924
 40
83.05458567163176
 40
86.41606547814928
 40
90.22352725249445
 40
93.43259640502891
 40
96.2888849479885
 40
99.23414206954802
 40
102.5663758078584
 40
105.6447949485796
 40
105.6447949485796
 40
105.6447949485796
 40
105.6447949485796
 10
290.2182667436812
 20
102.9080580366622
 30
0.0
 10
291.2638411210645
 20
103.3448729700099
 30
0.0
 10
293.9313182772579
 20
104.3774787228918
 30
0.0
 10
297.6545343804545
 20
103.0833774614453
 30
0.0
 10
301.5200313201597
 20
104.833345781833
 30
0.0
 10
301.6488311373808
 20
108.5662316084813
 30
0.0
 10
301.0301170886795
 20
114.8737504062169
 30
0.0
 10
308.6061482502076
 20
111.9152586788437
 30
0.0
 10
314.7578106422991
 20
113.8343721255637
 30
0.0
 10
321.5315707774469
 20
111.4150667877107
 30
0.0
 10
329.0276108029059
 20
113.5483955464311
 30
0.0
 10
336.1226796942868
 20
111.3548819456187
 30
0.0
 10
345.0235985324547
 20
113.8952360869694
 30
0.0
 10
353.1197051519987
 20
110.9106143527765
 30
0.0
 10
360.4035529249916
 20
113.7919198971954
 30
0.0
 10
364.6716491080659
 20
111.8567934460057
 30
0.0
 10
369.282908823763
 20
114.276196724873
 30
0.0
 10
370.6434995699145
 20
109.6122606226868
 30
0.0
 10
369.4483621326529
 20
106.6773019323041
 30
0.0
 10
370.8829359039244
 20
103.4260011879446
 30
0.0
 10
374.2245522249871
 20
103.0655638062176
 30
0.0
 10
377.3195570299293
 20
103.9866135567495
 30
0.0
 10
379.2679834327785
 20
102.8236037463335
 30
0.0
 10
380.2182667436221
 20
102.3708869991747
 30
0.0
  0
LINE
  5
12E4
330
2
100
AcDbEntity
  8
0
100
AcDbLine
 10
291.2182667436253
 20
143.063137435794
 30
0.0
 11
299.7182667436248
 21
136.0630914357948
 31
0.0
  0
LINE
  5
12E5
330
2
100
AcDbEntity
  8
0
100
AcDbLine
 10
299.7182667436244
 20
143.0631374357959
 30
0.0
 11
291.2182667436267
 21
136.0630914357948
 31
0.0
  0
LINE
  5
12E6
330
2
100
AcDbEntity
  8
0
100
AcDbLine
 10
299.7182667436248
 20
112.0631834357951
 30
0.0
 11
291.2182667436262
 21
105.0631374357959
 31
0.0
  0
LINE
  5
12E7
330
2
100
AcDbEntity
  8
0
100
AcDbLine
 10
291.2182667436262
 20
112.0631834357951
 30
0.0
 11
299.7182667436248
 21
105.0631374357959
 31
0.0
  0
CIRCLE
  5
12E8
330
2
100
AcDbEntity
  8
0
100
AcDbCircle
 10
357.847714895045
 20
292.1967430737852
 30
0.0
 40
1.6
  0
CIRCLE
  5
12E9
330
2
100
AcDbEntity
  8
HOJO
100
AcDbCircle
 10
357.847714895045
 20
292.1967430737852
 30
0.0
 40
2.0
  0
CIRCLE
  5
12EA
330
2
100
AcDbEntity
  8
0
100
AcDbCircle
 10
456.0951127209513
 20
433.6504266479963
 30
0.0
 40
1.6
  0
CIRCLE
  5
12EB
330
2
100
AcDbEntity
  8
HOJO
100
AcDbCircle
 10
456.0951127209513
 20
433.6504266479963
 30
0.0
 40
2.0
  0
LINE
  5
12EC
330
2
100
AcDbEntity
  8
CENTER
100
AcDbLine
 10
451.3672724130746
 20
433.6504266479963
 30
0.0
 11
460.822953028828
 21
433.6504266479963
 31
0.0
  0
LINE
  5
12ED
330
2
100
AcDbEntity
  8
0
100
AcDbLine
 10
262.3478218950448
 20
304.1966970737842
 30
0.0
 11
262.3478218950443
 21
280.1967890737845
 31
0.0
  0
LINE
  5
12EE
330
2
100
AcDbEntity
  8
0
100
AcDbLine
 10
264.347714895099
 20
280.1967890737845
 30
0.0
 11
262.3478218950443
 21
280.1967890737845
 31
0.0
  0
LINE
  5
12EF
330
2
100
AcDbEntity
  8
0
100
AcDbLine
 10
264.3477148950995
 20
304.1966970737842
 30
0.0
 11
262.3478218950448
 21
304.1966970737842
 31
0.0
  0
LINE
  5
12F0
330
2
100
AcDbEntity
  8
CENTER
100
AcDbLine
 10
207.1624641756296
 20
276.8063796906783
 30
0.0
 11
207.1624641756296
 21
265.5871064569176
 31
0.0
  0
LINE
  5
12F1
330
2
100
AcDbEntity
  8
CENTER
100
AcDbLine
 10
201.5528275587493
 20
271.196743073798
 30
0.0
 11
212.77210079251
 21
271.196743073798
 31
0.0
  0
LINE
  5
12F2
330
2
100
AcDbEntity
  8
CENTER
100
AcDbLine
 10
207.1624641756296
 20
307.5871064569176
 30
0.0
 11
207.1624641756296
 21
318.8063796906784
 31
0.0
  0
LINE
  5
12F3
330
2
100
AcDbEntity
  8
CENTER
100
AcDbLine
 10
201.5528275587493
 20
313.196743073798
 30
0.0
 11
212.77210079251
 21
313.196743073798
 31
0.0
  0
LINE
  5
12F4
330
2
100
AcDbEntity
  8
CENTER
100
AcDbLine
 10
357.847714895045
 20
296.4297817592117
 30
0.0
 11
357.847714895045
 21
287.9637043883588
 31
0.0
  0
LINE
  5
12F5
330
2
100
AcDbEntity
  8
0
100
AcDbLine
 10
270.8477148949963
 20
319.4467430737852
 30
0.0
 11
270.8477148949963
 21
315.1967430737852
 31
0.0
  0
LINE
  5
12F6
330
2
100
AcDbEntity
  8
0
100
AcDbLine
 10
270.5477148949961
 20
318.9271278315148
 30
0.0
 11
270.5477148949959
 21
315.1967430737852
 31
0.0
  0
LINE
  5
12F7
330
2
100
AcDbEntity
  8
0
100
AcDbLine
 10
270.7033773277031
 20
319.1967430737934
 30
0.0
 11
270.5477148949961
 21
318.9271278315148
 31
0.0
  0
LINE
  5
12F8
330
2
100
AcDbEntity
  8
0
100
AcDbLine
 10
270.8477148949963
 20
264.9467430737852
 30
0.0
 11
270.8477148949963
 21
269.1967430737852
 31
0.0
  0
LINE
  5
12F9
330
2
100
AcDbEntity
  8
0
100
AcDbLine
 10
270.5477148949961
 20
265.4663583160557
 30
0.0
 11
270.5477148949959
 21
269.1967430737852
 31
0.0
  0
LINE
  5
12FA
330
2
100
AcDbEntity
  8
0
100
AcDbLine
 10
270.7033773277036
 20
265.1967430737771
 30
0.0
 11
270.5477148949961
 21
265.4663583160557
 31
0.0
  0
LINE
  5
12FC
330
2
100
AcDbEntity
  8
PHAS
  6
SEKKEI_P_S
100
AcDbLine
 10
246.3477148951004
 20
280.660632529258
 30
0.0
 11
246.3477148951004
 21
303.7328386183129
 31
0.0
  0
LINE
  5
12FD
330
2
100
AcDbEntity
  8
PHAS
  6
SEKKEI_P_S
100
AcDbLine
 10
250.4794366515878
 20
275.7366003510681
 30
0.0
 11
261.2213108950999
 21
273.842434073785
 31
0.0
  0
ARC
  5
12FE
330
2
100
AcDbEntity
  8
PHAS
  6
SEKKEI_P_S
100
AcDbCircle
 10
251.3477148951004
 20
280.660632529258
 30
0.0
 40
5.0
100
AcDbArc
 50
180.0
 51
259.9995653374257
  0
LINE
  5
12FF
330
2
100
AcDbEntity
  8
PHAS
  6
SEKKEI_P_S
100
AcDbLine
 10
262.0477118951019
 20
314.0776330737856
 30
0.0
 11
262.0477118951001
 21
270.3158380737852
 31
0.0
  0
ARC
  5
1300
330
2
100
AcDbEntity
  8
PHAS
  6
SEKKEI_P_S
100
AcDbCircle
 10
261.0477118951001
 20
272.857632073785
 30
0.0
 40
1.0
100
AcDbArc
 50
0.0
 51
79.99999999999483
  0
LINE
  5
1301
330
2
100
AcDbEntity
  8
PHAS
  6
SEKKEI_P_S
100
AcDbLine
 10
271.8477148950986
 20
266.1967430737852
 30
0.0
 11
271.8477148951004
 21
318.1967430737852
 31
0.0
  0
ARC
  5
1302
330
2
100
AcDbEntity
  8
PHAS
  6
SEKKEI_P_S
100
AcDbCircle
 10
251.3477148951004
 20
303.7328386183129
 30
0.0
 40
5.0
100
AcDbArc
 50
100.0004346625742
 51
180.0
  0
LINE
  5
1303
330
2
100
AcDbEntity
  8
PHAS
  6
SEKKEI_P_S
100
AcDbLine
 10
250.4794366515878
 20
308.6568707965018
 30
0.0
 11
261.2213108950999
 21
310.551037073785
 31
0.0
  0
ARC
  5
1304
330
2
100
AcDbEntity
  8
PHAS
  6
SEKKEI_P_S
100
AcDbCircle
 10
265.0477118951001
 20
314.0776330737856
 30
0.0
 40
3.0
100
AcDbArc
 50
103.0417940599513
 51
180.0
  0
ARC
  5
1305
330
2
100
AcDbEntity
  8
PHAS
  6
SEKKEI_P_S
100
AcDbCircle
 10
261.0477118951001
 20
311.5358390737849
 30
0.0
 40
1.0
100
AcDbArc
 50
280.0000000000051
 51
0.0
  0
LINE
  5
1306
330
2
100
AcDbEntity
  8
PHAS
  6
SEKKEI_P_S
100
AcDbLine
 10
269.3477148951004
 20
318.1531030737854
 30
0.0
 11
264.3707266667405
 21
317.0002502229483
 31
0.0
  0
LINE
  5
1307
330
2
100
AcDbEntity
  8
PHAS
  6
SEKKEI_P_S
100
AcDbLine
 10
269.3477148951004
 20
318.1531030737854
 30
0.0
 11
271.8477148951004
 21
318.1967430737852
 31
0.0
  0
ARC
  5
1308
330
2
100
AcDbEntity
  8
PHAS
  6
SEKKEI_P_S
100
AcDbCircle
 10
265.0477118951001
 20
270.3158530737849
 30
0.0
 40
3.0
100
AcDbArc
 50
180.0
 51
256.9582059400486
  0
LINE
  5
1309
330
2
100
AcDbEntity
  8
PHAS
  6
SEKKEI_P_S
100
AcDbLine
 10
269.3477148951004
 20
266.2403830737851
 30
0.0
 11
264.3707266667405
 21
267.3932359246221
 31
0.0
  0
LINE
  5
130A
330
2
100
AcDbEntity
  8
PHAS
  6
SEKKEI_P_S
100
AcDbLine
 10
269.3477148951004
 20
266.2403830737851
 30
0.0
 11
271.8477148950986
 21
266.1967430737852
 31
0.0
  0
LINE
  5
133F
330
2
100
AcDbEntity
  8
CENTER
  6
CENS
100
AcDbLine
 10
573.8951131819211
 20
327.6236102563046
 30
0.0
 11
573.8951131819211
 21
305.5693495897024
 31
0.0
  0
LINE
  5
1340
330
2
100
AcDbEntity
  8
0
100
AcDbLine
 10
585.8951131819211
 20
312.196743073798
 30
0.0
 11
585.8951131819211
 21
272.196743073798
 31
0.0
  0
LINE
  5
1341
330
2
100
AcDbEntity
  8
0
100
AcDbLine
 10
560.8950702715437
 20
318.5807552490626
 30
0.0
 11
580.9300179947967
 21
318.23104393572
 31
0.0
  0
ARC
  5
1342
330
2
100
AcDbEntity
  8
0
100
AcDbCircle
 10
580.8951131819211
 20
316.2313485454063
 30
0.0
 40
2.0
100
AcDbArc
 50
0.0
 51
89.0000000000243
  0
ARC
  5
1343
330
2
100
AcDbEntity
  8
0
100
AcDbCircle
 10
584.8951131819212
 20
314.2145027948139
 30
0.0
 40
2.0
100
AcDbArc
 50
180.0
 51
269.0000000000242
  0
LINE
  5
1344
330
2
100
AcDbEntity
  8
0
100
AcDbLine
 10
585.8951131819211
 20
312.196743073798
 30
0.0
 11
584.8602083690474
 21
312.214807404501
 31
0.0
  0
LINE
  5
1345
330
2
100
AcDbEntity
  8
0
100
AcDbLine
 10
582.8951131819211
 20
316.2313485454063
 30
0.0
 11
582.8951131819211
 21
309.3619430896536
 31
0.0
  0
LINE
  5
1346
330
2
100
AcDbEntity
  8
0
100
AcDbLine
 10
582.8951131819211
 20
292.196743073798
 30
0.0
 11
582.8951131819211
 21
268.1621376021897
 31
0.0
  0
LINE
  5
1347
330
2
100
AcDbEntity
  8
0
100
AcDbLine
 10
547.8951131819211
 20
320.1967430712132
 30
0.0
 11
554.9037968070423
 21
320.1355792158295
 31
0.0
  0
ARC
  5
1348
330
2
100
AcDbEntity
  8
0
100
AcDbCircle
 10
717.6482695017429
 20
292.1967430737993
 30
0.0
 40
27.00000000000004
100
AcDbArc
 50
313.6028189726618
 51
73.73979529164896
  0
CIRCLE
  5
1349
330
2
100
AcDbEntity
  8
HIDS
100
AcDbCircle
 10
717.6482695017429
 20
292.1967430737993
 30
0.0
 40
17.49999999999926
  0
CIRCLE
  5
134A
330
2
100
AcDbEntity
  8
0
100
AcDbCircle
 10
717.6482695017429
 20
292.1967430737993
 30
0.0
 40
15.0
  0
LINE
  5
134B
330
2
100
AcDbEntity
  8
0
100
AcDbLine
 10
701.6482695017429
 20
312.1967430737993
 30
0.0
 11
733.6482695017429
 21
312.1967430737993
 31
0.0
  0
LINE
  5
134C
330
2
100
AcDbEntity
  8
CENTER
  6
CENS
100
AcDbLine
 10
709.6482695017429
 20
327.623610256306
 30
0.0
 11
709.6482695017429
 21
279.9801782587627
 31
0.0
  0
LINE
  5
134D
330
2
100
AcDbEntity
  8
HIDS
100
AcDbLine
 10
703.8982695017429
 20
318.1967430737993
 30
0.0
 11
703.8982695017429
 21
303.0220606211031
 31
0.0
  0
ARC
  5
134E
330
2
100
AcDbEntity
  8
0
100
AcDbCircle
 10
717.6482695017429
 20
292.1967430737993
 30
0.0
 40
27.00000000000004
100
AcDbArc
 50
133.6028189726618
 51
253.7397952916489
  0
ARC
  5
134F
330
2
100
AcDbEntity
  8
0
100
AcDbCircle
 10
701.6482695017429
 20
316.1967430737993
 30
0.0
 40
2.0
100
AcDbArc
 50
90.0
 51
180.0
  0
ARC
  5
1350
330
2
100
AcDbEntity
  8
0
100
AcDbCircle
 10
697.6482695017429
 20
313.1967430737994
 30
0.0
 40
2.0
100
AcDbArc
 50
313.6028189726618
 51
0.0
  0
ARC
  5
1351
330
2
100
AcDbEntity
  8
0
100
AcDbCircle
 10
701.6482695017429
 20
308.1967430737993
 30
0.0
 40
4.0
100
AcDbArc
 50
90.0
 51
180.0
  0
LINE
  5
1352
330
2
100
AcDbEntity
  8
0
100
AcDbLine
 10
724.6482695017438
 20
318.1967430737993
 30
0.0
 11
700.5232712135993
 21
318.1967430737993
 31
0.0
  0
LINE
  5
1353
330
2
100
AcDbEntity
  8
0
100
AcDbLine
 10
699.6482695017428
 20
316.1967430737993
 30
0.0
 11
699.6482695017428
 21
313.1967430737994
 31
0.0
  0
LINE
  5
1354
330
2
100
AcDbEntity
  8
HIDS
100
AcDbLine
 10
715.3982695017429
 20
309.5514974656069
 30
0.0
 11
715.3982695017429
 21
318.1967430737993
 31
0.0
  0
ARC
  5
1355
330
2
100
AcDbEntity
  8
0
100
AcDbCircle
 10
724.6482695017438
 20
316.1967430737993
 30
0.0
 40
2.0
100
AcDbArc
 50
73.73979529164896
 51
90.0
  0
LINE
  5
1356
330
2
100
AcDbEntity
  8
0
100
AcDbLine
 10
737.6482695017429
 20
308.1967430737993
 30
0.0
 11
737.6482695017429
 21
276.1967430737994
 31
0.0
  0
ARC
  5
1357
330
2
100
AcDbEntity
  8
0
100
AcDbCircle
 10
742.6482695017429
 20
317.1967430737993
 30
0.0
 40
3.0
100
AcDbArc
 50
0.0
 51
90.0
  0
ARC
  5
1358
330
2
100
AcDbEntity
  8
0
100
AcDbCircle
 10
733.6482695017429
 20
308.1967430737993
 30
0.0
 40
4.0
100
AcDbArc
 50
0.0
 51
90.0
  0
LINE
  5
1359
330
2
100
AcDbEntity
  8
0
100
AcDbLine
 10
710.6482695017429
 20
266.1967430737993
 30
0.0
 11
733.6482695017429
 21
266.1967430737993
 31
0.0
  0
LINE
  5
135A
330
2
100
AcDbEntity
  8
0
100
AcDbLine
 10
692.6482695017429
 20
264.1967430737993
 30
0.0
 11
742.6482695017429
 21
264.1967430737993
 31
0.0
  0
LINE
  5
135B
330
2
100
AcDbEntity
  8
0
100
AcDbLine
 10
733.6482695017429
 20
272.1967430737993
 30
0.0
 11
701.6482695017429
 21
272.1967430737993
 31
0.0
  0
LINE
  5
135C
330
2
100
AcDbEntity
  8
0
100
AcDbLine
 10
697.6482695017429
 20
276.1967430737994
 30
0.0
 11
697.6482695017429
 21
308.1967430737993
 31
0.0
  0
ARC
  5
135D
330
2
100
AcDbEntity
  8
0
100
AcDbCircle
 10
701.6482695017429
 20
276.1967430737994
 30
0.0
 40
4.0
100
AcDbArc
 50
180.0
 51
270.0
  0
ARC
  5
135E
330
2
100
AcDbEntity
  8
0
100
AcDbCircle
 10
692.6482695017429
 20
267.1967430737993
 30
0.0
 40
3.0
100
AcDbArc
 50
180.0
 51
270.0
  0
ARC
  5
135F
330
2
100
AcDbEntity
  8
0
100
AcDbCircle
 10
710.6482695017429
 20
268.1967430737993
 30
0.0
 40
2.0
100
AcDbArc
 50
253.7397952916489
 51
270.0
  0
ARC
  5
1360
330
2
100
AcDbEntity
  8
0
100
AcDbCircle
 10
692.6482695017429
 20
317.1967430737993
 30
0.0
 40
3.0
100
AcDbArc
 50
90.0
 51
180.0
  0
ARC
  5
1361
330
2
100
AcDbEntity
  8
0
100
AcDbCircle
 10
737.6482695017429
 20
271.1967430737993
 30
0.0
 40
2.0
100
AcDbArc
 50
133.6028189726618
 51
180.0
  0
ARC
  5
1362
330
2
100
AcDbEntity
  8
0
100
AcDbCircle
 10
733.6482695017429
 20
276.1967430737994
 30
0.0
 40
4.0
100
AcDbArc
 50
270.0
 51
0.0
  0
ARC
  5
1363
330
2
100
AcDbEntity
  8
0
100
AcDbCircle
 10
733.6482695017429
 20
268.1967430737993
 30
0.0
 40
2.0
100
AcDbArc
 50
270.0
 51
0.0
  0
LINE
  5
1364
330
2
100
AcDbEntity
  8
0
100
AcDbLine
 10
735.6482695017429
 20
268.1967430737993
 30
0.0
 11
735.6482695017429
 21
271.1967430737993
 31
0.0
  0
ARC
  5
1365
330
2
100
AcDbEntity
  8
0
100
AcDbCircle
 10
742.6482695017429
 20
267.1967430737993
 30
0.0
 40
3.0
100
AcDbArc
 50
270.0
 51
0.0
  0
LINE
  5
1366
330
2
100
AcDbEntity
  8
0
100
AcDbLine
 10
692.6482695017429
 20
320.1967430737993
 30
0.0
 11
701.0253064207307
 21
320.1967430737993
 31
0.0
  0
LINE
  5
1367
330
2
100
AcDbEntity
  8
0
100
AcDbLine
 10
718.0212325827546
 20
320.1967430737993
 30
0.0
 11
742.6482695017438
 21
320.1967430737993
 31
0.0
  0
LINE
  5
1368
330
2
100
AcDbEntity
  8
CENTER
100
AcDbLine
 10
742.0434534526792
 20
262.9265591228639
 30
0.0
 11
742.0434534526792
 21
272.6765591228639
 31
0.0
  0
LINE
  5
1369
330
2
100
AcDbEntity
  8
CENTER
100
AcDbLine
 10
737.1684534526792
 20
267.8015591228639
 30
0.0
 11
746.9184534526792
 21
267.8015591228639
 31
0.0
  0
LINE
  5
136A
330
2
100
AcDbEntity
  8
CENTER
100
AcDbLine
 10
693.2530855508074
 20
262.9265591228639
 30
0.0
 11
693.2530855508074
 21
272.6765591228639
 31
0.0
  0
LINE
  5
136B
330
2
100
AcDbEntity
  8
CENTER
100
AcDbLine
 10
688.3780855508074
 20
267.8015591228639
 30
0.0
 11
698.1280855508074
 21
267.8015591228639
 31
0.0
  0
LINE
  5
136C
330
2
100
AcDbEntity
  8
CENTER
100
AcDbLine
 10
693.2530855508074
 20
311.7169270247348
 30
0.0
 11
693.2530855508074
 21
321.4669270247348
 31
0.0
  0
LINE
  5
136D
330
2
100
AcDbEntity
  8
CENTER
100
AcDbLine
 10
688.3780855508074
 20
316.5919270247348
 30
0.0
 11
698.1280855508074
 21
316.5919270247348
 31
0.0
  0
LINE
  5
136E
330
2
100
AcDbEntity
  8
CENTER
100
AcDbLine
 10
742.0434534526792
 20
311.7169270247348
 30
0.0
 11
742.0434534526792
 21
321.4669270247348
 31
0.0
  0
LINE
  5
136F
330
2
100
AcDbEntity
  8
CENTER
100
AcDbLine
 10
737.1684534526792
 20
316.5919270247348
 30
0.0
 11
746.9184534526792
 21
316.5919270247348
 31
0.0
  0
LINE
  5
1370
330
2
100
AcDbEntity
  8
0
100
AcDbLine
 10
582.8950702715409
 20
460.1158211742279
 30
0.0
 11
582.8950702715418
 21
510.1850321217646
 31
0.0
  0
LINE
  5
1371
330
2
100
AcDbEntity
  8
0
100
AcDbLine
 10
555.8950702715418
 20
457.2551924833754
 30
0.0
 11
555.8950702715418
 21
513.045660812618
 31
0.0
  0
LINE
  5
1372
330
2
100
AcDbEntity
  8
0
100
AcDbLine
 10
585.8950702715418
 20
505.1504266479972
 30
0.0
 11
585.8950702715418
 21
465.1504266479963
 31
0.0
  0
LINE
  5
1373
330
2
100
AcDbEntity
  8
CENTER
  6
CENS
100
AcDbLine
 10
573.8951131819193
 20
466.3211053181906
 30
0.0
 11
573.8951131819193
 21
487.9797479778028
 31
0.0
  0
LINE
  5
1374
330
2
100
AcDbEntity
  8
0
100
AcDbLine
 10
560.8901755282158
 20
512.5345235144798
 30
0.0
 11
580.9299750844173
 21
512.1847275120783
 31
0.0
  0
ARC
  5
1375
330
2
100
AcDbEntity
  8
0
100
AcDbCircle
 10
580.8950702715418
 20
510.1850321217646
 30
0.0
 40
2.0
100
AcDbArc
 50
0.0
 51
89.0000000000243
  0
ARC
  5
1376
330
2
100
AcDbEntity
  8
0
100
AcDbCircle
 10
584.8950702715418
 20
507.1772981545476
 30
0.0
 40
2.0
100
AcDbArc
 50
180.0
 51
268.5000000000103
  0
LINE
  5
1377
330
2
100
AcDbEntity
  8
0
100
AcDbLine
 10
585.8950702715418
 20
505.1504266479972
 30
0.0
 11
584.8427163749264
 21
505.1779835045966
 31
0.0
  0
LINE
  5
1378
330
2
100
AcDbEntity
  8
0
100
AcDbLine
 10
560.8901755282158
 20
457.7663297815136
 30
0.0
 11
580.9299750844164
 21
458.1161257839151
 31
0.0
  0
LINE
  5
1379
330
2
100
AcDbEntity
  8
0
100
AcDbLine
 10
580.9299750844173
 20
467.1161257839151
 30
0.0
 11
557.8601654586681
 21
466.7134407590158
 31
0.0
  0
LINE
  5
137A
330
2
100
AcDbEntity
  8
CENTER
  6
CENS
100
AcDbLine
 10
584.724434511725
 20
477.1504266479963
 30
0.0
 11
563.0657918521136
 21
477.1504266479963
 31
0.0
  0
ARC
  5
137B
330
2
100
AcDbEntity
  8
0
100
AcDbCircle
 10
580.8950702715418
 20
469.1158211742279
 30
0.0
 40
2.0
100
AcDbArc
 50
270.9999999999757
 51
0.0
  0
ARC
  5
137C
330
2
100
AcDbEntity
  8
0
100
AcDbCircle
 10
584.8950702715418
 20
463.123555141445
 30
0.0
 40
2.0
100
AcDbArc
 50
91.49999999998968
 51
180.0
  0
LINE
  5
137D
330
2
100
AcDbEntity
  8
0
100
AcDbLine
 10
585.8950702715418
 20
465.1504266479963
 30
0.0
 11
584.8427163749264
 21
465.1228697913968
 31
0.0
  0
ARC
  5
137E
330
2
100
AcDbEntity
  8
0
100
AcDbCircle
 10
580.8950702715418
 20
460.1158211742279
 30
0.0
 40
2.0
100
AcDbArc
 50
270.9999999999757
 51
0.0
  0
ARC
  5
137F
330
2
100
AcDbEntity
  8
0
100
AcDbCircle
 10
557.8950702715418
 20
464.713745368703
 30
0.0
 40
2.0
100
AcDbArc
 50
90.99999999997569
 51
180.0
  0
LINE
  5
1380
330
2
100
AcDbEntity
  8
0
100
AcDbLine
 10
557.8950702715418
 20
492.4304266479961
 30
0.0
 11
580.8950702715409
 21
492.4304266479961
 31
0.0
  0
LINE
  5
1381
330
2
100
AcDbEntity
  8
0
100
AcDbLine
 10
547.8951131819193
 20
457.1504266479963
 30
0.0
 11
554.9037968070405
 21
457.21159050338
 31
0.0
  0
ARC
  5
1382
330
2
100
AcDbEntity
  8
0
100
AcDbCircle
 10
554.8950702715418
 20
458.2115524264448
 30
0.0
 40
1.0
100
AcDbArc
 50
270.4999999999654
 51
0.0
  0
ARC
  5
1383
330
2
100
AcDbEntity
  8
0
100
AcDbCircle
 10
556.5200261720591
 20
455.6897438846684
 30
0.0
 40
2.0
100
AcDbArc
 50
108.208626904574
 51
122.7961663449128
  0
LINE
  5
1384
330
2
100
AcDbEntity
  8
0
100
AcDbLine
 10
547.8951131819193
 20
513.1504266479963
 30
0.0
 11
554.9037968070405
 21
513.0892627926134
 31
0.0
  0
ARC
  5
1385
330
2
100
AcDbEntity
  8
0
100
AcDbCircle
 10
554.8950702715418
 20
512.0893008695486
 30
0.0
 40
1.0
100
AcDbArc
 50
0.0
 51
89.5000000000345
  0
ARC
  5
1386
330
2
100
AcDbEntity
  8
0
100
AcDbCircle
 10
556.5200261720591
 20
514.611109411325
 30
0.0
 40
2.0
100
AcDbArc
 50
237.2038336550871
 51
251.791373095426
  0
LINE
  5
1387
330
2
100
AcDbEntity
  8
0
100
AcDbLine
 10
547.8951131819211
 20
264.1967430763827
 30
0.0
 11
554.9038397201965
 21
264.2579073062636
 31
0.0
  0
LINE
  5
1388
330
2
100
AcDbEntity
  8
0
100
AcDbLine
 10
560.8950702715437
 20
265.8127308985334
 30
0.0
 11
580.9300179947967
 21
266.162442211876
 31
0.0
  0
ARC
  5
1389
330
2
100
AcDbEntity
  8
0
100
AcDbCircle
 10
580.8951131819211
 20
268.1621376021897
 30
0.0
 40
2.0
100
AcDbArc
 50
270.9999999999757
 51
0.0
  0
ARC
  5
138A
330
2
100
AcDbEntity
  8
0
100
AcDbCircle
 10
584.8951131819212
 20
270.1789833527821
 30
0.0
 40
2.0
100
AcDbArc
 50
90.99999999997569
 51
180.0
  0
LINE
  5
138B
330
2
100
AcDbEntity
  8
0
100
AcDbLine
 10
585.8951131819211
 20
272.196743073798
 30
0.0
 11
584.8602083690474
 21
272.1786787430949
 31
0.0
  0
LINE
  5
138C
330
2
100
AcDbEntity
  8
0
100
AcDbLine
 10
555.8950702715446
 20
319.1356172927656
 30
0.0
 11
555.8950702715446
 21
297.3944862914243
 31
0.0
  0
ARC
  5
138D
330
2
100
AcDbEntity
  8
0
100
AcDbCircle
 10
554.8950702715445
 20
319.1356172927656
 30
0.0
 40
1.0
100
AcDbArc
 50
0.0
 51
89.5000000000345
  0
ARC
  5
138E
330
2
100
AcDbEntity
  8
0
100
AcDbCircle
 10
557.4903271730534
 20
320.6404899169986
 30
0.0
 40
2.0
100
AcDbArc
 50
210.107515045055
 51
217.095770873056
  0
ARC
  5
138F
330
2
100
AcDbEntity
  8
0
100
AcDbCircle
 10
554.8950702715445
 20
265.2578688548304
 30
0.0
 40
1.0
100
AcDbArc
 50
270.4999999999654
 51
0.0
  0
ARC
  5
1390
330
2
100
AcDbEntity
  8
0
100
AcDbCircle
 10
557.4903271730534
 20
263.7529962305973
 30
0.0
 40
2.0
100
AcDbArc
 50
142.9042291269439
 51
149.8924849550032
  0
LINE
  5
1391
330
2
100
AcDbEntity
  8
0
100
AcDbLine
 10
556.8950702715437
 20
320.0919772384198
 30
0.0
 11
555.8950702715436
 21
320.0919772384198
 31
0.0
  0
LINE
  5
1392
330
2
100
AcDbEntity
  8
0
100
AcDbLine
 10
555.8950702715436
 20
320.0919772384198
 30
0.0
 11
555.8950702715436
 21
313.0919772384198
 31
0.0
  0
LINE
  5
1393
330
2
100
AcDbEntity
  8
0
100
AcDbLine
 10
555.8950702715436
 20
313.0919772384198
 30
0.0
 11
556.8950702715437
 21
313.0919772384198
 31
0.0
  0
LINE
  5
1394
330
2
100
AcDbEntity
  8
0
100
AcDbLine
 10
556.8950702715437
 20
313.0919772384198
 30
0.0
 11
556.8950702715437
 21
320.0919772384198
 31
0.0
  0
LINE
  5
1395
330
2
100
AcDbEntity
  8
0
100
AcDbLine
 10
560.8950702715437
 20
319.5723619961484
 30
0.0
 11
560.8950702715437
 21
313.6115924806902
 31
0.0
  0
LINE
  5
1396
330
2
100
AcDbEntity
  8
0
100
AcDbLine
 10
560.5950702715435
 20
313.0919772384198
 30
0.0
 11
560.5950702715435
 21
320.0919772384198
 31
0.0
  0
LINE
  5
1397
330
2
100
AcDbEntity
  8
0
100
AcDbLine
 10
560.5950702715435
 20
313.0919772384198
 30
0.0
 11
556.8950702715437
 21
313.0919772384198
 31
0.0
  0
LINE
  5
1398
330
2
100
AcDbEntity
  8
0
100
AcDbLine
 10
560.5950702715435
 20
313.0919772384198
 30
0.0
 11
560.8950702715437
 21
313.6115924806902
 31
0.0
  0
LINE
  5
1399
330
2
100
AcDbEntity
  8
0
100
AcDbLine
 10
560.8950702715437
 20
319.5723619961484
 30
0.0
 11
560.5950702715435
 21
320.0919772384198
 31
0.0
  0
LINE
  5
139A
330
2
100
AcDbEntity
  8
0
100
AcDbLine
 10
556.8950702715437
 20
320.0919772384198
 30
0.0
 11
560.5950702715435
 21
320.0919772384198
 31
0.0
  0
LINE
  5
139B
330
2
100
AcDbEntity
  8
0
100
AcDbLine
 10
556.8950702715437
 20
264.3015089091762
 30
0.0
 11
555.8950702715436
 21
264.3015089091762
 31
0.0
  0
LINE
  5
139C
330
2
100
AcDbEntity
  8
0
100
AcDbLine
 10
555.8950702715436
 20
271.3015089091762
 30
0.0
 11
556.8950702715437
 21
271.3015089091762
 31
0.0
  0
LINE
  5
139D
330
2
100
AcDbEntity
  8
0
100
AcDbLine
 10
556.8950702715437
 20
271.3015089091762
 30
0.0
 11
556.8950702715437
 21
264.3015089091762
 31
0.0
  0
LINE
  5
139E
330
2
100
AcDbEntity
  8
0
100
AcDbLine
 10
560.8950702715437
 20
264.8211241514475
 30
0.0
 11
560.8950702715437
 21
270.7818936669057
 31
0.0
  0
LINE
  5
139F
330
2
100
AcDbEntity
  8
0
100
AcDbLine
 10
560.5950702715435
 20
271.3015089091762
 30
0.0
 11
560.5950702715435
 21
264.3015089091762
 31
0.0
  0
LINE
  5
13A0
330
2
100
AcDbEntity
  8
0
100
AcDbLine
 10
560.5950702715435
 20
271.3015089091762
 30
0.0
 11
556.8950702715437
 21
271.3015089091762
 31
0.0
  0
LINE
  5
13A1
330
2
100
AcDbEntity
  8
0
100
AcDbLine
 10
560.5950702715435
 20
271.3015089091762
 30
0.0
 11
560.8950702715437
 21
270.7818936669057
 31
0.0
  0
LINE
  5
13A2
330
2
100
AcDbEntity
  8
0
100
AcDbLine
 10
560.8950702715437
 20
264.8211241514475
 30
0.0
 11
560.5950702715435
 21
264.3015089091762
 31
0.0
  0
LINE
  5
13A3
330
2
100
AcDbEntity
  8
0
100
AcDbLine
 10
556.8950702715437
 20
264.3015089091762
 30
0.0
 11
560.5950702715435
 21
264.3015089091762
 31
0.0
  0
LINE
  5
13A4
330
2
100
AcDbEntity
  8
0
100
AcDbLine
 10
555.8950702715436
 20
264.3015089091762
 30
0.0
 11
555.8950702715436
 21
271.3015089091762
 31
0.0
  0
LINE
  5
13A5
330
2
100
AcDbEntity
  8
0
100
AcDbLine
 10
581.8951131819211
 20
307.3294545868469
 30
0.0
 11
581.8951131819211
 21
292.196743073798
 31
0.0
  0
LINE
  5
13A6
330
2
100
AcDbEntity
  8
0
100
AcDbLine
 10
585.8951131819211
 20
307.196743073798
 30
0.0
 11
581.8950988547129
 21
307.196743073798
 31
0.0
  0
ARC
  5
13A7
330
2
100
AcDbEntity
  8
0
100
AcDbCircle
 10
579.8951131819211
 20
307.316361626062
 30
0.0
 40
2.0
100
AcDbArc
 50
0.0
 51
52.22196899348428
  0
LINE
  5
13A8
330
2
100
AcDbEntity
  8
0
100
AcDbLine
 10
569.3951131819211
 20
296.196743073798
 30
0.0
 11
580.3951131819211
 21
296.196743073798
 31
0.0
  0
LINE
  5
13A9
330
2
100
AcDbEntity
  8
0
100
AcDbLine
 10
569.3951131819211
 20
292.196743073798
 30
0.0
 11
569.3951131819211
 21
300.647533941584
 31
0.0
  0
LINE
  5
13AA
330
2
100
AcDbEntity
  8
0
100
AcDbLine
 10
575.9516750096407
 20
304.446743073798
 30
0.0
 11
581.3951131819211
 21
304.446743073798
 31
0.0
  0
LINE
  5
13AB
330
2
100
AcDbEntity
  8
0
100
AcDbLine
 10
581.3951131819211
 20
304.446743073798
 30
0.0
 11
581.3951131819211
 21
292.196743073798
 31
0.0
  0
LINE
  5
13AC
330
2
100
AcDbEntity
  8
0
100
AcDbLine
 10
580.3951131819211
 20
296.196743073798
 30
0.0
 11
581.3951131819211
 21
296.774093342988
 31
0.0
  0
LINE
  5
13AD
330
2
100
AcDbEntity
  8
0
100
AcDbLine
 10
567.3951131819211
 20
300.5396685874941
 30
0.0
 11
567.3951131819211
 21
292.196743073798
 31
0.0
  0
LINE
  5
13AE
330
2
100
AcDbEntity
  8
0
100
AcDbLine
 10
560.8951131819211
 20
296.196743073798
 30
0.0
 11
567.3951131819211
 21
296.196743073798
 31
0.0
  0
LINE
  5
13AF
330
2
100
AcDbEntity
  8
0
100
AcDbLine
 10
562.8951131819211
 20
296.196743073798
 30
0.0
 11
567.3951131819211
 21
296.196743073798
 31
0.0
  0
LINE
  5
13B0
330
2
100
AcDbEntity
  8
0
100
AcDbLine
 10
557.3951131819211
 20
295.196743073798
 30
0.0
 11
555.6630623743529
 21
292.196743073798
 31
0.0
  0
LINE
  5
13B1
330
2
100
AcDbEntity
  8
0
100
AcDbLine
 10
557.3951131819211
 20
296.446743073798
 30
0.0
 11
557.3951131819211
 21
292.196743073798
 31
0.0
  0
LINE
  5
13B2
330
2
100
AcDbEntity
  8
0
100
AcDbLine
 10
560.8951131819211
 20
296.196743073798
 30
0.0
 11
560.8951131819211
 21
292.196743073798
 31
0.0
  0
LINE
  5
13B3
330
2
100
AcDbEntity
  8
0
100
AcDbLine
 10
560.8951131819211
 20
296.446743073798
 30
0.0
 11
557.3951131819211
 21
296.446743073798
 31
0.0
  0
LINE
  5
13B4
330
2
100
AcDbEntity
  8
0
100
AcDbLine
 10
560.8951131819211
 20
296.196743073798
 30
0.0
 11
560.8951131819211
 21
296.446743073798
 31
0.0
  0
SPLINE
  5
13B5
330
2
100
AcDbEntity
  8
HOJO
100
AcDbSpline
210
0.0
220
0.0
230
1.0
 70
     8
 71
     3
 72
    16
 73
    12
 74
     0
 42
0.0000000001
 43
0.0000000001
 40
1.229586671925319
 40
1.229586671925319
 40
1.229586671925319
 40
1.229586671925319
 40
9.059721493801909
 40
14.01454332224558
 40
17.68854249089321
 40
25.49282471102274
 40
30.81266567978604
 40
35.19147887412627
 40
39.07871238777226
 40
41.42088313435808
 40
41.93957356983536
 40
41.93957356983536
 40
41.93957356983536
 40
41.93957356983536
 10
585.8951131819293
 20
309.7689057506989
 30
0.0
 10
583.0849737709431
 20
309.501715462354
 30
0.0
 10
578.6763559895952
 20
308.8025915694591
 30
0.0
 10
575.7847092069576
 20
303.8314694549347
 30
0.0
 10
571.4452086100208
 20
300.1466966124865
 30
0.0
 10
565.4117134718416
 20
300.9115326148851
 30
0.0
 10
559.739731986783
 20
299.3670021026721
 30
0.0
 10
555.7394132660091
 20
297.3774280035462
 30
0.0
 10
552.5233173965488
 20
295.421887163978
 30
0.0
 10
551.8227460568668
 20
293.2120766381834
 30
0.0
 10
551.403906590598
 20
292.3509350745183
 30
0.0
 10
551.3248501973729
 20
292.196743073798
 30
0.0
  0
LINE
  5
13B6
330
2
100
AcDbEntity
  8
0
100
AcDbLine
 10
555.8950702715446
 20
265.2578688548304
 30
0.0
 11
555.8950702715446
 21
292.196743073798
 31
0.0
  0
LINE
  5
13B7
330
2
100
AcDbEntity
  8
0
100
AcDbLine
 10
580.3951131819211
 20
296.196743073798
 30
0.0
 11
580.3951131819211
 21
292.196743073798
 31
0.0
  0
LINE
  5
13B8
330
2
100
AcDbEntity
  8
0
100
AcDbLine
 10
556.8950702715418
 20
457.2551924833754
 30
0.0
 11
555.8950702715418
 21
457.2551924833754
 31
0.0
  0
LINE
  5
13B9
330
2
100
AcDbEntity
  8
0
100
AcDbLine
 10
555.8950702715418
 20
464.2551924833754
 30
0.0
 11
556.8950702715418
 21
464.2551924833754
 31
0.0
  0
LINE
  5
13BA
330
2
100
AcDbEntity
  8
0
100
AcDbLine
 10
556.8950702715418
 20
464.2551924833754
 30
0.0
 11
556.8950702715418
 21
457.2551924833754
 31
0.0
  0
LINE
  5
13BB
330
2
100
AcDbEntity
  8
0
100
AcDbLine
 10
560.8950702715418
 20
457.7748077256458
 30
0.0
 11
560.8950702715418
 21
463.735577241105
 31
0.0
  0
LINE
  5
13BC
330
2
100
AcDbEntity
  8
0
100
AcDbLine
 10
560.5950702715425
 20
464.2551924833754
 30
0.0
 11
560.5950702715425
 21
457.2551924833754
 31
0.0
  0
LINE
  5
13BD
330
2
100
AcDbEntity
  8
0
100
AcDbLine
 10
560.5950702715425
 20
464.2551924833754
 30
0.0
 11
556.8950702715418
 21
464.2551924833754
 31
0.0
  0
LINE
  5
13BE
330
2
100
AcDbEntity
  8
0
100
AcDbLine
 10
560.5950702715425
 20
464.2551924833754
 30
0.0
 11
560.8950702715418
 21
463.735577241105
 31
0.0
  0
LINE
  5
13BF
330
2
100
AcDbEntity
  8
0
100
AcDbLine
 10
560.8950702715418
 20
457.7748077256458
 30
0.0
 11
560.5950702715425
 21
457.2551924833754
 31
0.0
  0
LINE
  5
13C0
330
2
100
AcDbEntity
  8
0
100
AcDbLine
 10
556.8950702715418
 20
457.2551924833754
 30
0.0
 11
560.5950702715425
 21
457.2551924833754
 31
0.0
  0
LINE
  5
13C1
330
2
100
AcDbEntity
  8
0
100
AcDbLine
 10
556.8950702715418
 20
513.045660812618
 30
0.0
 11
555.8950702715418
 21
513.045660812618
 31
0.0
  0
LINE
  5
13C2
330
2
100
AcDbEntity
  8
0
100
AcDbLine
 10
555.8950702715418
 20
506.045660812618
 30
0.0
 11
556.8950702715418
 21
506.045660812618
 31
0.0
  0
LINE
  5
13C3
330
2
100
AcDbEntity
  8
0
100
AcDbLine
 10
556.8950702715418
 20
506.045660812618
 30
0.0
 11
556.8950702715418
 21
513.045660812618
 31
0.0
  0
LINE
  5
13C4
330
2
100
AcDbEntity
  8
0
100
AcDbLine
 10
560.8950702715418
 20
512.5260455703466
 30
0.0
 11
560.8950702715418
 21
506.5652760548885
 31
0.0
  0
LINE
  5
13C5
330
2
100
AcDbEntity
  8
0
100
AcDbLine
 10
560.5950702715425
 20
506.045660812618
 30
0.0
 11
560.5950702715425
 21
513.045660812618
 31
0.0
  0
LINE
  5
13C6
330
2
100
AcDbEntity
  8
0
100
AcDbLine
 10
560.5950702715425
 20
506.045660812618
 30
0.0
 11
556.8950702715418
 21
506.045660812618
 31
0.0
  0
LINE
  5
13C7
330
2
100
AcDbEntity
  8
0
100
AcDbLine
 10
560.5950702715425
 20
506.045660812618
 30
0.0
 11
560.8950702715418
 21
506.5652760548885
 31
0.0
  0
LINE
  5
13C8
330
2
100
AcDbEntity
  8
0
100
AcDbLine
 10
560.8950702715418
 20
512.5260455703466
 30
0.0
 11
560.5950702715425
 21
513.045660812618
 31
0.0
  0
LINE
  5
13C9
330
2
100
AcDbEntity
  8
0
100
AcDbLine
 10
556.8950702715418
 20
513.045660812618
 30
0.0
 11
560.5950702715425
 21
513.045660812618
 31
0.0
  0
CIRCLE
  5
13CA
330
2
100
AcDbEntity
  8
0
100
AcDbCircle
 10
717.6482695017429
 20
292.1967430737993
 30
0.0
 40
12.25000000258501
  0
ARC
  5
13CB
330
2
100
AcDbEntity
  8
0
100
AcDbCircle
 10
717.6482695017429
 20
292.1967430737993
 30
0.0
 40
4.577350271774776
100
AcDbArc
 50
9.430449844968528
 51
170.5695501550314
  0
ARC
  5
13CC
330
2
100
AcDbEntity
  8
0
100
AcDbCircle
 10
717.6482695017429
 20
292.1967430737993
 30
0.0
 40
4.577350271774776
100
AcDbArc
 50
189.4304498449685
 51
350.5695501550314
  0
CIRCLE
  5
13CD
330
2
100
AcDbEntity
  8
0
100
AcDbCircle
 10
717.6482695017429
 20
292.1967430737993
 30
0.0
 40
4.000000002585125
  0
CIRCLE
  5
13CE
330
2
100
AcDbEntity
  8
0
100
AcDbCircle
 10
693.2530855508074
 20
316.5919270247348
 30
0.0
 40
1.732050807568871
  0
LWPOLYLINE
  5
13CF
330
2
100
AcDbEntity
  8
0
100
AcDbPolyline
 90
        6
 70
     1
 43
0.0
 10
694.7530855508074
 20
317.4579524285198
 10
693.2530855508074
 20
318.3239778323048
 10
691.7530855508074
 20
317.4579524285198
 10
691.7530855508074
 20
315.7259016209507
 10
693.2530855508074
 20
314.8598762171666
 10
694.7530855508074
 20
315.7259016209507
  0
CIRCLE
  5
13D0
330
2
100
AcDbEntity
  8
0
100
AcDbCircle
 10
693.2530855508074
 20
316.5919270247348
 30
0.0
 40
3.499999999999717
  0
CIRCLE
  5
13D1
330
2
100
AcDbEntity
  8
0
100
AcDbCircle
 10
693.2530855508074
 20
316.5919270247348
 30
0.0
 40
2.980384757729353
  0
CIRCLE
  5
13D2
330
2
100
AcDbEntity
  8
0
100
AcDbCircle
 10
742.0434534526792
 20
316.5919270247348
 30
0.0
 40
1.732050807568871
  0
LWPOLYLINE
  5
13D3
330
2
100
AcDbEntity
  8
0
100
AcDbPolyline
 90
        6
 70
     1
 43
0.0
 10
743.5434534526792
 20
317.4579524285198
 10
742.0434534526792
 20
318.3239778323039
 10
740.5434534526793
 20
317.4579524285198
 10
740.5434534526793
 20
315.7259016209507
 10
742.0434534526792
 20
314.8598762171666
 10
743.5434534526792
 20
315.7259016209507
  0
CIRCLE
  5
13D4
330
2
100
AcDbEntity
  8
0
100
AcDbCircle
 10
742.0434534526792
 20
316.5919270247348
 30
0.0
 40
3.499999999999717
  0
CIRCLE
  5
13D5
330
2
100
AcDbEntity
  8
0
100
AcDbCircle
 10
742.0434534526792
 20
316.5919270247348
 30
0.0
 40
2.980384757729353
  0
CIRCLE
  5
13D6
330
2
100
AcDbEntity
  8
0
100
AcDbCircle
 10
742.0434534526792
 20
267.8015591228639
 30
0.0
 40
1.732050807568871
  0
LWPOLYLINE
  5
13D7
330
2
100
AcDbEntity
  8
0
100
AcDbPolyline
 90
        6
 70
     1
 43
0.0
 10
743.5434534526792
 20
268.667584526648
 10
742.0434534526792
 20
269.533609930432
 10
740.5434534526793
 20
268.667584526648
 10
740.5434534526793
 20
266.9355337190789
 10
742.0434534526792
 20
266.0695083152948
 10
743.5434534526792
 20
266.9355337190789
  0
CIRCLE
  5
13D8
330
2
100
AcDbEntity
  8
0
100
AcDbCircle
 10
742.0434534526792
 20
267.8015591228639
 30
0.0
 40
3.499999999999717
  0
CIRCLE
  5
13D9
330
2
100
AcDbEntity
  8
0
100
AcDbCircle
 10
742.0434534526792
 20
267.8015591228639
 30
0.0
 40
2.980384757729353
  0
CIRCLE
  5
13DA
330
2
100
AcDbEntity
  8
0
100
AcDbCircle
 10
693.2530855508074
 20
267.8015591228639
 30
0.0
 40
1.732050807568871
  0
LWPOLYLINE
  5
13DB
330
2
100
AcDbEntity
  8
0
100
AcDbPolyline
 90
        6
 70
     1
 43
0.0
 10
694.7530855508074
 20
268.667584526648
 10
693.2530855508074
 20
269.533609930432
 10
691.7530855508074
 20
268.667584526648
 10
691.7530855508074
 20
266.9355337190789
 10
693.2530855508074
 20
266.0695083152948
 10
694.7530855508074
 20
266.9355337190789
  0
CIRCLE
  5
13DC
330
2
100
AcDbEntity
  8
0
100
AcDbCircle
 10
693.2530855508074
 20
267.8015591228639
 30
0.0
 40
3.499999999999717
  0
CIRCLE
  5
13DD
330
2
100
AcDbEntity
  8
0
100
AcDbCircle
 10
693.2530855508074
 20
267.8015591228639
 30
0.0
 40
2.980384757729353
  0
LINE
  5
13DE
330
2
100
AcDbEntity
  8
HIDS
100
AcDbLine
 10
713.6482695017438
 20
303.7752792507088
 30
0.0
 11
713.6482695017438
 21
297.1967430737993
 31
0.0
  0
LINE
  5
13DF
330
2
100
AcDbEntity
  8
0
100
AcDbLine
 10
729.8752887623813
 20
291.4467430737993
 30
0.0
 11
721.5773279131188
 21
291.4467430737993
 31
0.0
  0
LINE
  5
13E0
330
2
100
AcDbEntity
  8
0
100
AcDbLine
 10
721.5773279131188
 20
292.9467430737993
 30
0.0
 11
729.8752887623813
 21
292.9467430737993
 31
0.0
  0
LINE
  5
13E1
330
2
100
AcDbEntity
  8
HIDS
100
AcDbLine
 10
707.6482695017438
 20
291.4467430737993
 30
0.0
 11
707.6482695017438
 21
285.1212572247566
 31
0.0
  0
LINE
  5
13E2
330
2
100
AcDbEntity
  8
HIDS
100
AcDbLine
 10
711.6482695017438
 20
291.4467430737993
 30
0.0
 11
711.6482695017438
 21
281.5167383921523
 31
0.0
  0
LINE
  5
13E3
330
2
100
AcDbEntity
  8
HIDS
100
AcDbLine
 10
706.4651348785709
 20
297.1967430737993
 30
0.0
 11
713.6482695017438
 21
297.1967430737993
 31
0.0
  0
LINE
  5
13E4
330
2
100
AcDbEntity
  8
0
100
AcDbLine
 10
705.4212502411063
 20
292.9467430737993
 30
0.0
 11
713.7192110903677
 21
292.9467430737993
 31
0.0
  0
LINE
  5
13E5
330
2
100
AcDbEntity
  8
0
100
AcDbLine
 10
705.4212502411063
 20
291.4467430737993
 30
0.0
 11
713.7192110903677
 21
291.4467430737993
 31
0.0
  0
LINE
  5
13E6
330
2
100
AcDbEntity
  8
HIDS
100
AcDbLine
 10
712.1482695017438
 20
297.1967430737993
 30
0.0
 11
712.1482695017438
 21
292.9467430737993
 31
0.0
  0
LINE
  5
13E7
330
2
100
AcDbEntity
  8
HIDS
100
AcDbLine
 10
707.1482695017437
 20
297.1967430737993
 30
0.0
 11
707.1482695017437
 21
292.9467430737993
 31
0.0
  0
LINE
  5
13E8
330
2
100
AcDbEntity
  8
HIDS
100
AcDbLine
 10
712.6286542594733
 20
301.1967430737994
 30
0.0
 11
709.337884432446
 21
301.1967430737994
 31
0.0
  0
LINE
  5
13E9
330
2
100
AcDbEntity
  8
0
100
AcDbLine
 10
706.1482695017438
 20
300.8967430737992
 30
0.0
 11
709.0243202903901
 21
300.8967430737992
 31
0.0
  0
LINE
  5
13EA
330
2
100
AcDbEntity
  8
0
100
AcDbLine
 10
706.1482695017438
 20
297.1967430737993
 30
0.0
 11
706.4651348785709
 21
297.1967430737993
 31
0.0
  0
LINE
  5
13EB
330
2
100
AcDbEntity
  8
0
100
AcDbLine
 10
706.1482695017438
 20
300.8967430737992
 30
0.0
 11
706.6678847440142
 21
301.1967430737994
 31
0.0
  0
LINE
  5
13EC
330
2
100
AcDbEntity
  8
0
100
AcDbLine
 10
706.1482695017438
 20
300.8967430737992
 30
0.0
 11
706.1482695017438
 21
297.1967430737993
 31
0.0
  0
LINE
  5
13ED
330
2
100
AcDbEntity
  8
HIDS
100
AcDbLine
 10
712.6286542594733
 20
301.1967430737994
 30
0.0
 11
713.1482695017438
 21
300.8967430737992
 31
0.0
  0
LINE
  5
13EE
330
2
100
AcDbEntity
  8
HIDS
100
AcDbLine
 10
713.1482695017438
 20
297.1967430737993
 30
0.0
 11
713.1482695017438
 21
300.8967430737992
 31
0.0
  0
LINE
  5
13EF
330
2
100
AcDbEntity
  8
HIDS
100
AcDbLine
 10
709.0243202903901
 20
300.8967430737992
 30
0.0
 11
713.1482695017438
 21
300.8967430737992
 31
0.0
  0
LINE
  5
13F0
330
2
100
AcDbEntity
  8
0
100
AcDbLine
 10
709.337884432446
 20
301.1967430737994
 30
0.0
 11
706.6678847440142
 21
301.1967430737994
 31
0.0
  0
LINE
  5
13F1
330
2
100
AcDbEntity
  8
HIDS
100
AcDbLine
 10
706.4651348785709
 20
297.1967430737993
 30
0.0
 11
713.1482695017438
 21
297.1967430737993
 31
0.0
  0
LINE
  5
13F2
330
2
100
AcDbEntity
  8
HIDS
100
AcDbLine
 10
707.6482695017438
 20
297.1967430737993
 30
0.0
 11
707.6482695017438
 21
292.9467430737993
 31
0.0
  0
LINE
  5
13F3
330
2
100
AcDbEntity
  8
HIDS
100
AcDbLine
 10
711.6482695017438
 20
297.1967430737993
 30
0.0
 11
711.6482695017438
 21
292.9467430737993
 31
0.0
  0
LINE
  5
13F4
330
2
100
AcDbEntity
  8
HIDS
100
AcDbLine
 10
711.6482695017438
 20
297.1967430737993
 30
0.0
 11
711.3149361684098
 21
295.5300764071333
 31
0.0
  0
LINE
  5
13F5
330
2
100
AcDbEntity
  8
HIDS
100
AcDbLine
 10
707.6482695017438
 20
297.1967430737993
 30
0.0
 11
707.9816028350768
 21
295.5300764071333
 31
0.0
  0
LINE
  5
13F6
330
2
100
AcDbEntity
  8
0
100
AcDbLine
 10
708.448269501743
 20
282.1967430737993
 30
0.0
 11
710.5727836527002
 21
282.1967430737993
 31
0.0
  0
LINE
  5
13F7
330
2
100
AcDbEntity
  8
0
100
AcDbLine
 10
707.6482695017438
 20
282.9967430737995
 30
0.0
 11
709.5598518567402
 21
282.9967430737995
 31
0.0
  0
LINE
  5
13F8
330
2
100
AcDbEntity
  8
HIDS
100
AcDbLine
 10
711.6482695017438
 20
295.5300764071333
 30
0.0
 11
707.6482695017438
 21
295.5300764071333
 31
0.0
  0
LINE
  5
13F9
330
2
100
AcDbEntity
  8
HIDS
100
AcDbLine
 10
707.9816028350768
 20
295.5300764071333
 30
0.0
 11
707.9816028350768
 21
292.9467430737993
 31
0.0
  0
LINE
  5
13FA
330
2
100
AcDbEntity
  8
0
100
AcDbLine
 10
707.6482695017438
 20
282.9967430737995
 30
0.0
 11
708.448269501743
 21
282.1967430737993
 31
0.0
  0
LINE
  5
13FB
330
2
100
AcDbEntity
  8
HIDS
100
AcDbLine
 10
711.3149361684098
 20
295.5300764071333
 30
0.0
 11
711.3149361684098
 21
292.9467430737993
 31
0.0
  0
LINE
  5
13FC
330
2
100
AcDbEntity
  8
HIDS
100
AcDbLine
 10
711.6482695017438
 20
282.9967430737995
 30
0.0
 11
709.6482695017438
 21
282.9967430737995
 31
0.0
  0
LINE
  5
13FD
330
2
100
AcDbEntity
  8
0
100
AcDbLine
 10
710.8482695017436
 20
282.1967430737993
 30
0.0
 11
710.5727836527002
 21
282.1967430737993
 31
0.0
  0
LINE
  5
13FE
330
2
100
AcDbEntity
  8
HIDS
100
AcDbLine
 10
711.6482695017438
 20
282.9967430737995
 30
0.0
 11
710.8482695017436
 21
282.1967430737993
 31
0.0
  0
LINE
  5
13FF
330
2
100
AcDbEntity
  8
0
100
AcDbLine
 10
711.6482695017438
 20
292.9467430737993
 30
0.0
 11
711.6482695017438
 21
291.4467430737993
 31
0.0
  0
LINE
  5
1400
330
2
100
AcDbEntity
  8
HOJO
100
AcDbLine
 10
711.3149361684098
 20
292.9467430737993
 30
0.0
 11
711.3149361684098
 21
291.4467430737993
 31
0.0
  0
LINE
  5
1401
330
2
100
AcDbEntity
  8
HOJO
100
AcDbLine
 10
707.9816028350768
 20
292.9467430737993
 30
0.0
 11
707.9816028350768
 21
291.4467430737993
 31
0.0
  0
LINE
  5
1402
330
2
100
AcDbEntity
  8
0
100
AcDbLine
 10
707.6482695017438
 20
292.9467430737993
 30
0.0
 11
707.6482695017438
 21
291.4467430737993
 31
0.0
  0
LINE
  5
1403
330
2
100
AcDbEntity
  8
HIDS
100
AcDbLine
 10
707.9816028350768
 20
291.4467430737993
 30
0.0
 11
707.9816028350768
 21
284.6722460437275
 31
0.0
  0
LINE
  5
1404
330
2
100
AcDbEntity
  8
HIDS
100
AcDbLine
 10
707.6482695017438
 20
291.4467430737993
 30
0.0
 11
707.6482695017438
 21
285.1212572247566
 31
0.0
  0
LINE
  5
1405
330
2
100
AcDbEntity
  8
HIDS
100
AcDbLine
 10
711.3149361684098
 20
291.4467430737993
 30
0.0
 11
711.3149361684098
 21
282.6634097404665
 31
0.0
  0
LINE
  5
1406
330
2
100
AcDbEntity
  8
HIDS
100
AcDbLine
 10
711.6482695017438
 20
291.4467430737993
 30
0.0
 11
711.6482695017438
 21
282.9967430737995
 31
0.0
  0
LINE
  5
1407
330
2
100
AcDbEntity
  8
0
100
AcDbLine
 10
709.5598518567402
 20
282.9967430737995
 30
0.0
 11
709.6482695017438
 21
282.9967430737995
 31
0.0
  0
LINE
  5
1408
330
2
100
AcDbEntity
  8
HOJO
100
AcDbLine
 10
707.9816028350768
 20
284.6722460437275
 30
0.0
 11
707.9816028350768
 21
282.6634097404665
 31
0.0
  0
LINE
  5
1409
330
2
100
AcDbEntity
  8
0
100
AcDbLine
 10
707.6482695017438
 20
285.1212572247566
 30
0.0
 11
707.6482695017438
 21
282.9967430737995
 31
0.0
  0
LINE
  5
140A
330
2
100
AcDbEntity
  8
0
100
AcDbLine
 10
578.824499479895
 20
322.2684044612772
 30
0.0
 11
568.82602252833
 21
322.4429285256495
 31
0.0
  0
ARC
  5
140B
330
2
100
AcDbEntity
  8
0
100
AcDbCircle
 10
568.7562129025808
 20
318.4435377450238
 30
0.0
 40
3.999999999999995
100
AcDbArc
 50
89.0000000000243
 51
178.9999999999982
  0
LINE
  5
140C
330
2
100
AcDbEntity
  8
0
100
AcDbLine
 10
564.7568221219561
 20
318.5133473707731
 30
0.0
 11
582.7540806347713
 21
318.1992040549023
 31
0.0
  0
LINE
  5
140D
330
2
100
AcDbEntity
  8
0
100
AcDbLine
 10
582.7540806347713
 20
318.1992040549023
 30
0.0
 11
582.7540806347713
 21
318.1992040549023
 31
0.0
  0
ARC
  5
140E
330
2
100
AcDbEntity
  8
0
100
AcDbCircle
 10
578.7546898541457
 20
318.2690136806516
 30
0.0
 40
3.999999999999995
100
AcDbArc
 50
358.9999999999982
 51
89.0000000000243
  0
CIRCLE
  5
140F
330
2
100
AcDbEntity
  8
0
100
AcDbCircle
 10
573.8951131819193
 20
477.1504266479963
 30
0.0
 40
8.858967452849583
  0
LINE
  5
1410
330
2
100
AcDbEntity
  8
0
100
AcDbLine
 10
718.6482695017438
 20
318.1967430737993
 30
0.0
 11
718.6482695017438
 21
318.1967430737993
 31
0.0
  0
LINE
  5
1411
330
2
100
AcDbEntity
  8
CENTER
  6
CENS
100
AcDbLine
 10
565.8950702715418
 20
460.7551924833754
 30
0.0
 11
542.8951131819193
 21
460.7551924833754
 31
0.0
  0
LINE
  5
1412
330
2
100
AcDbEntity
  8
CENTER
  6
CENS
100
AcDbLine
 10
565.8950702715418
 20
509.545660812618
 30
0.0
 11
542.8951131819193
 21
509.545660812618
 31
0.0
  0
LINE
  5
1413
330
2
100
AcDbEntity
  8
CENTER
  6
CENS
100
AcDbLine
 10
565.8950702715436
 20
316.5919772384198
 30
0.0
 11
542.8951131819211
 21
316.5919772384198
 31
0.0
  0
LINE
  5
1414
330
2
100
AcDbEntity
  8
CENTER
  6
CENS
100
AcDbLine
 10
565.8950702715436
 20
267.8015089091762
 30
0.0
 11
542.8951131819211
 21
267.8015089091762
 31
0.0
  0
LINE
  5
1415
330
2
100
AcDbEntity
  8
CENTER
100
AcDbLine
 10
733.5582219262204
 20
311.1066456504966
 30
0.0
 11
733.5582219262204
 21
305.1066456504966
 31
0.0
  0
CIRCLE
  5
1416
330
2
100
AcDbEntity
  8
HOJO
100
AcDbCircle
 10
733.5582219262204
 20
308.1066491826994
 30
0.0
 40
1.5
  0
CIRCLE
  5
1417
330
2
100
AcDbEntity
  8
0
100
AcDbCircle
 10
733.5582219262204
 20
308.1066491826994
 30
0.0
 40
1.25
  0
CIRCLE
  5
1418
330
2
100
AcDbEntity
  8
CENTER
100
AcDbCircle
 10
717.6482695017429
 20
292.1967430737993
 30
0.0
 40
22.50003524773091
  0
LINE
  5
1419
330
2
100
AcDbEntity
  8
CENTER
100
AcDbLine
 10
730.5582219262204
 20
308.1066456504966
 30
0.0
 11
736.5582219262204
 21
308.1066456504966
 31
0.0
  0
LINE
  5
141A
330
2
100
AcDbEntity
  8
CENTER
100
AcDbLine
 10
701.7383669250456
 20
305.1066990305114
 30
0.0
 11
701.7383669250456
 21
311.1066990305114
 31
0.0
  0
CIRCLE
  5
141B
330
2
100
AcDbEntity
  8
HOJO
100
AcDbCircle
 10
701.7383669250456
 20
308.1068234089878
 30
0.0
 40
1.5
  0
CIRCLE
  5
141C
330
2
100
AcDbEntity
  8
0
100
AcDbCircle
 10
701.7383669250456
 20
308.1068234089878
 30
0.0
 40
1.25
  0
LINE
  5
141D
330
2
100
AcDbEntity
  8
CENTER
100
AcDbLine
 10
698.7383669250456
 20
308.1066990305115
 30
0.0
 11
704.7383669250456
 21
308.1066990305115
 31
0.0
  0
LINE
  5
141E
330
2
100
AcDbEntity
  8
CENTER
100
AcDbLine
 10
704.7383669250456
 20
276.2869613433074
 30
0.0
 11
698.7383669250456
 21
276.2869613433074
 31
0.0
  0
CIRCLE
  5
141F
330
2
100
AcDbEntity
  8
HOJO
100
AcDbCircle
 10
701.7383669250456
 20
276.2868404971021
 30
0.0
 40
1.5
  0
CIRCLE
  5
1420
330
2
100
AcDbEntity
  8
0
100
AcDbCircle
 10
701.7383669250456
 20
276.2868404971021
 30
0.0
 40
1.25
  0
LINE
  5
1421
330
2
100
AcDbEntity
  8
CENTER
100
AcDbLine
 10
701.7383669250456
 20
273.2869613433074
 30
0.0
 11
701.7383669250456
 21
279.2869613433075
 31
0.0
  0
LINE
  5
1422
330
2
100
AcDbEntity
  8
CENTER
100
AcDbLine
 10
733.5581720784402
 20
279.2868404971021
 30
0.0
 11
733.5581720784402
 21
273.2868404971021
 31
0.0
  0
CIRCLE
  5
1423
330
2
100
AcDbEntity
  8
0
100
AcDbCircle
 10
733.5581720784402
 20
276.2868404971021
 30
0.0
 40
1.25
  0
CIRCLE
  5
1424
330
2
100
AcDbEntity
  8
HOJO
100
AcDbCircle
 10
733.5581720784402
 20
276.2868404971021
 30
0.0
 40
1.5
  0
LINE
  5
1425
330
2
100
AcDbEntity
  8
CENTER
100
AcDbLine
 10
736.5581720784401
 20
276.2868404971021
 30
0.0
 11
730.5581720784402
 21
276.2868404971021
 31
0.0
  0
LINE
  5
1427
330
2
100
AcDbEntity
  8
0
100
AcDbLine
 10
704.7732695017429
 20
322.4429285256508
 30
0.0
 11
714.5232695017429
 21
322.4429285256508
 31
0.0
  0
ARC
  5
1428
330
2
100
AcDbEntity
  8
0
100
AcDbCircle
 10
704.7732695017429
 20
318.1929285256508
 30
0.0
 40
4.25
100
AcDbArc
 50
90.0
 51
179.948574696702
  0
ARC
  5
1429
330
2
100
AcDbEntity
  8
0
100
AcDbCircle
 10
714.2732695017429
 20
318.1929285256508
 30
0.0
 40
4.25
100
AcDbArc
 50
0.0
 51
90.0
  0
LINE
  5
142A
330
2
100
AcDbEntity
  8
CENTER
  6
CENS
100
AcDbLine
 10
58.86246371466166
 20
327.6236102563046
 30
0.0
 11
58.86246371466166
 21
305.5693495897024
 31
0.0
  0
LINE
  5
142B
330
2
100
AcDbEntity
  8
0
100
AcDbLine
 10
46.86246371466165
 20
312.196743073798
 30
0.0
 11
46.86246371466165
 21
272.196743073798
 31
0.0
  0
LINE
  5
142C
330
2
100
AcDbEntity
  8
0
100
AcDbLine
 10
71.86250662503915
 20
318.5807552490626
 30
0.0
 11
51.82755890178611
 21
318.23104393572
 31
0.0
  0
ARC
  5
142D
330
2
100
AcDbEntity
  8
0
100
AcDbCircle
 10
51.86246371466165
 20
316.2313485454063
 30
0.0
 40
2.0
100
AcDbArc
 50
90.99999999997569
 51
180.0
  0
ARC
  5
142E
330
2
100
AcDbEntity
  8
0
100
AcDbCircle
 10
47.86246371466165
 20
314.2145027948139
 30
0.0
 40
2.0
100
AcDbArc
 50
270.9999999999757
 51
0.0
  0
LINE
  5
142F
330
2
100
AcDbEntity
  8
0
100
AcDbLine
 10
46.86246371466165
 20
312.196743073798
 30
0.0
 11
47.89736852753537
 21
312.214807404501
 31
0.0
  0
LINE
  5
1430
330
2
100
AcDbEntity
  8
0
100
AcDbLine
 10
49.86246371466165
 20
316.2313485454063
 30
0.0
 11
49.86246371466165
 21
268.1621376021897
 31
0.0
  0
LINE
  5
1431
330
2
100
AcDbEntity
  8
0
100
AcDbLine
 10
84.86246371466165
 20
320.1967430712132
 30
0.0
 11
77.85378008954046
 21
320.1355792158295
 31
0.0
  0
LINE
  5
1432
330
2
100
AcDbEntity
  8
0
100
AcDbLine
 10
84.86246371466165
 20
264.1967430763827
 30
0.0
 11
77.85373717638629
 21
264.2579073062636
 31
0.0
  0
LINE
  5
1433
330
2
100
AcDbEntity
  8
0
100
AcDbLine
 10
71.86250662503915
 20
265.8127308985334
 30
0.0
 11
51.82755890178611
 21
266.162442211876
 31
0.0
  0
ARC
  5
1434
330
2
100
AcDbEntity
  8
0
100
AcDbCircle
 10
51.86246371466165
 20
268.1621376021897
 30
0.0
 40
2.0
100
AcDbArc
 50
180.0
 51
269.0000000000242
  0
ARC
  5
1435
330
2
100
AcDbEntity
  8
0
100
AcDbCircle
 10
47.86246371466165
 20
270.1789833527821
 30
0.0
 40
2.0
100
AcDbArc
 50
0.0
 51
89.0000000000243
  0
LINE
  5
1436
330
2
100
AcDbEntity
  8
0
100
AcDbLine
 10
46.86246371466165
 20
272.196743073798
 30
0.0
 11
47.89736852753537
 21
272.1786787430949
 31
0.0
  0
ARC
  5
1437
330
2
100
AcDbEntity
  8
0
100
AcDbCircle
 10
77.86250662503824
 20
319.1356172927656
 30
0.0
 40
1.0
100
AcDbArc
 50
90.49999999996549
 51
180.0
  0
ARC
  5
1438
330
2
100
AcDbEntity
  8
0
100
AcDbCircle
 10
75.26724972352929
 20
320.6404899169986
 30
0.0
 40
2.0
100
AcDbArc
 50
322.904229126944
 51
329.8924849549449
  0
ARC
  5
1439
330
2
100
AcDbEntity
  8
0
100
AcDbCircle
 10
77.86250662503824
 20
265.2578688548304
 30
0.0
 40
1.0
100
AcDbArc
 50
180.0
 51
269.5000000000345
  0
ARC
  5
143A
330
2
100
AcDbEntity
  8
0
100
AcDbCircle
 10
75.26724972352929
 20
263.7529962305973
 30
0.0
 40
2.0
100
AcDbArc
 50
30.1075150449967
 51
37.09577087305602
  0
LINE
  5
143B
330
2
100
AcDbEntity
  8
0
100
AcDbLine
 10
75.86250662503914
 20
320.0919772384198
 30
0.0
 11
76.86250662503915
 21
320.0919772384198
 31
0.0
  0
LINE
  5
143C
330
2
100
AcDbEntity
  8
0
100
AcDbLine
 10
76.86250662503915
 20
320.0919772384198
 30
0.0
 11
76.86250662503915
 21
313.0919772384198
 31
0.0
  0
LINE
  5
143D
330
2
100
AcDbEntity
  8
0
100
AcDbLine
 10
76.86250662503915
 20
313.0919772384198
 30
0.0
 11
75.86250662503914
 21
313.0919772384198
 31
0.0
  0
LINE
  5
143E
330
2
100
AcDbEntity
  8
0
100
AcDbLine
 10
75.86250662503914
 20
313.0919772384198
 30
0.0
 11
75.86250662503914
 21
320.0919772384198
 31
0.0
  0
LINE
  5
143F
330
2
100
AcDbEntity
  8
0
100
AcDbLine
 10
71.86250662503915
 20
319.5723619961484
 30
0.0
 11
71.86250662503915
 21
313.6115924806902
 31
0.0
  0
LINE
  5
1440
330
2
100
AcDbEntity
  8
0
100
AcDbLine
 10
72.16250662503933
 20
313.0919772384198
 30
0.0
 11
72.16250662503933
 21
320.0919772384198
 31
0.0
  0
LINE
  5
1441
330
2
100
AcDbEntity
  8
0
100
AcDbLine
 10
72.16250662503933
 20
313.0919772384198
 30
0.0
 11
75.86250662503914
 21
313.0919772384198
 31
0.0
  0
LINE
  5
1442
330
2
100
AcDbEntity
  8
0
100
AcDbLine
 10
72.16250662503933
 20
313.0919772384198
 30
0.0
 11
71.86250662503915
 21
313.6115924806902
 31
0.0
  0
LINE
  5
1443
330
2
100
AcDbEntity
  8
0
100
AcDbLine
 10
71.86250662503915
 20
319.5723619961484
 30
0.0
 11
72.16250662503933
 21
320.0919772384198
 31
0.0
  0
LINE
  5
1444
330
2
100
AcDbEntity
  8
0
100
AcDbLine
 10
75.86250662503914
 20
320.0919772384198
 30
0.0
 11
72.16250662503933
 21
320.0919772384198
 31
0.0
  0
LINE
  5
1445
330
2
100
AcDbEntity
  8
0
100
AcDbLine
 10
75.86250662503914
 20
264.3015089091762
 30
0.0
 11
76.86250662503915
 21
264.3015089091762
 31
0.0
  0
LINE
  5
1446
330
2
100
AcDbEntity
  8
0
100
AcDbLine
 10
76.86250662503915
 20
271.3015089091762
 30
0.0
 11
75.86250662503914
 21
271.3015089091762
 31
0.0
  0
LINE
  5
1447
330
2
100
AcDbEntity
  8
0
100
AcDbLine
 10
75.86250662503914
 20
271.3015089091762
 30
0.0
 11
75.86250662503914
 21
264.3015089091762
 31
0.0
  0
LINE
  5
1448
330
2
100
AcDbEntity
  8
0
100
AcDbLine
 10
71.86250662503915
 20
264.8211241514475
 30
0.0
 11
71.86250662503915
 21
270.7818936669057
 31
0.0
  0
LINE
  5
1449
330
2
100
AcDbEntity
  8
0
100
AcDbLine
 10
72.16250662503933
 20
271.3015089091762
 30
0.0
 11
72.16250662503933
 21
264.3015089091762
 31
0.0
  0
LINE
  5
144A
330
2
100
AcDbEntity
  8
0
100
AcDbLine
 10
72.16250662503933
 20
271.3015089091762
 30
0.0
 11
75.86250662503914
 21
271.3015089091762
 31
0.0
  0
LINE
  5
144B
330
2
100
AcDbEntity
  8
0
100
AcDbLine
 10
72.16250662503933
 20
271.3015089091762
 30
0.0
 11
71.86250662503915
 21
270.7818936669057
 31
0.0
  0
LINE
  5
144C
330
2
100
AcDbEntity
  8
0
100
AcDbLine
 10
71.86250662503915
 20
264.8211241514475
 30
0.0
 11
72.16250662503933
 21
264.3015089091762
 31
0.0
  0
LINE
  5
144D
330
2
100
AcDbEntity
  8
0
100
AcDbLine
 10
75.86250662503914
 20
264.3015089091762
 30
0.0
 11
72.16250662503933
 21
264.3015089091762
 31
0.0
  0
LINE
  5
144E
330
2
100
AcDbEntity
  8
0
100
AcDbLine
 10
76.86250662503915
 20
264.3015089091762
 30
0.0
 11
76.86250662503915
 21
271.3015089091762
 31
0.0
  0
LINE
  5
144F
330
2
100
AcDbEntity
  8
0
100
AcDbLine
 10
76.86250662503823
 20
265.2578688548304
 30
0.0
 11
76.86250662503823
 21
319.1356172927656
 31
0.0
  0
LINE
  5
1450
330
2
100
AcDbEntity
  8
0
100
AcDbLine
 10
53.93307741668775
 20
322.2684044612772
 30
0.0
 11
63.93155436825271
 21
322.4429285256495
 31
0.0
  0
ARC
  5
1451
330
2
100
AcDbEntity
  8
0
100
AcDbCircle
 10
64.00136399400196
 20
318.4435377450238
 30
0.0
 40
3.999999999999995
100
AcDbArc
 50
1.000000000001775
 51
90.99999999997569
  0
LINE
  5
1452
330
2
100
AcDbEntity
  8
0
100
AcDbLine
 10
68.00075477462667
 20
318.5133473707731
 30
0.0
 11
50.00349626181139
 21
318.1992040549023
 31
0.0
  0
LINE
  5
1453
330
2
100
AcDbEntity
  8
0
100
AcDbLine
 10
50.00349626181139
 20
318.1992040549023
 30
0.0
 11
50.00349626181139
 21
318.1992040549023
 31
0.0
  0
ARC
  5
1454
330
2
100
AcDbEntity
  8
0
100
AcDbCircle
 10
54.00288704243701
 20
318.2690136806516
 30
0.0
 40
3.999999999999995
100
AcDbArc
 50
90.99999999997569
 51
181.0000000000017
  0
LINE
  5
1455
330
2
100
AcDbEntity
  8
0
100
AcDbLine
 10
75.86250662503823
 20
272.0721312763001
 30
0.0
 11
50.86341563969051
 21
272.2902950382179
 31
0.0
  0
LINE
  5
1456
330
2
100
AcDbEntity
  8
CENTER
  6
CENS
100
AcDbLine
 10
66.86250662503915
 20
316.5919772384198
 30
0.0
 11
89.86246371466165
 21
316.5919772384198
 31
0.0
  0
LINE
  5
1457
330
2
100
AcDbEntity
  8
CENTER
  6
CENS
100
AcDbLine
 10
66.86250662503915
 20
267.8015089091762
 30
0.0
 11
89.86246371466165
 21
267.8015089091762
 31
0.0
  0
LINE
  5
1458
330
2
100
AcDbEntity
  8
0
100
AcDbLine
 10
556.8950702715445
 20
312.3213548712959
 30
0.0
 11
581.8941612568923
 21
312.103191109378
 31
0.0
  0
CIRCLE
  5
1C2E
330
2
100
AcDbEntity
  8
0
100
AcDbCircle
 10
456.0951127209494
 20
292.196743073798
 30
0.0
 40
19.5774
  0
ARC
  5
1C33
330
2
100
AcDbEntity
  8
0
100
AcDbCircle
 10
518.0688559608072
 20
459.1504266479963
 30
0.0
 40
2.0
100
AcDbArc
 50
270.0
 51
359.5000000000105
  0
ENDSEC
  0
SECTION
  2
OBJECTS
  0
DICTIONARY
  5
7
330
0
100
AcDbDictionary
  3
ACAD_COLOR
350
1A59
  3
ACAD_GROUP
350
75
  3
ACAD_LAYOUT
350
61
  3
ACAD_MATERIAL
350
1A2F
  3
ACAD_MLEADERSTYLE
350
1A7E
  3
ACAD_MLINESTYLE
350
76
  3
ACAD_PLOTSETTINGS
350
77
  3
ACAD_PLOTSTYLENAME
350
6
  3
ACAD_SCALELIST
350
1A5C
  3
ACAD_TABLESTYLE
350
1A5A
  3
ACAD_VISUALSTYLE
350
1A48
  3
ACADDIM
350
480
  3
ACDB_RECOMPOSE_DATA
350
1ADF
  3
ACDBHEADERROUNDTRIPXREC
350
1C78
  3
ACDBVARIABLEDICTIONARY
350
102
  3
DWGPROPS
350
1C41
  0
DICTIONARY
  5
1AE8
330
6E
100
AcDbDictionary
280
     1
  3
ACAD_XREC_ROUNDTRIP
360
1C49
  0
DICTIONARY
  5
B10
330
66
100
AcDbDictionary
280
     1
  3
ACAD_LAYERSTATES
360
B11
  0
DICTIONARY
  5
1A8C
330
5E
100
AcDbDictionary
280
     1
  3
ACAD_XREC_ROUNDTRIP
360
1C44
  3
ADSK_XREC_LAYER_RECONCILED
360
1A8D
  0
DICTIONARY
  5
1A8E
330
3E
100
AcDbDictionary
280
     1
  3
ACAD_XREC_ROUNDTRIP
360
1C43
  3
ADSK_XREC_LAYER_RECONCILED
360
1A8F
  0
DICTIONARY
  5
1A94
330
2B5
100
AcDbDictionary
280
     1
  3
ACAD_XREC_ROUNDTRIP
360
1C4F
  3
ADSK_XREC_LAYER_RECONCILED
360
1A95
  0
DICTIONARY
  5
1A96
330
2BA
100
AcDbDictionary
280
     1
  3
ACAD_XREC_ROUNDTRIP
360
1C50
  3
ADSK_XREC_LAYER_RECONCILED
360
1A97
  0
DICTIONARY
  5
1A9A
330
478
100
AcDbDictionary
280
     1
  3
ACAD_XREC_ROUNDTRIP
360
1C52
  3
ADSK_XREC_LAYER_RECONCILED
360
1A9B
  0
DICTIONARY
  5
1C39
330
1C38
100
AcDbDictionary
280
     1
  3
ACAD_XREC_ROUNDTRIP
360
1C5F
  0
DICTIONARY
  5
1C99
330
2
100
AcDbDictionary
280
     1
  3
ACAD_LAYOUTSELFREF
360
1C9A
  0
DICTIONARY
  5
1C9B
330
1C72
100
AcDbDictionary
280
     1
  3
ACAD_LAYOUTSELFREF
360
1C9C
  0
DICTIONARY
  5
1A59
102
{ACAD_REACTORS
330
7
102
}
330
7
100
AcDbDictionary
  0
DICTIONARY
  5
75
102
{ACAD_REACTORS
330
7
102
}
330
7
100
AcDbDictionary
  0
DICTIONARY
  5
61
102
{ACAD_REACTORS
330
7
102
}
330
7
100
AcDbDictionary
  0
DICTIONARY
  5
1A2F
102
{ACAD_REACTORS
330
7
102
}
330
7
100
AcDbDictionary
  3
BYBLOCK
350
1A38
  3
BYLAYER
350
1A30
  3
GLOBAL
350
1A40
  0
DICTIONARY
  5
1A7E
102
{ACAD_REACTORS
330
7
102
}
330
7
100
AcDbDictionary
  3
STANDARD
350
1A7F
  0
DICTIONARY
  5
76
102
{ACAD_REACTORS
330
7
102
}
330
7
100
AcDbDictionary
  3
STANDARD
350
78
  0
DICTIONARY
  5
77
102
{ACAD_REACTORS
330
7
102
}
330
7
100
AcDbDictionary
  0
ACDBDICTIONARYWDFLT
  5
6
102
{ACAD_REACTORS
330
7
102
}
330
7
100
AcDbDictionary
281
     1
  3
Normal
350
5
100
AcDbDictionaryWithDefault
340
5
  0
DICTIONARY
  5
1A5C
102
{ACAD_REACTORS
330
7
102
}
330
7
100
AcDbDictionary
  3
A0
350
1A5D
  3
A1
350
1A5E
  3
A2
350
1A5F
  3
A3
350
1A60
  3
A4
350
1A61
  3
A5
350
1A62
  3
A6
350
1A63
  3
A7
350
1A64
  3
A8
350
1A65
  3
A9
350
1A66
  3
B0
350
1A67
  3
B1
350
1A68
  3
B2
350
1A69
  3
B3
350
1A6A
  3
B4
350
1A6B
  3
B5
350
1A6C
  3
B6
350
1A6D
  3
B7
350
1A6E
  3
B8
350
1A6F
  3
B9
350
1A70
  3
C0
350
1A71
  3
C1
350
1A72
  3
C2
350
1A73
  3
C3
350
1A74
  3
C4
350
1A75
  3
C5
350
1A76
  3
C6
350
1A77
  3
C7
350
1A78
  3
C8
350
1A79
  3
C9
350
1A7A
  3
D0
350
1A7B
  3
D1
350
1A7C
  3
D2
350
1A7D
  0
DICTIONARY
  5
1A5A
102
{ACAD_REACTORS
330
7
102
}
330
7
100
AcDbDictionary
  3
STANDARD
350
1A5B
  0
DICTIONARY
  5
1A48
102
{ACAD_REACTORS
330
7
102
}
330
7
100
AcDbDictionary
  3
2DWIREFRAME
350
1A4E
  3
3D_HIDDEN
350
1A50
  3
3DWIREFRAME
350
1A4F
  3
BASIC
350
1A4D
  3
BRIGHTEN
350
1A54
  3
COLORCHANGE
350
1A58
  3
CONCEPTUAL
350
1A51
  3
DIM
350
1A53
  3
FACEPATTERN
350
1A57
  3
FLAT
350
1A49
  3
FLATWITHEDGES
350
1A4A
  3
GOURAUD
350
1A4B
  3
GOURAUDWITHEDGES
350
1A4C
  3
LINEPATTERN
350
1A56
  3
REALISTIC
350
1A52
  3
THICKEN
350
1A55
  0
XRECORD
  5
480
102
{ACAD_REACTORS
330
7
102
}
330
7
100
AcDbXrecord
 90
   990106
  3

 60
     0
 61
     0
 62
     1
 63
     3
 64
     1
 65
     0
 66
     0
 67
     3
 68
     1
 69
     0
 70
     0
 71
     0
 72
     0
 40
0.0
170
     2
340
0
  0
XRECORD
  5
1ADF
102
{ACAD_REACTORS
330
7
102
}
330
7
100
AcDbXrecord
 90
        1
330
1A5B
  0
DICTIONARY
  5
1C78
102
{ACAD_REACTORS
330
7
102
}
330
7
100
AcDbDictionary
  3
CEPSNTYPE
350
1C82
  3
DIMSTYLEDATA
350
1C86
  3
FINGERPRINTGUID
350
1C83
  3
HYPERLINKBASE
350
1C7B
  3
INSUNITS
350
1C81
  3
LAYOUTDICT
350
1C7D
  3
LWETCUNION
350
1C80
  3
PLOTSETDICT
350
1C7E
  3
PLOTSTYLNAMDICT
350
1C7F
  3
PSVPSCALE
350
1C85
  3
PUCSBASE
350
1C89
  3
PUCSORGBACK
350
1C8F
  3
PUCSORGBOTTOM
350
1C8B
  3
PUCSORGFRONT
350
1C8E
  3
PUCSORGLEFT
350
1C8C
  3
PUCSORGRIGHT
350
1C8D
  3
PUCSORGTOP
350
1C8A
  3
PUCSORTHOREF
350
1C87
  3
PUCSORTHOVIEW
350
1C88
  3
STYLESHEET
350
1C7C
  3
TSTACKALIGN
350
1C79
  3
TSTACKSIZE
350
1C7A
  3
UCSBASE
350
1C92
  3
UCSORGBACK
350
1C98
  3
UCSORGBOTTOM
350
1C94
  3
UCSORGFRONT
350
1C97
  3
UCSORGLEFT
350
1C95
  3
UCSORGRIGHT
350
1C96
  3
UCSORGTOP
350
1C93
  3
UCSORTHOREF
350
1C90
  3
UCSORTHOVIEW
350
1C91
  3
VERSIONGUID
350
1C84
  0
DICTIONARY
  5
102
102
{ACAD_REACTORS
330
7
102
}
330
7
100
AcDbDictionary
  3
CANNOSCALE
350
1B01
  3
CMLEADERSTYLE
350
1B00
  3
CTABLESTYLE
350
1AFF
  3
DIMASSOC
350
103
  3
INDEXCTL
350
1B02
  3
SORTENTS
350
549
  0
XRECORD
  5
1C41
102
{ACAD_REACTORS
330
7
102
}
330
7
100
AcDbXrecord
  1
DWGPROPS COOKIE
  2

  3

  4

  6

  7

  8
ymorima
  9

300
=
301
=
302
=
303
=
304
=
305
=
306
=
307
=
308
=
309
=
 40
0.0119042824074074
 41
2454411.541237881
 42
2454426.365373622
  1

 90
        0
  0
XRECORD
  5
1C49
102
{ACAD_REACTORS
330
1AE8
102
}
330
1AE8
100
AcDbXrecord
102
VTR_0.000_0.000_1.000_1.000_VISUALSTYLE
340
1A4E
102
VTR_0.000_0.000_1.000_1.000_GRIDDISPLAY
 70
     3
102
VTR_0.000_0.000_1.000_1.000_GRIDMAJOR
 70
     5
102
VTR_0.000_0.000_1.000_1.000_DEFAULTLIGHTING
280
     1
102
VTR_0.000_0.000_1.000_1.000_DEFAULTLIGHTINGTYPE
 70
     1
102
VTR_0.000_0.000_1.000_1.000_BRIGHTNESS
141
0.0
102
VTR_0.000_0.000_1.000_1.000_CONTRAST
142
0.0
  0
DICTIONARY
  5
B11
102
{ACAD_REACTORS
330
B10
102
}
330
B10
100
AcDbDictionary
  0
XRECORD
  5
1C44
102
{ACAD_REACTORS
330
1A8C
102
}
330
1A8C
100
AcDbXrecord
102
MATERIAL
340
1A40
  0
XRECORD
  5
1A8D
102
{ACAD_REACTORS
330
1A8C
102
}
330
1A8C
100
AcDbXrecord
290
     1
  0
XRECORD
  5
1C43
102
{ACAD_REACTORS
330
1A8E
102
}
330
1A8E
100
AcDbXrecord
102
MATERIAL
340
1A40
  0
XRECORD
  5
1A8F
102
{ACAD_REACTORS
330
1A8E
102
}
330
1A8E
100
AcDbXrecord
290
     1
  0
XRECORD
  5
1C4F
102
{ACAD_REACTORS
330
1A94
102
}
330
1A94
100
AcDbXrecord
102
MATERIAL
340
1A40
  0
XRECORD
  5
1A95
102
{ACAD_REACTORS
330
1A94
102
}
330
1A94
100
AcDbXrecord
290
     1
  0
XRECORD
  5
1C50
102
{ACAD_REACTORS
330
1A96
102
}
330
1A96
100
AcDbXrecord
102
MATERIAL
340
1A40
  0
XRECORD
  5
1A97
102
{ACAD_REACTORS
330
1A96
102
}
330
1A96
100
AcDbXrecord
290
     1
  0
XRECORD
  5
1C52
102
{ACAD_REACTORS
330
1A9A
102
}
330
1A9A
100
AcDbXrecord
102
MATERIAL
340
1A40
  0
XRECORD
  5
1A9B
102
{ACAD_REACTORS
330
1A9A
102
}
330
1A9A
100
AcDbXrecord
290
     1
  0
XRECORD
  5
1C5F
102
{ACAD_REACTORS
330
1C39
102
}
330
1C39
100
AcDbXrecord
102
MATERIAL
340
1A40
  0
XRECORD
  5
1C9A
102
{ACAD_REACTORS
330
1C99
102
}
330
1C99
100
AcDbXrecord
340
2
  0
XRECORD
  5
1C9C
102
{ACAD_REACTORS
330
1C9B
102
}
330
1C9B
100
AcDbXrecord
340
1C72
  0
ACAD_PROXY_OBJECT
  5
1A38
102
{ACAD_XDICTIONARY
360
1A39
102
}
102
{ACAD_REACTORS
330
1A2F
102
}
330
1A2F
100
AcDbProxyObject
 90
      499
 91
      510
 93
     1340
310
42109E509B1BD8DAC02004014080404555555555555953FAA155555555555654FEA9AA400014080404555555555555953FAA155555555555654FEA9AA400000000000000E03F4080404555555555555953FAA155555555555654FEA9AA4014080404555555555555953FAA155555555555654FEA9AA4010201011555555555
310
55654FEA8555555555555953FAA6A9005020101155555555555654FEA8555555555555953FAA6A9000
 94
        0
1001
ACAD
1000
AcadProxyRoundTripData
1071
      504
1071
   655383
1070
     0
  0
ACAD_PROXY_OBJECT
  5
1A30
102
{ACAD_XDICTIONARY
360
1A31
102
}
102
{ACAD_REACTORS
330
1A2F
102
}
330
1A2F
100
AcDbProxyObject
 90
      499
 91
      510
 93
     1340
310
42109E53185E595C802004014080404555555555555953FAA155555555555654FEA9AA400014080404555555555555953FAA155555555555654FEA9AA400000000000000E03F4080404555555555555953FAA155555555555654FEA9AA4014080404555555555555953FAA155555555555654FEA9AA4010201011555555555
310
55654FEA8555555555555953FAA6A9005020101155555555555654FEA8555555555555953FAA6A9000
 94
        0
1001
ACAD
1000
AcadProxyRoundTripData
1071
      504
1071
   655383
1070
     0
  0
ACAD_PROXY_OBJECT
  5
1A40
102
{ACAD_XDICTIONARY
360
1A41
102
}
102
{ACAD_REACTORS
330
1A2F
102
}
330
1A2F
100
AcDbProxyObject
 90
      499
 91
      510
 93
     1332
310
41D1DB1BD8985B002004014080404555555555555953FAA155555555555654FEA9AA400014080404555555555555953FAA155555555555654FEA9AA400000000000000E03F4080404555555555555953FAA155555555555654FEA9AA4014080404555555555555953FAA155555555555654FEA9AA401020101155555555555
310
654FEA8555555555555953FAA6A9005020101155555555555654FEA8555555555555953FAA6A9000
 94
        0
1001
ACAD
1000
AcadProxyRoundTripData
1071
      504
1071
   655383
1070
     0
  0
ACAD_PROXY_OBJECT
  5
1A7F
102
{ACAD_REACTORS
330
1A7E
102
}
330
1A7E
100
AcDbProxyObject
 90
      499
 91
      510
 93
      618
310
40901902A4063FBFFFFFE056BD1B81E855B9FC0AD7A3703D0AD73F4254DD185B99185C990000AD7A3703D0AC73F90141901A02B5E8DC0F42B1CFC02B5E8DC0F42B1CFE5764000000000000300FC6
340
6A
340
0
340
16
340
0
 94
        0
1001
ACAD_MLEADERVER
1070
     2
1001
ACAD
1000
AcadProxyRoundTripData
1071
      508
1071
   655383
1070
     0
  0
MLINESTYLE
  5
78
102
{ACAD_REACTORS
330
76
102
}
330
76
100
AcDbMlineStyle
  2
STANDARD
 70
     0
  3

 62
     0
 51
90.0
 52
90.0
 71
     2
 49
0.5
 62
   256
  6
BYLAYER
 49
-0.5
 62
   256
  6
BYLAYER
  0
ACDBPLACEHOLDER
  5
5
102
{ACAD_REACTORS
330
6
102
}
330
6
100
AcDbPlaceHolder
280
     0
  0
ACAD_PROXY_OBJECT
  5
1A5D
102
{ACAD_REACTORS
330
1A5C
102
}
330
1A5C
100
AcDbProxyObject
 90
      499
 91
      510
 93
       49
310
904313A3100598
 94
        0
1001
ACAD
1000
AcadProxyRoundTripData
1071
      507
1071
   655383
1070
     0
  0
ACAD_PROXY_OBJECT
  5
1A5E
102
{ACAD_REACTORS
330
1A5C
102
}
330
1A5C
100
AcDbProxyObject
 90
      499
 91
      510
 93
      113
310
904313A3200400000000000000406B
 94
        0
1001
ACAD
1000
AcadProxyRoundTripData
1071
      507
1071
   655383
1070
     0
  0
ACAD_PROXY_OBJECT
  5
1A5F
102
{ACAD_REACTORS
330
1A5C
102
}
330
1A5C
100
AcDbProxyObject
 90
      499
 91
      510
 93
      113
310
904313A3400400000000000010406B
 94
        0
1001
ACAD
1000
AcadProxyRoundTripData
1071
      507
1071
   655383
1070
     0
  0
ACAD_PROXY_OBJECT
  5
1A60
102
{ACAD_REACTORS
330
1A5C
102
}
330
1A5C
100
AcDbProxyObject
 90
      499
 91
      510
 93
      113
310
904313A3500400000000000014406B
 94
        0
1001
ACAD
1000
AcadProxyRoundTripData
1071
      507
1071
   655383
1070
     0
  0
ACAD_PROXY_OBJECT
  5
1A61
102
{ACAD_REACTORS
330
1A5C
102
}
330
1A5C
100
AcDbProxyObject
 90
      499
 91
      510
 93
      113
310
904313A3800400000000000020406B
 94
        0
1001
ACAD
1000
AcadProxyRoundTripData
1071
      507
1071
   655383
1070
     0
  0
ACAD_PROXY_OBJECT
  5
1A62
102
{ACAD_REACTORS
330
1A5C
102
}
330
1A5C
100
AcDbProxyObject
 90
      499
 91
      510
 93
      121
310
905313A3130004000000000000244051
 94
        0
1001
ACAD
1000
AcadProxyRoundTripData
1071
      507
1071
   655383
1070
     0
  0
ACAD_PROXY_OBJECT
  5
1A63
102
{ACAD_REACTORS
330
1A5C
102
}
330
1A5C
100
AcDbProxyObject
 90
      499
 91
      510
 93
      121
310
905313A3136004000000000000304051
 94
        0
1001
ACAD
1000
AcadProxyRoundTripData
1071
      507
1071
   655383
1070
     0
  0
ACAD_PROXY_OBJECT
  5
1A64
102
{ACAD_REACTORS
330
1A5C
102
}
330
1A5C
100
AcDbProxyObject
 90
      499
 91
      510
 93
      121
310
905313A3230004000000000000344051
 94
        0
1001
ACAD
1000
AcadProxyRoundTripData
1071
      507
1071
   655383
1070
     0
  0
ACAD_PROXY_OBJECT
  5
1A65
102
{ACAD_REACTORS
330
1A5C
102
}
330
1A5C
100
AcDbProxyObject
 90
      499
 91
      510
 93
      121
310
905313A33300040000000000003E4051
 94
        0
1001
ACAD
1000
AcadProxyRoundTripData
1071
      507
1071
   655383
1070
     0
  0
ACAD_PROXY_OBJECT
  5
1A66
102
{ACAD_REACTORS
330
1A5C
102
}
330
1A5C
100
AcDbProxyObject
 90
      499
 91
      510
 93
      121
310
905313A3430004000000000000444051
 94
        0
1001
ACAD
1000
AcadProxyRoundTripData
1071
      507
1071
   655383
1070
     0
  0
ACAD_PROXY_OBJECT
  5
1A67
102
{ACAD_REACTORS
330
1A5C
102
}
330
1A5C
100
AcDbProxyObject
 90
      499
 91
      510
 93
      121
310
905313A3530004000000000000494051
 94
        0
1001
ACAD
1000
AcadProxyRoundTripData
1071
      507
1071
   655383
1070
     0
  0
ACAD_PROXY_OBJECT
  5
1A68
102
{ACAD_REACTORS
330
1A5C
102
}
330
1A5C
100
AcDbProxyObject
 90
      499
 91
      510
 93
      129
310
906313A313030004000000000000594038
 94
        0
1001
ACAD
1000
AcadProxyRoundTripData
1071
      507
1071
   655383
1070
     0
  0
ACAD_PROXY_OBJECT
  5
1A69
102
{ACAD_REACTORS
330
1A5C
102
}
330
1A5C
100
AcDbProxyObject
 90
      499
 91
      510
 93
      113
310
904323A31000000000000000010159
 94
        0
1001
ACAD
1000
AcadProxyRoundTripData
1071
      507
1071
   655383
1070
     0
  0
ACAD_PROXY_OBJECT
  5
1A6A
102
{ACAD_REACTORS
330
1A5C
102
}
330
1A5C
100
AcDbProxyObject
 90
      499
 91
      510
 93
      113
310
904343A31000000000000000410159
 94
        0
1001
ACAD
1000
AcadProxyRoundTripData
1071
      507
1071
   655383
1070
     0
  0
ACAD_PROXY_OBJECT
  5
1A6B
102
{ACAD_REACTORS
330
1A5C
102
}
330
1A5C
100
AcDbProxyObject
 90
      499
 91
      510
 93
      113
310
904383A31000000000000000810159
 94
        0
1001
ACAD
1000
AcadProxyRoundTripData
1071
      507
1071
   655383
1070
     0
  0
ACAD_PROXY_OBJECT
  5
1A6C
102
{ACAD_REACTORS
330
1A5C
102
}
330
1A5C
100
AcDbProxyObject
 90
      499
 91
      510
 93
      121
310
90531303A31000000000000000910140
 94
        0
1001
ACAD
1000
AcadProxyRoundTripData
1071
      507
1071
   655383
1070
     0
  0
ACAD_PROXY_OBJECT
  5
1A6D
102
{ACAD_REACTORS
330
1A5C
102
}
330
1A5C
100
AcDbProxyObject
 90
      499
 91
      510
 93
      129
310
9063130303A31000000000000001650138
 94
        0
1001
ACAD
1000
AcadProxyRoundTripData
1071
      507
1071
   655383
1070
     0
  0
ACAD_PROXY_OBJECT
  5
1A6E
102
{ACAD_REACTORS
330
1A5C
102
}
330
1A5C
100
AcDbProxyObject
 90
      499
 91
      510
 93
      265
310
90F312F31323822203D2031272D302200000000000000200FC00000000000028402B
 94
        0
1001
ACAD
1000
AcadProxyRoundTripData
1071
      507
1071
   655383
1070
     0
  0
ACAD_PROXY_OBJECT
  5
1A6F
102
{ACAD_REACTORS
330
1A5C
102
}
330
1A5C
100
AcDbProxyObject
 90
      499
 91
      510
 93
      257
310
90E312F363422203D2031272D302200000000000000240FC000000000000284040
 94
        0
1001
ACAD
1000
AcadProxyRoundTripData
1071
      507
1071
   655383
1070
     0
  0
ACAD_PROXY_OBJECT
  5
1A70
102
{ACAD_REACTORS
330
1A5C
102
}
330
1A5C
100
AcDbProxyObject
 90
      499
 91
      510
 93
      257
310
90E312F333222203D2031272D302200000000000000280FC000000000000284040
 94
        0
1001
ACAD
1000
AcadProxyRoundTripData
1071
      507
1071
   655383
1070
     0
  0
ACAD_PROXY_OBJECT
  5
1A71
102
{ACAD_REACTORS
330
1A5C
102
}
330
1A5C
100
AcDbProxyObject
 90
      499
 91
      510
 93
      257
310
90E312F313622203D2031272D3022000000000000002C0FC000000000000284040
 94
        0
1001
ACAD
1000
AcadProxyRoundTripData
1071
      507
1071
   655383
1070
     0
  0
ACAD_PROXY_OBJECT
  5
1A72
102
{ACAD_REACTORS
330
1A5C
102
}
330
1A5C
100
AcDbProxyObject
 90
      499
 91
      510
 93
      257
310
90E332F333222203D2031272D3022000000000000002E0FC000000000000284040
 94
        0
1001
ACAD
1000
AcadProxyRoundTripData
1071
      507
1071
   655383
1070
     0
  0
ACAD_PROXY_OBJECT
  5
1A73
102
{ACAD_REACTORS
330
1A5C
102
}
330
1A5C
100
AcDbProxyObject
 90
      499
 91
      510
 93
      249
310
90D312F3822203D2031272D302200000000000000300FC000000000000284040
 94
        0
1001
ACAD
1000
AcadProxyRoundTripData
1071
      507
1071
   655383
1070
     0
  0
ACAD_PROXY_OBJECT
  5
1A74
102
{ACAD_REACTORS
330
1A5C
102
}
330
1A5C
100
AcDbProxyObject
 90
      499
 91
      510
 93
      257
310
90E332F313622203D2031272D302200000000000000320FC000000000000284040
 94
        0
1001
ACAD
1000
AcadProxyRoundTripData
1071
      507
1071
   655383
1070
     0
  0
ACAD_PROXY_OBJECT
  5
1A75
102
{ACAD_REACTORS
330
1A5C
102
}
330
1A5C
100
AcDbProxyObject
 90
      499
 91
      510
 93
      249
310
90D312F3422203D2031272D302200000000000000340FC000000000000284040
 94
        0
1001
ACAD
1000
AcadProxyRoundTripData
1071
      507
1071
   655383
1070
     0
  0
ACAD_PROXY_OBJECT
  5
1A76
102
{ACAD_REACTORS
330
1A5C
102
}
330
1A5C
100
AcDbProxyObject
 90
      499
 91
      510
 93
      249
310
90D332F3822203D2031272D302200000000000000360FC000000000000284040
 94
        0
1001
ACAD
1000
AcadProxyRoundTripData
1071
      507
1071
   655383
1070
     0
  0
ACAD_PROXY_OBJECT
  5
1A77
102
{ACAD_REACTORS
330
1A5C
102
}
330
1A5C
100
AcDbProxyObject
 90
      499
 91
      510
 93
      249
310
90D312F3222203D2031272D302200000000000000380FC000000000000284040
 94
        0
1001
ACAD
1000
AcadProxyRoundTripData
1071
      507
1071
   655383
1070
     0
  0
ACAD_PROXY_OBJECT
  5
1A78
102
{ACAD_REACTORS
330
1A5C
102
}
330
1A5C
100
AcDbProxyObject
 90
      499
 91
      510
 93
      249
310
90D332F3422203D2031272D3022000000000000003A0FC000000000000284040
 94
        0
1001
ACAD
1000
AcadProxyRoundTripData
1071
      507
1071
   655383
1070
     0
  0
ACAD_PROXY_OBJECT
  5
1A79
102
{ACAD_REACTORS
330
1A5C
102
}
330
1A5C
100
AcDbProxyObject
 90
      499
 91
      510
 93
      169
310
90B3122203D2031272D3022004000000000000284020
 94
        0
1001
ACAD
1000
AcadProxyRoundTripData
1071
      507
1071
   655383
1070
     0
  0
ACAD_PROXY_OBJECT
  5
1A7A
102
{ACAD_REACTORS
330
1A5C
102
}
330
1A5C
100
AcDbProxyObject
 90
      499
 91
      510
 93
      265
310
90F312D312F3222203D2031272D3022000000000000003E0FC00000000000028402B
 94
        0
1001
ACAD
1000
AcadProxyRoundTripData
1071
      507
1071
   655383
1070
     0
  0
ACAD_PROXY_OBJECT
  5
1A7B
102
{ACAD_REACTORS
330
1A5C
102
}
330
1A5C
100
AcDbProxyObject
 90
      499
 91
      510
 93
      233
310
90B3322203D2031272D30220000000000000002100000000000000284000
 94
        0
1001
ACAD
1000
AcadProxyRoundTripData
1071
      507
1071
   655383
1070
     0
  0
ACAD_PROXY_OBJECT
  5
1A7C
102
{ACAD_REACTORS
330
1A5C
102
}
330
1A5C
100
AcDbProxyObject
 90
      499
 91
      510
 93
      233
310
90B3622203D2031272D30220000000000000006100000000000000284000
 94
        0
1001
ACAD
1000
AcadProxyRoundTripData
1071
      507
1071
   655383
1070
     0
  0
ACAD_PROXY_OBJECT
  5
1A7D
102
{ACAD_REACTORS
330
1A5C
102
}
330
1A5C
100
AcDbProxyObject
 90
      499
 91
      510
 93
      257
310
90E31272D3022203D2031272D3022000000000000000A100000000000000284040
 94
        0
1001
ACAD
1000
AcadProxyRoundTripData
1071
      507
1071
   655383
1070
     0
  0
ACAD_PROXY_OBJECT
  5
1A5B
102
{ACAD_XDICTIONARY
360
1ADD
102
}
102
{ACAD_REACTORS
330
1A5A
102
}
330
1A5A
100
AcDbProxyObject
 90
      499
 91
      510
 93
     1849
310
4254DD185B99185C990028B81E85EB51B8AE3F2E07A17AD46E2B8FC02B5E8DC0F42B1CFD028000000C1008070000C3001FDFF8000000C1003FBFF000000182007F7FE00000030400FEFFC00000060801FDFF8000000C1003FBFF00000018200000000000000681FA0B0000001820100E000186003FBFF000000182007F7FE0
310
0000030400FEFFC00000060801FDFF8000000C1003FBFF000000182007F7FE000000304000AD7A3703D0AC73F4160000003040201C00030C007F7FE00000030400FEFFC00000060801FDFF8000000C1003FBFF000000182007F7FE00000030400FEFFC000000608000
340
16
340
16
340
16
 94
        0
1001
ACAD
1000
AcadProxyRoundTripData
1071
      506
1071
   655383
1070
     0
  0
ACAD_PROXY_OBJECT
  5
1A4E
102
{ACAD_REACTORS
330
1A48
102
}
330
1A48
100
AcDbProxyObject
 90
      499
 91
      510
 93
      444
310
430C9915DA5C99599C985B59401049028333333333333E3BF0000000000000FB0107901411070040501600405405064090741402480A0340
 94
        0
1001
ACAD
1000
AcDbSavedByObjectVersion
1070
     0
1000
AcadProxyRoundTripData
1071
      505
1071
   655383
1070
     0
  0
ACAD_PROXY_OBJECT
  5
1A50
102
{ACAD_REACTORS
330
1A48
102
}
330
1A48
100
AcDbProxyObject
 90
      499
 91
      510
 93
      508
310
428CD108121A5919195B8010640502408333333333333E3BF0000000000000FB01079024090700405020000000000001110200405405064090740C02480A0340
 94
        0
1001
ACAD
1000
AcDbSavedByObjectVersion
1070
     0
1000
AcadProxyRoundTripData
1071
      505
1071
   655383
1070
     0
  0
ACAD_PROXY_OBJECT
  5
1A4F
102
{ACAD_REACTORS
330
1A48
102
}
330
1A48
100
AcDbProxyObject
 90
      499
 91
      510
 93
      444
310
430CD915DA5C99599C985B59401059028333333333333E3BF0000000000000FB0107901411070040501600405405064090741402480A0340
 94
        0
1001
ACAD
1000
AcDbSavedByObjectVersion
1070
     0
1000
AcadProxyRoundTripData
1071
      505
1071
   655383
1070
     0
  0
ACAD_PROXY_OBJECT
  5
1A4D
102
{ACAD_REACTORS
330
1A48
102
}
330
1A48
100
AcDbProxyObject
 90
      499
 91
      510
 93
      396
310
4190985CDA58C0107406404333333333333E3BF0000000000000FB0107A41107004050150841D405064090741402480A0356
 94
        0
1001
ACAD
1000
AcDbSavedByObjectVersion
1070
     0
1000
AcadProxyRoundTripData
1071
      505
1071
   655383
1070
     0
  0
ACAD_PROXY_OBJECT
  5
1A54
102
{ACAD_REACTORS
330
1A48
102
}
330
1A48
100
AcDbProxyObject
 90
      499
 91
      510
 93
      436
310
42509C9A59DA1D195B8010C409028333333333333E3BF0000000000000FB010790141107004050150841D405064090741402480A029956
 94
        0
1001
ACAD
1000
AcDbSavedByObjectVersion
1070
     0
1000
AcadProxyRoundTripData
1071
      505
1071
   655383
1070
     0
  0
ACAD_PROXY_OBJECT
  5
1A58
102
{ACAD_REACTORS
330
1A48
102
}
330
1A48
100
AcDbProxyObject
 90
      499
 91
      510
 93
      460
310
4310DBDB1BDC90DA185B99D9401104090240C333333333333E3BF0000000000000FB0108901411070040501508421405064090741402480A0354
 94
        0
1001
ACAD
1000
AcDbSavedByObjectVersion
1070
     0
1000
AcadProxyRoundTripData
1071
      505
1071
   655383
1070
     0
  0
ACAD_PROXY_OBJECT
  5
1A51
102
{ACAD_REACTORS
330
1A48
102
}
330
1A48
100
AcDbProxyObject
 90
      499
 91
      510
 93
      508
310
42D0DBDB98D95C1D1D585B0010940D028333333333333E3BF0000000000000FB0107902409070040501000000000000111010841D405064090740C02480A0340
 94
        0
1001
ACAD
1000
AcDbSavedByObjectVersion
1070
     0
1000
AcadProxyRoundTripData
1071
      505
1071
   655383
1070
     0
  0
ACAD_PROXY_OBJECT
  5
1A53
102
{ACAD_REACTORS
330
1A48
102
}
330
1A48
100
AcDbProxyObject
 90
      499
 91
      510
 93
      420
310
41111A5B4010B409028333333333333E3BF0000000000000FB010790141107004050150841D405064090741402480A02677FFFFFDB
 94
        0
1001
ACAD
1000
AcDbSavedByObjectVersion
1070
     0
1000
AcadProxyRoundTripData
1071
      505
1071
   655383
1070
     0
  0
ACAD_PROXY_OBJECT
  5
1A57
102
{ACAD_REACTORS
330
1A48
102
}
330
1A48
100
AcDbProxyObject
 90
      499
 91
      510
 93
      452
310
43119858D95C185D1D195C9B8010F409028333333333333E3BF0000000000000FB010790141107004050150841D405064090741402480A0350
 94
        0
1001
ACAD
1000
AcDbSavedByObjectVersion
1070
     0
1000
AcadProxyRoundTripData
1071
      505
1071
   655383
1070
     0
  0
ACAD_PROXY_OBJECT
  5
1A49
102
{ACAD_REACTORS
330
1A48
102
}
330
1A48
100
AcDbProxyObject
 90
      499
 91
      510
 93
      396
310
41519B185D00240901404333333333333E3BF0000000000000F9010740A41107004050150841D405064090741402480A1B55
 94
        0
1001
ACAD
1000
AcDbSavedByObjectVersion
1070
     0
1000
AcadProxyRoundTripData
1071
      505
1071
   655383
1070
     0
  0
ACAD_PROXY_OBJECT
  5
1A4A
102
{ACAD_REACTORS
330
1A48
102
}
330
1A48
100
AcDbProxyObject
 90
      499
 91
      510
 93
      484
310
43919B185D15DA5D1A115919D95CC010140901404333333333333E3BF0000000000000F9010740901411070040501600405405064090741402480A1B50
 94
        0
1001
ACAD
1000
AcDbSavedByObjectVersion
1070
     0
1000
AcadProxyRoundTripData
1071
      505
1071
   655383
1070
     0
  0
ACAD_PROXY_OBJECT
  5
1A4B
102
{ACAD_REACTORS
330
1A48
102
}
330
1A48
100
AcDbProxyObject
 90
      499
 91
      510
 93
      420
310
4211DBDD5C985D590010240902404333333333333E3BF0000000000000F9010740A411070040501641D405064090741402480A1B50
 94
        0
1001
ACAD
1000
AcDbSavedByObjectVersion
1070
     0
1000
AcadProxyRoundTripData
1071
      505
1071
   655383
1070
     0
  0
ACAD_PROXY_OBJECT
  5
1A4C
102
{ACAD_REACTORS
330
1A48
102
}
330
1A48
100
AcDbProxyObject
 90
      499
 91
      510
 93
      508
310
4451DBDD5C985D5915DA5D1A115919D95CC010340902404333333333333E3BF0000000000000F9010740901411070040501600405405064090741402480A1B50
 94
        0
1001
ACAD
1000
AcDbSavedByObjectVersion
1070
     0
1000
AcadProxyRoundTripData
1071
      505
1071
   655383
1070
     0
  0
ACAD_PROXY_OBJECT
  5
1A56
102
{ACAD_REACTORS
330
1A48
102
}
330
1A48
100
AcDbProxyObject
 90
      499
 91
      510
 93
      452
310
43131A5B995C185D1D195C9B8010E409028333333333333E3BF0000000000000FB010790141107004050750841D405064090741402483A0350
 94
        0
1001
ACAD
1000
AcDbSavedByObjectVersion
1070
     0
1000
AcadProxyRoundTripData
1071
      505
1071
   655383
1070
     0
  0
ACAD_PROXY_OBJECT
  5
1A52
102
{ACAD_REACTORS
330
1A48
102
}
330
1A48
100
AcDbProxyObject
 90
      499
 91
      510
 93
      428
310
429499585B1A5CDD1A58C0108409028333333333333E3BF0000000000000FB01079019070040501508421405064090741402480A1B45
 94
        0
1001
ACAD
1000
AcDbSavedByObjectVersion
1070
     0
1000
AcadProxyRoundTripData
1071
      505
1071
   655383
1070
     0
  0
ACAD_PROXY_OBJECT
  5
1A55
102
{ACAD_REACTORS
330
1A48
102
}
330
1A48
100
AcDbProxyObject
 90
      499
 91
      510
 93
      420
310
42151A1A58DAD95B8010D409028333333333333E3BF0000000000000FB010790141107004050150C41D405064090741402480A0352
 94
        0
1001
ACAD
1000
AcDbSavedByObjectVersion
1070
     0
1000
AcadProxyRoundTripData
1071
      505
1071
   655383
1070
     0
  0
XRECORD
  5
1C82
102
{ACAD_REACTORS
330
1C78
102
}
330
1C78
100
AcDbXrecord
 90
        0
  0
XRECORD
  5
1C86
102
{ACAD_REACTORS
330
1C78
102
}
330
1C78
100
AcDbXrecord
1000
DSTYLE
1002
{
1070
   179
 70
     2
1070
   277
 70
     6
1002
}
  0
XRECORD
  5
1C83
102
{ACAD_REACTORS
330
1C78
102
}
330
1C78
100
AcDbXrecord
  1
{6385560B-F4B1-4644-A7C2-A3E32AC3D232}
  0
XRECORD
  5
1C7B
102
{ACAD_REACTORS
330
1C78
102
}
330
1C78
100
AcDbXrecord
  1

  0
XRECORD
  5
1C81
102
{ACAD_REACTORS
330
1C78
102
}
330
1C78
100
AcDbXrecord
 90
        0
  0
XRECORD
  5
1C7D
102
{ACAD_REACTORS
330
1C78
102
}
330
1C78
100
AcDbXrecord
340
61
  0
XRECORD
  5
1C80
102
{ACAD_REACTORS
330
1C78
102
}
330
1C78
100
AcDbXrecord
 90
    10781
  0
XRECORD
  5
1C7E
102
{ACAD_REACTORS
330
1C78
102
}
330
1C78
100
AcDbXrecord
340
77
  0
XRECORD
  5
1C7F
102
{ACAD_REACTORS
330
1C78
102
}
330
1C78
100
AcDbXrecord
340
6
  0
XRECORD
  5
1C85
102
{ACAD_REACTORS
330
1C78
102
}
330
1C78
100
AcDbXrecord
 40
0.0
  0
XRECORD
  5
1C89
102
{ACAD_REACTORS
330
1C78
102
}
330
1C78
100
AcDbXrecord
340
0
  0
XRECORD
  5
1C8F
102
{ACAD_REACTORS
330
1C78
102
}
330
1C78
100
AcDbXrecord
 10
0.0
 20
0.0
 30
0.0
  0
XRECORD
  5
1C8B
102
{ACAD_REACTORS
330
1C78
102
}
330
1C78
100
AcDbXrecord
 10
0.0
 20
0.0
 30
0.0
  0
XRECORD
  5
1C8E
102
{ACAD_REACTORS
330
1C78
102
}
330
1C78
100
AcDbXrecord
 10
0.0
 20
0.0
 30
0.0
  0
XRECORD
  5
1C8C
102
{ACAD_REACTORS
330
1C78
102
}
330
1C78
100
AcDbXrecord
 10
0.0
 20
0.0
 30
0.0
  0
XRECORD
  5
1C8D
102
{ACAD_REACTORS
330
1C78
102
}
330
1C78
100
AcDbXrecord
 10
0.0
 20
0.0
 30
0.0
  0
XRECORD
  5
1C8A
102
{ACAD_REACTORS
330
1C78
102
}
330
1C78
100
AcDbXrecord
 10
0.0
 20
0.0
 30
0.0
  0
XRECORD
  5
1C87
102
{ACAD_REACTORS
330
1C78
102
}
330
1C78
100
AcDbXrecord
340
0
  0
XRECORD
  5
1C88
102
{ACAD_REACTORS
330
1C78
102
}
330
1C78
100
AcDbXrecord
 70
     0
  0
XRECORD
  5
1C7C
102
{ACAD_REACTORS
330
1C78
102
}
330
1C78
100
AcDbXrecord
  1
Sekkei.ctb
  0
XRECORD
  5
1C79
102
{ACAD_REACTORS
330
1C78
102
}
330
1C78
100
AcDbXrecord
 90
        1
  0
XRECORD
  5
1C7A
102
{ACAD_REACTORS
330
1C78
102
}
330
1C78
100
AcDbXrecord
 90
       70
  0
XRECORD
  5
1C92
102
{ACAD_REACTORS
330
1C78
102
}
330
1C78
100
AcDbXrecord
340
0
  0
XRECORD
  5
1C98
102
{ACAD_REACTORS
330
1C78
102
}
330
1C78
100
AcDbXrecord
 10
0.0
 20
0.0
 30
0.0
  0
XRECORD
  5
1C94
102
{ACAD_REACTORS
330
1C78
102
}
330
1C78
100
AcDbXrecord
 10
0.0
 20
0.0
 30
0.0
  0
XRECORD
  5
1C97
102
{ACAD_REACTORS
330
1C78
102
}
330
1C78
100
AcDbXrecord
 10
0.0
 20
0.0
 30
0.0
  0
XRECORD
  5
1C95
102
{ACAD_REACTORS
330
1C78
102
}
330
1C78
100
AcDbXrecord
 10
0.0
 20
0.0
 30
0.0
  0
XRECORD
  5
1C96
102
{ACAD_REACTORS
330
1C78
102
}
330
1C78
100
AcDbXrecord
 10
0.0
 20
0.0
 30
0.0
  0
XRECORD
  5
1C93
102
{ACAD_REACTORS
330
1C78
102
}
330
1C78
100
AcDbXrecord
 10
0.0
 20
0.0
 30
0.0
  0
XRECORD
  5
1C90
102
{ACAD_REACTORS
330
1C78
102
}
330
1C78
100
AcDbXrecord
340
0
  0
XRECORD
  5
1C91
102
{ACAD_REACTORS
330
1C78
102
}
330
1C78
100
AcDbXrecord
 70
     0
  0
XRECORD
  5
1C84
102
{ACAD_REACTORS
330
1C78
102
}
330
1C78
100
AcDbXrecord
  1
{9BB7BAED-970C-4164-BD89-F297B09C646D}
  0
DICTIONARYVAR
  5
1B01
102
{ACAD_REACTORS
330
102
102
}
330
102
100
DictionaryVariables
280
     0
  1
1:1
  0
DICTIONARYVAR
  5
1B00
102
{ACAD_REACTORS
330
102
102
}
330
102
100
DictionaryVariables
280
     0
  1
STANDARD
  0
DICTIONARYVAR
  5
1AFF
102
{ACAD_REACTORS
330
102
102
}
330
102
100
DictionaryVariables
280
     0
  1
STANDARD
  0
DICTIONARYVAR
  5
103
102
{ACAD_REACTORS
330
102
102
}
330
102
100
DictionaryVariables
280
     0
  1
1
  0
DICTIONARYVAR
  5
1B02
102
{ACAD_REACTORS
330
102
102
}
330
102
100
DictionaryVariables
280
     0
  1
0
  0
DICTIONARYVAR
  5
549
102
{ACAD_REACTORS
330
102
102
}
330
102
100
DictionaryVariables
280
     0
  1
96
  0
DICTIONARY
  5
1A39
330
1A38
100
AcDbDictionary
280
     1
  3
ACAD_XREC_ROUNDTRIP
360
1C5A
  3
BUMPTILE
360
1A3B
  3
DIFFUSETILE
360
1A3A
  3
OPACITYTILE
360
1A3E
  3
REFLECTIONTILE
360
1A3D
  3
REFRACTIONTILE
360
1A3F
  3
SPECULARTILE
360
1A3C
  0
DICTIONARY
  5
1A31
330
1A30
100
AcDbDictionary
280
     1
  3
ACAD_XREC_ROUNDTRIP
360
1C59
  3
BUMPTILE
360
1A33
  3
DIFFUSETILE
360
1A32
  3
OPACITYTILE
360
1A36
  3
REFLECTIONTILE
360
1A35
  3
REFRACTIONTILE
360
1A37
  3
SPECULARTILE
360
1A34
  0
DICTIONARY
  5
1A41
330
1A40
100
AcDbDictionary
280
     1
  3
ACAD_XREC_ROUNDTRIP
360
1C5B
  3
BUMPTILE
360
1A43
  3
DIFFUSETILE
360
1A42
  3
OPACITYTILE
360
1A46
  3
REFLECTIONTILE
360
1A45
  3
REFRACTIONTILE
360
1A47
  3
SPECULARTILE
360
1A44
  0
DICTIONARY
  5
1ADD
330
1A5B
100
AcDbDictionary
280
     1
  3
ACAD_ROUNDTRIP_2008_TABLES
360
1C40
  3
ACAD_XREC_ROUNDTRIP
360
1C5C
  0
XRECORD
  5
1C5A
102
{ACAD_REACTORS
330
1A39
102
}
330
1A39
100
AcDbXrecord
102
MATERIAL
148
0.0
149
0.0
149
0.0
 93
        0
 94
      127
282
     0
 72
     0
 77
     0
171
     0
175
     0
179
     0
273
     0
  0
XRECORD
  5
1A3B
102
{ACAD_REACTORS
330
1A39
102
}
330
1A39
100
AcDbXrecord
270
     1
271
     1
  0
XRECORD
  5
1A3A
102
{ACAD_REACTORS
330
1A39
102
}
330
1A39
100
AcDbXrecord
270
     1
271
     1
  0
XRECORD
  5
1A3E
102
{ACAD_REACTORS
330
1A39
102
}
330
1A39
100
AcDbXrecord
270
     1
271
     1
  0
XRECORD
  5
1A3D
102
{ACAD_REACTORS
330
1A39
102
}
330
1A39
100
AcDbXrecord
270
     1
271
     1
  0
XRECORD
  5
1A3F
102
{ACAD_REACTORS
330
1A39
102
}
330
1A39
100
AcDbXrecord
270
     1
271
     1
  0
XRECORD
  5
1A3C
102
{ACAD_REACTORS
330
1A39
102
}
330
1A39
100
AcDbXrecord
270
     1
271
     1
  0
XRECORD
  5
1C59
102
{ACAD_REACTORS
330
1A31
102
}
330
1A31
100
AcDbXrecord
102
MATERIAL
148
0.0
149
0.0
149
0.0
 93
        0
 94
      127
282
     0
 72
     0
 77
     0
171
     0
175
     0
179
     0
273
     0
  0
XRECORD
  5
1A33
102
{ACAD_REACTORS
330
1A31
102
}
330
1A31
100
AcDbXrecord
270
     1
271
     1
  0
XRECORD
  5
1A32
102
{ACAD_REACTORS
330
1A31
102
}
330
1A31
100
AcDbXrecord
270
     1
271
     1
  0
XRECORD
  5
1A36
102
{ACAD_REACTORS
330
1A31
102
}
330
1A31
100
AcDbXrecord
270
     1
271
     1
  0
XRECORD
  5
1A35
102
{ACAD_REACTORS
330
1A31
102
}
330
1A31
100
AcDbXrecord
270
     1
271
     1
  0
XRECORD
  5
1A37
102
{ACAD_REACTORS
330
1A31
102
}
330
1A31
100
AcDbXrecord
270
     1
271
     1
  0
XRECORD
  5
1A34
102
{ACAD_REACTORS
330
1A31
102
}
330
1A31
100
AcDbXrecord
270
     1
271
     1
  0
XRECORD
  5
1C5B
102
{ACAD_REACTORS
330
1A41
102
}
330
1A41
100
AcDbXrecord
102
MATERIAL
148
0.0
149
0.0
149
0.0
 93
        0
 94
      127
282
     0
 72
     0
 77
     0
171
     0
175
     0
179
     0
273
     0
  0
XRECORD
  5
1A43
102
{ACAD_REACTORS
330
1A41
102
}
330
1A41
100
AcDbXrecord
270
     1
271
     1
  0
XRECORD
  5
1A42
102
{ACAD_REACTORS
330
1A41
102
}
330
1A41
100
AcDbXrecord
270
     1
271
     1
  0
XRECORD
  5
1A46
102
{ACAD_REACTORS
330
1A41
102
}
330
1A41
100
AcDbXrecord
270
     1
271
     1
  0
XRECORD
  5
1A45
102
{ACAD_REACTORS
330
1A41
102
}
330
1A41
100
AcDbXrecord
270
     1
271
     1
  0
XRECORD
  5
1A47
102
{ACAD_REACTORS
330
1A41
102
}
330
1A41
100
AcDbXrecord
270
     1
271
     1
  0
XRECORD
  5
1A44
102
{ACAD_REACTORS
330
1A41
102
}
330
1A41
100
AcDbXrecord
270
     1
271
     1
  0
ACAD_PROXY_OBJECT
  5
1C40
102
{ACAD_REACTORS
330
1ADD
102
}
330
1ADD
100
AcDbProxyObject
 90
      499
 91
      510
 93
     5304
310
40D054060020000020000003200101A000080002A5058000000C100000000000000340FD012E07A17AD46E2B8FCB81E85EB51B8AE3F2E07A17AD46E2B8FCB81E85EB51B8AE3F02B5E8DC0F42B1CFC0AD7A3703D0AC73F419019018000000C1003FBFFFFFE02B5E8DC0F42A9CFD029018000000C1003FBFFFFFE02B5E8DC0F4
310
2A9CFD049018000000C1003FBFFFFFE02B5E8DC0F42A9CFD089018000000C1003FBFFFFFE02B5E8DC0F42A9CFD109018000000C1003FBFFFFFE02B5E8DC0F42A9CFD209018000000C1003FBFFFFFE02B5E8DC0F42A9CFD01405075F5449544C450041501A8000000C800406800020000A9416000000304000AD7A3703D0AC7
310
3F404B81E85EB51B8AE3F2E07A17AD46E2B8FCB81E85EB51B8AE3F2E07A17AD46E2B8FC0AD7A3703D0AC73F02B5E8DC0F42B1CFD0640640600000030400FEFFFFFF80AD7A3703D0AA73F40A40600000030400FEFFFFFF80AD7A3703D0AA73F41240600000030400FEFFFFFF80AD7A3703D0AA73F42240600000030400FEFFF
310
FFF80AD7A3703D0AA73F44240600000030400FEFFFFFF80AD7A3703D0AA73F48240600000030400FEFFFFFF80AD7A3703D0AA73F409014217D2115051115480105406A0000003200101A000080002A5028000000C10002B5E8DC0F42B1CFD012E07A17AD46E2B8FCB81E85EB51B8AE3F2E07A17AD46E2B8FCB81E85EB51B8A
310
E3F02B5E8DC0F42B1CFC0AD7A3703D0AC73F419019018000000C1003FBFFFFFE02B5E8DC0F42A9CFD029018000000C1003FBFFFFFE02B5E8DC0F42A9CFD049018000000C1003FBFFFFFE02B5E8DC0F42A9CFD089018000000C1003FBFFFFFE02B5E8DC0F42A9CFD109018000000C1003FBFFFFFE02B5E8DC0F42A9CFD20901
310
8000000C1003FBFFFFFE02B5E8DC0F42A9CFD03409065F444154410000
340
16
340
0
340
0
340
0
340
0
340
0
340
0
340
16
340
0
340
0
340
0
340
0
340
0
340
0
340
16
340
0
340
0
340
0
340
0
340
0
340
0
 94
        0
1001
ACAD
1000
AcadProxyRoundTripData
1071
      509
1071
   655383
1070
     0
  0
XRECORD
  5
1C5C
102
{ACAD_REACTORS
330
1ADD
102
}
330
1ADD
100
AcDbXrecord
102
ACAD_ROUNDTRIP_PRE2007_TABLESTYLE
 90
      512
 91
        0
  1

 92
      512
 93
        0
  2

 94
      512
 95
        0
  3

  0
ENDSEC
  0
EOF
