  0
SECTION
  2
HEADER
  9
$ACADVER
  1
AC1014
  9
$ACADMAINTVER
 70
     9
  9
$DWGCODEPAGE
  3
ANSI_932
  9
$INSBASE
 10
0.0
 20
0.0
 30
0.0
  9
$EXTMIN
 10
42.09821705392562
 20
52.3597769017368
 30
0.0
  9
$EXTMAX
 10
761.137990590627
 20
517.7817990201974
 30
0.0
  9
$LIMMIN
 10
0.0
 20
0.0
  9
$LIMMAX
 10
297.0
 20
210.0
  9
$ORTHOMODE
 70
     1
  9
$REGENMODE
 70
     1
  9
$FILLMODE
 70
     1
  9
$QTEXTMODE
 70
     0
  9
$MIRRTEXT
 70
     0
  9
$DRAGMODE
 70
     2
  9
$LTSCALE
 40
2.0
  9
$OSMODE
 70
    37
  9
$ATTMODE
 70
     1
  9
$TEXTSIZE
 40
2.0
  9
$TRACEWID
 40
1.0
  9
$TEXTSTYLE
  7
STANDARD
  9
$CLAYER
  8
0
  9
$CELTYPE
  6
BYLAYER
  9
$CECOLOR
 62
   256
  9
$CELTSCALE
 40
1.0
  9
$DELOBJ
 70
     1
  9
$DISPSILH
 70
     0
  9
$DIMSCALE
 40
2.0
  9
$DIMASZ
 40
1.8
  9
$DIMEXO
 40
0.625
  9
$DIMDLI
 40
3.75
  9
$DIMRND
 40
0.0
  9
$DIMDLE
 40
0.0
  9
$DIMEXE
 40
0.8
  9
$DIMTP
 40
0.0
  9
$DIMTM
 40
0.0
  9
$DIMTXT
 40
1.8
  9
$DIMCEN
 40
2.5
  9
$DIMTSZ
 40
0.0
  9
$DIMTOL
 70
     0
  9
$DIMLIM
 70
     0
  9
$DIMTIH
 70
     0
  9
$DIMTOH
 70
     0
  9
$DIMSE1
 70
     0
  9
$DIMSE2
 70
     0
  9
$DIMTAD
 70
     1
  9
$DIMZIN
 70
     8
  9
$DIMBLK
  1

  9
$DIMASO
 70
     1
  9
$DIMSHO
 70
     1
  9
$DIMPOST
  1

  9
$DIMAPOST
  1

  9
$DIMALT
 70
     0
  9
$DIMALTD
 70
     4
  9
$DIMALTF
 40
0.0394
  9
$DIMLFAC
 40
1.0
  9
$DIMTOFL
 70
     1
  9
$DIMTVP
 40
0.0
  9
$DIMTIX
 70
     0
  9
$DIMSOXD
 70
     0
  9
$DIMSAH
 70
     0
  9
$DIMBLK1
  1

  9
$DIMBLK2
  1

  9
$DIMSTYLE
  2
STANDARD
  9
$DIMCLRD
 70
     0
  9
$DIMCLRE
 70
     0
  9
$DIMCLRT
 70
     0
  9
$DIMTFAC
 40
1.0
  9
$DIMGAP
 40
0.75
  9
$DIMJUST
 70
     0
  9
$DIMSD1
 70
     0
  9
$DIMSD2
 70
     0
  9
$DIMTOLJ
 70
     1
  9
$DIMTZIN
 70
     0
  9
$DIMALTZ
 70
     0
  9
$DIMALTTZ
 70
     0
  9
$DIMFIT
 70
     3
  9
$DIMUPT
 70
     0
  9
$DIMUNIT
 70
     8
  9
$DIMDEC
 70
     2
  9
$DIMTDEC
 70
     2
  9
$DIMALTU
 70
     8
  9
$DIMALTTD
 70
     4
  9
$DIMTXSTY
  7
STANDARD
  9
$DIMAUNIT
 70
     0
  9
$LUNITS
 70
     2
  9
$LUPREC
 70
     3
  9
$SKETCHINC
 40
1.0
  9
$FILLETRAD
 40
10.0
  9
$AUNITS
 70
     0
  9
$AUPREC
 70
     2
  9
$MENU
  1
.
  9
$ELEVATION
 40
0.0
  9
$PELEVATION
 40
0.0
  9
$THICKNESS
 40
0.0
  9
$LIMCHECK
 70
     0
  9
$BLIPMODE
 70
     0
  9
$CHAMFERA
 40
0.0
  9
$CHAMFERB
 40
0.0
  9
$CHAMFERC
 40
20.0
  9
$CHAMFERD
 40
0.0
  9
$SKPOLY
 70
     0
  9
$TDCREATE
 40
2454410.548017025
  9
$TDUPDATE
 40
2454425.684489108
  9
$TDINDWG
 40
0.0225515046
  9
$TDUSRTIMER
 40
0.0225515046
  9
$USRTIMER
 70
     1
  9
$ANGBASE
 50
0.0
  9
$ANGDIR
 70
     0
  9
$PDMODE
 70
     0
  9
$PDSIZE
 40
-10.0
  9
$PLINEWID
 40
0.0
  9
$COORDS
 70
     0
  9
$SPLFRAME
 70
     0
  9
$SPLINETYPE
 70
     6
  9
$SPLINESEGS
 70
     8
  9
$ATTDIA
 70
     0
  9
$ATTREQ
 70
     1
  9
$HANDLING
 70
-16383
  9
$HANDSEED
  5
214C
  9
$SURFTAB1
 70
     6
  9
$SURFTAB2
 70
     6
  9
$SURFTYPE
 70
     6
  9
$SURFU
 70
     6
  9
$SURFV
 70
     6
  9
$UCSNAME
  2

  9
$UCSORG
 10
0.0
 20
0.0
 30
0.0
  9
$UCSXDIR
 10
1.0
 20
0.0
 30
0.0
  9
$UCSYDIR
 10
0.0
 20
1.0
 30
0.0
  9
$PUCSNAME
  2

  9
$PUCSORG
 10
0.0
 20
0.0
 30
0.0
  9
$PUCSXDIR
 10
1.0
 20
0.0
 30
0.0
  9
$PUCSYDIR
 10
0.0
 20
1.0
 30
0.0
  9
$USERI1
 70
     0
  9
$USERI2
 70
     0
  9
$USERI3
 70
     0
  9
$USERI4
 70
     0
  9
$USERI5
 70
     0
  9
$USERR1
 40
0.0
  9
$USERR2
 40
0.0
  9
$USERR3
 40
0.0
  9
$USERR4
 40
0.0
  9
$USERR5
 40
0.0
  9
$WORLDVIEW
 70
     1
  9
$SHADEDGE
 70
     3
  9
$SHADEDIF
 70
    70
  9
$TILEMODE
 70
     1
  9
$MAXACTVP
 70
    48
  9
$PINSBASE
 10
0.0
 20
0.0
 30
0.0
  9
$PLIMCHECK
 70
     0
  9
$PEXTMIN
 10
0.0
 20
0.0
 30
0.0
  9
$PEXTMAX
 10
0.0
 20
0.0
 30
0.0
  9
$PLIMMIN
 10
0.0
 20
0.0
  9
$PLIMMAX
 10
12.0
 20
9.0
  9
$UNITMODE
 70
     0
  9
$VISRETAIN
 70
     1
  9
$PLINEGEN
 70
     0
  9
$PSLTSCALE
 70
     1
  9
$TREEDEPTH
 70
  3020
  9
$PICKSTYLE
 70
     1
  9
$CMLSTYLE
  2
STANDARD
  9
$CMLJUST
 70
     0
  9
$CMLSCALE
 40
1.0
  9
$PROXYGRAPHICS
 70
     1
  9
$MEASUREMENT
 70
     0
  0
ENDSEC
  0
SECTION
  2
CLASSES
  0
CLASS
  1
DICTIONARYVAR
  2
AcDbDictionaryVar
  3
AutoCAD 2000
 90
        0
280
     0
281
     0
  0
CLASS
  1
ACDBDICTIONARYWDFLT
  2
AcDbDictionaryWithDefault
  3
AutoCAD 2000
 90
        0
280
     0
281
     0
  0
CLASS
  1
ACDBPLACEHOLDER
  2
AcDbPlaceHolder
  3
AutoCAD 2000
 90
        0
280
     0
281
     0
  0
CLASS
  1
LAYOUT
  2
AcDbLayout
  3
AutoCAD 2000
 90
        0
280
     0
281
     0
  0
CLASS
  1
MATERIAL
  2
AcDbMaterial
  3
ObjectDBX Classes
 90
     1153
280
     0
281
     0
  0
CLASS
  1
VISUALSTYLE
  2
AcDbVisualStyle
  3
ObjectDBX Classes
 90
     4095
280
     0
281
     0
  0
CLASS
  1
TABLESTYLE
  2
AcDbTableStyle
  3
ObjectDBX Classes
 90
     4095
280
     0
281
     0
  0
CLASS
  1
SCALE
  2
AcDbScale
  3
ObjectDBX Classes
 90
     1153
280
     0
281
     0
  0
CLASS
  1
MLEADERSTYLE
  2
AcDbMLeaderStyle
  3
ACDB_MLEADERSTYLE_CLASS
 90
     4095
280
     0
281
     0
  0
CLASS
  1
CELLSTYLEMAP
  2
AcDbCellStyleMap
  3
ObjectDBX Classes
 90
     1152
280
     0
281
     0
  0
CLASS
  1
ACAD_PROXY_OBJECT_WRAPPER
  2
AcDbProxyObjectWrapper
  3
AutoCAD 2000
 90
        0
280
     0
281
     0
  0
CLASS
  1
LONG_TRANSACTION
  2
AcDbLongTransaction
  3
AutoCAD 2000
 90
        0
280
     0
281
     0
  0
CLASS
  1
LWPOLYLINE
  2
AcDbPolyline
  3
AutoCAD 2000
 90
        0
280
     0
281
     1
  0
CLASS
  1
HATCH
  2
AcDbHatch
  3
AutoCAD 2000
 90
        0
280
     0
281
     1
  0
CLASS
  1
XRECORD
  2
AcDbXrecord
  3
AutoCAD 2000
 90
        0
280
     0
281
     0
  0
ENDSEC
  0
SECTION
  2
TABLES
  0
TABLE
  2
VPORT
  5
6E
102
{ACAD_XDICTIONARY
360
1FD9
102
}
330
0
100
AcDbSymbolTable
 70
     2
  0
VPORT
  5
2126
330
6E
100
AcDbSymbolTableRecord
100
AcDbViewportTableRecord
  2
*ACTIVE
 70
     0
 10
0.0
 20
0.0
 11
1.0
 21
1.0
 12
412.7485665800442
 22
276.2724918895204
 13
0.0
 23
0.0
 14
10.0
 24
10.0
 15
10.0
 25
10.0
 16
0.0
 26
0.0
 36
1.0
 17
0.0
 27
0.0
 37
0.0
 40
486.3214400140318
 41
1.753504672897196
 42
50.0
 43
0.0
 44
0.0
 50
0.0
 51
0.0
 71
     0
 72
   100
 73
     1
 74
     3
 75
     0
 76
     0
 77
     0
 78
     0
  0
ENDTAB
  0
TABLE
  2
LTYPE
  5
69
330
0
100
AcDbSymbolTable
 70
     8
  0
LTYPE
  5
6A
330
69
100
AcDbSymbolTableRecord
100
AcDbLinetypeTableRecord
  2
BYBLOCK
 70
     0
  3

 72
    65
 73
     0
 40
0.0
  0
LTYPE
  5
6B
330
69
100
AcDbSymbolTableRecord
100
AcDbLinetypeTableRecord
  2
BYLAYER
 70
     0
  3

 72
    65
 73
     0
 40
0.0
  0
LTYPE
  5
8
330
69
100
AcDbSymbolTableRecord
100
AcDbLinetypeTableRecord
  2
CONTINUOUS
 70
     0
  3
Solid line
 72
    65
 73
     0
 40
0.0
  0
LTYPE
  5
27C
330
69
100
AcDbSymbolTableRecord
100
AcDbLinetypeTableRecord
  2
SEKKEI_A2_
 70
     0
  3
center(A2)  ____ _ ____ _ ____ _ ____ _ ____ _ 
 72
    65
 73
     4
 40
14.28749999999999
 49
9.525
 74
     0
 49
-1.587499999999999
 74
     0
 49
1.587499999999999
 74
     0
 49
-1.587499999999999
 74
     0
  0
LTYPE
  5
48F
330
69
100
AcDbSymbolTableRecord
100
AcDbLinetypeTableRecord
  2
SEKKEI_H
 70
     0
  3
Hidden-S _ _ _ _ _ _ _ _ _ _ _ _ _ _ _ _ _
 72
    65
 73
     2
 40
2.381249999999999
 49
1.587499999999999
 74
     0
 49
-0.79375
 74
     0
  0
LTYPE
  5
494
330
69
100
AcDbSymbolTableRecord
100
AcDbLinetypeTableRecord
  2
SEKKEI_P_S
 70
     0
  3
Phantom_S   __ _ _ __ _ _ __ _ _ ___
 72
    65
 73
     6
 40
7.5
 49
3.75
 74
     0
 49
-0.75
 74
     0
 49
0.75
 74
     0
 49
-0.75
 74
     0
 49
0.75
 74
     0
 49
-0.75
 74
     0
  0
LTYPE
  5
7EF
330
69
100
AcDbSymbolTableRecord
100
AcDbLinetypeTableRecord
  2
PHANTOM3
 70
     0
  3
Phantom  ___ _ _ ___ _ _ ___ _ _ ___ _ _
 72
    65
 73
     6
 40
9.0
 49
4.0
 74
     0
 49
-1.0
 74
     0
 49
1.0
 74
     0
 49
-1.0
 74
     0
 49
1.0
 74
     0
 49
-1.0
 74
     0
  0
LTYPE
  5
7F0
330
69
100
AcDbSymbolTableRecord
100
AcDbLinetypeTableRecord
  2
HIDDEN3
 70
     0
  3
Hidden (.3x) _ _ _ _ _ _ _ _ _ _ _ _ _ _ _ _ _
 72
    65
 73
     2
 40
2.857499999999999
 49
1.905
 74
     0
 49
-0.9525
 74
     0
  0
LTYPE
  5
AE4
330
69
100
AcDbSymbolTableRecord
100
AcDbLinetypeTableRecord
  2
CENS
 70
     0
  3
(一点鎖線１)---- - ---- - ---- - ---- - ---- - 
 72
    65
 73
     4
 40
7.0
 49
4.0
 74
     0
 49
-1.0
 74
     0
 49
1.0
 74
     0
 49
-1.0
 74
     0
  0
ENDTAB
  0
TABLE
  2
LAYER
  5
66
102
{ACAD_XDICTIONARY
360
AE5
102
}
330
0
100
AcDbSymbolTable
 70
    10
  0
LAYER
  5
5E
102
{ACAD_XDICTIONARY
360
1F71
102
}
330
66
100
AcDbSymbolTableRecord
100
AcDbLayerTableRecord
  2
0
 70
     0
 62
     7
  6
CONTINUOUS
  0
LAYER
  5
3E
102
{ACAD_XDICTIONARY
360
1F73
102
}
330
66
100
AcDbSymbolTableRecord
100
AcDbLayerTableRecord
  2
CENTER
 70
     0
 62
     3
  6
SEKKEI_A2_
  0
LAYER
  5
2B5
102
{ACAD_XDICTIONARY
360
1F79
102
}
330
66
100
AcDbSymbolTableRecord
100
AcDbLayerTableRecord
  2
HIDS
 70
     0
 62
     1
  6
HIDDEN3
  0
LAYER
  5
2BA
102
{ACAD_XDICTIONARY
360
1F7B
102
}
330
66
100
AcDbSymbolTableRecord
100
AcDbLayerTableRecord
  2
HOJO
 70
     0
 62
     4
  6
CONTINUOUS
  0
LAYER
  5
3FA
102
{ACAD_XDICTIONARY
360
1F7F
102
}
330
66
100
AcDbSymbolTableRecord
100
AcDbLayerTableRecord
  2
TITLE
 70
     0
 62
     4
  6
CONTINUOUS
  0
LAYER
  5
478
102
{ACAD_XDICTIONARY
360
1F81
102
}
330
66
100
AcDbSymbolTableRecord
100
AcDbLayerTableRecord
  2
PHAS
 70
     0
 62
     2
  6
PHANTOM3
  0
ENDTAB
  0
TABLE
  2
STYLE
  5
67
330
0
100
AcDbSymbolTable
 70
     2
  0
STYLE
  5
16
330
67
100
AcDbSymbolTableRecord
100
AcDbTextStyleTableRecord
  2
STANDARD
 70
     0
 40
0.0
 41
1.0
 50
0.0
 71
     0
 42
2.0
  3
simplex.shx
  4
extfont.shx
  0
ENDTAB
  0
TABLE
  2
VIEW
  5
6C
330
0
100
AcDbSymbolTable
 70
     0
  0
ENDTAB
  0
TABLE
  2
UCS
  5
6D
330
0
100
AcDbSymbolTable
 70
     0
  0
ENDTAB
  0
TABLE
  2
APPID
  5
70
330
0
100
AcDbSymbolTable
 70
     4
  0
APPID
  5
71
330
70
100
AcDbSymbolTableRecord
100
AcDbRegAppTableRecord
  2
ACAD
 70
     0
  0
APPID
  5
1A27
330
70
100
AcDbSymbolTableRecord
100
AcDbRegAppTableRecord
  2
ACAD_MLEADERVER
 70
     0
  0
APPID
  5
1F69
330
70
100
AcDbSymbolTableRecord
100
AcDbRegAppTableRecord
  2
ACAD_EXEMPT_FROM_CAD_STANDARDS
 70
     0
  0
APPID
  5
2017
330
70
100
AcDbSymbolTableRecord
100
AcDbRegAppTableRecord
  2
ACAD_DSTYLE_DIMRADIAL_EXTENSION
 70
     0
  0
ENDTAB
  0
TABLE
  2
DIMSTYLE
  5
72
330
0
100
AcDbSymbolTable
 70
     1
  0
DIMSTYLE
105
73
330
72
100
AcDbSymbolTableRecord
100
AcDbDimStyleTableRecord
  2
STANDARD
 70
     0
  3

  4

  5

  6

  7

 40
2.0
 41
1.8
 42
0.625
 43
3.75
 44
0.8
 45
0.0
 46
0.0
 47
0.0
 48
0.0
140
1.8
141
2.5
142
0.0
143
0.0394
144
1.0
145
0.0
146
1.0
147
0.75
 71
     0
 72
     0
 73
     0
 74
     0
 75
     0
 76
     0
 77
     1
 78
     8
170
     0
171
     4
172
     1
173
     0
174
     0
175
     0
176
     0
177
     0
178
     0
270
     8
271
     2
272
     2
273
     8
274
     4
340
16
275
     0
280
     0
281
     0
282
     0
283
     1
284
     0
285
     0
286
     0
287
     3
288
     0
  0
ENDTAB
  0
TABLE
  2
BLOCK_RECORD
  5
1
330
0
100
AcDbSymbolTable
 70
    56
  0
BLOCK_RECORD
  5
2
102
{ACAD_XDICTIONARY
360
2148
102
}
330
1
100
AcDbSymbolTableRecord
100
AcDbBlockTableRecord
  2
*MODEL_SPACE
  0
BLOCK_RECORD
  5
2121
102
{ACAD_XDICTIONARY
360
214A
102
}
330
1
100
AcDbSymbolTableRecord
100
AcDbBlockTableRecord
  2
*PAPER_SPACE
  0
ENDTAB
  0
ENDSEC
  0
SECTION
  2
BLOCKS
  0
BLOCK
  5
5D
330
2
100
AcDbEntity
  8
0
100
AcDbBlockBegin
  2
*MODEL_SPACE
 70
     0
 10
0.0
 20
0.0
 30
0.0
  3
*MODEL_SPACE
  1

  0
ENDBLK
  5
5F
330
2
100
AcDbEntity
  8
0
100
AcDbBlockEnd
  0
BLOCK
  5
2123
330
2121
100
AcDbEntity
 67
     1
  8
0
100
AcDbBlockBegin
  2
*PAPER_SPACE
 70
     0
 10
0.0
 20
0.0
 30
0.0
  3
*PAPER_SPACE
  1

  0
ENDBLK
  5
2124
330
2121
100
AcDbEntity
 67
     1
  8
0
100
AcDbBlockEnd
  0
ENDSEC
  0
SECTION
  2
ENTITIES
  0
LINE
  5
F32
330
2
100
AcDbEntity
  8
CENTER
100
AcDbLine
 10
411.8628244516104
 20
262.05590954337
 30
0.0
 11
584.8628244516088
 21
262.05590954337
 31
0.0
  0
LINE
  5
F33
330
2
100
AcDbEntity
  8
CENTER
100
AcDbLine
 10
462.8628244516086
 20
313.05590954337
 30
0.0
 11
462.8628244516086
 21
211.0559095433699
 31
0.0
  0
LINE
  5
F34
330
2
100
AcDbEntity
  8
CENTER
100
AcDbLine
 10
761.137990590627
 20
262.0559095433597
 30
0.0
 11
641.1379905906261
 21
262.0559095433597
 31
0.0
  0
LINE
  5
F35
330
2
100
AcDbEntity
  8
CENTER
100
AcDbLine
 10
714.1379905906362
 20
305.5559095433579
 30
0.0
 11
714.1379905906356
 21
218.5559095433616
 31
0.0
  0
LINE
  5
F36
330
2
100
AcDbEntity
  8
CENTER
100
AcDbLine
 10
500.9338922634611
 20
300.1269773552226
 30
0.0
 11
424.7917566397301
 21
223.9848417314924
 31
0.0
  0
LINE
  5
F37
330
2
100
AcDbEntity
  8
CENTER
100
AcDbLine
 10
424.791756639756
 20
300.1269773552235
 30
0.0
 11
500.9338922634862
 21
223.9848417314917
 31
0.0
  0
LINE
  5
F38
330
2
100
AcDbEntity
  8
CENTER
100
AcDbLine
 10
462.8628244516086
 20
517.7817990201974
 30
0.0
 11
462.8628244516086
 21
397.781799020197
 31
0.0
  0
LINE
  5
F39
330
2
100
AcDbEntity
  8
0
100
AcDbLine
 10
534.8628244472394
 20
506.7817990202004
 30
0.0
 11
534.8628244472394
 21
434.7817990202003
 31
0.0
  0
LINE
  5
F3A
330
2
100
AcDbEntity
  8
0
100
AcDbLine
 10
432.8628244516086
 20
427.7817990202001
 30
0.0
 11
492.8628244516086
 21
427.7817990202001
 31
0.0
  0
LINE
  5
F3B
330
2
100
AcDbEntity
  8
0
100
AcDbLine
 10
427.377709651265
 20
432.7817990202001
 30
0.0
 11
498.3412034755584
 21
432.7817990201992
 31
0.0
  0
LINE
  5
F3C
330
2
100
AcDbEntity
  8
0
100
AcDbLine
 10
432.8628244516086
 20
432.7817990202001
 30
0.0
 11
432.8628244516086
 21
427.7817990202001
 31
0.0
  0
LINE
  5
F3D
330
2
100
AcDbEntity
  8
0
100
AcDbLine
 10
492.8628244516086
 20
432.7817990202001
 30
0.0
 11
492.8628244516086
 21
427.7817990202001
 31
0.0
  0
LINE
  5
F3E
330
2
100
AcDbEntity
  8
CENTER
100
AcDbLine
 10
420.0460886752167
 20
470.7817990202004
 30
0.0
 11
584.8628244516086
 21
470.7817990202006
 31
0.0
  0
LINE
  5
F3F
330
2
100
AcDbEntity
  8
0
100
AcDbLine
 10
426.8628244516086
 20
491.7817990204951
 30
0.0
 11
498.4895602279995
 21
491.7817990204935
 31
0.0
  0
LINE
  5
F40
330
2
100
AcDbEntity
  8
0
100
AcDbLine
 10
513.3118235391322
 20
497.3341529168123
 30
0.0
 11
512.616525682518
 21
470.7817990202004
 31
0.0
  0
LINE
  5
F41
330
2
100
AcDbEntity
  8
0
100
AcDbLine
 10
498.4895602279985
 20
491.7817990204942
 30
0.0
 11
498.9895602282068
 21
491.2817990202861
 31
0.0
  0
LINE
  5
F42
330
2
100
AcDbEntity
  8
0
100
AcDbLine
 10
510.2308664619242
 20
491.2817990202868
 30
0.0
 11
498.9895602282068
 21
491.2817990202861
 31
0.0
  0
ARC
  5
F43
330
2
100
AcDbEntity
  8
0
100
AcDbCircle
 10
515.3111381890831
 20
497.2817990201967
 30
0.0
 40
2.0
100
AcDbArc
 50
90.0
 51
178.4999999999973
  0
LINE
  5
F44
330
2
100
AcDbEntity
  8
0
100
AcDbLine
 10
426.8628244516086
 20
491.7817990204951
 30
0.0
 11
427.377709651265
 21
432.7817990202001
 31
0.0
  0
CIRCLE
  5
F45
330
2
100
AcDbEntity
  8
0
100
AcDbCircle
 10
462.8628244516104
 20
262.0559095433711
 30
0.0
 40
19.0
  0
CIRCLE
  5
F46
330
2
100
AcDbEntity
  8
0
100
AcDbCircle
 10
462.8628244516104
 20
262.0559095433711
 30
0.0
 40
24.00000000000017
  0
CIRCLE
  5
F47
330
2
100
AcDbEntity
  8
0
100
AcDbCircle
 10
462.8628244516104
 20
262.0559095433711
 30
0.0
 40
30.0
  0
CIRCLE
  5
F48
330
2
100
AcDbEntity
  8
0
100
AcDbCircle
 10
431.7501260794025
 20
230.943211171163
 30
0.0
 40
2.1
  0
CIRCLE
  5
F49
330
2
100
AcDbEntity
  8
0
100
AcDbCircle
 10
431.7501260794025
 20
293.1686079155795
 30
0.0
 40
2.1
  0
LINE
  5
F4A
330
2
100
AcDbEntity
  8
0
100
AcDbLine
 10
522.8628244516094
 20
296.5559095433695
 30
0.0
 11
522.8628244516094
 21
227.5559095433697
 31
0.0
  0
LINE
  5
F4B
330
2
100
AcDbEntity
  8
0
100
AcDbLine
 10
534.8628244516086
 20
298.5559095433695
 30
0.0
 11
534.8628244516086
 21
225.5559095433697
 31
0.0
  0
CIRCLE
  5
F4C
330
2
100
AcDbEntity
  8
0
100
AcDbCircle
 10
493.9755228238182
 20
230.943211171163
 30
0.0
 40
2.1
  0
LINE
  5
F4D
330
2
100
AcDbEntity
  8
0
100
AcDbLine
 10
524.8628244516095
 20
226.0559095433698
 30
0.0
 11
534.8628244516095
 21
226.0559095433698
 31
0.0
  0
ARC
  5
F4E
330
2
100
AcDbEntity
  8
0
100
AcDbCircle
 10
524.8628244516095
 20
228.0559095433698
 30
0.0
 40
2.0
100
AcDbArc
 50
180.0
 51
270.0
  0
CIRCLE
  5
F4F
330
2
100
AcDbEntity
  8
0
100
AcDbCircle
 10
493.9755228238182
 20
293.1686079155793
 30
0.0
 40
2.1
  0
LINE
  5
F50
330
2
100
AcDbEntity
  8
0
100
AcDbLine
 10
534.8628244516095
 20
298.0559095433696
 30
0.0
 11
524.8628244516095
 21
298.0559095433696
 31
0.0
  0
ARC
  5
F51
330
2
100
AcDbEntity
  8
0
100
AcDbCircle
 10
524.8628244516095
 20
296.0559095433696
 30
0.0
 40
2.0
100
AcDbArc
 50
90.0
 51
180.0
  0
CIRCLE
  5
F52
330
2
100
AcDbEntity
  8
CENTER
100
AcDbCircle
 10
462.8628244516104
 20
262.05590954337
 30
0.0
 40
44.0
  0
CIRCLE
  5
F53
330
2
100
AcDbEntity
  8
HOJO
100
AcDbCircle
 10
431.7501260794025
 20
293.1686079155783
 30
0.0
 40
2.5
  0
CIRCLE
  5
F54
330
2
100
AcDbEntity
  8
HOJO
100
AcDbCircle
 10
493.9755228238192
 20
293.1686079155801
 30
0.0
 40
2.5
  0
CIRCLE
  5
F55
330
2
100
AcDbEntity
  8
HOJO
100
AcDbCircle
 10
493.9755228238192
 20
230.9432111711639
 30
0.0
 40
2.5
  0
CIRCLE
  5
F56
330
2
100
AcDbEntity
  8
HOJO
100
AcDbCircle
 10
431.7501260794007
 20
230.9432111711634
 30
0.0
 40
2.5
  0
LINE
  5
F57
330
2
100
AcDbEntity
  8
CENTER
100
AcDbLine
 10
438.2501260794025
 20
293.1686079155785
 30
0.0
 11
425.2501260794025
 21
293.1686079155785
 31
0.0
  0
LINE
  5
F58
330
2
100
AcDbEntity
  8
CENTER
100
AcDbLine
 10
431.7501260794025
 20
299.6686079155786
 30
0.0
 11
431.7501260794025
 21
286.6686079155785
 31
0.0
  0
LINE
  5
F59
330
2
100
AcDbEntity
  8
CENTER
100
AcDbLine
 10
438.2501260794025
 20
230.9432111711634
 30
0.0
 11
425.2501260794025
 21
230.9432111711634
 31
0.0
  0
LINE
  5
F5A
330
2
100
AcDbEntity
  8
CENTER
100
AcDbLine
 10
431.7501260794025
 20
237.4432111711634
 30
0.0
 11
431.7501260794025
 21
224.4432111711634
 31
0.0
  0
LINE
  5
F5B
330
2
100
AcDbEntity
  8
CENTER
100
AcDbLine
 10
500.4755228238192
 20
230.9432111711641
 30
0.0
 11
487.4755228238192
 21
230.9432111711641
 31
0.0
  0
LINE
  5
F5C
330
2
100
AcDbEntity
  8
CENTER
100
AcDbLine
 10
493.9755228238192
 20
237.4432111711641
 30
0.0
 11
493.9755228238192
 21
224.4432111711641
 31
0.0
  0
LINE
  5
F5D
330
2
100
AcDbEntity
  8
CENTER
100
AcDbLine
 10
500.4755228238174
 20
293.1686079155793
 30
0.0
 11
487.4755228238174
 21
293.1686079155793
 31
0.0
  0
LINE
  5
F5E
330
2
100
AcDbEntity
  8
CENTER
100
AcDbLine
 10
493.9755228238174
 20
299.6686079155793
 30
0.0
 11
493.9755228238174
 21
286.6686079155793
 31
0.0
  0
LINE
  5
F5F
330
2
100
AcDbEntity
  8
0
100
AcDbLine
 10
676.1379905906324
 20
297.5366609098075
 30
0.0
 11
676.1379905906315
 21
226.575158176912
 31
0.0
  0
LINE
  5
F60
330
2
100
AcDbEntity
  8
0
100
AcDbLine
 10
671.1379905906333
 20
292.0559095433564
 30
0.0
 11
671.1379905906333
 21
232.0559095433565
 31
0.0
  0
LINE
  5
F61
330
2
100
AcDbEntity
  8
0
100
AcDbLine
 10
676.1379905906334
 20
292.0559095433564
 30
0.0
 11
671.1379905906333
 21
292.0559095433564
 31
0.0
  0
LINE
  5
F62
330
2
100
AcDbEntity
  8
0
100
AcDbLine
 10
676.1379905906334
 20
232.0559095433565
 30
0.0
 11
671.1379905906333
 21
232.0559095433565
 31
0.0
  0
ARC
  5
F63
330
2
100
AcDbEntity
  8
0
100
AcDbCircle
 10
434.8628244516086
 20
231.0559095433663
 30
0.0
 40
5.0
100
AcDbArc
 50
270.0
 51
283.8418243184201
  0
ARC
  5
F64
330
2
100
AcDbEntity
  8
0
100
AcDbCircle
 10
462.8628244516113
 20
386.05590954337
 30
0.0
 40
160.0
100
AcDbArc
 50
264.0709145121236
 51
275.9290854878763
  0
ARC
  5
F65
330
2
100
AcDbEntity
  8
0
100
AcDbCircle
 10
443.2363047716272
 20
197.0723130984599
 30
0.0
 40
30.0
100
AcDbArc
 50
84.07091451212361
 51
103.8418243184202
  0
ARC
  5
F66
330
2
100
AcDbEntity
  8
0
100
AcDbCircle
 10
482.4893441315899
 20
197.0723130984599
 30
0.0
 40
30.0
100
AcDbArc
 50
76.15817568157976
 51
95.92908548787638
  0
LINE
  5
F67
330
2
100
AcDbEntity
  8
0
100
AcDbLine
 10
490.8628244516086
 20
226.0559095433663
 30
0.0
 11
493.8628244516086
 21
226.0559095433663
 31
0.0
  0
ARC
  5
F68
330
2
100
AcDbEntity
  8
0
100
AcDbCircle
 10
490.8628244516086
 20
231.0559095433663
 30
0.0
 40
5.0
100
AcDbArc
 50
256.1581756815797
 51
270.0
  0
ARC
  5
F69
330
2
100
AcDbEntity
  8
0
100
AcDbCircle
 10
493.8628244516086
 20
231.055909543345
 30
0.0
 40
5.0
100
AcDbArc
 50
270.0
 51
0.0
  0
LINE
  5
F6A
330
2
100
AcDbEntity
  8
0
100
AcDbLine
 10
498.8628244516085
 20
293.0559095433443
 30
0.0
 11
498.8628244516085
 21
231.055909543345
 31
0.0
  0
LINE
  5
F6B
330
2
100
AcDbEntity
  8
0
100
AcDbLine
 10
434.8628244516086
 20
226.0559095433663
 30
0.0
 11
431.8628244516085
 21
226.0559095433663
 31
0.0
  0
ARC
  5
F6C
330
2
100
AcDbEntity
  8
0
100
AcDbCircle
 10
431.8628244516085
 20
231.055909543345
 30
0.0
 40
5.0
100
AcDbArc
 50
180.0
 51
270.0
  0
LINE
  5
F6D
330
2
100
AcDbEntity
  8
0
100
AcDbLine
 10
426.8628244516086
 20
234.0559095433663
 30
0.0
 11
426.8628244516086
 21
231.055909543345
 31
0.0
  0
ARC
  5
F6E
330
2
100
AcDbEntity
  8
0
100
AcDbCircle
 10
431.8628244516085
 20
234.0559095433663
 30
0.0
 40
5.0
100
AcDbArc
 50
166.1581756815797
 51
180.0
  0
ARC
  5
F6F
330
2
100
AcDbEntity
  8
0
100
AcDbCircle
 10
397.8792280067019
 20
242.4293898633847
 30
0.0
 40
30.0
100
AcDbArc
 50
346.1581756815797
 51
5.929085487863269
  0
ARC
  5
F70
330
2
100
AcDbEntity
  8
0
100
AcDbCircle
 10
586.8628244516086
 20
262.0559095433666
 30
0.0
 40
160.0
100
AcDbArc
 50
174.0709145121367
 51
185.9290854878632
  0
LINE
  5
F71
330
2
100
AcDbEntity
  8
0
100
AcDbLine
 10
426.8628244516086
 20
290.0559095433668
 30
0.0
 11
426.8628244516086
 21
293.055909543345
 31
0.0
  0
ARC
  5
F72
330
2
100
AcDbEntity
  8
0
100
AcDbCircle
 10
397.8792280067019
 20
281.6824292233484
 30
0.0
 40
30.0
100
AcDbArc
 50
354.0709145121367
 51
13.84182431842024
  0
ARC
  5
F73
330
2
100
AcDbEntity
  8
0
100
AcDbCircle
 10
431.8628244516085
 20
290.0559095433668
 30
0.0
 40
5.0
100
AcDbArc
 50
180.0
 51
193.8418243184202
  0
ARC
  5
F74
330
2
100
AcDbEntity
  8
0
100
AcDbCircle
 10
431.8628244516085
 20
293.055909543345
 30
0.0
 40
5.0
100
AcDbArc
 50
90.0
 51
180.0
  0
ARC
  5
F75
330
2
100
AcDbEntity
  8
0
100
AcDbCircle
 10
434.8628244516086
 20
293.0559095433666
 30
0.0
 40
5.0
100
AcDbArc
 50
76.15817568157976
 51
90.0
  0
LINE
  5
F76
330
2
100
AcDbEntity
  8
0
100
AcDbLine
 10
434.8628244516086
 20
298.0559095433666
 30
0.0
 11
431.8628244516085
 21
298.0559095433666
 31
0.0
  0
ARC
  5
F77
330
2
100
AcDbEntity
  8
0
100
AcDbCircle
 10
443.2363047716272
 20
327.039505988273
 30
0.0
 40
30.0
100
AcDbArc
 50
256.1581756815797
 51
275.9290854878763
  0
ARC
  5
F78
330
2
100
AcDbEntity
  8
0
100
AcDbCircle
 10
462.8628244516122
 20
138.05590954337
 30
0.0
 40
160.0
100
AcDbArc
 50
84.07091451212361
 51
95.92908548787638
  0
ARC
  5
F79
330
2
100
AcDbEntity
  8
0
100
AcDbCircle
 10
482.4893441315899
 20
327.039505988273
 30
0.0
 40
30.0
100
AcDbArc
 50
264.0709145121236
 51
283.8418243184201
  0
LINE
  5
F7A
330
2
100
AcDbEntity
  8
0
100
AcDbLine
 10
490.8628244516086
 20
298.0559095433666
 30
0.0
 11
493.8628244516086
 21
298.0559095433666
 31
0.0
  0
ARC
  5
F7B
330
2
100
AcDbEntity
  8
0
100
AcDbCircle
 10
490.8628244516086
 20
293.0559095433666
 30
0.0
 40
5.0
100
AcDbArc
 50
90.0
 51
103.8418243184202
  0
ARC
  5
F7C
330
2
100
AcDbEntity
  8
0
100
AcDbCircle
 10
493.8628244516086
 20
293.0559095433443
 30
0.0
 40
5.0
100
AcDbArc
 50
0.0
 51
90.0
  0
ARC
  5
F7D
330
2
100
AcDbEntity
  8
0
100
AcDbCircle
 10
501.8628244516122
 20
236.55590954337
 30
0.0
 40
3.0
100
AcDbArc
 50
90.0
 51
180.0
  0
ARC
  5
F7E
330
2
100
AcDbEntity
  8
0
100
AcDbCircle
 10
515.3628244516132
 20
235.5559095433736
 30
0.0
 40
2.0
100
AcDbArc
 50
180.0000000000065
 51
270.0
  0
LINE
  5
F7F
330
2
100
AcDbEntity
  8
0
100
AcDbLine
 10
501.8628244516122
 20
239.55590954337
 30
0.0
 11
510.3628244516195
 21
239.55590954337
 31
0.0
  0
ARC
  5
F80
330
2
100
AcDbEntity
  8
0
100
AcDbCircle
 10
510.3628244516195
 20
236.55590954337
 30
0.0
 40
3.0
100
AcDbArc
 50
0.0000000000065138
 51
90.0
  0
ARC
  5
F81
330
2
100
AcDbEntity
  8
0
100
AcDbCircle
 10
501.8628244516122
 20
287.55590954337
 30
0.0
 40
3.0
100
AcDbArc
 50
180.0
 51
270.0
  0
LINE
  5
F82
330
2
100
AcDbEntity
  8
0
100
AcDbLine
 10
501.8628244516122
 20
284.55590954337
 30
0.0
 11
510.3628244516141
 21
284.55590954337
 31
0.0
  0
ARC
  5
F83
330
2
100
AcDbEntity
  8
0
100
AcDbCircle
 10
515.3628244516132
 20
288.5559095433663
 30
0.0
 40
2.0
100
AcDbArc
 50
90.0
 51
180.0000000000065
  0
ARC
  5
F84
330
2
100
AcDbEntity
  8
0
100
AcDbCircle
 10
510.3628244516141
 20
287.55590954337
 30
0.0
 40
3.0
100
AcDbArc
 50
270.0
 51
0.0
  0
LINE
  5
F85
330
2
100
AcDbEntity
  8
0
100
AcDbLine
 10
513.3628244516195
 20
235.5559095433734
 30
0.0
 11
513.3628244516131
 21
288.5559095433659
 31
0.0
  0
LINE
  5
F86
330
2
100
AcDbEntity
  8
0
100
AcDbLine
 10
519.8628244516085
 20
290.5559095433663
 30
0.0
 11
515.3628244516132
 21
290.5559095433663
 31
0.0
  0
LINE
  5
F87
330
2
100
AcDbEntity
  8
0
100
AcDbLine
 10
519.8628244516085
 20
233.5559095433736
 30
0.0
 11
515.3628244516132
 21
233.5559095433736
 31
0.0
  0
ARC
  5
F88
330
2
100
AcDbEntity
  8
0
100
AcDbCircle
 10
519.8628244516085
 20
230.5559095433736
 30
0.0
 40
3.0
100
AcDbArc
 50
0.0
 51
90.0
  0
ARC
  5
F89
330
2
100
AcDbEntity
  8
0
100
AcDbCircle
 10
519.8628244516085
 20
293.5559095433664
 30
0.0
 40
3.0
100
AcDbArc
 50
270.0
 51
0.0
  0
LINE
  5
F8A
330
2
100
AcDbEntity
  8
0
100
AcDbLine
 10
501.8628244516086
 20
264.55590954337
 30
0.0
 11
510.3628244516158
 21
264.55590954337
 31
0.0
  0
ARC
  5
F8B
330
2
100
AcDbEntity
  8
0
100
AcDbCircle
 10
515.3111381890831
 20
444.2817990202041
 30
0.0
 40
2.0
100
AcDbArc
 50
181.5000000000027
 51
270.0
  0
LINE
  5
F8C
330
2
100
AcDbEntity
  8
0
100
AcDbLine
 10
513.3118235391322
 20
444.2294451235884
 30
0.0
 11
512.616525682518
 21
470.7817990202004
 31
0.0
  0
ARC
  5
F8D
330
2
100
AcDbEntity
  8
0
100
AcDbCircle
 10
510.283238305061
 20
445.2817990202001
 30
0.0
 40
3.0
100
AcDbArc
 50
1.500000000002716
 51
90.0
  0
LINE
  5
F8E
330
2
100
AcDbEntity
  8
0
100
AcDbLine
 10
501.4504035580999
 20
448.2817990202002
 30
0.0
 11
510.283238305061
 21
448.2817990202002
 31
0.0
  0
LINE
  5
F8F
330
2
100
AcDbEntity
  8
0
100
AcDbLine
 10
501.6249409139146
 20
473.2817990202004
 30
0.0
 11
509.7595198736754
 21
473.2817990202004
 31
0.0
  0
ARC
  5
F90
330
2
100
AcDbEntity
  8
0
100
AcDbCircle
 10
501.6249409139146
 20
476.2817990202004
 30
0.0
 40
3.0
100
AcDbArc
 50
180.4999999999981
 51
270.0
  0
ARC
  5
F91
330
2
100
AcDbEntity
  8
0
100
AcDbCircle
 10
510.2308664619232
 20
494.2817990202867
 30
0.0
 40
3.0
100
AcDbArc
 50
270.0
 51
358.4999999999972
  0
ARC
  5
F92
330
2
100
AcDbEntity
  8
0
100
AcDbCircle
 10
510.3628244516158
 20
267.55590954337
 30
0.0
 40
3.0
100
AcDbArc
 50
270.0
 51
0.0000000000065138
  0
ARC
  5
F93
330
2
100
AcDbEntity
  8
0
100
AcDbCircle
 10
501.8628244516086
 20
267.55590954337
 30
0.0
 40
3.0
100
AcDbArc
 50
180.0
 51
270.0
  0
ARC
  5
F94
330
2
100
AcDbEntity
  8
0
100
AcDbCircle
 10
501.8628244516086
 20
256.5559095433695
 30
0.0
 40
3.0
100
AcDbArc
 50
90.0
 51
180.0
  0
LINE
  5
F95
330
2
100
AcDbEntity
  8
0
100
AcDbLine
 10
501.8628244516086
 20
259.5559095433695
 30
0.0
 11
510.3628244516158
 21
259.5559095433698
 31
0.0
  0
ARC
  5
F96
330
2
100
AcDbEntity
  8
0
100
AcDbCircle
 10
510.3628244516158
 20
256.5559095433698
 30
0.0
 40
3.0
100
AcDbArc
 50
359.9999999999934
 51
90.0
  0
LINE
  5
F97
330
2
100
AcDbEntity
  8
0
100
AcDbLine
 10
512.3628244516131
 20
234.5559095433741
 30
0.0
 11
501.8628244516086
 21
234.5559095433743
 31
0.0
  0
ARC
  5
F98
330
2
100
AcDbEntity
  8
0
100
AcDbCircle
 10
512.3628244516131
 20
231.555909543374
 30
0.0
 40
3.0
100
AcDbArc
 50
53.13010235412992
 51
90.0
  0
ARC
  5
F99
330
2
100
AcDbEntity
  8
0
100
AcDbCircle
 10
501.8628244516086
 20
231.5559095433743
 30
0.0
 40
3.0
100
AcDbArc
 50
90.0
 51
180.0
  0
ARC
  5
F9A
330
2
100
AcDbEntity
  8
0
100
AcDbCircle
 10
501.8628244516086
 20
292.5559095433657
 30
0.0
 40
3.0
100
AcDbArc
 50
180.0
 51
270.0
  0
LINE
  5
F9B
330
2
100
AcDbEntity
  8
0
100
AcDbLine
 10
512.3628244516131
 20
289.5559095433659
 30
0.0
 11
501.8628244516086
 21
289.5559095433657
 31
0.0
  0
ARC
  5
F9C
330
2
100
AcDbEntity
  8
0
100
AcDbCircle
 10
512.3628244516131
 20
292.5559095433659
 30
0.0
 40
3.0
100
AcDbArc
 50
270.0
 51
306.86989764587
  0
ARC
  5
F9D
330
2
100
AcDbEntity
  8
0
100
AcDbCircle
 10
509.7595198736754
 20
476.2817990202004
 30
0.0
 40
3.0
100
AcDbArc
 50
270.0
 51
358.4999999999972
  0
LINE
  5
F9E
330
2
100
AcDbEntity
  8
0
100
AcDbLine
 10
501.6316766903083
 20
468.2817990202002
 30
0.0
 11
509.7595198736754
 21
468.2817990202003
 31
0.0
  0
ARC
  5
F9F
330
2
100
AcDbEntity
  8
0
100
AcDbCircle
 10
509.7595198736754
 20
465.2817990202004
 30
0.0
 40
3.0
100
AcDbArc
 50
1.500000000002716
 51
90.0
  0
LINE
  5
FA0
330
2
100
AcDbEntity
  8
0
100
AcDbLine
 10
501.4067692191462
 20
443.2817990202002
 30
0.0
 11
512.3111381890877
 21
443.2817990202003
 31
0.0
  0
ARC
  5
FA1
330
2
100
AcDbEntity
  8
0
100
AcDbCircle
 10
512.3111381890877
 20
440.2817990202004
 30
0.0
 40
3.0
100
AcDbArc
 50
53.1301023542602
 51
90.0
  0
LINE
  5
FA2
330
2
100
AcDbEntity
  8
0
100
AcDbLine
 10
658.1379905906297
 20
284.1245319937536
 30
0.0
 11
658.1379905906297
 21
239.9872870929814
 31
0.0
  0
LINE
  5
FA3
330
2
100
AcDbEntity
  8
0
100
AcDbLine
 10
669.2077895840348
 20
286.4424754423364
 30
0.0
 11
660.0681915972246
 21
286.1233136477915
 31
0.0
  0
LINE
  5
FA4
330
2
100
AcDbEntity
  8
0
100
AcDbLine
 10
669.2077895840348
 20
237.6693436443995
 30
0.0
 11
660.0681915972246
 21
237.9885054389435
 31
0.0
  0
ARC
  5
FA5
330
2
100
AcDbEntity
  8
0
100
AcDbCircle
 10
660.1379905906298
 20
284.1245319937536
 30
0.0
 40
2.0
100
AcDbArc
 50
92.00000000000365
 51
180.0
  0
ARC
  5
FA6
330
2
100
AcDbEntity
  8
0
100
AcDbCircle
 10
660.1379905906298
 20
239.9872870929814
 30
0.0
 40
2.0
100
AcDbArc
 50
180.0
 51
267.9999999999963
  0
ARC
  5
FA7
330
2
100
AcDbEntity
  8
0
100
AcDbCircle
 10
669.1379905906297
 20
235.6705619903616
 30
0.0
 40
2.0
100
AcDbArc
 50
0.0
 51
87.99999999999636
  0
ARC
  5
FA8
330
2
100
AcDbEntity
  8
0
100
AcDbCircle
 10
669.1379905906297
 20
288.4412570963743
 30
0.0
 40
2.0
100
AcDbArc
 50
272.0000000000036
 51
0.0
  0
LINE
  5
FA9
330
2
100
AcDbEntity
  8
0
100
AcDbLine
 10
440.7942020012207
 20
414.7817990202006
 30
0.0
 11
484.9314469019929
 21
414.7817990202004
 31
0.0
  0
LINE
  5
FAA
330
2
100
AcDbEntity
  8
0
100
AcDbLine
 10
438.4762585526378
 20
425.8515980136053
 30
0.0
 11
438.7954203471828
 21
416.7120000267955
 31
0.0
  0
LINE
  5
FAB
330
2
100
AcDbEntity
  8
0
100
AcDbLine
 10
487.2493903505756
 20
425.8515980136053
 30
0.0
 11
486.9302285560308
 21
416.7120000267955
 31
0.0
  0
ARC
  5
FAC
330
2
100
AcDbEntity
  8
0
100
AcDbCircle
 10
440.7942020012207
 20
416.7817990202004
 30
0.0
 40
2.0
100
AcDbArc
 50
181.9999999999971
 51
270.0
  0
ARC
  5
FAD
330
2
100
AcDbEntity
  8
0
100
AcDbCircle
 10
484.9314469019929
 20
416.7817990202004
 30
0.0
 40
2.0
100
AcDbArc
 50
270.0
 51
357.9999999999963
  0
ARC
  5
FAE
330
2
100
AcDbEntity
  8
0
100
AcDbCircle
 10
489.2481720046135
 20
425.7817990202004
 30
0.0
 40
2.0
100
AcDbArc
 50
90.0
 51
177.9999999999963
  0
ARC
  5
FAF
330
2
100
AcDbEntity
  8
0
100
AcDbCircle
 10
436.4774768985999
 20
425.7817990202004
 30
0.0
 40
2.0
100
AcDbArc
 50
1.99999999999713
 51
90.0
  0
LINE
  5
FB0
330
2
100
AcDbEntity
  8
0
100
AcDbLine
 10
680.7622464180004
 20
226.5348029076774
 30
0.0
 11
676.1379905906315
 21
226.575158176912
 31
0.0
  0
LINE
  5
FB1
330
2
100
AcDbEntity
  8
0
100
AcDbLine
 10
680.8641187570948
 20
297.5779052054765
 30
0.0
 11
676.1379905906324
 21
297.5366609098075
 31
0.0
  0
ARC
  5
FB2
330
2
100
AcDbEntity
  8
0
100
AcDbCircle
 10
745.137990590637
 20
293.1248717579726
 30
0.0
 40
5.0
100
AcDbArc
 50
44.44120087725375
 51
89.20427644728171
  0
LINE
  5
FB3
330
2
100
AcDbEntity
  8
0
100
AcDbLine
 10
745.2074283380899
 20
298.1243895746454
 30
0.0
 11
714.137990590637
 21
298.5559095433579
 31
0.0
  0
LINE
  5
FB4
330
2
100
AcDbEntity
  8
0
100
AcDbLine
 10
683.0685528431887
 20
298.1243895746445
 30
0.0
 11
714.1379905906352
 21
298.5559095433579
 31
0.0
  0
ARC
  5
FB5
330
2
100
AcDbEntity
  8
0
100
AcDbCircle
 10
683.1379905906425
 20
293.1248717579717
 30
0.0
 40
5.0
100
AcDbArc
 50
90.79572355271826
 51
135.5587991197476
  0
ARC
  5
FB6
330
2
100
AcDbEntity
  8
0
100
AcDbCircle
 10
745.137990590637
 20
230.9869473287469
 30
0.0
 40
5.0
100
AcDbArc
 50
270.7957235527183
 51
315.5587991214058
  0
LINE
  5
FB7
330
2
100
AcDbEntity
  8
0
100
AcDbLine
 10
745.2074283380899
 20
225.9874295120741
 30
0.0
 11
714.137990590637
 21
225.5559095433615
 31
0.0
  0
LINE
  5
FB8
330
2
100
AcDbEntity
  8
0
100
AcDbLine
 10
683.0685528431887
 20
225.987429512075
 30
0.0
 11
714.1379905906352
 21
225.5559095433615
 31
0.0
  0
ARC
  5
FB9
330
2
100
AcDbEntity
  8
0
100
AcDbCircle
 10
683.1379905906425
 20
230.9869473287478
 30
0.0
 40
5.0
100
AcDbArc
 50
224.4412008815881
 51
269.2042764472816
  0
LINE
  5
FBA
330
2
100
AcDbEntity
  8
0
100
AcDbLine
 10
490.8759174123844
 20
491.7817990204935
 30
0.0
 11
491.4003213112911
 21
471.7556220718924
 31
0.0
  0
ARC
  5
FBB
330
2
100
AcDbEntity
  8
0
100
AcDbCircle
 10
492.3999786362665
 20
471.7817990202004
 30
0.0
 40
1.0
100
AcDbArc
 50
181.5000000000027
 51
270.0
  0
LINE
  5
FBC
330
2
100
AcDbEntity
  8
0
100
AcDbLine
 10
434.8628244516086
 20
491.2817990202001
 30
0.0
 11
434.8628244516086
 21
434.2817609432645
 31
0.0
  0
LINE
  5
FBD
330
2
100
AcDbEntity
  8
0
100
AcDbLine
 10
431.8628244516085
 20
491.2817990202001
 30
0.0
 11
431.8628244516085
 21
434.2817609432645
 31
0.0
  0
LINE
  5
FBE
330
2
100
AcDbEntity
  8
0
100
AcDbLine
 10
490.8628244516086
 20
470.7817990202004
 30
0.0
 11
490.8628244516086
 21
434.2817609432645
 31
0.0
  0
LINE
  5
FBF
330
2
100
AcDbEntity
  8
0
100
AcDbLine
 10
493.8628244516068
 20
470.7817990202004
 30
0.0
 11
493.8628244516086
 21
434.2817609432645
 31
0.0
  0
LINE
  5
FC0
330
2
100
AcDbEntity
  8
0
100
AcDbLine
 10
446.3352289316236
 20
491.2817990202001
 30
0.0
 11
446.3352289316236
 21
434.2817609432645
 31
0.0
  0
LINE
  5
FC1
330
2
100
AcDbEntity
  8
0
100
AcDbLine
 10
479.3904199715917
 20
491.2817990202001
 30
0.0
 11
479.3904199715917
 21
434.2817609432645
 31
0.0
  0
LINE
  5
FC2
330
2
100
AcDbEntity
  8
0
100
AcDbLine
 10
521.9201312750966
 20
470.7817990202004
 30
0.0
 11
534.8628244472394
 21
470.7817990202004
 31
0.0
  0
LINE
  5
FC3
330
2
100
AcDbEntity
  8
0
100
AcDbLine
 10
524.8111381934514
 20
506.7817990202004
 30
0.0
 11
534.8628244472394
 21
506.7817990202004
 31
0.0
  0
LINE
  5
FC4
330
2
100
AcDbEntity
  8
0
100
AcDbLine
 10
524.8111381934514
 20
434.7817990202003
 30
0.0
 11
534.8628244472394
 21
434.7817990202003
 31
0.0
  0
LINE
  5
FC5
330
2
100
AcDbEntity
  8
0
100
AcDbLine
 10
515.3111381934515
 20
499.2817990202004
 30
0.0
 11
519.7439594270737
 21
499.2817990202004
 31
0.0
  0
ARC
  5
FC6
330
2
100
AcDbEntity
  8
0
100
AcDbCircle
 10
519.7439594270737
 20
502.2817990202004
 30
0.0
 40
3.0
100
AcDbArc
 50
270.0
 51
358.4999999999972
  0
ARC
  5
FC7
330
2
100
AcDbEntity
  8
0
100
AcDbCircle
 10
524.8111381934514
 20
504.7817990202004
 30
0.0
 40
2.0
100
AcDbArc
 50
90.0
 51
178.4999999999842
  0
LINE
  5
FC8
330
2
100
AcDbEntity
  8
0
100
AcDbLine
 10
522.8118235435005
 20
504.8341529168173
 30
0.0
 11
521.9201312750966
 21
470.7817990202004
 31
0.0
  0
LINE
  5
FC9
330
2
100
AcDbEntity
  8
0
100
AcDbLine
 10
515.3111381934515
 20
442.2817990202004
 30
0.0
 11
519.7439594270737
 21
442.2817990202004
 31
0.0
  0
ARC
  5
FCA
330
2
100
AcDbEntity
  8
0
100
AcDbCircle
 10
519.7439594270737
 20
439.2817990202003
 30
0.0
 40
3.0
100
AcDbArc
 50
1.500000000002716
 51
90.0
  0
ARC
  5
FCB
330
2
100
AcDbEntity
  8
0
100
AcDbCircle
 10
524.8111381934514
 20
436.7817990202004
 30
0.0
 40
2.0
100
AcDbArc
 50
181.5000000000157
 51
270.0
  0
LINE
  5
FCC
330
2
100
AcDbEntity
  8
0
100
AcDbLine
 10
522.8118235435005
 20
436.7294451235834
 30
0.0
 11
521.9201312750966
 21
470.7817990202004
 31
0.0
  0
LINE
  5
FCD
330
2
100
AcDbEntity
  8
0
100
AcDbLine
 10
460.6310210908223
 20
233.0559095433613
 30
0.0
 11
461.531021478737
 21
233.0559095433613
 31
0.0
  0
LINE
  5
FCE
330
2
100
AcDbEntity
  8
0
100
AcDbLine
 10
461.8810210908215
 20
235.555909543359
 30
0.0
 11
460.6310210908223
 21
233.0559095433613
 31
0.0
  0
ARC
  5
FCF
330
2
100
AcDbEntity
  8
0
100
AcDbCircle
 10
463.9559983533191
 20
234.7059095433598
 30
0.0
 40
0.8499999999992269
100
AcDbArc
 50
307.518967866804
 51
90.0
  0
LINE
  5
FD0
330
2
100
AcDbEntity
  8
0
100
AcDbLine
 10
464.4736687844625
 20
234.0317305428568
 30
0.0
 11
465.0946278094153
 21
233.0559095433613
 31
0.0
  0
LINE
  5
FD1
330
2
100
AcDbEntity
  8
0
100
AcDbLine
 10
464.1946274215016
 20
233.0559095433613
 30
0.0
 11
465.0946278094153
 21
233.0559095433613
 31
0.0
  0
LINE
  5
FD2
330
2
100
AcDbEntity
  8
0
100
AcDbLine
 10
462.3560210908209
 20
233.0559095433613
 30
0.0
 11
463.1059983533206
 21
233.0559095433613
 31
0.0
  0
LINE
  5
FD3
330
2
100
AcDbEntity
  8
0
100
AcDbLine
 10
461.718521478737
 20
233.4309095433609
 30
0.0
 11
461.531021478737
 21
233.0559095433613
 31
0.0
  0
LINE
  5
FD4
330
2
100
AcDbEntity
  8
0
100
AcDbLine
 10
461.718521478737
 20
233.4309095433609
 30
0.0
 11
462.3560210908209
 21
233.4309095433609
 31
0.0
  0
LINE
  5
FD5
330
2
100
AcDbEntity
  8
0
100
AcDbLine
 10
462.3560210908209
 20
233.4309095433609
 30
0.0
 11
462.3560210908209
 21
233.0559095433613
 31
0.0
  0
LINE
  5
FD6
330
2
100
AcDbEntity
  8
0
100
AcDbLine
 10
462.1185214787366
 20
234.2309095433602
 30
0.0
 11
462.3560210908209
 21
234.2309095433602
 31
0.0
  0
LINE
  5
FD7
330
2
100
AcDbEntity
  8
0
100
AcDbLine
 10
462.3560210908209
 20
234.7059087675297
 30
0.0
 11
462.3560210908209
 21
234.2309095433602
 31
0.0
  0
LINE
  5
FD8
330
2
100
AcDbEntity
  8
0
100
AcDbLine
 10
462.3560210908209
 20
234.7059087675297
 30
0.0
 11
462.1185214787366
 21
234.2309095433602
 31
0.0
  0
LINE
  5
FD9
330
2
100
AcDbEntity
  8
0
100
AcDbLine
 10
463.2122710908198
 20
234.59965954336
 30
0.0
 11
464.1946274215016
 21
233.0559095433613
 31
0.0
  0
LINE
  5
FDA
330
2
100
AcDbEntity
  8
0
100
AcDbLine
 10
463.1059983533206
 20
234.7059095433598
 30
0.0
 11
463.1059983533206
 21
233.0559095433613
 31
0.0
  0
LINE
  5
FDB
330
2
100
AcDbEntity
  8
0
100
AcDbLine
 10
463.1059983533206
 20
234.7059095433598
 30
0.0
 11
463.902896090819
 21
234.7059095433598
 31
0.0
  0
LINE
  5
FDC
330
2
100
AcDbEntity
  8
0
100
AcDbLine
 10
463.2122710908198
 20
234.59965954336
 30
0.0
 11
463.902896090819
 21
234.59965954336
 31
0.0
  0
ARC
  5
FDD
330
2
100
AcDbEntity
  8
0
100
AcDbCircle
 10
463.902896090819
 20
234.6527845433599
 30
0.0
 40
0.0531249999999517
100
AcDbArc
 50
270.0
 51
90.0
  0
LINE
  5
FDE
330
2
100
AcDbEntity
  8
0
100
AcDbLine
 10
461.8810210908215
 20
235.555909543359
 30
0.0
 11
463.9559983533191
 21
235.555909543359
 31
0.0
  0
LINE
  5
FDF
330
2
100
AcDbEntity
  8
0
100
AcDbLine
 10
534.8628244516095
 20
298.5559095433695
 30
0.0
 11
524.8628244516095
 21
298.5559095433695
 31
0.0
  0
ARC
  5
FE0
330
2
100
AcDbEntity
  8
0
100
AcDbCircle
 10
524.8628244516095
 20
296.5559095433695
 30
0.0
 40
2.0
100
AcDbArc
 50
90.0
 51
180.0
  0
LINE
  5
FE1
330
2
100
AcDbEntity
  8
0
100
AcDbLine
 10
524.8628244516095
 20
225.5559095433697
 30
0.0
 11
534.8628244516095
 21
225.5559095433697
 31
0.0
  0
ARC
  5
FE2
330
2
100
AcDbEntity
  8
0
100
AcDbCircle
 10
524.8628244516095
 20
227.5559095433697
 30
0.0
 40
2.0
100
AcDbArc
 50
180.0
 51
270.0
  0
LINE
  5
FE3
330
2
100
AcDbEntity
  8
CENTER
100
AcDbLine
 10
164.0982170539219
 20
219.0559095433693
 30
0.0
 11
164.0982170539219
 21
305.0559095433693
 31
0.0
  0
LINE
  5
FE4
330
2
100
AcDbEntity
  8
CENTER
100
AcDbLine
 10
207.0982170539219
 20
262.05590954337
 30
0.0
 11
42.09821705392562
 21
262.0559095433697
 31
0.0
  0
ARC
  5
FE5
330
2
100
AcDbEntity
  8
0
100
AcDbCircle
 10
102.0982170539256
 20
296.05590954337
 30
0.0
 40
2.0
100
AcDbArc
 50
0.0
 51
90.0
  0
LINE
  5
FE6
330
2
100
AcDbEntity
  8
0
100
AcDbLine
 10
92.09821705392561
 20
225.5559095433699
 30
0.0
 11
92.09821705392561
 21
298.55590954337
 31
0.0
  0
LINE
  5
FE7
330
2
100
AcDbEntity
  8
0
100
AcDbLine
 10
102.0982170539256
 20
298.05590954337
 30
0.0
 11
92.09821705392561
 21
298.05590954337
 31
0.0
  0
LINE
  5
FE8
330
2
100
AcDbEntity
  8
0
100
AcDbLine
 10
104.0982170539256
 20
227.5559095433699
 30
0.0
 11
104.0982170539274
 21
296.55590954337
 31
0.0
  0
LINE
  5
FE9
330
2
100
AcDbEntity
  8
0
100
AcDbLine
 10
113.5982170539147
 20
288.5559095433666
 30
0.0
 11
113.598217053921
 21
235.555909543374
 31
0.0
  0
LINE
  5
FEA
330
2
100
AcDbEntity
  8
0
100
AcDbLine
 10
107.0982170539256
 20
290.5559095433663
 30
0.0
 11
111.598217053921
 21
290.5559095433663
 31
0.0
  0
ARC
  5
FEB
330
2
100
AcDbEntity
  8
0
100
AcDbCircle
 10
102.0982170539256
 20
228.05590954337
 30
0.0
 40
2.0
100
AcDbArc
 50
270.0
 51
0.0
  0
LINE
  5
FEC
330
2
100
AcDbEntity
  8
0
100
AcDbLine
 10
107.0982170539256
 20
233.5559095433736
 30
0.0
 11
111.598217053921
 21
233.5559095433738
 31
0.0
  0
LINE
  5
FED
330
2
100
AcDbEntity
  8
0
100
AcDbLine
 10
92.09821705392561
 20
226.05590954337
 30
0.0
 11
102.0982170539256
 21
226.05590954337
 31
0.0
  0
ARC
  5
FEE
330
2
100
AcDbEntity
  8
0
100
AcDbCircle
 10
40.09821705392198
 20
262.0559095433729
 30
0.0
 40
160.0
100
AcDbArc
 50
354.0709145121367
 51
5.929085487863269
  0
LINE
  5
FEF
330
2
100
AcDbEntity
  8
0
100
AcDbLine
 10
200.0982170539219
 20
234.0559095433727
 30
0.0
 11
200.0982170539219
 21
231.0559095433943
 31
0.0
  0
ARC
  5
FF0
330
2
100
AcDbEntity
  8
0
100
AcDbCircle
 10
229.0818134988286
 20
242.4293898633909
 30
0.0
 40
30.0
100
AcDbArc
 50
174.0709145121367
 51
193.8418243184202
  0
ARC
  5
FF1
330
2
100
AcDbEntity
  8
0
100
AcDbCircle
 10
195.0982170539219
 20
234.0559095433727
 30
0.0
 40
5.0
100
AcDbArc
 50
0.0
 51
13.84182431842024
  0
LINE
  5
FF2
330
2
100
AcDbEntity
  8
0
100
AcDbLine
 10
192.0982170539219
 20
226.0559095433727
 30
0.0
 11
195.0982170539219
 21
226.0559095433727
 31
0.0
  0
ARC
  5
FF3
330
2
100
AcDbEntity
  8
0
100
AcDbCircle
 10
192.0982170539219
 20
231.0559095433727
 30
0.0
 40
5.0
100
AcDbArc
 50
256.1581756815797
 51
270.0
  0
ARC
  5
FF4
330
2
100
AcDbEntity
  8
0
100
AcDbCircle
 10
183.7247367339042
 20
197.0723130984663
 30
0.0
 40
30.0
100
AcDbArc
 50
76.15817568157976
 51
95.92908548787638
  0
ARC
  5
FF5
330
2
100
AcDbEntity
  8
0
100
AcDbCircle
 10
144.4716973739406
 20
197.0723130984663
 30
0.0
 40
30.0
100
AcDbArc
 50
84.07091451212361
 51
103.8418243184202
  0
LINE
  5
FF6
330
2
100
AcDbEntity
  8
0
100
AcDbLine
 10
136.0982170539219
 20
226.0559095433727
 30
0.0
 11
133.0982170539219
 21
226.0559095433727
 31
0.0
  0
ARC
  5
FF7
330
2
100
AcDbEntity
  8
0
100
AcDbCircle
 10
136.0982170539219
 20
231.0559095433727
 30
0.0
 40
5.0
100
AcDbArc
 50
270.0
 51
283.8418243184201
  0
ARC
  5
FF8
330
2
100
AcDbEntity
  8
0
100
AcDbCircle
 10
144.4716973739406
 20
327.0395059882794
 30
0.0
 40
30.0
100
AcDbArc
 50
256.1581756815797
 51
275.9290854878763
  0
LINE
  5
FF9
330
2
100
AcDbEntity
  8
0
100
AcDbLine
 10
136.0982170539219
 20
298.0559095433729
 30
0.0
 11
133.0982170539219
 21
298.0559095433729
 31
0.0
  0
ARC
  5
FFA
330
2
100
AcDbEntity
  8
0
100
AcDbCircle
 10
136.0982170539219
 20
293.0559095433729
 30
0.0
 40
5.0
100
AcDbArc
 50
76.15817568157976
 51
90.0
  0
LINE
  5
FFB
330
2
100
AcDbEntity
  8
0
100
AcDbLine
 10
192.0982170539219
 20
298.0559095433729
 30
0.0
 11
195.0982170539219
 21
298.0559095433729
 31
0.0
  0
ARC
  5
FFC
330
2
100
AcDbEntity
  8
0
100
AcDbCircle
 10
183.7247367339042
 20
327.0395059882794
 30
0.0
 40
30.0
100
AcDbArc
 50
264.0709145121236
 51
283.8418243184201
  0
ARC
  5
FFD
330
2
100
AcDbEntity
  8
0
100
AcDbCircle
 10
192.0982170539219
 20
293.0559095433729
 30
0.0
 40
5.0
100
AcDbArc
 50
90.0
 51
103.8418243184202
  0
LINE
  5
FFE
330
2
100
AcDbEntity
  8
0
100
AcDbLine
 10
200.0982170539219
 20
290.0559095433732
 30
0.0
 11
200.0982170539219
 21
293.0559095433943
 31
0.0
  0
ARC
  5
FFF
330
2
100
AcDbEntity
  8
0
100
AcDbCircle
 10
229.0818134988286
 20
281.6824292233545
 30
0.0
 40
30.0
100
AcDbArc
 50
166.1581756815797
 51
185.9290854878632
  0
ARC
  5
1000
330
2
100
AcDbEntity
  8
0
100
AcDbCircle
 10
195.0982170539219
 20
290.0559095433732
 30
0.0
 40
5.0
100
AcDbArc
 50
346.1581756815797
 51
0.0
  0
ARC
  5
1001
330
2
100
AcDbEntity
  8
0
100
AcDbCircle
 10
164.0982170539183
 20
386.0559095433693
 30
0.0
 40
160.0
100
AcDbArc
 50
264.0709145121236
 51
275.9290854878763
  0
ARC
  5
1002
330
2
100
AcDbEntity
  8
0
100
AcDbCircle
 10
164.0982170539192
 20
138.0559095433693
 30
0.0
 40
160.0
100
AcDbArc
 50
84.07091451212361
 51
95.92908548787638
  0
ARC
  5
1003
330
2
100
AcDbEntity
  8
0
100
AcDbCircle
 10
195.0982170539219
 20
231.0559095433943
 30
0.0
 40
5.0
100
AcDbArc
 50
270.0
 51
0.0
  0
ARC
  5
1004
330
2
100
AcDbEntity
  8
0
100
AcDbCircle
 10
133.0982170539219
 20
231.055909543395
 30
0.0
 40
5.0
100
AcDbArc
 50
180.0
 51
270.0
  0
ARC
  5
1005
330
2
100
AcDbEntity
  8
0
100
AcDbCircle
 10
133.0982170539219
 20
293.0559095433945
 30
0.0
 40
5.0
100
AcDbArc
 50
90.0
 51
180.0
  0
ARC
  5
1006
330
2
100
AcDbEntity
  8
0
100
AcDbCircle
 10
195.0982170539219
 20
293.0559095433943
 30
0.0
 40
5.0
100
AcDbArc
 50
0.0
 51
90.0
  0
LINE
  5
1007
330
2
100
AcDbEntity
  8
0
100
AcDbLine
 10
128.0982170539219
 20
231.055909543395
 30
0.0
 11
128.0982170539147
 21
293.0559095433939
 31
0.0
  0
LINE
  5
1008
330
2
100
AcDbEntity
  8
0
100
AcDbLine
 10
125.0982170539219
 20
239.55590954337
 30
0.0
 11
116.598217053921
 21
239.55590954337
 31
0.0
  0
LINE
  5
1009
330
2
100
AcDbEntity
  8
0
100
AcDbLine
 10
125.0982170539219
 20
284.55590954337
 30
0.0
 11
116.5982170539147
 21
284.55590954337
 31
0.0
  0
ARC
  5
100A
330
2
100
AcDbEntity
  8
0
100
AcDbCircle
 10
125.0982170539219
 20
236.55590954337
 30
0.0
 40
3.0
100
AcDbArc
 50
0.0
 51
90.0
  0
LINE
  5
100B
330
2
100
AcDbEntity
  8
0
100
AcDbLine
 10
113.598217053921
 20
252.7822910478743
 30
0.0
 11
128.0982170539219
 21
252.7822910478743
 31
0.0
  0
LINE
  5
100C
330
2
100
AcDbEntity
  8
0
100
AcDbLine
 10
113.5982170539201
 20
271.3295280388654
 30
0.0
 11
128.0982170539219
 21
271.3295280388661
 31
0.0
  0
LINE
  5
100D
330
2
100
AcDbEntity
  8
0
100
AcDbLine
 10
127.5982170539219
 20
252.7822910478743
 30
0.0
 11
127.5982170539219
 21
271.3295280388661
 31
0.0
  0
ARC
  5
100E
330
2
100
AcDbEntity
  8
0
100
AcDbCircle
 10
111.598217053921
 20
235.5559095433738
 30
0.0
 40
2.0
100
AcDbArc
 50
270.0
 51
0.0000000000065138
  0
ARC
  5
100F
330
2
100
AcDbEntity
  8
0
100
AcDbCircle
 10
111.598217053921
 20
288.5559095433663
 30
0.0
 40
2.0
100
AcDbArc
 50
0.0
 51
90.0
  0
ARC
  5
1010
330
2
100
AcDbEntity
  8
0
100
AcDbCircle
 10
116.598217053921
 20
236.55590954337
 30
0.0
 40
3.0
100
AcDbArc
 50
90.0
 51
180.0
  0
ARC
  5
1011
330
2
100
AcDbEntity
  8
0
100
AcDbCircle
 10
116.5982170539147
 20
287.55590954337
 30
0.0
 40
3.0
100
AcDbArc
 50
180.0000000000065
 51
270.0
  0
ARC
  5
1012
330
2
100
AcDbEntity
  8
0
100
AcDbCircle
 10
125.0982170539219
 20
287.55590954337
 30
0.0
 40
3.0
100
AcDbArc
 50
270.0
 51
0.0
  0
ARC
  5
1013
330
2
100
AcDbEntity
  8
0
100
AcDbCircle
 10
107.0982170539265
 20
230.5559095433736
 30
0.0
 40
3.0
100
AcDbArc
 50
90.0
 51
180.0
  0
ARC
  5
1014
330
2
100
AcDbEntity
  8
0
100
AcDbCircle
 10
107.0982170539265
 20
293.5559095433666
 30
0.0
 40
3.0
100
AcDbArc
 50
180.0
 51
270.0
  0
LINE
  5
1015
330
2
100
AcDbEntity
  8
0
100
AcDbLine
 10
114.598217053921
 20
234.5559095433741
 30
0.0
 11
125.0982170539219
 21
234.5559095433745
 31
0.0
  0
ARC
  5
1016
330
2
100
AcDbEntity
  8
0
100
AcDbCircle
 10
114.598217053921
 20
231.555909543374
 30
0.0
 40
3.0
100
AcDbArc
 50
90.0
 51
126.8698976458049
  0
ARC
  5
1017
330
2
100
AcDbEntity
  8
0
100
AcDbCircle
 10
125.0982170539219
 20
231.5559095433745
 30
0.0
 40
3.0
100
AcDbArc
 50
0.0
 51
90.0
  0
ARC
  5
1018
330
2
100
AcDbEntity
  8
0
100
AcDbCircle
 10
125.0982170539219
 20
292.5559095433657
 30
0.0
 40
3.0
100
AcDbArc
 50
270.0
 51
0.0
  0
LINE
  5
1019
330
2
100
AcDbEntity
  8
0
100
AcDbLine
 10
114.598217053921
 20
289.5559095433661
 30
0.0
 11
125.0982170539219
 21
289.5559095433657
 31
0.0
  0
ARC
  5
101A
330
2
100
AcDbEntity
  8
0
100
AcDbCircle
 10
114.598217053921
 20
292.5559095433661
 30
0.0
 40
3.0
100
AcDbArc
 50
233.1301023541299
 51
270.0
  0
LINE
  5
101B
330
2
100
AcDbEntity
  8
0
100
AcDbLine
 10
92.09821705392561
 20
225.5559095433699
 30
0.0
 11
102.0982170539256
 21
225.5559095433699
 31
0.0
  0
ARC
  5
101C
330
2
100
AcDbEntity
  8
0
100
AcDbCircle
 10
102.0982170539256
 20
227.5559095433699
 30
0.0
 40
2.0
100
AcDbArc
 50
270.0
 51
0.0
  0
LINE
  5
101D
330
2
100
AcDbEntity
  8
0
100
AcDbLine
 10
102.0982170539256
 20
298.55590954337
 30
0.0
 11
92.09821705392561
 21
298.55590954337
 31
0.0
  0
ARC
  5
101E
330
2
100
AcDbEntity
  8
0
100
AcDbCircle
 10
102.0982170539256
 20
296.55590954337
 30
0.0
 40
2.0
100
AcDbArc
 50
0.0
 51
90.0
  0
LINE
  5
101F
330
2
100
AcDbEntity
  8
CENTER
100
AcDbLine
 10
244.4555539418166
 20
262.0559095433534
 30
0.0
 11
380.4555539421152
 21
262.0559095433534
 31
0.0
  0
LINE
  5
1020
330
2
100
AcDbEntity
  8
CENTER
100
AcDbLine
 10
307.4555539421118
 20
218.5559095433552
 30
0.0
 11
307.4555539421118
 21
305.5559095433516
 31
0.0
  0
LINE
  5
1021
330
2
100
AcDbEntity
  8
0
100
AcDbLine
 10
345.4555539421127
 20
226.5707947429859
 30
0.0
 11
345.4555539421136
 21
297.541024343714
 31
0.0
  0
LINE
  5
1022
330
2
100
AcDbEntity
  8
0
100
AcDbLine
 10
350.4555539421118
 20
232.0559095433568
 30
0.0
 11
350.4555539421118
 21
292.0559095433566
 31
0.0
  0
LINE
  5
1023
330
2
100
AcDbEntity
  8
0
100
AcDbLine
 10
345.4555539421118
 20
232.0559095433568
 30
0.0
 11
350.4555539421118
 21
232.0559095433568
 31
0.0
  0
LINE
  5
1024
330
2
100
AcDbEntity
  8
0
100
AcDbLine
 10
345.4555539421118
 20
292.0559095433566
 30
0.0
 11
350.4555539421118
 21
292.0559095433566
 31
0.0
  0
LINE
  5
1025
330
2
100
AcDbEntity
  8
0
100
AcDbLine
 10
363.4555539421154
 20
239.9872870929595
 30
0.0
 11
363.4555539421154
 21
284.1245319937318
 31
0.0
  0
LINE
  5
1026
330
2
100
AcDbEntity
  8
0
100
AcDbLine
 10
352.3857549487103
 20
237.6693436443767
 30
0.0
 11
361.5253529355205
 21
237.9885054389216
 31
0.0
  0
LINE
  5
1027
330
2
100
AcDbEntity
  8
0
100
AcDbLine
 10
352.3857549487103
 20
286.4424754423136
 30
0.0
 11
361.5253529355205
 21
286.1233136477697
 31
0.0
  0
ARC
  5
1028
330
2
100
AcDbEntity
  8
0
100
AcDbCircle
 10
361.4555539421154
 20
239.9872870929595
 30
0.0
 40
2.0
100
AcDbArc
 50
272.0000000000036
 51
0.0
  0
ARC
  5
1029
330
2
100
AcDbEntity
  8
0
100
AcDbCircle
 10
361.4555539421154
 20
284.1245319937318
 30
0.0
 40
2.0
100
AcDbArc
 50
0.0
 51
87.99999999999636
  0
ARC
  5
102A
330
2
100
AcDbEntity
  8
0
100
AcDbCircle
 10
352.4555539421154
 20
288.4412570963515
 30
0.0
 40
2.0
100
AcDbArc
 50
180.0
 51
267.9999999999963
  0
ARC
  5
102B
330
2
100
AcDbEntity
  8
0
100
AcDbCircle
 10
352.4555539421154
 20
235.6705619903388
 30
0.0
 40
2.0
100
AcDbArc
 50
92.00000000000365
 51
180.0
  0
LINE
  5
102C
330
2
100
AcDbEntity
  8
0
100
AcDbLine
 10
286.4555539418171
 20
298.0559095433532
 30
0.0
 11
345.4555539421136
 21
297.541024343714
 31
0.0
  0
LINE
  5
102D
330
2
100
AcDbEntity
  8
0
100
AcDbLine
 10
286.4555539418171
 20
226.0559095433534
 30
0.0
 11
345.4555539421127
 21
226.5707947429859
 31
0.0
  0
ARC
  5
102E
330
2
100
AcDbEntity
  8
0
100
AcDbCircle
 10
276.4555539421081
 20
230.9869473287405
 30
0.0
 40
5.0
100
AcDbArc
 50
180.0
 51
269.2042764472296
  0
LINE
  5
102F
330
2
100
AcDbEntity
  8
0
100
AcDbLine
 10
276.3861161946552
 20
225.9874295120678
 30
0.0
 11
307.4555539421081
 21
225.5559095433552
 31
0.0
  0
LINE
  5
1030
330
2
100
AcDbEntity
  8
0
100
AcDbLine
 10
338.5249916895564
 20
225.9874295120686
 30
0.0
 11
307.4555539421099
 21
225.5559095433552
 31
0.0
  0
ARC
  5
1031
330
2
100
AcDbEntity
  8
0
100
AcDbCircle
 10
338.4555539421027
 20
230.9869473287414
 30
0.0
 40
5.0
100
AcDbArc
 50
270.7957235527183
 51
297.0504175270566
  0
ARC
  5
1032
330
2
100
AcDbEntity
  8
0
100
AcDbCircle
 10
276.4555539421081
 20
293.1248717579662
 30
0.0
 40
5.0
100
AcDbArc
 50
90.79572355271826
 51
180.0
  0
LINE
  5
1033
330
2
100
AcDbEntity
  8
0
100
AcDbLine
 10
276.3861161946552
 20
298.124389574639
 30
0.0
 11
307.4555539421081
 21
298.5559095433515
 31
0.0
  0
LINE
  5
1034
330
2
100
AcDbEntity
  8
0
100
AcDbLine
 10
271.4555539421081
 20
293.1248717579662
 30
0.0
 11
271.4555539421081
 21
285.0559095433543
 31
0.0
  0
LINE
  5
1035
330
2
100
AcDbEntity
  8
0
100
AcDbLine
 10
271.4555539421081
 20
239.0559095433527
 30
0.0
 11
271.4555539421081
 21
230.9869473287405
 31
0.0
  0
LINE
  5
1036
330
2
100
AcDbEntity
  8
0
100
AcDbLine
 10
338.5249916895564
 20
298.1243895746381
 30
0.0
 11
307.4555539421099
 21
298.5559095433515
 31
0.0
  0
ARC
  5
1037
330
2
100
AcDbEntity
  8
0
100
AcDbCircle
 10
338.4555539421027
 20
293.1248717579653
 30
0.0
 40
5.0
100
AcDbArc
 50
62.9495824730018
 51
89.20427644728171
  0
LINE
  5
1038
330
2
100
AcDbEntity
  8
0
100
AcDbLine
 10
286.4555539418171
 20
298.0515461094405
 30
0.0
 11
286.4555539418171
 21
226.0602729772733
 31
0.0
  0
LINE
  5
1039
330
2
100
AcDbEntity
  8
0
100
AcDbLine
 10
277.9555539418171
 20
236.5559095433538
 30
0.0
 11
277.4555539418171
 21
237.0559095433534
 31
0.0
  0
LINE
  5
103A
330
2
100
AcDbEntity
  8
0
100
AcDbLine
 10
277.9555539418116
 20
236.5559095433588
 30
0.0
 11
277.9555539418116
 21
235.3059095433618
 31
0.0
  0
LINE
  5
103B
330
2
100
AcDbEntity
  8
0
100
AcDbLine
 10
272.1555539418169
 20
239.7559095433527
 30
0.0
 11
273.7555539418163
 21
239.755909543353
 31
0.0
  0
LINE
  5
103C
330
2
100
AcDbEntity
  8
0
100
AcDbLine
 10
273.9555539418171
 20
239.2559095433529
 30
0.0
 11
274.1555539418169
 21
239.0559095433529
 31
0.0
  0
LINE
  5
103D
330
2
100
AcDbEntity
  8
0
100
AcDbLine
 10
277.4555539418116
 20
287.0559095433479
 30
0.0
 11
277.4555539418171
 21
237.0559095433534
 31
0.0
  0
LINE
  5
103E
330
2
100
AcDbEntity
  8
0
100
AcDbLine
 10
274.1555539418169
 20
239.0559095433529
 30
0.0
 11
277.4555539418171
 21
239.0559095433534
 31
0.0
  0
LINE
  5
103F
330
2
100
AcDbEntity
  8
0
100
AcDbLine
 10
273.9555539418171
 20
239.2559095433529
 30
0.0
 11
273.9555539418171
 21
284.855909543354
 31
0.0
  0
LINE
  5
1040
330
2
100
AcDbEntity
  8
0
100
AcDbLine
 10
270.4555539418171
 20
239.0559095433525
 30
0.0
 11
269.4555539418171
 21
239.6332598125422
 31
0.0
  0
LINE
  5
1041
330
2
100
AcDbEntity
  8
0
100
AcDbLine
 10
270.4555539418171
 20
239.0559095433525
 30
0.0
 11
271.7555539418163
 21
239.0559095433529
 31
0.0
  0
LINE
  5
1042
330
2
100
AcDbEntity
  8
0
100
AcDbLine
 10
271.9555539418171
 20
239.2559095433527
 30
0.0
 11
271.955553941868
 21
284.855909543354
 31
0.0
  0
LINE
  5
1043
330
2
100
AcDbEntity
  8
0
100
AcDbLine
 10
277.455553941818
 20
281.9511658570757
 30
0.0
 11
277.455553941818
 21
242.1606532296309
 31
0.0
  0
LINE
  5
1044
330
2
100
AcDbEntity
  8
0
100
AcDbLine
 10
269.4555539418171
 20
284.4785592741652
 30
0.0
 11
269.4555539418189
 21
239.6332598125413
 31
0.0
  0
LINE
  5
1045
330
2
100
AcDbEntity
  8
0
100
AcDbLine
 10
272.1555539418169
 20
284.3559095433543
 30
0.0
 11
273.7555539418163
 21
284.355909543354
 31
0.0
  0
LINE
  5
1046
330
2
100
AcDbEntity
  8
0
100
AcDbLine
 10
273.9555539418171
 20
284.855909543354
 30
0.0
 11
274.1555539418169
 21
285.0559095433541
 31
0.0
  0
LINE
  5
1047
330
2
100
AcDbEntity
  8
0
100
AcDbLine
 10
274.1555539418169
 20
285.0559095433541
 30
0.0
 11
277.4555539418171
 21
285.0559095433536
 31
0.0
  0
LINE
  5
1048
330
2
100
AcDbEntity
  8
0
100
AcDbLine
 10
270.4555539418171
 20
285.0559095433543
 30
0.0
 11
269.4555539418171
 21
284.4785592741648
 31
0.0
  0
LINE
  5
1049
330
2
100
AcDbEntity
  8
0
100
AcDbLine
 10
270.4555539418171
 20
285.0559095433543
 30
0.0
 11
271.7555539418163
 21
285.0559095433543
 31
0.0
  0
LINE
  5
104A
330
2
100
AcDbEntity
  8
HIDS
  6
SEKKEI_H
100
AcDbLine
 10
278.5413403794392
 20
293.1416959809805
 30
0.0
 11
279.369767504185
 21
293.9701231057267
 31
0.0
  0
LINE
  5
104B
330
2
100
AcDbEntity
  8
0
100
AcDbLine
 10
286.455515864157
 20
298.0559093772071
 30
0.0
 11
280.9468274063139
 21
298.0078357813354
 31
0.0
  0
LINE
  5
104C
330
2
100
AcDbEntity
  8
0
100
AcDbLine
 10
286.4555539418171
 20
298.0559095433532
 30
0.0
 11
286.4555539418171
 21
226.0559095433534
 31
0.0
  0
LINE
  5
104D
330
2
100
AcDbEntity
  8
0
100
AcDbLine
 10
277.9555539418171
 20
287.5559095433532
 30
0.0
 11
277.4555539418116
 21
287.0559095433479
 31
0.0
  0
ARC
  5
104E
330
2
100
AcDbEntity
  8
0
100
AcDbCircle
 10
280.9555539418116
 20
297.0559095433534
 30
0.0
 40
1.0
100
AcDbArc
 50
180.0
 51
180.0
  0
ARC
  5
104F
330
2
100
AcDbEntity
  8
HIDS
  6
SEKKEI_H
100
AcDbCircle
 10
279.9555539418116
 20
291.7274824186074
 30
0.0
 40
2.0
100
AcDbArc
 50
135.0000000000092
 51
180.0
  0
ARC
  5
1050
330
2
100
AcDbEntity
  8
HIDS
  6
SEKKEI_H
100
AcDbCircle
 10
277.9555539418116
 20
295.3843366680998
 30
0.0
 40
2.0
100
AcDbArc
 50
315.0000000000092
 51
0.0
  0
ARC
  5
1051
330
2
100
AcDbEntity
  8
0
100
AcDbCircle
 10
271.7555539418163
 20
284.855909543354
 30
0.0
 40
0.2
100
AcDbArc
 50
359.9999999999348
 51
90.0
  0
ARC
  5
1052
330
2
100
AcDbEntity
  8
0
100
AcDbCircle
 10
272.1555539418169
 20
284.5559095433543
 30
0.0
 40
0.2
100
AcDbArc
 50
180.0000000000651
 51
270.0
  0
ARC
  5
1053
330
2
100
AcDbEntity
  8
0
100
AcDbCircle
 10
273.7555539418163
 20
284.5559095433541
 30
0.0
 40
0.2
100
AcDbArc
 50
270.0
 51
0.0
  0
ARC
  5
1054
330
2
100
AcDbEntity
  8
0
100
AcDbCircle
 10
271.7555539418163
 20
239.2559095433527
 30
0.0
 40
0.2
100
AcDbArc
 50
270.0
 51
359.9999999999348
  0
ARC
  5
1055
330
2
100
AcDbEntity
  8
0
100
AcDbCircle
 10
272.1555539418169
 20
239.5559095433527
 30
0.0
 40
0.2
100
AcDbArc
 50
90.0
 51
179.9999999999348
  0
ARC
  5
1056
330
2
100
AcDbEntity
  8
0
100
AcDbCircle
 10
273.7555539418163
 20
239.5559095433529
 30
0.0
 40
0.2
100
AcDbArc
 50
0.0
 51
90.0
  0
LINE
  5
1057
330
2
100
AcDbEntity
  8
HIDS
  6
SEKKEI_H
100
AcDbLine
 10
278.5413403794392
 20
230.9701231057263
 30
0.0
 11
279.3697675041859
 21
230.14169598098
 31
0.0
  0
LINE
  5
1058
330
2
100
AcDbEntity
  8
0
100
AcDbLine
 10
286.455515864157
 20
226.0559097094996
 30
0.0
 11
280.9468274063139
 21
226.1039833053718
 31
0.0
  0
LINE
  5
1059
330
2
100
AcDbEntity
  8
0
100
AcDbLine
 10
279.9555539418125
 20
297.3059095433445
 30
0.0
 11
279.9555539418125
 21
226.8059095433618
 31
0.0
  0
ARC
  5
105A
330
2
100
AcDbEntity
  8
0
100
AcDbCircle
 10
280.9555539418125
 20
227.1039452284357
 30
0.0
 40
1.0
100
AcDbArc
 50
180.0
 51
269.4999999999824
  0
ARC
  5
105B
330
2
100
AcDbEntity
  8
0
100
AcDbCircle
 10
280.9555539418125
 20
297.007873858271
 30
0.0
 40
1.0
100
AcDbArc
 50
90.50000000001761
 51
180.0
  0
LINE
  5
105C
330
2
100
AcDbEntity
  8
0
100
AcDbLine
 10
277.9555539418125
 20
288.805909543345
 30
0.0
 11
277.9555539418125
 21
235.3059095433618
 31
0.0
  0
ARC
  5
105D
330
2
100
AcDbEntity
  8
HIDS
  6
SEKKEI_H
100
AcDbCircle
 10
279.9555539418125
 20
232.3843366680994
 30
0.0
 40
2.0
100
AcDbArc
 50
180.0
 51
224.9999999999908
  0
ARC
  5
105E
330
2
100
AcDbEntity
  8
HIDS
  6
SEKKEI_H
100
AcDbCircle
 10
277.9555539418125
 20
228.7274824186069
 30
0.0
 40
2.0
100
AcDbArc
 50
0.0
 51
44.99999999999078
  0
LINE
  5
105F
330
2
100
AcDbEntity
  8
0
100
AcDbLine
 10
345.4555539421136
 20
290.0559095433668
 30
0.0
 11
286.4555539418171
 21
290.0559095433668
 31
0.0
  0
LINE
  5
1060
330
2
100
AcDbEntity
  8
0
100
AcDbLine
 10
345.4555539421136
 20
293.055909543345
 30
0.0
 11
286.4555539418171
 21
293.055909543345
 31
0.0
  0
LINE
  5
1061
330
2
100
AcDbEntity
  8
0
100
AcDbLine
 10
345.4555539421136
 20
278.5835050633497
 30
0.0
 11
286.4555539418171
 21
278.5835050633497
 31
0.0
  0
LINE
  5
1062
330
2
100
AcDbEntity
  8
0
100
AcDbLine
 10
286.4555539418171
 20
290.0559095433668
 30
0.0
 11
280.9468274063139
 21
290.0559095433668
 31
0.0
  0
LINE
  5
1063
330
2
100
AcDbEntity
  8
0
100
AcDbLine
 10
286.4555539418171
 20
278.5835050633497
 30
0.0
 11
280.9468274063139
 21
278.5835050633496
 31
0.0
  0
LINE
  5
1064
330
2
100
AcDbEntity
  8
0
100
AcDbLine
 10
286.4555539418171
 20
231.0559095433618
 30
0.0
 11
280.9468274063139
 21
231.0559095433618
 31
0.0
  0
LINE
  5
1065
330
2
100
AcDbEntity
  8
0
100
AcDbLine
 10
286.4555539418171
 20
234.05590954334
 30
0.0
 11
280.9468274063139
 21
234.05590954334
 31
0.0
  0
LINE
  5
1066
330
2
100
AcDbEntity
  8
0
100
AcDbLine
 10
286.4555539418171
 20
245.528314023357
 30
0.0
 11
280.9468274063139
 21
245.5283140233572
 31
0.0
  0
LINE
  5
1067
330
2
100
AcDbEntity
  8
0
100
AcDbLine
 10
345.4555539421136
 20
234.05590954334
 30
0.0
 11
286.4555539418171
 21
234.05590954334
 31
0.0
  0
LINE
  5
1068
330
2
100
AcDbEntity
  8
0
100
AcDbLine
 10
345.4555539421136
 20
231.0559095433618
 30
0.0
 11
286.4555539418171
 21
231.0559095433618
 31
0.0
  0
LINE
  5
1069
330
2
100
AcDbEntity
  8
0
100
AcDbLine
 10
345.4555539421136
 20
245.528314023357
 30
0.0
 11
286.4555539418171
 21
245.528314023357
 31
0.0
  0
LINE
  5
106A
330
2
100
AcDbEntity
  8
CENTER
100
AcDbLine
 10
202.348217053921
 20
293.0559095433709
 30
0.0
 11
187.848217053921
 21
293.0559095433702
 31
0.0
  0
LINE
  5
106B
330
2
100
AcDbEntity
  8
CENTER
100
AcDbLine
 10
195.0982170539201
 20
300.3059095433707
 30
0.0
 11
195.098217053921
 21
285.8059095433704
 31
0.0
  0
LINE
  5
106C
330
2
100
AcDbEntity
  8
CENTER
100
AcDbLine
 10
125.8482170539229
 20
293.0559095433713
 30
0.0
 11
140.3482170539238
 21
293.0559095433707
 31
0.0
  0
LINE
  5
106D
330
2
100
AcDbEntity
  8
CENTER
100
AcDbLine
 10
127.4250119731642
 20
286.5559095433689
 30
0.0
 11
137.7714221346788
 21
286.5559095433693
 31
0.0
  0
LINE
  5
106E
330
2
100
AcDbEntity
  8
CENTER
100
AcDbLine
 10
132.598217053921
 20
291.7291146241261
 30
0.0
 11
132.5982170539219
 21
281.382704462612
 31
0.0
  0
CIRCLE
  5
106F
330
2
100
AcDbEntity
  8
HOJO
100
AcDbCircle
 10
132.5982170539219
 20
286.5559095433691
 30
0.0
 40
2.0
  0
LINE
  5
1070
330
2
100
AcDbEntity
  8
CENTER
100
AcDbLine
 10
202.348217053922
 20
231.0559095433702
 30
0.0
 11
187.8482170539219
 21
231.0559095433702
 31
0.0
  0
LINE
  5
1071
330
2
100
AcDbEntity
  8
CENTER
100
AcDbLine
 10
200.7714221346797
 20
237.5559095433704
 30
0.0
 11
190.4250119731651
 21
237.5559095433704
 31
0.0
  0
CIRCLE
  5
1072
330
2
100
AcDbEntity
  8
HOJO
100
AcDbCircle
 10
195.5982170539219
 20
237.5559095433704
 30
0.0
 40
2.0
  0
LINE
  5
1073
330
2
100
AcDbEntity
  8
CENTER
100
AcDbLine
 10
195.0982170539219
 20
223.80590954337
 30
0.0
 11
195.0982170539219
 21
238.3059095433702
 31
0.0
  0
LINE
  5
1074
330
2
100
AcDbEntity
  8
CENTER
100
AcDbLine
 10
195.5982170539219
 20
232.3827044626134
 30
0.0
 11
195.5982170539219
 21
242.7291146241274
 31
0.0
  0
LINE
  5
1075
330
2
100
AcDbEntity
  8
CENTER
100
AcDbLine
 10
125.8482170539219
 20
231.0559095433693
 30
0.0
 11
140.3482170539229
 21
231.0559095433697
 31
0.0
  0
ARC
  5
1076
330
2
100
AcDbEntity
  8
0
100
AcDbCircle
 10
133.4682170539218
 20
293.0559095433702
 30
0.0
 40
5.0
100
AcDbArc
 50
90.0
 51
180.0
  0
LINE
  5
1077
330
2
100
AcDbEntity
  8
0
100
AcDbLine
 10
136.0982170539228
 20
298.0559095433702
 30
0.0
 11
133.4682170539218
 21
298.0559095433702
 31
0.0
  0
LINE
  5
1078
330
2
100
AcDbEntity
  8
0
100
AcDbLine
 10
147.1718101827292
 20
231.5559095433699
 30
0.0
 11
181.0246239251147
 21
231.5559095433699
 31
0.0
  0
LINE
  5
1079
330
2
100
AcDbEntity
  8
0
100
AcDbLine
 10
147.1718101827292
 20
229.5559095433699
 30
0.0
 11
181.0246239251147
 21
229.5559095433697
 31
0.0
  0
CIRCLE
  5
107A
330
2
100
AcDbEntity
  8
0
100
AcDbCircle
 10
164.0982170539219
 20
262.0559095433702
 30
0.0
 40
25.5
  0
CIRCLE
  5
107B
330
2
100
AcDbEntity
  8
0
100
AcDbCircle
 10
164.0982170539219
 20
262.0559095433702
 30
0.0
 40
25.0
  0
CIRCLE
  5
107C
330
2
100
AcDbEntity
  8
0
100
AcDbCircle
 10
164.0982170539219
 20
262.0559095433702
 30
0.0
 40
22.42259999999999
  0
CIRCLE
  5
107D
330
2
100
AcDbEntity
  8
0
100
AcDbCircle
 10
164.0982170539219
 20
262.0559095433702
 30
0.0
 40
23.0
  0
CIRCLE
  5
107E
330
2
100
AcDbEntity
  8
0
100
AcDbCircle
 10
164.0982170539219
 20
262.0559095433702
 30
0.0
 40
19.5774
  0
CIRCLE
  5
107F
330
2
100
AcDbEntity
  8
0
100
AcDbCircle
 10
164.0982170539219
 20
262.0559095433702
 30
0.0
 40
19.0
  0
LINE
  5
1080
330
2
100
AcDbEntity
  8
0
100
AcDbLine
 10
194.5982170539229
 20
245.1295026721777
 30
0.0
 11
194.5982170539229
 21
278.9823164145627
 31
0.0
  0
LINE
  5
1081
330
2
100
AcDbEntity
  8
0
100
AcDbLine
 10
196.5982170539229
 20
245.1295026721777
 30
0.0
 11
196.5982170539229
 21
278.9823164145627
 31
0.0
  0
CIRCLE
  5
1082
330
2
100
AcDbEntity
  8
0
100
AcDbCircle
 10
195.5982170539219
 20
237.5559095433704
 30
0.0
 40
1.6
  0
LINE
  5
1083
330
2
100
AcDbEntity
  8
0
100
AcDbLine
 10
133.5982170539219
 20
278.9823164145627
 30
0.0
 11
133.5982170539219
 21
245.1295026721777
 31
0.0
  0
LINE
  5
1084
330
2
100
AcDbEntity
  8
0
100
AcDbLine
 10
131.5982170539219
 20
278.9823164145627
 30
0.0
 11
131.5982170539219
 21
245.1295026721777
 31
0.0
  0
LINE
  5
1085
330
2
100
AcDbEntity
  8
0
100
AcDbLine
 10
128.4682170539237
 20
231.05590954337
 30
0.0
 11
128.4682170539218
 21
293.05590954337
 31
0.0
  0
CIRCLE
  5
1086
330
2
100
AcDbEntity
  8
0
100
AcDbCircle
 10
132.5982170539219
 20
286.5559095433691
 30
0.0
 40
1.6
  0
ARC
  5
1087
330
2
100
AcDbEntity
  8
0
100
AcDbCircle
 10
133.4682170539236
 20
231.0559095433702
 30
0.0
 40
5.0
100
AcDbArc
 50
180.0
 51
270.0
  0
LINE
  5
1088
330
2
100
AcDbEntity
  8
0
100
AcDbLine
 10
136.0982170539228
 20
226.0559095433702
 30
0.0
 11
133.4682170539236
 21
226.0559095433702
 31
0.0
  0
LINE
  5
1089
330
2
100
AcDbEntity
  8
0
100
AcDbLine
 10
193.1337509598553
 20
241.5939687662448
 30
0.0
 11
184.560157831048
 21
233.0203756374373
 31
0.0
  0
ARC
  5
108A
330
2
100
AcDbEntity
  8
0
100
AcDbCircle
 10
189.5982170539219
 20
245.1295026721777
 30
0.0
 40
5.0
100
AcDbArc
 50
315.0000000000092
 51
0.0
  0
ARC
  5
108B
330
2
100
AcDbEntity
  8
0
100
AcDbCircle
 10
181.0246239251147
 20
236.55590954337
 30
0.0
 40
5.0
100
AcDbArc
 50
270.0
 51
315.0000000000092
  0
LINE
  5
108C
330
2
100
AcDbEntity
  8
0
100
AcDbLine
 10
194.5479645222286
 20
240.1797552038717
 30
0.0
 11
185.9743713934204
 21
231.6061620750642
 31
0.0
  0
ARC
  5
108D
330
2
100
AcDbEntity
  8
0
100
AcDbCircle
 10
189.5982170539219
 20
245.1295026721777
 30
0.0
 40
7.0
100
AcDbArc
 50
315.0000000000092
 51
0.0
  0
ARC
  5
108E
330
2
100
AcDbEntity
  8
0
100
AcDbCircle
 10
181.0246239251147
 20
236.55590954337
 30
0.0
 40
7.0
100
AcDbArc
 50
270.0
 51
315.0000000000092
  0
ARC
  5
108F
330
2
100
AcDbEntity
  8
0
100
AcDbCircle
 10
138.5982170539219
 20
245.1295026721777
 30
0.0
 40
7.0
100
AcDbArc
 50
180.0
 51
224.9999999999908
  0
LINE
  5
1090
330
2
100
AcDbEntity
  8
0
100
AcDbLine
 10
133.6484695856162
 20
240.1797552038717
 30
0.0
 11
142.2220627144243
 21
231.6061620750642
 31
0.0
  0
LINE
  5
1091
330
2
100
AcDbEntity
  8
0
100
AcDbLine
 10
135.0626831479895
 20
241.5939687662448
 30
0.0
 11
143.6362762767968
 21
233.0203756374373
 31
0.0
  0
ARC
  5
1092
330
2
100
AcDbEntity
  8
0
100
AcDbCircle
 10
147.1718101827292
 20
236.55590954337
 30
0.0
 40
7.0
100
AcDbArc
 50
224.9999999999908
 51
270.0
  0
ARC
  5
1093
330
2
100
AcDbEntity
  8
0
100
AcDbCircle
 10
147.1718101827292
 20
236.55590954337
 30
0.0
 40
5.0
100
AcDbArc
 50
224.9999999999908
 51
270.0
  0
ARC
  5
1094
330
2
100
AcDbEntity
  8
0
100
AcDbCircle
 10
138.5982170539219
 20
245.1295026721777
 30
0.0
 40
5.0
100
AcDbArc
 50
180.0
 51
224.9999999999908
  0
ARC
  5
1095
330
2
100
AcDbEntity
  8
0
100
AcDbCircle
 10
181.0246239251147
 20
287.5559095433704
 30
0.0
 40
7.0
100
AcDbArc
 50
44.99999999999078
 51
90.0
  0
ARC
  5
1096
330
2
100
AcDbEntity
  8
0
100
AcDbCircle
 10
181.0246239251147
 20
287.5559095433704
 30
0.0
 40
5.0
100
AcDbArc
 50
44.99999999999078
 51
90.0
  0
LINE
  5
1097
330
2
100
AcDbEntity
  8
0
100
AcDbLine
 10
147.1718101827292
 20
294.5559095433702
 30
0.0
 11
181.0246239251147
 21
294.5559095433704
 31
0.0
  0
LINE
  5
1098
330
2
100
AcDbEntity
  8
0
100
AcDbLine
 10
147.1718101827292
 20
292.5559095433702
 30
0.0
 11
181.0246239251147
 21
292.5559095433702
 31
0.0
  0
ARC
  5
1099
330
2
100
AcDbEntity
  8
0
100
AcDbCircle
 10
147.1718101827292
 20
287.5559095433704
 30
0.0
 40
5.0
100
AcDbArc
 50
90.0
 51
135.0000000000092
  0
ARC
  5
109A
330
2
100
AcDbEntity
  8
0
100
AcDbCircle
 10
147.1718101827292
 20
287.5559095433704
 30
0.0
 40
7.0
100
AcDbArc
 50
90.0
 51
135.0000000000092
  0
LINE
  5
109B
330
2
100
AcDbEntity
  8
0
100
AcDbLine
 10
135.0626831479895
 20
282.5178503204954
 30
0.0
 11
143.6362762767968
 21
291.0914434493029
 31
0.0
  0
LINE
  5
109C
330
2
100
AcDbEntity
  8
0
100
AcDbLine
 10
133.6484695856162
 20
283.9320638828685
 30
0.0
 11
142.2220627144243
 21
292.505657011676
 31
0.0
  0
ARC
  5
109D
330
2
100
AcDbEntity
  8
0
100
AcDbCircle
 10
138.5982170539219
 20
278.9823164145627
 30
0.0
 40
5.0
100
AcDbArc
 50
135.0000000000092
 51
180.0
  0
ARC
  5
109E
330
2
100
AcDbEntity
  8
0
100
AcDbCircle
 10
138.5982170539219
 20
278.9823164145627
 30
0.0
 40
7.0
100
AcDbArc
 50
135.0000000000092
 51
180.0
  0
ARC
  5
109F
330
2
100
AcDbEntity
  8
0
100
AcDbCircle
 10
189.5982170539219
 20
278.9823164145627
 30
0.0
 40
7.0
100
AcDbArc
 50
0.0
 51
44.99999999999078
  0
ARC
  5
10A0
330
2
100
AcDbEntity
  8
0
100
AcDbCircle
 10
189.5982170539219
 20
278.9823164145627
 30
0.0
 40
5.0
100
AcDbArc
 50
0.0
 51
44.99999999999078
  0
LINE
  5
10A1
330
2
100
AcDbEntity
  8
0
100
AcDbLine
 10
193.1337509598553
 20
282.5178503204956
 30
0.0
 11
184.560157831048
 21
291.0914434493029
 31
0.0
  0
LINE
  5
10A2
330
2
100
AcDbEntity
  8
0
100
AcDbLine
 10
194.5479645222286
 20
283.9320638828685
 30
0.0
 11
185.9743713934204
 21
292.5056570116762
 31
0.0
  0
LINE
  5
10A3
330
2
100
AcDbEntity
  8
CENTER
100
AcDbLine
 10
202.1692848657997
 20
300.1269773552473
 30
0.0
 11
126.0271492420691
 21
223.9848417315167
 31
0.0
  0
LINE
  5
10A4
330
2
100
AcDbEntity
  8
CENTER
100
AcDbLine
 10
133.0982170539229
 20
223.8059095433697
 30
0.0
 11
133.0982170539229
 21
238.30590954337
 31
0.0
  0
LINE
  5
10A5
330
2
100
AcDbEntity
  8
CENTER
100
AcDbLine
 10
133.0982170539238
 20
300.3059095433704
 30
0.0
 11
133.0982170539229
 21
285.80590954337
 31
0.0
  0
LINE
  5
10A6
330
2
100
AcDbEntity
  8
0
100
AcDbLine
 10
182.9380410869408
 20
231.9365118808134
 30
0.0
 11
183.7034079516707
 21
230.0887528157909
 31
0.0
  0
LINE
  5
10A7
330
2
100
AcDbEntity
  8
0
100
AcDbLine
 10
194.2176147164792
 20
243.2160855103522
 30
0.0
 11
196.065373781502
 21
242.4507186456221
 31
0.0
  0
LINE
  5
10A8
330
2
100
AcDbEntity
  8
0
100
AcDbLine
 10
194.2176147164792
 20
280.8957335763882
 30
0.0
 11
196.065373781502
 21
281.6611004411183
 31
0.0
  0
LINE
  5
10A9
330
2
100
AcDbEntity
  8
0
100
AcDbLine
 10
182.9380410869408
 20
292.1753072059268
 30
0.0
 11
183.7034079516707
 21
294.0230662709493
 31
0.0
  0
LINE
  5
10AA
330
2
100
AcDbEntity
  8
0
100
AcDbLine
 10
133.9788193913656
 20
243.216085510352
 30
0.0
 11
132.1310603263428
 21
242.4507186456216
 31
0.0
  0
LINE
  5
10AB
330
2
100
AcDbEntity
  8
0
100
AcDbLine
 10
145.258393020904
 20
231.9365118808134
 30
0.0
 11
144.493026156174
 21
230.0887528157907
 31
0.0
  0
LINE
  5
10AC
330
2
100
AcDbEntity
  8
0
100
AcDbLine
 10
133.9788193913656
 20
280.895733576388
 30
0.0
 11
132.1310603263428
 21
281.6611004411181
 31
0.0
  0
LINE
  5
10AD
330
2
100
AcDbEntity
  8
0
100
AcDbLine
 10
145.258393020904
 20
292.1753072059266
 30
0.0
 11
144.493026156174
 21
294.0230662709491
 31
0.0
  0
LINE
  5
10AE
330
2
100
AcDbEntity
  8
CENTER
100
AcDbLine
 10
126.0271492420437
 20
300.1269773552473
 30
0.0
 11
202.1692848657756
 21
223.9848417315172
 31
0.0
  0
LINE
  5
10AF
330
2
100
AcDbEntity
  8
0
100
AcDbLine
 10
197.098217053921
 20
291.9012090049895
 30
0.0
 11
195.098217053921
 21
290.7465084666103
 31
0.0
  0
CIRCLE
  5
10B0
330
2
100
AcDbEntity
  8
0
100
AcDbCircle
 10
195.098217053921
 20
293.0559095433686
 30
0.0
 40
4.250000000000085
  0
CIRCLE
  5
10B1
330
2
100
AcDbEntity
  8
0
100
AcDbCircle
 10
195.098217053921
 20
293.0559095433686
 30
0.0
 40
3.730384757729268
  0
LINE
  5
10B2
330
2
100
AcDbEntity
  8
0
100
AcDbLine
 10
195.0982170539201
 20
295.365310620127
 30
0.0
 11
197.098217053921
 21
294.2106100817479
 31
0.0
  0
LINE
  5
10B3
330
2
100
AcDbEntity
  8
0
100
AcDbLine
 10
193.098217053921
 20
294.2106100817479
 30
0.0
 11
193.098217053921
 21
291.9012090049893
 31
0.0
  0
LINE
  5
10B4
330
2
100
AcDbEntity
  8
0
100
AcDbLine
 10
193.098217053921
 20
291.9012090049893
 30
0.0
 11
195.0982170539201
 21
290.7465084666103
 31
0.0
  0
LINE
  5
10B5
330
2
100
AcDbEntity
  8
0
100
AcDbLine
 10
195.0982170539201
 20
295.3653106201272
 30
0.0
 11
193.098217053921
 21
294.2106100817479
 31
0.0
  0
LINE
  5
10B6
330
2
100
AcDbEntity
  8
0
100
AcDbLine
 10
197.098217053921
 20
294.2106100817479
 30
0.0
 11
197.098217053921
 21
291.9012090049895
 31
0.0
  0
LINE
  5
10B7
330
2
100
AcDbEntity
  8
0
100
AcDbLine
 10
197.0982170539219
 20
229.9012090049911
 30
0.0
 11
195.0982170539219
 21
228.7465084666118
 31
0.0
  0
CIRCLE
  5
10B8
330
2
100
AcDbEntity
  8
0
100
AcDbCircle
 10
195.0982170539219
 20
231.0559095433702
 30
0.0
 40
4.250000000000085
  0
CIRCLE
  5
10B9
330
2
100
AcDbEntity
  8
0
100
AcDbCircle
 10
195.0982170539219
 20
231.0559095433702
 30
0.0
 40
3.730384757729268
  0
LINE
  5
10BA
330
2
100
AcDbEntity
  8
0
100
AcDbLine
 10
195.0982170539219
 20
233.3653106201285
 30
0.0
 11
197.0982170539219
 21
232.2106100817495
 31
0.0
  0
LINE
  5
10BB
330
2
100
AcDbEntity
  8
0
100
AcDbLine
 10
193.0982170539219
 20
232.2106100817495
 30
0.0
 11
193.0982170539219
 21
229.9012090049909
 31
0.0
  0
LINE
  5
10BC
330
2
100
AcDbEntity
  8
0
100
AcDbLine
 10
193.0982170539219
 20
229.9012090049909
 30
0.0
 11
195.0982170539219
 21
228.7465084666118
 31
0.0
  0
LINE
  5
10BD
330
2
100
AcDbEntity
  8
0
100
AcDbLine
 10
195.0982170539219
 20
233.3653106201288
 30
0.0
 11
193.0982170539219
 21
232.2106100817495
 31
0.0
  0
LINE
  5
10BE
330
2
100
AcDbEntity
  8
0
100
AcDbLine
 10
197.0982170539219
 20
232.2106100817495
 30
0.0
 11
197.0982170539219
 21
229.9012090049911
 31
0.0
  0
LINE
  5
10BF
330
2
100
AcDbEntity
  8
0
100
AcDbLine
 10
131.0982170539238
 20
291.9012090049895
 30
0.0
 11
133.0982170539238
 21
290.7465084666103
 31
0.0
  0
CIRCLE
  5
10C0
330
2
100
AcDbEntity
  8
0
100
AcDbCircle
 10
133.0982170539238
 20
293.0559095433686
 30
0.0
 40
4.250000000000085
  0
CIRCLE
  5
10C1
330
2
100
AcDbEntity
  8
0
100
AcDbCircle
 10
133.0982170539238
 20
293.0559095433686
 30
0.0
 40
3.730384757729268
  0
LINE
  5
10C2
330
2
100
AcDbEntity
  8
0
100
AcDbLine
 10
133.0982170539238
 20
295.365310620127
 30
0.0
 11
131.0982170539238
 21
294.2106100817479
 31
0.0
  0
LINE
  5
10C3
330
2
100
AcDbEntity
  8
0
100
AcDbLine
 10
135.0982170539237
 20
294.2106100817479
 30
0.0
 11
135.0982170539237
 21
291.9012090049893
 31
0.0
  0
LINE
  5
10C4
330
2
100
AcDbEntity
  8
0
100
AcDbLine
 10
135.0982170539237
 20
291.9012090049893
 30
0.0
 11
133.0982170539238
 21
290.7465084666103
 31
0.0
  0
LINE
  5
10C5
330
2
100
AcDbEntity
  8
0
100
AcDbLine
 10
133.0982170539238
 20
295.3653106201272
 30
0.0
 11
135.0982170539237
 21
294.2106100817479
 31
0.0
  0
LINE
  5
10C6
330
2
100
AcDbEntity
  8
0
100
AcDbLine
 10
131.0982170539238
 20
294.2106100817479
 30
0.0
 11
131.0982170539238
 21
291.9012090049895
 31
0.0
  0
LINE
  5
10C7
330
2
100
AcDbEntity
  8
0
100
AcDbLine
 10
131.0982170539219
 20
229.9012090049911
 30
0.0
 11
133.0982170539219
 21
228.7465084666118
 31
0.0
  0
CIRCLE
  5
10C8
330
2
100
AcDbEntity
  8
0
100
AcDbCircle
 10
133.0982170539219
 20
231.0559095433702
 30
0.0
 40
4.250000000000085
  0
CIRCLE
  5
10C9
330
2
100
AcDbEntity
  8
0
100
AcDbCircle
 10
133.0982170539219
 20
231.0559095433702
 30
0.0
 40
3.730384757729268
  0
LINE
  5
10CA
330
2
100
AcDbEntity
  8
0
100
AcDbLine
 10
133.0982170539219
 20
233.3653106201285
 30
0.0
 11
131.0982170539219
 21
232.2106100817495
 31
0.0
  0
LINE
  5
10CB
330
2
100
AcDbEntity
  8
0
100
AcDbLine
 10
135.0982170539219
 20
232.2106100817495
 30
0.0
 11
135.0982170539219
 21
229.9012090049909
 31
0.0
  0
LINE
  5
10CC
330
2
100
AcDbEntity
  8
0
100
AcDbLine
 10
135.0982170539219
 20
229.9012090049909
 30
0.0
 11
133.0982170539219
 21
228.7465084666118
 31
0.0
  0
LINE
  5
10CD
330
2
100
AcDbEntity
  8
0
100
AcDbLine
 10
133.0982170539219
 20
233.3653106201288
 30
0.0
 11
135.0982170539219
 21
232.2106100817495
 31
0.0
  0
LINE
  5
10CE
330
2
100
AcDbEntity
  8
0
100
AcDbLine
 10
131.0982170539219
 20
232.2106100817495
 30
0.0
 11
131.0982170539219
 21
229.9012090049911
 31
0.0
  0
LINE
  5
10CF
330
2
100
AcDbEntity
  8
CENTER
  6
CENS
100
AcDbLine
 10
270.6555539418169
 20
293.0559095433709
 30
0.0
 11
290.2042554224136
 21
293.0559095433709
 31
0.0
  0
LINE
  5
10D0
330
2
100
AcDbEntity
  8
0
100
AcDbLine
 10
273.9555539418171
 20
297.305909543345
 30
0.0
 11
279.9555539418125
 21
297.3059095433445
 31
0.0
  0
LINE
  5
10D1
330
2
100
AcDbEntity
  8
0
100
AcDbLine
 10
273.9555539418171
 20
288.805909543345
 30
0.0
 11
279.9555539418171
 21
288.805909543345
 31
0.0
  0
LINE
  5
10D2
330
2
100
AcDbEntity
  8
0
100
AcDbLine
 10
278.6555539418169
 20
288.805909543345
 30
0.0
 11
278.6555539418169
 21
297.305909543345
 31
0.0
  0
LINE
  5
10D3
330
2
100
AcDbEntity
  8
0
100
AcDbLine
 10
273.9555539418171
 20
288.805909543345
 30
0.0
 11
273.9555539418171
 21
297.305909543345
 31
0.0
  0
LINE
  5
10D4
330
2
100
AcDbEntity
  8
0
100
AcDbLine
 10
273.9555539418171
 20
288.805909543345
 30
0.0
 11
273.6555539418169
 21
289.3255247856154
 31
0.0
  0
LINE
  5
10D5
330
2
100
AcDbEntity
  8
0
100
AcDbLine
 10
273.9555539418171
 20
297.305909543345
 30
0.0
 11
273.6555539418169
 21
296.7862943010741
 31
0.0
  0
LINE
  5
10D6
330
2
100
AcDbEntity
  8
0
100
AcDbLine
 10
273.6555539418169
 20
289.3255247856154
 30
0.0
 11
273.6555539418169
 21
296.7862943010741
 31
0.0
  0
LINE
  5
10D7
330
2
100
AcDbEntity
  8
HIDS
  6
SEKKEI_H
100
AcDbLine
 10
277.9555539418116
 20
291.7274824186074
 30
0.0
 11
277.9555539418125
 21
288.805909543345
 31
0.0
  0
LINE
  5
10D8
330
2
100
AcDbEntity
  8
CENTER
  6
CENS
100
AcDbLine
 10
270.6555539418169
 20
231.0559095433359
 30
0.0
 11
290.2042554224136
 21
231.0559095433359
 31
0.0
  0
LINE
  5
10D9
330
2
100
AcDbEntity
  8
0
100
AcDbLine
 10
273.9555539418171
 20
226.8059095433618
 30
0.0
 11
279.9555539418125
 21
226.8059095433618
 31
0.0
  0
LINE
  5
10DA
330
2
100
AcDbEntity
  8
0
100
AcDbLine
 10
273.9555539418171
 20
235.3059095433618
 30
0.0
 11
279.9555539418171
 21
235.3059095433618
 31
0.0
  0
LINE
  5
10DB
330
2
100
AcDbEntity
  8
0
100
AcDbLine
 10
278.6555539418169
 20
235.3059095433618
 30
0.0
 11
278.6555539418169
 21
226.8059095433618
 31
0.0
  0
LINE
  5
10DC
330
2
100
AcDbEntity
  8
0
100
AcDbLine
 10
273.9555539418171
 20
235.3059095433618
 30
0.0
 11
273.9555539418171
 21
226.8059095433618
 31
0.0
  0
LINE
  5
10DD
330
2
100
AcDbEntity
  8
0
100
AcDbLine
 10
273.9555539418171
 20
235.3059095433618
 30
0.0
 11
273.6555539418169
 21
234.7862943010913
 31
0.0
  0
LINE
  5
10DE
330
2
100
AcDbEntity
  8
0
100
AcDbLine
 10
273.9555539418171
 20
226.8059095433618
 30
0.0
 11
273.6555539418169
 21
227.3255247856327
 31
0.0
  0
LINE
  5
10DF
330
2
100
AcDbEntity
  8
0
100
AcDbLine
 10
273.6555539418169
 20
234.7862943010913
 30
0.0
 11
273.6555539418169
 21
227.3255247856327
 31
0.0
  0
LINE
  5
10E0
330
2
100
AcDbEntity
  8
HIDS
  6
SEKKEI_H
100
AcDbLine
 10
277.9555539418125
 20
235.3059095433618
 30
0.0
 11
277.9555539418125
 21
232.3843366680994
 31
0.0
  0
LINE
  5
10E1
330
2
100
AcDbEntity
  8
0
100
AcDbLine
 10
498.4895602279985
 20
491.7817990204942
 30
0.0
 11
426.8671878855285
 21
491.7817990204942
 31
0.0
  0
LINE
  5
10E2
330
2
100
AcDbEntity
  8
0
100
AcDbLine
 10
437.3628244516086
 20
500.2817990204946
 30
0.0
 11
437.8628244516086
 21
500.7817990204944
 31
0.0
  0
LINE
  5
10E3
330
2
100
AcDbEntity
  8
0
100
AcDbLine
 10
437.362824451614
 20
500.2817990204996
 30
0.0
 11
436.1128244516168
 21
500.2817990204996
 31
0.0
  0
LINE
  5
10E4
330
2
100
AcDbEntity
  8
0
100
AcDbLine
 10
440.5628244516075
 20
506.0817990204948
 30
0.0
 11
440.5628244516075
 21
504.4817990204949
 31
0.0
  0
LINE
  5
10E5
330
2
100
AcDbEntity
  8
0
100
AcDbLine
 10
440.0628244516075
 20
504.2817990204948
 30
0.0
 11
439.8628244516077
 21
504.0817990204948
 31
0.0
  0
LINE
  5
10E6
330
2
100
AcDbEntity
  8
0
100
AcDbLine
 10
487.8628244516031
 20
500.7817990205
 30
0.0
 11
437.8628244516086
 21
500.7817990204944
 31
0.0
  0
LINE
  5
10E7
330
2
100
AcDbEntity
  8
0
100
AcDbLine
 10
439.8628244516077
 20
504.0817990204948
 30
0.0
 11
439.8628244516086
 21
500.7817990204946
 31
0.0
  0
LINE
  5
10E8
330
2
100
AcDbEntity
  8
0
100
AcDbLine
 10
440.0628244516075
 20
504.2817990204948
 30
0.0
 11
485.6628244516087
 21
504.2817990204946
 31
0.0
  0
LINE
  5
10E9
330
2
100
AcDbEntity
  8
0
100
AcDbLine
 10
439.8628244516068
 20
507.7817990204946
 30
0.0
 11
440.4401747207968
 21
508.7817990204948
 31
0.0
  0
LINE
  5
10EA
330
2
100
AcDbEntity
  8
0
100
AcDbLine
 10
439.8628244516068
 20
507.7817990204948
 30
0.0
 11
439.8628244516077
 21
506.4817990204949
 31
0.0
  0
LINE
  5
10EB
330
2
100
AcDbEntity
  8
0
100
AcDbLine
 10
440.0628244516075
 20
506.281799020495
 30
0.0
 11
485.6628244516087
 21
506.2817990204433
 31
0.0
  0
LINE
  5
10EC
330
2
100
AcDbEntity
  8
0
100
AcDbLine
 10
482.7580807653304
 20
500.7817990204937
 30
0.0
 11
442.9675681378859
 21
500.7817990204937
 31
0.0
  0
LINE
  5
10ED
330
2
100
AcDbEntity
  8
0
100
AcDbLine
 10
485.2854741824204
 20
508.7817990204944
 30
0.0
 11
440.4401747207958
 21
508.7817990204932
 31
0.0
  0
LINE
  5
10EE
330
2
100
AcDbEntity
  8
0
100
AcDbLine
 10
485.1628244516088
 20
506.0817990204948
 30
0.0
 11
485.1628244516088
 21
504.4817990204949
 31
0.0
  0
LINE
  5
10EF
330
2
100
AcDbEntity
  8
0
100
AcDbLine
 10
485.6628244516087
 20
504.2817990204946
 30
0.0
 11
485.8628244516085
 21
504.0817990204948
 31
0.0
  0
LINE
  5
10F0
330
2
100
AcDbEntity
  8
0
100
AcDbLine
 10
485.8628244516085
 20
504.0817990204948
 30
0.0
 11
485.8628244516085
 21
500.7817990204946
 31
0.0
  0
LINE
  5
10F1
330
2
100
AcDbEntity
  8
0
100
AcDbLine
 10
485.8628244516085
 20
507.7817990204946
 30
0.0
 11
485.2854741824195
 21
508.7817990204948
 31
0.0
  0
LINE
  5
10F2
330
2
100
AcDbEntity
  8
0
100
AcDbLine
 10
485.8628244516085
 20
507.7817990204948
 30
0.0
 11
485.8628244516085
 21
506.4817990204949
 31
0.0
  0
LINE
  5
10F3
330
2
100
AcDbEntity
  8
HIDS
  6
SEKKEI_H
100
AcDbLine
 10
493.9486108892352
 20
499.6960125828727
 30
0.0
 11
494.7770380139819
 21
498.8675854581265
 31
0.0
  0
LINE
  5
10F4
330
2
100
AcDbEntity
  8
0
100
AcDbLine
 10
498.489560227999
 20
491.7817990204942
 30
0.0
 11
426.8628244516086
 21
491.7817990204942
 31
0.0
  0
LINE
  5
10F5
330
2
100
AcDbEntity
  8
0
100
AcDbLine
 10
488.3628244516077
 20
500.2817990204946
 30
0.0
 11
487.8628244516031
 21
500.7817990205
 31
0.0
  0
ARC
  5
10F6
330
2
100
AcDbEntity
  8
0
100
AcDbCircle
 10
497.8628244516086
 20
497.2817990204996
 30
0.0
 40
1.0
100
AcDbArc
 50
90.0
 51
90.0
  0
ARC
  5
10F7
330
2
100
AcDbEntity
  8
HIDS
  6
SEKKEI_H
100
AcDbCircle
 10
492.5343973268619
 20
498.2817990204996
 30
0.0
 40
2.0
100
AcDbArc
 50
44.99999999999078
 51
90.0
  0
ARC
  5
10F8
330
2
100
AcDbEntity
  8
HIDS
  6
SEKKEI_H
100
AcDbCircle
 10
496.1912515763543
 20
500.2817990204996
 30
0.0
 40
2.0
100
AcDbArc
 50
224.9999999999908
 51
270.0
  0
ARC
  5
10F9
330
2
100
AcDbEntity
  8
0
100
AcDbCircle
 10
485.6628244516087
 20
506.4817990204949
 30
0.0
 40
0.2
100
AcDbArc
 50
269.9999999999478
 51
359.9999999999739
  0
ARC
  5
10FA
330
2
100
AcDbEntity
  8
0
100
AcDbCircle
 10
485.3628244516086
 20
506.0817990204945
 30
0.0
 40
0.2
100
AcDbArc
 50
90.00000000005213
 51
180.0
  0
ARC
  5
10FB
330
2
100
AcDbEntity
  8
0
100
AcDbCircle
 10
485.3628244516086
 20
504.4817990204949
 30
0.0
 40
0.2
100
AcDbArc
 50
180.0
 51
270.0
  0
ARC
  5
10FC
330
2
100
AcDbEntity
  8
0
100
AcDbCircle
 10
440.0628244516075
 20
506.4817990204949
 30
0.0
 40
0.2
100
AcDbArc
 50
180.0
 51
269.9999999999478
  0
ARC
  5
10FD
330
2
100
AcDbEntity
  8
0
100
AcDbCircle
 10
440.3628244516077
 20
506.0817990204945
 30
0.0
 40
0.2
100
AcDbArc
 50
0.0
 51
89.99999999994789
  0
ARC
  5
10FE
330
2
100
AcDbEntity
  8
0
100
AcDbCircle
 10
440.3628244516077
 20
504.4817990204949
 30
0.0
 40
0.2
100
AcDbArc
 50
270.0
 51
0.0
  0
LINE
  5
10FF
330
2
100
AcDbEntity
  8
HIDS
  6
SEKKEI_H
100
AcDbLine
 10
431.777038013981
 20
499.6960125828723
 30
0.0
 11
430.9486108892352
 21
498.867585458126
 31
0.0
  0
LINE
  5
1100
330
2
100
AcDbEntity
  8
0
100
AcDbLine
 10
426.8628244516086
 20
491.7817990204942
 30
0.0
 11
426.9108983797788
 21
497.2905255559976
 31
0.0
  0
LINE
  5
1101
330
2
100
AcDbEntity
  8
0
100
AcDbLine
 10
498.1128244515995
 20
498.2817990204989
 30
0.0
 11
427.6128244516177
 21
498.2817990204994
 31
0.0
  0
ARC
  5
1102
330
2
100
AcDbEntity
  8
0
100
AcDbCircle
 10
427.9108603028427
 20
497.2817990204994
 30
0.0
 40
1.0
100
AcDbArc
 50
90.0
 51
179.4999999999954
  0
LINE
  5
1103
330
2
100
AcDbEntity
  8
0
100
AcDbLine
 10
489.6128244515995
 20
500.2817990204992
 30
0.0
 11
436.1128244516168
 21
500.2817990204992
 31
0.0
  0
ARC
  5
1104
330
2
100
AcDbEntity
  8
HIDS
  6
SEKKEI_H
100
AcDbCircle
 10
433.1912515763543
 20
498.2817990204991
 30
0.0
 40
2.0
100
AcDbArc
 50
90.0
 51
135.0000000000092
  0
ARC
  5
1105
330
2
100
AcDbEntity
  8
HIDS
  6
SEKKEI_H
100
AcDbCircle
 10
429.5343973268619
 20
500.2817990204992
 30
0.0
 40
2.0
100
AcDbArc
 50
270.0
 51
315.0000000000092
  0
LINE
  5
1106
330
2
100
AcDbEntity
  8
0
100
AcDbLine
 10
490.8628244516213
 20
491.7817990204942
 30
0.0
 11
490.8628244516213
 21
497.2905255559976
 31
0.0
  0
LINE
  5
1107
330
2
100
AcDbEntity
  8
0
100
AcDbLine
 10
479.3904199716044
 20
491.7817990204942
 30
0.0
 11
479.3904199716044
 21
497.2905255559976
 31
0.0
  0
LINE
  5
1108
330
2
100
AcDbEntity
  8
0
100
AcDbLine
 10
431.8628244516168
 20
491.7817990204942
 30
0.0
 11
431.8628244516168
 21
498.2817990204994
 31
0.0
  0
LINE
  5
1109
330
2
100
AcDbEntity
  8
0
100
AcDbLine
 10
434.8628244515949
 20
491.7817990204942
 30
0.0
 11
434.8628244515949
 21
497.2905255559976
 31
0.0
  0
LINE
  5
110A
330
2
100
AcDbEntity
  8
0
100
AcDbLine
 10
446.3352289316118
 20
491.7817990204942
 30
0.0
 11
446.3352289316118
 21
497.2905255559976
 31
0.0
  0
LINE
  5
110B
330
2
100
AcDbEntity
  8
CENTER
  6
CENS
100
AcDbLine
 10
493.8628244516259
 20
507.5817990204948
 30
0.0
 11
493.8628244516259
 21
488.033097539898
 31
0.0
  0
LINE
  5
110C
330
2
100
AcDbEntity
  8
0
100
AcDbLine
 10
498.1128244515995
 20
504.2817990204946
 30
0.0
 11
498.1128244515995
 21
498.2817990204989
 31
0.0
  0
LINE
  5
110D
330
2
100
AcDbEntity
  8
0
100
AcDbLine
 10
489.6128244515995
 20
504.2817990204946
 30
0.0
 11
489.6128244515995
 21
498.2817990204948
 31
0.0
  0
LINE
  5
110E
330
2
100
AcDbEntity
  8
0
100
AcDbLine
 10
489.6128244515995
 20
499.5817990204947
 30
0.0
 11
498.1128244515995
 21
499.5817990204947
 31
0.0
  0
LINE
  5
110F
330
2
100
AcDbEntity
  8
0
100
AcDbLine
 10
489.6128244515995
 20
504.2817990204946
 30
0.0
 11
498.1128244515995
 21
504.2817990204946
 31
0.0
  0
LINE
  5
1110
330
2
100
AcDbEntity
  8
0
100
AcDbLine
 10
489.6128244515995
 20
504.2817990204946
 30
0.0
 11
490.1324396938699
 21
504.5817990204948
 31
0.0
  0
LINE
  5
1111
330
2
100
AcDbEntity
  8
0
100
AcDbLine
 10
498.1128244515995
 20
504.2817990204946
 30
0.0
 11
497.593209209329
 21
504.5817990204948
 31
0.0
  0
LINE
  5
1112
330
2
100
AcDbEntity
  8
0
100
AcDbLine
 10
490.1324396938699
 20
504.5817990204948
 30
0.0
 11
497.593209209329
 21
504.5817990204948
 31
0.0
  0
LINE
  5
1113
330
2
100
AcDbEntity
  8
HIDS
  6
SEKKEI_H
100
AcDbLine
 10
492.5343973268619
 20
500.2817990204996
 30
0.0
 11
489.6128244515995
 21
500.2817990204992
 31
0.0
  0
LINE
  5
1114
330
2
100
AcDbEntity
  8
CENTER
  6
CENS
100
AcDbLine
 10
431.8628244515904
 20
507.5817990204948
 30
0.0
 11
431.8628244515904
 21
488.033097539898
 31
0.0
  0
LINE
  5
1115
330
2
100
AcDbEntity
  8
0
100
AcDbLine
 10
427.6128244516168
 20
504.2817990204946
 30
0.0
 11
427.6128244516177
 21
498.2817990204994
 31
0.0
  0
LINE
  5
1116
330
2
100
AcDbEntity
  8
0
100
AcDbLine
 10
436.1128244516168
 20
504.2817990204946
 30
0.0
 11
436.1128244516168
 21
498.2817990204948
 31
0.0
  0
LINE
  5
1117
330
2
100
AcDbEntity
  8
0
100
AcDbLine
 10
436.1128244516168
 20
499.5817990204947
 30
0.0
 11
427.6128244516168
 21
499.5817990204947
 31
0.0
  0
LINE
  5
1118
330
2
100
AcDbEntity
  8
0
100
AcDbLine
 10
436.1128244516168
 20
504.2817990204946
 30
0.0
 11
427.6128244516168
 21
504.2817990204946
 31
0.0
  0
LINE
  5
1119
330
2
100
AcDbEntity
  8
0
100
AcDbLine
 10
436.1128244516168
 20
504.2817990204946
 30
0.0
 11
435.5932092093463
 21
504.5817990204948
 31
0.0
  0
LINE
  5
111A
330
2
100
AcDbEntity
  8
0
100
AcDbLine
 10
427.6128244516168
 20
504.2817990204946
 30
0.0
 11
428.1324396938881
 21
504.5817990204948
 31
0.0
  0
LINE
  5
111B
330
2
100
AcDbEntity
  8
0
100
AcDbLine
 10
435.5932092093463
 20
504.5817990204948
 30
0.0
 11
428.1324396938881
 21
504.5817990204948
 31
0.0
  0
LINE
  5
111C
330
2
100
AcDbEntity
  8
HIDS
  6
SEKKEI_H
100
AcDbLine
 10
436.1128244516168
 20
500.2817990204992
 30
0.0
 11
433.1912515763543
 21
500.2817990204992
 31
0.0
  0
LINE
  5
111D
330
2
100
AcDbEntity
  8
0
100
AcDbLine
 10
493.8628244515995
 20
491.7817990204942
 30
0.0
 11
493.8628244515995
 21
497.2905255559976
 31
0.0
  0
LINE
  5
111E
330
2
100
AcDbEntity
  8
0
100
AcDbLine
 10
498.4447505234376
 20
497.2905255559972
 30
0.0
 11
498.4928244516087
 21
491.7817990204932
 31
0.0
  0
ARC
  5
111F
330
2
100
AcDbEntity
  8
0
100
AcDbCircle
 10
497.4447886003737
 20
497.281799020499
 30
0.0
 40
1.0
100
AcDbArc
 50
0.4999999999980603
 51
90.0
  0
LINE
  5
1120
330
2
100
AcDbEntity
  8
0
100
AcDbLine
 10
751.1379905909244
 20
285.0559095433607
 30
0.0
 11
752.1379905909253
 21
284.4785592741709
 31
0.0
  0
LINE
  5
1121
330
2
100
AcDbEntity
  8
0
100
AcDbLine
 10
751.1379905909254
 20
285.0559095433607
 30
0.0
 11
750.3185461461917
 21
285.0559095433604
 31
0.0
  0
LINE
  5
1122
330
2
100
AcDbEntity
  8
0
100
AcDbLine
 10
752.1379905909244
 20
239.6332598125479
 30
0.0
 11
752.1379905909235
 21
284.4785592741718
 31
0.0
  0
LINE
  5
1123
330
2
100
AcDbEntity
  8
0
100
AcDbLine
 10
751.1379905909244
 20
239.0559095433588
 30
0.0
 11
752.1379905909253
 21
239.6332598125483
 31
0.0
  0
LINE
  5
1124
330
2
100
AcDbEntity
  8
0
100
AcDbLine
 10
751.1379905909254
 20
239.0559095433588
 30
0.0
 11
750.3185461461917
 21
239.0559095433588
 31
0.0
  0
LINE
  5
1125
330
2
100
AcDbEntity
  8
0
100
AcDbLine
 10
751.1379905909244
 20
285.0559095433607
 30
0.0
 11
751.1379905909254
 21
239.0559095433588
 31
0.0
  0
LINE
  5
1126
330
2
100
AcDbEntity
  8
0
100
AcDbLine
 10
498.6728244516085
 20
470.7817990204095
 30
0.0
 11
498.3412034755584
 21
432.7817990201992
 31
0.0
  0
ARC
  5
1127
330
2
100
AcDbEntity
  8
0
100
AcDbCircle
 10
501.4067692191462
 20
440.2817990202001
 30
0.0
 40
3.0
100
AcDbArc
 50
90.0
 51
179.5000000000019
  0
ARC
  5
1128
330
2
100
AcDbEntity
  8
0
100
AcDbCircle
 10
501.4504035580999
 20
445.2817990202001
 30
0.0
 40
3.0
100
AcDbArc
 50
90.0
 51
179.5000000000019
  0
ARC
  5
1129
330
2
100
AcDbEntity
  8
0
100
AcDbCircle
 10
501.6249409139151
 20
465.2817990202001
 30
0.0
 40
3.0
100
AcDbArc
 50
90.0
 51
179.5000000000019
  0
LINE
  5
112A
330
2
100
AcDbEntity
  8
0
100
AcDbLine
 10
309.8846885301546
 20
102.9264668276617
 30
0.0
 11
369.8846885301546
 21
102.9264668276617
 31
0.0
  0
LINE
  5
112B
330
2
100
AcDbEntity
  8
0
100
AcDbLine
 10
288.8846885301546
 20
104.9764668276617
 30
0.0
 11
394.8846885301546
 21
104.9764668276613
 31
0.0
  0
LINE
  5
112C
330
2
100
AcDbEntity
  8
CENTER
100
AcDbLine
 10
401.8846885301544
 20
95.17651293267713
 30
0.0
 11
281.8846885301546
 21
95.17650856913528
 31
0.0
  0
LINE
  5
112D
330
2
100
AcDbEntity
  8
0
100
AcDbLine
 10
366.8846885301547
 20
83.17646682766165
 30
0.0
 11
366.8846885301547
 21
82.67646682766164
 31
0.0
  0
LINE
  5
112E
330
2
100
AcDbEntity
  8
0
100
AcDbLine
 10
394.8846885301546
 20
107.1764668276616
 30
0.0
 11
394.8846885301546
 21
83.17646682766165
 31
0.0
  0
LINE
  5
112F
330
2
100
AcDbEntity
  8
0
100
AcDbLine
 10
394.8846885301546
 20
107.1764668276617
 30
0.0
 11
394.8846885301546
 21
83.17646682766186
 31
0.0
  0
LINE
  5
1130
330
2
100
AcDbEntity
  8
CENTER
100
AcDbLine
 10
388.3846885301546
 20
100.0208951575964
 30
0.0
 11
388.3846885301546
 21
111.4684464842649
 31
0.0
  0
LINE
  5
1131
330
2
100
AcDbEntity
  8
0
100
AcDbLine
 10
373.4095659872802
 20
83.17646682766165
 30
0.0
 11
394.8846885301546
 21
83.17646682766165
 31
0.0
  0
LINE
  5
1132
330
2
100
AcDbEntity
  8
0
100
AcDbLine
 10
380.0346885301543
 20
102.6764668276617
 30
0.0
 11
385.8846885301547
 21
102.6764668276617
 31
0.0
  0
LINE
  5
1133
330
2
100
AcDbEntity
  8
0
100
AcDbLine
 10
380.0346885301552
 20
87.67646682766153
 30
0.0
 11
385.8846885301547
 21
87.67646682766153
 31
0.0
  0
LINE
  5
1134
330
2
100
AcDbEntity
  8
0
100
AcDbLine
 10
373.4095055982862
 20
107.1764668276615
 30
0.0
 11
394.8846885301546
 21
107.1764668276616
 31
0.0
  0
LINE
  5
1135
330
2
100
AcDbEntity
  8
0
100
AcDbLine
 10
390.8846885301546
 20
87.17646682766153
 30
0.0
 11
390.8846885301546
 21
103.1764668276617
 31
0.0
  0
LINE
  5
1136
330
2
100
AcDbEntity
  8
0
100
AcDbLine
 10
385.8846885301547
 20
87.17646682766153
 30
0.0
 11
385.8846885301547
 21
103.1764668276617
 31
0.0
  0
LINE
  5
1137
330
2
100
AcDbEntity
  8
0
100
AcDbLine
 10
392.8846885301546
 20
102.6764668276617
 30
0.0
 11
392.8846885301546
 21
87.67646682766141
 31
0.0
  0
LINE
  5
1138
330
2
100
AcDbEntity
  8
0
100
AcDbLine
 10
390.8846885301546
 20
87.67646682766141
 30
0.0
 11
392.8846885301546
 21
87.67646682766153
 31
0.0
  0
LINE
  5
1139
330
2
100
AcDbEntity
  8
0
100
AcDbLine
 10
394.8846885301546
 20
86.521766289282
 30
0.0
 11
392.8846885301546
 21
87.67646682766118
 31
0.0
  0
CIRCLE
  5
113A
330
2
100
AcDbEntity
  8
0
100
AcDbCircle
 10
366.9555539421154
 20
262.0558639292364
 30
0.0
 40
1.6
  0
CIRCLE
  5
113B
330
2
100
AcDbEntity
  8
HOJO
 48
0.5
100
AcDbCircle
 10
366.9555539421154
 20
262.0558639292364
 30
0.0
 40
2.0
  0
LINE
  5
113C
330
2
100
AcDbEntity
  8
0
100
AcDbLine
 10
385.8846885301547
 20
87.17646682766153
 30
0.0
 11
390.8846885301546
 21
87.17646682766153
 31
0.0
  0
LINE
  5
113D
330
2
100
AcDbEntity
  8
0
100
AcDbLine
 10
390.8846885301546
 20
102.6764668276617
 30
0.0
 11
392.8846885301546
 21
102.6764668276617
 31
0.0
  0
LINE
  5
113E
330
2
100
AcDbEntity
  8
0
100
AcDbLine
 10
394.8846885301546
 20
103.8311673660409
 30
0.0
 11
392.8846885301546
 21
102.6764668276617
 31
0.0
  0
LINE
  5
113F
330
2
100
AcDbEntity
  8
0
100
AcDbLine
 10
385.8846885301547
 20
103.1764668276617
 30
0.0
 11
390.8846885301546
 21
103.1764668276617
 31
0.0
  0
LINE
  5
1140
330
2
100
AcDbEntity
  8
HOJO
 48
0.5
100
AcDbLine
 10
386.3846885301546
 20
104.9764668276612
 30
0.0
 11
386.3846885301546
 21
107.1764668276614
 31
0.0
  0
LINE
  5
1141
330
2
100
AcDbEntity
  8
0
100
AcDbLine
 10
389.984688530155
 20
104.9764668276613
 30
0.0
 11
389.984688530155
 21
107.1764668276615
 31
0.0
  0
LINE
  5
1142
330
2
100
AcDbEntity
  8
HOJO
 48
0.5
100
AcDbLine
 10
390.3846885301546
 20
104.9764668276613
 30
0.0
 11
390.3846885301546
 21
107.1764668276614
 31
0.0
  0
LINE
  5
1143
330
2
100
AcDbEntity
  8
0
100
AcDbLine
 10
386.7846885301543
 20
104.9764668276612
 30
0.0
 11
386.7846885301543
 21
107.1764668276614
 31
0.0
  0
LINE
  5
1144
330
2
100
AcDbEntity
  8
0
100
AcDbLine
 10
369.8846885301546
 20
102.9264668276617
 30
0.0
 11
369.8846885301546
 21
87.42646682766164
 31
0.0
  0
LINE
  5
1145
330
2
100
AcDbEntity
  8
0
100
AcDbLine
 10
380.0346885301543
 20
103.0264668276617
 30
0.0
 11
380.0346885301552
 21
87.3264668276615
 31
0.0
  0
LINE
  5
1146
330
2
100
AcDbEntity
  8
0
100
AcDbLine
 10
378.8846885301546
 20
103.0264668276617
 30
0.0
 11
378.8846885301546
 21
87.3264668276615
 31
0.0
  0
LINE
  5
1147
330
2
100
AcDbEntity
  8
0
100
AcDbLine
 10
309.8846885301546
 20
87.42646682766164
 30
0.0
 11
369.8846885301546
 21
87.42646682766164
 31
0.0
  0
LINE
  5
1148
330
2
100
AcDbEntity
  8
0
100
AcDbLine
 10
369.8846885301546
 20
87.67646682766153
 30
0.0
 11
378.8846885301546
 21
87.67646682766153
 31
0.0
  0
LINE
  5
1149
330
2
100
AcDbEntity
  8
0
100
AcDbLine
 10
369.8846885301546
 20
102.6764668276616
 30
0.0
 11
378.8846885301546
 21
102.6764668276617
 31
0.0
  0
LINE
  5
114A
330
2
100
AcDbEntity
  8
0
100
AcDbLine
 10
366.8846885301547
 20
107.6764668276616
 30
0.0
 11
366.8846885301547
 21
107.1764668276615
 31
0.0
  0
LINE
  5
114B
330
2
100
AcDbEntity
  8
0
100
AcDbLine
 10
288.8846885301546
 20
107.1764668276608
 30
0.0
 11
288.8846885301546
 21
83.17646682766278
 31
0.0
  0
LINE
  5
114C
330
2
100
AcDbEntity
  8
0
100
AcDbLine
 10
301.4892363258433
 20
83.176466827663
 30
0.0
 11
288.8846885301546
 21
83.176466827663
 31
0.0
  0
LINE
  5
114D
330
2
100
AcDbEntity
  8
0
100
AcDbLine
 10
296.734688530155
 20
103.0264668276616
 30
0.0
 11
296.734688530155
 21
87.32646682766196
 31
0.0
  0
LINE
  5
114E
330
2
100
AcDbEntity
  8
0
100
AcDbLine
 10
297.8846885301546
 20
103.0264668276617
 30
0.0
 11
297.8846885301546
 21
87.32646682766173
 31
0.0
  0
LINE
  5
114F
330
2
100
AcDbEntity
  8
0
100
AcDbLine
 10
290.8846885301546
 20
102.6764668276617
 30
0.0
 11
290.8846885301546
 21
87.67646682766187
 31
0.0
  0
LINE
  5
1150
330
2
100
AcDbEntity
  8
0
100
AcDbLine
 10
309.8846885301546
 20
102.9264668276617
 30
0.0
 11
309.8846885301546
 21
87.42646682766164
 31
0.0
  0
LINE
  5
1151
330
2
100
AcDbEntity
  8
0
100
AcDbLine
 10
297.8846885301546
 20
87.67646682766175
 30
0.0
 11
309.8846885301546
 21
87.67646682766175
 31
0.0
  0
LINE
  5
1152
330
2
100
AcDbEntity
  8
0
100
AcDbLine
 10
290.8846885301546
 20
87.67646682766187
 30
0.0
 11
296.734688530155
 21
87.67646682766175
 31
0.0
  0
LINE
  5
1153
330
2
100
AcDbEntity
  8
0
100
AcDbLine
 10
290.8846885301546
 20
87.67646682766187
 30
0.0
 11
288.8846885301546
 21
86.52176628928257
 31
0.0
  0
LINE
  5
1154
330
2
100
AcDbEntity
  8
0
100
AcDbLine
 10
301.4892963215635
 20
107.1764668276616
 30
0.0
 11
288.8846885301546
 21
107.1764668276608
 31
0.0
  0
LINE
  5
1155
330
2
100
AcDbEntity
  8
0
100
AcDbLine
 10
297.8846885301546
 20
102.6764668276617
 30
0.0
 11
309.8846885301546
 21
102.6764668276616
 31
0.0
  0
LINE
  5
1156
330
2
100
AcDbEntity
  8
0
100
AcDbLine
 10
290.8846885301546
 20
102.6764668276617
 30
0.0
 11
296.734688530155
 21
102.6764668276617
 31
0.0
  0
LINE
  5
1157
330
2
100
AcDbEntity
  8
0
100
AcDbLine
 10
290.8846885301546
 20
102.6764668276618
 30
0.0
 11
288.8846885301546
 21
103.831167366041
 31
0.0
  0
LINE
  5
1158
330
2
100
AcDbEntity
  8
0
100
AcDbLine
 10
296.734688530155
 20
103.0264668276616
 30
0.0
 11
297.8846885301546
 21
103.0264668276617
 31
0.0
  0
LINE
  5
1159
330
2
100
AcDbEntity
  8
0
100
AcDbLine
 10
296.734688530155
 20
87.32646682766196
 30
0.0
 11
297.8846885301546
 21
87.32646682766173
 31
0.0
  0
LINE
  5
115A
330
2
100
AcDbEntity
  8
0
100
AcDbLine
 10
378.8846885301546
 20
103.0264668276617
 30
0.0
 11
380.0346885301543
 21
103.0264668276617
 31
0.0
  0
LINE
  5
115B
330
2
100
AcDbEntity
  8
0
100
AcDbLine
 10
378.8846885301546
 20
87.3264668276615
 30
0.0
 11
380.0346885301552
 21
87.3264668276615
 31
0.0
  0
LINE
  5
115C
330
2
100
AcDbEntity
  8
CENTER
100
AcDbLine
 10
328.8846885301512
 20
52.3597769017368
 30
0.0
 11
328.8846885301512
 21
137.9932484545349
 31
0.0
  0
LINE
  5
115D
330
2
100
AcDbEntity
  8
0
100
AcDbLine
 10
366.8846885301519
 20
59.69139787776962
 30
0.0
 11
366.8846885301519
 21
84.06832473597317
 31
0.0
  0
LINE
  5
115E
330
2
100
AcDbEntity
  8
0
100
AcDbLine
 10
366.8846885301528
 20
106.2846986493521
 30
0.0
 11
366.8846885301528
 21
130.6616274784976
 31
0.0
  0
LINE
  5
115F
330
2
100
AcDbEntity
  8
0
100
AcDbLine
 10
371.884688530151
 20
65.17651267814059
 30
0.0
 11
371.884688530151
 21
84.12308627633487
 31
0.0
  0
LINE
  5
1160
330
2
100
AcDbEntity
  8
0
100
AcDbLine
 10
371.884688530151
 20
106.2299375213413
 30
0.0
 11
371.884688530151
 21
125.1765126781403
 31
0.0
  0
LINE
  5
1161
330
2
100
AcDbEntity
  8
0
100
AcDbLine
 10
366.884688530151
 20
65.17651267814059
 30
0.0
 11
371.884688530151
 21
65.17651267814059
 31
0.0
  0
LINE
  5
1162
330
2
100
AcDbEntity
  8
0
100
AcDbLine
 10
366.884688530151
 20
125.1765126781403
 30
0.0
 11
371.884688530151
 21
125.1765126781403
 31
0.0
  0
LINE
  5
1163
330
2
100
AcDbEntity
  8
0
100
AcDbLine
 10
384.8846885301546
 20
73.10789022774335
 30
0.0
 11
384.8846885301546
 21
83.17646682766165
 31
0.0
  0
LINE
  5
1164
330
2
100
AcDbEntity
  8
0
100
AcDbLine
 10
384.8846885301546
 20
107.1764668276616
 30
0.0
 11
384.8846885301546
 21
117.2451351285155
 31
0.0
  0
LINE
  5
1165
330
2
100
AcDbEntity
  8
0
100
AcDbLine
 10
373.8148895367495
 20
70.78994677916054
 30
0.0
 11
382.9544875235598
 21
71.10910857370547
 31
0.0
  0
LINE
  5
1166
330
2
100
AcDbEntity
  8
0
100
AcDbLine
 10
373.8148895367495
 20
119.5630785770974
 30
0.0
 11
382.9544875235598
 21
119.2439167825534
 31
0.0
  0
ARC
  5
1167
330
2
100
AcDbEntity
  8
0
100
AcDbCircle
 10
382.8846885301546
 20
73.10789022774335
 30
0.0
 40
2.0
100
AcDbArc
 50
272.0000000000036
 51
0.0
  0
ARC
  5
1168
330
2
100
AcDbEntity
  8
0
100
AcDbCircle
 10
382.8846885301546
 20
117.2451351285155
 30
0.0
 40
2.0
100
AcDbArc
 50
0.0
 51
87.99999999999636
  0
ARC
  5
1169
330
2
100
AcDbEntity
  8
0
100
AcDbCircle
 10
373.8846885301546
 20
121.5618602311353
 30
0.0
 40
2.0
100
AcDbArc
 50
180.0
 51
267.9999999999963
  0
ARC
  5
116A
330
2
100
AcDbEntity
  8
0
100
AcDbCircle
 10
373.8846885301546
 20
68.79116512512266
 30
0.0
 40
2.0
100
AcDbArc
 50
92.00000000000365
 51
180.0
  0
LINE
  5
116B
330
2
100
AcDbEntity
  8
0
100
AcDbLine
 10
307.8846885298563
 20
131.1765126781369
 30
0.0
 11
366.8846885301528
 21
130.6616274784976
 31
0.0
  0
LINE
  5
116C
330
2
100
AcDbEntity
  8
0
100
AcDbLine
 10
307.8846885298563
 20
59.17651267813718
 30
0.0
 11
366.8846885301519
 21
59.69139787776962
 31
0.0
  0
LINE
  5
116D
330
2
100
AcDbEntity
  8
0
100
AcDbLine
 10
307.8846885298563
 20
131.1721492442241
 30
0.0
 11
307.8846885298563
 21
106.356704765536
 31
0.0
  0
LINE
  5
116E
330
2
100
AcDbEntity
  8
0
100
AcDbLine
 10
307.8846885298563
 20
83.99631444116195
 30
0.0
 11
307.8846885298563
 21
59.18087611205712
 31
0.0
  0
LINE
  5
116F
330
2
100
AcDbEntity
  8
0
100
AcDbLine
 10
299.3846885298563
 20
69.67651267813764
 30
0.0
 11
298.8846885298563
 21
70.17651267813718
 31
0.0
  0
LINE
  5
1170
330
2
100
AcDbEntity
  8
0
100
AcDbLine
 10
299.3846885298509
 20
69.67651267814265
 30
0.0
 11
299.3846885298509
 21
68.42651267814571
 31
0.0
  0
LINE
  5
1171
330
2
100
AcDbEntity
  8
0
100
AcDbLine
 10
298.8846885298572
 20
76.17651267813832
 30
0.0
 11
291.8846885298563
 21
76.17651267813832
 31
0.0
  0
LINE
  5
1172
330
2
100
AcDbEntity
  8
0
100
AcDbLine
 10
293.5846885298561
 20
72.87651267813655
 30
0.0
 11
295.1846885298556
 21
72.87651267813678
 31
0.0
  0
LINE
  5
1173
330
2
100
AcDbEntity
  8
0
100
AcDbLine
 10
295.3846885298563
 20
72.37651267813678
 30
0.0
 11
295.5846885298561
 21
72.17651267813673
 31
0.0
  0
LINE
  5
1174
330
2
100
AcDbEntity
  8
0
100
AcDbLine
 10
298.8846885298509
 20
120.1765126781317
 30
0.0
 11
298.8846885298518
 21
115.0811499987656
 31
0.0
  0
LINE
  5
1175
330
2
100
AcDbEntity
  8
0
100
AcDbLine
 10
298.8846885298563
 20
75.27186773723324
 30
0.0
 11
298.8846885298563
 21
70.17651267813718
 31
0.0
  0
LINE
  5
1176
330
2
100
AcDbEntity
  8
0
100
AcDbLine
 10
295.5846885298561
 20
72.17651267813673
 30
0.0
 11
298.8846885298563
 21
72.17651267813718
 31
0.0
  0
LINE
  5
1177
330
2
100
AcDbEntity
  8
0
100
AcDbLine
 10
295.3846885298563
 20
72.37651267813678
 30
0.0
 11
295.3846885298563
 21
75.01649769636102
 31
0.0
  0
LINE
  5
1178
330
2
100
AcDbEntity
  8
0
100
AcDbLine
 10
295.3846885298563
 20
115.3365204890528
 30
0.0
 11
295.3846885298563
 21
117.9765126781378
 31
0.0
  0
LINE
  5
1179
330
2
100
AcDbEntity
  8
0
100
AcDbLine
 10
291.8846885298563
 20
72.17651267813628
 30
0.0
 11
290.8846885298563
 21
72.75386294732604
 31
0.0
  0
LINE
  5
117A
330
2
100
AcDbEntity
  8
0
100
AcDbLine
 10
291.8846885298563
 20
72.17651267813628
 30
0.0
 11
293.1846885298556
 21
72.17651267813673
 31
0.0
  0
LINE
  5
117B
330
2
100
AcDbEntity
  8
0
100
AcDbLine
 10
293.3846885298563
 20
72.37651267813655
 30
0.0
 11
293.3846885298581
 21
74.75501708817635
 31
0.0
  0
LINE
  5
117C
330
2
100
AcDbEntity
  8
0
100
AcDbLine
 10
293.3846885299054
 20
115.5980003384791
 30
0.0
 11
293.3846885299073
 21
117.9765126781378
 31
0.0
  0
LINE
  5
117D
330
2
100
AcDbEntity
  8
0
100
AcDbLine
 10
291.8846885298563
 20
76.17651267813832
 30
0.0
 11
290.8846885298563
 21
75.59916240894856
 31
0.0
  0
LINE
  5
117E
330
2
100
AcDbEntity
  8
0
100
AcDbLine
 10
291.8846885298563
 20
114.1765126781385
 30
0.0
 11
291.8846885298563
 21
107.176466827661
 31
0.0
  0
LINE
  5
117F
330
2
100
AcDbEntity
  8
0
100
AcDbLine
 10
291.8846885298563
 20
83.176466827663
 30
0.0
 11
291.8846885298563
 21
76.17651267813832
 31
0.0
  0
LINE
  5
1180
330
2
100
AcDbEntity
  8
0
100
AcDbLine
 10
290.8846885298563
 20
117.599162408949
 30
0.0
 11
290.8846885298572
 21
107.1764668276609
 31
0.0
  0
LINE
  5
1181
330
2
100
AcDbEntity
  8
0
100
AcDbLine
 10
290.8846885298572
 20
95.17650889640103
 30
0.0
 11
290.8846885298581
 21
87.67646682766187
 31
0.0
  0
LINE
  5
1182
330
2
100
AcDbEntity
  8
0
100
AcDbLine
 10
290.8846885298572
 20
83.176466827663
 30
0.0
 11
290.8846885298581
 21
72.75386294732513
 31
0.0
  0
LINE
  5
1183
330
2
100
AcDbEntity
  8
0
100
AcDbLine
 10
298.8846885298572
 20
114.1765126781371
 30
0.0
 11
291.8846885298545
 21
114.1765126781367
 31
0.0
  0
LINE
  5
1184
330
2
100
AcDbEntity
  8
0
100
AcDbLine
 10
293.5846885298561
 20
117.476512678138
 30
0.0
 11
295.1846885298556
 21
117.4765126781378
 31
0.0
  0
LINE
  5
1185
330
2
100
AcDbEntity
  8
0
100
AcDbLine
 10
295.3846885298563
 20
117.9765126781378
 30
0.0
 11
295.5846885298561
 21
118.1765126781378
 31
0.0
  0
LINE
  5
1186
330
2
100
AcDbEntity
  8
0
100
AcDbLine
 10
295.5846885298561
 20
118.1765126781378
 30
0.0
 11
298.8846885298563
 21
118.1765126781374
 31
0.0
  0
LINE
  5
1187
330
2
100
AcDbEntity
  8
0
100
AcDbLine
 10
291.8846885298563
 20
114.1765126781358
 30
0.0
 11
290.8846885298563
 21
114.7538629473253
 31
0.0
  0
LINE
  5
1188
330
2
100
AcDbEntity
  8
0
100
AcDbLine
 10
291.8846885298563
 20
118.176512678138
 30
0.0
 11
290.8846885298563
 21
117.5991624089485
 31
0.0
  0
LINE
  5
1189
330
2
100
AcDbEntity
  8
0
100
AcDbLine
 10
291.8846885298563
 20
118.176512678138
 30
0.0
 11
293.1846885298556
 21
118.176512678138
 31
0.0
  0
LINE
  5
118A
330
2
100
AcDbEntity
  8
HIDS
  6
SEKKEI_H
100
AcDbLine
 10
299.9704749674784
 20
126.2622991157643
 30
0.0
 11
300.7989020922242
 21
127.0907262405105
 31
0.0
  0
LINE
  5
118B
330
2
100
AcDbEntity
  8
0
100
AcDbLine
 10
307.8846885298563
 20
131.1765126781371
 30
0.0
 11
302.3846885298518
 21
131.1765126781371
 31
0.0
  0
LINE
  5
118C
330
2
100
AcDbEntity
  8
0
100
AcDbLine
 10
307.8846885298563
 20
131.1765126781369
 30
0.0
 11
307.8846885298563
 21
106.356704765536
 31
0.0
  0
LINE
  5
118D
330
2
100
AcDbEntity
  8
0
100
AcDbLine
 10
307.8846885298563
 20
83.99631444116208
 30
0.0
 11
307.8846885298563
 21
59.17651267813718
 31
0.0
  0
LINE
  5
118E
330
2
100
AcDbEntity
  8
0
100
AcDbLine
 10
299.3846885298563
 20
120.6765126781369
 30
0.0
 11
298.8846885298509
 21
120.1765126781317
 31
0.0
  0
ARC
  5
118F
330
2
100
AcDbEntity
  8
0
100
AcDbCircle
 10
302.3846885298508
 20
130.1765126781371
 30
0.0
 40
1.0
100
AcDbArc
 50
180.0
 51
180.0
  0
ARC
  5
1190
330
2
100
AcDbEntity
  8
HIDS
  6
SEKKEI_H
100
AcDbCircle
 10
301.3846885298509
 20
124.8480855533911
 30
0.0
 40
2.0
100
AcDbArc
 50
135.0000000000092
 51
180.0
  0
ARC
  5
1191
330
2
100
AcDbEntity
  8
HIDS
  6
SEKKEI_H
100
AcDbCircle
 10
299.3846885298509
 20
128.5049398028836
 30
0.0
 40
2.0
100
AcDbArc
 50
315.0000000000092
 51
0.0
  0
ARC
  5
1192
330
2
100
AcDbEntity
  8
0
100
AcDbCircle
 10
293.1846885298556
 20
117.9765126781378
 30
0.0
 40
0.2
100
AcDbArc
 50
359.9999999999348
 51
90.0
  0
ARC
  5
1193
330
2
100
AcDbEntity
  8
0
100
AcDbCircle
 10
293.5846885298561
 20
117.6765126781381
 30
0.0
 40
0.2
100
AcDbArc
 50
180.0000000000651
 51
270.0
  0
ARC
  5
1194
330
2
100
AcDbEntity
  8
0
100
AcDbCircle
 10
295.1846885298556
 20
117.6765126781378
 30
0.0
 40
0.2
100
AcDbArc
 50
270.0
 51
0.0
  0
ARC
  5
1195
330
2
100
AcDbEntity
  8
0
100
AcDbCircle
 10
293.1846885298556
 20
72.37651267813655
 30
0.0
 40
0.2
100
AcDbArc
 50
270.0
 51
359.9999999999348
  0
ARC
  5
1196
330
2
100
AcDbEntity
  8
0
100
AcDbCircle
 10
293.5846885298561
 20
72.67651267813651
 30
0.0
 40
0.2
100
AcDbArc
 50
90.0
 51
179.9999999999348
  0
ARC
  5
1197
330
2
100
AcDbEntity
  8
0
100
AcDbCircle
 10
295.1846885298556
 20
72.67651267813673
 30
0.0
 40
0.2
100
AcDbArc
 50
0.0
 51
90.0
  0
LINE
  5
1198
330
2
100
AcDbEntity
  8
HIDS
  6
SEKKEI_H
100
AcDbLine
 10
299.9704749674784
 20
64.09072624051006
 30
0.0
 11
300.7989020922251
 21
63.26229911576385
 31
0.0
  0
LINE
  5
1199
330
2
100
AcDbEntity
  8
0
100
AcDbLine
 10
307.8846885298563
 20
59.17651267813718
 30
0.0
 11
302.3846885298518
 21
59.17651267813718
 31
0.0
  0
LINE
  5
119A
330
2
100
AcDbEntity
  8
0
100
AcDbLine
 10
301.3846885298518
 20
130.4265126781285
 30
0.0
 11
301.3846885298518
 21
107.3293982255581
 31
0.0
  0
LINE
  5
119B
330
2
100
AcDbEntity
  8
0
100
AcDbLine
 10
301.3846885298518
 20
83.02361897669547
 30
0.0
 11
301.3846885298518
 21
59.92651267814571
 31
0.0
  0
ARC
  5
119C
330
2
100
AcDbEntity
  8
0
100
AcDbCircle
 10
302.3846885298518
 20
130.1765126781371
 30
0.0
 40
1.0
100
AcDbArc
 50
90.0
 51
180.0
  0
LINE
  5
119D
330
2
100
AcDbEntity
  8
0
100
AcDbLine
 10
299.3846885298518
 20
121.9265126781286
 30
0.0
 11
299.3846885298518
 21
114.795701390137
 31
0.0
  0
LINE
  5
119E
330
2
100
AcDbEntity
  8
0
100
AcDbLine
 10
299.3846885298518
 20
75.55731598335225
 30
0.0
 11
299.3846885298518
 21
68.42651267814571
 31
0.0
  0
ARC
  5
119F
330
2
100
AcDbEntity
  8
0
100
AcDbCircle
 10
302.3846885298518
 20
60.17651267813718
 30
0.0
 40
1.0
100
AcDbArc
 50
180.0
 51
270.0
  0
ARC
  5
11A0
330
2
100
AcDbEntity
  8
HIDS
  6
SEKKEI_H
100
AcDbCircle
 10
301.3846885298518
 20
65.50493980288317
 30
0.0
 40
2.0
100
AcDbArc
 50
180.0
 51
224.9999999999908
  0
ARC
  5
11A1
330
2
100
AcDbEntity
  8
HIDS
  6
SEKKEI_H
100
AcDbCircle
 10
299.3846885298518
 20
61.84808555339074
 30
0.0
 40
2.0
100
AcDbArc
 50
0.0
 51
44.99999999999078
  0
LINE
  5
11A2
330
2
100
AcDbEntity
  8
0
100
AcDbLine
 10
366.8846885301528
 20
123.1765126781505
 30
0.0
 11
307.8846885298563
 21
123.1765126781505
 31
0.0
  0
LINE
  5
11A3
330
2
100
AcDbEntity
  8
0
100
AcDbLine
 10
366.8846885301528
 20
126.1765126781287
 30
0.0
 11
307.8846885298563
 21
126.1765126781287
 31
0.0
  0
LINE
  5
11A4
330
2
100
AcDbEntity
  8
0
100
AcDbLine
 10
366.8846885301528
 20
111.7041081981335
 30
0.0
 11
307.8846885298563
 21
111.7041081981335
 31
0.0
  0
LINE
  5
11A5
330
2
100
AcDbEntity
  8
0
100
AcDbLine
 10
307.8846885298563
 20
123.1765126781505
 30
0.0
 11
302.3846885298518
 21
123.1765126781505
 31
0.0
  0
LINE
  5
11A6
330
2
100
AcDbEntity
  8
0
100
AcDbLine
 10
307.8846885298563
 20
111.7041081981335
 30
0.0
 11
302.3846885298518
 21
111.7041081981334
 31
0.0
  0
LINE
  5
11A7
330
2
100
AcDbEntity
  8
0
100
AcDbLine
 10
307.8846885298563
 20
64.1765126781456
 30
0.0
 11
302.3468794753569
 21
64.17651267814571
 31
0.0
  0
LINE
  5
11A8
330
2
100
AcDbEntity
  8
0
100
AcDbLine
 10
307.8846885298563
 20
67.17651267812377
 30
0.0
 11
302.3846885298518
 21
67.17651267812387
 31
0.0
  0
LINE
  5
11A9
330
2
100
AcDbEntity
  8
0
100
AcDbLine
 10
307.8846885298563
 20
78.64891715814085
 30
0.0
 11
302.3846885298518
 21
78.64891715814095
 31
0.0
  0
LINE
  5
11AA
330
2
100
AcDbEntity
  8
0
100
AcDbLine
 10
366.8846885301528
 20
67.17651267812377
 30
0.0
 11
307.8846885298563
 21
67.17651267812377
 31
0.0
  0
LINE
  5
11AB
330
2
100
AcDbEntity
  8
0
100
AcDbLine
 10
366.8846885301528
 20
64.1765126781456
 30
0.0
 11
307.8846885298563
 21
64.1765126781456
 31
0.0
  0
LINE
  5
11AC
330
2
100
AcDbEntity
  8
0
100
AcDbLine
 10
366.8846885301528
 20
78.64891715814085
 30
0.0
 11
307.8846885298563
 21
78.64891715814085
 31
0.0
  0
LINE
  5
11AD
330
2
100
AcDbEntity
  8
CENTER
  6
CENS
100
AcDbLine
 10
292.0846885298562
 20
126.1765126781547
 30
0.0
 11
311.6333900104529
 21
126.1765126781547
 31
0.0
  0
LINE
  5
11AE
330
2
100
AcDbEntity
  8
0
100
AcDbLine
 10
295.3846885298563
 20
130.4265126781286
 30
0.0
 11
301.3846885298518
 21
130.4265126781285
 31
0.0
  0
LINE
  5
11AF
330
2
100
AcDbEntity
  8
0
100
AcDbLine
 10
295.3846885298563
 20
121.9265126781286
 30
0.0
 11
301.3846885298563
 21
121.9265126781286
 31
0.0
  0
LINE
  5
11B0
330
2
100
AcDbEntity
  8
0
100
AcDbLine
 10
300.0846885298561
 20
121.9265126781286
 30
0.0
 11
300.0846885298561
 21
130.4265126781286
 31
0.0
  0
LINE
  5
11B1
330
2
100
AcDbEntity
  8
0
100
AcDbLine
 10
295.3846885298563
 20
121.9265126781286
 30
0.0
 11
295.3846885298563
 21
130.4265126781286
 31
0.0
  0
LINE
  5
11B2
330
2
100
AcDbEntity
  8
0
100
AcDbLine
 10
295.3846885298563
 20
121.9265126781286
 30
0.0
 11
295.0846885298561
 21
122.4461279203991
 31
0.0
  0
LINE
  5
11B3
330
2
100
AcDbEntity
  8
0
100
AcDbLine
 10
295.3846885298563
 20
130.4265126781286
 30
0.0
 11
295.0846885298561
 21
129.9068974358577
 31
0.0
  0
LINE
  5
11B4
330
2
100
AcDbEntity
  8
0
100
AcDbLine
 10
295.0846885298561
 20
122.4461279203991
 30
0.0
 11
295.0846885298561
 21
129.9068974358577
 31
0.0
  0
LINE
  5
11B5
330
2
100
AcDbEntity
  8
HIDS
  6
SEKKEI_H
100
AcDbLine
 10
299.3846885298509
 20
124.8480855533911
 30
0.0
 11
299.3846885298518
 21
121.9265126781286
 31
0.0
  0
LINE
  5
11B6
330
2
100
AcDbEntity
  8
CENTER
  6
CENS
100
AcDbLine
 10
292.0846885298562
 20
64.17651267811968
 30
0.0
 11
311.6333900104529
 21
64.17651267811968
 31
0.0
  0
LINE
  5
11B7
330
2
100
AcDbEntity
  8
0
100
AcDbLine
 10
295.3846885298563
 20
59.92651267814571
 30
0.0
 11
301.3846885298518
 21
59.92651267814571
 31
0.0
  0
LINE
  5
11B8
330
2
100
AcDbEntity
  8
0
100
AcDbLine
 10
295.3846885298563
 20
68.42651267814571
 30
0.0
 11
301.3846885298563
 21
68.42651267814571
 31
0.0
  0
LINE
  5
11B9
330
2
100
AcDbEntity
  8
0
100
AcDbLine
 10
300.0846885298561
 20
68.42651267814571
 30
0.0
 11
300.0846885298561
 21
59.92651267814571
 31
0.0
  0
LINE
  5
11BA
330
2
100
AcDbEntity
  8
0
100
AcDbLine
 10
295.3846885298563
 20
68.42651267814571
 30
0.0
 11
295.3846885298563
 21
59.92651267814571
 31
0.0
  0
LINE
  5
11BB
330
2
100
AcDbEntity
  8
0
100
AcDbLine
 10
295.3846885298563
 20
68.42651267814571
 30
0.0
 11
295.0846885298561
 21
67.90689743587527
 31
0.0
  0
LINE
  5
11BC
330
2
100
AcDbEntity
  8
0
100
AcDbLine
 10
295.3846885298563
 20
59.92651267814571
 30
0.0
 11
295.0846885298561
 21
60.44612792041661
 31
0.0
  0
LINE
  5
11BD
330
2
100
AcDbEntity
  8
0
100
AcDbLine
 10
295.0846885298561
 20
67.90689743587527
 30
0.0
 11
295.0846885298561
 21
60.44612792041661
 31
0.0
  0
LINE
  5
11BE
330
2
100
AcDbEntity
  8
HIDS
  6
SEKKEI_H
100
AcDbLine
 10
299.3846885298518
 20
68.42651267814571
 30
0.0
 11
299.3846885298518
 21
65.50493980288317
 31
0.0
  0
LINE
  5
11BF
330
2
100
AcDbEntity
  8
0
100
AcDbLine
 10
375.0917466078127
 20
74.8914216936441
 30
0.0
 11
375.8846885301546
 21
74.91218560863146
 31
0.0
  0
LINE
  5
11C0
330
2
100
AcDbEntity
  8
0
100
AcDbLine
 10
383.8846885301546
 20
76.17651231450892
 30
0.0
 11
383.8846885301546
 21
83.17646682766165
 31
0.0
  0
LINE
  5
11C1
330
2
100
AcDbEntity
  8
0
100
AcDbLine
 10
376.8846885301546
 20
76.17651231450915
 30
0.0
 11
376.8846885301546
 21
83.17646682766186
 31
0.0
  0
LINE
  5
11C2
330
2
100
AcDbEntity
  8
0
100
AcDbLine
 10
383.8846885301546
 20
107.1764668276616
 30
0.0
 11
383.8846885301546
 21
114.1765123145146
 31
0.0
  0
LINE
  5
11C3
330
2
100
AcDbEntity
  8
0
100
AcDbLine
 10
376.8846885301546
 20
107.1764668276616
 30
0.0
 11
376.8846885301546
 21
114.1765123145146
 31
0.0
  0
LINE
  5
11C4
330
2
100
AcDbEntity
  8
0
100
AcDbLine
 10
383.8846885301546
 20
76.17651231450892
 30
0.0
 11
384.8846885301546
 21
75.59916204531939
 31
0.0
  0
LINE
  5
11C5
330
2
100
AcDbEntity
  8
0
100
AcDbLine
 10
383.8846885301546
 20
76.17651231450892
 30
0.0
 11
375.8846885301546
 21
76.17651231450892
 31
0.0
  0
LINE
  5
11C6
330
2
100
AcDbEntity
  8
0
100
AcDbLine
 10
375.0917459098565
 20
115.4616029536503
 30
0.0
 11
375.8846885301546
 21
115.4408390203863
 31
0.0
  0
LINE
  5
11C7
330
2
100
AcDbEntity
  8
0
100
AcDbLine
 10
383.884688530151
 20
114.1765123145102
 30
0.0
 11
384.884688530151
 21
114.7538625837
 31
0.0
  0
LINE
  5
11C8
330
2
100
AcDbEntity
  8
0
100
AcDbLine
 10
383.8846885301546
 20
114.1765123145146
 30
0.0
 11
375.8846885301546
 21
114.1765123145146
 31
0.0
  0
LINE
  5
11C9
330
2
100
AcDbEntity
  8
0
100
AcDbLine
 10
375.8846885301546
 20
74.91218560863146
 30
0.0
 11
375.8846885301546
 21
83.17646682766165
 31
0.0
  0
LINE
  5
11CA
330
2
100
AcDbEntity
  8
0
100
AcDbLine
 10
375.8846885301546
 20
107.1764668276616
 30
0.0
 11
375.8846885301546
 21
115.4408390203863
 31
0.0
  0
SPLINE
  5
11CB
330
2
100
AcDbEntity
  8
HOJO
100
AcDbSpline
210
0.0
220
0.0
230
1.0
 70
     8
 71
     3
 72
    30
 73
    26
 74
     0
 42
0.0000000001
 43
0.0000000001
 40
0.5291151004632872
 40
0.5291151004632872
 40
0.5291151004632872
 40
0.5291151004632872
 40
1.956980023701299
 40
3.920474213777056
 40
6.804369916569926
 40
9.380599442303543
 40
11.64706261606478
 40
15.15450673012081
 40
18.33471389219206
 40
26.46123268957957
 40
33.84164654509357
 40
41.3139759608263
 40
50.08265962234144
 40
58.74767557572532
 40
65.64019968405365
 40
71.01864943212631
 40
79.37389829637055
 40
85.78834280733275
 40
89.35324359450742
 40
92.71679100073518
 40
95.51361072944564
 40
99.08107367810877
 40
102.5976528199299
 40
106.2025269131245
 40
108.7188069452504
 40
108.7188069452504
 40
108.7188069452504
 40
108.7188069452504
 10
290.8846885298563
 20
116.735215109106
 30
0.0
 10
291.3162735773868
 20
116.5401081913841
 30
0.0
 10
292.3430342280936
 20
116.0703538211548
 30
0.0
 10
294.2704164655207
 20
115.0979047967054
 30
0.0
 10
296.7581363907294
 20
115.5667033014188
 30
0.0
 10
299.5128852796707
 20
115.1815283204073
 30
0.0
 10
301.0881100414199
 20
112.4705535514291
 30
0.0
 10
300.1691458873957
 20
109.506052082842
 30
0.0
 10
302.7347171450584
 20
104.3028089583107
 30
0.0
 10
310.2909907413624
 20
107.8922641142795
 30
0.0
 10
317.5063241132558
 20
105.4575593187435
 30
0.0
 10
325.4664178479971
 20
107.2990447840313
 30
0.0
 10
333.7310238146502
 20
105.7654707457944
 30
0.0
 10
341.8506103818309
 20
107.6943949084028
 30
0.0
 10
348.7668981930411
 20
105.1286194966625
 30
0.0
 10
355.4947745465443
 20
107.6988162352978
 30
0.0
 10
362.330734200963
 20
105.2789300525034
 30
0.0
 10
368.0758833315877
 20
106.761492325628
 30
0.0
 10
373.2396269012434
 20
105.6923473337789
 30
0.0
 10
374.4144007428541
 20
109.6432859268376
 30
0.0
 10
373.44998377295
 20
112.62918718367
 30
0.0
 10
374.9805492216738
 20
116.3451647184239
 30
0.0
 10
378.9463987350001
 20
116.3916890314075
 30
0.0
 10
382.0989733472935
 20
116.0436379581601
 30
0.0
 10
384.0643173918944
 20
116.7357477197935
 30
0.0
 10
384.8846885301601
 20
116.9257863700408
 30
0.0
  0
LINE
  5
11CC
330
2
100
AcDbEntity
  8
0
100
AcDbLine
 10
298.8846885298572
 20
115.0717689918594
 30
0.0
 11
298.8846885298572
 21
107.1764668276614
 31
0.0
  0
SPLINE
  5
11CD
330
2
100
AcDbEntity
  8
HOJO
100
AcDbSpline
210
0.0
220
0.0
230
1.0
 70
     8
 71
     3
 72
    30
 73
    26
 74
     0
 42
0.0000000001
 43
0.0000000001
 40
0.5291151004632872
 40
0.5291151004632872
 40
0.5291151004632872
 40
0.5291151004632872
 40
1.956980023701299
 40
3.920474213777056
 40
6.804369916569926
 40
9.380599442303543
 40
11.64706261606478
 40
15.15450673012081
 40
18.33471389219206
 40
26.46123268957957
 40
33.84164654509357
 40
41.3139759608263
 40
50.08265962234144
 40
58.74767557572532
 40
65.64019968405365
 40
71.01864943212631
 40
79.37389829637055
 40
85.78834280733275
 40
89.35324359450742
 40
92.71679100073518
 40
95.51361072944564
 40
99.08107367810877
 40
102.5976528199299
 40
106.2025269131245
 40
108.7188069452504
 40
108.7188069452504
 40
108.7188069452504
 40
108.7188069452504
 10
290.8846900977279
 20
73.61780268369585
 30
0.0
 10
291.3162751310693
 20
73.81290963280497
 30
0.0
 10
292.3430357476128
 20
74.28266407770633
 30
0.0
 10
294.2704179143175
 20
75.25511324232588
 30
0.0
 10
296.7581378736205
 20
74.7863149185336
 30
0.0
 10
299.5128867345493
 20
75.17149009988606
 30
0.0
 10
301.0881112991411
 20
77.88246498342363
 30
0.0
 10
300.1691469295211
 20
80.84696638517852
 30
0.0
 10
302.7347178087749
 20
86.0502096962927
 30
0.0
 10
310.2909916661238
 20
82.46075508985923
 30
0.0
 10
317.5063248609522
 20
84.89546041013529
 30
0.0
 10
325.4664187296167
 20
83.05397552375092
 30
0.0
 10
333.7310245847394
 20
84.58755016303706
 30
0.0
 10
341.8506112922033
 20
82.65862659093107
 30
0.0
 10
348.7668989168152
 20
85.22440250566337
 30
0.0
 10
355.4947754572377
 20
82.65420625631753
 30
0.0
 10
362.3307349356683
 20
85.07409293626194
 30
0.0
 10
368.0758841741136
 20
83.59153108095728
 30
0.0
 10
373.2396276660148
 20
84.66067644834316
 30
0.0
 10
374.4144017949594
 20
80.70973794072068
 30
0.0
 10
373.4499850422072
 20
77.72383661375051
 30
0.0
 10
374.9805507611782
 20
74.0078591903079
 30
0.0
 10
378.9464002778887
 20
73.9613351657436
 30
0.0
 10
382.0989748648699
 20
74.30938646826411
 30
0.0
 10
384.0643189598041
 20
73.61727684956173
 30
0.0
 10
384.8846901118905
 20
73.4272382589765
 30
0.0
  0
LINE
  5
11CE
330
2
100
AcDbEntity
  8
0
100
AcDbLine
 10
298.8846885298572
 20
114.1765126781371
 30
0.0
 11
291.8846885298563
 21
107.176466827661
 31
0.0
  0
LINE
  5
11CF
330
2
100
AcDbEntity
  8
0
100
AcDbLine
 10
291.8846885298545
 20
114.1765126781367
 30
0.0
 11
298.8846885298572
 21
107.1764668276614
 31
0.0
  0
LINE
  5
11D0
330
2
100
AcDbEntity
  8
0
100
AcDbLine
 10
298.8846885298572
 20
75.28124823422976
 30
0.0
 11
298.8846885298572
 21
83.17655039842767
 31
0.0
  0
LINE
  5
11D1
330
2
100
AcDbEntity
  8
0
100
AcDbLine
 10
291.8846885298563
 20
83.176466827663
 30
0.0
 11
298.8846885298572
 21
76.17651267813832
 31
0.0
  0
LINE
  5
11D2
330
2
100
AcDbEntity
  8
0
100
AcDbLine
 10
298.8846885298572
 20
83.176466827663
 30
0.0
 11
291.8846885298563
 21
76.17651267813832
 31
0.0
  0
LINE
  5
11D3
330
2
100
AcDbEntity
  8
0
100
AcDbLine
 10
376.8846885301546
 20
83.17646682766186
 30
0.0
 11
383.8846885301546
 21
76.17651231450892
 31
0.0
  0
LINE
  5
11D4
330
2
100
AcDbEntity
  8
0
100
AcDbLine
 10
376.8846885301546
 20
76.17651231450915
 30
0.0
 11
383.8846885301546
 21
83.17646682766165
 31
0.0
  0
LINE
  5
11D5
330
2
100
AcDbEntity
  8
0
100
AcDbLine
 10
376.8846885301546
 20
114.1765123145146
 30
0.0
 11
383.8846885301546
 21
107.1764668276616
 31
0.0
  0
LINE
  5
11D6
330
2
100
AcDbEntity
  8
0
100
AcDbLine
 10
376.8846885301546
 20
107.1764668276616
 30
0.0
 11
383.884688530151
 21
114.1765123145102
 31
0.0
  0
LINE
  5
11D7
330
2
100
AcDbEntity
  8
0
100
AcDbLine
 10
373.4555539421154
 20
274.0558660928259
 30
0.0
 11
373.4555539421154
 21
250.0558660928259
 31
0.0
  0
LINE
  5
11D8
330
2
100
AcDbEntity
  8
0
100
AcDbLine
 10
373.4555539421154
 20
274.0558660928259
 30
0.0
 11
373.4555539421154
 21
250.0558660928261
 31
0.0
  0
LINE
  5
11D9
330
2
100
AcDbEntity
  8
0
100
AcDbLine
 10
363.4555539421154
 20
250.0558660928259
 30
0.0
 11
373.4555539421154
 21
250.0558660928259
 31
0.0
  0
LINE
  5
11DA
330
2
100
AcDbEntity
  8
0
100
AcDbLine
 10
363.4555539421154
 20
250.0558660928259
 30
0.0
 11
373.4555539421154
 21
250.0558660928259
 31
0.0
  0
LINE
  5
11DB
330
2
100
AcDbEntity
  8
0
100
AcDbLine
 10
363.4555539421154
 20
274.0558660928259
 30
0.0
 11
373.4555539421154
 21
274.0558660928259
 31
0.0
  0
LINE
  5
11DC
330
2
100
AcDbEntity
  8
0
100
AcDbLine
 10
363.4555539421154
 20
274.0558660928259
 30
0.0
 11
373.4555539421154
 21
274.0558660928259
 31
0.0
  0
LINE
  5
11DD
330
2
100
AcDbEntity
  8
0
100
AcDbLine
 10
267.4555539421154
 20
274.0558660928249
 30
0.0
 11
267.4555539421154
 21
250.055866092827
 31
0.0
  0
LINE
  5
11DE
330
2
100
AcDbEntity
  8
0
100
AcDbLine
 10
269.4555539418189
 20
250.0558660928272
 30
0.0
 11
267.4555539421154
 21
250.0558660928272
 31
0.0
  0
LINE
  5
11DF
330
2
100
AcDbEntity
  8
0
100
AcDbLine
 10
269.4555539418171
 20
274.0558660928252
 30
0.0
 11
267.4555539421154
 21
274.0558660928249
 31
0.0
  0
LINE
  5
11E0
330
2
100
AcDbEntity
  8
CENTER
100
AcDbLine
 10
366.9555539421145
 20
267.0641168232687
 30
0.0
 11
366.9555539421145
 21
257.0477022634386
 31
0.0
  0
ARC
  5
11E1
330
2
100
AcDbEntity
  8
0
100
AcDbCircle
 10
462.8628244467692
 20
262.05590954337
 30
0.0
 40
7.5
100
AcDbArc
 50
109.4684732313215
 51
70.52603191574333
  0
LINE
  5
11E2
330
2
100
AcDbEntity
  8
0
100
AcDbLine
 10
460.3631635160501
 20
271.8559095433697
 30
0.0
 11
465.36316351605
 21
271.8559095433697
 31
0.0
  0
LINE
  5
11E3
330
2
100
AcDbEntity
  8
0
100
AcDbLine
 10
465.36316351605
 20
269.1268574669957
 30
0.0
 11
465.36316351605
 21
271.85590954337
 31
0.0
  0
LINE
  5
11E4
330
2
100
AcDbEntity
  8
0
100
AcDbLine
 10
460.3631635160501
 20
269.1270972251836
 30
0.0
 11
460.3631635160501
 21
271.8559095433697
 31
0.0
  0
ARC
  5
11E5
330
2
100
AcDbEntity
  8
0
100
AcDbCircle
 10
462.8628244516086
 20
262.05590954337
 30
0.0
 40
8.558018947192636
100
AcDbArc
 50
106.9827670368304
 51
73.01248583569116
  0
CIRCLE
  5
11E6
330
2
100
AcDbEntity
  8
0
100
AcDbCircle
 10
462.8628244516086
 20
262.05590954337
 30
0.0
 40
11.99995654945598
  0
ARC
  5
11E7
330
2
100
AcDbEntity
  8
0
100
AcDbCircle
 10
164.0982170490825
 20
262.05590954337
 30
0.0
 40
7.5
100
AcDbArc
 50
109.4684732313215
 51
70.52603191574333
  0
LINE
  5
11E8
330
2
100
AcDbEntity
  8
0
100
AcDbLine
 10
161.5985561183634
 20
271.8559095433702
 30
0.0
 11
166.5985561183634
 21
271.8559095433702
 31
0.0
  0
LINE
  5
11E9
330
2
100
AcDbEntity
  8
0
100
AcDbLine
 10
166.5985561183634
 20
269.1268574669959
 30
0.0
 11
166.5985561183634
 21
271.8559095433702
 31
0.0
  0
LINE
  5
11EA
330
2
100
AcDbEntity
  8
0
100
AcDbLine
 10
161.5985561183634
 20
269.1270972251841
 30
0.0
 11
161.5985561183634
 21
271.8559095433702
 31
0.0
  0
ARC
  5
11EB
330
2
100
AcDbEntity
  8
0
100
AcDbCircle
 10
164.0982170539219
 20
262.05590954337
 30
0.0
 40
8.558018947192636
100
AcDbArc
 50
106.9827670368304
 51
73.01248583569116
  0
CIRCLE
  5
11EC
330
2
100
AcDbEntity
  8
0
100
AcDbCircle
 10
164.0982170539219
 20
262.05590954337
 30
0.0
 40
11.99995654945598
  0
CIRCLE
  5
11ED
330
2
100
AcDbEntity
  8
0
100
AcDbCircle
 10
462.8627788374916
 20
411.2817990201972
 30
0.0
 40
1.6
  0
CIRCLE
  5
11EE
330
2
100
AcDbEntity
  8
HOJO
 48
0.5
100
AcDbCircle
 10
462.8627788374916
 20
411.2817990201972
 30
0.0
 40
2.0
  0
LINE
  5
11EF
330
2
100
AcDbEntity
  8
0
100
AcDbLine
 10
474.8627810010804
 20
404.7817990201972
 30
0.0
 11
450.8627810010803
 21
404.7817990201967
 31
0.0
  0
LINE
  5
11F0
330
2
100
AcDbEntity
  8
0
100
AcDbLine
 10
474.8627810010813
 20
404.7817990201972
 30
0.0
 11
450.8627810010813
 21
404.7817990201972
 31
0.0
  0
LINE
  5
11F1
330
2
100
AcDbEntity
  8
0
100
AcDbLine
 10
450.8627810010803
 20
414.7817990201974
 30
0.0
 11
450.8627810010803
 21
404.781799020197
 31
0.0
  0
LINE
  5
11F2
330
2
100
AcDbEntity
  8
0
100
AcDbLine
 10
450.8627810010813
 20
414.7817990201968
 30
0.0
 11
450.8627810010813
 21
404.7817990201972
 31
0.0
  0
LINE
  5
11F3
330
2
100
AcDbEntity
  8
0
100
AcDbLine
 10
474.8627810010813
 20
414.781799020197
 30
0.0
 11
474.8627810010804
 21
404.7817990201972
 31
0.0
  0
LINE
  5
11F4
330
2
100
AcDbEntity
  8
0
100
AcDbLine
 10
474.8627810010813
 20
414.7817990201972
 30
0.0
 11
474.8627810010813
 21
404.7817990201972
 31
0.0
  0
LINE
  5
11F5
330
2
100
AcDbEntity
  8
0
100
AcDbLine
 10
474.8627810010795
 20
510.7817990201974
 30
0.0
 11
450.8627810010813
 21
510.7817990201974
 31
0.0
  0
LINE
  5
11F6
330
2
100
AcDbEntity
  8
0
100
AcDbLine
 10
450.8627810010822
 20
508.7817990204942
 30
0.0
 11
450.8627810010822
 21
510.7817990201972
 31
0.0
  0
LINE
  5
11F7
330
2
100
AcDbEntity
  8
0
100
AcDbLine
 10
474.8627810010795
 20
508.7817990204951
 30
0.0
 11
474.8627810010795
 21
510.7817990201974
 31
0.0
  0
LINE
  5
11F8
330
2
100
AcDbEntity
  8
CENTER
100
AcDbLine
 10
467.8710317315236
 20
411.2817990201981
 30
0.0
 11
457.8546171716936
 21
411.2817990201981
 31
0.0
  0
LINE
  5
11F9
330
2
100
AcDbEntity
  8
0
100
AcDbLine
 10
648.1379905906261
 20
274.0558660928322
 30
0.0
 11
648.1379905906261
 21
250.0558660928322
 31
0.0
  0
LINE
  5
11FA
330
2
100
AcDbEntity
  8
0
100
AcDbLine
 10
648.1379905906261
 20
274.0558660928322
 30
0.0
 11
648.1379905906261
 21
250.0558660928324
 31
0.0
  0
LINE
  5
11FB
330
2
100
AcDbEntity
  8
0
100
AcDbLine
 10
658.137990590627
 20
250.0558660928322
 30
0.0
 11
648.1379905906261
 21
250.0558660928322
 31
0.0
  0
LINE
  5
11FC
330
2
100
AcDbEntity
  8
0
100
AcDbLine
 10
658.1379905906261
 20
250.0558660928322
 30
0.0
 11
648.1379905906261
 21
250.0558660928322
 31
0.0
  0
LINE
  5
11FD
330
2
100
AcDbEntity
  8
0
100
AcDbLine
 10
658.1379905906261
 20
274.0558660928322
 30
0.0
 11
648.1379905906261
 21
274.0558660928322
 31
0.0
  0
LINE
  5
11FE
330
2
100
AcDbEntity
  8
0
100
AcDbLine
 10
658.1379905906261
 20
274.0558660928322
 30
0.0
 11
648.1379905906261
 21
274.0558660928322
 31
0.0
  0
LINE
  5
11FF
330
2
100
AcDbEntity
  8
0
100
AcDbLine
 10
754.137990590627
 20
274.0558660928313
 30
0.0
 11
754.137990590627
 21
250.0558660928333
 31
0.0
  0
LINE
  5
1200
330
2
100
AcDbEntity
  8
0
100
AcDbLine
 10
752.1379905909235
 20
250.0558660928336
 30
0.0
 11
754.1379905906261
 21
250.0558660928336
 31
0.0
  0
LINE
  5
1201
330
2
100
AcDbEntity
  8
0
100
AcDbLine
 10
752.1379905909244
 20
274.0558660928316
 30
0.0
 11
754.137990590627
 21
274.0558660928313
 31
0.0
  0
LINE
  5
1202
330
2
100
AcDbEntity
  8
PHAS
  6
SEKKEI_P_S
100
AcDbLine
 10
251.4555539418171
 20
250.5197989988259
 30
0.0
 11
251.4555539418162
 21
273.5920050878807
 31
0.0
  0
LINE
  5
1203
330
2
100
AcDbEntity
  8
PHAS
  6
SEKKEI_P_S
100
AcDbLine
 10
255.5872756983045
 20
245.5957668206367
 30
0.0
 11
266.3291499418166
 21
243.7016005433533
 31
0.0
  0
ARC
  5
1204
330
2
100
AcDbEntity
  8
PHAS
  6
SEKKEI_P_S
100
AcDbCircle
 10
256.4555539418171
 20
250.5197989988259
 30
0.0
 40
5.0
100
AcDbArc
 50
180.0
 51
259.9995653374257
  0
LINE
  5
1205
330
2
100
AcDbEntity
  8
PHAS
  6
SEKKEI_P_S
100
AcDbLine
 10
267.1555509418186
 20
283.9367995433535
 30
0.0
 11
267.1555509418168
 21
240.1750045433534
 31
0.0
  0
ARC
  5
1206
330
2
100
AcDbEntity
  8
PHAS
  6
SEKKEI_P_S
100
AcDbCircle
 10
266.1555509418168
 20
242.7167985433534
 30
0.0
 40
1.0
100
AcDbArc
 50
0.0
 51
79.99999999999483
  0
LINE
  5
1207
330
2
100
AcDbEntity
  8
PHAS
  6
SEKKEI_P_S
100
AcDbLine
 10
276.9555539418153
 20
236.0559095433534
 30
0.0
 11
276.9555539418162
 21
288.0559095433534
 31
0.0
  0
ARC
  5
1208
330
2
100
AcDbEntity
  8
PHAS
  6
SEKKEI_P_S
100
AcDbCircle
 10
256.4555539418162
 20
273.5920050878807
 30
0.0
 40
5.0
100
AcDbArc
 50
100.0004346625742
 51
180.0
  0
LINE
  5
1209
330
2
100
AcDbEntity
  8
PHAS
  6
SEKKEI_P_S
100
AcDbLine
 10
255.5872756983036
 20
278.51603726607
 30
0.0
 11
266.3291499418166
 21
280.4102035433534
 31
0.0
  0
ARC
  5
120A
330
2
100
AcDbEntity
  8
PHAS
  6
SEKKEI_P_S
100
AcDbCircle
 10
270.1555509418168
 20
283.9367995433535
 30
0.0
 40
3.0
100
AcDbArc
 50
103.0417940599517
 51
179.9999999999934
  0
ARC
  5
120B
330
2
100
AcDbEntity
  8
PHAS
  6
SEKKEI_P_S
100
AcDbCircle
 10
266.1555509418168
 20
281.3950055433533
 30
0.0
 40
1.0
100
AcDbArc
 50
280.0000000000051
 51
0.0
  0
LINE
  5
120C
330
2
100
AcDbEntity
  8
PHAS
  6
SEKKEI_P_S
100
AcDbLine
 10
274.4555539418171
 20
288.0122695433533
 30
0.0
 11
269.4785657134572
 21
286.8594166925167
 31
0.0
  0
LINE
  5
120D
330
2
100
AcDbEntity
  8
PHAS
  6
SEKKEI_P_S
100
AcDbLine
 10
274.4555539418171
 20
288.0122695433533
 30
0.0
 11
276.9555539418162
 21
288.0559095433534
 31
0.0
  0
ARC
  5
120E
330
2
100
AcDbEntity
  8
PHAS
  6
SEKKEI_P_S
100
AcDbCircle
 10
270.1555509418168
 20
240.1750195433532
 30
0.0
 40
3.0
100
AcDbArc
 50
180.0
 51
256.9582059400482
  0
LINE
  5
120F
330
2
100
AcDbEntity
  8
PHAS
  6
SEKKEI_P_S
100
AcDbLine
 10
274.4555539418171
 20
236.0995495433535
 30
0.0
 11
269.4785657134572
 21
237.25240239419
 31
0.0
  0
LINE
  5
1210
330
2
100
AcDbEntity
  8
PHAS
  6
SEKKEI_P_S
100
AcDbLine
 10
274.4555539418171
 20
236.0995495433535
 30
0.0
 11
276.9555539418153
 21
236.0559095433534
 31
0.0
  0
LINE
  5
1212
330
2
100
AcDbEntity
  8
0
100
AcDbLine
 10
498.6728244516085
 20
470.7817990199912
 30
0.0
 11
498.4895602279985
 21
491.7817990204942
 31
0.0
  0
TEXT
  5
1213
330
2
100
AcDbEntity
  8
TITLE
100
AcDbText
 10
266.5208620378828
 20
473.4933503151316
 30
0.0
 40
5.0
  1
AFCZ15S-7~10M200S1
100
AcDbText
  0
TEXT
  5
1214
330
2
100
AcDbEntity
  8
TITLE
100
AcDbText
 10
266.5208620378828
 20
464.9933503151316
 30
0.0
 40
5.0
  1
AFCZ15S-7~10L200S1
100
AcDbText
  0
LINE
  5
1216
330
2
100
AcDbEntity
  8
0
100
AcDbLine
 10
552.0939814076365
 20
288.9159095433701
 30
0.0
 11
547.3939814076376
 21
288.9159095433701
 31
0.0
  0
LINE
  5
1217
330
2
100
AcDbEntity
  8
0
100
AcDbLine
 10
547.3939814076376
 20
297.4159095433701
 30
0.0
 11
552.0939814076365
 21
297.4159095433701
 31
0.0
  0
LINE
  5
1218
330
2
100
AcDbEntity
  8
CENTER
  6
CENS
100
AcDbLine
 10
529.8628244516086
 20
293.1659095433701
 30
0.0
 11
557.3197973816924
 21
293.1659095433701
 31
0.0
  0
LINE
  5
1219
330
2
100
AcDbEntity
  8
0
100
AcDbLine
 10
552.3939814076376
 20
296.8962943010997
 30
0.0
 11
552.3939814076376
 21
289.4355247856406
 31
0.0
  0
LINE
  5
121A
330
2
100
AcDbEntity
  8
0
100
AcDbLine
 10
552.0939814076365
 20
288.9159095433701
 30
0.0
 11
552.0939814076365
 21
297.4159095433701
 31
0.0
  0
LINE
  5
121B
330
2
100
AcDbEntity
  8
0
100
AcDbLine
 10
552.0939814076365
 20
288.9159095433701
 30
0.0
 11
552.3939814076376
 21
289.4355247856406
 31
0.0
  0
LINE
  5
121C
330
2
100
AcDbEntity
  8
0
100
AcDbLine
 10
552.3939814076376
 20
296.8962943010997
 30
0.0
 11
552.0939814076365
 21
297.4159095433701
 31
0.0
  0
LINE
  5
121D
330
2
100
AcDbEntity
  8
0
100
AcDbLine
 10
547.3939814076376
 20
297.4159095433701
 30
0.0
 11
546.3939814076375
 21
297.4159095433701
 31
0.0
  0
LINE
  5
121E
330
2
100
AcDbEntity
  8
0
100
AcDbLine
 10
546.3939814076375
 20
297.4159095433701
 30
0.0
 11
546.3939814076375
 21
288.9159095433701
 31
0.0
  0
LINE
  5
121F
330
2
100
AcDbEntity
  8
0
100
AcDbLine
 10
546.3939814076375
 20
288.9159095433701
 30
0.0
 11
547.3939814076376
 21
288.9159095433701
 31
0.0
  0
LINE
  5
1220
330
2
100
AcDbEntity
  8
0
100
AcDbLine
 10
547.3939814076376
 20
288.9159095433701
 30
0.0
 11
547.3939814076376
 21
297.4159095433701
 31
0.0
  0
LINE
  5
1221
330
2
100
AcDbEntity
  8
0
100
AcDbLine
 10
547.3939814076376
 20
288.9159095433701
 30
0.0
 11
547.3939814076376
 21
297.4159095433701
 31
0.0
  0
ARC
  5
1222
330
2
100
AcDbEntity
  8
0
100
AcDbCircle
 10
551.197250818238
 20
227.0559095433695
 30
0.0
 40
5.0
100
AcDbArc
 50
163.8741378563956
 51
171.7867892982579
  0
LINE
  5
1223
330
2
100
AcDbEntity
  8
0
100
AcDbLine
 10
546.2687429782737
 20
228.0210047304954
 30
0.0
 11
546.8628244516086
 21
262.05590954337
 31
0.0
  0
LINE
  5
1224
330
2
100
AcDbEntity
  8
0
100
AcDbLine
 10
534.8628244516086
 20
226.05590954337
 30
0.0
 11
544.2690475879618
 21
226.05590954337
 31
0.0
  0
ARC
  5
1225
330
2
100
AcDbEntity
  8
0
100
AcDbCircle
 10
544.2690475879618
 20
228.05590954337
 30
0.0
 40
2.0
100
AcDbArc
 50
270.0
 51
358.9999999999982
  0
LINE
  5
1226
330
2
100
AcDbEntity
  8
CENTER
  6
CENS
100
AcDbLine
 10
563.8628244516086
 20
272.4559095433701
 30
0.0
 11
563.8628244516086
 21
300.735091143852
 31
0.0
  0
LINE
  5
1227
330
2
100
AcDbEntity
  8
0
100
AcDbLine
 10
546.2687429782737
 20
296.0908143562442
 30
0.0
 11
546.7228827342125
 21
270.0731651635146
 31
0.0
  0
LINE
  5
1228
330
2
100
AcDbEntity
  8
0
100
AcDbLine
 10
563.3340394254165
 20
289.0517973125925
 30
0.0
 11
563.1164964148821
 21
276.5887665861023
 31
0.0
  0
LINE
  5
1229
330
2
100
AcDbEntity
  8
0
100
AcDbLine
 10
534.8628244516086
 20
262.05590954337
 30
0.0
 11
535.3228638047959
 21
262.05590954337
 31
0.0
  0
LINE
  5
122A
330
2
100
AcDbEntity
  8
0
100
AcDbLine
 10
552.3939814076376
 20
232.05590954337
 30
0.0
 11
577.8628244516085
 21
232.05590954337
 31
0.0
  0
LINE
  5
122B
330
2
100
AcDbEntity
  8
0
100
AcDbLine
 10
563.3340394254165
 20
235.0600217741475
 30
0.0
 11
562.8628244516086
 21
262.05590954337
 31
0.0
  0
ARC
  5
122C
330
2
100
AcDbEntity
  8
0
100
AcDbCircle
 10
566.3345681888032
 20
235.05590954337
 30
0.0
 40
3.0
100
AcDbArc
 50
181.0000000000017
 51
270.0
  0
ARC
  5
122D
330
2
100
AcDbEntity
  8
0
100
AcDbCircle
 10
550.7710394022189
 20
286.8237281889132
 30
0.0
 40
3.0
100
AcDbArc
 50
270.0
 51
358.9999999999721
  0
LINE
  5
122E
330
2
100
AcDbEntity
  8
0
100
AcDbLine
 10
560.2423261552805
 20
283.8237281889132
 30
0.0
 11
550.7710394022189
 21
283.8237281889137
 31
0.0
  0
LINE
  5
122F
330
2
100
AcDbEntity
  8
0
100
AcDbLine
 10
553.7705824876876
 20
286.7713709696013
 30
0.0
 11
553.8285235875274
 21
290.0908143562446
 31
0.0
  0
ARC
  5
1230
330
2
100
AcDbEntity
  8
0
100
AcDbCircle
 10
555.8282189778411
 20
290.05590954337
 30
0.0
 40
2.0
100
AcDbArc
 50
90.0
 51
178.9999999999721
  0
LINE
  5
1231
330
2
100
AcDbEntity
  8
0
100
AcDbLine
 10
552.3939814076376
 20
292.0559095433704
 30
0.0
 11
577.8628244516085
 21
292.05590954337
 31
0.0
  0
ARC
  5
1232
330
2
100
AcDbEntity
  8
0
100
AcDbCircle
 10
566.3345681888032
 20
289.05590954337
 30
0.0
 40
3.0
100
AcDbArc
 50
90.0
 51
178.9999999999982
  0
ARC
  5
1233
330
2
100
AcDbEntity
  8
0
100
AcDbCircle
 10
544.2690475879618
 20
296.05590954337
 30
0.0
 40
2.0
100
AcDbArc
 50
1.000000000001775
 51
90.0
  0
LINE
  5
1234
330
2
100
AcDbEntity
  8
0
100
AcDbLine
 10
534.8628244516086
 20
298.05590954337
 30
0.0
 11
544.2690475879618
 21
298.05590954337
 31
0.0
  0
ARC
  5
1235
330
2
100
AcDbEntity
  8
0
100
AcDbCircle
 10
551.197250818238
 20
297.0559095433705
 30
0.0
 40
5.0
100
AcDbArc
 50
188.213210701742
 51
196.1258621436043
  0
LINE
  5
1236
330
2
100
AcDbEntity
  8
0
100
AcDbLine
 10
577.8628244516085
 20
232.05590954337
 30
0.0
 11
577.8628244516085
 21
292.05590954337
 31
0.0
  0
LINE
  5
1237
330
2
100
AcDbEntity
  8
0
100
AcDbLine
 10
552.0939814076365
 20
235.1959095433698
 30
0.0
 11
547.3939814076376
 21
235.1959095433698
 31
0.0
  0
LINE
  5
1238
330
2
100
AcDbEntity
  8
0
100
AcDbLine
 10
547.3939814076376
 20
226.6959095433698
 30
0.0
 11
552.0939814076365
 21
226.6959095433698
 31
0.0
  0
LINE
  5
1239
330
2
100
AcDbEntity
  8
CENTER
  6
CENS
100
AcDbLine
 10
529.8628244516086
 20
230.9459095433698
 30
0.0
 11
557.3197973816924
 21
230.9459095433698
 31
0.0
  0
LINE
  5
123A
330
2
100
AcDbEntity
  8
0
100
AcDbLine
 10
552.3939814076376
 20
227.2155247856403
 30
0.0
 11
552.3939814076376
 21
234.6762943010994
 31
0.0
  0
LINE
  5
123B
330
2
100
AcDbEntity
  8
0
100
AcDbLine
 10
552.0939814076365
 20
235.1959095433698
 30
0.0
 11
552.0939814076365
 21
226.6959095433698
 31
0.0
  0
LINE
  5
123C
330
2
100
AcDbEntity
  8
0
100
AcDbLine
 10
552.0939814076365
 20
235.1959095433698
 30
0.0
 11
552.3939814076376
 21
234.6762943010994
 31
0.0
  0
LINE
  5
123D
330
2
100
AcDbEntity
  8
0
100
AcDbLine
 10
552.3939814076376
 20
227.2155247856403
 30
0.0
 11
552.0939814076365
 21
226.6959095433698
 31
0.0
  0
LINE
  5
123E
330
2
100
AcDbEntity
  8
0
100
AcDbLine
 10
547.3939814076376
 20
226.6959095433698
 30
0.0
 11
546.3939814076375
 21
226.6959095433698
 31
0.0
  0
LINE
  5
123F
330
2
100
AcDbEntity
  8
0
100
AcDbLine
 10
546.3939814076375
 20
226.6959095433698
 30
0.0
 11
546.3939814076375
 21
235.1959095433698
 31
0.0
  0
LINE
  5
1240
330
2
100
AcDbEntity
  8
0
100
AcDbLine
 10
546.3939814076375
 20
235.1959095433698
 30
0.0
 11
547.3939814076376
 21
235.1959095433698
 31
0.0
  0
LINE
  5
1241
330
2
100
AcDbEntity
  8
0
100
AcDbLine
 10
547.3939814076376
 20
235.1959095433698
 30
0.0
 11
547.3939814076376
 21
226.6959095433698
 31
0.0
  0
LINE
  5
1242
330
2
100
AcDbEntity
  8
0
100
AcDbLine
 10
547.3939814076376
 20
235.1959095433698
 30
0.0
 11
547.3939814076376
 21
226.6959095433698
 31
0.0
  0
LINE
  5
1243
330
2
100
AcDbEntity
  8
0
100
AcDbLine
 10
568.3628138425584
 20
267.5559095433704
 30
0.0
 11
558.3628138425584
 21
267.5559095433704
 31
0.0
  0
LINE
  5
1244
330
2
100
AcDbEntity
  8
0
100
AcDbLine
 10
568.3628138425584
 20
267.55590954337
 30
0.0
 11
568.3628138425584
 21
262.05590954337
 31
0.0
  0
LINE
  5
1245
330
2
100
AcDbEntity
  8
0
100
AcDbLine
 10
570.3628138425584
 20
268.7106100817495
 30
0.0
 11
568.3628138425584
 21
267.55590954337
 31
0.0
  0
LINE
  5
1246
330
2
100
AcDbEntity
  8
0
100
AcDbLine
 10
541.3628138425584
 20
267.80590954337
 30
0.0
 11
541.3628138425584
 21
262.05590954337
 31
0.0
  0
LINE
  5
1247
330
2
100
AcDbEntity
  8
0
100
AcDbLine
 10
568.3628138425584
 20
267.5559095433704
 30
0.0
 11
558.3628138425584
 21
267.5559095433704
 31
0.0
  0
LINE
  5
1248
330
2
100
AcDbEntity
  8
0
100
AcDbLine
 10
563.2750280212323
 20
276.8059095433704
 30
0.0
 11
570.3628138425584
 21
276.8059095433704
 31
0.0
  0
LINE
  5
1249
330
2
100
AcDbEntity
  8
0
100
AcDbLine
 10
570.3628138425584
 20
276.8059095433704
 30
0.0
 11
570.3628138425584
 21
262.05590954337
 31
0.0
  0
LINE
  5
124A
330
2
100
AcDbEntity
  8
0
100
AcDbLine
 10
556.3628138425584
 20
272.3405907300934
 30
0.0
 11
556.3628138425584
 21
262.05590954337
 31
0.0
  0
LINE
  5
124B
330
2
100
AcDbEntity
  8
0
100
AcDbLine
 10
558.3628138425584
 20
272.8659908775248
 30
0.0
 11
558.3628138425584
 21
262.05590954337
 31
0.0
  0
LINE
  5
124C
330
2
100
AcDbEntity
  8
0
100
AcDbLine
 10
549.3628138425584
 20
267.80590954337
 30
0.0
 11
541.3628138425584
 21
267.80590954337
 31
0.0
  0
LINE
  5
124D
330
2
100
AcDbEntity
  8
0
100
AcDbLine
 10
549.3628138425584
 20
262.05590954337
 30
0.0
 11
549.3628138425584
 21
267.80590954337
 31
0.0
  0
LINE
  5
124E
330
2
100
AcDbEntity
  8
0
100
AcDbLine
 10
556.3628138425584
 20
267.55590954337
 30
0.0
 11
549.3628138425584
 21
267.55590954337
 31
0.0
  0
LINE
  5
124F
330
2
100
AcDbEntity
  8
0
100
AcDbLine
 10
538.4760624966103
 20
262.05590954337
 30
0.0
 11
541.3628138425584
 21
267.05590954337
 31
0.0
  0
SPLINE
  5
1250
330
2
100
AcDbEntity
  8
HOJO
100
AcDbSpline
210
0.0
220
0.0
230
1.0
 70
     8
 71
     3
 72
    20
 73
    16
 74
     0
 42
0.0000000001
 43
0.0000000001
 40
0.0
 40
0.0
 40
0.0
 40
0.0
 40
5.311626210389601
 40
7.954639692924123
 40
10.24579206730457
 40
14.18281221953265
 40
18.83794314114633
 40
26.54246833222011
 40
31.19712602527561
 40
34.95638115537181
 40
42.12378530287149
 40
45.78553747213095
 40
50.20353689726185
 40
53.26513166942802
 40
54.23175360515262
 40
54.23175360515262
 40
54.23175360515262
 40
54.23175360515262
 10
577.8628244516085
 20
288.7433582653861
 30
0.0
 10
576.1498452857205
 20
288.6353162151598
 30
0.0
 10
573.5845043663094
 20
288.4735134927554
 30
0.0
 10
569.8127504792329
 20
288.2213808205883
 30
0.0
 10
568.4936092630988
 20
285.2889393356212
 30
0.0
 10
566.0583998948069
 20
282.6344305123256
 30
0.0
 10
564.2203515516568
 20
277.4831350791618
 30
0.0
 10
560.0955151421813
 20
272.7733877275363
 30
0.0
 10
554.6178676391747
 20
272.1360562931171
 30
0.0
 10
549.7044821296086
 20
270.4497373464095
 30
0.0
 10
544.8704827828506
 20
269.829750254435
 30
0.0
 10
539.8327560182107
 20
268.8745262367737
 30
0.0
 10
536.7616053968423
 20
266.3403143940231
 30
0.0
 10
535.7616311021167
 20
263.6620738731334
 30
0.0
 10
535.4055915768832
 20
262.3670608430624
 30
0.0
 10
535.3228638047959
 20
262.0559095433699
 30
0.0
  0
LINE
  5
1251
330
2
100
AcDbEntity
  8
0
100
AcDbLine
 10
577.8628244516085
 20
287.0559095433705
 30
0.0
 11
570.8628244516086
 21
287.0559095433705
 31
0.0
  0
LINE
  5
1252
330
2
100
AcDbEntity
  8
0
100
AcDbLine
 10
570.8628244516086
 20
287.0559095433705
 30
0.0
 11
570.8628244516086
 21
262.05590954337
 31
0.0
  0
LINE
  5
1253
330
2
100
AcDbEntity
  8
0
100
AcDbLine
 10
568.8628306227957
 20
296.05590954337
 30
0.0
 11
558.8628306227957
 21
296.05590954337
 31
0.0
  0
ARC
  5
1254
330
2
100
AcDbEntity
  8
0
100
AcDbCircle
 10
558.8628306227957
 20
292.05590954337
 30
0.0
 40
4.0
100
AcDbArc
 50
90.0
 51
180.0
  0
ARC
  5
1255
330
2
100
AcDbEntity
  8
0
100
AcDbCircle
 10
568.8628306227957
 20
292.05590954337
 30
0.0
 40
4.0
100
AcDbArc
 50
0.0
 51
90.0
  0
LINE
  5
1257
330
2
100
AcDbEntity
  8
0
100
AcDbLine
 10
74.8670600978977
 20
288.9159095433701
 30
0.0
 11
79.56706009789662
 21
288.9159095433701
 31
0.0
  0
LINE
  5
1258
330
2
100
AcDbEntity
  8
0
100
AcDbLine
 10
79.56706009789662
 20
297.4159095433701
 30
0.0
 11
74.8670600978977
 21
297.4159095433701
 31
0.0
  0
LINE
  5
1259
330
2
100
AcDbEntity
  8
CENTER
  6
CENS
100
AcDbLine
 10
97.09821705392563
 20
293.1659095433701
 30
0.0
 11
69.64124412384183
 21
293.1659095433701
 31
0.0
  0
LINE
  5
125A
330
2
100
AcDbEntity
  8
0
100
AcDbLine
 10
74.56706009789662
 20
296.8962943010997
 30
0.0
 11
74.56706009789662
 21
289.4355247856406
 31
0.0
  0
LINE
  5
125B
330
2
100
AcDbEntity
  8
0
100
AcDbLine
 10
74.8670600978977
 20
288.9159095433701
 30
0.0
 11
74.8670600978977
 21
297.4159095433701
 31
0.0
  0
LINE
  5
125C
330
2
100
AcDbEntity
  8
0
100
AcDbLine
 10
74.8670600978977
 20
288.9159095433701
 30
0.0
 11
74.56706009789662
 21
289.4355247856406
 31
0.0
  0
LINE
  5
125D
330
2
100
AcDbEntity
  8
0
100
AcDbLine
 10
74.56706009789662
 20
296.8962943010997
 30
0.0
 11
74.8670600978977
 21
297.4159095433701
 31
0.0
  0
LINE
  5
125E
330
2
100
AcDbEntity
  8
0
100
AcDbLine
 10
79.56706009789662
 20
297.4159095433701
 30
0.0
 11
80.56706009789662
 21
297.4159095433701
 31
0.0
  0
LINE
  5
125F
330
2
100
AcDbEntity
  8
0
100
AcDbLine
 10
80.56706009789662
 20
297.4159095433701
 30
0.0
 11
80.56706009789662
 21
288.9159095433701
 31
0.0
  0
LINE
  5
1260
330
2
100
AcDbEntity
  8
0
100
AcDbLine
 10
80.56706009789662
 20
288.9159095433701
 30
0.0
 11
79.56706009789662
 21
288.9159095433701
 31
0.0
  0
LINE
  5
1261
330
2
100
AcDbEntity
  8
0
100
AcDbLine
 10
79.56706009789662
 20
288.9159095433701
 30
0.0
 11
79.56706009789662
 21
297.4159095433701
 31
0.0
  0
LINE
  5
1262
330
2
100
AcDbEntity
  8
0
100
AcDbLine
 10
79.56706009789662
 20
288.9159095433701
 30
0.0
 11
79.56706009789662
 21
297.4159095433701
 31
0.0
  0
ARC
  5
1263
330
2
100
AcDbEntity
  8
0
100
AcDbCircle
 10
75.76379068729614
 20
227.0559095433695
 30
0.0
 40
5.0
100
AcDbArc
 50
8.213210701742065
 51
16.12586214360434
  0
LINE
  5
1264
330
2
100
AcDbEntity
  8
0
100
AcDbLine
 10
80.69229852726051
 20
228.0210047304954
 30
0.0
 11
80.09821705392562
 21
262.05590954337
 31
0.0
  0
LINE
  5
1265
330
2
100
AcDbEntity
  8
0
100
AcDbLine
 10
92.09821705392561
 20
226.05590954337
 30
0.0
 11
82.6919939175724
 21
226.05590954337
 31
0.0
  0
ARC
  5
1266
330
2
100
AcDbEntity
  8
0
100
AcDbCircle
 10
82.6919939175724
 20
228.05590954337
 30
0.0
 40
2.0
100
AcDbArc
 50
181.0000000000017
 51
270.0
  0
LINE
  5
1267
330
2
100
AcDbEntity
  8
CENTER
  6
CENS
100
AcDbLine
 10
63.09821705392562
 20
272.4559095433701
 30
0.0
 11
63.09821705392562
 21
300.735091143852
 31
0.0
  0
LINE
  5
1268
330
2
100
AcDbEntity
  8
0
100
AcDbLine
 10
80.69229852726051
 20
296.0908143562442
 30
0.0
 11
80.09821705392608
 21
262.05590954337
 31
0.0
  0
LINE
  5
1269
330
2
100
AcDbEntity
  8
0
100
AcDbLine
 10
63.62700208011768
 20
289.0517973125925
 30
0.0
 11
64.09821705392653
 21
262.05590954337
 31
0.0
  0
LINE
  5
126A
330
2
100
AcDbEntity
  8
0
100
AcDbLine
 10
92.09821705392561
 20
262.05590954337
 30
0.0
 11
49.09821705392563
 21
262.05590954337
 31
0.0
  0
LINE
  5
126B
330
2
100
AcDbEntity
  8
0
100
AcDbLine
 10
74.56706009789662
 20
232.05590954337
 30
0.0
 11
49.09821705392563
 21
232.05590954337
 31
0.0
  0
LINE
  5
126C
330
2
100
AcDbEntity
  8
0
100
AcDbLine
 10
63.62700208011768
 20
235.0600217741475
 30
0.0
 11
64.09821705392563
 21
262.05590954337
 31
0.0
  0
ARC
  5
126D
330
2
100
AcDbEntity
  8
0
100
AcDbCircle
 10
60.62647331673099
 20
235.05590954337
 30
0.0
 40
3.0
100
AcDbArc
 50
270.0
 51
358.9999999999982
  0
ARC
  5
126E
330
2
100
AcDbEntity
  8
0
100
AcDbCircle
 10
76.19000210331535
 20
237.2880908978267
 30
0.0
 40
3.0
100
AcDbArc
 50
90.0
 51
178.9999999999721
  0
LINE
  5
126F
330
2
100
AcDbEntity
  8
0
100
AcDbLine
 10
66.71871535025378
 20
240.2880908978267
 30
0.0
 11
76.19000210331535
 21
240.2880908978263
 31
0.0
  0
LINE
  5
1270
330
2
100
AcDbEntity
  8
0
100
AcDbLine
 10
73.19045901784659
 20
237.3404481171387
 30
0.0
 11
73.13251791800678
 21
234.0210047304953
 31
0.0
  0
ARC
  5
1271
330
2
100
AcDbEntity
  8
0
100
AcDbCircle
 10
71.13282252769306
 20
234.05590954337
 30
0.0
 40
2.0
100
AcDbArc
 50
270.0
 51
358.9999999999721
  0
LINE
  5
1272
330
2
100
AcDbEntity
  8
0
100
AcDbLine
 10
74.56706009789662
 20
292.0559095433704
 30
0.0
 11
49.09821705392563
 21
292.05590954337
 31
0.0
  0
ARC
  5
1273
330
2
100
AcDbEntity
  8
0
100
AcDbCircle
 10
60.62647331673099
 20
289.05590954337
 30
0.0
 40
3.0
100
AcDbArc
 50
1.000000000001775
 51
90.0
  0
ARC
  5
1274
330
2
100
AcDbEntity
  8
0
100
AcDbCircle
 10
82.6919939175724
 20
296.05590954337
 30
0.0
 40
2.0
100
AcDbArc
 50
90.0
 51
178.9999999999982
  0
LINE
  5
1275
330
2
100
AcDbEntity
  8
0
100
AcDbLine
 10
92.09821705392561
 20
298.05590954337
 30
0.0
 11
82.6919939175724
 21
298.05590954337
 31
0.0
  0
ARC
  5
1276
330
2
100
AcDbEntity
  8
0
100
AcDbCircle
 10
75.76379068729614
 20
297.0559095433705
 30
0.0
 40
5.0
100
AcDbArc
 50
343.8741378563956
 51
351.7867892982579
  0
LINE
  5
1277
330
2
100
AcDbEntity
  8
0
100
AcDbLine
 10
49.09821705392563
 20
232.05590954337
 30
0.0
 11
49.09821705392563
 21
292.05590954337
 31
0.0
  0
LINE
  5
1278
330
2
100
AcDbEntity
  8
0
100
AcDbLine
 10
74.8670600978977
 20
235.1959095433698
 30
0.0
 11
79.56706009789662
 21
235.1959095433698
 31
0.0
  0
LINE
  5
1279
330
2
100
AcDbEntity
  8
0
100
AcDbLine
 10
79.56706009789662
 20
226.6959095433698
 30
0.0
 11
74.8670600978977
 21
226.6959095433698
 31
0.0
  0
LINE
  5
127A
330
2
100
AcDbEntity
  8
CENTER
  6
CENS
100
AcDbLine
 10
97.09821705392563
 20
230.9459095433698
 30
0.0
 11
69.64124412384183
 21
230.9459095433698
 31
0.0
  0
LINE
  5
127B
330
2
100
AcDbEntity
  8
0
100
AcDbLine
 10
74.56706009789662
 20
227.2155247856403
 30
0.0
 11
74.56706009789662
 21
234.6762943010994
 31
0.0
  0
LINE
  5
127C
330
2
100
AcDbEntity
  8
0
100
AcDbLine
 10
74.8670600978977
 20
235.1959095433698
 30
0.0
 11
74.8670600978977
 21
226.6959095433698
 31
0.0
  0
LINE
  5
127D
330
2
100
AcDbEntity
  8
0
100
AcDbLine
 10
74.8670600978977
 20
235.1959095433698
 30
0.0
 11
74.56706009789662
 21
234.6762943010994
 31
0.0
  0
LINE
  5
127E
330
2
100
AcDbEntity
  8
0
100
AcDbLine
 10
74.56706009789662
 20
227.2155247856403
 30
0.0
 11
74.8670600978977
 21
226.6959095433698
 31
0.0
  0
LINE
  5
127F
330
2
100
AcDbEntity
  8
0
100
AcDbLine
 10
79.56706009789662
 20
226.6959095433698
 30
0.0
 11
80.56706009789662
 21
226.6959095433698
 31
0.0
  0
LINE
  5
1280
330
2
100
AcDbEntity
  8
0
100
AcDbLine
 10
80.56706009789662
 20
226.6959095433698
 30
0.0
 11
80.56706009789662
 21
235.1959095433698
 31
0.0
  0
LINE
  5
1281
330
2
100
AcDbEntity
  8
0
100
AcDbLine
 10
80.56706009789662
 20
235.1959095433698
 30
0.0
 11
79.56706009789662
 21
235.1959095433698
 31
0.0
  0
LINE
  5
1282
330
2
100
AcDbEntity
  8
0
100
AcDbLine
 10
79.56706009789662
 20
235.1959095433698
 30
0.0
 11
79.56706009789662
 21
226.6959095433698
 31
0.0
  0
LINE
  5
1283
330
2
100
AcDbEntity
  8
0
100
AcDbLine
 10
79.56706009789662
 20
235.1959095433698
 30
0.0
 11
79.56706009789662
 21
226.6959095433698
 31
0.0
  0
LINE
  5
1284
330
2
100
AcDbEntity
  8
0
100
AcDbLine
 10
58.09821088273849
 20
296.05590954337
 30
0.0
 11
68.09821088273849
 21
296.05590954337
 31
0.0
  0
ARC
  5
1285
330
2
100
AcDbEntity
  8
0
100
AcDbCircle
 10
68.09821088273849
 20
292.05590954337
 30
0.0
 40
4.0
100
AcDbArc
 50
0.0
 51
90.0
  0
ARC
  5
1286
330
2
100
AcDbEntity
  8
0
100
AcDbCircle
 10
58.09821088273849
 20
292.05590954337
 30
0.0
 40
4.0
100
AcDbArc
 50
90.0
 51
180.0
  0
LINE
  5
1287
330
2
100
AcDbEntity
  8
0
100
AcDbLine
 10
567.7621577799915
 20
284.55590954337
 30
0.0
 11
570.8628244516086
 21
284.55590954337
 31
0.0
  0
ARC
  5
1288
330
2
100
AcDbEntity
  8
0
100
AcDbCircle
 10
544.8628244472394
 20
504.7817990202004
 30
0.0
 40
2.0
100
AcDbArc
 50
40.04151653423844
 51
90.0
  0
ARC
  5
1289
330
2
100
AcDbEntity
  8
0
100
AcDbCircle
 10
544.8628244472394
 20
436.7817990202004
 30
0.0
 40
2.0
100
AcDbArc
 50
270.0
 51
319.9584834657615
  0
LINE
  5
128A
330
2
100
AcDbEntity
  8
0
100
AcDbLine
 10
553.8628244472394
 20
467.7817990201999
 30
0.0
 11
553.8628244472394
 21
453.2817990202
 31
0.0
  0
LINE
  5
128B
330
2
100
AcDbEntity
  8
0
100
AcDbLine
 10
546.8628244472394
 20
497.6417990202005
 30
0.0
 11
546.8628244472394
 21
443.9217990202003
 31
0.0
  0
LINE
  5
128C
330
2
100
AcDbEntity
  8
CENTER
  6
CENS
100
AcDbLine
 10
563.8628244472394
 20
471.0317990202004
 30
0.0
 11
563.8628244472394
 21
449.5317990202003
 31
0.0
  0
LINE
  5
128D
330
2
100
AcDbEntity
  8
0
100
AcDbLine
 10
562.8628244472394
 20
497.7817990202004
 30
0.0
 11
562.8628244472394
 21
473.7817990202004
 31
0.0
  0
LINE
  5
128E
330
2
100
AcDbEntity
  8
0
100
AcDbLine
 10
552.3939814032684
 20
500.7817990202004
 30
0.0
 11
577.8628244472393
 21
500.7817990202004
 31
0.0
  0
ARC
  5
128F
330
2
100
AcDbEntity
  8
0
100
AcDbCircle
 10
565.8628244472394
 20
497.7817990202004
 30
0.0
 40
3.0
100
AcDbArc
 50
90.0
 51
180.0
  0
ARC
  5
1290
330
2
100
AcDbEntity
  8
0
100
AcDbCircle
 10
559.8628244472394
 20
473.7817990202004
 30
0.0
 40
3.0
100
AcDbArc
 50
270.0
 51
0.0
  0
ARC
  5
1291
330
2
100
AcDbEntity
  8
0
100
AcDbCircle
 10
556.8628244472393
 20
467.7817990201999
 30
0.0
 40
3.0
100
AcDbArc
 50
90.0
 51
180.0
  0
LINE
  5
1292
330
2
100
AcDbEntity
  8
0
100
AcDbLine
 10
556.8628244472393
 20
470.7817990202004
 30
0.0
 11
559.8628244472394
 21
470.7817990202004
 31
0.0
  0
LINE
  5
1293
330
2
100
AcDbEntity
  8
0
100
AcDbLine
 10
552.3939814032684
 20
440.7817990202004
 30
0.0
 11
577.8628244472393
 21
440.7817990202004
 31
0.0
  0
LINE
  5
1294
330
2
100
AcDbEntity
  8
CENTER
  6
CENS
100
AcDbLine
 10
553.1128244472394
 20
460.2817990202004
 30
0.0
 11
574.6128244472394
 21
460.2817990202004
 31
0.0
  0
ARC
  5
1295
330
2
100
AcDbEntity
  8
0
100
AcDbCircle
 10
556.8628244472393
 20
453.2817990202
 30
0.0
 40
3.0
100
AcDbArc
 50
180.0
 51
270.0
  0
ARC
  5
1296
330
2
100
AcDbEntity
  8
0
100
AcDbCircle
 10
559.8628244472394
 20
447.2817990202003
 30
0.0
 40
3.0
100
AcDbArc
 50
0.0
 51
90.0
  0
LINE
  5
1297
330
2
100
AcDbEntity
  8
0
100
AcDbLine
 10
556.8628244472393
 20
450.2817990202004
 30
0.0
 11
559.8628244472394
 21
450.2817990202004
 31
0.0
  0
LINE
  5
1298
330
2
100
AcDbEntity
  8
0
100
AcDbLine
 10
562.8628244472394
 20
447.2817990202003
 30
0.0
 11
562.8628244472394
 21
443.7817990202004
 31
0.0
  0
ARC
  5
1299
330
2
100
AcDbEntity
  8
0
100
AcDbCircle
 10
565.8628244472394
 20
443.7817990202004
 30
0.0
 40
3.0
100
AcDbArc
 50
180.0
 51
270.0
  0
LINE
  5
129A
330
2
100
AcDbEntity
  8
0
100
AcDbLine
 10
534.8628244472394
 20
506.7817990202004
 30
0.0
 11
544.8628244472394
 21
506.7817990202004
 31
0.0
  0
LINE
  5
129B
330
2
100
AcDbEntity
  8
0
100
AcDbLine
 10
534.8628244472394
 20
434.7817990202003
 30
0.0
 11
544.8628244472394
 21
434.7817990202003
 31
0.0
  0
LINE
  5
129C
330
2
100
AcDbEntity
  8
0
100
AcDbLine
 10
577.8628244472393
 20
500.7817990202004
 30
0.0
 11
577.8628244472393
 21
440.7817990202004
 31
0.0
  0
LINE
  5
129D
330
2
100
AcDbEntity
  8
0
100
AcDbLine
 10
552.0939814032673
 20
443.9217990202003
 30
0.0
 11
547.3939814032684
 21
443.9217990202003
 31
0.0
  0
LINE
  5
129E
330
2
100
AcDbEntity
  8
0
100
AcDbLine
 10
547.3939814032684
 20
435.4217990202003
 30
0.0
 11
552.0939814032673
 21
435.4217990202003
 31
0.0
  0
LINE
  5
129F
330
2
100
AcDbEntity
  8
CENTER
  6
CENS
100
AcDbLine
 10
529.8628244472394
 20
439.6717990202002
 30
0.0
 11
557.3197973773232
 21
439.6717990202002
 31
0.0
  0
LINE
  5
12A0
330
2
100
AcDbEntity
  8
0
100
AcDbLine
 10
552.3939814032684
 20
435.9414142624707
 30
0.0
 11
552.3939814032684
 21
443.4021837779298
 31
0.0
  0
LINE
  5
12A1
330
2
100
AcDbEntity
  8
0
100
AcDbLine
 10
552.0939814032673
 20
443.9217990202003
 30
0.0
 11
552.0939814032673
 21
435.4217990202003
 31
0.0
  0
LINE
  5
12A2
330
2
100
AcDbEntity
  8
0
100
AcDbLine
 10
552.0939814032673
 20
443.9217990202003
 30
0.0
 11
552.3939814032684
 21
443.4021837779298
 31
0.0
  0
LINE
  5
12A3
330
2
100
AcDbEntity
  8
0
100
AcDbLine
 10
552.3939814032684
 20
435.9414142624707
 30
0.0
 11
552.0939814032673
 21
435.4217990202003
 31
0.0
  0
LINE
  5
12A4
330
2
100
AcDbEntity
  8
0
100
AcDbLine
 10
547.3939814032684
 20
435.4217990202003
 30
0.0
 11
546.3939814032683
 21
435.4217990202003
 31
0.0
  0
LINE
  5
12A5
330
2
100
AcDbEntity
  8
0
100
AcDbLine
 10
546.3939814032683
 20
435.4217990202003
 30
0.0
 11
546.3939814032683
 21
443.9217990202003
 31
0.0
  0
LINE
  5
12A6
330
2
100
AcDbEntity
  8
0
100
AcDbLine
 10
546.3939814032683
 20
443.9217990202003
 30
0.0
 11
547.3939814032684
 21
443.9217990202003
 31
0.0
  0
LINE
  5
12A7
330
2
100
AcDbEntity
  8
0
100
AcDbLine
 10
547.3939814032684
 20
443.9217990202003
 30
0.0
 11
547.3939814032684
 21
435.4217990202003
 31
0.0
  0
LINE
  5
12A8
330
2
100
AcDbEntity
  8
0
100
AcDbLine
 10
547.3939814032684
 20
443.9217990202003
 30
0.0
 11
547.3939814032684
 21
435.4217990202003
 31
0.0
  0
LINE
  5
12A9
330
2
100
AcDbEntity
  8
0
100
AcDbLine
 10
552.0939814032673
 20
497.6417990202005
 30
0.0
 11
547.3939814032684
 21
497.6417990202005
 31
0.0
  0
LINE
  5
12AA
330
2
100
AcDbEntity
  8
0
100
AcDbLine
 10
547.3939814032684
 20
506.1417990202005
 30
0.0
 11
552.0939814032673
 21
506.1417990202005
 31
0.0
  0
LINE
  5
12AB
330
2
100
AcDbEntity
  8
CENTER
  6
CENS
100
AcDbLine
 10
529.8628244472394
 20
501.8917990202005
 30
0.0
 11
557.3197973773232
 21
501.8917990202005
 31
0.0
  0
LINE
  5
12AC
330
2
100
AcDbEntity
  8
0
100
AcDbLine
 10
552.3939814032684
 20
505.62218377793
 30
0.0
 11
552.3939814032684
 21
498.1614142624709
 31
0.0
  0
LINE
  5
12AD
330
2
100
AcDbEntity
  8
0
100
AcDbLine
 10
552.0939814032673
 20
497.6417990202005
 30
0.0
 11
552.0939814032673
 21
506.1417990202005
 31
0.0
  0
LINE
  5
12AE
330
2
100
AcDbEntity
  8
0
100
AcDbLine
 10
552.0939814032673
 20
497.6417990202005
 30
0.0
 11
552.3939814032684
 21
498.1614142624709
 31
0.0
  0
LINE
  5
12AF
330
2
100
AcDbEntity
  8
0
100
AcDbLine
 10
552.3939814032684
 20
505.62218377793
 30
0.0
 11
552.0939814032673
 21
506.1417990202005
 31
0.0
  0
LINE
  5
12B0
330
2
100
AcDbEntity
  8
0
100
AcDbLine
 10
547.3939814032684
 20
506.1417990202005
 30
0.0
 11
546.3939814032683
 21
506.1417990202005
 31
0.0
  0
LINE
  5
12B1
330
2
100
AcDbEntity
  8
0
100
AcDbLine
 10
546.3939814032683
 20
506.1417990202005
 30
0.0
 11
546.3939814032683
 21
497.6417990202005
 31
0.0
  0
LINE
  5
12B2
330
2
100
AcDbEntity
  8
0
100
AcDbLine
 10
546.3939814032683
 20
497.6417990202005
 30
0.0
 11
547.3939814032684
 21
497.6417990202005
 31
0.0
  0
LINE
  5
12B3
330
2
100
AcDbEntity
  8
0
100
AcDbLine
 10
547.3939814032684
 20
497.6417990202005
 30
0.0
 11
547.3939814032684
 21
506.1417990202005
 31
0.0
  0
LINE
  5
12B4
330
2
100
AcDbEntity
  8
0
100
AcDbLine
 10
547.3939814032684
 20
497.6417990202005
 30
0.0
 11
547.3939814032684
 21
506.1417990202005
 31
0.0
  0
CIRCLE
  5
12B5
330
2
100
AcDbEntity
  8
0
100
AcDbCircle
 10
563.8628244472394
 20
460.2817990202004
 30
0.0
 40
9.000006171187123
  0
LINE
  5
12B6
330
2
100
AcDbEntity
  8
0
100
AcDbLine
 10
683.0690283760242
 20
226.0559095433584
 30
0.0
 11
745.206952805249
 21
226.0559095433584
 31
0.0
  0
CIRCLE
  5
12B7
330
2
100
AcDbEntity
  8
HIDS
100
AcDbCircle
 10
714.1379905906362
 20
262.0559095433584
 30
0.0
 40
30.0
  0
ARC
  5
12B8
330
2
100
AcDbEntity
  8
0
100
AcDbCircle
 10
689.2107340019776
 20
237.0559095433588
 30
0.0
 40
5.0
100
AcDbArc
 50
180.1666666666621
 51
270.0
  0
LINE
  5
12B9
330
2
100
AcDbEntity
  8
CENTER
100
AcDbLine
 10
694.3879905906361
 20
286.8059095433584
 30
0.0
 11
684.3879905906361
 21
286.8059095433584
 31
0.0
  0
LINE
  5
12BA
330
2
100
AcDbEntity
  8
CENTER
100
AcDbLine
 10
694.3879905906361
 20
237.3059095433584
 30
0.0
 11
684.3879905906361
 21
237.3059095433584
 31
0.0
  0
ARC
  5
12BB
330
2
100
AcDbEntity
  8
0
100
AcDbCircle
 10
689.2107340019776
 20
287.0559095433579
 30
0.0
 40
5.0
100
AcDbArc
 50
90.0
 51
179.8333333333378
  0
LINE
  5
12BC
330
2
100
AcDbEntity
  8
0
100
AcDbLine
 10
678.0695105593514
 20
230.9864717959041
 30
0.0
 11
677.6379905906261
 21
262.0559095433597
 31
0.0
  0
LINE
  5
12BD
330
2
100
AcDbEntity
  8
0
100
AcDbLine
 10
684.2107551559503
 20
237.0413651534374
 30
0.0
 11
684.1379905906361
 21
262.0559095433584
 31
0.0
  0
ARC
  5
12BE
330
2
100
AcDbEntity
  8
0
100
AcDbCircle
 10
683.0690283760242
 20
231.0559095433579
 30
0.0
 40
5.0
100
AcDbArc
 50
180.7957235527443
 51
270.0
  0
LINE
  5
12BF
330
2
100
AcDbEntity
  8
0
100
AcDbLine
 10
678.0695105593514
 20
293.1253472908122
 30
0.0
 11
677.6379905906265
 21
262.0559095433597
 31
0.0
  0
LINE
  5
12C0
330
2
100
AcDbEntity
  8
0
100
AcDbLine
 10
684.2107551559503
 20
287.0704539332793
 30
0.0
 11
684.1379905906361
 21
262.0559095433584
 31
0.0
  0
LINE
  5
12C1
330
2
100
AcDbEntity
  8
0
100
AcDbLine
 10
684.1379905906361
 20
262.0559095433584
 30
0.0
 11
677.6379905906361
 21
262.0559095433579
 31
0.0
  0
ARC
  5
12C2
330
2
100
AcDbEntity
  8
0
100
AcDbCircle
 10
683.0690283760242
 20
293.0559095433584
 30
0.0
 40
5.0
100
AcDbArc
 50
90.0
 51
179.2042764472556
  0
LINE
  5
12C3
330
2
100
AcDbEntity
  8
0
100
AcDbLine
 10
750.2064706219218
 20
230.9864717959041
 30
0.0
 11
750.6379905906356
 21
262.0559095433597
 31
0.0
  0
LINE
  5
12C4
330
2
100
AcDbEntity
  8
0
100
AcDbLine
 10
744.0652260253228
 20
237.0413651534374
 30
0.0
 11
744.1379905906361
 21
262.0559095433584
 31
0.0
  0
LINE
  5
12C5
330
2
100
AcDbEntity
  8
0
100
AcDbLine
 10
739.0652471792956
 20
232.0559095433583
 30
0.0
 11
689.2107340019776
 21
232.0559095433583
 31
0.0
  0
LINE
  5
12C6
330
2
100
AcDbEntity
  8
CENTER
100
AcDbLine
 10
689.3879905906361
 20
242.3059095433583
 30
0.0
 11
689.3879905906361
 21
232.3059095433584
 31
0.0
  0
LINE
  5
12C7
330
2
100
AcDbEntity
  8
HIDS
100
AcDbLine
 10
734.6722914547182
 20
234.0210047304837
 30
0.0
 11
734.7603292044324
 21
239.0646840337219
 31
0.0
  0
ARC
  5
12C8
330
2
100
AcDbEntity
  8
0
100
AcDbCircle
 10
739.0652471792956
 20
237.0559095433588
 30
0.0
 40
5.0
100
AcDbArc
 50
270.0
 51
359.8333333333378
  0
LINE
  5
12C9
330
2
100
AcDbEntity
  8
CENTER
100
AcDbLine
 10
738.8879905906361
 20
242.3059095433583
 30
0.0
 11
738.8879905906361
 21
232.3059095433584
 31
0.0
  0
ARC
  5
12CA
330
2
100
AcDbEntity
  8
0
100
AcDbCircle
 10
745.206952805249
 20
231.0559095433579
 30
0.0
 40
4.999999999999999
100
AcDbArc
 50
270.0
 51
359.2042764472556
  0
ARC
  5
12CB
330
2
100
AcDbEntity
  8
HIDS
100
AcDbCircle
 10
732.6725960644044
 20
234.0559095433583
 30
0.0
 40
2.0
100
AcDbArc
 50
270.0
 51
358.9999999999982
  0
LINE
  5
12CC
330
2
100
AcDbEntity
  8
CENTER
100
AcDbLine
 10
743.8879905906361
 20
237.3059095433584
 30
0.0
 11
733.8879905906361
 21
237.3059095433584
 31
0.0
  0
ARC
  5
12CD
330
2
100
AcDbEntity
  8
HIDS
100
AcDbCircle
 10
737.7598722899021
 20
239.0123268144095
 30
0.0
 40
3.0
100
AcDbArc
 50
135.7099981688253
 51
178.9999999999982
  0
LINE
  5
12CE
330
2
100
AcDbEntity
  8
0
100
AcDbLine
 10
739.0652471792956
 20
292.0559095433584
 30
0.0
 11
689.2107340019776
 21
292.055909543358
 31
0.0
  0
LINE
  5
12CF
330
2
100
AcDbEntity
  8
HIDS
100
AcDbLine
 10
697.887990590637
 20
292.055909543358
 30
0.0
 11
698.1355587093132
 21
277.8727415233624
 31
0.0
  0
LINE
  5
12D0
330
2
100
AcDbEntity
  8
CENTER
100
AcDbLine
 10
689.3879905906361
 20
291.8059095433584
 30
0.0
 11
689.3879905906361
 21
281.8059095433584
 31
0.0
  0
ARC
  5
12D1
330
2
100
AcDbEntity
  8
HIDS
100
AcDbCircle
 10
690.5161088913711
 20
285.0994922723073
 30
0.0
 40
3.0
100
AcDbArc
 50
315.7099981688253
 51
358.9999999999982
  0
ARC
  5
12D2
330
2
100
AcDbEntity
  8
HIDS
100
AcDbCircle
 10
695.6033851168678
 20
290.055909543358
 30
0.0
 40
2.0
100
AcDbArc
 50
90.0
 51
178.9999999999982
  0
LINE
  5
12D3
330
2
100
AcDbEntity
  8
HIDS
100
AcDbLine
 10
693.603689726555
 20
290.0908143562326
 30
0.0
 11
693.5156519768399
 21
285.0471350529949
 31
0.0
  0
LINE
  5
12D4
330
2
100
AcDbEntity
  8
HIDS
100
AcDbLine
 10
709.3879905906361
 20
292.0559095433584
 30
0.0
 11
709.2476889667911
 21
284.0180348965166
 31
0.0
  0
LINE
  5
12D5
330
2
100
AcDbEntity
  8
0
100
AcDbLine
 10
750.2064706219218
 20
293.1253472908122
 30
0.0
 11
750.6379905906361
 21
262.0559095433597
 31
0.0
  0
LINE
  5
12D6
330
2
100
AcDbEntity
  8
0
100
AcDbLine
 10
744.0652260253228
 20
287.0704539332793
 30
0.0
 11
744.1379905906361
 21
262.0559095433584
 31
0.0
  0
LINE
  5
12D7
330
2
100
AcDbEntity
  8
CENTER
100
AcDbLine
 10
738.8879905906361
 20
291.8059095433584
 30
0.0
 11
738.8879905906361
 21
281.8059095433584
 31
0.0
  0
LINE
  5
12D8
330
2
100
AcDbEntity
  8
0
100
AcDbLine
 10
744.1379905906361
 20
262.0559095433584
 30
0.0
 11
750.6379905906371
 21
262.0559095433584
 31
0.0
  0
ARC
  5
12D9
330
2
100
AcDbEntity
  8
0
100
AcDbCircle
 10
745.206952805249
 20
293.0559095433584
 30
0.0
 40
4.999999999999999
100
AcDbArc
 50
0.7957235527443399
 51
90.0
  0
ARC
  5
12DA
330
2
100
AcDbEntity
  8
0
100
AcDbCircle
 10
739.0652471792956
 20
287.0559095433579
 30
0.0
 40
5.0
100
AcDbArc
 50
0.1666666666621044
 51
90.0
  0
LINE
  5
12DB
330
2
100
AcDbEntity
  8
CENTER
100
AcDbLine
 10
743.8879905906361
 20
286.8059095433584
 30
0.0
 11
733.8879905906361
 21
286.8059095433584
 31
0.0
  0
CIRCLE
  5
12DC
330
2
100
AcDbEntity
  8
0
100
AcDbCircle
 10
714.1379905906362
 20
262.0559095433584
 30
0.0
 40
25.00000000022851
  0
LINE
  5
12DD
330
2
100
AcDbEntity
  8
0
100
AcDbLine
 10
683.0690283760242
 20
298.0559095433584
 30
0.0
 11
745.206952805249
 21
298.0559095433584
 31
0.0
  0
CIRCLE
  5
12DE
330
2
100
AcDbEntity
  8
0
100
AcDbCircle
 10
683.0279905906365
 20
230.9459095433582
 30
0.0
 40
2.75
  0
CIRCLE
  5
12DF
330
2
100
AcDbEntity
  8
0
100
AcDbCircle
 10
745.2479905906358
 20
293.1659095433585
 30
0.0
 40
2.75
  0
CIRCLE
  5
12E0
330
2
100
AcDbEntity
  8
0
100
AcDbCircle
 10
745.2479905906358
 20
230.9459095433587
 30
0.0
 40
2.75
  0
ARC
  5
12E1
330
2
100
AcDbEntity
  8
0
100
AcDbCircle
 10
683.0279905906365
 20
293.1659095433585
 30
0.0
 40
4.25000000000019
100
AcDbArc
 50
337.0991355555478
 51
293.5789623545194
  0
ARC
  5
12E2
330
2
100
AcDbEntity
  8
0
100
AcDbCircle
 10
683.0279905906365
 20
293.1659095433585
 30
0.0
 40
3.730384757729381
100
AcDbArc
 50
321.5287333511405
 51
309.1493645588748
  0
LWPOLYLINE
  5
12E3
330
2
100
AcDbEntity
  8
0
100
AcDbPolyline
 90
        6
 70
     1
 43
0.0
 10
685.0279905906364
 20
294.3206100817375
 10
683.0279905906365
 20
295.4753106201171
 10
681.0279905906364
 20
294.3206100817375
 10
681.0279905906364
 20
292.0112090049794
 10
683.0279905906365
 20
290.8565084665998
 10
685.0279905906364
 20
292.0112090049794
  0
CIRCLE
  5
12E4
330
2
100
AcDbEntity
  8
0
100
AcDbCircle
 10
683.0279905906365
 20
293.1659095433585
 30
0.0
 40
2.3094010767585
  0
LINE
  5
12E5
330
2
100
AcDbEntity
  8
CENTER
100
AcDbLine
 10
683.0279905906346
 20
299.1243397906525
 30
0.0
 11
683.0279905906346
 21
287.2074792960645
 31
0.0
  0
LINE
  5
12E6
330
2
100
AcDbEntity
  8
CENTER
100
AcDbLine
 10
677.0695603433406
 20
293.1659095433585
 30
0.0
 11
688.9864208379286
 21
293.1659095433585
 31
0.0
  0
ARC
  5
12E7
330
2
100
AcDbEntity
  8
0
100
AcDbCircle
 10
745.2479905906376
 20
293.1659095433585
 30
0.0
 40
4.25000000000019
100
AcDbArc
 50
246.4210376454805
 51
202.9008644444513
  0
ARC
  5
12E8
330
2
100
AcDbEntity
  8
0
100
AcDbCircle
 10
745.2479905906376
 20
293.1659095433585
 30
0.0
 40
3.730384757729381
100
AcDbArc
 50
230.8506354409951
 51
218.4712666488647
  0
LWPOLYLINE
  5
12E9
330
2
100
AcDbEntity
  8
0
100
AcDbPolyline
 90
        6
 70
     1
 43
0.0
 10
747.2479905906376
 20
294.3206100817375
 10
745.2479905906376
 20
295.4753106201171
 10
743.2479905906376
 20
294.3206100817375
 10
743.2479905906376
 20
292.0112090049794
 10
745.2479905906376
 20
290.8565084665998
 10
747.2479905906376
 20
292.0112090049794
  0
CIRCLE
  5
12EA
330
2
100
AcDbEntity
  8
0
100
AcDbCircle
 10
745.2479905906376
 20
293.1659095433585
 30
0.0
 40
2.3094010767585
  0
LINE
  5
12EB
330
2
100
AcDbEntity
  8
CENTER
100
AcDbLine
 10
745.2479905906358
 20
299.1243397906525
 30
0.0
 11
745.2479905906358
 21
287.2074792960645
 31
0.0
  0
LINE
  5
12EC
330
2
100
AcDbEntity
  8
CENTER
100
AcDbLine
 10
739.2895603433418
 20
293.1659095433585
 30
0.0
 11
751.2064208379298
 21
293.1659095433585
 31
0.0
  0
ARC
  5
12ED
330
2
100
AcDbEntity
  8
0
100
AcDbCircle
 10
745.2479905906376
 20
230.9459095433587
 30
0.0
 40
4.25000000000019
100
AcDbArc
 50
157.0991355555478
 51
113.5789623545196
  0
ARC
  5
12EE
330
2
100
AcDbEntity
  8
0
100
AcDbCircle
 10
745.2479905906376
 20
230.9459095433587
 30
0.0
 40
3.730384757729381
100
AcDbArc
 50
141.5287333511352
 51
129.1493645588748
  0
LWPOLYLINE
  5
12EF
330
2
100
AcDbEntity
  8
0
100
AcDbPolyline
 90
        6
 70
     1
 43
0.0
 10
747.2479905906376
 20
232.1006100817377
 10
745.2479905906376
 20
233.2553106201173
 10
743.2479905906376
 20
232.1006100817377
 10
743.2479905906376
 20
229.7912090049796
 10
745.2479905906376
 20
228.6365084666001
 10
747.2479905906376
 20
229.7912090049796
  0
CIRCLE
  5
12F0
330
2
100
AcDbEntity
  8
0
100
AcDbCircle
 10
745.2479905906376
 20
230.9459095433587
 30
0.0
 40
2.3094010767585
  0
LINE
  5
12F1
330
2
100
AcDbEntity
  8
CENTER
100
AcDbLine
 10
745.2479905906358
 20
236.9043397906527
 30
0.0
 11
745.2479905906358
 21
224.9874792960647
 31
0.0
  0
LINE
  5
12F2
330
2
100
AcDbEntity
  8
CENTER
100
AcDbLine
 10
739.2895603433418
 20
230.9459095433587
 30
0.0
 11
751.2064208379298
 21
230.9459095433587
 31
0.0
  0
ARC
  5
12F3
330
2
100
AcDbEntity
  8
0
100
AcDbCircle
 10
683.0279905906373
 20
230.9459095433582
 30
0.0
 40
4.25000000000019
100
AcDbArc
 50
66.42103764559411
 51
22.90086444441672
  0
ARC
  5
12F4
330
2
100
AcDbEntity
  8
0
100
AcDbCircle
 10
683.0279905906373
 20
230.9459095433582
 30
0.0
 40
3.730384757729381
100
AcDbArc
 50
50.85063544125946
 51
38.47126664869841
  0
LWPOLYLINE
  5
12F5
330
2
100
AcDbEntity
  8
0
100
AcDbPolyline
 90
        6
 70
     1
 43
0.0
 10
685.0279905906374
 20
232.1006100817377
 10
683.0279905906373
 20
233.2553106201168
 10
681.0279905906374
 20
232.1006100817377
 10
681.0279905906374
 20
229.7912090049791
 10
683.0279905906373
 20
228.6365084666001
 10
685.0279905906374
 20
229.7912090049791
  0
CIRCLE
  5
12F6
330
2
100
AcDbEntity
  8
0
100
AcDbCircle
 10
683.0279905906373
 20
230.9459095433582
 30
0.0
 40
2.3094010767585
  0
LINE
  5
12F7
330
2
100
AcDbEntity
  8
CENTER
100
AcDbLine
 10
683.0279905906365
 20
236.9043397906522
 30
0.0
 11
683.0279905906365
 21
224.9874792960642
 31
0.0
  0
LINE
  5
12F8
330
2
100
AcDbEntity
  8
CENTER
100
AcDbLine
 10
677.0695603433424
 20
230.9459095433582
 30
0.0
 11
688.9864208379305
 21
230.9459095433582
 31
0.0
  0
LINE
  5
12F9
330
2
100
AcDbEntity
  8
HIDS
100
AcDbLine
 10
705.6379905906361
 20
261.3059095433584
 30
0.0
 11
705.6379905906361
 21
252.8559095433581
 31
0.0
  0
LINE
  5
12FA
330
2
100
AcDbEntity
  8
HIDS
100
AcDbLine
 10
705.304657257303
 20
261.3059095433584
 30
0.0
 11
705.304657257303
 21
252.5225762100251
 31
0.0
  0
LINE
  5
12FB
330
2
100
AcDbEntity
  8
HIDS
100
AcDbLine
 10
701.9713239239692
 20
261.3059095433584
 30
0.0
 11
701.9713239239692
 21
253.7171613026318
 31
0.0
  0
LINE
  5
12FC
330
2
100
AcDbEntity
  8
HIDS
100
AcDbLine
 10
701.6379905906362
 20
261.3059095433584
 30
0.0
 11
701.6379905906362
 21
254.2256796616754
 31
0.0
  0
LINE
  5
12FD
330
2
100
AcDbEntity
  8
CENTER
  6
CENS
100
AcDbLine
 10
703.6379905906361
 20
300.7350911438404
 30
0.0
 11
703.6379905906361
 21
250.6036591988015
 31
0.0
  0
LINE
  5
12FE
330
2
100
AcDbEntity
  8
HIDS
100
AcDbLine
 10
705.6379905906361
 20
261.3059095433584
 30
0.0
 11
705.6379905906361
 21
250.001346092117
 31
0.0
  0
LINE
  5
12FF
330
2
100
AcDbEntity
  8
HIDS
100
AcDbLine
 10
702.6087885367216
 20
252.8559095433581
 30
0.0
 11
703.6379905906361
 21
252.8559095433581
 31
0.0
  0
LINE
  5
1300
330
2
100
AcDbEntity
  8
0
100
AcDbLine
 10
702.4379905906363
 20
252.0559095433584
 30
0.0
 11
703.2953663695353
 21
252.0559095433584
 31
0.0
  0
LINE
  5
1301
330
2
100
AcDbEntity
  8
0
100
AcDbLine
 10
701.6379905906362
 20
254.2256796616754
 30
0.0
 11
701.6379905906362
 21
252.8559095433581
 31
0.0
  0
LINE
  5
1302
330
2
100
AcDbEntity
  8
HOJO
100
AcDbLine
 10
701.9713239239692
 20
253.7171613026318
 30
0.0
 11
701.9713239239692
 21
252.5225762100251
 31
0.0
  0
LINE
  5
1303
330
2
100
AcDbEntity
  8
0
100
AcDbLine
 10
701.6379905906362
 20
252.8559095433581
 30
0.0
 11
702.6087885367216
 21
252.8559095433581
 31
0.0
  0
LINE
  5
1304
330
2
100
AcDbEntity
  8
0
100
AcDbLine
 10
701.6379905906362
 20
252.8559095433581
 30
0.0
 11
702.4379905906363
 21
252.0559095433584
 31
0.0
  0
LINE
  5
1305
330
2
100
AcDbEntity
  8
HIDS
100
AcDbLine
 10
703.2953663695353
 20
252.0559095433584
 30
0.0
 11
703.6379905906361
 21
252.0559095433584
 31
0.0
  0
LINE
  5
1306
330
2
100
AcDbEntity
  8
HIDS
100
AcDbLine
 10
705.6379905906361
 20
252.8559095433581
 30
0.0
 11
704.8379905906359
 21
252.0559095433584
 31
0.0
  0
LINE
  5
1307
330
2
100
AcDbEntity
  8
HIDS
100
AcDbLine
 10
704.8379905906359
 20
252.0559095433584
 30
0.0
 11
703.6379905906361
 21
252.0559095433584
 31
0.0
  0
LINE
  5
1308
330
2
100
AcDbEntity
  8
HIDS
100
AcDbLine
 10
705.6379905906361
 20
252.8559095433581
 30
0.0
 11
703.6379905906361
 21
252.8559095433581
 31
0.0
  0
LINE
  5
1309
330
2
100
AcDbEntity
  8
HIDS
100
AcDbLine
 10
705.304657257303
 20
252.5225762100251
 30
0.0
 11
705.304657257303
 21
250.243427914919
 31
0.0
  0
LINE
  5
130A
330
2
100
AcDbEntity
  8
HIDS
100
AcDbLine
 10
700.261301504258
 20
267.0559095433584
 30
0.0
 11
707.1379905906361
 21
267.0559095433584
 31
0.0
  0
LINE
  5
130B
330
2
100
AcDbEntity
  8
HIDS
100
AcDbLine
 10
702.226966285397
 20
270.7559095433587
 30
0.0
 11
707.1379905906361
 21
270.7559095433587
 31
0.0
  0
LINE
  5
130C
330
2
100
AcDbEntity
  8
HIDS
100
AcDbLine
 10
706.6183753483657
 20
271.0559095433584
 30
0.0
 11
702.4519946981155
 21
271.0559095433584
 31
0.0
  0
LINE
  5
130D
330
2
100
AcDbEntity
  8
HIDS
100
AcDbLine
 10
705.6379905906361
 20
265.3892428766919
 30
0.0
 11
701.6379905906362
 21
265.3892428766919
 31
0.0
  0
LINE
  5
130E
330
2
100
AcDbEntity
  8
HIDS
100
AcDbLine
 10
700.261301504258
 20
267.0559095433584
 30
0.0
 11
707.6379905906361
 21
267.0559095433584
 31
0.0
  0
LINE
  5
130F
330
2
100
AcDbEntity
  8
0
100
AcDbLine
 10
699.4070707279798
 20
262.8059095433584
 30
0.0
 11
703.6379905906361
 21
262.8059095433584
 31
0.0
  0
LINE
  5
1310
330
2
100
AcDbEntity
  8
0
100
AcDbLine
 10
699.4070707279798
 20
261.3059095433584
 30
0.0
 11
703.6379905906361
 21
261.3059095433584
 31
0.0
  0
LINE
  5
1311
330
2
100
AcDbEntity
  8
0
100
AcDbLine
 10
700.1379905906361
 20
270.7559095433587
 30
0.0
 11
700.1379905906361
 21
267.0559095433584
 31
0.0
  0
LINE
  5
1312
330
2
100
AcDbEntity
  8
0
100
AcDbLine
 10
701.6379905906362
 20
262.8059095433584
 30
0.0
 11
701.6379905906362
 21
261.3059095433584
 31
0.0
  0
LINE
  5
1313
330
2
100
AcDbEntity
  8
HOJO
100
AcDbLine
 10
701.9713239239692
 20
262.8059095433584
 30
0.0
 11
701.9713239239692
 21
261.3059095433584
 31
0.0
  0
LINE
  5
1314
330
2
100
AcDbEntity
  8
HIDS
100
AcDbLine
 10
701.6379905906362
 20
267.0559095433584
 30
0.0
 11
701.9713239239692
 21
265.3892428766919
 31
0.0
  0
LINE
  5
1315
330
2
100
AcDbEntity
  8
0
100
AcDbLine
 10
700.1379905906361
 20
267.0559095433584
 30
0.0
 11
700.261301504258
 21
267.0559095433584
 31
0.0
  0
LINE
  5
1316
330
2
100
AcDbEntity
  8
HIDS
100
AcDbLine
 10
701.9713239239692
 20
265.3892428766919
 30
0.0
 11
701.9713239239692
 21
262.8059095433584
 31
0.0
  0
LINE
  5
1317
330
2
100
AcDbEntity
  8
HIDS
100
AcDbLine
 10
701.6379905906362
 20
267.0559095433584
 30
0.0
 11
701.6379905906362
 21
262.8059095433584
 31
0.0
  0
LINE
  5
1318
330
2
100
AcDbEntity
  8
HIDS
100
AcDbLine
 10
701.1379905906361
 20
267.0559095433584
 30
0.0
 11
701.1379905906361
 21
262.8059095433584
 31
0.0
  0
LINE
  5
1319
330
2
100
AcDbEntity
  8
0
100
AcDbLine
 10
702.4519946981155
 20
271.0559095433584
 30
0.0
 11
700.6576058329074
 21
271.0559095433584
 31
0.0
  0
LINE
  5
131A
330
2
100
AcDbEntity
  8
0
100
AcDbLine
 10
700.1379905906361
 20
270.7559095433587
 30
0.0
 11
700.6576058329074
 21
271.0559095433584
 31
0.0
  0
LINE
  5
131B
330
2
100
AcDbEntity
  8
0
100
AcDbLine
 10
700.1379905906361
 20
270.7559095433587
 30
0.0
 11
702.226966285397
 21
270.7559095433587
 31
0.0
  0
LINE
  5
131C
330
2
100
AcDbEntity
  8
HIDS
100
AcDbLine
 10
707.1379905906361
 20
267.0559095433584
 30
0.0
 11
707.1379905906361
 21
270.7559095433587
 31
0.0
  0
LINE
  5
131D
330
2
100
AcDbEntity
  8
HIDS
100
AcDbLine
 10
707.6379905906361
 20
275.2964722202239
 30
0.0
 11
707.6379905906361
 21
267.0559095433584
 31
0.0
  0
LINE
  5
131E
330
2
100
AcDbEntity
  8
HOJO
100
AcDbLine
 10
705.304657257303
 20
262.8059095433584
 30
0.0
 11
705.304657257303
 21
261.3059095433584
 31
0.0
  0
LINE
  5
131F
330
2
100
AcDbEntity
  8
0
100
AcDbLine
 10
705.6379905906361
 20
262.8059095433584
 30
0.0
 11
705.6379905906361
 21
261.3059095433584
 31
0.0
  0
LINE
  5
1320
330
2
100
AcDbEntity
  8
0
100
AcDbLine
 10
703.6379905906361
 20
261.3059095433584
 30
0.0
 11
708.6893669112106
 21
261.3059095433584
 31
0.0
  0
LINE
  5
1321
330
2
100
AcDbEntity
  8
0
100
AcDbLine
 10
703.6379905906361
 20
262.8059095433584
 30
0.0
 11
708.6893669112106
 21
262.8059095433584
 31
0.0
  0
LINE
  5
1322
330
2
100
AcDbEntity
  8
HIDS
100
AcDbLine
 10
705.6379905906361
 20
267.0559095433584
 30
0.0
 11
705.304657257303
 21
265.3892428766919
 31
0.0
  0
LINE
  5
1323
330
2
100
AcDbEntity
  8
HIDS
100
AcDbLine
 10
705.6379905906361
 20
267.0559095433584
 30
0.0
 11
705.6379905906361
 21
262.8059095433584
 31
0.0
  0
LINE
  5
1324
330
2
100
AcDbEntity
  8
HIDS
100
AcDbLine
 10
705.304657257303
 20
265.3892428766919
 30
0.0
 11
705.304657257303
 21
262.8059095433584
 31
0.0
  0
LINE
  5
1325
330
2
100
AcDbEntity
  8
HIDS
100
AcDbLine
 10
706.1379905906361
 20
267.0559095433584
 30
0.0
 11
706.1379905906361
 21
262.8059095433584
 31
0.0
  0
LINE
  5
1326
330
2
100
AcDbEntity
  8
CENTER
100
AcDbLine
 10
714.1379905906362
 20
259.5559095433584
 30
0.0
 11
714.1379905906362
 21
264.5559095433584
 31
0.0
  0
LINE
  5
1327
330
2
100
AcDbEntity
  8
CENTER
100
AcDbLine
 10
711.6379905906361
 20
262.0559095433584
 30
0.0
 11
716.6379905906361
 21
262.0559095433584
 31
0.0
  0
LINE
  5
1328
330
2
100
AcDbEntity
  8
HIDS
100
AcDbLine
 10
706.6183753483657
 20
271.0559095433584
 30
0.0
 11
707.1379905906361
 21
270.7559095433587
 31
0.0
  0
LINE
  5
1329
330
2
100
AcDbEntity
  8
0
100
AcDbLine
 10
728.1379905906361
 20
261.3059095433584
 30
0.0
 11
719.5866142700626
 21
261.3059095433584
 31
0.0
  0
LINE
  5
132A
330
2
100
AcDbEntity
  8
0
100
AcDbLine
 10
719.5866142700626
 20
262.8059095433584
 30
0.0
 11
728.1379905906361
 21
262.8059095433584
 31
0.0
  0
LINE
  5
132B
330
2
100
AcDbEntity
  8
0
100
AcDbLine
 10
728.1379905906361
 20
262.8059095433584
 30
0.0
 11
728.1379905906361
 21
261.3059095433584
 31
0.0
  0
LINE
  5
132C
330
2
100
AcDbEntity
  8
CENTER
100
AcDbLine
 10
711.6379905906361
 20
262.0559095433584
 30
0.0
 11
716.6379905906361
 21
262.0559095433584
 31
0.0
  0
LINE
  5
132D
330
2
100
AcDbEntity
  8
CENTER
100
AcDbLine
 10
714.1379905906362
 20
259.5559095433584
 30
0.0
 11
714.1379905906362
 21
264.5559095433584
 31
0.0
  0
CIRCLE
  5
132E
330
2
100
AcDbEntity
  8
0
100
AcDbCircle
 10
714.1379905906362
 20
262.0559095433597
 30
0.0
 40
5.5
  0
ARC
  5
132F
330
2
100
AcDbEntity
  8
0
100
AcDbCircle
 10
714.1379905906343
 20
262.0559095433584
 30
0.0
 40
6.654700538379415
100
AcDbArc
 50
6.471114411175151
 51
173.5288855888248
  0
ARC
  5
1330
330
2
100
AcDbEntity
  8
0
100
AcDbCircle
 10
714.1379905906343
 20
262.0559095433584
 30
0.0
 40
6.654700538379415
100
AcDbArc
 50
186.4711144111751
 51
353.5288855888248
  0
LINE
  5
1331
330
2
100
AcDbEntity
  8
0
100
AcDbLine
 10
698.637984419449
 20
296.0559074077843
 30
0.0
 11
708.637984419449
 21
296.0559074077843
 31
0.0
  0
ARC
  5
1332
330
2
100
AcDbEntity
  8
0
100
AcDbCircle
 10
708.637984419449
 20
292.0559074077843
 30
0.0
 40
4.0
100
AcDbArc
 50
0.0
 51
90.0
  0
LINE
  5
1333
330
2
100
AcDbEntity
  8
0
100
AcDbLine
 10
712.637984419449
 20
292.0559074077843
 30
0.0
 11
712.637984419449
 21
292.0559074077843
 31
0.0
  0
ARC
  5
1334
330
2
100
AcDbEntity
  8
0
100
AcDbCircle
 10
698.637984419449
 20
292.0559074077843
 30
0.0
 40
4.0
100
AcDbArc
 50
90.0
 51
180.0
  0
CIRCLE
  5
1335
330
2
100
AcDbEntity
  8
CENTER
100
AcDbCircle
 10
714.1379905906343
 20
262.0559095433611
 30
0.0
 40
35.00178566873169
  0
CIRCLE
  5
1336
330
2
100
AcDbEntity
  8
0
100
AcDbCircle
 10
714.1379905906362
 20
262.0559095433597
 30
0.0
 40
14.75
  0
CIRCLE
  5
1337
330
2
100
AcDbEntity
  8
HOJO
100
AcDbCircle
 10
689.3879905906361
 20
286.8059095433584
 30
0.0
 40
2.5
  0
CIRCLE
  5
1338
330
2
100
AcDbEntity
  8
0
100
AcDbCircle
 10
689.3879905906361
 20
286.8059095433584
 30
0.0
 40
2.0
  0
CIRCLE
  5
1339
330
2
100
AcDbEntity
  8
0
100
AcDbCircle
 10
689.3879905906361
 20
237.3059095433584
 30
0.0
 40
2.0
  0
CIRCLE
  5
133A
330
2
100
AcDbEntity
  8
HOJO
100
AcDbCircle
 10
689.3879905906361
 20
237.3059095433584
 30
0.0
 40
2.5
  0
CIRCLE
  5
133B
330
2
100
AcDbEntity
  8
0
100
AcDbCircle
 10
738.8879905906361
 20
237.3059095433584
 30
0.0
 40
2.0
  0
CIRCLE
  5
133C
330
2
100
AcDbEntity
  8
HOJO
100
AcDbCircle
 10
738.8879905906361
 20
237.3059095433584
 30
0.0
 40
2.5
  0
CIRCLE
  5
133D
330
2
100
AcDbEntity
  8
0
100
AcDbCircle
 10
738.8879905906361
 20
286.8059095433584
 30
0.0
 40
2.0
  0
CIRCLE
  5
133E
330
2
100
AcDbEntity
  8
HOJO
100
AcDbCircle
 10
738.8879905906361
 20
286.8059095433584
 30
0.0
 40
2.5
  0
CIRCLE
  5
133F
330
2
100
AcDbEntity
  8
0
100
AcDbCircle
 10
714.1379905906343
 20
262.0559095433584
 30
0.0
 40
22.5
  0
LINE
  5
1F6F
330
2
100
AcDbEntity
  8
0
100
AcDbLine
 10
286.4555539418171
 20
293.055909543345
 30
0.0
 11
280.9468274063139
 21
293.0559095433709
 31
0.0
  0
CIRCLE
  5
209B
330
2
100
AcDbEntity
  8
0
100
AcDbCircle
 10
462.862824456448
 20
262.0559095433702
 30
0.0
 40
19.5774
  0
ENDSEC
  0
SECTION
  2
OBJECTS
  0
DICTIONARY
  5
7
330
0
100
AcDbDictionary
  3
ACAD_COLOR
350
1F3E
  3
ACAD_GROUP
350
75
  3
ACAD_LAYOUT
350
61
  3
ACAD_MATERIAL
350
1F14
  3
ACAD_MLEADERSTYLE
350
1F63
  3
ACAD_MLINESTYLE
350
76
  3
ACAD_PLOTSETTINGS
350
77
  3
ACAD_PLOTSTYLENAME
350
6
  3
ACAD_SCALELIST
350
1F41
  3
ACAD_TABLESTYLE
350
1F3F
  3
ACAD_VISUALSTYLE
350
1F2D
  3
ACADDIM
350
480
  3
ACDB_RECOMPOSE_DATA
350
1FD0
  3
ACDBHEADERROUNDTRIPXREC
350
2127
  3
ACDBVARIABLEDICTIONARY
350
102
  3
DWGPROPS
350
20F3
  0
DICTIONARY
  5
1FD9
330
6E
100
AcDbDictionary
280
     1
  3
ACAD_XREC_ROUNDTRIP
360
20FA
  0
DICTIONARY
  5
AE5
330
66
100
AcDbDictionary
280
     1
  3
ACAD_LAYERSTATES
360
AE6
  0
DICTIONARY
  5
1F71
330
5E
100
AcDbDictionary
280
     1
  3
ACAD_XREC_ROUNDTRIP
360
20F6
  3
ADSK_XREC_LAYER_RECONCILED
360
1F72
  0
DICTIONARY
  5
1F73
330
3E
100
AcDbDictionary
280
     1
  3
ACAD_XREC_ROUNDTRIP
360
20F5
  3
ADSK_XREC_LAYER_RECONCILED
360
1F74
  0
DICTIONARY
  5
1F79
330
2B5
100
AcDbDictionary
280
     1
  3
ACAD_XREC_ROUNDTRIP
360
2100
  3
ADSK_XREC_LAYER_RECONCILED
360
1F7A
  0
DICTIONARY
  5
1F7B
330
2BA
100
AcDbDictionary
280
     1
  3
ACAD_XREC_ROUNDTRIP
360
2101
  3
ADSK_XREC_LAYER_RECONCILED
360
1F7C
  0
DICTIONARY
  5
1F7F
330
3FA
100
AcDbDictionary
280
     1
  3
ACAD_XREC_ROUNDTRIP
360
2103
  3
ADSK_XREC_LAYER_RECONCILED
360
1F80
  0
DICTIONARY
  5
1F81
330
478
100
AcDbDictionary
280
     1
  3
ACAD_XREC_ROUNDTRIP
360
2104
  3
ADSK_XREC_LAYER_RECONCILED
360
1F82
  0
DICTIONARY
  5
2148
330
2
100
AcDbDictionary
280
     1
  3
ACAD_LAYOUTSELFREF
360
2149
  0
DICTIONARY
  5
214A
330
2121
100
AcDbDictionary
280
     1
  3
ACAD_LAYOUTSELFREF
360
214B
  0
DICTIONARY
  5
1F3E
102
{ACAD_REACTORS
330
7
102
}
330
7
100
AcDbDictionary
  0
DICTIONARY
  5
75
102
{ACAD_REACTORS
330
7
102
}
330
7
100
AcDbDictionary
  0
DICTIONARY
  5
61
102
{ACAD_REACTORS
330
7
102
}
330
7
100
AcDbDictionary
  0
DICTIONARY
  5
1F14
102
{ACAD_REACTORS
330
7
102
}
330
7
100
AcDbDictionary
  3
BYBLOCK
350
1F1D
  3
BYLAYER
350
1F15
  3
GLOBAL
350
1F25
  0
DICTIONARY
  5
1F63
102
{ACAD_REACTORS
330
7
102
}
330
7
100
AcDbDictionary
  3
STANDARD
350
1F64
  0
DICTIONARY
  5
76
102
{ACAD_REACTORS
330
7
102
}
330
7
100
AcDbDictionary
  3
STANDARD
350
78
  0
DICTIONARY
  5
77
102
{ACAD_REACTORS
330
7
102
}
330
7
100
AcDbDictionary
  0
ACDBDICTIONARYWDFLT
  5
6
102
{ACAD_REACTORS
330
7
102
}
330
7
100
AcDbDictionary
281
     1
  3
Normal
350
5
100
AcDbDictionaryWithDefault
340
5
  0
DICTIONARY
  5
1F41
102
{ACAD_REACTORS
330
7
102
}
330
7
100
AcDbDictionary
  3
A0
350
1F42
  3
A1
350
1F43
  3
A2
350
1F44
  3
A3
350
1F45
  3
A4
350
1F46
  3
A5
350
1F47
  3
A6
350
1F48
  3
A7
350
1F49
  3
A8
350
1F4A
  3
A9
350
1F4B
  3
B0
350
1F4C
  3
B1
350
1F4D
  3
B2
350
1F4E
  3
B3
350
1F4F
  3
B4
350
1F50
  3
B5
350
1F51
  3
B6
350
1F52
  3
B7
350
1F53
  3
B8
350
1F54
  3
B9
350
1F55
  3
C0
350
1F56
  3
C1
350
1F57
  3
C2
350
1F58
  3
C3
350
1F59
  3
C4
350
1F5A
  3
C5
350
1F5B
  3
C6
350
1F5C
  3
C7
350
1F5D
  3
C8
350
1F5E
  3
C9
350
1F5F
  3
D0
350
1F60
  3
D1
350
1F61
  3
D2
350
1F62
  0
DICTIONARY
  5
1F3F
102
{ACAD_REACTORS
330
7
102
}
330
7
100
AcDbDictionary
  3
STANDARD
350
1F40
  0
DICTIONARY
  5
1F2D
102
{ACAD_REACTORS
330
7
102
}
330
7
100
AcDbDictionary
  3
2DWIREFRAME
350
1F33
  3
3D_HIDDEN
350
1F35
  3
3DWIREFRAME
350
1F34
  3
BASIC
350
1F32
  3
BRIGHTEN
350
1F39
  3
COLORCHANGE
350
1F3D
  3
CONCEPTUAL
350
1F36
  3
DIM
350
1F38
  3
FACEPATTERN
350
1F3C
  3
FLAT
350
1F2E
  3
FLATWITHEDGES
350
1F2F
  3
GOURAUD
350
1F30
  3
GOURAUDWITHEDGES
350
1F31
  3
LINEPATTERN
350
1F3B
  3
REALISTIC
350
1F37
  3
THICKEN
350
1F3A
  0
XRECORD
  5
480
102
{ACAD_REACTORS
330
7
102
}
330
7
100
AcDbXrecord
 90
   990106
  3

 60
     0
 61
     0
 62
     1
 63
     3
 64
     1
 65
     0
 66
     0
 67
     3
 68
     1
 69
     0
 70
     0
 71
     0
 72
     0
 40
0.0
170
     2
340
0
  0
XRECORD
  5
1FD0
102
{ACAD_REACTORS
330
7
102
}
330
7
100
AcDbXrecord
 90
        1
330
1F40
  0
DICTIONARY
  5
2127
102
{ACAD_REACTORS
330
7
102
}
330
7
100
AcDbDictionary
  3
CEPSNTYPE
350
2131
  3
DIMSTYLEDATA
350
2135
  3
FINGERPRINTGUID
350
2132
  3
HYPERLINKBASE
350
212A
  3
INSUNITS
350
2130
  3
LAYOUTDICT
350
212C
  3
LWETCUNION
350
212F
  3
PLOTSETDICT
350
212D
  3
PLOTSTYLNAMDICT
350
212E
  3
PSVPSCALE
350
2134
  3
PUCSBASE
350
2138
  3
PUCSORGBACK
350
213E
  3
PUCSORGBOTTOM
350
213A
  3
PUCSORGFRONT
350
213D
  3
PUCSORGLEFT
350
213B
  3
PUCSORGRIGHT
350
213C
  3
PUCSORGTOP
350
2139
  3
PUCSORTHOREF
350
2136
  3
PUCSORTHOVIEW
350
2137
  3
STYLESHEET
350
212B
  3
TSTACKALIGN
350
2128
  3
TSTACKSIZE
350
2129
  3
UCSBASE
350
2141
  3
UCSORGBACK
350
2147
  3
UCSORGBOTTOM
350
2143
  3
UCSORGFRONT
350
2146
  3
UCSORGLEFT
350
2144
  3
UCSORGRIGHT
350
2145
  3
UCSORGTOP
350
2142
  3
UCSORTHOREF
350
213F
  3
UCSORTHOVIEW
350
2140
  3
VERSIONGUID
350
2133
  0
DICTIONARY
  5
102
102
{ACAD_REACTORS
330
7
102
}
330
7
100
AcDbDictionary
  3
CANNOSCALE
350
1FF1
  3
CMLEADERSTYLE
350
1FF0
  3
CTABLESTYLE
350
1FEF
  3
DIMASSOC
350
103
  3
INDEXCTL
350
1FF2
  3
SORTENTS
350
549
  0
XRECORD
  5
20F3
102
{ACAD_REACTORS
330
7
102
}
330
7
100
AcDbXrecord
  1
DWGPROPS COOKIE
  2

  3

  4

  6

  7

  8
ymorima
  9

300
=
301
=
302
=
303
=
304
=
305
=
306
=
307
=
308
=
309
=
 40
0.0223670486111111
 41
2454410.548017025
 42
2454425.676180555
  1

 90
        0
  0
XRECORD
  5
20FA
102
{ACAD_REACTORS
330
1FD9
102
}
330
1FD9
100
AcDbXrecord
102
VTR_0.000_0.000_1.000_1.000_VISUALSTYLE
340
1F33
102
VTR_0.000_0.000_1.000_1.000_GRIDDISPLAY
 70
     3
102
VTR_0.000_0.000_1.000_1.000_GRIDMAJOR
 70
     5
102
VTR_0.000_0.000_1.000_1.000_DEFAULTLIGHTING
280
     1
102
VTR_0.000_0.000_1.000_1.000_DEFAULTLIGHTINGTYPE
 70
     1
102
VTR_0.000_0.000_1.000_1.000_BRIGHTNESS
141
0.0
102
VTR_0.000_0.000_1.000_1.000_CONTRAST
142
0.0
  0
DICTIONARY
  5
AE6
102
{ACAD_REACTORS
330
AE5
102
}
330
AE5
100
AcDbDictionary
  0
XRECORD
  5
20F6
102
{ACAD_REACTORS
330
1F71
102
}
330
1F71
100
AcDbXrecord
102
MATERIAL
340
1F25
  0
XRECORD
  5
1F72
102
{ACAD_REACTORS
330
1F71
102
}
330
1F71
100
AcDbXrecord
290
     1
  0
XRECORD
  5
20F5
102
{ACAD_REACTORS
330
1F73
102
}
330
1F73
100
AcDbXrecord
102
MATERIAL
340
1F25
  0
XRECORD
  5
1F74
102
{ACAD_REACTORS
330
1F73
102
}
330
1F73
100
AcDbXrecord
290
     1
  0
XRECORD
  5
2100
102
{ACAD_REACTORS
330
1F79
102
}
330
1F79
100
AcDbXrecord
102
MATERIAL
340
1F25
  0
XRECORD
  5
1F7A
102
{ACAD_REACTORS
330
1F79
102
}
330
1F79
100
AcDbXrecord
290
     1
  0
XRECORD
  5
2101
102
{ACAD_REACTORS
330
1F7B
102
}
330
1F7B
100
AcDbXrecord
102
MATERIAL
340
1F25
  0
XRECORD
  5
1F7C
102
{ACAD_REACTORS
330
1F7B
102
}
330
1F7B
100
AcDbXrecord
290
     1
  0
XRECORD
  5
2103
102
{ACAD_REACTORS
330
1F7F
102
}
330
1F7F
100
AcDbXrecord
102
MATERIAL
340
1F25
  0
XRECORD
  5
1F80
102
{ACAD_REACTORS
330
1F7F
102
}
330
1F7F
100
AcDbXrecord
290
     1
  0
XRECORD
  5
2104
102
{ACAD_REACTORS
330
1F81
102
}
330
1F81
100
AcDbXrecord
102
MATERIAL
340
1F25
  0
XRECORD
  5
1F82
102
{ACAD_REACTORS
330
1F81
102
}
330
1F81
100
AcDbXrecord
290
     1
  0
XRECORD
  5
2149
102
{ACAD_REACTORS
330
2148
102
}
330
2148
100
AcDbXrecord
340
2
  0
XRECORD
  5
214B
102
{ACAD_REACTORS
330
214A
102
}
330
214A
100
AcDbXrecord
340
2121
  0
ACAD_PROXY_OBJECT
  5
1F1D
102
{ACAD_XDICTIONARY
360
1F1E
102
}
102
{ACAD_REACTORS
330
1F14
102
}
330
1F14
100
AcDbProxyObject
 90
      499
 91
      510
 93
     1340
310
42109E509B1BD8DAC02004014080404555555555555953FAA155555555555654FEA9AA400014080404555555555555953FAA155555555555654FEA9AA400000000000000E03F4080404555555555555953FAA155555555555654FEA9AA4014080404555555555555953FAA155555555555654FEA9AA4010201011555555555
310
55654FEA8555555555555953FAA6A9005020101155555555555654FEA8555555555555953FAA6A9000
 94
        0
1001
ACAD
1000
AcadProxyRoundTripData
1071
      504
1071
   655383
1070
     0
  0
ACAD_PROXY_OBJECT
  5
1F15
102
{ACAD_XDICTIONARY
360
1F16
102
}
102
{ACAD_REACTORS
330
1F14
102
}
330
1F14
100
AcDbProxyObject
 90
      499
 91
      510
 93
     1340
310
42109E53185E595C802004014080404555555555555953FAA155555555555654FEA9AA400014080404555555555555953FAA155555555555654FEA9AA400000000000000E03F4080404555555555555953FAA155555555555654FEA9AA4014080404555555555555953FAA155555555555654FEA9AA4010201011555555555
310
55654FEA8555555555555953FAA6A9005020101155555555555654FEA8555555555555953FAA6A9000
 94
        0
1001
ACAD
1000
AcadProxyRoundTripData
1071
      504
1071
   655383
1070
     0
  0
ACAD_PROXY_OBJECT
  5
1F25
102
{ACAD_XDICTIONARY
360
1F26
102
}
102
{ACAD_REACTORS
330
1F14
102
}
330
1F14
100
AcDbProxyObject
 90
      499
 91
      510
 93
     1332
310
41D1DB1BD8985B002004014080404555555555555953FAA155555555555654FEA9AA400014080404555555555555953FAA155555555555654FEA9AA400000000000000E03F4080404555555555555953FAA155555555555654FEA9AA4014080404555555555555953FAA155555555555654FEA9AA401020101155555555555
310
654FEA8555555555555953FAA6A9005020101155555555555654FEA8555555555555953FAA6A9000
 94
        0
1001
ACAD
1000
AcadProxyRoundTripData
1071
      504
1071
   655383
1070
     0
  0
ACAD_PROXY_OBJECT
  5
1F64
102
{ACAD_REACTORS
330
1F63
102
}
330
1F63
100
AcDbProxyObject
 90
      499
 91
      510
 93
      618
310
40901902A4063FBFFFFFE056BD1B81E855B9FC0AD7A3703D0AD73F4254DD185B99185C990000AD7A3703D0AC73F90141901A02B5E8DC0F42B1CFC02B5E8DC0F42B1CFE5764000000000000300FC6
340
6A
340
0
340
16
340
0
 94
        0
1001
ACAD_MLEADERVER
1070
     2
1001
ACAD
1000
AcadProxyRoundTripData
1071
      508
1071
   655383
1070
     0
  0
MLINESTYLE
  5
78
102
{ACAD_REACTORS
330
76
102
}
330
76
100
AcDbMlineStyle
  2
STANDARD
 70
     0
  3

 62
     0
 51
90.0
 52
90.0
 71
     2
 49
0.5
 62
   256
  6
BYLAYER
 49
-0.5
 62
   256
  6
BYLAYER
  0
ACDBPLACEHOLDER
  5
5
102
{ACAD_REACTORS
330
6
102
}
330
6
100
AcDbPlaceHolder
280
     0
  0
ACAD_PROXY_OBJECT
  5
1F42
102
{ACAD_REACTORS
330
1F41
102
}
330
1F41
100
AcDbProxyObject
 90
      499
 91
      510
 93
       49
310
904313A3100598
 94
        0
1001
ACAD
1000
AcadProxyRoundTripData
1071
      507
1071
   655383
1070
     0
  0
ACAD_PROXY_OBJECT
  5
1F43
102
{ACAD_REACTORS
330
1F41
102
}
330
1F41
100
AcDbProxyObject
 90
      499
 91
      510
 93
      113
310
904313A3200400000000000000406B
 94
        0
1001
ACAD
1000
AcadProxyRoundTripData
1071
      507
1071
   655383
1070
     0
  0
ACAD_PROXY_OBJECT
  5
1F44
102
{ACAD_REACTORS
330
1F41
102
}
330
1F41
100
AcDbProxyObject
 90
      499
 91
      510
 93
      113
310
904313A3400400000000000010406B
 94
        0
1001
ACAD
1000
AcadProxyRoundTripData
1071
      507
1071
   655383
1070
     0
  0
ACAD_PROXY_OBJECT
  5
1F45
102
{ACAD_REACTORS
330
1F41
102
}
330
1F41
100
AcDbProxyObject
 90
      499
 91
      510
 93
      113
310
904313A3500400000000000014406B
 94
        0
1001
ACAD
1000
AcadProxyRoundTripData
1071
      507
1071
   655383
1070
     0
  0
ACAD_PROXY_OBJECT
  5
1F46
102
{ACAD_REACTORS
330
1F41
102
}
330
1F41
100
AcDbProxyObject
 90
      499
 91
      510
 93
      113
310
904313A3800400000000000020406B
 94
        0
1001
ACAD
1000
AcadProxyRoundTripData
1071
      507
1071
   655383
1070
     0
  0
ACAD_PROXY_OBJECT
  5
1F47
102
{ACAD_REACTORS
330
1F41
102
}
330
1F41
100
AcDbProxyObject
 90
      499
 91
      510
 93
      121
310
905313A3130004000000000000244051
 94
        0
1001
ACAD
1000
AcadProxyRoundTripData
1071
      507
1071
   655383
1070
     0
  0
ACAD_PROXY_OBJECT
  5
1F48
102
{ACAD_REACTORS
330
1F41
102
}
330
1F41
100
AcDbProxyObject
 90
      499
 91
      510
 93
      121
310
905313A3136004000000000000304051
 94
        0
1001
ACAD
1000
AcadProxyRoundTripData
1071
      507
1071
   655383
1070
     0
  0
ACAD_PROXY_OBJECT
  5
1F49
102
{ACAD_REACTORS
330
1F41
102
}
330
1F41
100
AcDbProxyObject
 90
      499
 91
      510
 93
      121
310
905313A3230004000000000000344051
 94
        0
1001
ACAD
1000
AcadProxyRoundTripData
1071
      507
1071
   655383
1070
     0
  0
ACAD_PROXY_OBJECT
  5
1F4A
102
{ACAD_REACTORS
330
1F41
102
}
330
1F41
100
AcDbProxyObject
 90
      499
 91
      510
 93
      121
310
905313A33300040000000000003E4051
 94
        0
1001
ACAD
1000
AcadProxyRoundTripData
1071
      507
1071
   655383
1070
     0
  0
ACAD_PROXY_OBJECT
  5
1F4B
102
{ACAD_REACTORS
330
1F41
102
}
330
1F41
100
AcDbProxyObject
 90
      499
 91
      510
 93
      121
310
905313A3430004000000000000444051
 94
        0
1001
ACAD
1000
AcadProxyRoundTripData
1071
      507
1071
   655383
1070
     0
  0
ACAD_PROXY_OBJECT
  5
1F4C
102
{ACAD_REACTORS
330
1F41
102
}
330
1F41
100
AcDbProxyObject
 90
      499
 91
      510
 93
      121
310
905313A3530004000000000000494051
 94
        0
1001
ACAD
1000
AcadProxyRoundTripData
1071
      507
1071
   655383
1070
     0
  0
ACAD_PROXY_OBJECT
  5
1F4D
102
{ACAD_REACTORS
330
1F41
102
}
330
1F41
100
AcDbProxyObject
 90
      499
 91
      510
 93
      129
310
906313A313030004000000000000594038
 94
        0
1001
ACAD
1000
AcadProxyRoundTripData
1071
      507
1071
   655383
1070
     0
  0
ACAD_PROXY_OBJECT
  5
1F4E
102
{ACAD_REACTORS
330
1F41
102
}
330
1F41
100
AcDbProxyObject
 90
      499
 91
      510
 93
      113
310
904323A31000000000000000010159
 94
        0
1001
ACAD
1000
AcadProxyRoundTripData
1071
      507
1071
   655383
1070
     0
  0
ACAD_PROXY_OBJECT
  5
1F4F
102
{ACAD_REACTORS
330
1F41
102
}
330
1F41
100
AcDbProxyObject
 90
      499
 91
      510
 93
      113
310
904343A31000000000000000410159
 94
        0
1001
ACAD
1000
AcadProxyRoundTripData
1071
      507
1071
   655383
1070
     0
  0
ACAD_PROXY_OBJECT
  5
1F50
102
{ACAD_REACTORS
330
1F41
102
}
330
1F41
100
AcDbProxyObject
 90
      499
 91
      510
 93
      113
310
904383A31000000000000000810159
 94
        0
1001
ACAD
1000
AcadProxyRoundTripData
1071
      507
1071
   655383
1070
     0
  0
ACAD_PROXY_OBJECT
  5
1F51
102
{ACAD_REACTORS
330
1F41
102
}
330
1F41
100
AcDbProxyObject
 90
      499
 91
      510
 93
      121
310
90531303A31000000000000000910140
 94
        0
1001
ACAD
1000
AcadProxyRoundTripData
1071
      507
1071
   655383
1070
     0
  0
ACAD_PROXY_OBJECT
  5
1F52
102
{ACAD_REACTORS
330
1F41
102
}
330
1F41
100
AcDbProxyObject
 90
      499
 91
      510
 93
      129
310
9063130303A31000000000000001650138
 94
        0
1001
ACAD
1000
AcadProxyRoundTripData
1071
      507
1071
   655383
1070
     0
  0
ACAD_PROXY_OBJECT
  5
1F53
102
{ACAD_REACTORS
330
1F41
102
}
330
1F41
100
AcDbProxyObject
 90
      499
 91
      510
 93
      265
310
90F312F31323822203D2031272D302200000000000000200FC00000000000028402B
 94
        0
1001
ACAD
1000
AcadProxyRoundTripData
1071
      507
1071
   655383
1070
     0
  0
ACAD_PROXY_OBJECT
  5
1F54
102
{ACAD_REACTORS
330
1F41
102
}
330
1F41
100
AcDbProxyObject
 90
      499
 91
      510
 93
      257
310
90E312F363422203D2031272D302200000000000000240FC000000000000284040
 94
        0
1001
ACAD
1000
AcadProxyRoundTripData
1071
      507
1071
   655383
1070
     0
  0
ACAD_PROXY_OBJECT
  5
1F55
102
{ACAD_REACTORS
330
1F41
102
}
330
1F41
100
AcDbProxyObject
 90
      499
 91
      510
 93
      257
310
90E312F333222203D2031272D302200000000000000280FC000000000000284040
 94
        0
1001
ACAD
1000
AcadProxyRoundTripData
1071
      507
1071
   655383
1070
     0
  0
ACAD_PROXY_OBJECT
  5
1F56
102
{ACAD_REACTORS
330
1F41
102
}
330
1F41
100
AcDbProxyObject
 90
      499
 91
      510
 93
      257
310
90E312F313622203D2031272D3022000000000000002C0FC000000000000284040
 94
        0
1001
ACAD
1000
AcadProxyRoundTripData
1071
      507
1071
   655383
1070
     0
  0
ACAD_PROXY_OBJECT
  5
1F57
102
{ACAD_REACTORS
330
1F41
102
}
330
1F41
100
AcDbProxyObject
 90
      499
 91
      510
 93
      257
310
90E332F333222203D2031272D3022000000000000002E0FC000000000000284040
 94
        0
1001
ACAD
1000
AcadProxyRoundTripData
1071
      507
1071
   655383
1070
     0
  0
ACAD_PROXY_OBJECT
  5
1F58
102
{ACAD_REACTORS
330
1F41
102
}
330
1F41
100
AcDbProxyObject
 90
      499
 91
      510
 93
      249
310
90D312F3822203D2031272D302200000000000000300FC000000000000284040
 94
        0
1001
ACAD
1000
AcadProxyRoundTripData
1071
      507
1071
   655383
1070
     0
  0
ACAD_PROXY_OBJECT
  5
1F59
102
{ACAD_REACTORS
330
1F41
102
}
330
1F41
100
AcDbProxyObject
 90
      499
 91
      510
 93
      257
310
90E332F313622203D2031272D302200000000000000320FC000000000000284040
 94
        0
1001
ACAD
1000
AcadProxyRoundTripData
1071
      507
1071
   655383
1070
     0
  0
ACAD_PROXY_OBJECT
  5
1F5A
102
{ACAD_REACTORS
330
1F41
102
}
330
1F41
100
AcDbProxyObject
 90
      499
 91
      510
 93
      249
310
90D312F3422203D2031272D302200000000000000340FC000000000000284040
 94
        0
1001
ACAD
1000
AcadProxyRoundTripData
1071
      507
1071
   655383
1070
     0
  0
ACAD_PROXY_OBJECT
  5
1F5B
102
{ACAD_REACTORS
330
1F41
102
}
330
1F41
100
AcDbProxyObject
 90
      499
 91
      510
 93
      249
310
90D332F3822203D2031272D302200000000000000360FC000000000000284040
 94
        0
1001
ACAD
1000
AcadProxyRoundTripData
1071
      507
1071
   655383
1070
     0
  0
ACAD_PROXY_OBJECT
  5
1F5C
102
{ACAD_REACTORS
330
1F41
102
}
330
1F41
100
AcDbProxyObject
 90
      499
 91
      510
 93
      249
310
90D312F3222203D2031272D302200000000000000380FC000000000000284040
 94
        0
1001
ACAD
1000
AcadProxyRoundTripData
1071
      507
1071
   655383
1070
     0
  0
ACAD_PROXY_OBJECT
  5
1F5D
102
{ACAD_REACTORS
330
1F41
102
}
330
1F41
100
AcDbProxyObject
 90
      499
 91
      510
 93
      249
310
90D332F3422203D2031272D3022000000000000003A0FC000000000000284040
 94
        0
1001
ACAD
1000
AcadProxyRoundTripData
1071
      507
1071
   655383
1070
     0
  0
ACAD_PROXY_OBJECT
  5
1F5E
102
{ACAD_REACTORS
330
1F41
102
}
330
1F41
100
AcDbProxyObject
 90
      499
 91
      510
 93
      169
310
90B3122203D2031272D3022004000000000000284020
 94
        0
1001
ACAD
1000
AcadProxyRoundTripData
1071
      507
1071
   655383
1070
     0
  0
ACAD_PROXY_OBJECT
  5
1F5F
102
{ACAD_REACTORS
330
1F41
102
}
330
1F41
100
AcDbProxyObject
 90
      499
 91
      510
 93
      265
310
90F312D312F3222203D2031272D3022000000000000003E0FC00000000000028402B
 94
        0
1001
ACAD
1000
AcadProxyRoundTripData
1071
      507
1071
   655383
1070
     0
  0
ACAD_PROXY_OBJECT
  5
1F60
102
{ACAD_REACTORS
330
1F41
102
}
330
1F41
100
AcDbProxyObject
 90
      499
 91
      510
 93
      233
310
90B3322203D2031272D30220000000000000002100000000000000284000
 94
        0
1001
ACAD
1000
AcadProxyRoundTripData
1071
      507
1071
   655383
1070
     0
  0
ACAD_PROXY_OBJECT
  5
1F61
102
{ACAD_REACTORS
330
1F41
102
}
330
1F41
100
AcDbProxyObject
 90
      499
 91
      510
 93
      233
310
90B3622203D2031272D30220000000000000006100000000000000284000
 94
        0
1001
ACAD
1000
AcadProxyRoundTripData
1071
      507
1071
   655383
1070
     0
  0
ACAD_PROXY_OBJECT
  5
1F62
102
{ACAD_REACTORS
330
1F41
102
}
330
1F41
100
AcDbProxyObject
 90
      499
 91
      510
 93
      257
310
90E31272D3022203D2031272D3022000000000000000A100000000000000284040
 94
        0
1001
ACAD
1000
AcadProxyRoundTripData
1071
      507
1071
   655383
1070
     0
  0
ACAD_PROXY_OBJECT
  5
1F40
102
{ACAD_XDICTIONARY
360
1FCE
102
}
102
{ACAD_REACTORS
330
1F3F
102
}
330
1F3F
100
AcDbProxyObject
 90
      499
 91
      510
 93
     1849
310
4254DD185B99185C990028B81E85EB51B8AE3F2E07A17AD46E2B8FC02B5E8DC0F42B1CFD028000000C1008070000C3001FDFF8000000C1003FBFF000000182007F7FE00000030400FEFFC00000060801FDFF8000000C1003FBFF00000018200000000000000681FA0B0000001820100E000186003FBFF000000182007F7FE0
310
0000030400FEFFC00000060801FDFF8000000C1003FBFF000000182007F7FE000000304000AD7A3703D0AC73F4160000003040201C00030C007F7FE00000030400FEFFC00000060801FDFF8000000C1003FBFF000000182007F7FE00000030400FEFFC000000608000
340
16
340
16
340
16
 94
        0
1001
ACAD
1000
AcadProxyRoundTripData
1071
      506
1071
   655383
1070
     0
  0
ACAD_PROXY_OBJECT
  5
1F33
102
{ACAD_REACTORS
330
1F2D
102
}
330
1F2D
100
AcDbProxyObject
 90
      499
 91
      510
 93
      444
310
430C9915DA5C99599C985B59401049028333333333333E3BF0000000000000FB0107901411070040501600405405064090741402480A0340
 94
        0
1001
ACAD
1000
AcDbSavedByObjectVersion
1070
     0
1000
AcadProxyRoundTripData
1071
      505
1071
   655383
1070
     0
  0
ACAD_PROXY_OBJECT
  5
1F35
102
{ACAD_REACTORS
330
1F2D
102
}
330
1F2D
100
AcDbProxyObject
 90
      499
 91
      510
 93
      508
310
428CD108121A5919195B8010640502408333333333333E3BF0000000000000FB01079024090700405020000000000001110200405405064090740C02480A0340
 94
        0
1001
ACAD
1000
AcDbSavedByObjectVersion
1070
     0
1000
AcadProxyRoundTripData
1071
      505
1071
   655383
1070
     0
  0
ACAD_PROXY_OBJECT
  5
1F34
102
{ACAD_REACTORS
330
1F2D
102
}
330
1F2D
100
AcDbProxyObject
 90
      499
 91
      510
 93
      444
310
430CD915DA5C99599C985B59401059028333333333333E3BF0000000000000FB0107901411070040501600405405064090741402480A0340
 94
        0
1001
ACAD
1000
AcDbSavedByObjectVersion
1070
     0
1000
AcadProxyRoundTripData
1071
      505
1071
   655383
1070
     0
  0
ACAD_PROXY_OBJECT
  5
1F32
102
{ACAD_REACTORS
330
1F2D
102
}
330
1F2D
100
AcDbProxyObject
 90
      499
 91
      510
 93
      396
310
4190985CDA58C0107406404333333333333E3BF0000000000000FB0107A41107004050150841D405064090741402480A0356
 94
        0
1001
ACAD
1000
AcDbSavedByObjectVersion
1070
     0
1000
AcadProxyRoundTripData
1071
      505
1071
   655383
1070
     0
  0
ACAD_PROXY_OBJECT
  5
1F39
102
{ACAD_REACTORS
330
1F2D
102
}
330
1F2D
100
AcDbProxyObject
 90
      499
 91
      510
 93
      436
310
42509C9A59DA1D195B8010C409028333333333333E3BF0000000000000FB010790141107004050150841D405064090741402480A029956
 94
        0
1001
ACAD
1000
AcDbSavedByObjectVersion
1070
     0
1000
AcadProxyRoundTripData
1071
      505
1071
   655383
1070
     0
  0
ACAD_PROXY_OBJECT
  5
1F3D
102
{ACAD_REACTORS
330
1F2D
102
}
330
1F2D
100
AcDbProxyObject
 90
      499
 91
      510
 93
      460
310
4310DBDB1BDC90DA185B99D9401104090240C333333333333E3BF0000000000000FB0108901411070040501508421405064090741402480A0354
 94
        0
1001
ACAD
1000
AcDbSavedByObjectVersion
1070
     0
1000
AcadProxyRoundTripData
1071
      505
1071
   655383
1070
     0
  0
ACAD_PROXY_OBJECT
  5
1F36
102
{ACAD_REACTORS
330
1F2D
102
}
330
1F2D
100
AcDbProxyObject
 90
      499
 91
      510
 93
      508
310
42D0DBDB98D95C1D1D585B0010940D028333333333333E3BF0000000000000FB0107902409070040501000000000000111010841D405064090740C02480A0340
 94
        0
1001
ACAD
1000
AcDbSavedByObjectVersion
1070
     0
1000
AcadProxyRoundTripData
1071
      505
1071
   655383
1070
     0
  0
ACAD_PROXY_OBJECT
  5
1F38
102
{ACAD_REACTORS
330
1F2D
102
}
330
1F2D
100
AcDbProxyObject
 90
      499
 91
      510
 93
      420
310
41111A5B4010B409028333333333333E3BF0000000000000FB010790141107004050150841D405064090741402480A02677FFFFFDB
 94
        0
1001
ACAD
1000
AcDbSavedByObjectVersion
1070
     0
1000
AcadProxyRoundTripData
1071
      505
1071
   655383
1070
     0
  0
ACAD_PROXY_OBJECT
  5
1F3C
102
{ACAD_REACTORS
330
1F2D
102
}
330
1F2D
100
AcDbProxyObject
 90
      499
 91
      510
 93
      452
310
43119858D95C185D1D195C9B8010F409028333333333333E3BF0000000000000FB010790141107004050150841D405064090741402480A0350
 94
        0
1001
ACAD
1000
AcDbSavedByObjectVersion
1070
     0
1000
AcadProxyRoundTripData
1071
      505
1071
   655383
1070
     0
  0
ACAD_PROXY_OBJECT
  5
1F2E
102
{ACAD_REACTORS
330
1F2D
102
}
330
1F2D
100
AcDbProxyObject
 90
      499
 91
      510
 93
      396
310
41519B185D00240901404333333333333E3BF0000000000000F9010740A41107004050150841D405064090741402480A1B55
 94
        0
1001
ACAD
1000
AcDbSavedByObjectVersion
1070
     0
1000
AcadProxyRoundTripData
1071
      505
1071
   655383
1070
     0
  0
ACAD_PROXY_OBJECT
  5
1F2F
102
{ACAD_REACTORS
330
1F2D
102
}
330
1F2D
100
AcDbProxyObject
 90
      499
 91
      510
 93
      484
310
43919B185D15DA5D1A115919D95CC010140901404333333333333E3BF0000000000000F9010740901411070040501600405405064090741402480A1B50
 94
        0
1001
ACAD
1000
AcDbSavedByObjectVersion
1070
     0
1000
AcadProxyRoundTripData
1071
      505
1071
   655383
1070
     0
  0
ACAD_PROXY_OBJECT
  5
1F30
102
{ACAD_REACTORS
330
1F2D
102
}
330
1F2D
100
AcDbProxyObject
 90
      499
 91
      510
 93
      420
310
4211DBDD5C985D590010240902404333333333333E3BF0000000000000F9010740A411070040501641D405064090741402480A1B50
 94
        0
1001
ACAD
1000
AcDbSavedByObjectVersion
1070
     0
1000
AcadProxyRoundTripData
1071
      505
1071
   655383
1070
     0
  0
ACAD_PROXY_OBJECT
  5
1F31
102
{ACAD_REACTORS
330
1F2D
102
}
330
1F2D
100
AcDbProxyObject
 90
      499
 91
      510
 93
      508
310
4451DBDD5C985D5915DA5D1A115919D95CC010340902404333333333333E3BF0000000000000F9010740901411070040501600405405064090741402480A1B50
 94
        0
1001
ACAD
1000
AcDbSavedByObjectVersion
1070
     0
1000
AcadProxyRoundTripData
1071
      505
1071
   655383
1070
     0
  0
ACAD_PROXY_OBJECT
  5
1F3B
102
{ACAD_REACTORS
330
1F2D
102
}
330
1F2D
100
AcDbProxyObject
 90
      499
 91
      510
 93
      452
310
43131A5B995C185D1D195C9B8010E409028333333333333E3BF0000000000000FB010790141107004050750841D405064090741402483A0350
 94
        0
1001
ACAD
1000
AcDbSavedByObjectVersion
1070
     0
1000
AcadProxyRoundTripData
1071
      505
1071
   655383
1070
     0
  0
ACAD_PROXY_OBJECT
  5
1F37
102
{ACAD_REACTORS
330
1F2D
102
}
330
1F2D
100
AcDbProxyObject
 90
      499
 91
      510
 93
      428
310
429499585B1A5CDD1A58C0108409028333333333333E3BF0000000000000FB01079019070040501508421405064090741402480A1B45
 94
        0
1001
ACAD
1000
AcDbSavedByObjectVersion
1070
     0
1000
AcadProxyRoundTripData
1071
      505
1071
   655383
1070
     0
  0
ACAD_PROXY_OBJECT
  5
1F3A
102
{ACAD_REACTORS
330
1F2D
102
}
330
1F2D
100
AcDbProxyObject
 90
      499
 91
      510
 93
      420
310
42151A1A58DAD95B8010D409028333333333333E3BF0000000000000FB010790141107004050150C41D405064090741402480A0352
 94
        0
1001
ACAD
1000
AcDbSavedByObjectVersion
1070
     0
1000
AcadProxyRoundTripData
1071
      505
1071
   655383
1070
     0
  0
XRECORD
  5
2131
102
{ACAD_REACTORS
330
2127
102
}
330
2127
100
AcDbXrecord
 90
        0
  0
XRECORD
  5
2135
102
{ACAD_REACTORS
330
2127
102
}
330
2127
100
AcDbXrecord
1000
DSTYLE
1002
{
1070
   179
 70
     2
1070
   277
 70
     6
1002
}
  0
XRECORD
  5
2132
102
{ACAD_REACTORS
330
2127
102
}
330
2127
100
AcDbXrecord
  1
{6385560B-F4B1-4644-A7C2-A3E32AC3D232}
  0
XRECORD
  5
212A
102
{ACAD_REACTORS
330
2127
102
}
330
2127
100
AcDbXrecord
  1

  0
XRECORD
  5
2130
102
{ACAD_REACTORS
330
2127
102
}
330
2127
100
AcDbXrecord
 90
        0
  0
XRECORD
  5
212C
102
{ACAD_REACTORS
330
2127
102
}
330
2127
100
AcDbXrecord
340
61
  0
XRECORD
  5
212F
102
{ACAD_REACTORS
330
2127
102
}
330
2127
100
AcDbXrecord
 90
    10781
  0
XRECORD
  5
212D
102
{ACAD_REACTORS
330
2127
102
}
330
2127
100
AcDbXrecord
340
77
  0
XRECORD
  5
212E
102
{ACAD_REACTORS
330
2127
102
}
330
2127
100
AcDbXrecord
340
6
  0
XRECORD
  5
2134
102
{ACAD_REACTORS
330
2127
102
}
330
2127
100
AcDbXrecord
 40
0.0
  0
XRECORD
  5
2138
102
{ACAD_REACTORS
330
2127
102
}
330
2127
100
AcDbXrecord
340
0
  0
XRECORD
  5
213E
102
{ACAD_REACTORS
330
2127
102
}
330
2127
100
AcDbXrecord
 10
0.0
 20
0.0
 30
0.0
  0
XRECORD
  5
213A
102
{ACAD_REACTORS
330
2127
102
}
330
2127
100
AcDbXrecord
 10
0.0
 20
0.0
 30
0.0
  0
XRECORD
  5
213D
102
{ACAD_REACTORS
330
2127
102
}
330
2127
100
AcDbXrecord
 10
0.0
 20
0.0
 30
0.0
  0
XRECORD
  5
213B
102
{ACAD_REACTORS
330
2127
102
}
330
2127
100
AcDbXrecord
 10
0.0
 20
0.0
 30
0.0
  0
XRECORD
  5
213C
102
{ACAD_REACTORS
330
2127
102
}
330
2127
100
AcDbXrecord
 10
0.0
 20
0.0
 30
0.0
  0
XRECORD
  5
2139
102
{ACAD_REACTORS
330
2127
102
}
330
2127
100
AcDbXrecord
 10
0.0
 20
0.0
 30
0.0
  0
XRECORD
  5
2136
102
{ACAD_REACTORS
330
2127
102
}
330
2127
100
AcDbXrecord
340
0
  0
XRECORD
  5
2137
102
{ACAD_REACTORS
330
2127
102
}
330
2127
100
AcDbXrecord
 70
     0
  0
XRECORD
  5
212B
102
{ACAD_REACTORS
330
2127
102
}
330
2127
100
AcDbXrecord
  1
Sekkei.ctb
  0
XRECORD
  5
2128
102
{ACAD_REACTORS
330
2127
102
}
330
2127
100
AcDbXrecord
 90
        1
  0
XRECORD
  5
2129
102
{ACAD_REACTORS
330
2127
102
}
330
2127
100
AcDbXrecord
 90
       70
  0
XRECORD
  5
2141
102
{ACAD_REACTORS
330
2127
102
}
330
2127
100
AcDbXrecord
340
0
  0
XRECORD
  5
2147
102
{ACAD_REACTORS
330
2127
102
}
330
2127
100
AcDbXrecord
 10
0.0
 20
0.0
 30
0.0
  0
XRECORD
  5
2143
102
{ACAD_REACTORS
330
2127
102
}
330
2127
100
AcDbXrecord
 10
0.0
 20
0.0
 30
0.0
  0
XRECORD
  5
2146
102
{ACAD_REACTORS
330
2127
102
}
330
2127
100
AcDbXrecord
 10
0.0
 20
0.0
 30
0.0
  0
XRECORD
  5
2144
102
{ACAD_REACTORS
330
2127
102
}
330
2127
100
AcDbXrecord
 10
0.0
 20
0.0
 30
0.0
  0
XRECORD
  5
2145
102
{ACAD_REACTORS
330
2127
102
}
330
2127
100
AcDbXrecord
 10
0.0
 20
0.0
 30
0.0
  0
XRECORD
  5
2142
102
{ACAD_REACTORS
330
2127
102
}
330
2127
100
AcDbXrecord
 10
0.0
 20
0.0
 30
0.0
  0
XRECORD
  5
213F
102
{ACAD_REACTORS
330
2127
102
}
330
2127
100
AcDbXrecord
340
0
  0
XRECORD
  5
2140
102
{ACAD_REACTORS
330
2127
102
}
330
2127
100
AcDbXrecord
 70
     0
  0
XRECORD
  5
2133
102
{ACAD_REACTORS
330
2127
102
}
330
2127
100
AcDbXrecord
  1
{DF68B970-7C7E-4775-9C07-C0CBBF7CBB41}
  0
DICTIONARYVAR
  5
1FF1
102
{ACAD_REACTORS
330
102
102
}
330
102
100
DictionaryVariables
280
     0
  1
1:1
  0
DICTIONARYVAR
  5
1FF0
102
{ACAD_REACTORS
330
102
102
}
330
102
100
DictionaryVariables
280
     0
  1
STANDARD
  0
DICTIONARYVAR
  5
1FEF
102
{ACAD_REACTORS
330
102
102
}
330
102
100
DictionaryVariables
280
     0
  1
STANDARD
  0
DICTIONARYVAR
  5
103
102
{ACAD_REACTORS
330
102
102
}
330
102
100
DictionaryVariables
280
     0
  1
1
  0
DICTIONARYVAR
  5
1FF2
102
{ACAD_REACTORS
330
102
102
}
330
102
100
DictionaryVariables
280
     0
  1
0
  0
DICTIONARYVAR
  5
549
102
{ACAD_REACTORS
330
102
102
}
330
102
100
DictionaryVariables
280
     0
  1
96
  0
DICTIONARY
  5
1F1E
330
1F1D
100
AcDbDictionary
280
     1
  3
ACAD_XREC_ROUNDTRIP
360
210C
  3
BUMPTILE
360
1F20
  3
DIFFUSETILE
360
1F1F
  3
OPACITYTILE
360
1F23
  3
REFLECTIONTILE
360
1F22
  3
REFRACTIONTILE
360
1F24
  3
SPECULARTILE
360
1F21
  0
DICTIONARY
  5
1F16
330
1F15
100
AcDbDictionary
280
     1
  3
ACAD_XREC_ROUNDTRIP
360
210B
  3
BUMPTILE
360
1F18
  3
DIFFUSETILE
360
1F17
  3
OPACITYTILE
360
1F1B
  3
REFLECTIONTILE
360
1F1A
  3
REFRACTIONTILE
360
1F1C
  3
SPECULARTILE
360
1F19
  0
DICTIONARY
  5
1F26
330
1F25
100
AcDbDictionary
280
     1
  3
ACAD_XREC_ROUNDTRIP
360
210D
  3
BUMPTILE
360
1F28
  3
DIFFUSETILE
360
1F27
  3
OPACITYTILE
360
1F2B
  3
REFLECTIONTILE
360
1F2A
  3
REFRACTIONTILE
360
1F2C
  3
SPECULARTILE
360
1F29
  0
DICTIONARY
  5
1FCE
330
1F40
100
AcDbDictionary
280
     1
  3
ACAD_ROUNDTRIP_2008_TABLES
360
20F2
  3
ACAD_XREC_ROUNDTRIP
360
210E
  0
XRECORD
  5
210C
102
{ACAD_REACTORS
330
1F1E
102
}
330
1F1E
100
AcDbXrecord
102
MATERIAL
148
0.0
149
0.0
149
0.0
 93
        0
 94
      127
282
     0
 72
     0
 77
     0
171
     0
175
     0
179
     0
273
     0
  0
XRECORD
  5
1F20
102
{ACAD_REACTORS
330
1F1E
102
}
330
1F1E
100
AcDbXrecord
270
     1
271
     1
  0
XRECORD
  5
1F1F
102
{ACAD_REACTORS
330
1F1E
102
}
330
1F1E
100
AcDbXrecord
270
     1
271
     1
  0
XRECORD
  5
1F23
102
{ACAD_REACTORS
330
1F1E
102
}
330
1F1E
100
AcDbXrecord
270
     1
271
     1
  0
XRECORD
  5
1F22
102
{ACAD_REACTORS
330
1F1E
102
}
330
1F1E
100
AcDbXrecord
270
     1
271
     1
  0
XRECORD
  5
1F24
102
{ACAD_REACTORS
330
1F1E
102
}
330
1F1E
100
AcDbXrecord
270
     1
271
     1
  0
XRECORD
  5
1F21
102
{ACAD_REACTORS
330
1F1E
102
}
330
1F1E
100
AcDbXrecord
270
     1
271
     1
  0
XRECORD
  5
210B
102
{ACAD_REACTORS
330
1F16
102
}
330
1F16
100
AcDbXrecord
102
MATERIAL
148
0.0
149
0.0
149
0.0
 93
        0
 94
      127
282
     0
 72
     0
 77
     0
171
     0
175
     0
179
     0
273
     0
  0
XRECORD
  5
1F18
102
{ACAD_REACTORS
330
1F16
102
}
330
1F16
100
AcDbXrecord
270
     1
271
     1
  0
XRECORD
  5
1F17
102
{ACAD_REACTORS
330
1F16
102
}
330
1F16
100
AcDbXrecord
270
     1
271
     1
  0
XRECORD
  5
1F1B
102
{ACAD_REACTORS
330
1F16
102
}
330
1F16
100
AcDbXrecord
270
     1
271
     1
  0
XRECORD
  5
1F1A
102
{ACAD_REACTORS
330
1F16
102
}
330
1F16
100
AcDbXrecord
270
     1
271
     1
  0
XRECORD
  5
1F1C
102
{ACAD_REACTORS
330
1F16
102
}
330
1F16
100
AcDbXrecord
270
     1
271
     1
  0
XRECORD
  5
1F19
102
{ACAD_REACTORS
330
1F16
102
}
330
1F16
100
AcDbXrecord
270
     1
271
     1
  0
XRECORD
  5
210D
102
{ACAD_REACTORS
330
1F26
102
}
330
1F26
100
AcDbXrecord
102
MATERIAL
148
0.0
149
0.0
149
0.0
 93
        0
 94
      127
282
     0
 72
     0
 77
     0
171
     0
175
     0
179
     0
273
     0
  0
XRECORD
  5
1F28
102
{ACAD_REACTORS
330
1F26
102
}
330
1F26
100
AcDbXrecord
270
     1
271
     1
  0
XRECORD
  5
1F27
102
{ACAD_REACTORS
330
1F26
102
}
330
1F26
100
AcDbXrecord
270
     1
271
     1
  0
XRECORD
  5
1F2B
102
{ACAD_REACTORS
330
1F26
102
}
330
1F26
100
AcDbXrecord
270
     1
271
     1
  0
XRECORD
  5
1F2A
102
{ACAD_REACTORS
330
1F26
102
}
330
1F26
100
AcDbXrecord
270
     1
271
     1
  0
XRECORD
  5
1F2C
102
{ACAD_REACTORS
330
1F26
102
}
330
1F26
100
AcDbXrecord
270
     1
271
     1
  0
XRECORD
  5
1F29
102
{ACAD_REACTORS
330
1F26
102
}
330
1F26
100
AcDbXrecord
270
     1
271
     1
  0
ACAD_PROXY_OBJECT
  5
20F2
102
{ACAD_REACTORS
330
1FCE
102
}
330
1FCE
100
AcDbProxyObject
 90
      499
 91
      510
 93
     5304
310
40D054060020000020000003200101A000080002A5058000000C100000000000000340FD012E07A17AD46E2B8FCB81E85EB51B8AE3F2E07A17AD46E2B8FCB81E85EB51B8AE3F02B5E8DC0F42B1CFC0AD7A3703D0AC73F419019018000000C1003FBFFFFFE02B5E8DC0F42A9CFD029018000000C1003FBFFFFFE02B5E8DC0F4
310
2A9CFD049018000000C1003FBFFFFFE02B5E8DC0F42A9CFD089018000000C1003FBFFFFFE02B5E8DC0F42A9CFD109018000000C1003FBFFFFFE02B5E8DC0F42A9CFD209018000000C1003FBFFFFFE02B5E8DC0F42A9CFD01405075F5449544C450041501A8000000C800406800020000A9416000000304000AD7A3703D0AC7
310
3F404B81E85EB51B8AE3F2E07A17AD46E2B8FCB81E85EB51B8AE3F2E07A17AD46E2B8FC0AD7A3703D0AC73F02B5E8DC0F42B1CFD0640640600000030400FEFFFFFF80AD7A3703D0AA73F40A40600000030400FEFFFFFF80AD7A3703D0AA73F41240600000030400FEFFFFFF80AD7A3703D0AA73F42240600000030400FEFFF
310
FFF80AD7A3703D0AA73F44240600000030400FEFFFFFF80AD7A3703D0AA73F48240600000030400FEFFFFFF80AD7A3703D0AA73F409014217D2115051115480105406A0000003200101A000080002A5028000000C10002B5E8DC0F42B1CFD012E07A17AD46E2B8FCB81E85EB51B8AE3F2E07A17AD46E2B8FCB81E85EB51B8A
310
E3F02B5E8DC0F42B1CFC0AD7A3703D0AC73F419019018000000C1003FBFFFFFE02B5E8DC0F42A9CFD029018000000C1003FBFFFFFE02B5E8DC0F42A9CFD049018000000C1003FBFFFFFE02B5E8DC0F42A9CFD089018000000C1003FBFFFFFE02B5E8DC0F42A9CFD109018000000C1003FBFFFFFE02B5E8DC0F42A9CFD20901
310
8000000C1003FBFFFFFE02B5E8DC0F42A9CFD03409065F444154410000
340
16
340
0
340
0
340
0
340
0
340
0
340
0
340
16
340
0
340
0
340
0
340
0
340
0
340
0
340
16
340
0
340
0
340
0
340
0
340
0
340
0
 94
        0
1001
ACAD
1000
AcadProxyRoundTripData
1071
      509
1071
   655383
1070
     0
  0
XRECORD
  5
210E
102
{ACAD_REACTORS
330
1FCE
102
}
330
1FCE
100
AcDbXrecord
102
ACAD_ROUNDTRIP_PRE2007_TABLESTYLE
 90
      512
 91
        0
  1

 92
      512
 93
        0
  2

 94
      512
 95
        0
  3

  0
ENDSEC
  0
EOF
