  0
SECTION
  2
HEADER
  9
$ACADVER
  1
AC1014
  9
$ACADMAINTVER
 70
     9
  9
$DWGCODEPAGE
  3
ANSI_932
  9
$INSBASE
 10
0.0
 20
0.0
 30
0.0
  9
$EXTMIN
 10
41.74391037314967
 20
52.53684956569316
 30
0.0
  9
$EXTMAX
 10
760.7836839098515
 20
517.9588716841537
 30
0.0
  9
$LIMMIN
 10
0.0
 20
0.0
  9
$LIMMAX
 10
297.0
 20
210.0
  9
$ORTHOMODE
 70
     1
  9
$REGENMODE
 70
     1
  9
$FILLMODE
 70
     1
  9
$QTEXTMODE
 70
     0
  9
$MIRRTEXT
 70
     0
  9
$DRAGMODE
 70
     2
  9
$LTSCALE
 40
2.0
  9
$OSMODE
 70
    37
  9
$ATTMODE
 70
     1
  9
$TEXTSIZE
 40
2.0
  9
$TRACEWID
 40
1.0
  9
$TEXTSTYLE
  7
STANDARD
  9
$CLAYER
  8
0
  9
$CELTYPE
  6
BYLAYER
  9
$CECOLOR
 62
   256
  9
$CELTSCALE
 40
1.0
  9
$DELOBJ
 70
     1
  9
$DISPSILH
 70
     0
  9
$DIMSCALE
 40
2.0
  9
$DIMASZ
 40
1.8
  9
$DIMEXO
 40
0.625
  9
$DIMDLI
 40
3.75
  9
$DIMRND
 40
0.0
  9
$DIMDLE
 40
0.0
  9
$DIMEXE
 40
0.8
  9
$DIMTP
 40
0.0
  9
$DIMTM
 40
0.0
  9
$DIMTXT
 40
1.8
  9
$DIMCEN
 40
2.5
  9
$DIMTSZ
 40
0.0
  9
$DIMTOL
 70
     0
  9
$DIMLIM
 70
     0
  9
$DIMTIH
 70
     0
  9
$DIMTOH
 70
     0
  9
$DIMSE1
 70
     0
  9
$DIMSE2
 70
     0
  9
$DIMTAD
 70
     1
  9
$DIMZIN
 70
     8
  9
$DIMBLK
  1

  9
$DIMASO
 70
     1
  9
$DIMSHO
 70
     1
  9
$DIMPOST
  1

  9
$DIMAPOST
  1

  9
$DIMALT
 70
     0
  9
$DIMALTD
 70
     4
  9
$DIMALTF
 40
0.0394
  9
$DIMLFAC
 40
1.0
  9
$DIMTOFL
 70
     1
  9
$DIMTVP
 40
0.0
  9
$DIMTIX
 70
     0
  9
$DIMSOXD
 70
     0
  9
$DIMSAH
 70
     0
  9
$DIMBLK1
  1

  9
$DIMBLK2
  1

  9
$DIMSTYLE
  2
STANDARD
  9
$DIMCLRD
 70
     0
  9
$DIMCLRE
 70
     0
  9
$DIMCLRT
 70
     0
  9
$DIMTFAC
 40
1.0
  9
$DIMGAP
 40
0.75
  9
$DIMJUST
 70
     0
  9
$DIMSD1
 70
     0
  9
$DIMSD2
 70
     0
  9
$DIMTOLJ
 70
     1
  9
$DIMTZIN
 70
     0
  9
$DIMALTZ
 70
     0
  9
$DIMALTTZ
 70
     0
  9
$DIMFIT
 70
     3
  9
$DIMUPT
 70
     0
  9
$DIMUNIT
 70
     8
  9
$DIMDEC
 70
     2
  9
$DIMTDEC
 70
     2
  9
$DIMALTU
 70
     8
  9
$DIMALTTD
 70
     4
  9
$DIMTXSTY
  7
STANDARD
  9
$DIMAUNIT
 70
     0
  9
$LUNITS
 70
     2
  9
$LUPREC
 70
     3
  9
$SKETCHINC
 40
1.0
  9
$FILLETRAD
 40
10.0
  9
$AUNITS
 70
     0
  9
$AUPREC
 70
     2
  9
$MENU
  1
.
  9
$ELEVATION
 40
0.0
  9
$PELEVATION
 40
0.0
  9
$THICKNESS
 40
0.0
  9
$LIMCHECK
 70
     0
  9
$BLIPMODE
 70
     0
  9
$CHAMFERA
 40
0.0
  9
$CHAMFERB
 40
0.0
  9
$CHAMFERC
 40
20.0
  9
$CHAMFERD
 40
0.0
  9
$SKPOLY
 70
     0
  9
$TDCREATE
 40
2454410.557961331
  9
$TDUPDATE
 40
2454425.684089444
  9
$TDINDWG
 40
0.0280047338
  9
$TDUSRTIMER
 40
0.0280045486
  9
$USRTIMER
 70
     1
  9
$ANGBASE
 50
0.0
  9
$ANGDIR
 70
     0
  9
$PDMODE
 70
     0
  9
$PDSIZE
 40
-10.0
  9
$PLINEWID
 40
0.0
  9
$COORDS
 70
     0
  9
$SPLFRAME
 70
     0
  9
$SPLINETYPE
 70
     6
  9
$SPLINESEGS
 70
     8
  9
$ATTDIA
 70
     0
  9
$ATTREQ
 70
     1
  9
$HANDLING
 70
-16383
  9
$HANDSEED
  5
1EF5
  9
$SURFTAB1
 70
     6
  9
$SURFTAB2
 70
     6
  9
$SURFTYPE
 70
     6
  9
$SURFU
 70
     6
  9
$SURFV
 70
     6
  9
$UCSNAME
  2

  9
$UCSORG
 10
0.0
 20
0.0
 30
0.0
  9
$UCSXDIR
 10
1.0
 20
0.0
 30
0.0
  9
$UCSYDIR
 10
0.0
 20
1.0
 30
0.0
  9
$PUCSNAME
  2

  9
$PUCSORG
 10
0.0
 20
0.0
 30
0.0
  9
$PUCSXDIR
 10
1.0
 20
0.0
 30
0.0
  9
$PUCSYDIR
 10
0.0
 20
1.0
 30
0.0
  9
$USERI1
 70
     0
  9
$USERI2
 70
     0
  9
$USERI3
 70
     0
  9
$USERI4
 70
     0
  9
$USERI5
 70
     0
  9
$USERR1
 40
0.0
  9
$USERR2
 40
0.0
  9
$USERR3
 40
0.0
  9
$USERR4
 40
0.0
  9
$USERR5
 40
0.0
  9
$WORLDVIEW
 70
     1
  9
$SHADEDGE
 70
     3
  9
$SHADEDIF
 70
    70
  9
$TILEMODE
 70
     1
  9
$MAXACTVP
 70
    48
  9
$PINSBASE
 10
0.0
 20
0.0
 30
0.0
  9
$PLIMCHECK
 70
     0
  9
$PEXTMIN
 10
0.0
 20
0.0
 30
0.0
  9
$PEXTMAX
 10
0.0
 20
0.0
 30
0.0
  9
$PLIMMIN
 10
0.0
 20
0.0
  9
$PLIMMAX
 10
12.0
 20
9.0
  9
$UNITMODE
 70
     0
  9
$VISRETAIN
 70
     1
  9
$PLINEGEN
 70
     0
  9
$PSLTSCALE
 70
     1
  9
$TREEDEPTH
 70
  3020
  9
$PICKSTYLE
 70
     1
  9
$CMLSTYLE
  2
STANDARD
  9
$CMLJUST
 70
     0
  9
$CMLSCALE
 40
1.0
  9
$PROXYGRAPHICS
 70
     1
  9
$MEASUREMENT
 70
     0
  0
ENDSEC
  0
SECTION
  2
CLASSES
  0
CLASS
  1
DICTIONARYVAR
  2
AcDbDictionaryVar
  3
AutoCAD 2000
 90
        0
280
     0
281
     0
  0
CLASS
  1
ACDBDICTIONARYWDFLT
  2
AcDbDictionaryWithDefault
  3
AutoCAD 2000
 90
        0
280
     0
281
     0
  0
CLASS
  1
ACDBPLACEHOLDER
  2
AcDbPlaceHolder
  3
AutoCAD 2000
 90
        0
280
     0
281
     0
  0
CLASS
  1
LAYOUT
  2
AcDbLayout
  3
AutoCAD 2000
 90
        0
280
     0
281
     0
  0
CLASS
  1
MATERIAL
  2
AcDbMaterial
  3
ObjectDBX Classes
 90
     1153
280
     0
281
     0
  0
CLASS
  1
VISUALSTYLE
  2
AcDbVisualStyle
  3
ObjectDBX Classes
 90
     4095
280
     0
281
     0
  0
CLASS
  1
TABLESTYLE
  2
AcDbTableStyle
  3
ObjectDBX Classes
 90
     4095
280
     0
281
     0
  0
CLASS
  1
SCALE
  2
AcDbScale
  3
ObjectDBX Classes
 90
     1153
280
     0
281
     0
  0
CLASS
  1
MLEADERSTYLE
  2
AcDbMLeaderStyle
  3
ACDB_MLEADERSTYLE_CLASS
 90
     4095
280
     0
281
     0
  0
CLASS
  1
CELLSTYLEMAP
  2
AcDbCellStyleMap
  3
ObjectDBX Classes
 90
     1152
280
     0
281
     0
  0
CLASS
  1
ACAD_PROXY_OBJECT_WRAPPER
  2
AcDbProxyObjectWrapper
  3
AutoCAD 2000
 90
        0
280
     0
281
     0
  0
CLASS
  1
LONG_TRANSACTION
  2
AcDbLongTransaction
  3
AutoCAD 2000
 90
        0
280
     0
281
     0
  0
CLASS
  1
LWPOLYLINE
  2
AcDbPolyline
  3
AutoCAD 2000
 90
        0
280
     0
281
     1
  0
CLASS
  1
HATCH
  2
AcDbHatch
  3
AutoCAD 2000
 90
        0
280
     0
281
     1
  0
CLASS
  1
XRECORD
  2
AcDbXrecord
  3
AutoCAD 2000
 90
        0
280
     0
281
     0
  0
ENDSEC
  0
SECTION
  2
TABLES
  0
TABLE
  2
VPORT
  5
6E
102
{ACAD_XDICTIONARY
360
1D83
102
}
330
0
100
AcDbSymbolTable
 70
     2
  0
VPORT
  5
1ECF
330
6E
100
AcDbSymbolTableRecord
100
AcDbViewportTableRecord
  2
*ACTIVE
 70
     0
 10
0.0
 20
0.0
 11
1.0
 21
1.0
 12
451.7828815044405
 22
276.4431236391755
 13
0.0
 23
0.0
 14
10.0
 24
10.0
 15
10.0
 25
10.0
 16
0.0
 26
0.0
 36
1.0
 17
0.0
 27
0.0
 37
0.0
 40
487.0182158240131
 41
1.753504672897196
 42
50.0
 43
0.0
 44
0.0
 50
0.0
 51
0.0
 71
     0
 72
   100
 73
     1
 74
     3
 75
     0
 76
     0
 77
     0
 78
     0
  0
ENDTAB
  0
TABLE
  2
LTYPE
  5
69
330
0
100
AcDbSymbolTable
 70
     8
  0
LTYPE
  5
6A
330
69
100
AcDbSymbolTableRecord
100
AcDbLinetypeTableRecord
  2
BYBLOCK
 70
     0
  3

 72
    65
 73
     0
 40
0.0
  0
LTYPE
  5
6B
330
69
100
AcDbSymbolTableRecord
100
AcDbLinetypeTableRecord
  2
BYLAYER
 70
     0
  3

 72
    65
 73
     0
 40
0.0
  0
LTYPE
  5
8
330
69
100
AcDbSymbolTableRecord
100
AcDbLinetypeTableRecord
  2
CONTINUOUS
 70
     0
  3
Solid line
 72
    65
 73
     0
 40
0.0
  0
LTYPE
  5
27C
330
69
100
AcDbSymbolTableRecord
100
AcDbLinetypeTableRecord
  2
SEKKEI_A2_
 70
     0
  3
center(A2)  ____ _ ____ _ ____ _ ____ _ ____ _ 
 72
    65
 73
     4
 40
14.28749999999999
 49
9.525
 74
     0
 49
-1.587499999999999
 74
     0
 49
1.587499999999999
 74
     0
 49
-1.587499999999999
 74
     0
  0
LTYPE
  5
48F
330
69
100
AcDbSymbolTableRecord
100
AcDbLinetypeTableRecord
  2
SEKKEI_H
 70
     0
  3
Hidden-S _ _ _ _ _ _ _ _ _ _ _ _ _ _ _ _ _
 72
    65
 73
     2
 40
2.381249999999999
 49
1.587499999999999
 74
     0
 49
-0.79375
 74
     0
  0
LTYPE
  5
494
330
69
100
AcDbSymbolTableRecord
100
AcDbLinetypeTableRecord
  2
SEKKEI_P_S
 70
     0
  3
Phantom_S   __ _ _ __ _ _ __ _ _ ___
 72
    65
 73
     6
 40
7.5
 49
3.75
 74
     0
 49
-0.75
 74
     0
 49
0.75
 74
     0
 49
-0.75
 74
     0
 49
0.75
 74
     0
 49
-0.75
 74
     0
  0
LTYPE
  5
7EF
330
69
100
AcDbSymbolTableRecord
100
AcDbLinetypeTableRecord
  2
PHANTOM3
 70
     0
  3
Phantom  ___ _ _ ___ _ _ ___ _ _ ___ _ _
 72
    65
 73
     6
 40
9.0
 49
4.0
 74
     0
 49
-1.0
 74
     0
 49
1.0
 74
     0
 49
-1.0
 74
     0
 49
1.0
 74
     0
 49
-1.0
 74
     0
  0
LTYPE
  5
7F0
330
69
100
AcDbSymbolTableRecord
100
AcDbLinetypeTableRecord
  2
HIDDEN3
 70
     0
  3
Hidden (.3x) _ _ _ _ _ _ _ _ _ _ _ _ _ _ _ _ _
 72
    65
 73
     2
 40
2.857499999999999
 49
1.905
 74
     0
 49
-0.9525
 74
     0
  0
LTYPE
  5
AE4
330
69
100
AcDbSymbolTableRecord
100
AcDbLinetypeTableRecord
  2
CENS
 70
     0
  3
(一点鎖線１)---- - ---- - ---- - ---- - ---- - 
 72
    65
 73
     4
 40
7.0
 49
4.0
 74
     0
 49
-1.0
 74
     0
 49
1.0
 74
     0
 49
-1.0
 74
     0
  0
ENDTAB
  0
TABLE
  2
LAYER
  5
66
102
{ACAD_XDICTIONARY
360
AE5
102
}
330
0
100
AcDbSymbolTable
 70
    10
  0
LAYER
  5
5E
102
{ACAD_XDICTIONARY
360
1D66
102
}
330
66
100
AcDbSymbolTableRecord
100
AcDbLayerTableRecord
  2
0
 70
     0
 62
     7
  6
CONTINUOUS
  0
LAYER
  5
3E
102
{ACAD_XDICTIONARY
360
1D68
102
}
330
66
100
AcDbSymbolTableRecord
100
AcDbLayerTableRecord
  2
CENTER
 70
     0
 62
     3
  6
SEKKEI_A2_
  0
LAYER
  5
2B5
102
{ACAD_XDICTIONARY
360
1D6E
102
}
330
66
100
AcDbSymbolTableRecord
100
AcDbLayerTableRecord
  2
HIDS
 70
     0
 62
     1
  6
HIDDEN3
  0
LAYER
  5
2BA
102
{ACAD_XDICTIONARY
360
1D70
102
}
330
66
100
AcDbSymbolTableRecord
100
AcDbLayerTableRecord
  2
HOJO
 70
     0
 62
     4
  6
CONTINUOUS
  0
LAYER
  5
3FA
102
{ACAD_XDICTIONARY
360
1D74
102
}
330
66
100
AcDbSymbolTableRecord
100
AcDbLayerTableRecord
  2
TITLE
 70
     0
 62
     4
  6
CONTINUOUS
  0
LAYER
  5
478
102
{ACAD_XDICTIONARY
360
1D76
102
}
330
66
100
AcDbSymbolTableRecord
100
AcDbLayerTableRecord
  2
PHAS
 70
     0
 62
     2
  6
PHANTOM3
  0
ENDTAB
  0
TABLE
  2
STYLE
  5
67
330
0
100
AcDbSymbolTable
 70
     2
  0
STYLE
  5
16
330
67
100
AcDbSymbolTableRecord
100
AcDbTextStyleTableRecord
  2
STANDARD
 70
     0
 40
0.0
 41
1.0
 50
0.0
 71
     0
 42
2.0
  3
simplex.shx
  4
extfont.shx
  0
ENDTAB
  0
TABLE
  2
VIEW
  5
6C
330
0
100
AcDbSymbolTable
 70
     0
  0
ENDTAB
  0
TABLE
  2
UCS
  5
6D
330
0
100
AcDbSymbolTable
 70
     0
  0
ENDTAB
  0
TABLE
  2
APPID
  5
70
330
0
100
AcDbSymbolTable
 70
     4
  0
APPID
  5
71
330
70
100
AcDbSymbolTableRecord
100
AcDbRegAppTableRecord
  2
ACAD
 70
     0
  0
APPID
  5
1D58
330
70
100
AcDbSymbolTableRecord
100
AcDbRegAppTableRecord
  2
ACAD_MLEADERVER
 70
     0
  0
APPID
  5
1D5E
330
70
100
AcDbSymbolTableRecord
100
AcDbRegAppTableRecord
  2
ACAD_EXEMPT_FROM_CAD_STANDARDS
 70
     0
  0
APPID
  5
1DE6
330
70
100
AcDbSymbolTableRecord
100
AcDbRegAppTableRecord
  2
ACAD_DSTYLE_DIMRADIAL_EXTENSION
 70
     0
  0
ENDTAB
  0
TABLE
  2
DIMSTYLE
  5
72
330
0
100
AcDbSymbolTable
 70
     1
  0
DIMSTYLE
105
73
330
72
100
AcDbSymbolTableRecord
100
AcDbDimStyleTableRecord
  2
STANDARD
 70
     0
  3

  4

  5

  6

  7

 40
2.0
 41
1.8
 42
0.625
 43
3.75
 44
0.8
 45
0.0
 46
0.0
 47
0.0
 48
0.0
140
1.8
141
2.5
142
0.0
143
0.0394
144
1.0
145
0.0
146
1.0
147
0.75
 71
     0
 72
     0
 73
     0
 74
     0
 75
     0
 76
     0
 77
     1
 78
     8
170
     0
171
     4
172
     1
173
     0
174
     0
175
     0
176
     0
177
     0
178
     0
270
     8
271
     2
272
     2
273
     8
274
     4
340
16
275
     0
280
     0
281
     0
282
     0
283
     1
284
     0
285
     0
286
     0
287
     3
288
     0
  0
ENDTAB
  0
TABLE
  2
BLOCK_RECORD
  5
1
330
0
100
AcDbSymbolTable
 70
    56
  0
BLOCK_RECORD
  5
2
102
{ACAD_XDICTIONARY
360
1EF1
102
}
330
1
100
AcDbSymbolTableRecord
100
AcDbBlockTableRecord
  2
*MODEL_SPACE
  0
BLOCK_RECORD
  5
1ECA
102
{ACAD_XDICTIONARY
360
1EF3
102
}
330
1
100
AcDbSymbolTableRecord
100
AcDbBlockTableRecord
  2
*PAPER_SPACE
  0
ENDTAB
  0
ENDSEC
  0
SECTION
  2
BLOCKS
  0
BLOCK
  5
5D
330
2
100
AcDbEntity
  8
0
100
AcDbBlockBegin
  2
*MODEL_SPACE
 70
     0
 10
0.0
 20
0.0
 30
0.0
  3
*MODEL_SPACE
  1

  0
ENDBLK
  5
5F
330
2
100
AcDbEntity
  8
0
100
AcDbBlockEnd
  0
BLOCK
  5
1ECC
330
1ECA
100
AcDbEntity
 67
     1
  8
0
100
AcDbBlockBegin
  2
*PAPER_SPACE
 70
     0
 10
0.0
 20
0.0
 30
0.0
  3
*PAPER_SPACE
  1

  0
ENDBLK
  5
1ECD
330
1ECA
100
AcDbEntity
 67
     1
  8
0
100
AcDbBlockEnd
  0
ENDSEC
  0
SECTION
  2
ENTITIES
  0
TEXT
  5
F2E
330
2
100
AcDbEntity
  8
TITLE
100
AcDbText
 10
265.7241749784442
 20
473.0803039201506
 30
0.0
 40
5.0
  1
AFCZ15S-7~10M200S2
100
AcDbText
  0
TEXT
  5
F2F
330
2
100
AcDbEntity
  8
TITLE
100
AcDbText
 10
265.7241749784442
 20
464.5803039201506
 30
0.0
 40
5.0
  1
AFCZ15S-7~10L200S2
100
AcDbText
  0
LINE
  5
F31
330
2
100
AcDbEntity
  8
CENTER
100
AcDbLine
 10
411.5085177708344
 20
262.2329822073263
 30
0.0
 11
584.5085177708331
 21
262.2329822073263
 31
0.0
  0
LINE
  5
F32
330
2
100
AcDbEntity
  8
CENTER
100
AcDbLine
 10
462.5085177708326
 20
313.2329822073263
 30
0.0
 11
462.5085177708326
 21
211.2329822073263
 31
0.0
  0
LINE
  5
F33
330
2
100
AcDbEntity
  8
CENTER
100
AcDbLine
 10
500.5795855826852
 20
300.3040500191789
 30
0.0
 11
424.4374499589541
 21
224.1619143954487
 31
0.0
  0
LINE
  5
F34
330
2
100
AcDbEntity
  8
CENTER
100
AcDbLine
 10
424.4374499589801
 20
300.3040500191798
 30
0.0
 11
500.5795855827102
 21
224.161914395448
 31
0.0
  0
LINE
  5
F35
330
2
100
AcDbEntity
  8
CENTER
100
AcDbLine
 10
462.5085177708326
 20
517.9588716841537
 30
0.0
 11
462.5085177708326
 21
397.9588716841533
 31
0.0
  0
LINE
  5
F36
330
2
100
AcDbEntity
  8
0
100
AcDbLine
 10
534.5085177664635
 20
506.9588716841567
 30
0.0
 11
534.5085177664635
 21
434.9588716841567
 31
0.0
  0
LINE
  5
F37
330
2
100
AcDbEntity
  8
0
100
AcDbLine
 10
432.5085177708326
 20
427.9588716841565
 30
0.0
 11
492.5085177708326
 21
427.9588716841565
 31
0.0
  0
LINE
  5
F38
330
2
100
AcDbEntity
  8
0
100
AcDbLine
 10
427.0234029704891
 20
432.9588716841564
 30
0.0
 11
497.9868967947825
 21
432.9588716841556
 31
0.0
  0
LINE
  5
F39
330
2
100
AcDbEntity
  8
0
100
AcDbLine
 10
432.5085177708326
 20
432.9588716841564
 30
0.0
 11
432.5085177708326
 21
427.9588716841565
 31
0.0
  0
LINE
  5
F3A
330
2
100
AcDbEntity
  8
0
100
AcDbLine
 10
492.5085177708326
 20
432.9588716841564
 30
0.0
 11
492.5085177708326
 21
427.9588716841565
 31
0.0
  0
LINE
  5
F3B
330
2
100
AcDbEntity
  8
CENTER
100
AcDbLine
 10
419.6917819944408
 20
470.9588716841567
 30
0.0
 11
584.5085177708326
 21
470.958871684157
 31
0.0
  0
LINE
  5
F3C
330
2
100
AcDbEntity
  8
0
100
AcDbLine
 10
426.5085177708327
 20
491.9588716844514
 30
0.0
 11
498.1352535472235
 21
491.9588716844498
 31
0.0
  0
LINE
  5
F3D
330
2
100
AcDbEntity
  8
0
100
AcDbLine
 10
512.9575168583563
 20
497.5112255807687
 30
0.0
 11
512.2622190017421
 21
470.9588716841567
 31
0.0
  0
LINE
  5
F3E
330
2
100
AcDbEntity
  8
0
100
AcDbLine
 10
498.1352535472226
 20
491.9588716844505
 30
0.0
 11
498.6352535474309
 21
491.4588716842424
 31
0.0
  0
LINE
  5
F3F
330
2
100
AcDbEntity
  8
0
100
AcDbLine
 10
509.8765597811482
 20
491.4588716842431
 30
0.0
 11
498.6352535474309
 21
491.4588716842424
 31
0.0
  0
ARC
  5
F40
330
2
100
AcDbEntity
  8
0
100
AcDbCircle
 10
514.9568315083072
 20
497.458871684153
 30
0.0
 40
2.0
100
AcDbArc
 50
90.0
 51
178.4999999999973
  0
LINE
  5
F41
330
2
100
AcDbEntity
  8
0
100
AcDbLine
 10
426.5085177708327
 20
491.9588716844514
 30
0.0
 11
427.0234029704891
 21
432.9588716841564
 31
0.0
  0
CIRCLE
  5
F42
330
2
100
AcDbEntity
  8
0
100
AcDbCircle
 10
462.5085177708345
 20
262.2329822073274
 30
0.0
 40
19.0
  0
CIRCLE
  5
F43
330
2
100
AcDbEntity
  8
0
100
AcDbCircle
 10
462.5085177708345
 20
262.2329822073274
 30
0.0
 40
24.00000000000017
  0
CIRCLE
  5
F44
330
2
100
AcDbEntity
  8
0
100
AcDbCircle
 10
462.5085177708345
 20
262.2329822073274
 30
0.0
 40
30.0
  0
CIRCLE
  5
F45
330
2
100
AcDbEntity
  8
0
100
AcDbCircle
 10
431.3958193986265
 20
231.1202838351193
 30
0.0
 40
2.1
  0
CIRCLE
  5
F46
330
2
100
AcDbEntity
  8
0
100
AcDbCircle
 10
431.3958193986265
 20
293.3456805795358
 30
0.0
 40
2.1
  0
LINE
  5
F47
330
2
100
AcDbEntity
  8
0
100
AcDbLine
 10
522.5085177708336
 20
296.7329822073259
 30
0.0
 11
522.5085177708336
 21
227.7329822073261
 31
0.0
  0
LINE
  5
F48
330
2
100
AcDbEntity
  8
0
100
AcDbLine
 10
534.5085177708326
 20
298.7329822073259
 30
0.0
 11
534.5085177708326
 21
225.7329822073261
 31
0.0
  0
CIRCLE
  5
F49
330
2
100
AcDbEntity
  8
0
100
AcDbCircle
 10
493.6212161430423
 20
231.1202838351193
 30
0.0
 40
2.1
  0
LINE
  5
F4A
330
2
100
AcDbEntity
  8
0
100
AcDbLine
 10
524.5085177708335
 20
226.2329822073261
 30
0.0
 11
534.5085177708336
 21
226.2329822073261
 31
0.0
  0
ARC
  5
F4B
330
2
100
AcDbEntity
  8
0
100
AcDbCircle
 10
524.5085177708335
 20
228.2329822073261
 30
0.0
 40
2.0
100
AcDbArc
 50
180.0
 51
270.0
  0
CIRCLE
  5
F4C
330
2
100
AcDbEntity
  8
0
100
AcDbCircle
 10
493.6212161430423
 20
293.3456805795356
 30
0.0
 40
2.1
  0
LINE
  5
F4D
330
2
100
AcDbEntity
  8
0
100
AcDbLine
 10
534.5085177708336
 20
298.2329822073259
 30
0.0
 11
524.5085177708335
 21
298.2329822073259
 31
0.0
  0
ARC
  5
F4E
330
2
100
AcDbEntity
  8
0
100
AcDbCircle
 10
524.5085177708335
 20
296.2329822073259
 30
0.0
 40
2.0
100
AcDbArc
 50
90.0
 51
180.0
  0
CIRCLE
  5
F4F
330
2
100
AcDbEntity
  8
CENTER
100
AcDbCircle
 10
462.5085177708345
 20
262.2329822073263
 30
0.0
 40
44.0
  0
CIRCLE
  5
F50
330
2
100
AcDbEntity
  8
HOJO
100
AcDbCircle
 10
431.3958193986265
 20
293.3456805795346
 30
0.0
 40
2.5
  0
CIRCLE
  5
F51
330
2
100
AcDbEntity
  8
HOJO
100
AcDbCircle
 10
493.6212161430432
 20
293.3456805795365
 30
0.0
 40
2.5
  0
CIRCLE
  5
F52
330
2
100
AcDbEntity
  8
HOJO
100
AcDbCircle
 10
493.6212161430432
 20
231.1202838351202
 30
0.0
 40
2.5
  0
CIRCLE
  5
F53
330
2
100
AcDbEntity
  8
HOJO
100
AcDbCircle
 10
431.3958193986247
 20
231.1202838351198
 30
0.0
 40
2.5
  0
LINE
  5
F54
330
2
100
AcDbEntity
  8
CENTER
100
AcDbLine
 10
437.8958193986266
 20
293.3456805795349
 30
0.0
 11
424.8958193986266
 21
293.3456805795349
 31
0.0
  0
LINE
  5
F55
330
2
100
AcDbEntity
  8
CENTER
100
AcDbLine
 10
431.3958193986265
 20
299.8456805795349
 30
0.0
 11
431.3958193986265
 21
286.8456805795349
 31
0.0
  0
LINE
  5
F56
330
2
100
AcDbEntity
  8
CENTER
100
AcDbLine
 10
437.8958193986266
 20
231.1202838351198
 30
0.0
 11
424.8958193986266
 21
231.1202838351198
 31
0.0
  0
LINE
  5
F57
330
2
100
AcDbEntity
  8
CENTER
100
AcDbLine
 10
431.3958193986265
 20
237.6202838351198
 30
0.0
 11
431.3958193986265
 21
224.6202838351198
 31
0.0
  0
LINE
  5
F58
330
2
100
AcDbEntity
  8
CENTER
100
AcDbLine
 10
500.1212161430433
 20
231.1202838351205
 30
0.0
 11
487.1212161430433
 21
231.1202838351205
 31
0.0
  0
LINE
  5
F59
330
2
100
AcDbEntity
  8
CENTER
100
AcDbLine
 10
493.6212161430432
 20
237.6202838351205
 30
0.0
 11
493.6212161430432
 21
224.6202838351205
 31
0.0
  0
LINE
  5
F5A
330
2
100
AcDbEntity
  8
CENTER
100
AcDbLine
 10
500.1212161430414
 20
293.3456805795356
 30
0.0
 11
487.1212161430414
 21
293.3456805795356
 31
0.0
  0
LINE
  5
F5B
330
2
100
AcDbEntity
  8
CENTER
100
AcDbLine
 10
493.6212161430415
 20
299.8456805795356
 30
0.0
 11
493.6212161430415
 21
286.8456805795356
 31
0.0
  0
ARC
  5
F5C
330
2
100
AcDbEntity
  8
0
100
AcDbCircle
 10
434.5085177708326
 20
231.2329822073227
 30
0.0
 40
5.0
100
AcDbArc
 50
270.0
 51
283.8418243184201
  0
ARC
  5
F5D
330
2
100
AcDbEntity
  8
0
100
AcDbCircle
 10
462.5085177708354
 20
386.2329822073263
 30
0.0
 40
160.0
100
AcDbArc
 50
264.0709145121236
 51
275.9290854878763
  0
ARC
  5
F5E
330
2
100
AcDbEntity
  8
0
100
AcDbCircle
 10
442.8819980908513
 20
197.2493857624163
 30
0.0
 40
30.0
100
AcDbArc
 50
84.07091451212361
 51
103.8418243184202
  0
ARC
  5
F5F
330
2
100
AcDbEntity
  8
0
100
AcDbCircle
 10
482.135037450814
 20
197.2493857624163
 30
0.0
 40
30.0
100
AcDbArc
 50
76.15817568157976
 51
95.92908548787638
  0
LINE
  5
F60
330
2
100
AcDbEntity
  8
0
100
AcDbLine
 10
490.5085177708326
 20
226.2329822073227
 30
0.0
 11
493.5085177708327
 21
226.2329822073227
 31
0.0
  0
ARC
  5
F61
330
2
100
AcDbEntity
  8
0
100
AcDbCircle
 10
490.5085177708326
 20
231.2329822073227
 30
0.0
 40
5.0
100
AcDbArc
 50
256.1581756815797
 51
270.0
  0
ARC
  5
F62
330
2
100
AcDbEntity
  8
0
100
AcDbCircle
 10
493.5085177708327
 20
231.2329822073013
 30
0.0
 40
5.0
100
AcDbArc
 50
270.0
 51
0.0
  0
LINE
  5
F63
330
2
100
AcDbEntity
  8
0
100
AcDbLine
 10
498.5085177708326
 20
293.2329822073006
 30
0.0
 11
498.5085177708326
 21
231.2329822073013
 31
0.0
  0
LINE
  5
F64
330
2
100
AcDbEntity
  8
0
100
AcDbLine
 10
434.5085177708326
 20
226.2329822073227
 30
0.0
 11
431.5085177708327
 21
226.2329822073227
 31
0.0
  0
ARC
  5
F65
330
2
100
AcDbEntity
  8
0
100
AcDbCircle
 10
431.5085177708327
 20
231.2329822073013
 30
0.0
 40
5.0
100
AcDbArc
 50
180.0
 51
270.0
  0
LINE
  5
F66
330
2
100
AcDbEntity
  8
0
100
AcDbLine
 10
426.5085177708327
 20
234.2329822073227
 30
0.0
 11
426.5085177708327
 21
231.2329822073013
 31
0.0
  0
ARC
  5
F67
330
2
100
AcDbEntity
  8
0
100
AcDbCircle
 10
431.5085177708327
 20
234.2329822073227
 30
0.0
 40
5.0
100
AcDbArc
 50
166.1581756815797
 51
180.0
  0
ARC
  5
F68
330
2
100
AcDbEntity
  8
0
100
AcDbCircle
 10
397.524921325926
 20
242.6064625273411
 30
0.0
 40
30.0
100
AcDbArc
 50
346.1581756815797
 51
5.929085487861648
  0
ARC
  5
F69
330
2
100
AcDbEntity
  8
0
100
AcDbCircle
 10
586.5085177708326
 20
262.2329822073229
 30
0.0
 40
160.0
100
AcDbArc
 50
174.0709145121383
 51
185.9290854878616
  0
LINE
  5
F6A
330
2
100
AcDbEntity
  8
0
100
AcDbLine
 10
426.5085177708327
 20
290.2329822073231
 30
0.0
 11
426.5085177708327
 21
293.2329822073013
 31
0.0
  0
ARC
  5
F6B
330
2
100
AcDbEntity
  8
0
100
AcDbCircle
 10
397.524921325926
 20
281.8595018873047
 30
0.0
 40
30.0
100
AcDbArc
 50
354.0709145121383
 51
13.84182431842024
  0
ARC
  5
F6C
330
2
100
AcDbEntity
  8
0
100
AcDbCircle
 10
431.5085177708327
 20
290.2329822073231
 30
0.0
 40
5.0
100
AcDbArc
 50
180.0
 51
193.8418243184202
  0
ARC
  5
F6D
330
2
100
AcDbEntity
  8
0
100
AcDbCircle
 10
431.5085177708327
 20
293.2329822073013
 30
0.0
 40
5.0
100
AcDbArc
 50
90.0
 51
180.0
  0
ARC
  5
F6E
330
2
100
AcDbEntity
  8
0
100
AcDbCircle
 10
434.5085177708326
 20
293.2329822073229
 30
0.0
 40
5.0
100
AcDbArc
 50
76.15817568157976
 51
90.0
  0
LINE
  5
F6F
330
2
100
AcDbEntity
  8
0
100
AcDbLine
 10
434.5085177708326
 20
298.2329822073229
 30
0.0
 11
431.5085177708327
 21
298.2329822073229
 31
0.0
  0
ARC
  5
F70
330
2
100
AcDbEntity
  8
0
100
AcDbCircle
 10
442.8819980908513
 20
327.2165786522293
 30
0.0
 40
30.0
100
AcDbArc
 50
256.1581756815797
 51
275.9290854878763
  0
ARC
  5
F71
330
2
100
AcDbEntity
  8
0
100
AcDbCircle
 10
462.5085177708363
 20
138.2329822073263
 30
0.0
 40
160.0
100
AcDbArc
 50
84.07091451212361
 51
95.92908548787638
  0
ARC
  5
F72
330
2
100
AcDbEntity
  8
0
100
AcDbCircle
 10
482.135037450814
 20
327.2165786522293
 30
0.0
 40
30.0
100
AcDbArc
 50
264.0709145121236
 51
283.8418243184201
  0
LINE
  5
F73
330
2
100
AcDbEntity
  8
0
100
AcDbLine
 10
490.5085177708326
 20
298.2329822073229
 30
0.0
 11
493.5085177708327
 21
298.2329822073229
 31
0.0
  0
ARC
  5
F74
330
2
100
AcDbEntity
  8
0
100
AcDbCircle
 10
490.5085177708326
 20
293.2329822073229
 30
0.0
 40
5.0
100
AcDbArc
 50
90.0
 51
103.8418243184202
  0
ARC
  5
F75
330
2
100
AcDbEntity
  8
0
100
AcDbCircle
 10
493.5085177708327
 20
293.2329822073006
 30
0.0
 40
5.0
100
AcDbArc
 50
0.0
 51
90.0
  0
ARC
  5
F76
330
2
100
AcDbEntity
  8
0
100
AcDbCircle
 10
501.5085177708363
 20
236.7329822073263
 30
0.0
 40
3.0
100
AcDbArc
 50
90.0
 51
180.0
  0
ARC
  5
F77
330
2
100
AcDbEntity
  8
0
100
AcDbCircle
 10
515.0085177708372
 20
235.73298220733
 30
0.0
 40
2.0
100
AcDbArc
 50
180.0000000000065
 51
270.0
  0
LINE
  5
F78
330
2
100
AcDbEntity
  8
0
100
AcDbLine
 10
501.5085177708363
 20
239.7329822073263
 30
0.0
 11
510.0085177708435
 21
239.7329822073263
 31
0.0
  0
ARC
  5
F79
330
2
100
AcDbEntity
  8
0
100
AcDbCircle
 10
510.0085177708435
 20
236.7329822073263
 30
0.0
 40
3.0
100
AcDbArc
 50
0.0000000000065138
 51
90.0
  0
ARC
  5
F7A
330
2
100
AcDbEntity
  8
0
100
AcDbCircle
 10
501.5085177708363
 20
287.7329822073263
 30
0.0
 40
3.0
100
AcDbArc
 50
180.0
 51
270.0
  0
LINE
  5
F7B
330
2
100
AcDbEntity
  8
0
100
AcDbLine
 10
501.5085177708363
 20
284.7329822073263
 30
0.0
 11
510.0085177708381
 21
284.7329822073263
 31
0.0
  0
ARC
  5
F7C
330
2
100
AcDbEntity
  8
0
100
AcDbCircle
 10
515.0085177708372
 20
288.7329822073226
 30
0.0
 40
2.0
100
AcDbArc
 50
90.0
 51
180.0000000000065
  0
ARC
  5
F7D
330
2
100
AcDbEntity
  8
0
100
AcDbCircle
 10
510.0085177708381
 20
287.7329822073263
 30
0.0
 40
3.0
100
AcDbArc
 50
270.0
 51
0.0
  0
LINE
  5
F7E
330
2
100
AcDbEntity
  8
0
100
AcDbLine
 10
513.0085177708435
 20
235.7329822073297
 30
0.0
 11
513.0085177708372
 21
288.7329822073222
 31
0.0
  0
LINE
  5
F7F
330
2
100
AcDbEntity
  8
0
100
AcDbLine
 10
519.5085177708326
 20
290.7329822073227
 30
0.0
 11
515.0085177708372
 21
290.7329822073227
 31
0.0
  0
LINE
  5
F80
330
2
100
AcDbEntity
  8
0
100
AcDbLine
 10
519.5085177708326
 20
233.73298220733
 30
0.0
 11
515.0085177708372
 21
233.73298220733
 31
0.0
  0
ARC
  5
F81
330
2
100
AcDbEntity
  8
0
100
AcDbCircle
 10
519.5085177708326
 20
230.7329822073299
 30
0.0
 40
3.0
100
AcDbArc
 50
0.0
 51
90.0
  0
ARC
  5
F82
330
2
100
AcDbEntity
  8
0
100
AcDbCircle
 10
519.5085177708326
 20
293.7329822073227
 30
0.0
 40
3.0
100
AcDbArc
 50
270.0
 51
0.0
  0
LINE
  5
F83
330
2
100
AcDbEntity
  8
0
100
AcDbLine
 10
501.5085177708327
 20
264.7329822073263
 30
0.0
 11
510.0085177708399
 21
264.7329822073263
 31
0.0
  0
ARC
  5
F84
330
2
100
AcDbEntity
  8
0
100
AcDbCircle
 10
514.9568315083072
 20
444.4588716841604
 30
0.0
 40
2.0
100
AcDbArc
 50
181.5000000000027
 51
270.0
  0
LINE
  5
F85
330
2
100
AcDbEntity
  8
0
100
AcDbLine
 10
512.9575168583563
 20
444.4065177875447
 30
0.0
 11
512.2622190017421
 21
470.9588716841567
 31
0.0
  0
ARC
  5
F86
330
2
100
AcDbEntity
  8
0
100
AcDbCircle
 10
509.928931624285
 20
445.4588716841564
 30
0.0
 40
3.0
100
AcDbArc
 50
1.500000000002716
 51
90.0
  0
LINE
  5
F87
330
2
100
AcDbEntity
  8
0
100
AcDbLine
 10
501.096096877324
 20
448.4588716841565
 30
0.0
 11
509.928931624285
 21
448.4588716841565
 31
0.0
  0
LINE
  5
F88
330
2
100
AcDbEntity
  8
0
100
AcDbLine
 10
501.2706342331386
 20
473.4588716841567
 30
0.0
 11
509.4052131928995
 21
473.4588716841567
 31
0.0
  0
ARC
  5
F89
330
2
100
AcDbEntity
  8
0
100
AcDbCircle
 10
501.2706342331386
 20
476.4588716841567
 30
0.0
 40
3.0
100
AcDbArc
 50
180.4999999999981
 51
270.0
  0
ARC
  5
F8A
330
2
100
AcDbEntity
  8
0
100
AcDbCircle
 10
509.8765597811473
 20
494.4588716842431
 30
0.0
 40
3.0
100
AcDbArc
 50
270.0
 51
358.4999999999972
  0
ARC
  5
F8B
330
2
100
AcDbEntity
  8
0
100
AcDbCircle
 10
510.0085177708399
 20
267.7329822073263
 30
0.0
 40
3.0
100
AcDbArc
 50
270.0
 51
0.0000000000065138
  0
ARC
  5
F8C
330
2
100
AcDbEntity
  8
0
100
AcDbCircle
 10
501.5085177708327
 20
267.7329822073263
 30
0.0
 40
3.0
100
AcDbArc
 50
180.0
 51
270.0
  0
ARC
  5
F8D
330
2
100
AcDbEntity
  8
0
100
AcDbCircle
 10
501.5085177708327
 20
256.7329822073259
 30
0.0
 40
3.0
100
AcDbArc
 50
90.0
 51
180.0
  0
LINE
  5
F8E
330
2
100
AcDbEntity
  8
0
100
AcDbLine
 10
501.5085177708327
 20
259.7329822073259
 30
0.0
 11
510.0085177708399
 21
259.7329822073261
 31
0.0
  0
ARC
  5
F8F
330
2
100
AcDbEntity
  8
0
100
AcDbCircle
 10
510.0085177708399
 20
256.7329822073261
 30
0.0
 40
3.0
100
AcDbArc
 50
359.9999999999934
 51
90.0
  0
LINE
  5
F90
330
2
100
AcDbEntity
  8
0
100
AcDbLine
 10
512.0085177708372
 20
234.7329822073304
 30
0.0
 11
501.5085177708327
 21
234.7329822073306
 31
0.0
  0
ARC
  5
F91
330
2
100
AcDbEntity
  8
0
100
AcDbCircle
 10
512.0085177708372
 20
231.7329822073304
 30
0.0
 40
3.0
100
AcDbArc
 50
53.13010235412992
 51
90.0
  0
ARC
  5
F92
330
2
100
AcDbEntity
  8
0
100
AcDbCircle
 10
501.5085177708327
 20
231.7329822073306
 30
0.0
 40
3.0
100
AcDbArc
 50
90.0
 51
180.0
  0
ARC
  5
F93
330
2
100
AcDbEntity
  8
0
100
AcDbCircle
 10
501.5085177708327
 20
292.732982207322
 30
0.0
 40
3.0
100
AcDbArc
 50
180.0
 51
270.0
  0
LINE
  5
F94
330
2
100
AcDbEntity
  8
0
100
AcDbLine
 10
512.0085177708372
 20
289.7329822073222
 30
0.0
 11
501.5085177708327
 21
289.732982207322
 31
0.0
  0
ARC
  5
F95
330
2
100
AcDbEntity
  8
0
100
AcDbCircle
 10
512.0085177708372
 20
292.7329822073222
 30
0.0
 40
3.0
100
AcDbArc
 50
270.0
 51
306.86989764587
  0
ARC
  5
F96
330
2
100
AcDbEntity
  8
0
100
AcDbCircle
 10
509.4052131928995
 20
476.4588716841567
 30
0.0
 40
3.0
100
AcDbArc
 50
270.0
 51
358.4999999999972
  0
LINE
  5
F97
330
2
100
AcDbEntity
  8
0
100
AcDbLine
 10
501.2773700095324
 20
468.4588716841565
 30
0.0
 11
509.4052131928995
 21
468.4588716841567
 31
0.0
  0
ARC
  5
F98
330
2
100
AcDbEntity
  8
0
100
AcDbCircle
 10
509.4052131928995
 20
465.4588716841567
 30
0.0
 40
3.0
100
AcDbArc
 50
1.500000000002716
 51
90.0
  0
LINE
  5
F99
330
2
100
AcDbEntity
  8
0
100
AcDbLine
 10
501.0524625383702
 20
443.4588716841565
 30
0.0
 11
511.9568315083117
 21
443.4588716841567
 31
0.0
  0
ARC
  5
F9A
330
2
100
AcDbEntity
  8
0
100
AcDbCircle
 10
511.9568315083117
 20
440.4588716841567
 30
0.0
 40
3.0
100
AcDbArc
 50
53.1301023542602
 51
90.0
  0
LINE
  5
F9B
330
2
100
AcDbEntity
  8
0
100
AcDbLine
 10
440.4398953204447
 20
414.9588716841569
 30
0.0
 11
484.5771402212169
 21
414.9588716841567
 31
0.0
  0
LINE
  5
F9C
330
2
100
AcDbEntity
  8
0
100
AcDbLine
 10
438.1219518718619
 20
426.0286706775616
 30
0.0
 11
438.4411136664068
 21
416.8890726907518
 31
0.0
  0
LINE
  5
F9D
330
2
100
AcDbEntity
  8
0
100
AcDbLine
 10
486.8950836697997
 20
426.0286706775616
 30
0.0
 11
486.5759218752548
 21
416.8890726907518
 31
0.0
  0
ARC
  5
F9E
330
2
100
AcDbEntity
  8
0
100
AcDbCircle
 10
440.4398953204447
 20
416.9588716841567
 30
0.0
 40
2.0
100
AcDbArc
 50
181.9999999999971
 51
270.0
  0
ARC
  5
F9F
330
2
100
AcDbEntity
  8
0
100
AcDbCircle
 10
484.5771402212169
 20
416.9588716841567
 30
0.0
 40
2.0
100
AcDbArc
 50
270.0
 51
357.9999999999963
  0
ARC
  5
FA0
330
2
100
AcDbEntity
  8
0
100
AcDbCircle
 10
488.8938653238376
 20
425.9588716841567
 30
0.0
 40
2.0
100
AcDbArc
 50
90.0
 51
177.9999999999963
  0
ARC
  5
FA1
330
2
100
AcDbEntity
  8
0
100
AcDbCircle
 10
436.123170217824
 20
425.9588716841567
 30
0.0
 40
2.0
100
AcDbArc
 50
1.99999999999713
 51
90.0
  0
LINE
  5
FA2
330
2
100
AcDbEntity
  8
0
100
AcDbLine
 10
490.5216107316085
 20
491.9588716844498
 30
0.0
 11
491.0460146305151
 21
471.9326947358488
 31
0.0
  0
ARC
  5
FA3
330
2
100
AcDbEntity
  8
0
100
AcDbCircle
 10
492.0456719554906
 20
471.9588716841567
 30
0.0
 40
1.0
100
AcDbArc
 50
181.5000000000027
 51
270.0
  0
LINE
  5
FA4
330
2
100
AcDbEntity
  8
0
100
AcDbLine
 10
434.5085177708326
 20
491.4588716841564
 30
0.0
 11
434.5085177708326
 21
434.4588336072209
 31
0.0
  0
LINE
  5
FA5
330
2
100
AcDbEntity
  8
0
100
AcDbLine
 10
431.5085177708327
 20
491.4588716841564
 30
0.0
 11
431.5085177708327
 21
434.4588336072209
 31
0.0
  0
LINE
  5
FA6
330
2
100
AcDbEntity
  8
0
100
AcDbLine
 10
490.5085177708326
 20
470.9588716841567
 30
0.0
 11
490.5085177708326
 21
434.4588336072209
 31
0.0
  0
LINE
  5
FA7
330
2
100
AcDbEntity
  8
0
100
AcDbLine
 10
493.5085177708308
 20
470.9588716841567
 30
0.0
 11
493.5085177708327
 21
434.4588336072209
 31
0.0
  0
LINE
  5
FA8
330
2
100
AcDbEntity
  8
0
100
AcDbLine
 10
445.9809222508477
 20
491.4588716841564
 30
0.0
 11
445.9809222508477
 21
434.4588336072209
 31
0.0
  0
LINE
  5
FA9
330
2
100
AcDbEntity
  8
0
100
AcDbLine
 10
479.0361132908158
 20
491.4588716841564
 30
0.0
 11
479.0361132908158
 21
434.4588336072209
 31
0.0
  0
LINE
  5
FAA
330
2
100
AcDbEntity
  8
0
100
AcDbLine
 10
521.5658245943207
 20
470.9588716841567
 30
0.0
 11
534.5085177664635
 21
470.9588716841567
 31
0.0
  0
LINE
  5
FAB
330
2
100
AcDbEntity
  8
0
100
AcDbLine
 10
524.4568315126755
 20
506.9588716841567
 30
0.0
 11
534.5085177664635
 21
506.9588716841567
 31
0.0
  0
LINE
  5
FAC
330
2
100
AcDbEntity
  8
0
100
AcDbLine
 10
524.4568315126755
 20
434.9588716841567
 30
0.0
 11
534.5085177664635
 21
434.9588716841567
 31
0.0
  0
LINE
  5
FAD
330
2
100
AcDbEntity
  8
0
100
AcDbLine
 10
514.9568315126755
 20
499.4588716841567
 30
0.0
 11
519.3896527462977
 21
499.4588716841567
 31
0.0
  0
ARC
  5
FAE
330
2
100
AcDbEntity
  8
0
100
AcDbCircle
 10
519.3896527462977
 20
502.4588716841567
 30
0.0
 40
3.0
100
AcDbArc
 50
270.0
 51
358.4999999999972
  0
ARC
  5
FAF
330
2
100
AcDbEntity
  8
0
100
AcDbCircle
 10
524.4568315126755
 20
504.9588716841567
 30
0.0
 40
2.0
100
AcDbArc
 50
90.0
 51
178.4999999999842
  0
LINE
  5
FB0
330
2
100
AcDbEntity
  8
0
100
AcDbLine
 10
522.4575168627246
 20
505.0112255807737
 30
0.0
 11
521.5658245943207
 21
470.9588716841567
 31
0.0
  0
LINE
  5
FB1
330
2
100
AcDbEntity
  8
0
100
AcDbLine
 10
514.9568315126755
 20
442.4588716841567
 30
0.0
 11
519.3896527462977
 21
442.4588716841567
 31
0.0
  0
ARC
  5
FB2
330
2
100
AcDbEntity
  8
0
100
AcDbCircle
 10
519.3896527462977
 20
439.4588716841567
 30
0.0
 40
3.0
100
AcDbArc
 50
1.500000000002716
 51
90.0
  0
ARC
  5
FB3
330
2
100
AcDbEntity
  8
0
100
AcDbCircle
 10
524.4568315126755
 20
436.9588716841567
 30
0.0
 40
2.0
100
AcDbArc
 50
181.5000000000157
 51
270.0
  0
LINE
  5
FB4
330
2
100
AcDbEntity
  8
0
100
AcDbLine
 10
522.4575168627246
 20
436.9065177875397
 30
0.0
 11
521.5658245943207
 21
470.9588716841567
 31
0.0
  0
LINE
  5
FB5
330
2
100
AcDbEntity
  8
0
100
AcDbLine
 10
460.2767144100464
 20
233.2329822073177
 30
0.0
 11
461.176714797961
 21
233.2329822073177
 31
0.0
  0
LINE
  5
FB6
330
2
100
AcDbEntity
  8
0
100
AcDbLine
 10
461.5267144100455
 20
235.7329822073154
 30
0.0
 11
460.2767144100464
 21
233.2329822073177
 31
0.0
  0
ARC
  5
FB7
330
2
100
AcDbEntity
  8
0
100
AcDbCircle
 10
463.6016916725432
 20
234.8829822073162
 30
0.0
 40
0.8499999999992269
100
AcDbArc
 50
307.5189678668038
 51
90.0
  0
LINE
  5
FB8
330
2
100
AcDbEntity
  8
0
100
AcDbLine
 10
464.1193621036866
 20
234.2088032068131
 30
0.0
 11
464.7403211286394
 21
233.2329822073177
 31
0.0
  0
LINE
  5
FB9
330
2
100
AcDbEntity
  8
0
100
AcDbLine
 10
463.8403207407256
 20
233.2329822073177
 30
0.0
 11
464.7403211286394
 21
233.2329822073177
 31
0.0
  0
LINE
  5
FBA
330
2
100
AcDbEntity
  8
0
100
AcDbLine
 10
462.001714410045
 20
233.2329822073177
 30
0.0
 11
462.7516916725446
 21
233.2329822073177
 31
0.0
  0
LINE
  5
FBB
330
2
100
AcDbEntity
  8
0
100
AcDbLine
 10
461.364214797961
 20
233.6079822073172
 30
0.0
 11
461.176714797961
 21
233.2329822073177
 31
0.0
  0
LINE
  5
FBC
330
2
100
AcDbEntity
  8
0
100
AcDbLine
 10
461.364214797961
 20
233.6079822073172
 30
0.0
 11
462.001714410045
 21
233.6079822073172
 31
0.0
  0
LINE
  5
FBD
330
2
100
AcDbEntity
  8
0
100
AcDbLine
 10
462.001714410045
 20
233.6079822073172
 30
0.0
 11
462.001714410045
 21
233.2329822073177
 31
0.0
  0
LINE
  5
FBE
330
2
100
AcDbEntity
  8
0
100
AcDbLine
 10
461.7642147979607
 20
234.4079822073165
 30
0.0
 11
462.001714410045
 21
234.4079822073165
 31
0.0
  0
LINE
  5
FBF
330
2
100
AcDbEntity
  8
0
100
AcDbLine
 10
462.001714410045
 20
234.882981431486
 30
0.0
 11
462.001714410045
 21
234.4079822073165
 31
0.0
  0
LINE
  5
FC0
330
2
100
AcDbEntity
  8
0
100
AcDbLine
 10
462.001714410045
 20
234.882981431486
 30
0.0
 11
461.7642147979607
 21
234.4079822073165
 31
0.0
  0
LINE
  5
FC1
330
2
100
AcDbEntity
  8
0
100
AcDbLine
 10
462.8579644100438
 20
234.7767322073163
 30
0.0
 11
463.8403207407256
 21
233.2329822073177
 31
0.0
  0
LINE
  5
FC2
330
2
100
AcDbEntity
  8
0
100
AcDbLine
 10
462.7516916725446
 20
234.8829822073162
 30
0.0
 11
462.7516916725446
 21
233.2329822073177
 31
0.0
  0
LINE
  5
FC3
330
2
100
AcDbEntity
  8
0
100
AcDbLine
 10
462.7516916725446
 20
234.8829822073162
 30
0.0
 11
463.5485894100431
 21
234.8829822073162
 31
0.0
  0
LINE
  5
FC4
330
2
100
AcDbEntity
  8
0
100
AcDbLine
 10
462.8579644100438
 20
234.7767322073163
 30
0.0
 11
463.5485894100431
 21
234.7767322073163
 31
0.0
  0
ARC
  5
FC5
330
2
100
AcDbEntity
  8
0
100
AcDbCircle
 10
463.5485894100431
 20
234.8298572073163
 30
0.0
 40
0.0531249999999517
100
AcDbArc
 50
270.0
 51
90.0
  0
LINE
  5
FC6
330
2
100
AcDbEntity
  8
0
100
AcDbLine
 10
461.5267144100455
 20
235.7329822073154
 30
0.0
 11
463.6016916725432
 21
235.7329822073154
 31
0.0
  0
LINE
  5
FC7
330
2
100
AcDbEntity
  8
0
100
AcDbLine
 10
534.5085177708336
 20
298.7329822073259
 30
0.0
 11
524.5085177708335
 21
298.7329822073259
 31
0.0
  0
ARC
  5
FC8
330
2
100
AcDbEntity
  8
0
100
AcDbCircle
 10
524.5085177708335
 20
296.7329822073259
 30
0.0
 40
2.0
100
AcDbArc
 50
90.0
 51
180.0
  0
LINE
  5
FC9
330
2
100
AcDbEntity
  8
0
100
AcDbLine
 10
524.5085177708335
 20
225.7329822073261
 30
0.0
 11
534.5085177708336
 21
225.7329822073261
 31
0.0
  0
ARC
  5
FCA
330
2
100
AcDbEntity
  8
0
100
AcDbCircle
 10
524.5085177708335
 20
227.7329822073261
 30
0.0
 40
2.0
100
AcDbArc
 50
180.0
 51
270.0
  0
LINE
  5
FCB
330
2
100
AcDbEntity
  8
CENTER
100
AcDbLine
 10
163.743910373146
 20
219.2329822073256
 30
0.0
 11
163.743910373146
 21
305.2329822073256
 31
0.0
  0
LINE
  5
FCC
330
2
100
AcDbEntity
  8
CENTER
100
AcDbLine
 10
206.743910373146
 20
262.2329822073263
 30
0.0
 11
41.74391037314967
 21
262.2329822073261
 31
0.0
  0
ARC
  5
FCD
330
2
100
AcDbEntity
  8
0
100
AcDbCircle
 10
101.7439103731496
 20
296.2329822073263
 30
0.0
 40
2.0
100
AcDbArc
 50
0.0
 51
90.0
  0
LINE
  5
FCE
330
2
100
AcDbEntity
  8
0
100
AcDbLine
 10
91.74391037314967
 20
225.7329822073263
 30
0.0
 11
91.74391037314967
 21
298.7329822073263
 31
0.0
  0
LINE
  5
FCF
330
2
100
AcDbEntity
  8
0
100
AcDbLine
 10
101.7439103731496
 20
298.2329822073263
 30
0.0
 11
91.74391037314967
 21
298.2329822073263
 31
0.0
  0
LINE
  5
FD0
330
2
100
AcDbEntity
  8
0
100
AcDbLine
 10
103.7439103731496
 20
227.7329822073263
 30
0.0
 11
103.7439103731514
 21
296.7329822073263
 31
0.0
  0
LINE
  5
FD1
330
2
100
AcDbEntity
  8
0
100
AcDbLine
 10
113.2439103731387
 20
288.7329822073229
 30
0.0
 11
113.2439103731451
 21
235.7329822073304
 31
0.0
  0
LINE
  5
FD2
330
2
100
AcDbEntity
  8
0
100
AcDbLine
 10
106.7439103731496
 20
290.7329822073227
 30
0.0
 11
111.2439103731451
 21
290.7329822073227
 31
0.0
  0
ARC
  5
FD3
330
2
100
AcDbEntity
  8
0
100
AcDbCircle
 10
101.7439103731496
 20
228.2329822073263
 30
0.0
 40
2.0
100
AcDbArc
 50
270.0
 51
0.0
  0
LINE
  5
FD4
330
2
100
AcDbEntity
  8
0
100
AcDbLine
 10
106.7439103731496
 20
233.73298220733
 30
0.0
 11
111.2439103731451
 21
233.7329822073302
 31
0.0
  0
LINE
  5
FD5
330
2
100
AcDbEntity
  8
0
100
AcDbLine
 10
91.74391037314967
 20
226.2329822073263
 30
0.0
 11
101.7439103731496
 21
226.2329822073263
 31
0.0
  0
ARC
  5
FD6
330
2
100
AcDbEntity
  8
0
100
AcDbCircle
 10
39.74391037314603
 20
262.2329822073293
 30
0.0
 40
160.0
100
AcDbArc
 50
354.0709145121383
 51
5.929085487861648
  0
LINE
  5
FD7
330
2
100
AcDbEntity
  8
0
100
AcDbLine
 10
199.743910373146
 20
234.2329822073291
 30
0.0
 11
199.743910373146
 21
231.2329822073507
 31
0.0
  0
ARC
  5
FD8
330
2
100
AcDbEntity
  8
0
100
AcDbCircle
 10
228.7275068180526
 20
242.6064625273472
 30
0.0
 40
30.0
100
AcDbArc
 50
174.0709145121383
 51
193.8418243184202
  0
ARC
  5
FD9
330
2
100
AcDbEntity
  8
0
100
AcDbCircle
 10
194.743910373146
 20
234.2329822073291
 30
0.0
 40
5.0
100
AcDbArc
 50
0.0
 51
13.84182431842024
  0
LINE
  5
FDA
330
2
100
AcDbEntity
  8
0
100
AcDbLine
 10
191.743910373146
 20
226.2329822073291
 30
0.0
 11
194.743910373146
 21
226.2329822073291
 31
0.0
  0
ARC
  5
FDB
330
2
100
AcDbEntity
  8
0
100
AcDbCircle
 10
191.743910373146
 20
231.232982207329
 30
0.0
 40
5.0
100
AcDbArc
 50
256.1581756815797
 51
270.0
  0
ARC
  5
FDC
330
2
100
AcDbEntity
  8
0
100
AcDbCircle
 10
183.3704300531282
 20
197.2493857624226
 30
0.0
 40
30.0
100
AcDbArc
 50
76.15817568157976
 51
95.92908548787638
  0
ARC
  5
FDD
330
2
100
AcDbEntity
  8
0
100
AcDbCircle
 10
144.1173906931646
 20
197.2493857624226
 30
0.0
 40
30.0
100
AcDbArc
 50
84.07091451212361
 51
103.8418243184202
  0
LINE
  5
FDE
330
2
100
AcDbEntity
  8
0
100
AcDbLine
 10
135.743910373146
 20
226.2329822073291
 30
0.0
 11
132.743910373146
 21
226.2329822073291
 31
0.0
  0
ARC
  5
FDF
330
2
100
AcDbEntity
  8
0
100
AcDbCircle
 10
135.743910373146
 20
231.232982207329
 30
0.0
 40
5.0
100
AcDbArc
 50
270.0
 51
283.8418243184201
  0
ARC
  5
FE0
330
2
100
AcDbEntity
  8
0
100
AcDbCircle
 10
144.1173906931646
 20
327.2165786522357
 30
0.0
 40
30.0
100
AcDbArc
 50
256.1581756815797
 51
275.9290854878763
  0
LINE
  5
FE1
330
2
100
AcDbEntity
  8
0
100
AcDbLine
 10
135.743910373146
 20
298.2329822073293
 30
0.0
 11
132.743910373146
 21
298.2329822073293
 31
0.0
  0
ARC
  5
FE2
330
2
100
AcDbEntity
  8
0
100
AcDbCircle
 10
135.743910373146
 20
293.2329822073293
 30
0.0
 40
5.0
100
AcDbArc
 50
76.15817568157976
 51
90.0
  0
LINE
  5
FE3
330
2
100
AcDbEntity
  8
0
100
AcDbLine
 10
191.743910373146
 20
298.2329822073293
 30
0.0
 11
194.743910373146
 21
298.2329822073293
 31
0.0
  0
ARC
  5
FE4
330
2
100
AcDbEntity
  8
0
100
AcDbCircle
 10
183.3704300531282
 20
327.2165786522357
 30
0.0
 40
30.0
100
AcDbArc
 50
264.0709145121236
 51
283.8418243184201
  0
ARC
  5
FE5
330
2
100
AcDbEntity
  8
0
100
AcDbCircle
 10
191.743910373146
 20
293.2329822073293
 30
0.0
 40
5.0
100
AcDbArc
 50
90.0
 51
103.8418243184202
  0
LINE
  5
FE6
330
2
100
AcDbEntity
  8
0
100
AcDbLine
 10
199.743910373146
 20
290.2329822073295
 30
0.0
 11
199.743910373146
 21
293.2329822073506
 31
0.0
  0
ARC
  5
FE7
330
2
100
AcDbEntity
  8
0
100
AcDbCircle
 10
228.7275068180526
 20
281.8595018873109
 30
0.0
 40
30.0
100
AcDbArc
 50
166.1581756815797
 51
185.9290854878616
  0
ARC
  5
FE8
330
2
100
AcDbEntity
  8
0
100
AcDbCircle
 10
194.743910373146
 20
290.2329822073295
 30
0.0
 40
5.0
100
AcDbArc
 50
346.1581756815797
 51
0.0
  0
ARC
  5
FE9
330
2
100
AcDbEntity
  8
0
100
AcDbCircle
 10
163.7439103731423
 20
386.2329822073256
 30
0.0
 40
160.0
100
AcDbArc
 50
264.0709145121236
 51
275.9290854878763
  0
ARC
  5
FEA
330
2
100
AcDbEntity
  8
0
100
AcDbCircle
 10
163.7439103731433
 20
138.2329822073256
 30
0.0
 40
160.0
100
AcDbArc
 50
84.07091451212361
 51
95.92908548787638
  0
ARC
  5
FEB
330
2
100
AcDbEntity
  8
0
100
AcDbCircle
 10
194.743910373146
 20
231.2329822073507
 30
0.0
 40
5.0
100
AcDbArc
 50
270.0
 51
0.0
  0
ARC
  5
FEC
330
2
100
AcDbEntity
  8
0
100
AcDbCircle
 10
132.743910373146
 20
231.2329822073513
 30
0.0
 40
5.0
100
AcDbArc
 50
180.0
 51
270.0
  0
ARC
  5
FED
330
2
100
AcDbEntity
  8
0
100
AcDbCircle
 10
132.743910373146
 20
293.2329822073509
 30
0.0
 40
5.0
100
AcDbArc
 50
90.0
 51
180.0
  0
ARC
  5
FEE
330
2
100
AcDbEntity
  8
0
100
AcDbCircle
 10
194.743910373146
 20
293.2329822073506
 30
0.0
 40
5.0
100
AcDbArc
 50
0.0
 51
90.0
  0
LINE
  5
FEF
330
2
100
AcDbEntity
  8
0
100
AcDbLine
 10
127.743910373146
 20
231.2329822073513
 30
0.0
 11
127.7439103731387
 21
293.2329822073502
 31
0.0
  0
LINE
  5
FF0
330
2
100
AcDbEntity
  8
0
100
AcDbLine
 10
124.743910373146
 20
239.7329822073263
 30
0.0
 11
116.2439103731451
 21
239.7329822073263
 31
0.0
  0
LINE
  5
FF1
330
2
100
AcDbEntity
  8
0
100
AcDbLine
 10
124.743910373146
 20
284.7329822073263
 30
0.0
 11
116.2439103731387
 21
284.7329822073263
 31
0.0
  0
ARC
  5
FF2
330
2
100
AcDbEntity
  8
0
100
AcDbCircle
 10
124.743910373146
 20
236.7329822073263
 30
0.0
 40
3.0
100
AcDbArc
 50
0.0
 51
90.0
  0
LINE
  5
FF3
330
2
100
AcDbEntity
  8
0
100
AcDbLine
 10
113.2439103731451
 20
252.9593637118307
 30
0.0
 11
127.743910373146
 21
252.9593637118307
 31
0.0
  0
LINE
  5
FF4
330
2
100
AcDbEntity
  8
0
100
AcDbLine
 10
113.2439103731442
 20
271.5066007028217
 30
0.0
 11
127.743910373146
 21
271.5066007028224
 31
0.0
  0
LINE
  5
FF5
330
2
100
AcDbEntity
  8
0
100
AcDbLine
 10
127.243910373146
 20
252.9593637118307
 30
0.0
 11
127.243910373146
 21
271.5066007028224
 31
0.0
  0
ARC
  5
FF6
330
2
100
AcDbEntity
  8
0
100
AcDbCircle
 10
111.2439103731451
 20
235.7329822073302
 30
0.0
 40
2.0
100
AcDbArc
 50
270.0
 51
0.0000000000065138
  0
ARC
  5
FF7
330
2
100
AcDbEntity
  8
0
100
AcDbCircle
 10
111.2439103731451
 20
288.7329822073226
 30
0.0
 40
2.0
100
AcDbArc
 50
0.0
 51
90.0
  0
ARC
  5
FF8
330
2
100
AcDbEntity
  8
0
100
AcDbCircle
 10
116.2439103731451
 20
236.7329822073263
 30
0.0
 40
3.0
100
AcDbArc
 50
90.0
 51
180.0
  0
ARC
  5
FF9
330
2
100
AcDbEntity
  8
0
100
AcDbCircle
 10
116.2439103731387
 20
287.7329822073263
 30
0.0
 40
3.0
100
AcDbArc
 50
180.0000000000065
 51
270.0
  0
ARC
  5
FFA
330
2
100
AcDbEntity
  8
0
100
AcDbCircle
 10
124.743910373146
 20
287.7329822073263
 30
0.0
 40
3.0
100
AcDbArc
 50
270.0
 51
0.0
  0
ARC
  5
FFB
330
2
100
AcDbEntity
  8
0
100
AcDbCircle
 10
106.7439103731505
 20
230.7329822073299
 30
0.0
 40
3.0
100
AcDbArc
 50
90.0
 51
180.0
  0
ARC
  5
FFC
330
2
100
AcDbEntity
  8
0
100
AcDbCircle
 10
106.7439103731505
 20
293.7329822073229
 30
0.0
 40
3.0
100
AcDbArc
 50
180.0
 51
270.0
  0
LINE
  5
FFD
330
2
100
AcDbEntity
  8
0
100
AcDbLine
 10
114.2439103731451
 20
234.7329822073304
 30
0.0
 11
124.743910373146
 21
234.7329822073309
 31
0.0
  0
ARC
  5
FFE
330
2
100
AcDbEntity
  8
0
100
AcDbCircle
 10
114.2439103731451
 20
231.7329822073304
 30
0.0
 40
3.0
100
AcDbArc
 50
90.0
 51
126.8698976458049
  0
ARC
  5
FFF
330
2
100
AcDbEntity
  8
0
100
AcDbCircle
 10
124.743910373146
 20
231.7329822073308
 30
0.0
 40
3.0
100
AcDbArc
 50
0.0
 51
90.0
  0
ARC
  5
1000
330
2
100
AcDbEntity
  8
0
100
AcDbCircle
 10
124.743910373146
 20
292.732982207322
 30
0.0
 40
3.0
100
AcDbArc
 50
270.0
 51
0.0
  0
LINE
  5
1001
330
2
100
AcDbEntity
  8
0
100
AcDbLine
 10
114.2439103731451
 20
289.7329822073225
 30
0.0
 11
124.743910373146
 21
289.732982207322
 31
0.0
  0
ARC
  5
1002
330
2
100
AcDbEntity
  8
0
100
AcDbCircle
 10
114.2439103731451
 20
292.7329822073224
 30
0.0
 40
3.0
100
AcDbArc
 50
233.1301023541299
 51
270.0
  0
LINE
  5
1003
330
2
100
AcDbEntity
  8
0
100
AcDbLine
 10
91.74391037314967
 20
225.7329822073263
 30
0.0
 11
101.7439103731496
 21
225.7329822073263
 31
0.0
  0
ARC
  5
1004
330
2
100
AcDbEntity
  8
0
100
AcDbCircle
 10
101.7439103731496
 20
227.7329822073263
 30
0.0
 40
2.0
100
AcDbArc
 50
270.0
 51
0.0
  0
LINE
  5
1005
330
2
100
AcDbEntity
  8
0
100
AcDbLine
 10
101.7439103731496
 20
298.7329822073263
 30
0.0
 11
91.74391037314967
 21
298.7329822073263
 31
0.0
  0
ARC
  5
1006
330
2
100
AcDbEntity
  8
0
100
AcDbCircle
 10
101.7439103731496
 20
296.7329822073263
 30
0.0
 40
2.0
100
AcDbArc
 50
0.0
 51
90.0
  0
LINE
  5
1007
330
2
100
AcDbEntity
  8
CENTER
100
AcDbLine
 10
244.1012472610407
 20
262.2329822073097
 30
0.0
 11
380.101247261339
 21
262.2329822073097
 31
0.0
  0
LINE
  5
1008
330
2
100
AcDbEntity
  8
CENTER
100
AcDbLine
 10
307.1012472613358
 20
218.7329822073115
 30
0.0
 11
307.1012472613358
 21
305.7329822073079
 31
0.0
  0
LINE
  5
1009
330
2
100
AcDbEntity
  8
0
100
AcDbLine
 10
345.1012472613367
 20
226.7478674069423
 30
0.0
 11
345.1012472613376
 21
297.7180970076704
 31
0.0
  0
LINE
  5
100A
330
2
100
AcDbEntity
  8
0
100
AcDbLine
 10
350.1012472613358
 20
232.2329822073131
 30
0.0
 11
350.1012472613358
 21
292.2329822073129
 31
0.0
  0
LINE
  5
100B
330
2
100
AcDbEntity
  8
0
100
AcDbLine
 10
345.1012472613358
 20
232.2329822073131
 30
0.0
 11
350.1012472613358
 21
232.2329822073131
 31
0.0
  0
LINE
  5
100C
330
2
100
AcDbEntity
  8
0
100
AcDbLine
 10
345.1012472613358
 20
292.2329822073129
 30
0.0
 11
350.1012472613358
 21
292.2329822073129
 31
0.0
  0
LINE
  5
100D
330
2
100
AcDbEntity
  8
0
100
AcDbLine
 10
363.1012472613395
 20
240.1643597569159
 30
0.0
 11
363.1012472613395
 21
284.3016046576881
 31
0.0
  0
LINE
  5
100E
330
2
100
AcDbEntity
  8
0
100
AcDbLine
 10
352.0314482679343
 20
237.8464163083331
 30
0.0
 11
361.1710462547446
 21
238.165578102878
 31
0.0
  0
LINE
  5
100F
330
2
100
AcDbEntity
  8
0
100
AcDbLine
 10
352.0314482679343
 20
286.61954810627
 30
0.0
 11
361.1710462547446
 21
286.300386311726
 31
0.0
  0
ARC
  5
1010
330
2
100
AcDbEntity
  8
0
100
AcDbCircle
 10
361.1012472613395
 20
240.1643597569159
 30
0.0
 40
2.0
100
AcDbArc
 50
272.0000000000036
 51
0.0
  0
ARC
  5
1011
330
2
100
AcDbEntity
  8
0
100
AcDbCircle
 10
361.1012472613395
 20
284.3016046576881
 30
0.0
 40
2.0
100
AcDbArc
 50
0.0
 51
87.99999999999636
  0
ARC
  5
1012
330
2
100
AcDbEntity
  8
0
100
AcDbCircle
 10
352.1012472613394
 20
288.6183297603079
 30
0.0
 40
2.0
100
AcDbArc
 50
180.0
 51
267.9999999999963
  0
ARC
  5
1013
330
2
100
AcDbEntity
  8
0
100
AcDbCircle
 10
352.1012472613394
 20
235.8476346542952
 30
0.0
 40
2.0
100
AcDbArc
 50
92.00000000000365
 51
180.0
  0
LINE
  5
1014
330
2
100
AcDbEntity
  8
0
100
AcDbLine
 10
286.1012472610411
 20
298.2329822073095
 30
0.0
 11
345.1012472613376
 21
297.7180970076704
 31
0.0
  0
LINE
  5
1015
330
2
100
AcDbEntity
  8
0
100
AcDbLine
 10
286.1012472610411
 20
226.2329822073097
 30
0.0
 11
345.1012472613367
 21
226.7478674069423
 31
0.0
  0
ARC
  5
1016
330
2
100
AcDbEntity
  8
0
100
AcDbCircle
 10
276.1012472613322
 20
231.1640199926969
 30
0.0
 40
5.0
100
AcDbArc
 50
180.0
 51
269.2042764472296
  0
LINE
  5
1017
330
2
100
AcDbEntity
  8
0
100
AcDbLine
 10
276.0318095138793
 20
226.1645021760241
 30
0.0
 11
307.1012472613322
 21
225.7329822073115
 31
0.0
  0
LINE
  5
1018
330
2
100
AcDbEntity
  8
0
100
AcDbLine
 10
338.1706850087805
 20
226.164502176025
 30
0.0
 11
307.101247261334
 21
225.7329822073115
 31
0.0
  0
ARC
  5
1019
330
2
100
AcDbEntity
  8
0
100
AcDbCircle
 10
338.1012472613267
 20
231.1640199926978
 30
0.0
 40
5.0
100
AcDbArc
 50
270.7957235527183
 51
297.0504175270564
  0
ARC
  5
101A
330
2
100
AcDbEntity
  8
0
100
AcDbCircle
 10
276.1012472613322
 20
293.3019444219226
 30
0.0
 40
5.0
100
AcDbArc
 50
90.79572355271826
 51
180.0
  0
LINE
  5
101B
330
2
100
AcDbEntity
  8
0
100
AcDbLine
 10
276.0318095138793
 20
298.3014622385953
 30
0.0
 11
307.1012472613322
 21
298.7329822073079
 31
0.0
  0
LINE
  5
101C
330
2
100
AcDbEntity
  8
0
100
AcDbLine
 10
271.1012472613322
 20
293.3019444219226
 30
0.0
 11
271.1012472613322
 21
285.2329822073106
 31
0.0
  0
LINE
  5
101D
330
2
100
AcDbEntity
  8
0
100
AcDbLine
 10
271.1012472613322
 20
239.232982207309
 30
0.0
 11
271.1012472613322
 21
231.1640199926969
 31
0.0
  0
LINE
  5
101E
330
2
100
AcDbEntity
  8
0
100
AcDbLine
 10
338.1706850087805
 20
298.3014622385944
 30
0.0
 11
307.101247261334
 21
298.7329822073079
 31
0.0
  0
ARC
  5
101F
330
2
100
AcDbEntity
  8
0
100
AcDbCircle
 10
338.1012472613267
 20
293.3019444219216
 30
0.0
 40
5.0
100
AcDbArc
 50
62.9495824730018
 51
89.20427644728171
  0
LINE
  5
1020
330
2
100
AcDbEntity
  8
0
100
AcDbLine
 10
286.1012472610411
 20
298.2286187733968
 30
0.0
 11
286.1012472610411
 21
226.2373456412297
 31
0.0
  0
LINE
  5
1021
330
2
100
AcDbEntity
  8
0
100
AcDbLine
 10
277.6012472610411
 20
236.7329822073102
 30
0.0
 11
277.1012472610411
 21
237.2329822073097
 31
0.0
  0
LINE
  5
1022
330
2
100
AcDbEntity
  8
0
100
AcDbLine
 10
277.6012472610357
 20
236.7329822073152
 30
0.0
 11
277.6012472610357
 21
235.4829822073181
 31
0.0
  0
LINE
  5
1023
330
2
100
AcDbEntity
  8
0
100
AcDbLine
 10
271.801247261041
 20
239.9329822073091
 30
0.0
 11
273.4012472610404
 21
239.9329822073093
 31
0.0
  0
LINE
  5
1024
330
2
100
AcDbEntity
  8
0
100
AcDbLine
 10
273.6012472610411
 20
239.4329822073093
 30
0.0
 11
273.801247261041
 21
239.2329822073093
 31
0.0
  0
LINE
  5
1025
330
2
100
AcDbEntity
  8
0
100
AcDbLine
 10
277.1012472610357
 20
287.2329822073043
 30
0.0
 11
277.1012472610411
 21
237.2329822073097
 31
0.0
  0
LINE
  5
1026
330
2
100
AcDbEntity
  8
0
100
AcDbLine
 10
273.801247261041
 20
239.2329822073093
 30
0.0
 11
277.1012472610411
 21
239.2329822073097
 31
0.0
  0
LINE
  5
1027
330
2
100
AcDbEntity
  8
0
100
AcDbLine
 10
273.6012472610411
 20
239.4329822073093
 30
0.0
 11
273.6012472610411
 21
285.0329822073104
 31
0.0
  0
LINE
  5
1028
330
2
100
AcDbEntity
  8
0
100
AcDbLine
 10
270.1012472610411
 20
239.2329822073088
 30
0.0
 11
269.1012472610411
 21
239.8103324764986
 31
0.0
  0
LINE
  5
1029
330
2
100
AcDbEntity
  8
0
100
AcDbLine
 10
270.1012472610411
 20
239.2329822073088
 30
0.0
 11
271.4012472610404
 21
239.2329822073093
 31
0.0
  0
LINE
  5
102A
330
2
100
AcDbEntity
  8
0
100
AcDbLine
 10
271.6012472610411
 20
239.4329822073091
 30
0.0
 11
271.6012472610921
 21
285.0329822073104
 31
0.0
  0
LINE
  5
102B
330
2
100
AcDbEntity
  8
0
100
AcDbLine
 10
277.101247261042
 20
282.128238521032
 30
0.0
 11
277.101247261042
 21
242.3377258935872
 31
0.0
  0
LINE
  5
102C
330
2
100
AcDbEntity
  8
0
100
AcDbLine
 10
269.1012472610411
 20
284.6556319381215
 30
0.0
 11
269.101247261043
 21
239.8103324764977
 31
0.0
  0
LINE
  5
102D
330
2
100
AcDbEntity
  8
0
100
AcDbLine
 10
271.801247261041
 20
284.5329822073106
 30
0.0
 11
273.4012472610404
 21
284.5329822073103
 31
0.0
  0
LINE
  5
102E
330
2
100
AcDbEntity
  8
0
100
AcDbLine
 10
273.6012472610411
 20
285.0329822073104
 30
0.0
 11
273.801247261041
 21
285.2329822073104
 31
0.0
  0
LINE
  5
102F
330
2
100
AcDbEntity
  8
0
100
AcDbLine
 10
273.801247261041
 20
285.2329822073104
 30
0.0
 11
277.1012472610411
 21
285.23298220731
 31
0.0
  0
LINE
  5
1030
330
2
100
AcDbEntity
  8
0
100
AcDbLine
 10
270.1012472610411
 20
285.2329822073106
 30
0.0
 11
269.1012472610411
 21
284.6556319381211
 31
0.0
  0
LINE
  5
1031
330
2
100
AcDbEntity
  8
0
100
AcDbLine
 10
270.1012472610411
 20
285.2329822073106
 30
0.0
 11
271.4012472610404
 21
285.2329822073106
 31
0.0
  0
LINE
  5
1032
330
2
100
AcDbEntity
  8
HIDS
  6
SEKKEI_H
100
AcDbLine
 10
278.1870336986632
 20
293.3187686449368
 30
0.0
 11
279.015460823409
 21
294.1471957696831
 31
0.0
  0
LINE
  5
1033
330
2
100
AcDbEntity
  8
0
100
AcDbLine
 10
286.1012091833811
 20
298.2329820411635
 30
0.0
 11
280.5925207255379
 21
298.1849084452917
 31
0.0
  0
LINE
  5
1034
330
2
100
AcDbEntity
  8
0
100
AcDbLine
 10
286.1012472610411
 20
298.2329822073095
 30
0.0
 11
286.1012472610411
 21
226.2329822073097
 31
0.0
  0
LINE
  5
1035
330
2
100
AcDbEntity
  8
0
100
AcDbLine
 10
277.6012472610411
 20
287.7329822073095
 30
0.0
 11
277.1012472610357
 21
287.2329822073043
 31
0.0
  0
ARC
  5
1036
330
2
100
AcDbEntity
  8
0
100
AcDbCircle
 10
280.6012472610357
 20
297.2329822073097
 30
0.0
 40
1.0
100
AcDbArc
 50
180.0
 51
180.0
  0
ARC
  5
1037
330
2
100
AcDbEntity
  8
HIDS
  6
SEKKEI_H
100
AcDbCircle
 10
279.6012472610357
 20
291.9045550825637
 30
0.0
 40
2.0
100
AcDbArc
 50
135.0000000000092
 51
180.0
  0
ARC
  5
1038
330
2
100
AcDbEntity
  8
HIDS
  6
SEKKEI_H
100
AcDbCircle
 10
277.6012472610357
 20
295.5614093320562
 30
0.0
 40
2.0
100
AcDbArc
 50
315.0000000000092
 51
0.0
  0
ARC
  5
1039
330
2
100
AcDbEntity
  8
0
100
AcDbCircle
 10
271.4012472610404
 20
285.0329822073104
 30
0.0
 40
0.2
100
AcDbArc
 50
359.9999999999348
 51
90.0
  0
ARC
  5
103A
330
2
100
AcDbEntity
  8
0
100
AcDbCircle
 10
271.801247261041
 20
284.7329822073106
 30
0.0
 40
0.2
100
AcDbArc
 50
180.0000000000651
 51
270.0
  0
ARC
  5
103B
330
2
100
AcDbEntity
  8
0
100
AcDbCircle
 10
273.4012472610404
 20
284.7329822073104
 30
0.0
 40
0.2
100
AcDbArc
 50
270.0
 51
0.0
  0
ARC
  5
103C
330
2
100
AcDbEntity
  8
0
100
AcDbCircle
 10
271.4012472610404
 20
239.4329822073091
 30
0.0
 40
0.2
100
AcDbArc
 50
270.0
 51
359.9999999999348
  0
ARC
  5
103D
330
2
100
AcDbEntity
  8
0
100
AcDbCircle
 10
271.801247261041
 20
239.732982207309
 30
0.0
 40
0.2
100
AcDbArc
 50
90.0
 51
179.9999999999348
  0
ARC
  5
103E
330
2
100
AcDbEntity
  8
0
100
AcDbCircle
 10
273.4012472610404
 20
239.7329822073093
 30
0.0
 40
0.2
100
AcDbArc
 50
0.0
 51
90.0
  0
LINE
  5
103F
330
2
100
AcDbEntity
  8
HIDS
  6
SEKKEI_H
100
AcDbLine
 10
278.1870336986632
 20
231.1471957696826
 30
0.0
 11
279.0154608234099
 21
230.3187686449364
 31
0.0
  0
LINE
  5
1040
330
2
100
AcDbEntity
  8
0
100
AcDbLine
 10
286.1012091833811
 20
226.232982373456
 30
0.0
 11
280.5925207255379
 21
226.2810559693282
 31
0.0
  0
LINE
  5
1041
330
2
100
AcDbEntity
  8
0
100
AcDbLine
 10
279.6012472610366
 20
297.4829822073008
 30
0.0
 11
279.6012472610366
 21
226.9829822073181
 31
0.0
  0
ARC
  5
1042
330
2
100
AcDbEntity
  8
0
100
AcDbCircle
 10
280.6012472610366
 20
227.2810178923921
 30
0.0
 40
1.0
100
AcDbArc
 50
180.0
 51
269.4999999999824
  0
ARC
  5
1043
330
2
100
AcDbEntity
  8
0
100
AcDbCircle
 10
280.6012472610366
 20
297.1849465222273
 30
0.0
 40
1.0
100
AcDbArc
 50
90.50000000001761
 51
180.0
  0
LINE
  5
1044
330
2
100
AcDbEntity
  8
0
100
AcDbLine
 10
277.6012472610366
 20
288.9829822073013
 30
0.0
 11
277.6012472610366
 21
235.4829822073181
 31
0.0
  0
ARC
  5
1045
330
2
100
AcDbEntity
  8
HIDS
  6
SEKKEI_H
100
AcDbCircle
 10
279.6012472610366
 20
232.5614093320557
 30
0.0
 40
2.0
100
AcDbArc
 50
180.0
 51
224.9999999999908
  0
ARC
  5
1046
330
2
100
AcDbEntity
  8
HIDS
  6
SEKKEI_H
100
AcDbCircle
 10
277.6012472610366
 20
228.9045550825633
 30
0.0
 40
2.0
100
AcDbArc
 50
0.0
 51
44.99999999999078
  0
LINE
  5
1047
330
2
100
AcDbEntity
  8
0
100
AcDbLine
 10
345.1012472613376
 20
290.2329822073231
 30
0.0
 11
286.1012472610411
 21
290.2329822073231
 31
0.0
  0
LINE
  5
1048
330
2
100
AcDbEntity
  8
0
100
AcDbLine
 10
345.1012472613376
 20
293.2329822073013
 30
0.0
 11
286.1012472610411
 21
293.2329822073013
 31
0.0
  0
LINE
  5
1049
330
2
100
AcDbEntity
  8
0
100
AcDbLine
 10
345.1012472613376
 20
278.7605777273061
 30
0.0
 11
286.1012472610411
 21
278.7605777273061
 31
0.0
  0
LINE
  5
104A
330
2
100
AcDbEntity
  8
0
100
AcDbLine
 10
286.1012472610411
 20
290.2329822073231
 30
0.0
 11
280.5925207255379
 21
290.2329822073231
 31
0.0
  0
LINE
  5
104B
330
2
100
AcDbEntity
  8
0
100
AcDbLine
 10
286.1012472610411
 20
278.7605777273061
 30
0.0
 11
280.5925207255379
 21
278.7605777273059
 31
0.0
  0
LINE
  5
104C
330
2
100
AcDbEntity
  8
0
100
AcDbLine
 10
286.1012472610411
 20
231.2329822073181
 30
0.0
 11
280.5925207255379
 21
231.2329822072922
 31
0.0
  0
LINE
  5
104D
330
2
100
AcDbEntity
  8
0
100
AcDbLine
 10
286.1012472610411
 20
234.2329822072963
 30
0.0
 11
280.5925207255379
 21
234.2329822072963
 31
0.0
  0
LINE
  5
104E
330
2
100
AcDbEntity
  8
0
100
AcDbLine
 10
286.1012472610411
 20
245.7053866873134
 30
0.0
 11
280.5925207255379
 21
245.7053866873136
 31
0.0
  0
LINE
  5
104F
330
2
100
AcDbEntity
  8
0
100
AcDbLine
 10
345.1012472613376
 20
234.2329822072963
 30
0.0
 11
286.1012472610411
 21
234.2329822072963
 31
0.0
  0
LINE
  5
1050
330
2
100
AcDbEntity
  8
0
100
AcDbLine
 10
345.1012472613376
 20
231.2329822073181
 30
0.0
 11
286.1012472610411
 21
231.2329822073181
 31
0.0
  0
LINE
  5
1051
330
2
100
AcDbEntity
  8
0
100
AcDbLine
 10
345.1012472613376
 20
245.7053866873134
 30
0.0
 11
286.1012472610411
 21
245.7053866873134
 31
0.0
  0
LINE
  5
1052
330
2
100
AcDbEntity
  8
CENTER
100
AcDbLine
 10
201.9939103731451
 20
293.2329822073272
 30
0.0
 11
187.4939103731451
 21
293.2329822073266
 31
0.0
  0
LINE
  5
1053
330
2
100
AcDbEntity
  8
CENTER
100
AcDbLine
 10
194.7439103731442
 20
300.482982207327
 30
0.0
 11
194.7439103731451
 21
285.9829822073267
 31
0.0
  0
LINE
  5
1054
330
2
100
AcDbEntity
  8
CENTER
100
AcDbLine
 10
125.4939103731469
 20
293.2329822073277
 30
0.0
 11
139.9939103731478
 21
293.232982207327
 31
0.0
  0
LINE
  5
1055
330
2
100
AcDbEntity
  8
CENTER
100
AcDbLine
 10
127.0707052923883
 20
286.7329822073252
 30
0.0
 11
137.4171154539028
 21
286.7329822073256
 31
0.0
  0
LINE
  5
1056
330
2
100
AcDbEntity
  8
CENTER
100
AcDbLine
 10
132.2439103731451
 20
291.9061872880824
 30
0.0
 11
132.243910373146
 21
281.5597771265684
 31
0.0
  0
CIRCLE
  5
1057
330
2
100
AcDbEntity
  8
HOJO
100
AcDbCircle
 10
132.243910373146
 20
286.7329822073254
 30
0.0
 40
2.0
  0
LINE
  5
1058
330
2
100
AcDbEntity
  8
CENTER
100
AcDbLine
 10
201.993910373146
 20
231.2329822073265
 30
0.0
 11
187.493910373146
 21
231.2329822073265
 31
0.0
  0
LINE
  5
1059
330
2
100
AcDbEntity
  8
CENTER
100
AcDbLine
 10
200.4171154539037
 20
237.7329822073268
 30
0.0
 11
190.0707052923892
 21
237.7329822073268
 31
0.0
  0
CIRCLE
  5
105A
330
2
100
AcDbEntity
  8
HOJO
100
AcDbCircle
 10
195.243910373146
 20
237.7329822073268
 30
0.0
 40
2.0
  0
LINE
  5
105B
330
2
100
AcDbEntity
  8
CENTER
100
AcDbLine
 10
194.743910373146
 20
223.9829822073263
 30
0.0
 11
194.743910373146
 21
238.4829822073265
 31
0.0
  0
LINE
  5
105C
330
2
100
AcDbEntity
  8
CENTER
100
AcDbLine
 10
195.243910373146
 20
232.5597771265697
 30
0.0
 11
195.243910373146
 21
242.9061872880838
 31
0.0
  0
LINE
  5
105D
330
2
100
AcDbEntity
  8
CENTER
100
AcDbLine
 10
125.493910373146
 20
231.2329822073256
 30
0.0
 11
139.9939103731469
 21
231.2329822073261
 31
0.0
  0
ARC
  5
105E
330
2
100
AcDbEntity
  8
0
100
AcDbCircle
 10
133.1139103731459
 20
293.2329822073266
 30
0.0
 40
5.0
100
AcDbArc
 50
90.0
 51
180.0
  0
LINE
  5
105F
330
2
100
AcDbEntity
  8
0
100
AcDbLine
 10
135.7439103731469
 20
298.2329822073266
 30
0.0
 11
133.1139103731459
 21
298.2329822073266
 31
0.0
  0
LINE
  5
1060
330
2
100
AcDbEntity
  8
0
100
AcDbLine
 10
146.8175035019533
 20
231.7329822073263
 30
0.0
 11
180.6703172443387
 21
231.7329822073263
 31
0.0
  0
LINE
  5
1061
330
2
100
AcDbEntity
  8
0
100
AcDbLine
 10
146.8175035019533
 20
229.7329822073263
 30
0.0
 11
180.6703172443387
 21
229.7329822073261
 31
0.0
  0
CIRCLE
  5
1062
330
2
100
AcDbEntity
  8
0
100
AcDbCircle
 10
163.743910373146
 20
262.2329822073266
 30
0.0
 40
25.5
  0
CIRCLE
  5
1063
330
2
100
AcDbEntity
  8
0
100
AcDbCircle
 10
163.743910373146
 20
262.2329822073266
 30
0.0
 40
25.0
  0
CIRCLE
  5
1064
330
2
100
AcDbEntity
  8
0
100
AcDbCircle
 10
163.743910373146
 20
262.2329822073266
 30
0.0
 40
22.42259999999999
  0
CIRCLE
  5
1065
330
2
100
AcDbEntity
  8
0
100
AcDbCircle
 10
163.743910373146
 20
262.2329822073266
 30
0.0
 40
23.0
  0
CIRCLE
  5
1066
330
2
100
AcDbEntity
  8
0
100
AcDbCircle
 10
163.743910373146
 20
262.2329822073266
 30
0.0
 40
19.5774
  0
CIRCLE
  5
1067
330
2
100
AcDbEntity
  8
0
100
AcDbCircle
 10
163.743910373146
 20
262.2329822073266
 30
0.0
 40
19.0
  0
LINE
  5
1068
330
2
100
AcDbEntity
  8
0
100
AcDbLine
 10
194.2439103731469
 20
245.306575336134
 30
0.0
 11
194.2439103731469
 21
279.1593890785191
 31
0.0
  0
LINE
  5
1069
330
2
100
AcDbEntity
  8
0
100
AcDbLine
 10
196.2439103731469
 20
245.306575336134
 30
0.0
 11
196.2439103731469
 21
279.1593890785191
 31
0.0
  0
CIRCLE
  5
106A
330
2
100
AcDbEntity
  8
0
100
AcDbCircle
 10
195.243910373146
 20
237.7329822073268
 30
0.0
 40
1.6
  0
LINE
  5
106B
330
2
100
AcDbEntity
  8
0
100
AcDbLine
 10
133.243910373146
 20
279.1593890785191
 30
0.0
 11
133.243910373146
 21
245.306575336134
 31
0.0
  0
LINE
  5
106C
330
2
100
AcDbEntity
  8
0
100
AcDbLine
 10
131.243910373146
 20
279.1593890785191
 30
0.0
 11
131.243910373146
 21
245.306575336134
 31
0.0
  0
LINE
  5
106D
330
2
100
AcDbEntity
  8
0
100
AcDbLine
 10
128.1139103731477
 20
231.2329822073263
 30
0.0
 11
128.1139103731459
 21
293.2329822073263
 31
0.0
  0
CIRCLE
  5
106E
330
2
100
AcDbEntity
  8
0
100
AcDbCircle
 10
132.243910373146
 20
286.7329822073254
 30
0.0
 40
1.6
  0
ARC
  5
106F
330
2
100
AcDbEntity
  8
0
100
AcDbCircle
 10
133.1139103731477
 20
231.2329822073265
 30
0.0
 40
5.0
100
AcDbArc
 50
180.0
 51
270.0
  0
LINE
  5
1070
330
2
100
AcDbEntity
  8
0
100
AcDbLine
 10
135.7439103731469
 20
226.2329822073265
 30
0.0
 11
133.1139103731477
 21
226.2329822073265
 31
0.0
  0
LINE
  5
1071
330
2
100
AcDbEntity
  8
0
100
AcDbLine
 10
192.7794442790793
 20
241.7710414302011
 30
0.0
 11
184.205851150272
 21
233.1974483013937
 31
0.0
  0
ARC
  5
1072
330
2
100
AcDbEntity
  8
0
100
AcDbCircle
 10
189.243910373146
 20
245.306575336134
 30
0.0
 40
5.0
100
AcDbArc
 50
315.0000000000092
 51
0.0
  0
ARC
  5
1073
330
2
100
AcDbEntity
  8
0
100
AcDbCircle
 10
180.6703172443387
 20
236.7329822073263
 30
0.0
 40
5.0
100
AcDbArc
 50
270.0
 51
315.0000000000092
  0
LINE
  5
1074
330
2
100
AcDbEntity
  8
0
100
AcDbLine
 10
194.1936578414527
 20
240.356827867828
 30
0.0
 11
185.6200647126445
 21
231.7832347390206
 31
0.0
  0
ARC
  5
1075
330
2
100
AcDbEntity
  8
0
100
AcDbCircle
 10
189.243910373146
 20
245.306575336134
 30
0.0
 40
7.0
100
AcDbArc
 50
315.0000000000092
 51
0.0
  0
ARC
  5
1076
330
2
100
AcDbEntity
  8
0
100
AcDbCircle
 10
180.6703172443387
 20
236.7329822073263
 30
0.0
 40
7.0
100
AcDbArc
 50
270.0
 51
315.0000000000092
  0
ARC
  5
1077
330
2
100
AcDbEntity
  8
0
100
AcDbCircle
 10
138.243910373146
 20
245.306575336134
 30
0.0
 40
7.0
100
AcDbArc
 50
180.0
 51
224.9999999999908
  0
LINE
  5
1078
330
2
100
AcDbEntity
  8
0
100
AcDbLine
 10
133.2941629048402
 20
240.356827867828
 30
0.0
 11
141.8677560336484
 21
231.7832347390206
 31
0.0
  0
LINE
  5
1079
330
2
100
AcDbEntity
  8
0
100
AcDbLine
 10
134.7083764672136
 20
241.7710414302011
 30
0.0
 11
143.2819695960208
 21
233.1974483013937
 31
0.0
  0
ARC
  5
107A
330
2
100
AcDbEntity
  8
0
100
AcDbCircle
 10
146.8175035019533
 20
236.7329822073263
 30
0.0
 40
7.0
100
AcDbArc
 50
224.9999999999908
 51
270.0
  0
ARC
  5
107B
330
2
100
AcDbEntity
  8
0
100
AcDbCircle
 10
146.8175035019533
 20
236.7329822073263
 30
0.0
 40
5.0
100
AcDbArc
 50
224.9999999999908
 51
270.0
  0
ARC
  5
107C
330
2
100
AcDbEntity
  8
0
100
AcDbCircle
 10
138.243910373146
 20
245.306575336134
 30
0.0
 40
5.0
100
AcDbArc
 50
180.0
 51
224.9999999999908
  0
ARC
  5
107D
330
2
100
AcDbEntity
  8
0
100
AcDbCircle
 10
180.6703172443387
 20
287.7329822073268
 30
0.0
 40
7.0
100
AcDbArc
 50
44.99999999999078
 51
90.0
  0
ARC
  5
107E
330
2
100
AcDbEntity
  8
0
100
AcDbCircle
 10
180.6703172443387
 20
287.7329822073268
 30
0.0
 40
5.0
100
AcDbArc
 50
44.99999999999078
 51
90.0
  0
LINE
  5
107F
330
2
100
AcDbEntity
  8
0
100
AcDbLine
 10
146.8175035019533
 20
294.7329822073265
 30
0.0
 11
180.6703172443387
 21
294.7329822073267
 31
0.0
  0
LINE
  5
1080
330
2
100
AcDbEntity
  8
0
100
AcDbLine
 10
146.8175035019533
 20
292.7329822073265
 30
0.0
 11
180.6703172443387
 21
292.7329822073265
 31
0.0
  0
ARC
  5
1081
330
2
100
AcDbEntity
  8
0
100
AcDbCircle
 10
146.8175035019533
 20
287.7329822073268
 30
0.0
 40
5.0
100
AcDbArc
 50
90.0
 51
135.0000000000092
  0
ARC
  5
1082
330
2
100
AcDbEntity
  8
0
100
AcDbCircle
 10
146.8175035019533
 20
287.7329822073268
 30
0.0
 40
7.0
100
AcDbArc
 50
90.0
 51
135.0000000000092
  0
LINE
  5
1083
330
2
100
AcDbEntity
  8
0
100
AcDbLine
 10
134.7083764672136
 20
282.6949229844517
 30
0.0
 11
143.2819695960208
 21
291.2685161132592
 31
0.0
  0
LINE
  5
1084
330
2
100
AcDbEntity
  8
0
100
AcDbLine
 10
133.2941629048402
 20
284.1091365468248
 30
0.0
 11
141.8677560336484
 21
292.6827296756323
 31
0.0
  0
ARC
  5
1085
330
2
100
AcDbEntity
  8
0
100
AcDbCircle
 10
138.243910373146
 20
279.1593890785191
 30
0.0
 40
5.0
100
AcDbArc
 50
135.0000000000092
 51
180.0
  0
ARC
  5
1086
330
2
100
AcDbEntity
  8
0
100
AcDbCircle
 10
138.243910373146
 20
279.1593890785191
 30
0.0
 40
7.0
100
AcDbArc
 50
135.0000000000092
 51
180.0
  0
ARC
  5
1087
330
2
100
AcDbEntity
  8
0
100
AcDbCircle
 10
189.243910373146
 20
279.1593890785191
 30
0.0
 40
7.0
100
AcDbArc
 50
0.0
 51
44.99999999999078
  0
ARC
  5
1088
330
2
100
AcDbEntity
  8
0
100
AcDbCircle
 10
189.243910373146
 20
279.1593890785191
 30
0.0
 40
5.0
100
AcDbArc
 50
0.0
 51
44.99999999999078
  0
LINE
  5
1089
330
2
100
AcDbEntity
  8
0
100
AcDbLine
 10
192.7794442790793
 20
282.6949229844519
 30
0.0
 11
184.205851150272
 21
291.2685161132592
 31
0.0
  0
LINE
  5
108A
330
2
100
AcDbEntity
  8
0
100
AcDbLine
 10
194.1936578414527
 20
284.1091365468248
 30
0.0
 11
185.6200647126445
 21
292.6827296756325
 31
0.0
  0
LINE
  5
108B
330
2
100
AcDbEntity
  8
CENTER
100
AcDbLine
 10
201.814978185024
 20
300.3040500192037
 30
0.0
 11
125.6728425612934
 21
224.1619143954731
 31
0.0
  0
LINE
  5
108C
330
2
100
AcDbEntity
  8
CENTER
100
AcDbLine
 10
132.7439103731469
 20
223.9829822073261
 30
0.0
 11
132.7439103731469
 21
238.4829822073263
 31
0.0
  0
LINE
  5
108D
330
2
100
AcDbEntity
  8
CENTER
100
AcDbLine
 10
132.7439103731478
 20
300.4829822073268
 30
0.0
 11
132.7439103731469
 21
285.9829822073263
 31
0.0
  0
LINE
  5
108E
330
2
100
AcDbEntity
  8
0
100
AcDbLine
 10
182.5837344061649
 20
232.1135845447697
 30
0.0
 11
183.3491012708948
 21
230.2658254797472
 31
0.0
  0
LINE
  5
108F
330
2
100
AcDbEntity
  8
0
100
AcDbLine
 10
193.8633080357033
 20
243.3931581743085
 30
0.0
 11
195.711067100726
 21
242.6277913095784
 31
0.0
  0
LINE
  5
1090
330
2
100
AcDbEntity
  8
0
100
AcDbLine
 10
193.8633080357033
 20
281.0728062403445
 30
0.0
 11
195.711067100726
 21
281.8381731050747
 31
0.0
  0
LINE
  5
1091
330
2
100
AcDbEntity
  8
0
100
AcDbLine
 10
182.5837344061649
 20
292.3523798698831
 30
0.0
 11
183.3491012708948
 21
294.2001389349056
 31
0.0
  0
LINE
  5
1092
330
2
100
AcDbEntity
  8
0
100
AcDbLine
 10
133.6245127105896
 20
243.3931581743083
 30
0.0
 11
131.7767536455669
 21
242.627791309578
 31
0.0
  0
LINE
  5
1093
330
2
100
AcDbEntity
  8
0
100
AcDbLine
 10
144.904086340128
 20
232.1135845447697
 30
0.0
 11
144.1387194753981
 21
230.265825479747
 31
0.0
  0
LINE
  5
1094
330
2
100
AcDbEntity
  8
0
100
AcDbLine
 10
133.6245127105896
 20
281.0728062403443
 30
0.0
 11
131.7767536455669
 21
281.8381731050744
 31
0.0
  0
LINE
  5
1095
330
2
100
AcDbEntity
  8
0
100
AcDbLine
 10
144.904086340128
 20
292.3523798698829
 30
0.0
 11
144.1387194753981
 21
294.2001389349054
 31
0.0
  0
LINE
  5
1096
330
2
100
AcDbEntity
  8
CENTER
100
AcDbLine
 10
125.672842561268
 20
300.3040500192037
 30
0.0
 11
201.8149781849995
 21
224.1619143954735
 31
0.0
  0
LINE
  5
1097
330
2
100
AcDbEntity
  8
0
100
AcDbLine
 10
196.7439103731451
 20
292.0782816689459
 30
0.0
 11
194.7439103731451
 21
290.9235811305666
 31
0.0
  0
CIRCLE
  5
1098
330
2
100
AcDbEntity
  8
0
100
AcDbCircle
 10
194.7439103731451
 20
293.232982207325
 30
0.0
 40
4.250000000000085
  0
CIRCLE
  5
1099
330
2
100
AcDbEntity
  8
0
100
AcDbCircle
 10
194.7439103731451
 20
293.232982207325
 30
0.0
 40
3.730384757729268
  0
LINE
  5
109A
330
2
100
AcDbEntity
  8
0
100
AcDbLine
 10
194.7439103731442
 20
295.5423832840833
 30
0.0
 11
196.7439103731451
 21
294.3876827457042
 31
0.0
  0
LINE
  5
109B
330
2
100
AcDbEntity
  8
0
100
AcDbLine
 10
192.7439103731451
 20
294.3876827457042
 30
0.0
 11
192.7439103731451
 21
292.0782816689456
 31
0.0
  0
LINE
  5
109C
330
2
100
AcDbEntity
  8
0
100
AcDbLine
 10
192.7439103731451
 20
292.0782816689456
 30
0.0
 11
194.7439103731442
 21
290.9235811305666
 31
0.0
  0
LINE
  5
109D
330
2
100
AcDbEntity
  8
0
100
AcDbLine
 10
194.7439103731442
 20
295.5423832840835
 30
0.0
 11
192.7439103731451
 21
294.3876827457042
 31
0.0
  0
LINE
  5
109E
330
2
100
AcDbEntity
  8
0
100
AcDbLine
 10
196.7439103731451
 20
294.3876827457042
 30
0.0
 11
196.7439103731451
 21
292.0782816689459
 31
0.0
  0
LINE
  5
109F
330
2
100
AcDbEntity
  8
0
100
AcDbLine
 10
196.743910373146
 20
230.0782816689475
 30
0.0
 11
194.743910373146
 21
228.9235811305682
 31
0.0
  0
CIRCLE
  5
10A0
330
2
100
AcDbEntity
  8
0
100
AcDbCircle
 10
194.743910373146
 20
231.2329822073265
 30
0.0
 40
4.250000000000085
  0
CIRCLE
  5
10A1
330
2
100
AcDbEntity
  8
0
100
AcDbCircle
 10
194.743910373146
 20
231.2329822073265
 30
0.0
 40
3.730384757729268
  0
LINE
  5
10A2
330
2
100
AcDbEntity
  8
0
100
AcDbLine
 10
194.743910373146
 20
233.5423832840849
 30
0.0
 11
196.743910373146
 21
232.3876827457059
 31
0.0
  0
LINE
  5
10A3
330
2
100
AcDbEntity
  8
0
100
AcDbLine
 10
192.743910373146
 20
232.3876827457059
 30
0.0
 11
192.743910373146
 21
230.0782816689472
 31
0.0
  0
LINE
  5
10A4
330
2
100
AcDbEntity
  8
0
100
AcDbLine
 10
192.743910373146
 20
230.0782816689472
 30
0.0
 11
194.743910373146
 21
228.9235811305682
 31
0.0
  0
LINE
  5
10A5
330
2
100
AcDbEntity
  8
0
100
AcDbLine
 10
194.743910373146
 20
233.5423832840851
 30
0.0
 11
192.743910373146
 21
232.3876827457059
 31
0.0
  0
LINE
  5
10A6
330
2
100
AcDbEntity
  8
0
100
AcDbLine
 10
196.743910373146
 20
232.3876827457059
 30
0.0
 11
196.743910373146
 21
230.0782816689475
 31
0.0
  0
LINE
  5
10A7
330
2
100
AcDbEntity
  8
0
100
AcDbLine
 10
130.7439103731478
 20
292.0782816689459
 30
0.0
 11
132.7439103731478
 21
290.9235811305666
 31
0.0
  0
CIRCLE
  5
10A8
330
2
100
AcDbEntity
  8
0
100
AcDbCircle
 10
132.7439103731478
 20
293.232982207325
 30
0.0
 40
4.250000000000085
  0
CIRCLE
  5
10A9
330
2
100
AcDbEntity
  8
0
100
AcDbCircle
 10
132.7439103731478
 20
293.232982207325
 30
0.0
 40
3.730384757729268
  0
LINE
  5
10AA
330
2
100
AcDbEntity
  8
0
100
AcDbLine
 10
132.7439103731478
 20
295.5423832840833
 30
0.0
 11
130.7439103731478
 21
294.3876827457042
 31
0.0
  0
LINE
  5
10AB
330
2
100
AcDbEntity
  8
0
100
AcDbLine
 10
134.7439103731478
 20
294.3876827457042
 30
0.0
 11
134.7439103731478
 21
292.0782816689456
 31
0.0
  0
LINE
  5
10AC
330
2
100
AcDbEntity
  8
0
100
AcDbLine
 10
134.7439103731478
 20
292.0782816689456
 30
0.0
 11
132.7439103731478
 21
290.9235811305666
 31
0.0
  0
LINE
  5
10AD
330
2
100
AcDbEntity
  8
0
100
AcDbLine
 10
132.7439103731478
 20
295.5423832840835
 30
0.0
 11
134.7439103731478
 21
294.3876827457042
 31
0.0
  0
LINE
  5
10AE
330
2
100
AcDbEntity
  8
0
100
AcDbLine
 10
130.7439103731478
 20
294.3876827457042
 30
0.0
 11
130.7439103731478
 21
292.0782816689459
 31
0.0
  0
LINE
  5
10AF
330
2
100
AcDbEntity
  8
0
100
AcDbLine
 10
130.743910373146
 20
230.0782816689475
 30
0.0
 11
132.743910373146
 21
228.9235811305682
 31
0.0
  0
CIRCLE
  5
10B0
330
2
100
AcDbEntity
  8
0
100
AcDbCircle
 10
132.743910373146
 20
231.2329822073265
 30
0.0
 40
4.250000000000085
  0
CIRCLE
  5
10B1
330
2
100
AcDbEntity
  8
0
100
AcDbCircle
 10
132.743910373146
 20
231.2329822073265
 30
0.0
 40
3.730384757729268
  0
LINE
  5
10B2
330
2
100
AcDbEntity
  8
0
100
AcDbLine
 10
132.743910373146
 20
233.5423832840849
 30
0.0
 11
130.743910373146
 21
232.3876827457059
 31
0.0
  0
LINE
  5
10B3
330
2
100
AcDbEntity
  8
0
100
AcDbLine
 10
134.743910373146
 20
232.3876827457059
 30
0.0
 11
134.743910373146
 21
230.0782816689472
 31
0.0
  0
LINE
  5
10B4
330
2
100
AcDbEntity
  8
0
100
AcDbLine
 10
134.743910373146
 20
230.0782816689472
 30
0.0
 11
132.743910373146
 21
228.9235811305682
 31
0.0
  0
LINE
  5
10B5
330
2
100
AcDbEntity
  8
0
100
AcDbLine
 10
132.743910373146
 20
233.5423832840851
 30
0.0
 11
134.743910373146
 21
232.3876827457059
 31
0.0
  0
LINE
  5
10B6
330
2
100
AcDbEntity
  8
0
100
AcDbLine
 10
130.743910373146
 20
232.3876827457059
 30
0.0
 11
130.743910373146
 21
230.0782816689475
 31
0.0
  0
LINE
  5
10B7
330
2
100
AcDbEntity
  8
CENTER
  6
CENS
100
AcDbLine
 10
270.301247261041
 20
293.2329822073272
 30
0.0
 11
289.8499487416377
 21
293.2329822073272
 31
0.0
  0
LINE
  5
10B8
330
2
100
AcDbEntity
  8
0
100
AcDbLine
 10
273.6012472610411
 20
297.4829822073013
 30
0.0
 11
279.6012472610366
 21
297.4829822073008
 31
0.0
  0
LINE
  5
10B9
330
2
100
AcDbEntity
  8
0
100
AcDbLine
 10
273.6012472610411
 20
288.9829822073013
 30
0.0
 11
279.6012472610411
 21
288.9829822073013
 31
0.0
  0
LINE
  5
10BA
330
2
100
AcDbEntity
  8
0
100
AcDbLine
 10
278.301247261041
 20
288.9829822073013
 30
0.0
 11
278.301247261041
 21
297.4829822073013
 31
0.0
  0
LINE
  5
10BB
330
2
100
AcDbEntity
  8
0
100
AcDbLine
 10
273.6012472610411
 20
288.9829822073013
 30
0.0
 11
273.6012472610411
 21
297.4829822073013
 31
0.0
  0
LINE
  5
10BC
330
2
100
AcDbEntity
  8
0
100
AcDbLine
 10
273.6012472610411
 20
288.9829822073013
 30
0.0
 11
273.3012472610409
 21
289.5025974495717
 31
0.0
  0
LINE
  5
10BD
330
2
100
AcDbEntity
  8
0
100
AcDbLine
 10
273.6012472610411
 20
297.4829822073013
 30
0.0
 11
273.3012472610409
 21
296.9633669650304
 31
0.0
  0
LINE
  5
10BE
330
2
100
AcDbEntity
  8
0
100
AcDbLine
 10
273.3012472610409
 20
289.5025974495717
 30
0.0
 11
273.3012472610409
 21
296.9633669650304
 31
0.0
  0
LINE
  5
10BF
330
2
100
AcDbEntity
  8
HIDS
  6
SEKKEI_H
100
AcDbLine
 10
277.6012472610357
 20
291.9045550825637
 30
0.0
 11
277.6012472610366
 21
288.9829822073013
 31
0.0
  0
LINE
  5
10C0
330
2
100
AcDbEntity
  8
CENTER
  6
CENS
100
AcDbLine
 10
270.301247261041
 20
231.2329822072922
 30
0.0
 11
289.8499487416377
 21
231.2329822072922
 31
0.0
  0
LINE
  5
10C1
330
2
100
AcDbEntity
  8
0
100
AcDbLine
 10
273.6012472610411
 20
226.9829822073181
 30
0.0
 11
279.6012472610366
 21
226.9829822073181
 31
0.0
  0
LINE
  5
10C2
330
2
100
AcDbEntity
  8
0
100
AcDbLine
 10
273.6012472610411
 20
235.4829822073181
 30
0.0
 11
279.6012472610411
 21
235.4829822073181
 31
0.0
  0
LINE
  5
10C3
330
2
100
AcDbEntity
  8
0
100
AcDbLine
 10
278.301247261041
 20
235.4829822073181
 30
0.0
 11
278.301247261041
 21
226.9829822073181
 31
0.0
  0
LINE
  5
10C4
330
2
100
AcDbEntity
  8
0
100
AcDbLine
 10
273.6012472610411
 20
235.4829822073181
 30
0.0
 11
273.6012472610411
 21
226.9829822073181
 31
0.0
  0
LINE
  5
10C5
330
2
100
AcDbEntity
  8
0
100
AcDbLine
 10
273.6012472610411
 20
235.4829822073181
 30
0.0
 11
273.3012472610409
 21
234.9633669650477
 31
0.0
  0
LINE
  5
10C6
330
2
100
AcDbEntity
  8
0
100
AcDbLine
 10
273.6012472610411
 20
226.9829822073181
 30
0.0
 11
273.3012472610409
 21
227.502597449589
 31
0.0
  0
LINE
  5
10C7
330
2
100
AcDbEntity
  8
0
100
AcDbLine
 10
273.3012472610409
 20
234.9633669650477
 30
0.0
 11
273.3012472610409
 21
227.502597449589
 31
0.0
  0
LINE
  5
10C8
330
2
100
AcDbEntity
  8
HIDS
  6
SEKKEI_H
100
AcDbLine
 10
277.6012472610366
 20
235.4829822073181
 30
0.0
 11
277.6012472610366
 21
232.5614093320557
 31
0.0
  0
LINE
  5
10C9
330
2
100
AcDbEntity
  8
0
100
AcDbLine
 10
498.1352535472226
 20
491.9588716844505
 30
0.0
 11
426.5128812047525
 21
491.9588716844505
 31
0.0
  0
LINE
  5
10CA
330
2
100
AcDbEntity
  8
0
100
AcDbLine
 10
437.0085177708326
 20
500.458871684451
 30
0.0
 11
437.5085177708326
 21
500.9588716844507
 31
0.0
  0
LINE
  5
10CB
330
2
100
AcDbEntity
  8
0
100
AcDbLine
 10
437.0085177708381
 20
500.4588716844559
 30
0.0
 11
435.7585177708408
 21
500.4588716844559
 31
0.0
  0
LINE
  5
10CC
330
2
100
AcDbEntity
  8
0
100
AcDbLine
 10
440.2085177708316
 20
506.2588716844511
 30
0.0
 11
440.2085177708316
 21
504.6588716844512
 31
0.0
  0
LINE
  5
10CD
330
2
100
AcDbEntity
  8
0
100
AcDbLine
 10
439.7085177708316
 20
504.4588716844511
 30
0.0
 11
439.5085177708317
 21
504.2588716844512
 31
0.0
  0
LINE
  5
10CE
330
2
100
AcDbEntity
  8
0
100
AcDbLine
 10
487.5085177708272
 20
500.9588716844564
 30
0.0
 11
437.5085177708326
 21
500.9588716844507
 31
0.0
  0
LINE
  5
10CF
330
2
100
AcDbEntity
  8
0
100
AcDbLine
 10
439.5085177708317
 20
504.2588716844512
 30
0.0
 11
439.5085177708327
 21
500.9588716844509
 31
0.0
  0
LINE
  5
10D0
330
2
100
AcDbEntity
  8
0
100
AcDbLine
 10
439.7085177708316
 20
504.4588716844511
 30
0.0
 11
485.3085177708329
 21
504.458871684451
 31
0.0
  0
LINE
  5
10D1
330
2
100
AcDbEntity
  8
0
100
AcDbLine
 10
439.5085177708308
 20
507.958871684451
 30
0.0
 11
440.0858680400208
 21
508.9588716844511
 31
0.0
  0
LINE
  5
10D2
330
2
100
AcDbEntity
  8
0
100
AcDbLine
 10
439.5085177708308
 20
507.9588716844511
 30
0.0
 11
439.5085177708317
 21
506.6588716844512
 31
0.0
  0
LINE
  5
10D3
330
2
100
AcDbEntity
  8
0
100
AcDbLine
 10
439.7085177708316
 20
506.4588716844514
 30
0.0
 11
485.3085177708329
 21
506.4588716843996
 31
0.0
  0
LINE
  5
10D4
330
2
100
AcDbEntity
  8
0
100
AcDbLine
 10
482.4037740845544
 20
500.9588716844501
 30
0.0
 11
442.6132614571099
 21
500.9588716844501
 31
0.0
  0
LINE
  5
10D5
330
2
100
AcDbEntity
  8
0
100
AcDbLine
 10
484.9311675016444
 20
508.9588716844507
 30
0.0
 11
440.0858680400199
 21
508.9588716844495
 31
0.0
  0
LINE
  5
10D6
330
2
100
AcDbEntity
  8
0
100
AcDbLine
 10
484.8085177708328
 20
506.2588716844511
 30
0.0
 11
484.8085177708328
 21
504.6588716844512
 31
0.0
  0
LINE
  5
10D7
330
2
100
AcDbEntity
  8
0
100
AcDbLine
 10
485.3085177708329
 20
504.458871684451
 30
0.0
 11
485.5085177708327
 21
504.2588716844512
 31
0.0
  0
LINE
  5
10D8
330
2
100
AcDbEntity
  8
0
100
AcDbLine
 10
485.5085177708327
 20
504.2588716844512
 30
0.0
 11
485.5085177708327
 21
500.9588716844509
 31
0.0
  0
LINE
  5
10D9
330
2
100
AcDbEntity
  8
0
100
AcDbLine
 10
485.5085177708327
 20
507.958871684451
 30
0.0
 11
484.9311675016435
 21
508.9588716844511
 31
0.0
  0
LINE
  5
10DA
330
2
100
AcDbEntity
  8
0
100
AcDbLine
 10
485.5085177708327
 20
507.9588716844511
 30
0.0
 11
485.5085177708327
 21
506.6588716844512
 31
0.0
  0
LINE
  5
10DB
330
2
100
AcDbEntity
  8
HIDS
  6
SEKKEI_H
100
AcDbLine
 10
493.5943042084593
 20
499.873085246829
 30
0.0
 11
494.422731333206
 21
499.0446581220829
 31
0.0
  0
LINE
  5
10DC
330
2
100
AcDbEntity
  8
0
100
AcDbLine
 10
498.1352535472231
 20
491.9588716844505
 30
0.0
 11
426.5085177708327
 21
491.9588716844505
 31
0.0
  0
LINE
  5
10DD
330
2
100
AcDbEntity
  8
0
100
AcDbLine
 10
488.0085177708317
 20
500.458871684451
 30
0.0
 11
487.5085177708272
 21
500.9588716844564
 31
0.0
  0
ARC
  5
10DE
330
2
100
AcDbEntity
  8
0
100
AcDbCircle
 10
497.5085177708327
 20
497.4588716844559
 30
0.0
 40
1.0
100
AcDbArc
 50
90.0
 51
90.0
  0
ARC
  5
10DF
330
2
100
AcDbEntity
  8
HIDS
  6
SEKKEI_H
100
AcDbCircle
 10
492.180090646086
 20
498.458871684456
 30
0.0
 40
2.0
100
AcDbArc
 50
44.99999999999078
 51
90.0
  0
ARC
  5
10E0
330
2
100
AcDbEntity
  8
HIDS
  6
SEKKEI_H
100
AcDbCircle
 10
495.8369448955784
 20
500.4588716844559
 30
0.0
 40
2.0
100
AcDbArc
 50
224.9999999999908
 51
270.0
  0
ARC
  5
10E1
330
2
100
AcDbEntity
  8
0
100
AcDbCircle
 10
485.3085177708329
 20
506.6588716844512
 30
0.0
 40
0.2
100
AcDbArc
 50
269.9999999999478
 51
359.9999999999739
  0
ARC
  5
10E2
330
2
100
AcDbEntity
  8
0
100
AcDbCircle
 10
485.0085177708327
 20
506.2588716844508
 30
0.0
 40
0.2
100
AcDbArc
 50
90.00000000005213
 51
180.0
  0
ARC
  5
10E3
330
2
100
AcDbEntity
  8
0
100
AcDbCircle
 10
485.0085177708327
 20
504.6588716844512
 30
0.0
 40
0.2
100
AcDbArc
 50
180.0
 51
270.0
  0
ARC
  5
10E4
330
2
100
AcDbEntity
  8
0
100
AcDbCircle
 10
439.7085177708316
 20
506.6588716844512
 30
0.0
 40
0.2
100
AcDbArc
 50
180.0
 51
269.9999999999478
  0
ARC
  5
10E5
330
2
100
AcDbEntity
  8
0
100
AcDbCircle
 10
440.0085177708318
 20
506.2588716844508
 30
0.0
 40
0.2
100
AcDbArc
 50
0.0
 51
89.99999999994789
  0
ARC
  5
10E6
330
2
100
AcDbEntity
  8
0
100
AcDbCircle
 10
440.0085177708318
 20
504.6588716844512
 30
0.0
 40
0.2
100
AcDbArc
 50
270.0
 51
0.0
  0
LINE
  5
10E7
330
2
100
AcDbEntity
  8
HIDS
  6
SEKKEI_H
100
AcDbLine
 10
431.422731333205
 20
499.8730852468286
 30
0.0
 11
430.5943042084593
 21
499.0446581220823
 31
0.0
  0
LINE
  5
10E8
330
2
100
AcDbEntity
  8
0
100
AcDbLine
 10
426.5085177708327
 20
491.9588716844505
 30
0.0
 11
426.5565916990028
 21
497.4675982199539
 31
0.0
  0
LINE
  5
10E9
330
2
100
AcDbEntity
  8
0
100
AcDbLine
 10
497.7585177708236
 20
498.4588716844553
 30
0.0
 11
427.2585177708418
 21
498.4588716844557
 31
0.0
  0
ARC
  5
10EA
330
2
100
AcDbEntity
  8
0
100
AcDbCircle
 10
427.5565536220667
 20
497.4588716844557
 30
0.0
 40
1.0
100
AcDbArc
 50
90.0
 51
179.4999999999954
  0
LINE
  5
10EB
330
2
100
AcDbEntity
  8
0
100
AcDbLine
 10
489.2585177708236
 20
500.4588716844555
 30
0.0
 11
435.7585177708408
 21
500.4588716844555
 31
0.0
  0
ARC
  5
10EC
330
2
100
AcDbEntity
  8
HIDS
  6
SEKKEI_H
100
AcDbCircle
 10
432.8369448955784
 20
498.4588716844554
 30
0.0
 40
2.0
100
AcDbArc
 50
90.0
 51
135.0000000000092
  0
ARC
  5
10ED
330
2
100
AcDbEntity
  8
HIDS
  6
SEKKEI_H
100
AcDbCircle
 10
429.180090646086
 20
500.4588716844555
 30
0.0
 40
2.0
100
AcDbArc
 50
270.0
 51
315.0000000000092
  0
LINE
  5
10EE
330
2
100
AcDbEntity
  8
0
100
AcDbLine
 10
490.5085177708453
 20
491.9588716844505
 30
0.0
 11
490.5085177708453
 21
497.4675982199541
 31
0.0
  0
LINE
  5
10EF
330
2
100
AcDbEntity
  8
0
100
AcDbLine
 10
479.0361132908286
 20
491.9588716844505
 30
0.0
 11
479.0361132908286
 21
497.4675982199541
 31
0.0
  0
LINE
  5
10F0
330
2
100
AcDbEntity
  8
0
100
AcDbLine
 10
431.5085177708408
 20
491.9588716844505
 30
0.0
 11
431.5085177708144
 21
497.4675982199541
 31
0.0
  0
LINE
  5
10F1
330
2
100
AcDbEntity
  8
0
100
AcDbLine
 10
434.508517770819
 20
491.9588716844505
 30
0.0
 11
434.508517770819
 21
497.4675982199541
 31
0.0
  0
LINE
  5
10F2
330
2
100
AcDbEntity
  8
0
100
AcDbLine
 10
445.9809222508359
 20
491.9588716844505
 30
0.0
 11
445.9809222508359
 21
497.4675982199541
 31
0.0
  0
LINE
  5
10F3
330
2
100
AcDbEntity
  8
CENTER
  6
CENS
100
AcDbLine
 10
493.5085177708499
 20
507.7588716844511
 30
0.0
 11
493.5085177708499
 21
488.2101702038544
 31
0.0
  0
LINE
  5
10F4
330
2
100
AcDbEntity
  8
0
100
AcDbLine
 10
497.7585177708236
 20
504.458871684451
 30
0.0
 11
497.7585177708236
 21
498.4588716844553
 31
0.0
  0
LINE
  5
10F5
330
2
100
AcDbEntity
  8
0
100
AcDbLine
 10
489.2585177708236
 20
504.458871684451
 30
0.0
 11
489.2585177708236
 21
498.4588716844512
 31
0.0
  0
LINE
  5
10F6
330
2
100
AcDbEntity
  8
0
100
AcDbLine
 10
489.2585177708236
 20
499.7588716844511
 30
0.0
 11
497.7585177708236
 21
499.7588716844511
 31
0.0
  0
LINE
  5
10F7
330
2
100
AcDbEntity
  8
0
100
AcDbLine
 10
489.2585177708236
 20
504.458871684451
 30
0.0
 11
497.7585177708236
 21
504.458871684451
 31
0.0
  0
LINE
  5
10F8
330
2
100
AcDbEntity
  8
0
100
AcDbLine
 10
489.2585177708236
 20
504.458871684451
 30
0.0
 11
489.778133013094
 21
504.7588716844511
 31
0.0
  0
LINE
  5
10F9
330
2
100
AcDbEntity
  8
0
100
AcDbLine
 10
497.7585177708236
 20
504.458871684451
 30
0.0
 11
497.2389025285531
 21
504.7588716844511
 31
0.0
  0
LINE
  5
10FA
330
2
100
AcDbEntity
  8
0
100
AcDbLine
 10
489.778133013094
 20
504.7588716844511
 30
0.0
 11
497.2389025285531
 21
504.7588716844511
 31
0.0
  0
LINE
  5
10FB
330
2
100
AcDbEntity
  8
HIDS
  6
SEKKEI_H
100
AcDbLine
 10
492.180090646086
 20
500.4588716844559
 30
0.0
 11
489.2585177708236
 21
500.4588716844555
 31
0.0
  0
LINE
  5
10FC
330
2
100
AcDbEntity
  8
CENTER
  6
CENS
100
AcDbLine
 10
431.5085177708144
 20
507.7588716844511
 30
0.0
 11
431.5085177708144
 21
488.2101702038544
 31
0.0
  0
LINE
  5
10FD
330
2
100
AcDbEntity
  8
0
100
AcDbLine
 10
427.2585177708408
 20
504.458871684451
 30
0.0
 11
427.2585177708418
 21
498.4588716844557
 31
0.0
  0
LINE
  5
10FE
330
2
100
AcDbEntity
  8
0
100
AcDbLine
 10
435.7585177708408
 20
504.458871684451
 30
0.0
 11
435.7585177708408
 21
498.4588716844512
 31
0.0
  0
LINE
  5
10FF
330
2
100
AcDbEntity
  8
0
100
AcDbLine
 10
435.7585177708408
 20
499.7588716844511
 30
0.0
 11
427.2585177708408
 21
499.7588716844511
 31
0.0
  0
LINE
  5
1100
330
2
100
AcDbEntity
  8
0
100
AcDbLine
 10
435.7585177708408
 20
504.458871684451
 30
0.0
 11
427.2585177708408
 21
504.458871684451
 31
0.0
  0
LINE
  5
1101
330
2
100
AcDbEntity
  8
0
100
AcDbLine
 10
435.7585177708408
 20
504.458871684451
 30
0.0
 11
435.2389025285703
 21
504.7588716844511
 31
0.0
  0
LINE
  5
1102
330
2
100
AcDbEntity
  8
0
100
AcDbLine
 10
427.2585177708408
 20
504.458871684451
 30
0.0
 11
427.7781330131122
 21
504.7588716844511
 31
0.0
  0
LINE
  5
1103
330
2
100
AcDbEntity
  8
0
100
AcDbLine
 10
435.2389025285703
 20
504.7588716844511
 30
0.0
 11
427.7781330131122
 21
504.7588716844511
 31
0.0
  0
LINE
  5
1104
330
2
100
AcDbEntity
  8
HIDS
  6
SEKKEI_H
100
AcDbLine
 10
435.7585177708408
 20
500.4588716844555
 30
0.0
 11
432.8369448955784
 21
500.4588716844555
 31
0.0
  0
LINE
  5
1105
330
2
100
AcDbEntity
  8
0
100
AcDbLine
 10
493.5085177708235
 20
491.9588716844505
 30
0.0
 11
493.5085177708499
 21
497.4675982199541
 31
0.0
  0
LINE
  5
1106
330
2
100
AcDbEntity
  8
0
100
AcDbLine
 10
498.0904438426616
 20
497.4675982199535
 30
0.0
 11
498.1385177708327
 21
491.9588716844495
 31
0.0
  0
ARC
  5
1107
330
2
100
AcDbEntity
  8
0
100
AcDbCircle
 10
497.0904819195977
 20
497.4588716844553
 30
0.0
 40
1.0
100
AcDbArc
 50
0.4999999999980603
 51
90.0
  0
LINE
  5
1108
330
2
100
AcDbEntity
  8
0
100
AcDbLine
 10
498.3185177708326
 20
470.9588716843659
 30
0.0
 11
497.9868967947825
 21
432.9588716841556
 31
0.0
  0
ARC
  5
1109
330
2
100
AcDbEntity
  8
0
100
AcDbCircle
 10
501.0524625383702
 20
440.4588716841565
 30
0.0
 40
3.0
100
AcDbArc
 50
90.0
 51
179.5000000000019
  0
ARC
  5
110A
330
2
100
AcDbEntity
  8
0
100
AcDbCircle
 10
501.096096877324
 20
445.4588716841564
 30
0.0
 40
3.0
100
AcDbArc
 50
90.0
 51
179.5000000000019
  0
ARC
  5
110B
330
2
100
AcDbEntity
  8
0
100
AcDbCircle
 10
501.2706342331391
 20
465.4588716841565
 30
0.0
 40
3.0
100
AcDbArc
 50
90.0
 51
179.5000000000019
  0
LINE
  5
110C
330
2
100
AcDbEntity
  8
0
100
AcDbLine
 10
309.5303818493787
 20
103.1035394916181
 30
0.0
 11
369.5303818493787
 21
103.1035394916181
 31
0.0
  0
LINE
  5
110D
330
2
100
AcDbEntity
  8
0
100
AcDbLine
 10
288.5303818493787
 20
105.153539491618
 30
0.0
 11
394.5303818493787
 21
105.1535394916177
 31
0.0
  0
LINE
  5
110E
330
2
100
AcDbEntity
  8
CENTER
100
AcDbLine
 10
401.5303818493782
 20
95.35358559663348
 30
0.0
 11
281.5303818493787
 21
95.35358123309164
 31
0.0
  0
LINE
  5
110F
330
2
100
AcDbEntity
  8
0
100
AcDbLine
 10
366.5303818493787
 20
83.35353949161799
 30
0.0
 11
366.5303818493787
 21
82.853539491618
 31
0.0
  0
LINE
  5
1110
330
2
100
AcDbEntity
  8
0
100
AcDbLine
 10
394.5303818493787
 20
107.3535394916179
 30
0.0
 11
394.5303818493787
 21
83.35353949161799
 31
0.0
  0
LINE
  5
1111
330
2
100
AcDbEntity
  8
0
100
AcDbLine
 10
394.5303818493787
 20
107.353539491618
 30
0.0
 11
394.5303818493787
 21
83.35353949161822
 31
0.0
  0
LINE
  5
1112
330
2
100
AcDbEntity
  8
CENTER
100
AcDbLine
 10
388.0303818493787
 20
100.1979678215527
 30
0.0
 11
388.0303818493787
 21
111.6455191482212
 31
0.0
  0
LINE
  5
1113
330
2
100
AcDbEntity
  8
0
100
AcDbLine
 10
373.0552593065042
 20
83.35353949161799
 30
0.0
 11
394.5303818493787
 21
83.35353949161799
 31
0.0
  0
LINE
  5
1114
330
2
100
AcDbEntity
  8
0
100
AcDbLine
 10
379.6803818493783
 20
102.8535394916181
 30
0.0
 11
385.5303818493787
 21
102.8535394916181
 31
0.0
  0
LINE
  5
1115
330
2
100
AcDbEntity
  8
0
100
AcDbLine
 10
379.6803818493792
 20
87.85353949161788
 30
0.0
 11
385.5303818493787
 21
87.85353949161788
 31
0.0
  0
LINE
  5
1116
330
2
100
AcDbEntity
  8
0
100
AcDbLine
 10
373.0551989175103
 20
107.3535394916178
 30
0.0
 11
394.5303818493787
 21
107.3535394916179
 31
0.0
  0
LINE
  5
1117
330
2
100
AcDbEntity
  8
0
100
AcDbLine
 10
390.5303818493787
 20
87.35353949161789
 30
0.0
 11
390.5303818493787
 21
103.3535394916181
 31
0.0
  0
LINE
  5
1118
330
2
100
AcDbEntity
  8
0
100
AcDbLine
 10
385.5303818493787
 20
87.35353949161789
 30
0.0
 11
385.5303818493787
 21
103.3535394916181
 31
0.0
  0
LINE
  5
1119
330
2
100
AcDbEntity
  8
0
100
AcDbLine
 10
392.5303818493787
 20
102.8535394916181
 30
0.0
 11
392.5303818493787
 21
87.85353949161777
 31
0.0
  0
LINE
  5
111A
330
2
100
AcDbEntity
  8
0
100
AcDbLine
 10
390.5303818493787
 20
87.85353949161777
 30
0.0
 11
392.5303818493787
 21
87.85353949161788
 31
0.0
  0
LINE
  5
111B
330
2
100
AcDbEntity
  8
0
100
AcDbLine
 10
394.5303818493787
 20
86.69883895323835
 30
0.0
 11
392.5303818493787
 21
87.85353949161754
 31
0.0
  0
CIRCLE
  5
111C
330
2
100
AcDbEntity
  8
0
100
AcDbCircle
 10
366.6012472613394
 20
262.2329365931928
 30
0.0
 40
1.6
  0
CIRCLE
  5
111D
330
2
100
AcDbEntity
  8
HOJO
 48
0.5
100
AcDbCircle
 10
366.6012472613394
 20
262.2329365931928
 30
0.0
 40
2.0
  0
LINE
  5
111E
330
2
100
AcDbEntity
  8
0
100
AcDbLine
 10
385.5303818493787
 20
87.35353949161789
 30
0.0
 11
390.5303818493787
 21
87.35353949161789
 31
0.0
  0
LINE
  5
111F
330
2
100
AcDbEntity
  8
0
100
AcDbLine
 10
390.5303818493787
 20
102.8535394916181
 30
0.0
 11
392.5303818493787
 21
102.8535394916181
 31
0.0
  0
LINE
  5
1120
330
2
100
AcDbEntity
  8
0
100
AcDbLine
 10
394.5303818493787
 20
104.0082400299972
 30
0.0
 11
392.5303818493787
 21
102.8535394916181
 31
0.0
  0
LINE
  5
1121
330
2
100
AcDbEntity
  8
0
100
AcDbLine
 10
385.5303818493787
 20
103.3535394916181
 30
0.0
 11
390.5303818493787
 21
103.3535394916181
 31
0.0
  0
LINE
  5
1122
330
2
100
AcDbEntity
  8
HOJO
 48
0.5
100
AcDbLine
 10
386.0303818493787
 20
105.1535394916176
 30
0.0
 11
386.0303818493787
 21
107.3535394916177
 31
0.0
  0
LINE
  5
1123
330
2
100
AcDbEntity
  8
0
100
AcDbLine
 10
389.6303818493791
 20
105.1535394916177
 30
0.0
 11
389.6303818493791
 21
107.3535394916178
 31
0.0
  0
LINE
  5
1124
330
2
100
AcDbEntity
  8
HOJO
 48
0.5
100
AcDbLine
 10
390.0303818493787
 20
105.1535394916177
 30
0.0
 11
390.0303818493787
 21
107.3535394916177
 31
0.0
  0
LINE
  5
1125
330
2
100
AcDbEntity
  8
0
100
AcDbLine
 10
386.4303818493783
 20
105.1535394916176
 30
0.0
 11
386.4303818493783
 21
107.3535394916177
 31
0.0
  0
LINE
  5
1126
330
2
100
AcDbEntity
  8
0
100
AcDbLine
 10
369.5303818493787
 20
103.1035394916181
 30
0.0
 11
369.5303818493787
 21
87.603539491618
 31
0.0
  0
LINE
  5
1127
330
2
100
AcDbEntity
  8
0
100
AcDbLine
 10
379.6803818493783
 20
103.2035394916181
 30
0.0
 11
379.6803818493792
 21
87.50353949161786
 31
0.0
  0
LINE
  5
1128
330
2
100
AcDbEntity
  8
0
100
AcDbLine
 10
378.5303818493787
 20
103.2035394916181
 30
0.0
 11
378.5303818493787
 21
87.50353949161786
 31
0.0
  0
LINE
  5
1129
330
2
100
AcDbEntity
  8
0
100
AcDbLine
 10
309.5303818493787
 20
87.603539491618
 30
0.0
 11
369.5303818493787
 21
87.603539491618
 31
0.0
  0
LINE
  5
112A
330
2
100
AcDbEntity
  8
0
100
AcDbLine
 10
369.5303818493787
 20
87.85353949161788
 30
0.0
 11
378.5303818493787
 21
87.85353949161788
 31
0.0
  0
LINE
  5
112B
330
2
100
AcDbEntity
  8
0
100
AcDbLine
 10
369.5303818493787
 20
102.8535394916179
 30
0.0
 11
378.5303818493787
 21
102.8535394916181
 31
0.0
  0
LINE
  5
112C
330
2
100
AcDbEntity
  8
0
100
AcDbLine
 10
366.5303818493787
 20
107.853539491618
 30
0.0
 11
366.5303818493787
 21
107.3535394916178
 31
0.0
  0
LINE
  5
112D
330
2
100
AcDbEntity
  8
0
100
AcDbLine
 10
288.5303818493787
 20
107.3535394916172
 30
0.0
 11
288.5303818493787
 21
83.35353949161913
 31
0.0
  0
LINE
  5
112E
330
2
100
AcDbEntity
  8
0
100
AcDbLine
 10
301.1349296450673
 20
83.35353949161936
 30
0.0
 11
288.5303818493787
 21
83.35353949161936
 31
0.0
  0
LINE
  5
112F
330
2
100
AcDbEntity
  8
0
100
AcDbLine
 10
296.380381849379
 20
103.203539491618
 30
0.0
 11
296.380381849379
 21
87.50353949161832
 31
0.0
  0
LINE
  5
1130
330
2
100
AcDbEntity
  8
0
100
AcDbLine
 10
297.5303818493787
 20
103.2035394916181
 30
0.0
 11
297.5303818493787
 21
87.50353949161809
 31
0.0
  0
LINE
  5
1131
330
2
100
AcDbEntity
  8
0
100
AcDbLine
 10
290.5303818493787
 20
102.8535394916181
 30
0.0
 11
290.5303818493787
 21
87.85353949161821
 31
0.0
  0
LINE
  5
1132
330
2
100
AcDbEntity
  8
0
100
AcDbLine
 10
309.5303818493787
 20
103.1035394916181
 30
0.0
 11
309.5303818493787
 21
87.603539491618
 31
0.0
  0
LINE
  5
1133
330
2
100
AcDbEntity
  8
0
100
AcDbLine
 10
297.5303818493787
 20
87.85353949161811
 30
0.0
 11
309.5303818493787
 21
87.85353949161811
 31
0.0
  0
LINE
  5
1134
330
2
100
AcDbEntity
  8
0
100
AcDbLine
 10
290.5303818493787
 20
87.85353949161821
 30
0.0
 11
296.380381849379
 21
87.85353949161811
 31
0.0
  0
LINE
  5
1135
330
2
100
AcDbEntity
  8
0
100
AcDbLine
 10
290.5303818493787
 20
87.85353949161821
 30
0.0
 11
288.5303818493787
 21
86.69883895323891
 31
0.0
  0
LINE
  5
1136
330
2
100
AcDbEntity
  8
0
100
AcDbLine
 10
301.1349896407875
 20
107.3535394916179
 30
0.0
 11
288.5303818493787
 21
107.3535394916172
 31
0.0
  0
LINE
  5
1137
330
2
100
AcDbEntity
  8
0
100
AcDbLine
 10
297.5303818493787
 20
102.8535394916181
 30
0.0
 11
309.5303818493787
 21
102.8535394916179
 31
0.0
  0
LINE
  5
1138
330
2
100
AcDbEntity
  8
0
100
AcDbLine
 10
290.5303818493787
 20
102.8535394916181
 30
0.0
 11
296.380381849379
 21
102.8535394916181
 31
0.0
  0
LINE
  5
1139
330
2
100
AcDbEntity
  8
0
100
AcDbLine
 10
290.5303818493787
 20
102.8535394916182
 30
0.0
 11
288.5303818493787
 21
104.0082400299974
 31
0.0
  0
LINE
  5
113A
330
2
100
AcDbEntity
  8
0
100
AcDbLine
 10
296.380381849379
 20
103.203539491618
 30
0.0
 11
297.5303818493787
 21
103.2035394916181
 31
0.0
  0
LINE
  5
113B
330
2
100
AcDbEntity
  8
0
100
AcDbLine
 10
296.380381849379
 20
87.50353949161832
 30
0.0
 11
297.5303818493787
 21
87.50353949161809
 31
0.0
  0
LINE
  5
113C
330
2
100
AcDbEntity
  8
0
100
AcDbLine
 10
378.5303818493787
 20
103.2035394916181
 30
0.0
 11
379.6803818493783
 21
103.2035394916181
 31
0.0
  0
LINE
  5
113D
330
2
100
AcDbEntity
  8
0
100
AcDbLine
 10
378.5303818493787
 20
87.50353949161786
 30
0.0
 11
379.6803818493792
 21
87.50353949161786
 31
0.0
  0
LINE
  5
113E
330
2
100
AcDbEntity
  8
CENTER
100
AcDbLine
 10
328.5303818493755
 20
52.53684956569316
 30
0.0
 11
328.5303818493755
 21
138.1703211184913
 31
0.0
  0
LINE
  5
113F
330
2
100
AcDbEntity
  8
0
100
AcDbLine
 10
366.530381849376
 20
59.86847054172597
 30
0.0
 11
366.530381849376
 21
84.24539739992951
 31
0.0
  0
LINE
  5
1140
330
2
100
AcDbEntity
  8
0
100
AcDbLine
 10
366.5303818493768
 20
106.4617713133085
 30
0.0
 11
366.5303818493768
 21
130.838700142454
 31
0.0
  0
LINE
  5
1141
330
2
100
AcDbEntity
  8
0
100
AcDbLine
 10
371.5303818493751
 20
65.35358534209695
 30
0.0
 11
371.5303818493751
 21
84.30015894029123
 31
0.0
  0
LINE
  5
1142
330
2
100
AcDbEntity
  8
0
100
AcDbLine
 10
371.5303818493751
 20
106.4070101852977
 30
0.0
 11
371.5303818493751
 21
125.3535853420967
 31
0.0
  0
LINE
  5
1143
330
2
100
AcDbEntity
  8
0
100
AcDbLine
 10
366.530381849375
 20
65.35358534209695
 30
0.0
 11
371.5303818493751
 21
65.35358534209695
 31
0.0
  0
LINE
  5
1144
330
2
100
AcDbEntity
  8
0
100
AcDbLine
 10
366.530381849375
 20
125.3535853420967
 30
0.0
 11
371.5303818493751
 21
125.3535853420967
 31
0.0
  0
LINE
  5
1145
330
2
100
AcDbEntity
  8
0
100
AcDbLine
 10
384.5303818493787
 20
73.2849628916997
 30
0.0
 11
384.5303818493787
 21
83.35353949161799
 31
0.0
  0
LINE
  5
1146
330
2
100
AcDbEntity
  8
0
100
AcDbLine
 10
384.5303818493787
 20
107.3535394916179
 30
0.0
 11
384.5303818493787
 21
117.4222077924719
 31
0.0
  0
LINE
  5
1147
330
2
100
AcDbEntity
  8
0
100
AcDbLine
 10
373.4605828559736
 20
70.96701944311689
 30
0.0
 11
382.6001808427838
 21
71.28618123766182
 31
0.0
  0
LINE
  5
1148
330
2
100
AcDbEntity
  8
0
100
AcDbLine
 10
373.4605828559736
 20
119.7401512410538
 30
0.0
 11
382.6001808427838
 21
119.4209894465098
 31
0.0
  0
ARC
  5
1149
330
2
100
AcDbEntity
  8
0
100
AcDbCircle
 10
382.5303818493787
 20
73.2849628916997
 30
0.0
 40
2.0
100
AcDbArc
 50
272.0000000000036
 51
0.0
  0
ARC
  5
114A
330
2
100
AcDbEntity
  8
0
100
AcDbCircle
 10
382.5303818493787
 20
117.4222077924719
 30
0.0
 40
2.0
100
AcDbArc
 50
0.0
 51
87.99999999999636
  0
ARC
  5
114B
330
2
100
AcDbEntity
  8
0
100
AcDbCircle
 10
373.5303818493787
 20
121.7389328950917
 30
0.0
 40
2.0
100
AcDbArc
 50
180.0
 51
267.9999999999963
  0
ARC
  5
114C
330
2
100
AcDbEntity
  8
0
100
AcDbCircle
 10
373.5303818493787
 20
68.96823778907901
 30
0.0
 40
2.0
100
AcDbArc
 50
92.00000000000365
 51
180.0
  0
LINE
  5
114D
330
2
100
AcDbEntity
  8
0
100
AcDbLine
 10
307.5303818490804
 20
131.3535853420933
 30
0.0
 11
366.5303818493768
 21
130.838700142454
 31
0.0
  0
LINE
  5
114E
330
2
100
AcDbEntity
  8
0
100
AcDbLine
 10
307.5303818490804
 20
59.35358534209353
 30
0.0
 11
366.530381849376
 21
59.86847054172597
 31
0.0
  0
LINE
  5
114F
330
2
100
AcDbEntity
  8
0
100
AcDbLine
 10
307.5303818490804
 20
131.3492219081805
 30
0.0
 11
307.5303818490804
 21
106.5337774294923
 31
0.0
  0
LINE
  5
1150
330
2
100
AcDbEntity
  8
0
100
AcDbLine
 10
307.5303818490804
 20
84.17338710511831
 30
0.0
 11
307.5303818490804
 21
59.35794877601347
 31
0.0
  0
LINE
  5
1151
330
2
100
AcDbEntity
  8
0
100
AcDbLine
 10
299.0303818490804
 20
69.853585342094
 30
0.0
 11
298.5303818490804
 21
70.35358534209354
 31
0.0
  0
LINE
  5
1152
330
2
100
AcDbEntity
  8
0
100
AcDbLine
 10
299.0303818490749
 20
69.853585342099
 30
0.0
 11
299.0303818490749
 21
68.60358534210206
 31
0.0
  0
LINE
  5
1153
330
2
100
AcDbEntity
  8
0
100
AcDbLine
 10
298.5303818490813
 20
76.35358534209467
 30
0.0
 11
291.5303818490804
 21
76.35358534209467
 31
0.0
  0
LINE
  5
1154
330
2
100
AcDbEntity
  8
0
100
AcDbLine
 10
293.2303818490802
 20
73.0535853420929
 30
0.0
 11
294.8303818490797
 21
73.05358534209313
 31
0.0
  0
LINE
  5
1155
330
2
100
AcDbEntity
  8
0
100
AcDbLine
 10
295.0303818490804
 20
72.55358534209313
 30
0.0
 11
295.2303818490802
 21
72.35358534209308
 31
0.0
  0
LINE
  5
1156
330
2
100
AcDbEntity
  8
0
100
AcDbLine
 10
298.5303818490749
 20
120.353585342088
 30
0.0
 11
298.5303818490758
 21
115.258222662722
 31
0.0
  0
LINE
  5
1157
330
2
100
AcDbEntity
  8
0
100
AcDbLine
 10
298.5303818490804
 20
75.44894040118959
 30
0.0
 11
298.5303818490804
 21
70.35358534209354
 31
0.0
  0
LINE
  5
1158
330
2
100
AcDbEntity
  8
0
100
AcDbLine
 10
295.2303818490802
 20
72.35358534209308
 30
0.0
 11
298.5303818490804
 21
72.35358534209353
 31
0.0
  0
LINE
  5
1159
330
2
100
AcDbEntity
  8
0
100
AcDbLine
 10
295.0303818490804
 20
72.55358534209313
 30
0.0
 11
295.0303818490804
 21
75.19357036031738
 31
0.0
  0
LINE
  5
115A
330
2
100
AcDbEntity
  8
0
100
AcDbLine
 10
295.0303818490804
 20
115.5135931530091
 30
0.0
 11
295.0303818490804
 21
118.1535853420941
 31
0.0
  0
LINE
  5
115B
330
2
100
AcDbEntity
  8
0
100
AcDbLine
 10
291.5303818490804
 20
72.35358534209263
 30
0.0
 11
290.5303818490803
 21
72.93093561128239
 31
0.0
  0
LINE
  5
115C
330
2
100
AcDbEntity
  8
0
100
AcDbLine
 10
291.5303818490804
 20
72.35358534209263
 30
0.0
 11
292.8303818490796
 21
72.35358534209308
 31
0.0
  0
LINE
  5
115D
330
2
100
AcDbEntity
  8
0
100
AcDbLine
 10
293.0303818490804
 20
72.5535853420929
 30
0.0
 11
293.0303818490822
 21
74.9320897521327
 31
0.0
  0
LINE
  5
115E
330
2
100
AcDbEntity
  8
0
100
AcDbLine
 10
293.0303818491295
 20
115.7750730024355
 30
0.0
 11
293.0303818491313
 21
118.1535853420941
 31
0.0
  0
LINE
  5
115F
330
2
100
AcDbEntity
  8
0
100
AcDbLine
 10
291.5303818490804
 20
76.35358534209467
 30
0.0
 11
290.5303818490803
 21
75.77623507290491
 31
0.0
  0
LINE
  5
1160
330
2
100
AcDbEntity
  8
0
100
AcDbLine
 10
291.5303818490804
 20
114.3535853420948
 30
0.0
 11
291.5303818490804
 21
107.3535394916174
 31
0.0
  0
LINE
  5
1161
330
2
100
AcDbEntity
  8
0
100
AcDbLine
 10
291.5303818490804
 20
83.35353949161936
 30
0.0
 11
291.5303818490804
 21
76.35358534209467
 31
0.0
  0
LINE
  5
1162
330
2
100
AcDbEntity
  8
0
100
AcDbLine
 10
290.5303818490803
 20
117.7762350729053
 30
0.0
 11
290.5303818490813
 21
107.3535394916173
 31
0.0
  0
LINE
  5
1163
330
2
100
AcDbEntity
  8
0
100
AcDbLine
 10
290.5303818490813
 20
95.35358156035739
 30
0.0
 11
290.5303818490822
 21
87.85353949161821
 31
0.0
  0
LINE
  5
1164
330
2
100
AcDbEntity
  8
0
100
AcDbLine
 10
290.5303818490813
 20
83.35353949161936
 30
0.0
 11
290.5303818490822
 21
72.93093561128149
 31
0.0
  0
LINE
  5
1165
330
2
100
AcDbEntity
  8
0
100
AcDbLine
 10
298.5303818490813
 20
114.3535853420935
 30
0.0
 11
291.5303818490786
 21
114.353585342093
 31
0.0
  0
LINE
  5
1166
330
2
100
AcDbEntity
  8
0
100
AcDbLine
 10
293.2303818490802
 20
117.6535853420944
 30
0.0
 11
294.8303818490797
 21
117.6535853420941
 31
0.0
  0
LINE
  5
1167
330
2
100
AcDbEntity
  8
0
100
AcDbLine
 10
295.0303818490804
 20
118.1535853420941
 30
0.0
 11
295.2303818490802
 21
118.3535853420942
 31
0.0
  0
LINE
  5
1168
330
2
100
AcDbEntity
  8
0
100
AcDbLine
 10
295.2303818490802
 20
118.3535853420942
 30
0.0
 11
298.5303818490804
 21
118.3535853420937
 31
0.0
  0
LINE
  5
1169
330
2
100
AcDbEntity
  8
0
100
AcDbLine
 10
291.5303818490804
 20
114.3535853420921
 30
0.0
 11
290.5303818490803
 21
114.9309356112817
 31
0.0
  0
LINE
  5
116A
330
2
100
AcDbEntity
  8
0
100
AcDbLine
 10
291.5303818490804
 20
118.3535853420944
 30
0.0
 11
290.5303818490803
 21
117.7762350729049
 31
0.0
  0
LINE
  5
116B
330
2
100
AcDbEntity
  8
0
100
AcDbLine
 10
291.5303818490804
 20
118.3535853420944
 30
0.0
 11
292.8303818490796
 21
118.3535853420944
 31
0.0
  0
LINE
  5
116C
330
2
100
AcDbEntity
  8
HIDS
  6
SEKKEI_H
100
AcDbLine
 10
299.6161682867025
 20
126.4393717797206
 30
0.0
 11
300.4445954114483
 21
127.2677989044668
 31
0.0
  0
LINE
  5
116D
330
2
100
AcDbEntity
  8
0
100
AcDbLine
 10
307.5303818490804
 20
131.3535853420935
 30
0.0
 11
302.0303818490758
 21
131.3535853420935
 31
0.0
  0
LINE
  5
116E
330
2
100
AcDbEntity
  8
0
100
AcDbLine
 10
307.5303818490804
 20
131.3535853420933
 30
0.0
 11
307.5303818490804
 21
106.5337774294923
 31
0.0
  0
LINE
  5
116F
330
2
100
AcDbEntity
  8
0
100
AcDbLine
 10
307.5303818490804
 20
84.17338710511842
 30
0.0
 11
307.5303818490804
 21
59.35358534209353
 31
0.0
  0
LINE
  5
1170
330
2
100
AcDbEntity
  8
0
100
AcDbLine
 10
299.0303818490804
 20
120.8535853420933
 30
0.0
 11
298.5303818490749
 21
120.353585342088
 31
0.0
  0
ARC
  5
1171
330
2
100
AcDbEntity
  8
0
100
AcDbCircle
 10
302.0303818490749
 20
130.3535853420935
 30
0.0
 40
1.0
100
AcDbArc
 50
180.0
 51
180.0
  0
ARC
  5
1172
330
2
100
AcDbEntity
  8
HIDS
  6
SEKKEI_H
100
AcDbCircle
 10
301.0303818490749
 20
125.0251582173475
 30
0.0
 40
2.0
100
AcDbArc
 50
135.0000000000092
 51
180.0
  0
ARC
  5
1173
330
2
100
AcDbEntity
  8
HIDS
  6
SEKKEI_H
100
AcDbCircle
 10
299.0303818490749
 20
128.6820124668399
 30
0.0
 40
2.0
100
AcDbArc
 50
315.0000000000092
 51
0.0
  0
ARC
  5
1174
330
2
100
AcDbEntity
  8
0
100
AcDbCircle
 10
292.8303818490796
 20
118.1535853420941
 30
0.0
 40
0.2
100
AcDbArc
 50
359.9999999999348
 51
90.0
  0
ARC
  5
1175
330
2
100
AcDbEntity
  8
0
100
AcDbCircle
 10
293.2303818490802
 20
117.8535853420944
 30
0.0
 40
0.2
100
AcDbArc
 50
180.0000000000651
 51
270.0
  0
ARC
  5
1176
330
2
100
AcDbEntity
  8
0
100
AcDbCircle
 10
294.8303818490797
 20
117.8535853420942
 30
0.0
 40
0.2
100
AcDbArc
 50
270.0
 51
0.0
  0
ARC
  5
1177
330
2
100
AcDbEntity
  8
0
100
AcDbCircle
 10
292.8303818490796
 20
72.5535853420929
 30
0.0
 40
0.2
100
AcDbArc
 50
270.0
 51
359.9999999999348
  0
ARC
  5
1178
330
2
100
AcDbEntity
  8
0
100
AcDbCircle
 10
293.2303818490802
 20
72.85358534209286
 30
0.0
 40
0.2
100
AcDbArc
 50
90.0
 51
179.9999999999348
  0
ARC
  5
1179
330
2
100
AcDbEntity
  8
0
100
AcDbCircle
 10
294.8303818490797
 20
72.85358534209308
 30
0.0
 40
0.2
100
AcDbArc
 50
0.0
 51
90.0
  0
LINE
  5
117A
330
2
100
AcDbEntity
  8
HIDS
  6
SEKKEI_H
100
AcDbLine
 10
299.6161682867025
 20
64.26779890446642
 30
0.0
 11
300.4445954114491
 21
63.4393717797202
 31
0.0
  0
LINE
  5
117B
330
2
100
AcDbEntity
  8
0
100
AcDbLine
 10
307.5303818490804
 20
59.35358534209353
 30
0.0
 11
302.0303818490758
 21
59.35358534209353
 31
0.0
  0
LINE
  5
117C
330
2
100
AcDbEntity
  8
0
100
AcDbLine
 10
301.0303818490758
 20
130.6035853420848
 30
0.0
 11
301.0303818490758
 21
107.5064708895145
 31
0.0
  0
LINE
  5
117D
330
2
100
AcDbEntity
  8
0
100
AcDbLine
 10
301.0303818490758
 20
83.20069164065182
 30
0.0
 11
301.0303818490758
 21
60.10358534210206
 31
0.0
  0
ARC
  5
117E
330
2
100
AcDbEntity
  8
0
100
AcDbCircle
 10
302.0303818490758
 20
130.3535853420935
 30
0.0
 40
1.0
100
AcDbArc
 50
90.0
 51
180.0
  0
LINE
  5
117F
330
2
100
AcDbEntity
  8
0
100
AcDbLine
 10
299.0303818490758
 20
122.103585342085
 30
0.0
 11
299.0303818490758
 21
114.9727740540934
 31
0.0
  0
LINE
  5
1180
330
2
100
AcDbEntity
  8
0
100
AcDbLine
 10
299.0303818490758
 20
75.7343886473086
 30
0.0
 11
299.0303818490758
 21
68.60358534210206
 31
0.0
  0
ARC
  5
1181
330
2
100
AcDbEntity
  8
0
100
AcDbCircle
 10
302.0303818490758
 20
60.35358534209354
 30
0.0
 40
1.0
100
AcDbArc
 50
180.0
 51
270.0
  0
ARC
  5
1182
330
2
100
AcDbEntity
  8
HIDS
  6
SEKKEI_H
100
AcDbCircle
 10
301.0303818490758
 20
65.68201246683952
 30
0.0
 40
2.0
100
AcDbArc
 50
180.0
 51
224.9999999999908
  0
ARC
  5
1183
330
2
100
AcDbEntity
  8
HIDS
  6
SEKKEI_H
100
AcDbCircle
 10
299.0303818490758
 20
62.0251582173471
 30
0.0
 40
2.0
100
AcDbArc
 50
0.0
 51
44.99999999999078
  0
LINE
  5
1184
330
2
100
AcDbEntity
  8
0
100
AcDbLine
 10
366.5303818493768
 20
123.3535853421069
 30
0.0
 11
307.5303818490804
 21
123.3535853421069
 31
0.0
  0
LINE
  5
1185
330
2
100
AcDbEntity
  8
0
100
AcDbLine
 10
366.5303818493768
 20
126.3535853420851
 30
0.0
 11
307.5303818490804
 21
126.3535853420851
 31
0.0
  0
LINE
  5
1186
330
2
100
AcDbEntity
  8
0
100
AcDbLine
 10
366.5303818493768
 20
111.8811808620898
 30
0.0
 11
307.5303818490804
 21
111.8811808620898
 31
0.0
  0
LINE
  5
1187
330
2
100
AcDbEntity
  8
0
100
AcDbLine
 10
307.5303818490804
 20
123.3535853421069
 30
0.0
 11
302.0303818490758
 21
123.3535853421068
 31
0.0
  0
LINE
  5
1188
330
2
100
AcDbEntity
  8
0
100
AcDbLine
 10
307.5303818490804
 20
111.8811808620898
 30
0.0
 11
302.0303818490758
 21
111.8811808620897
 31
0.0
  0
LINE
  5
1189
330
2
100
AcDbEntity
  8
0
100
AcDbLine
 10
307.5303818490804
 20
64.35358534210195
 30
0.0
 11
302.0303818490758
 21
64.35358534207603
 31
0.0
  0
LINE
  5
118A
330
2
100
AcDbEntity
  8
0
100
AcDbLine
 10
307.5303818490804
 20
67.35358534208012
 30
0.0
 11
302.0303818490758
 21
67.35358534208022
 31
0.0
  0
LINE
  5
118B
330
2
100
AcDbEntity
  8
0
100
AcDbLine
 10
307.5303818490804
 20
78.8259898220972
 30
0.0
 11
302.0303818490758
 21
78.8259898220973
 31
0.0
  0
LINE
  5
118C
330
2
100
AcDbEntity
  8
0
100
AcDbLine
 10
366.5303818493768
 20
67.35358534208012
 30
0.0
 11
307.5303818490804
 21
67.35358534208012
 31
0.0
  0
LINE
  5
118D
330
2
100
AcDbEntity
  8
0
100
AcDbLine
 10
366.5303818493768
 20
64.35358534210195
 30
0.0
 11
307.5303818490804
 21
64.35358534210195
 31
0.0
  0
LINE
  5
118E
330
2
100
AcDbEntity
  8
0
100
AcDbLine
 10
366.5303818493768
 20
78.8259898220972
 30
0.0
 11
307.5303818490804
 21
78.8259898220972
 31
0.0
  0
LINE
  5
118F
330
2
100
AcDbEntity
  8
CENTER
  6
CENS
100
AcDbLine
 10
291.7303818490802
 20
126.353585342111
 30
0.0
 11
311.2790833296769
 21
126.353585342111
 31
0.0
  0
LINE
  5
1190
330
2
100
AcDbEntity
  8
0
100
AcDbLine
 10
295.0303818490804
 20
130.603585342085
 30
0.0
 11
301.0303818490758
 21
130.6035853420848
 31
0.0
  0
LINE
  5
1191
330
2
100
AcDbEntity
  8
0
100
AcDbLine
 10
295.0303818490804
 20
122.103585342085
 30
0.0
 11
301.0303818490804
 21
122.103585342085
 31
0.0
  0
LINE
  5
1192
330
2
100
AcDbEntity
  8
0
100
AcDbLine
 10
299.7303818490802
 20
122.103585342085
 30
0.0
 11
299.7303818490802
 21
130.603585342085
 31
0.0
  0
LINE
  5
1193
330
2
100
AcDbEntity
  8
0
100
AcDbLine
 10
295.0303818490804
 20
122.103585342085
 30
0.0
 11
295.0303818490804
 21
130.603585342085
 31
0.0
  0
LINE
  5
1194
330
2
100
AcDbEntity
  8
0
100
AcDbLine
 10
295.0303818490804
 20
122.103585342085
 30
0.0
 11
294.7303818490802
 21
122.6232005843554
 31
0.0
  0
LINE
  5
1195
330
2
100
AcDbEntity
  8
0
100
AcDbLine
 10
295.0303818490804
 20
130.603585342085
 30
0.0
 11
294.7303818490802
 21
130.0839700998141
 31
0.0
  0
LINE
  5
1196
330
2
100
AcDbEntity
  8
0
100
AcDbLine
 10
294.7303818490802
 20
122.6232005843554
 30
0.0
 11
294.7303818490802
 21
130.0839700998141
 31
0.0
  0
LINE
  5
1197
330
2
100
AcDbEntity
  8
HIDS
  6
SEKKEI_H
100
AcDbLine
 10
299.0303818490749
 20
125.0251582173475
 30
0.0
 11
299.0303818490758
 21
122.103585342085
 31
0.0
  0
LINE
  5
1198
330
2
100
AcDbEntity
  8
CENTER
  6
CENS
100
AcDbLine
 10
291.7303818490802
 20
64.35358534207603
 30
0.0
 11
302.0303818490758
 21
64.35358534207603
 31
0.0
  0
LINE
  5
1199
330
2
100
AcDbEntity
  8
0
100
AcDbLine
 10
295.0303818490804
 20
60.10358534210206
 30
0.0
 11
301.0303818490758
 21
60.10358534210206
 31
0.0
  0
LINE
  5
119A
330
2
100
AcDbEntity
  8
0
100
AcDbLine
 10
295.0303818490804
 20
68.60358534210206
 30
0.0
 11
301.0303818490804
 21
68.60358534210206
 31
0.0
  0
LINE
  5
119B
330
2
100
AcDbEntity
  8
0
100
AcDbLine
 10
299.7303818490802
 20
68.60358534210206
 30
0.0
 11
299.7303818490802
 21
60.10358534210206
 31
0.0
  0
LINE
  5
119C
330
2
100
AcDbEntity
  8
0
100
AcDbLine
 10
295.0303818490804
 20
68.60358534210206
 30
0.0
 11
295.0303818490804
 21
60.10358534210206
 31
0.0
  0
LINE
  5
119D
330
2
100
AcDbEntity
  8
0
100
AcDbLine
 10
295.0303818490804
 20
68.60358534210206
 30
0.0
 11
294.7303818490802
 21
68.08397009983162
 31
0.0
  0
LINE
  5
119E
330
2
100
AcDbEntity
  8
0
100
AcDbLine
 10
295.0303818490804
 20
60.10358534210206
 30
0.0
 11
294.7303818490802
 21
60.62320058437297
 31
0.0
  0
LINE
  5
119F
330
2
100
AcDbEntity
  8
0
100
AcDbLine
 10
294.7303818490802
 20
68.08397009983162
 30
0.0
 11
294.7303818490802
 21
60.62320058437297
 31
0.0
  0
LINE
  5
11A0
330
2
100
AcDbEntity
  8
HIDS
  6
SEKKEI_H
100
AcDbLine
 10
299.0303818490758
 20
68.60358534210206
 30
0.0
 11
299.0303818490758
 21
65.68201246683952
 31
0.0
  0
LINE
  5
11A1
330
2
100
AcDbEntity
  8
0
100
AcDbLine
 10
374.7374399270368
 20
75.06849435760045
 30
0.0
 11
375.5303818493787
 21
75.08925827258781
 31
0.0
  0
LINE
  5
11A2
330
2
100
AcDbEntity
  8
0
100
AcDbLine
 10
383.5303818493787
 20
76.35358497846528
 30
0.0
 11
383.5303818493787
 21
83.35353949161799
 31
0.0
  0
LINE
  5
11A3
330
2
100
AcDbEntity
  8
0
100
AcDbLine
 10
376.5303818493787
 20
76.3535849784655
 30
0.0
 11
376.5303818493787
 21
83.35353949161822
 31
0.0
  0
LINE
  5
11A4
330
2
100
AcDbEntity
  8
0
100
AcDbLine
 10
383.5303818493787
 20
107.3535394916179
 30
0.0
 11
383.5303818493787
 21
114.3535849784709
 31
0.0
  0
LINE
  5
11A5
330
2
100
AcDbEntity
  8
0
100
AcDbLine
 10
376.5303818493787
 20
107.3535394916179
 30
0.0
 11
376.5303818493787
 21
114.3535849784709
 31
0.0
  0
LINE
  5
11A6
330
2
100
AcDbEntity
  8
0
100
AcDbLine
 10
383.5303818493787
 20
76.35358497846528
 30
0.0
 11
384.5303818493787
 21
75.77623470927574
 31
0.0
  0
LINE
  5
11A7
330
2
100
AcDbEntity
  8
0
100
AcDbLine
 10
383.5303818493787
 20
76.35358497846528
 30
0.0
 11
375.5303818493787
 21
76.35358497846528
 31
0.0
  0
LINE
  5
11A8
330
2
100
AcDbEntity
  8
0
100
AcDbLine
 10
374.7374392290805
 20
115.6386756176067
 30
0.0
 11
375.5303818493787
 21
115.6179116843427
 31
0.0
  0
LINE
  5
11A9
330
2
100
AcDbEntity
  8
0
100
AcDbLine
 10
383.5303818493751
 20
114.3535849784666
 30
0.0
 11
384.530381849375
 21
114.9309352476564
 31
0.0
  0
LINE
  5
11AA
330
2
100
AcDbEntity
  8
0
100
AcDbLine
 10
383.5303818493787
 20
114.3535849784709
 30
0.0
 11
375.5303818493787
 21
114.3535849784709
 31
0.0
  0
LINE
  5
11AB
330
2
100
AcDbEntity
  8
0
100
AcDbLine
 10
375.5303818493787
 20
75.08925827258781
 30
0.0
 11
375.5303818493787
 21
83.35353949161799
 31
0.0
  0
LINE
  5
11AC
330
2
100
AcDbEntity
  8
0
100
AcDbLine
 10
375.5303818493787
 20
107.3535394916179
 30
0.0
 11
375.5303818493787
 21
115.6179116843427
 31
0.0
  0
SPLINE
  5
11AD
330
2
100
AcDbEntity
  8
HOJO
100
AcDbSpline
210
0.0
220
0.0
230
1.0
 70
     8
 71
     3
 72
    30
 73
    26
 74
     0
 42
0.0000000001
 43
0.0000000001
 40
0.5291151004632872
 40
0.5291151004632872
 40
0.5291151004632872
 40
0.5291151004632872
 40
1.956980023701299
 40
3.920474213777056
 40
6.804369916569926
 40
9.380599442303543
 40
11.64706261606478
 40
15.15450673012081
 40
18.33471389219206
 40
26.46123268957957
 40
33.84164654509357
 40
41.3139759608263
 40
50.08265962234144
 40
58.74767557572532
 40
65.64019968405365
 40
71.01864943212631
 40
79.37389829637055
 40
85.78834280733275
 40
89.35324359450742
 40
92.71679100073518
 40
95.51361072944564
 40
99.08107367810877
 40
102.5976528199299
 40
106.2025269131245
 40
108.7188069452504
 40
108.7188069452504
 40
108.7188069452504
 40
108.7188069452504
 10
290.5303818490803
 20
116.9122877730624
 30
0.0
 10
290.9619668966108
 20
116.7171808553405
 30
0.0
 10
291.9887275473176
 20
116.2474264851111
 30
0.0
 10
293.9161097847447
 20
115.2749774606618
 30
0.0
 10
296.4038297099534
 20
115.7437759653752
 30
0.0
 10
299.1585785988947
 20
115.3586009843637
 30
0.0
 10
300.733803360644
 20
112.6476262153855
 30
0.0
 10
299.8148392066198
 20
109.6831247467983
 30
0.0
 10
302.3804104642824
 20
104.4798816222671
 30
0.0
 10
309.9366840605864
 20
108.0693367782358
 30
0.0
 10
317.1520174324798
 20
105.6346319826999
 30
0.0
 10
325.1121111672212
 20
107.4761174479876
 30
0.0
 10
333.3767171338743
 20
105.9425434097507
 30
0.0
 10
341.496303701055
 20
107.8714675723592
 30
0.0
 10
348.4125915122652
 20
105.3056921606189
 30
0.0
 10
355.1404678657684
 20
107.8758888992542
 30
0.0
 10
361.9764275201871
 20
105.4560027164598
 30
0.0
 10
367.7215766508118
 20
106.9385649895844
 30
0.0
 10
372.8853202204675
 20
105.8694199977353
 30
0.0
 10
374.0600940620781
 20
109.820358590794
 30
0.0
 10
373.0956770921741
 20
112.8062598476264
 30
0.0
 10
374.6262425408979
 20
116.5222373823803
 30
0.0
 10
378.5920920542241
 20
116.5687616953639
 30
0.0
 10
381.7446666665175
 20
116.2207106221164
 30
0.0
 10
383.7100107111184
 20
116.9128203837499
 30
0.0
 10
384.5303818493841
 20
117.1028590339972
 30
0.0
  0
LINE
  5
11AE
330
2
100
AcDbEntity
  8
0
100
AcDbLine
 10
298.5303818490813
 20
115.2488416558157
 30
0.0
 11
298.5303818490813
 21
107.3535394916177
 31
0.0
  0
SPLINE
  5
11AF
330
2
100
AcDbEntity
  8
HOJO
100
AcDbSpline
210
0.0
220
0.0
230
1.0
 70
     8
 71
     3
 72
    30
 73
    26
 74
     0
 42
0.0000000001
 43
0.0000000001
 40
0.5291151004632872
 40
0.5291151004632872
 40
0.5291151004632872
 40
0.5291151004632872
 40
1.956980023701299
 40
3.920474213777056
 40
6.804369916569926
 40
9.380599442303543
 40
11.64706261606478
 40
15.15450673012081
 40
18.33471389219206
 40
26.46123268957957
 40
33.84164654509357
 40
41.3139759608263
 40
50.08265962234144
 40
58.74767557572532
 40
65.64019968405365
 40
71.01864943212631
 40
79.37389829637055
 40
85.78834280733275
 40
89.35324359450742
 40
92.71679100073518
 40
95.51361072944564
 40
99.08107367810877
 40
102.5976528199299
 40
106.2025269131245
 40
108.7188069452504
 40
108.7188069452504
 40
108.7188069452504
 40
108.7188069452504
 10
290.5303834169519
 20
73.79487534765224
 30
0.0
 10
290.9619684502933
 20
73.98998229676135
 30
0.0
 10
291.9887290668368
 20
74.45973674166271
 30
0.0
 10
293.9161112335416
 20
75.43218590628225
 30
0.0
 10
296.4038311928445
 20
74.96338758248999
 30
0.0
 10
299.1585800537734
 20
75.34856276384243
 30
0.0
 10
300.7338046183651
 20
78.05953764738001
 30
0.0
 10
299.8148402487452
 20
81.0240390491349
 30
0.0
 10
302.3804111279989
 20
86.2272823602491
 30
0.0
 10
309.9366849853479
 20
82.6378277538156
 30
0.0
 10
317.1520181801763
 20
85.07253307409166
 30
0.0
 10
325.1121120488408
 20
83.2310481877073
 30
0.0
 10
333.3767179039635
 20
84.76462282699344
 30
0.0
 10
341.4963046114273
 20
82.83569925488746
 30
0.0
 10
348.4125922360392
 20
85.40147516961974
 30
0.0
 10
355.1404687764618
 20
82.83127892027392
 30
0.0
 10
361.9764282548924
 20
85.25116560021832
 30
0.0
 10
367.7215774933376
 20
83.76860374491366
 30
0.0
 10
372.8853209852388
 20
84.83774911229955
 30
0.0
 10
374.0600951141834
 20
80.88681060467706
 30
0.0
 10
373.0956783614312
 20
77.90090927770688
 30
0.0
 10
374.6262440804023
 20
74.18493185426427
 30
0.0
 10
378.5920935971128
 20
74.13840782969998
 30
0.0
 10
381.744668184094
 20
74.48645913222049
 30
0.0
 10
383.7100122790282
 20
73.79434951351811
 30
0.0
 10
384.5303834311146
 20
73.60431092293288
 30
0.0
  0
LINE
  5
11B0
330
2
100
AcDbEntity
  8
0
100
AcDbLine
 10
298.5303818490813
 20
114.3535853420935
 30
0.0
 11
291.5303818490804
 21
107.3535394916174
 31
0.0
  0
LINE
  5
11B1
330
2
100
AcDbEntity
  8
0
100
AcDbLine
 10
291.5303818490786
 20
114.353585342093
 30
0.0
 11
298.5303818490813
 21
107.3535394916177
 31
0.0
  0
LINE
  5
11B2
330
2
100
AcDbEntity
  8
0
100
AcDbLine
 10
298.5303818490813
 20
75.45832089818611
 30
0.0
 11
298.5303818490813
 21
83.35362306238403
 31
0.0
  0
LINE
  5
11B3
330
2
100
AcDbEntity
  8
0
100
AcDbLine
 10
291.5303818490804
 20
83.35353949161936
 30
0.0
 11
298.5303818490813
 21
76.35358534209467
 31
0.0
  0
LINE
  5
11B4
330
2
100
AcDbEntity
  8
0
100
AcDbLine
 10
298.5303818490813
 20
83.35353949161936
 30
0.0
 11
291.5303818490804
 21
76.35358534209467
 31
0.0
  0
LINE
  5
11B5
330
2
100
AcDbEntity
  8
0
100
AcDbLine
 10
376.5303818493787
 20
83.35353949161822
 30
0.0
 11
383.5303818493787
 21
76.35358497846528
 31
0.0
  0
LINE
  5
11B6
330
2
100
AcDbEntity
  8
0
100
AcDbLine
 10
376.5303818493787
 20
76.3535849784655
 30
0.0
 11
383.5303818493787
 21
83.35353949161799
 31
0.0
  0
LINE
  5
11B7
330
2
100
AcDbEntity
  8
0
100
AcDbLine
 10
376.5303818493787
 20
114.3535849784709
 30
0.0
 11
383.5303818493787
 21
107.3535394916179
 31
0.0
  0
LINE
  5
11B8
330
2
100
AcDbEntity
  8
0
100
AcDbLine
 10
376.5303818493787
 20
107.3535394916179
 30
0.0
 11
383.5303818493751
 21
114.3535849784666
 31
0.0
  0
LINE
  5
11B9
330
2
100
AcDbEntity
  8
0
100
AcDbLine
 10
373.1012472613394
 20
274.2329387567822
 30
0.0
 11
373.1012472613394
 21
250.2329387567822
 31
0.0
  0
LINE
  5
11BA
330
2
100
AcDbEntity
  8
0
100
AcDbLine
 10
373.1012472613394
 20
274.2329387567822
 30
0.0
 11
373.1012472613394
 21
250.2329387567824
 31
0.0
  0
LINE
  5
11BB
330
2
100
AcDbEntity
  8
0
100
AcDbLine
 10
363.1012472613395
 20
250.2329387567822
 30
0.0
 11
373.1012472613394
 21
250.2329387567822
 31
0.0
  0
LINE
  5
11BC
330
2
100
AcDbEntity
  8
0
100
AcDbLine
 10
363.1012472613395
 20
250.2329387567822
 30
0.0
 11
373.1012472613394
 21
250.2329387567822
 31
0.0
  0
LINE
  5
11BD
330
2
100
AcDbEntity
  8
0
100
AcDbLine
 10
363.1012472613395
 20
274.2329387567822
 30
0.0
 11
373.1012472613394
 21
274.2329387567822
 31
0.0
  0
LINE
  5
11BE
330
2
100
AcDbEntity
  8
0
100
AcDbLine
 10
363.1012472613395
 20
274.2329387567822
 30
0.0
 11
373.1012472613394
 21
274.2329387567822
 31
0.0
  0
LINE
  5
11BF
330
2
100
AcDbEntity
  8
0
100
AcDbLine
 10
267.1012472613394
 20
274.2329387567813
 30
0.0
 11
267.1012472613394
 21
250.2329387567833
 31
0.0
  0
LINE
  5
11C0
330
2
100
AcDbEntity
  8
0
100
AcDbLine
 10
269.101247261043
 20
250.2329387567836
 30
0.0
 11
267.1012472613394
 21
250.2329387567836
 31
0.0
  0
LINE
  5
11C1
330
2
100
AcDbEntity
  8
0
100
AcDbLine
 10
269.1012472610411
 20
274.2329387567815
 30
0.0
 11
267.1012472613394
 21
274.2329387567813
 31
0.0
  0
LINE
  5
11C2
330
2
100
AcDbEntity
  8
CENTER
100
AcDbLine
 10
366.6012472613386
 20
267.241189487225
 30
0.0
 11
366.6012472613386
 21
257.2247749273949
 31
0.0
  0
ARC
  5
11C3
330
2
100
AcDbEntity
  8
0
100
AcDbCircle
 10
462.5085177659932
 20
262.2329822073263
 30
0.0
 40
7.5
100
AcDbArc
 50
109.4684732313215
 51
70.52603191574333
  0
LINE
  5
11C4
330
2
100
AcDbEntity
  8
0
100
AcDbLine
 10
460.0088568352742
 20
272.0329822073261
 30
0.0
 11
465.0088568352741
 21
272.0329822073261
 31
0.0
  0
LINE
  5
11C5
330
2
100
AcDbEntity
  8
0
100
AcDbLine
 10
465.0088568352741
 20
269.303930130952
 30
0.0
 11
465.0088568352741
 21
272.0329822073263
 31
0.0
  0
LINE
  5
11C6
330
2
100
AcDbEntity
  8
0
100
AcDbLine
 10
460.0088568352742
 20
269.3041698891399
 30
0.0
 11
460.0088568352742
 21
272.0329822073261
 31
0.0
  0
ARC
  5
11C7
330
2
100
AcDbEntity
  8
0
100
AcDbCircle
 10
462.5085177708326
 20
262.2329822073263
 30
0.0
 40
8.558018947192636
100
AcDbArc
 50
106.9827670368304
 51
73.01248583569116
  0
CIRCLE
  5
11C8
330
2
100
AcDbEntity
  8
0
100
AcDbCircle
 10
462.5085177708326
 20
262.2329822073263
 30
0.0
 40
11.99995654945598
  0
ARC
  5
11C9
330
2
100
AcDbEntity
  8
0
100
AcDbCircle
 10
163.7439103683066
 20
262.2329822073263
 30
0.0
 40
7.5
100
AcDbArc
 50
109.4684732313215
 51
70.52603191574333
  0
LINE
  5
11CA
330
2
100
AcDbEntity
  8
0
100
AcDbLine
 10
161.2442494375875
 20
272.0329822073265
 30
0.0
 11
166.2442494375875
 21
272.0329822073265
 31
0.0
  0
LINE
  5
11CB
330
2
100
AcDbEntity
  8
0
100
AcDbLine
 10
166.2442494375875
 20
269.3039301309522
 30
0.0
 11
166.2442494375875
 21
272.0329822073265
 31
0.0
  0
LINE
  5
11CC
330
2
100
AcDbEntity
  8
0
100
AcDbLine
 10
161.2442494375875
 20
269.3041698891404
 30
0.0
 11
161.2442494375875
 21
272.0329822073265
 31
0.0
  0
ARC
  5
11CD
330
2
100
AcDbEntity
  8
0
100
AcDbCircle
 10
163.743910373146
 20
262.2329822073263
 30
0.0
 40
8.558018947192636
100
AcDbArc
 50
106.9827670368304
 51
73.01248583569116
  0
CIRCLE
  5
11CE
330
2
100
AcDbEntity
  8
0
100
AcDbCircle
 10
163.743910373146
 20
262.2329822073263
 30
0.0
 40
11.99995654945598
  0
CIRCLE
  5
11CF
330
2
100
AcDbEntity
  8
0
100
AcDbCircle
 10
462.5084721567157
 20
411.4588716841535
 30
0.0
 40
1.6
  0
CIRCLE
  5
11D0
330
2
100
AcDbEntity
  8
HOJO
 48
0.5
100
AcDbCircle
 10
462.5084721567157
 20
411.4588716841535
 30
0.0
 40
2.0
  0
LINE
  5
11D1
330
2
100
AcDbEntity
  8
0
100
AcDbLine
 10
474.5084743203044
 20
404.9588716841535
 30
0.0
 11
450.5084743203044
 21
404.958871684153
 31
0.0
  0
LINE
  5
11D2
330
2
100
AcDbEntity
  8
0
100
AcDbLine
 10
474.5084743203054
 20
404.9588716841535
 30
0.0
 11
450.5084743203053
 21
404.9588716841535
 31
0.0
  0
LINE
  5
11D3
330
2
100
AcDbEntity
  8
0
100
AcDbLine
 10
450.5084743203044
 20
414.9588716841537
 30
0.0
 11
450.5084743203044
 21
404.9588716841533
 31
0.0
  0
LINE
  5
11D4
330
2
100
AcDbEntity
  8
0
100
AcDbLine
 10
450.5084743203053
 20
414.9588716841531
 30
0.0
 11
450.5084743203053
 21
404.9588716841535
 31
0.0
  0
LINE
  5
11D5
330
2
100
AcDbEntity
  8
0
100
AcDbLine
 10
474.5084743203054
 20
414.9588716841533
 30
0.0
 11
474.5084743203044
 21
404.9588716841535
 31
0.0
  0
LINE
  5
11D6
330
2
100
AcDbEntity
  8
0
100
AcDbLine
 10
474.5084743203054
 20
414.9588716841535
 30
0.0
 11
474.5084743203054
 21
404.9588716841535
 31
0.0
  0
LINE
  5
11D7
330
2
100
AcDbEntity
  8
0
100
AcDbLine
 10
474.5084743203035
 20
510.9588716841537
 30
0.0
 11
450.5084743203053
 21
510.9588716841537
 31
0.0
  0
LINE
  5
11D8
330
2
100
AcDbEntity
  8
0
100
AcDbLine
 10
450.5084743203062
 20
508.9588716844505
 30
0.0
 11
450.5084743203062
 21
510.9588716841535
 31
0.0
  0
LINE
  5
11D9
330
2
100
AcDbEntity
  8
0
100
AcDbLine
 10
474.5084743203035
 20
508.9588716844514
 30
0.0
 11
474.5084743203035
 21
510.9588716841537
 31
0.0
  0
LINE
  5
11DA
330
2
100
AcDbEntity
  8
CENTER
100
AcDbLine
 10
467.5167250507477
 20
411.4588716841544
 30
0.0
 11
457.5003104909176
 21
411.4588716841544
 31
0.0
  0
LINE
  5
11DB
330
2
100
AcDbEntity
  8
PHAS
  6
SEKKEI_P_S
100
AcDbLine
 10
251.1012472610411
 20
250.6968716627823
 30
0.0
 11
251.1012472610402
 21
273.7690777518371
 31
0.0
  0
LINE
  5
11DC
330
2
100
AcDbEntity
  8
PHAS
  6
SEKKEI_P_S
100
AcDbLine
 10
255.2329690175286
 20
245.772839484593
 30
0.0
 11
265.9748432610406
 21
243.8786732073097
 31
0.0
  0
ARC
  5
11DD
330
2
100
AcDbEntity
  8
PHAS
  6
SEKKEI_P_S
100
AcDbCircle
 10
256.1012472610411
 20
250.6968716627823
 30
0.0
 40
5.0
100
AcDbArc
 50
180.0
 51
259.9995653374257
  0
LINE
  5
11DE
330
2
100
AcDbEntity
  8
PHAS
  6
SEKKEI_P_S
100
AcDbLine
 10
266.8012442610427
 20
284.1138722073099
 30
0.0
 11
266.8012442610408
 21
240.3520772073097
 31
0.0
  0
ARC
  5
11DF
330
2
100
AcDbEntity
  8
PHAS
  6
SEKKEI_P_S
100
AcDbCircle
 10
265.8012442610409
 20
242.8938712073097
 30
0.0
 40
1.0
100
AcDbArc
 50
0.0
 51
79.99999999999483
  0
LINE
  5
11E0
330
2
100
AcDbEntity
  8
PHAS
  6
SEKKEI_P_S
100
AcDbLine
 10
276.6012472610393
 20
236.2329822073097
 30
0.0
 11
276.6012472610402
 21
288.2329822073097
 31
0.0
  0
ARC
  5
11E1
330
2
100
AcDbEntity
  8
PHAS
  6
SEKKEI_P_S
100
AcDbCircle
 10
256.1012472610402
 20
273.7690777518371
 30
0.0
 40
5.0
100
AcDbArc
 50
100.0004346625742
 51
180.0
  0
LINE
  5
11E2
330
2
100
AcDbEntity
  8
PHAS
  6
SEKKEI_P_S
100
AcDbLine
 10
255.2329690175276
 20
278.6931099300263
 30
0.0
 11
265.9748432610406
 21
280.5872762073097
 31
0.0
  0
ARC
  5
11E3
330
2
100
AcDbEntity
  8
PHAS
  6
SEKKEI_P_S
100
AcDbCircle
 10
269.8012442610409
 20
284.1138722073099
 30
0.0
 40
3.0
100
AcDbArc
 50
103.0417940599517
 51
179.9999999999934
  0
ARC
  5
11E4
330
2
100
AcDbEntity
  8
PHAS
  6
SEKKEI_P_S
100
AcDbCircle
 10
265.8012442610409
 20
281.5720782073096
 30
0.0
 40
1.0
100
AcDbArc
 50
280.0000000000051
 51
0.0
  0
LINE
  5
11E5
330
2
100
AcDbEntity
  8
PHAS
  6
SEKKEI_P_S
100
AcDbLine
 10
274.1012472610411
 20
288.1893422073096
 30
0.0
 11
269.1242590326812
 21
287.0364893564731
 31
0.0
  0
LINE
  5
11E6
330
2
100
AcDbEntity
  8
PHAS
  6
SEKKEI_P_S
100
AcDbLine
 10
274.1012472610411
 20
288.1893422073096
 30
0.0
 11
276.6012472610402
 21
288.2329822073097
 31
0.0
  0
ARC
  5
11E7
330
2
100
AcDbEntity
  8
PHAS
  6
SEKKEI_P_S
100
AcDbCircle
 10
269.8012442610409
 20
240.3520922073096
 30
0.0
 40
3.0
100
AcDbArc
 50
180.0
 51
256.9582059400482
  0
LINE
  5
11E8
330
2
100
AcDbEntity
  8
PHAS
  6
SEKKEI_P_S
100
AcDbLine
 10
274.1012472610411
 20
236.2766222073098
 30
0.0
 11
269.1242590326812
 21
237.4294750581463
 31
0.0
  0
LINE
  5
11E9
330
2
100
AcDbEntity
  8
PHAS
  6
SEKKEI_P_S
100
AcDbLine
 10
274.1012472610411
 20
236.2766222073098
 30
0.0
 11
276.6012472610393
 21
236.2329822073097
 31
0.0
  0
LINE
  5
11EB
330
2
100
AcDbEntity
  8
0
100
AcDbLine
 10
498.3185177708326
 20
470.9588716839475
 30
0.0
 11
498.1352535472226
 21
491.9588716844505
 31
0.0
  0
LINE
  5
1224
330
2
100
AcDbEntity
  8
CENTER
100
AcDbLine
 10
760.7836839098515
 20
262.2329822073161
 30
0.0
 11
640.7836839098506
 21
262.2329822073161
 31
0.0
  0
LINE
  5
1225
330
2
100
AcDbEntity
  8
CENTER
100
AcDbLine
 10
713.7836839098606
 20
305.7329822073143
 30
0.0
 11
713.7836839098602
 21
218.7329822073179
 31
0.0
  0
LINE
  5
1226
330
2
100
AcDbEntity
  8
0
100
AcDbLine
 10
675.783683909857
 20
297.7137335737639
 30
0.0
 11
675.7836839098561
 21
226.7522308408683
 31
0.0
  0
LINE
  5
1227
330
2
100
AcDbEntity
  8
0
100
AcDbLine
 10
670.7836839098579
 20
292.2329822073127
 30
0.0
 11
670.7836839098579
 21
232.2329822073129
 31
0.0
  0
LINE
  5
1228
330
2
100
AcDbEntity
  8
0
100
AcDbLine
 10
675.7836839098579
 20
292.2329822073127
 30
0.0
 11
670.7836839098579
 21
292.2329822073127
 31
0.0
  0
LINE
  5
1229
330
2
100
AcDbEntity
  8
0
100
AcDbLine
 10
675.7836839098579
 20
232.2329822073129
 30
0.0
 11
670.7836839098579
 21
232.2329822073129
 31
0.0
  0
LINE
  5
122A
330
2
100
AcDbEntity
  8
0
100
AcDbLine
 10
657.7836839098543
 20
284.3016046577099
 30
0.0
 11
657.7836839098543
 21
240.1643597569377
 31
0.0
  0
LINE
  5
122B
330
2
100
AcDbEntity
  8
0
100
AcDbLine
 10
668.8534829032594
 20
286.6195481062927
 30
0.0
 11
659.7138849164491
 21
286.3003863117478
 31
0.0
  0
LINE
  5
122C
330
2
100
AcDbEntity
  8
0
100
AcDbLine
 10
668.8534829032594
 20
237.8464163083558
 30
0.0
 11
659.7138849164491
 21
238.1655781028998
 31
0.0
  0
ARC
  5
122D
330
2
100
AcDbEntity
  8
0
100
AcDbCircle
 10
659.7836839098542
 20
284.3016046577099
 30
0.0
 40
2.0
100
AcDbArc
 50
92.00000000000365
 51
180.0
  0
ARC
  5
122E
330
2
100
AcDbEntity
  8
0
100
AcDbCircle
 10
659.7836839098542
 20
240.1643597569377
 30
0.0
 40
2.0
100
AcDbArc
 50
180.0
 51
267.9999999999963
  0
ARC
  5
122F
330
2
100
AcDbEntity
  8
0
100
AcDbCircle
 10
668.7836839098543
 20
235.8476346543179
 30
0.0
 40
2.0
100
AcDbArc
 50
0.0
 51
87.99999999999636
  0
ARC
  5
1230
330
2
100
AcDbEntity
  8
0
100
AcDbCircle
 10
668.7836839098543
 20
288.6183297603306
 30
0.0
 40
2.0
100
AcDbArc
 50
272.0000000000036
 51
0.0
  0
LINE
  5
1231
330
2
100
AcDbEntity
  8
0
100
AcDbLine
 10
680.4079397372249
 20
226.7118755716337
 30
0.0
 11
675.7836839098561
 21
226.7522308408683
 31
0.0
  0
LINE
  5
1232
330
2
100
AcDbEntity
  8
0
100
AcDbLine
 10
680.5098120763193
 20
297.7549778694328
 30
0.0
 11
675.783683909857
 21
297.7137335737639
 31
0.0
  0
ARC
  5
1233
330
2
100
AcDbEntity
  8
0
100
AcDbCircle
 10
744.7836839098616
 20
293.3019444219289
 30
0.0
 40
5.0
100
AcDbArc
 50
44.44120087799995
 51
89.20427644728171
  0
LINE
  5
1234
330
2
100
AcDbEntity
  8
0
100
AcDbLine
 10
744.8531216573144
 20
298.3014622386017
 30
0.0
 11
713.7836839098615
 21
298.7329822073143
 31
0.0
  0
LINE
  5
1235
330
2
100
AcDbEntity
  8
0
100
AcDbLine
 10
682.7142461624132
 20
298.3014622386008
 30
0.0
 11
713.7836839098597
 21
298.7329822073143
 31
0.0
  0
ARC
  5
1236
330
2
100
AcDbEntity
  8
0
100
AcDbCircle
 10
682.783683909867
 20
293.301944421928
 30
0.0
 40
5.0
100
AcDbArc
 50
90.79572355271826
 51
135.5587991204846
  0
ARC
  5
1237
330
2
100
AcDbEntity
  8
0
100
AcDbCircle
 10
744.7836839098616
 20
231.1640199927032
 30
0.0
 40
5.0
100
AcDbArc
 50
270.7957235527183
 51
315.5587991206642
  0
LINE
  5
1238
330
2
100
AcDbEntity
  8
0
100
AcDbLine
 10
744.8531216573144
 20
226.1645021760305
 30
0.0
 11
713.7836839098615
 21
225.7329822073179
 31
0.0
  0
LINE
  5
1239
330
2
100
AcDbEntity
  8
0
100
AcDbLine
 10
682.7142461624132
 20
226.1645021760314
 30
0.0
 11
713.7836839098597
 21
225.7329822073179
 31
0.0
  0
ARC
  5
123A
330
2
100
AcDbEntity
  8
0
100
AcDbCircle
 10
682.783683909867
 20
231.1640199927042
 30
0.0
 40
5.0
100
AcDbArc
 50
224.4412008808327
 51
269.2042764472816
  0
LINE
  5
123B
330
2
100
AcDbEntity
  8
0
100
AcDbLine
 10
750.7836839101489
 20
285.232982207317
 30
0.0
 11
751.7836839101498
 21
284.6556319381272
 31
0.0
  0
LINE
  5
123C
330
2
100
AcDbEntity
  8
0
100
AcDbLine
 10
750.7836839101498
 20
285.232982207317
 30
0.0
 11
749.9642394654186
 21
285.2329822073168
 31
0.0
  0
LINE
  5
123D
330
2
100
AcDbEntity
  8
0
100
AcDbLine
 10
751.7836839101489
 20
239.8103324765043
 30
0.0
 11
751.783683910148
 21
284.6556319381281
 31
0.0
  0
LINE
  5
123E
330
2
100
AcDbEntity
  8
0
100
AcDbLine
 10
750.7836839101489
 20
239.2329822073152
 30
0.0
 11
751.7836839101498
 21
239.8103324765047
 31
0.0
  0
LINE
  5
123F
330
2
100
AcDbEntity
  8
0
100
AcDbLine
 10
750.7836839101498
 20
239.2329822073152
 30
0.0
 11
749.9642394654181
 21
239.2329822073152
 31
0.0
  0
LINE
  5
1240
330
2
100
AcDbEntity
  8
0
100
AcDbLine
 10
750.7836839101489
 20
285.232982207317
 30
0.0
 11
750.7836839101498
 21
239.2329822073152
 31
0.0
  0
LINE
  5
1241
330
2
100
AcDbEntity
  8
0
100
AcDbLine
 10
647.7836839098507
 20
274.2329387567886
 30
0.0
 11
647.7836839098507
 21
250.2329387567886
 31
0.0
  0
LINE
  5
1242
330
2
100
AcDbEntity
  8
0
100
AcDbLine
 10
647.7836839098507
 20
274.2329387567886
 30
0.0
 11
647.7836839098507
 21
250.2329387567888
 31
0.0
  0
LINE
  5
1243
330
2
100
AcDbEntity
  8
0
100
AcDbLine
 10
657.7836839098515
 20
250.2329387567886
 30
0.0
 11
647.7836839098507
 21
250.2329387567886
 31
0.0
  0
LINE
  5
1244
330
2
100
AcDbEntity
  8
0
100
AcDbLine
 10
657.7836839098506
 20
250.2329387567886
 30
0.0
 11
647.7836839098507
 21
250.2329387567886
 31
0.0
  0
LINE
  5
1245
330
2
100
AcDbEntity
  8
0
100
AcDbLine
 10
657.7836839098506
 20
274.2329387567886
 30
0.0
 11
647.7836839098507
 21
274.2329387567886
 31
0.0
  0
LINE
  5
1246
330
2
100
AcDbEntity
  8
0
100
AcDbLine
 10
657.7836839098506
 20
274.2329387567886
 30
0.0
 11
647.7836839098507
 21
274.2329387567886
 31
0.0
  0
LINE
  5
1247
330
2
100
AcDbEntity
  8
0
100
AcDbLine
 10
753.7836839098515
 20
274.2329387567877
 30
0.0
 11
753.7836839098515
 21
250.2329387567897
 31
0.0
  0
LINE
  5
1248
330
2
100
AcDbEntity
  8
0
100
AcDbLine
 10
751.783683910148
 20
250.2329387567899
 30
0.0
 11
753.7836839098506
 21
250.2329387567899
 31
0.0
  0
LINE
  5
1249
330
2
100
AcDbEntity
  8
0
100
AcDbLine
 10
751.7836839101489
 20
274.2329387567879
 30
0.0
 11
753.7836839098515
 21
274.2329387567877
 31
0.0
  0
LINE
  5
124A
330
2
100
AcDbEntity
  8
0
100
AcDbLine
 10
682.7147216952505
 20
226.2329822073147
 30
0.0
 11
744.8526461244753
 21
226.2329822073147
 31
0.0
  0
CIRCLE
  5
124B
330
2
100
AcDbEntity
  8
HIDS
100
AcDbCircle
 10
713.7836839098625
 20
262.2329822073147
 30
0.0
 40
30.0
  0
ARC
  5
124C
330
2
100
AcDbEntity
  8
0
100
AcDbCircle
 10
688.8564273212039
 20
237.2329822073152
 30
0.0
 40
5.0
100
AcDbArc
 50
180.1666666666621
 51
270.0
  0
LINE
  5
124D
330
2
100
AcDbEntity
  8
CENTER
100
AcDbLine
 10
694.0336839098624
 20
286.9829822073147
 30
0.0
 11
684.0336839098624
 21
286.9829822073147
 31
0.0
  0
LINE
  5
124E
330
2
100
AcDbEntity
  8
CENTER
100
AcDbLine
 10
694.0336839098624
 20
237.4829822073147
 30
0.0
 11
684.0336839098624
 21
237.4829822073147
 31
0.0
  0
ARC
  5
124F
330
2
100
AcDbEntity
  8
0
100
AcDbCircle
 10
688.8564273212039
 20
287.2329822073142
 30
0.0
 40
5.0
100
AcDbArc
 50
90.0
 51
179.8333333333378
  0
LINE
  5
1250
330
2
100
AcDbEntity
  8
0
100
AcDbLine
 10
677.7152038785778
 20
231.1635444598605
 30
0.0
 11
677.2836839098524
 21
262.2329822073161
 31
0.0
  0
LINE
  5
1251
330
2
100
AcDbEntity
  8
0
100
AcDbLine
 10
683.8564484751766
 20
237.2184378173938
 30
0.0
 11
683.7836839098624
 21
262.2329822073147
 31
0.0
  0
ARC
  5
1252
330
2
100
AcDbEntity
  8
0
100
AcDbCircle
 10
682.7147216952505
 20
231.2329822073142
 30
0.0
 40
5.0
100
AcDbArc
 50
180.7957235527443
 51
270.0
  0
LINE
  5
1253
330
2
100
AcDbEntity
  8
0
100
AcDbLine
 10
677.7152038785778
 20
293.3024199547685
 30
0.0
 11
677.2836839098529
 21
262.2329822073161
 31
0.0
  0
LINE
  5
1254
330
2
100
AcDbEntity
  8
0
100
AcDbLine
 10
683.8564484751766
 20
287.2475265972357
 30
0.0
 11
683.7836839098624
 21
262.2329822073147
 31
0.0
  0
LINE
  5
1255
330
2
100
AcDbEntity
  8
0
100
AcDbLine
 10
683.7836839098624
 20
262.2329822073147
 30
0.0
 11
677.2836839098625
 21
262.2329822073143
 31
0.0
  0
ARC
  5
1256
330
2
100
AcDbEntity
  8
0
100
AcDbCircle
 10
682.7147216952505
 20
293.2329822073147
 30
0.0
 40
5.0
100
AcDbArc
 50
90.0
 51
179.2042764472556
  0
LINE
  5
1257
330
2
100
AcDbEntity
  8
0
100
AcDbLine
 10
749.8521639411481
 20
231.1635444598605
 30
0.0
 11
750.283683909862
 21
262.2329822073161
 31
0.0
  0
LINE
  5
1258
330
2
100
AcDbEntity
  8
0
100
AcDbLine
 10
743.7109193445492
 20
237.2184378173938
 30
0.0
 11
743.7836839098625
 21
262.2329822073147
 31
0.0
  0
LINE
  5
1259
330
2
100
AcDbEntity
  8
0
100
AcDbLine
 10
738.7109404985219
 20
232.2329822073147
 30
0.0
 11
688.8564273212039
 21
232.2329822073147
 31
0.0
  0
LINE
  5
125A
330
2
100
AcDbEntity
  8
CENTER
100
AcDbLine
 10
689.0336839098624
 20
242.4829822073147
 30
0.0
 11
689.0336839098624
 21
232.4829822073147
 31
0.0
  0
LINE
  5
125B
330
2
100
AcDbEntity
  8
HIDS
100
AcDbLine
 10
734.3179847739445
 20
234.1980773944401
 30
0.0
 11
734.4060225236587
 21
239.2417566976782
 31
0.0
  0
ARC
  5
125C
330
2
100
AcDbEntity
  8
0
100
AcDbCircle
 10
738.7109404985219
 20
237.2329822073152
 30
0.0
 40
5.0
100
AcDbArc
 50
270.0
 51
359.8333333333378
  0
LINE
  5
125D
330
2
100
AcDbEntity
  8
CENTER
100
AcDbLine
 10
738.5336839098624
 20
242.4829822073147
 30
0.0
 11
738.5336839098624
 21
232.4829822073147
 31
0.0
  0
ARC
  5
125E
330
2
100
AcDbEntity
  8
0
100
AcDbCircle
 10
744.8526461244753
 20
231.2329822073142
 30
0.0
 40
4.999999999999999
100
AcDbArc
 50
270.0
 51
359.2042764472556
  0
ARC
  5
125F
330
2
100
AcDbEntity
  8
HIDS
100
AcDbCircle
 10
732.3182893836308
 20
234.2329822073147
 30
0.0
 40
2.0
100
AcDbArc
 50
270.0
 51
358.9999999999982
  0
LINE
  5
1260
330
2
100
AcDbEntity
  8
CENTER
100
AcDbLine
 10
743.5336839098624
 20
237.4829822073147
 30
0.0
 11
733.5336839098625
 21
237.4829822073147
 31
0.0
  0
ARC
  5
1261
330
2
100
AcDbEntity
  8
HIDS
100
AcDbCircle
 10
737.4055656091284
 20
239.1893994783659
 30
0.0
 40
3.0
100
AcDbArc
 50
135.7099981688253
 51
178.9999999999982
  0
LINE
  5
1262
330
2
100
AcDbEntity
  8
0
100
AcDbLine
 10
738.7109404985219
 20
292.2329822073147
 30
0.0
 11
688.8564273212039
 21
292.2329822073143
 31
0.0
  0
LINE
  5
1263
330
2
100
AcDbEntity
  8
HIDS
100
AcDbLine
 10
697.5336839098633
 20
292.2329822073143
 30
0.0
 11
697.7812520285395
 21
278.049814187317
 31
0.0
  0
LINE
  5
1264
330
2
100
AcDbEntity
  8
CENTER
100
AcDbLine
 10
689.0336839098624
 20
291.9829822073147
 30
0.0
 11
689.0336839098624
 21
281.9829822073147
 31
0.0
  0
ARC
  5
1265
330
2
100
AcDbEntity
  8
HIDS
100
AcDbCircle
 10
690.1618022105974
 20
285.2765649362636
 30
0.0
 40
3.0
100
AcDbArc
 50
315.7099981688253
 51
358.9999999999982
  0
ARC
  5
1266
330
2
100
AcDbEntity
  8
HIDS
100
AcDbCircle
 10
695.2490784360941
 20
290.2329822073143
 30
0.0
 40
2.0
100
AcDbArc
 50
90.0
 51
178.9999999999982
  0
LINE
  5
1267
330
2
100
AcDbEntity
  8
HIDS
100
AcDbLine
 10
693.2493830457813
 20
290.2678870201889
 30
0.0
 11
693.1613452960662
 21
285.2242077169512
 31
0.0
  0
LINE
  5
1268
330
2
100
AcDbEntity
  8
HIDS
100
AcDbLine
 10
709.0336839098624
 20
292.2329822073147
 30
0.0
 11
708.8933822860179
 21
284.1951075604727
 31
0.0
  0
LINE
  5
1269
330
2
100
AcDbEntity
  8
0
100
AcDbLine
 10
749.8521639411481
 20
293.3024199547685
 30
0.0
 11
750.2836839098624
 21
262.2329822073161
 31
0.0
  0
LINE
  5
126A
330
2
100
AcDbEntity
  8
0
100
AcDbLine
 10
743.7109193445492
 20
287.2475265972357
 30
0.0
 11
743.7836839098625
 21
262.2329822073147
 31
0.0
  0
LINE
  5
126B
330
2
100
AcDbEntity
  8
CENTER
100
AcDbLine
 10
738.5336839098624
 20
291.9829822073147
 30
0.0
 11
738.5336839098624
 21
281.9829822073147
 31
0.0
  0
LINE
  5
126C
330
2
100
AcDbEntity
  8
0
100
AcDbLine
 10
743.7836839098625
 20
262.2329822073147
 30
0.0
 11
750.2836839098634
 21
262.2329822073147
 31
0.0
  0
ARC
  5
126D
330
2
100
AcDbEntity
  8
0
100
AcDbCircle
 10
744.8526461244753
 20
293.2329822073147
 30
0.0
 40
4.999999999999999
100
AcDbArc
 50
0.7957235527443399
 51
90.0
  0
ARC
  5
126E
330
2
100
AcDbEntity
  8
0
100
AcDbCircle
 10
738.7109404985219
 20
287.2329822073142
 30
0.0
 40
5.0
100
AcDbArc
 50
0.1666666666621044
 51
90.0
  0
LINE
  5
126F
330
2
100
AcDbEntity
  8
CENTER
100
AcDbLine
 10
743.5336839098624
 20
286.9829822073147
 30
0.0
 11
733.5336839098625
 21
286.9829822073147
 31
0.0
  0
CIRCLE
  5
1270
330
2
100
AcDbEntity
  8
0
100
AcDbCircle
 10
713.7836839098625
 20
262.2329822073147
 30
0.0
 40
25.00000000022851
  0
LINE
  5
1271
330
2
100
AcDbEntity
  8
0
100
AcDbLine
 10
682.7147216952505
 20
298.2329822073147
 30
0.0
 11
744.8526461244753
 21
298.2329822073147
 31
0.0
  0
CIRCLE
  5
1272
330
2
100
AcDbEntity
  8
0
100
AcDbCircle
 10
682.6736839098628
 20
231.1229822073146
 30
0.0
 40
2.75
  0
CIRCLE
  5
1273
330
2
100
AcDbEntity
  8
0
100
AcDbCircle
 10
744.8936839098621
 20
293.3429822073149
 30
0.0
 40
2.75
  0
CIRCLE
  5
1274
330
2
100
AcDbEntity
  8
0
100
AcDbCircle
 10
744.8936839098621
 20
231.122982207315
 30
0.0
 40
2.75
  0
ARC
  5
1275
330
2
100
AcDbEntity
  8
0
100
AcDbCircle
 10
682.6736839098628
 20
293.3429822073149
 30
0.0
 40
4.25000000000019
100
AcDbArc
 50
337.0991355555478
 51
293.5789623545196
  0
ARC
  5
1276
330
2
100
AcDbEntity
  8
0
100
AcDbCircle
 10
682.6736839098628
 20
293.3429822073149
 30
0.0
 40
3.730384757729381
100
AcDbArc
 50
321.5287333511405
 51
309.1493645588748
  0
LWPOLYLINE
  5
1277
330
2
100
AcDbEntity
  8
0
100
AcDbPolyline
 90
        6
 70
     1
 43
0.0
 10
684.6736839098627
 20
294.4976827456939
 10
682.6736839098628
 20
295.6523832840734
 10
680.6736839098627
 20
294.4976827456939
 10
680.6736839098627
 20
292.1882816689358
 10
682.6736839098628
 20
291.0335811305563
 10
684.6736839098627
 20
292.1882816689358
  0
CIRCLE
  5
1278
330
2
100
AcDbEntity
  8
0
100
AcDbCircle
 10
682.6736839098628
 20
293.3429822073149
 30
0.0
 40
2.3094010767585
  0
LINE
  5
1279
330
2
100
AcDbEntity
  8
CENTER
100
AcDbLine
 10
682.6736839098609
 20
299.3014124546089
 30
0.0
 11
682.6736839098609
 21
287.3845519600208
 31
0.0
  0
LINE
  5
127A
330
2
100
AcDbEntity
  8
CENTER
100
AcDbLine
 10
676.7152536625669
 20
293.3429822073149
 30
0.0
 11
688.6321141571549
 21
293.3429822073149
 31
0.0
  0
ARC
  5
127B
330
2
100
AcDbEntity
  8
0
100
AcDbCircle
 10
744.893683909864
 20
293.3429822073149
 30
0.0
 40
4.25000000000019
100
AcDbArc
 50
246.4210376454803
 51
202.9008644444513
  0
ARC
  5
127C
330
2
100
AcDbEntity
  8
0
100
AcDbCircle
 10
744.893683909864
 20
293.3429822073149
 30
0.0
 40
3.730384757729381
100
AcDbArc
 50
230.8506354409949
 51
218.4712666488647
  0
LWPOLYLINE
  5
127D
330
2
100
AcDbEntity
  8
0
100
AcDbPolyline
 90
        6
 70
     1
 43
0.0
 10
746.8936839098639
 20
294.4976827456939
 10
744.893683909864
 20
295.6523832840734
 10
742.8936839098639
 20
294.4976827456939
 10
742.8936839098639
 20
292.1882816689358
 10
744.893683909864
 20
291.0335811305563
 10
746.8936839098639
 20
292.1882816689358
  0
CIRCLE
  5
127E
330
2
100
AcDbEntity
  8
0
100
AcDbCircle
 10
744.893683909864
 20
293.3429822073149
 30
0.0
 40
2.3094010767585
  0
LINE
  5
127F
330
2
100
AcDbEntity
  8
CENTER
100
AcDbLine
 10
744.8936839098621
 20
299.3014124546089
 30
0.0
 11
744.8936839098621
 21
287.3845519600208
 31
0.0
  0
LINE
  5
1280
330
2
100
AcDbEntity
  8
CENTER
100
AcDbLine
 10
738.9352536625681
 20
293.3429822073149
 30
0.0
 11
750.8521141571561
 21
293.3429822073149
 31
0.0
  0
ARC
  5
1281
330
2
100
AcDbEntity
  8
0
100
AcDbCircle
 10
744.893683909864
 20
231.122982207315
 30
0.0
 40
4.25000000000019
100
AcDbArc
 50
157.0991355555478
 51
113.5789623545196
  0
ARC
  5
1282
330
2
100
AcDbEntity
  8
0
100
AcDbCircle
 10
744.893683909864
 20
231.122982207315
 30
0.0
 40
3.730384757729381
100
AcDbArc
 50
141.5287333511352
 51
129.1493645588748
  0
LWPOLYLINE
  5
1283
330
2
100
AcDbEntity
  8
0
100
AcDbPolyline
 90
        6
 70
     1
 43
0.0
 10
746.8936839098639
 20
232.2776827456941
 10
744.893683909864
 20
233.4323832840737
 10
742.8936839098639
 20
232.2776827456941
 10
742.8936839098639
 20
229.968281668936
 10
744.893683909864
 20
228.8135811305564
 10
746.8936839098639
 20
229.968281668936
  0
CIRCLE
  5
1284
330
2
100
AcDbEntity
  8
0
100
AcDbCircle
 10
744.893683909864
 20
231.122982207315
 30
0.0
 40
2.3094010767585
  0
LINE
  5
1285
330
2
100
AcDbEntity
  8
CENTER
100
AcDbLine
 10
744.8936839098621
 20
237.081412454609
 30
0.0
 11
744.8936839098621
 21
225.164551960021
 31
0.0
  0
LINE
  5
1286
330
2
100
AcDbEntity
  8
CENTER
100
AcDbLine
 10
738.9352536625681
 20
231.122982207315
 30
0.0
 11
750.8521141571561
 21
231.122982207315
 31
0.0
  0
ARC
  5
1287
330
2
100
AcDbEntity
  8
0
100
AcDbCircle
 10
682.6736839098637
 20
231.1229822073146
 30
0.0
 40
4.25000000000019
100
AcDbArc
 50
66.42103764559411
 51
22.90086444441159
  0
ARC
  5
1288
330
2
100
AcDbEntity
  8
0
100
AcDbCircle
 10
682.6736839098637
 20
231.1229822073146
 30
0.0
 40
3.730384757729381
100
AcDbArc
 50
50.85063544125946
 51
38.47126664869841
  0
LWPOLYLINE
  5
1289
330
2
100
AcDbEntity
  8
0
100
AcDbPolyline
 90
        6
 70
     1
 43
0.0
 10
684.6736839098637
 20
232.2776827456941
 10
682.6736839098637
 20
233.4323832840732
 10
680.6736839098637
 20
232.2776827456941
 10
680.6736839098637
 20
229.9682816689355
 10
682.6736839098637
 20
228.8135811305564
 10
684.6736839098637
 20
229.9682816689355
  0
CIRCLE
  5
128A
330
2
100
AcDbEntity
  8
0
100
AcDbCircle
 10
682.6736839098637
 20
231.1229822073146
 30
0.0
 40
2.3094010767585
  0
LINE
  5
128B
330
2
100
AcDbEntity
  8
CENTER
100
AcDbLine
 10
682.6736839098628
 20
237.0814124546086
 30
0.0
 11
682.6736839098628
 21
225.1645519600206
 31
0.0
  0
LINE
  5
128C
330
2
100
AcDbEntity
  8
CENTER
100
AcDbLine
 10
676.7152536625688
 20
231.1229822073146
 30
0.0
 11
688.6321141571568
 21
231.1229822073146
 31
0.0
  0
LINE
  5
128D
330
2
100
AcDbEntity
  8
HIDS
100
AcDbLine
 10
705.2836839098624
 20
261.4829822073147
 30
0.0
 11
705.2836839098624
 21
253.0329822073145
 31
0.0
  0
LINE
  5
128E
330
2
100
AcDbEntity
  8
HIDS
100
AcDbLine
 10
704.9503505765294
 20
261.4829822073147
 30
0.0
 11
704.9503505765294
 21
252.6996488739814
 31
0.0
  0
LINE
  5
128F
330
2
100
AcDbEntity
  8
HIDS
100
AcDbLine
 10
701.6170172431955
 20
261.4829822073147
 30
0.0
 11
701.6170172431955
 21
253.8942339665882
 31
0.0
  0
LINE
  5
1290
330
2
100
AcDbEntity
  8
HIDS
100
AcDbLine
 10
701.2836839098625
 20
261.4829822073147
 30
0.0
 11
701.2836839098625
 21
254.4027523256318
 31
0.0
  0
LINE
  5
1291
330
2
100
AcDbEntity
  8
CENTER
  6
CENS
100
AcDbLine
 10
703.2836839098624
 20
300.9121638077967
 30
0.0
 11
703.2836839098624
 21
250.7807318627578
 31
0.0
  0
LINE
  5
1292
330
2
100
AcDbEntity
  8
HIDS
100
AcDbLine
 10
705.2836839098624
 20
261.4829822073147
 30
0.0
 11
705.2836839098624
 21
250.1784187560733
 31
0.0
  0
LINE
  5
1293
330
2
100
AcDbEntity
  8
HIDS
100
AcDbLine
 10
702.2544818559479
 20
253.0329822073145
 30
0.0
 11
703.2836839098624
 21
253.0329822073145
 31
0.0
  0
LINE
  5
1294
330
2
100
AcDbEntity
  8
0
100
AcDbLine
 10
702.0836839098627
 20
252.2329822073147
 30
0.0
 11
702.9410596887617
 21
252.2329822073147
 31
0.0
  0
LINE
  5
1295
330
2
100
AcDbEntity
  8
0
100
AcDbLine
 10
701.2836839098625
 20
254.4027523256318
 30
0.0
 11
701.2836839098625
 21
253.0329822073145
 31
0.0
  0
LINE
  5
1296
330
2
100
AcDbEntity
  8
HOJO
100
AcDbLine
 10
701.6170172431955
 20
253.8942339665882
 30
0.0
 11
701.6170172431955
 21
252.6996488739814
 31
0.0
  0
LINE
  5
1297
330
2
100
AcDbEntity
  8
0
100
AcDbLine
 10
701.2836839098625
 20
253.0329822073145
 30
0.0
 11
702.2544818559479
 21
253.0329822073145
 31
0.0
  0
LINE
  5
1298
330
2
100
AcDbEntity
  8
0
100
AcDbLine
 10
701.2836839098625
 20
253.0329822073145
 30
0.0
 11
702.0836839098627
 21
252.2329822073147
 31
0.0
  0
LINE
  5
1299
330
2
100
AcDbEntity
  8
HIDS
100
AcDbLine
 10
702.9410596887617
 20
252.2329822073147
 30
0.0
 11
703.2836839098624
 21
252.2329822073147
 31
0.0
  0
LINE
  5
129A
330
2
100
AcDbEntity
  8
HIDS
100
AcDbLine
 10
705.2836839098624
 20
253.0329822073145
 30
0.0
 11
704.4836839098622
 21
252.2329822073147
 31
0.0
  0
LINE
  5
129B
330
2
100
AcDbEntity
  8
HIDS
100
AcDbLine
 10
704.4836839098622
 20
252.2329822073147
 30
0.0
 11
703.2836839098624
 21
252.2329822073147
 31
0.0
  0
LINE
  5
129C
330
2
100
AcDbEntity
  8
HIDS
100
AcDbLine
 10
705.2836839098624
 20
253.0329822073145
 30
0.0
 11
703.2836839098624
 21
253.0329822073145
 31
0.0
  0
LINE
  5
129D
330
2
100
AcDbEntity
  8
HIDS
100
AcDbLine
 10
704.9503505765294
 20
252.6996488739814
 30
0.0
 11
704.9503505765294
 21
250.4205005788753
 31
0.0
  0
LINE
  5
129E
330
2
100
AcDbEntity
  8
HIDS
100
AcDbLine
 10
699.9069948234843
 20
267.2329822073147
 30
0.0
 11
706.7836839098625
 21
267.2329822073147
 31
0.0
  0
LINE
  5
129F
330
2
100
AcDbEntity
  8
HIDS
100
AcDbLine
 10
701.8726596046233
 20
270.932982207315
 30
0.0
 11
706.7836839098625
 21
270.932982207315
 31
0.0
  0
LINE
  5
12A0
330
2
100
AcDbEntity
  8
HIDS
100
AcDbLine
 10
706.264068667592
 20
271.2329822073147
 30
0.0
 11
702.0976880173418
 21
271.2329822073147
 31
0.0
  0
LINE
  5
12A1
330
2
100
AcDbEntity
  8
HIDS
100
AcDbLine
 10
705.2836839098624
 20
265.5663155406482
 30
0.0
 11
701.2836839098625
 21
265.5663155406482
 31
0.0
  0
LINE
  5
12A2
330
2
100
AcDbEntity
  8
HIDS
100
AcDbLine
 10
699.9069948234843
 20
267.2329822073147
 30
0.0
 11
707.2836839098624
 21
267.2329822073147
 31
0.0
  0
LINE
  5
12A3
330
2
100
AcDbEntity
  8
0
100
AcDbLine
 10
699.0527640472062
 20
262.9829822073147
 30
0.0
 11
703.2836839098624
 21
262.9829822073147
 31
0.0
  0
LINE
  5
12A4
330
2
100
AcDbEntity
  8
0
100
AcDbLine
 10
699.0527640472062
 20
261.4829822073147
 30
0.0
 11
703.2836839098624
 21
261.4829822073147
 31
0.0
  0
LINE
  5
12A5
330
2
100
AcDbEntity
  8
0
100
AcDbLine
 10
699.7836839098624
 20
270.932982207315
 30
0.0
 11
699.7836839098624
 21
267.2329822073147
 31
0.0
  0
LINE
  5
12A6
330
2
100
AcDbEntity
  8
0
100
AcDbLine
 10
701.2836839098625
 20
262.9829822073147
 30
0.0
 11
701.2836839098625
 21
261.4829822073147
 31
0.0
  0
LINE
  5
12A7
330
2
100
AcDbEntity
  8
HOJO
100
AcDbLine
 10
701.6170172431955
 20
262.9829822073147
 30
0.0
 11
701.6170172431955
 21
261.4829822073147
 31
0.0
  0
LINE
  5
12A8
330
2
100
AcDbEntity
  8
HIDS
100
AcDbLine
 10
701.2836839098625
 20
267.2329822073147
 30
0.0
 11
701.6170172431955
 21
265.5663155406482
 31
0.0
  0
LINE
  5
12A9
330
2
100
AcDbEntity
  8
0
100
AcDbLine
 10
699.7836839098624
 20
267.2329822073147
 30
0.0
 11
699.9069948234843
 21
267.2329822073147
 31
0.0
  0
LINE
  5
12AA
330
2
100
AcDbEntity
  8
HIDS
100
AcDbLine
 10
701.6170172431955
 20
265.5663155406482
 30
0.0
 11
701.6170172431955
 21
262.9829822073147
 31
0.0
  0
LINE
  5
12AB
330
2
100
AcDbEntity
  8
HIDS
100
AcDbLine
 10
701.2836839098625
 20
267.2329822073147
 30
0.0
 11
701.2836839098625
 21
262.9829822073147
 31
0.0
  0
LINE
  5
12AC
330
2
100
AcDbEntity
  8
HIDS
100
AcDbLine
 10
700.7836839098624
 20
267.2329822073147
 30
0.0
 11
700.7836839098624
 21
262.9829822073147
 31
0.0
  0
LINE
  5
12AD
330
2
100
AcDbEntity
  8
0
100
AcDbLine
 10
702.0976880173418
 20
271.2329822073147
 30
0.0
 11
700.3032991521338
 21
271.2329822073147
 31
0.0
  0
LINE
  5
12AE
330
2
100
AcDbEntity
  8
0
100
AcDbLine
 10
699.7836839098624
 20
270.932982207315
 30
0.0
 11
700.3032991521338
 21
271.2329822073147
 31
0.0
  0
LINE
  5
12AF
330
2
100
AcDbEntity
  8
0
100
AcDbLine
 10
699.7836839098624
 20
270.932982207315
 30
0.0
 11
701.8726596046233
 21
270.932982207315
 31
0.0
  0
LINE
  5
12B0
330
2
100
AcDbEntity
  8
HIDS
100
AcDbLine
 10
706.7836839098625
 20
267.2329822073147
 30
0.0
 11
706.7836839098625
 21
270.932982207315
 31
0.0
  0
LINE
  5
12B1
330
2
100
AcDbEntity
  8
HIDS
100
AcDbLine
 10
707.2836839098624
 20
275.4735448841802
 30
0.0
 11
707.2836839098624
 21
267.2329822073147
 31
0.0
  0
LINE
  5
12B2
330
2
100
AcDbEntity
  8
HOJO
100
AcDbLine
 10
704.9503505765294
 20
262.9829822073147
 30
0.0
 11
704.9503505765294
 21
261.4829822073147
 31
0.0
  0
LINE
  5
12B3
330
2
100
AcDbEntity
  8
0
100
AcDbLine
 10
705.2836839098624
 20
262.9829822073147
 30
0.0
 11
705.2836839098624
 21
261.4829822073147
 31
0.0
  0
LINE
  5
12B4
330
2
100
AcDbEntity
  8
0
100
AcDbLine
 10
703.2836839098624
 20
261.4829822073147
 30
0.0
 11
706.8239784563263
 21
261.4829822073147
 31
0.0
  0
LINE
  5
12B5
330
2
100
AcDbEntity
  8
0
100
AcDbLine
 10
703.2836839098624
 20
262.9829822073147
 30
0.0
 11
706.8239784563267
 21
262.9829822073147
 31
0.0
  0
LINE
  5
12B6
330
2
100
AcDbEntity
  8
HIDS
100
AcDbLine
 10
705.2836839098624
 20
267.2329822073147
 30
0.0
 11
704.9503505765294
 21
265.5663155406482
 31
0.0
  0
LINE
  5
12B7
330
2
100
AcDbEntity
  8
HIDS
100
AcDbLine
 10
705.2836839098624
 20
267.2329822073147
 30
0.0
 11
705.2836839098624
 21
262.9829822073147
 31
0.0
  0
LINE
  5
12B8
330
2
100
AcDbEntity
  8
HIDS
100
AcDbLine
 10
704.9503505765294
 20
265.5663155406482
 30
0.0
 11
704.9503505765294
 21
262.9829822073147
 31
0.0
  0
LINE
  5
12B9
330
2
100
AcDbEntity
  8
HIDS
100
AcDbLine
 10
705.7836839098625
 20
267.2329822073147
 30
0.0
 11
705.7836839098625
 21
262.9829822073147
 31
0.0
  0
LINE
  5
12BA
330
2
100
AcDbEntity
  8
HIDS
100
AcDbLine
 10
706.264068667592
 20
271.2329822073147
 30
0.0
 11
706.7836839098625
 21
270.932982207315
 31
0.0
  0
LINE
  5
12BB
330
2
100
AcDbEntity
  8
0
100
AcDbLine
 10
727.7836839098624
 20
261.4829822073147
 30
0.0
 11
720.7433893634022
 21
261.4829822073147
 31
0.0
  0
LINE
  5
12BC
330
2
100
AcDbEntity
  8
0
100
AcDbLine
 10
720.7433893634018
 20
262.9829822073147
 30
0.0
 11
727.7836839098624
 21
262.9829822073147
 31
0.0
  0
LINE
  5
12BD
330
2
100
AcDbEntity
  8
0
100
AcDbLine
 10
727.7836839098624
 20
262.9829822073147
 30
0.0
 11
727.7836839098624
 21
261.4829822073147
 31
0.0
  0
LINE
  5
12BE
330
2
100
AcDbEntity
  8
0
100
AcDbLine
 10
698.2836777386753
 20
296.2329800717407
 30
0.0
 11
708.2836777386753
 21
296.2329800717407
 31
0.0
  0
ARC
  5
12BF
330
2
100
AcDbEntity
  8
0
100
AcDbCircle
 10
708.2836777386753
 20
292.2329800717406
 30
0.0
 40
4.0
100
AcDbArc
 50
0.0
 51
90.0
  0
LINE
  5
12C0
330
2
100
AcDbEntity
  8
0
100
AcDbLine
 10
712.2836777386753
 20
292.2329800717406
 30
0.0
 11
712.2836777386753
 21
292.2329800717406
 31
0.0
  0
ARC
  5
12C1
330
2
100
AcDbEntity
  8
0
100
AcDbCircle
 10
698.2836777386753
 20
292.2329800717406
 30
0.0
 40
4.0
100
AcDbArc
 50
90.0
 51
180.0
  0
CIRCLE
  5
12C2
330
2
100
AcDbEntity
  8
CENTER
100
AcDbCircle
 10
713.7836839098606
 20
262.2329822073174
 30
0.0
 40
35.00178566873169
  0
CIRCLE
  5
12C3
330
2
100
AcDbEntity
  8
0
100
AcDbCircle
 10
713.7836839098625
 20
262.2329822073161
 30
0.0
 40
14.75
  0
CIRCLE
  5
12C4
330
2
100
AcDbEntity
  8
HOJO
100
AcDbCircle
 10
689.0336839098624
 20
286.9829822073147
 30
0.0
 40
2.5
  0
CIRCLE
  5
12C5
330
2
100
AcDbEntity
  8
0
100
AcDbCircle
 10
689.0336839098624
 20
286.9829822073147
 30
0.0
 40
2.0
  0
CIRCLE
  5
12C6
330
2
100
AcDbEntity
  8
0
100
AcDbCircle
 10
689.0336839098624
 20
237.4829822073147
 30
0.0
 40
2.0
  0
CIRCLE
  5
12C7
330
2
100
AcDbEntity
  8
HOJO
100
AcDbCircle
 10
689.0336839098624
 20
237.4829822073147
 30
0.0
 40
2.5
  0
CIRCLE
  5
12C8
330
2
100
AcDbEntity
  8
0
100
AcDbCircle
 10
738.5336839098624
 20
237.4829822073147
 30
0.0
 40
2.0
  0
CIRCLE
  5
12C9
330
2
100
AcDbEntity
  8
HOJO
100
AcDbCircle
 10
738.5336839098624
 20
237.4829822073147
 30
0.0
 40
2.5
  0
CIRCLE
  5
12CA
330
2
100
AcDbEntity
  8
0
100
AcDbCircle
 10
738.5336839098624
 20
286.9829822073147
 30
0.0
 40
2.0
  0
CIRCLE
  5
12CB
330
2
100
AcDbEntity
  8
HOJO
100
AcDbCircle
 10
738.5336839098624
 20
286.9829822073147
 30
0.0
 40
2.5
  0
ARC
  5
12CC
330
2
100
AcDbEntity
  8
0
100
AcDbCircle
 10
713.7836839098625
 20
262.2329822073147
 30
0.0
 40
8.154700538378051
100
AcDbArc
 50
5.277035934798783
 51
174.7229640652076
  0
CIRCLE
  5
12CD
330
2
100
AcDbEntity
  8
0
100
AcDbCircle
 10
713.7836839098643
 20
262.2329822073134
 30
0.0
 40
7.000000000000113
  0
ARC
  5
12CE
330
2
100
AcDbEntity
  8
0
100
AcDbCircle
 10
713.7836839098625
 20
262.2329822073174
 30
0.0
 40
8.154700538378051
100
AcDbArc
 50
185.2770359348053
 51
354.7229640651946
  0
CIRCLE
  5
12CF
330
2
100
AcDbEntity
  8
0
100
AcDbCircle
 10
713.7836839098625
 20
262.2329822073147
 30
0.0
 40
22.5
  0
LINE
  5
12D1
330
2
100
AcDbEntity
  8
0
100
AcDbLine
 10
551.7396747268605
 20
289.0929822073264
 30
0.0
 11
547.0396747268616
 21
289.0929822073264
 31
0.0
  0
LINE
  5
12D2
330
2
100
AcDbEntity
  8
0
100
AcDbLine
 10
547.0396747268616
 20
297.5929822073264
 30
0.0
 11
551.7396747268605
 21
297.5929822073264
 31
0.0
  0
LINE
  5
12D3
330
2
100
AcDbEntity
  8
CENTER
  6
CENS
100
AcDbLine
 10
529.5085177708326
 20
293.3429822073264
 30
0.0
 11
556.9654907009164
 21
293.3429822073264
 31
0.0
  0
LINE
  5
12D4
330
2
100
AcDbEntity
  8
0
100
AcDbLine
 10
552.0396747268616
 20
297.073366965056
 30
0.0
 11
552.0396747268616
 21
289.6125974495969
 31
0.0
  0
LINE
  5
12D5
330
2
100
AcDbEntity
  8
0
100
AcDbLine
 10
551.7396747268605
 20
289.0929822073264
 30
0.0
 11
551.7396747268605
 21
297.5929822073264
 31
0.0
  0
LINE
  5
12D6
330
2
100
AcDbEntity
  8
0
100
AcDbLine
 10
551.7396747268605
 20
289.0929822073264
 30
0.0
 11
552.0396747268616
 21
289.6125974495969
 31
0.0
  0
LINE
  5
12D7
330
2
100
AcDbEntity
  8
0
100
AcDbLine
 10
552.0396747268616
 20
297.073366965056
 30
0.0
 11
551.7396747268605
 21
297.5929822073264
 31
0.0
  0
LINE
  5
12D8
330
2
100
AcDbEntity
  8
0
100
AcDbLine
 10
547.0396747268616
 20
297.5929822073264
 30
0.0
 11
546.0396747268617
 21
297.5929822073264
 31
0.0
  0
LINE
  5
12D9
330
2
100
AcDbEntity
  8
0
100
AcDbLine
 10
546.0396747268617
 20
297.5929822073264
 30
0.0
 11
546.0396747268617
 21
289.0929822073264
 31
0.0
  0
LINE
  5
12DA
330
2
100
AcDbEntity
  8
0
100
AcDbLine
 10
546.0396747268617
 20
289.0929822073264
 30
0.0
 11
547.0396747268616
 21
289.0929822073264
 31
0.0
  0
LINE
  5
12DB
330
2
100
AcDbEntity
  8
0
100
AcDbLine
 10
547.0396747268616
 20
289.0929822073264
 30
0.0
 11
547.0396747268616
 21
297.5929822073264
 31
0.0
  0
LINE
  5
12DC
330
2
100
AcDbEntity
  8
0
100
AcDbLine
 10
547.0396747268616
 20
289.0929822073264
 30
0.0
 11
547.0396747268616
 21
297.5929822073264
 31
0.0
  0
ARC
  5
12DD
330
2
100
AcDbEntity
  8
0
100
AcDbCircle
 10
550.8429441374621
 20
227.2329822073259
 30
0.0
 40
5.0
100
AcDbArc
 50
163.8741378563922
 51
171.7867892982563
  0
LINE
  5
12DE
330
2
100
AcDbEntity
  8
0
100
AcDbLine
 10
545.9144362974978
 20
228.1980773944517
 30
0.0
 11
546.5085177708326
 21
262.2329822073263
 31
0.0
  0
LINE
  5
12DF
330
2
100
AcDbEntity
  8
0
100
AcDbLine
 10
534.5085177708326
 20
226.2329822073263
 30
0.0
 11
543.9147409071859
 21
226.2329822073263
 31
0.0
  0
ARC
  5
12E0
330
2
100
AcDbEntity
  8
0
100
AcDbCircle
 10
543.9147409071859
 20
228.2329822073263
 30
0.0
 40
2.0
100
AcDbArc
 50
270.0
 51
358.9999999999982
  0
LINE
  5
12E1
330
2
100
AcDbEntity
  8
CENTER
  6
CENS
100
AcDbLine
 10
563.5085177708326
 20
272.6329822073264
 30
0.0
 11
563.5085177708326
 21
300.9121638078084
 31
0.0
  0
LINE
  5
12E2
330
2
100
AcDbEntity
  8
0
100
AcDbLine
 10
545.9144362974978
 20
296.2678870202005
 30
0.0
 11
546.3509697315991
 21
271.2589033299989
 31
0.0
  0
LINE
  5
12E3
330
2
100
AcDbEntity
  8
0
100
AcDbLine
 10
562.9797327446405
 20
289.2288699765488
 30
0.0
 11
562.7621897341062
 21
276.7658392500586
 31
0.0
  0
LINE
  5
12E4
330
2
100
AcDbEntity
  8
0
100
AcDbLine
 10
534.5085177708326
 20
262.2329822073263
 30
0.0
 11
534.96855712402
 21
262.2329822073264
 31
0.0
  0
LINE
  5
12E5
330
2
100
AcDbEntity
  8
0
100
AcDbLine
 10
552.0396747268616
 20
232.2329822073263
 30
0.0
 11
577.5085177708326
 21
232.2329822073263
 31
0.0
  0
LINE
  5
12E6
330
2
100
AcDbEntity
  8
0
100
AcDbLine
 10
562.9797327446405
 20
235.2370944381039
 30
0.0
 11
562.5085177708326
 21
262.2329822073263
 31
0.0
  0
ARC
  5
12E7
330
2
100
AcDbEntity
  8
0
100
AcDbCircle
 10
565.9802615080272
 20
235.2329822073263
 30
0.0
 40
3.0
100
AcDbArc
 50
181.0000000000017
 51
270.0
  0
ARC
  5
12E8
330
2
100
AcDbEntity
  8
0
100
AcDbCircle
 10
550.4167327214429
 20
287.0008008528695
 30
0.0
 40
3.0
100
AcDbArc
 50
270.0
 51
358.9999999999721
  0
LINE
  5
12E9
330
2
100
AcDbEntity
  8
0
100
AcDbLine
 10
559.8880194745045
 20
284.0008008528696
 30
0.0
 11
550.4167327214429
 21
284.00080085287
 31
0.0
  0
LINE
  5
12EA
330
2
100
AcDbEntity
  8
0
100
AcDbLine
 10
553.4162758069117
 20
286.9484436335576
 30
0.0
 11
553.4742169067515
 21
290.2678870202009
 31
0.0
  0
ARC
  5
12EB
330
2
100
AcDbEntity
  8
0
100
AcDbCircle
 10
555.4739122970651
 20
290.2329822073263
 30
0.0
 40
2.0
100
AcDbArc
 50
90.0
 51
178.9999999999721
  0
LINE
  5
12EC
330
2
100
AcDbEntity
  8
0
100
AcDbLine
 10
552.0396747268616
 20
292.2329822073267
 30
0.0
 11
577.5085177708326
 21
292.2329822073263
 31
0.0
  0
ARC
  5
12ED
330
2
100
AcDbEntity
  8
0
100
AcDbCircle
 10
565.9802615080272
 20
289.2329822073263
 30
0.0
 40
3.0
100
AcDbArc
 50
90.0
 51
178.9999999999982
  0
ARC
  5
12EE
330
2
100
AcDbEntity
  8
0
100
AcDbCircle
 10
543.9147409071859
 20
296.2329822073263
 30
0.0
 40
2.0
100
AcDbArc
 50
1.000000000001775
 51
90.0
  0
LINE
  5
12EF
330
2
100
AcDbEntity
  8
0
100
AcDbLine
 10
534.5085177708326
 20
298.2329822073263
 30
0.0
 11
543.9147409071859
 21
298.2329822073263
 31
0.0
  0
ARC
  5
12F0
330
2
100
AcDbEntity
  8
0
100
AcDbCircle
 10
550.8429441374621
 20
297.2329822073268
 30
0.0
 40
5.0
100
AcDbArc
 50
188.2132107017437
 51
196.1258621436077
  0
LINE
  5
12F1
330
2
100
AcDbEntity
  8
0
100
AcDbLine
 10
577.5085177708326
 20
232.2329822073263
 30
0.0
 11
577.5085177708326
 21
292.2329822073263
 31
0.0
  0
LINE
  5
12F2
330
2
100
AcDbEntity
  8
0
100
AcDbLine
 10
551.7396747268605
 20
235.3729822073262
 30
0.0
 11
547.0396747268616
 21
235.3729822073262
 31
0.0
  0
LINE
  5
12F3
330
2
100
AcDbEntity
  8
0
100
AcDbLine
 10
547.0396747268616
 20
226.8729822073262
 30
0.0
 11
551.7396747268605
 21
226.8729822073262
 31
0.0
  0
LINE
  5
12F4
330
2
100
AcDbEntity
  8
CENTER
  6
CENS
100
AcDbLine
 10
529.5085177708326
 20
231.1229822073262
 30
0.0
 11
556.9654907009164
 21
231.1229822073262
 31
0.0
  0
LINE
  5
12F5
330
2
100
AcDbEntity
  8
0
100
AcDbLine
 10
552.0396747268616
 20
227.3925974495966
 30
0.0
 11
552.0396747268616
 21
234.8533669650557
 31
0.0
  0
LINE
  5
12F6
330
2
100
AcDbEntity
  8
0
100
AcDbLine
 10
551.7396747268605
 20
235.3729822073262
 30
0.0
 11
551.7396747268605
 21
226.8729822073262
 31
0.0
  0
LINE
  5
12F7
330
2
100
AcDbEntity
  8
0
100
AcDbLine
 10
551.7396747268605
 20
235.3729822073262
 30
0.0
 11
552.0396747268616
 21
234.8533669650557
 31
0.0
  0
LINE
  5
12F8
330
2
100
AcDbEntity
  8
0
100
AcDbLine
 10
552.0396747268616
 20
227.3925974495966
 30
0.0
 11
551.7396747268605
 21
226.8729822073262
 31
0.0
  0
LINE
  5
12F9
330
2
100
AcDbEntity
  8
0
100
AcDbLine
 10
547.0396747268616
 20
226.8729822073262
 30
0.0
 11
546.0396747268617
 21
226.8729822073262
 31
0.0
  0
LINE
  5
12FA
330
2
100
AcDbEntity
  8
0
100
AcDbLine
 10
546.0396747268617
 20
226.8729822073262
 30
0.0
 11
546.0396747268617
 21
235.3729822073262
 31
0.0
  0
LINE
  5
12FB
330
2
100
AcDbEntity
  8
0
100
AcDbLine
 10
546.0396747268617
 20
235.3729822073262
 30
0.0
 11
547.0396747268616
 21
235.3729822073262
 31
0.0
  0
LINE
  5
12FC
330
2
100
AcDbEntity
  8
0
100
AcDbLine
 10
547.0396747268616
 20
235.3729822073262
 30
0.0
 11
547.0396747268616
 21
226.8729822073262
 31
0.0
  0
LINE
  5
12FD
330
2
100
AcDbEntity
  8
0
100
AcDbLine
 10
547.0396747268616
 20
235.3729822073262
 30
0.0
 11
547.0396747268616
 21
226.8729822073262
 31
0.0
  0
LINE
  5
12FE
330
2
100
AcDbEntity
  8
0
100
AcDbLine
 10
562.9207213404563
 20
276.9829822073268
 30
0.0
 11
570.0085071617825
 21
276.9829822073268
 31
0.0
  0
LINE
  5
12FF
330
2
100
AcDbEntity
  8
0
100
AcDbLine
 10
570.0085071617825
 20
276.9829822073268
 30
0.0
 11
570.0085071617825
 21
262.2329822073263
 31
0.0
  0
LINE
  5
1300
330
2
100
AcDbEntity
  8
0
100
AcDbLine
 10
577.5085177708326
 20
287.2329822073268
 30
0.0
 11
570.5085177708326
 21
287.2329822073268
 31
0.0
  0
LINE
  5
1301
330
2
100
AcDbEntity
  8
0
100
AcDbLine
 10
570.5085177708326
 20
287.2329822073268
 30
0.0
 11
570.5085177708326
 21
262.2329822073263
 31
0.0
  0
LINE
  5
1302
330
2
100
AcDbEntity
  8
0
100
AcDbLine
 10
568.5085239420198
 20
296.2329822073263
 30
0.0
 11
558.5085239420197
 21
296.2329822073263
 31
0.0
  0
ARC
  5
1303
330
2
100
AcDbEntity
  8
0
100
AcDbCircle
 10
558.5085239420197
 20
292.2329822073263
 30
0.0
 40
4.0
100
AcDbArc
 50
90.0
 51
180.0
  0
ARC
  5
1304
330
2
100
AcDbEntity
  8
0
100
AcDbCircle
 10
568.5085239420198
 20
292.2329822073263
 30
0.0
 40
4.0
100
AcDbArc
 50
0.0
 51
90.0
  0
LINE
  5
1305
330
2
100
AcDbEntity
  8
0
100
AcDbLine
 10
568.0085071617825
 20
269.2329822073268
 30
0.0
 11
558.0085071617824
 21
269.2329822073268
 31
0.0
  0
LINE
  5
1306
330
2
100
AcDbEntity
  8
0
100
AcDbLine
 10
568.0085071617825
 20
269.2329822073263
 30
0.0
 11
568.0085071617825
 21
262.2329822073263
 31
0.0
  0
LINE
  5
1307
330
2
100
AcDbEntity
  8
0
100
AcDbLine
 10
570.0085071617825
 20
270.3876827457059
 30
0.0
 11
568.0085071617825
 21
269.2329822073263
 31
0.0
  0
LINE
  5
1308
330
2
100
AcDbEntity
  8
0
100
AcDbLine
 10
541.0085071617825
 20
269.4829822073263
 30
0.0
 11
541.0085071617825
 21
262.2329822073263
 31
0.0
  0
LINE
  5
1309
330
2
100
AcDbEntity
  8
0
100
AcDbLine
 10
568.0085071617825
 20
269.2329822073265
 30
0.0
 11
558.0085071617824
 21
269.2329822073265
 31
0.0
  0
LINE
  5
130A
330
2
100
AcDbEntity
  8
0
100
AcDbLine
 10
556.0085071617825
 20
272.5176633940495
 30
0.0
 11
556.0085071617825
 21
262.2329822073263
 31
0.0
  0
LINE
  5
130B
330
2
100
AcDbEntity
  8
0
100
AcDbLine
 10
558.0085071617824
 20
273.0430635414813
 30
0.0
 11
558.0085071617824
 21
262.2329822073263
 31
0.0
  0
LINE
  5
130C
330
2
100
AcDbEntity
  8
0
100
AcDbLine
 10
549.0085071617825
 20
269.4829822073263
 30
0.0
 11
541.0085071617825
 21
269.4829822073263
 31
0.0
  0
LINE
  5
130D
330
2
100
AcDbEntity
  8
0
100
AcDbLine
 10
549.0085071617825
 20
262.2329822073263
 30
0.0
 11
549.0085071617825
 21
269.4829822073263
 31
0.0
  0
LINE
  5
130E
330
2
100
AcDbEntity
  8
0
100
AcDbLine
 10
556.0085071617825
 20
269.2329822073263
 30
0.0
 11
549.0085071617825
 21
269.2329822073263
 31
0.0
  0
LINE
  5
130F
330
2
100
AcDbEntity
  8
0
100
AcDbLine
 10
537.2557304120503
 20
262.2329822073263
 30
0.0
 11
541.0085071617825
 21
268.7329822073263
 31
0.0
  0
SPLINE
  5
1310
330
2
100
AcDbEntity
  8
HOJO
100
AcDbSpline
210
0.0
220
0.0
230
1.0
 70
     8
 71
     3
 72
    20
 73
    16
 74
     0
 42
0.0000000001
 43
0.0000000001
 40
0.0
 40
0.0
 40
0.0
 40
0.0
 40
5.311626210389601
 40
7.954639692924123
 40
10.24579206730457
 40
14.18281221953265
 40
18.83794314114633
 40
26.54246833222011
 40
31.19712602527561
 40
34.95638115537181
 40
42.12378530287149
 40
45.78553747213095
 40
50.20353689726185
 40
53.26513166942802
 40
54.23175360515262
 40
54.23175360515262
 40
54.23175360515262
 40
54.23175360515262
 10
577.5085177708326
 20
288.9204309293424
 30
0.0
 10
575.7955386049445
 20
288.8123888791162
 30
0.0
 10
573.2301976855335
 20
288.650586156712
 30
0.0
 10
569.458443798457
 20
288.3984534845444
 30
0.0
 10
568.1393025823228
 20
285.4660119995776
 30
0.0
 10
565.704093214031
 20
282.811503176282
 30
0.0
 10
563.8660448708808
 20
277.6602077431182
 30
0.0
 10
559.7412084614054
 20
272.9504603914926
 30
0.0
 10
554.2635609583988
 20
272.3131289570733
 30
0.0
 10
549.3501754488327
 20
271.4591053255151
 30
0.0
 10
544.5161761020747
 20
271.122964803744
 30
0.0
 10
539.4784493374348
 20
270.7195900548392
 30
0.0
 10
536.4072987160664
 20
266.5173870579794
 30
0.0
 10
535.4073244213407
 20
263.8391465370898
 30
0.0
 10
535.0512848961073
 20
262.5441335070188
 30
0.0
 10
534.96855712402
 20
262.2329822073263
 30
0.0
  0
LINE
  5
1311
330
2
100
AcDbEntity
  8
0
100
AcDbLine
 10
567.4078510992155
 20
284.7329822073263
 30
0.0
 11
570.5085177708326
 21
284.7329822073263
 31
0.0
  0
ARC
  5
1313
330
2
100
AcDbEntity
  8
0
100
AcDbCircle
 10
544.5085177664634
 20
504.9588716841567
 30
0.0
 40
2.0
100
AcDbArc
 50
40.04151653423844
 51
90.0
  0
ARC
  5
1314
330
2
100
AcDbEntity
  8
0
100
AcDbCircle
 10
544.5085177664634
 20
436.9588716841567
 30
0.0
 40
2.0
100
AcDbArc
 50
270.0
 51
319.9584834657615
  0
LINE
  5
1315
330
2
100
AcDbEntity
  8
0
100
AcDbLine
 10
553.5085177664634
 20
467.9588716841562
 30
0.0
 11
553.5085177664634
 21
453.4588716841563
 31
0.0
  0
LINE
  5
1316
330
2
100
AcDbEntity
  8
0
100
AcDbLine
 10
546.5085177664634
 20
497.8188716841568
 30
0.0
 11
546.5085177664634
 21
444.0988716841566
 31
0.0
  0
LINE
  5
1317
330
2
100
AcDbEntity
  8
CENTER
  6
CENS
100
AcDbLine
 10
563.5085177664634
 20
471.2088716841567
 30
0.0
 11
563.5085177664634
 21
449.7088716841567
 31
0.0
  0
LINE
  5
1318
330
2
100
AcDbEntity
  8
0
100
AcDbLine
 10
562.5085177664634
 20
497.9588716841568
 30
0.0
 11
562.5085177664634
 21
473.9588716841567
 31
0.0
  0
LINE
  5
1319
330
2
100
AcDbEntity
  8
0
100
AcDbLine
 10
552.0396747224924
 20
500.9588716841567
 30
0.0
 11
577.5085177664634
 21
500.9588716841567
 31
0.0
  0
ARC
  5
131A
330
2
100
AcDbEntity
  8
0
100
AcDbCircle
 10
565.5085177664634
 20
497.9588716841568
 30
0.0
 40
3.0
100
AcDbArc
 50
90.0
 51
180.0
  0
ARC
  5
131B
330
2
100
AcDbEntity
  8
0
100
AcDbCircle
 10
559.5085177664635
 20
473.9588716841567
 30
0.0
 40
3.0
100
AcDbArc
 50
270.0
 51
0.0
  0
ARC
  5
131C
330
2
100
AcDbEntity
  8
0
100
AcDbCircle
 10
556.5085177664634
 20
467.9588716841562
 30
0.0
 40
3.0
100
AcDbArc
 50
90.0
 51
180.0
  0
LINE
  5
131D
330
2
100
AcDbEntity
  8
0
100
AcDbLine
 10
556.5085177664634
 20
470.9588716841567
 30
0.0
 11
559.5085177664635
 21
470.9588716841567
 31
0.0
  0
LINE
  5
131E
330
2
100
AcDbEntity
  8
0
100
AcDbLine
 10
552.0396747224924
 20
440.9588716841567
 30
0.0
 11
577.5085177664634
 21
440.9588716841567
 31
0.0
  0
LINE
  5
131F
330
2
100
AcDbEntity
  8
CENTER
  6
CENS
100
AcDbLine
 10
552.7585177664634
 20
460.4588716841568
 30
0.0
 11
574.2585177664635
 21
460.4588716841568
 31
0.0
  0
ARC
  5
1320
330
2
100
AcDbEntity
  8
0
100
AcDbCircle
 10
556.5085177664634
 20
453.4588716841563
 30
0.0
 40
3.0
100
AcDbArc
 50
180.0
 51
270.0
  0
ARC
  5
1321
330
2
100
AcDbEntity
  8
0
100
AcDbCircle
 10
559.5085177664635
 20
447.4588716841567
 30
0.0
 40
3.0
100
AcDbArc
 50
0.0
 51
90.0
  0
LINE
  5
1322
330
2
100
AcDbEntity
  8
0
100
AcDbLine
 10
556.5085177664634
 20
450.4588716841567
 30
0.0
 11
559.5085177664635
 21
450.4588716841567
 31
0.0
  0
LINE
  5
1323
330
2
100
AcDbEntity
  8
0
100
AcDbLine
 10
562.5085177664634
 20
447.4588716841567
 30
0.0
 11
562.5085177664634
 21
443.9588716841567
 31
0.0
  0
ARC
  5
1324
330
2
100
AcDbEntity
  8
0
100
AcDbCircle
 10
565.5085177664634
 20
443.9588716841567
 30
0.0
 40
3.0
100
AcDbArc
 50
180.0
 51
270.0
  0
LINE
  5
1325
330
2
100
AcDbEntity
  8
0
100
AcDbLine
 10
534.5085177664635
 20
506.9588716841567
 30
0.0
 11
544.5085177664634
 21
506.9588716841567
 31
0.0
  0
LINE
  5
1326
330
2
100
AcDbEntity
  8
0
100
AcDbLine
 10
534.5085177664635
 20
434.9588716841567
 30
0.0
 11
544.5085177664634
 21
434.9588716841567
 31
0.0
  0
LINE
  5
1327
330
2
100
AcDbEntity
  8
0
100
AcDbLine
 10
577.5085177664634
 20
500.9588716841567
 30
0.0
 11
577.5085177664634
 21
440.9588716841567
 31
0.0
  0
LINE
  5
1328
330
2
100
AcDbEntity
  8
0
100
AcDbLine
 10
551.7396747224913
 20
444.0988716841566
 30
0.0
 11
547.0396747224924
 21
444.0988716841566
 31
0.0
  0
LINE
  5
1329
330
2
100
AcDbEntity
  8
0
100
AcDbLine
 10
547.0396747224924
 20
435.5988716841566
 30
0.0
 11
551.7396747224913
 21
435.5988716841566
 31
0.0
  0
LINE
  5
132A
330
2
100
AcDbEntity
  8
CENTER
  6
CENS
100
AcDbLine
 10
529.5085177664634
 20
439.8488716841566
 30
0.0
 11
556.9654906965472
 21
439.8488716841566
 31
0.0
  0
LINE
  5
132B
330
2
100
AcDbEntity
  8
0
100
AcDbLine
 10
552.0396747224924
 20
436.118486926427
 30
0.0
 11
552.0396747224924
 21
443.5792564418862
 31
0.0
  0
LINE
  5
132C
330
2
100
AcDbEntity
  8
0
100
AcDbLine
 10
551.7396747224913
 20
444.0988716841566
 30
0.0
 11
551.7396747224913
 21
435.5988716841566
 31
0.0
  0
LINE
  5
132D
330
2
100
AcDbEntity
  8
0
100
AcDbLine
 10
551.7396747224913
 20
444.0988716841566
 30
0.0
 11
552.0396747224924
 21
443.5792564418862
 31
0.0
  0
LINE
  5
132E
330
2
100
AcDbEntity
  8
0
100
AcDbLine
 10
552.0396747224924
 20
436.118486926427
 30
0.0
 11
551.7396747224913
 21
435.5988716841566
 31
0.0
  0
LINE
  5
132F
330
2
100
AcDbEntity
  8
0
100
AcDbLine
 10
547.0396747224924
 20
435.5988716841566
 30
0.0
 11
546.0396747224924
 21
435.5988716841566
 31
0.0
  0
LINE
  5
1330
330
2
100
AcDbEntity
  8
0
100
AcDbLine
 10
546.0396747224924
 20
435.5988716841566
 30
0.0
 11
546.0396747224924
 21
444.0988716841566
 31
0.0
  0
LINE
  5
1331
330
2
100
AcDbEntity
  8
0
100
AcDbLine
 10
546.0396747224924
 20
444.0988716841566
 30
0.0
 11
547.0396747224924
 21
444.0988716841566
 31
0.0
  0
LINE
  5
1332
330
2
100
AcDbEntity
  8
0
100
AcDbLine
 10
547.0396747224924
 20
444.0988716841566
 30
0.0
 11
547.0396747224924
 21
435.5988716841566
 31
0.0
  0
LINE
  5
1333
330
2
100
AcDbEntity
  8
0
100
AcDbLine
 10
547.0396747224924
 20
444.0988716841566
 30
0.0
 11
547.0396747224924
 21
435.5988716841566
 31
0.0
  0
LINE
  5
1334
330
2
100
AcDbEntity
  8
0
100
AcDbLine
 10
551.7396747224913
 20
497.8188716841568
 30
0.0
 11
547.0396747224924
 21
497.8188716841568
 31
0.0
  0
LINE
  5
1335
330
2
100
AcDbEntity
  8
0
100
AcDbLine
 10
547.0396747224924
 20
506.3188716841568
 30
0.0
 11
551.7396747224913
 21
506.3188716841568
 31
0.0
  0
LINE
  5
1336
330
2
100
AcDbEntity
  8
CENTER
  6
CENS
100
AcDbLine
 10
529.5085177664634
 20
502.0688716841569
 30
0.0
 11
556.9654906965472
 21
502.0688716841569
 31
0.0
  0
LINE
  5
1337
330
2
100
AcDbEntity
  8
0
100
AcDbLine
 10
552.0396747224924
 20
505.7992564418864
 30
0.0
 11
552.0396747224924
 21
498.3384869264273
 31
0.0
  0
LINE
  5
1338
330
2
100
AcDbEntity
  8
0
100
AcDbLine
 10
551.7396747224913
 20
497.8188716841568
 30
0.0
 11
551.7396747224913
 21
506.3188716841568
 31
0.0
  0
LINE
  5
1339
330
2
100
AcDbEntity
  8
0
100
AcDbLine
 10
551.7396747224913
 20
497.8188716841568
 30
0.0
 11
552.0396747224924
 21
498.3384869264273
 31
0.0
  0
LINE
  5
133A
330
2
100
AcDbEntity
  8
0
100
AcDbLine
 10
552.0396747224924
 20
505.7992564418864
 30
0.0
 11
551.7396747224913
 21
506.3188716841568
 31
0.0
  0
LINE
  5
133B
330
2
100
AcDbEntity
  8
0
100
AcDbLine
 10
547.0396747224924
 20
506.3188716841568
 30
0.0
 11
546.0396747224924
 21
506.3188716841568
 31
0.0
  0
LINE
  5
133C
330
2
100
AcDbEntity
  8
0
100
AcDbLine
 10
546.0396747224924
 20
506.3188716841568
 30
0.0
 11
546.0396747224924
 21
497.8188716841568
 31
0.0
  0
LINE
  5
133D
330
2
100
AcDbEntity
  8
0
100
AcDbLine
 10
546.0396747224924
 20
497.8188716841568
 30
0.0
 11
547.0396747224924
 21
497.8188716841568
 31
0.0
  0
LINE
  5
133E
330
2
100
AcDbEntity
  8
0
100
AcDbLine
 10
547.0396747224924
 20
497.8188716841568
 30
0.0
 11
547.0396747224924
 21
506.3188716841568
 31
0.0
  0
LINE
  5
133F
330
2
100
AcDbEntity
  8
0
100
AcDbLine
 10
547.0396747224924
 20
497.8188716841568
 30
0.0
 11
547.0396747224924
 21
506.3188716841568
 31
0.0
  0
CIRCLE
  5
1340
330
2
100
AcDbEntity
  8
0
100
AcDbCircle
 10
563.5085177664634
 20
460.4588716841568
 30
0.0
 40
9.000006171187123
  0
LINE
  5
1341
330
2
100
AcDbEntity
  8
0
100
AcDbLine
 10
74.51275341712175
 20
289.0929822073262
 30
0.0
 11
79.21275341712067
 21
289.0929822073262
 31
0.0
  0
LINE
  5
1342
330
2
100
AcDbEntity
  8
0
100
AcDbLine
 10
79.21275341712067
 20
297.5929822073262
 30
0.0
 11
74.51275341712175
 21
297.5929822073262
 31
0.0
  0
LINE
  5
1343
330
2
100
AcDbEntity
  8
CENTER
  6
CENS
100
AcDbLine
 10
96.74391037314968
 20
293.3429822073262
 30
0.0
 11
69.28693744306588
 21
293.3429822073262
 31
0.0
  0
LINE
  5
1344
330
2
100
AcDbEntity
  8
0
100
AcDbLine
 10
74.21275341712067
 20
297.0733669650558
 30
0.0
 11
74.21275341712067
 21
289.6125974495967
 31
0.0
  0
LINE
  5
1345
330
2
100
AcDbEntity
  8
0
100
AcDbLine
 10
74.51275341712175
 20
289.0929822073262
 30
0.0
 11
74.51275341712175
 21
297.5929822073262
 31
0.0
  0
LINE
  5
1346
330
2
100
AcDbEntity
  8
0
100
AcDbLine
 10
74.51275341712175
 20
289.0929822073262
 30
0.0
 11
74.21275341712067
 21
289.6125974495967
 31
0.0
  0
LINE
  5
1347
330
2
100
AcDbEntity
  8
0
100
AcDbLine
 10
74.21275341712067
 20
297.0733669650558
 30
0.0
 11
74.51275341712175
 21
297.5929822073262
 31
0.0
  0
LINE
  5
1348
330
2
100
AcDbEntity
  8
0
100
AcDbLine
 10
79.21275341712067
 20
297.5929822073262
 30
0.0
 11
80.21275341712067
 21
297.5929822073262
 31
0.0
  0
LINE
  5
1349
330
2
100
AcDbEntity
  8
0
100
AcDbLine
 10
80.21275341712067
 20
297.5929822073262
 30
0.0
 11
80.21275341712067
 21
289.0929822073262
 31
0.0
  0
LINE
  5
134A
330
2
100
AcDbEntity
  8
0
100
AcDbLine
 10
80.21275341712067
 20
289.0929822073262
 30
0.0
 11
79.21275341712067
 21
289.0929822073262
 31
0.0
  0
LINE
  5
134B
330
2
100
AcDbEntity
  8
0
100
AcDbLine
 10
79.21275341712067
 20
289.0929822073262
 30
0.0
 11
79.21275341712067
 21
297.5929822073262
 31
0.0
  0
LINE
  5
134C
330
2
100
AcDbEntity
  8
0
100
AcDbLine
 10
79.21275341712067
 20
289.0929822073262
 30
0.0
 11
79.21275341712067
 21
297.5929822073262
 31
0.0
  0
ARC
  5
134D
330
2
100
AcDbEntity
  8
0
100
AcDbCircle
 10
75.40948400652019
 20
227.2329822073256
 30
0.0
 40
5.0
100
AcDbArc
 50
8.213210701743676
 51
16.12586214360769
  0
LINE
  5
134E
330
2
100
AcDbEntity
  8
0
100
AcDbLine
 10
80.33799184648456
 20
228.1980773944515
 30
0.0
 11
79.74391037314967
 21
262.2329822073261
 31
0.0
  0
LINE
  5
134F
330
2
100
AcDbEntity
  8
0
100
AcDbLine
 10
91.74391037314967
 20
226.2329822073261
 30
0.0
 11
82.33768723679645
 21
226.2329822073261
 31
0.0
  0
ARC
  5
1350
330
2
100
AcDbEntity
  8
0
100
AcDbCircle
 10
82.33768723679645
 20
228.2329822073261
 30
0.0
 40
2.0
100
AcDbArc
 50
181.0000000000017
 51
270.0
  0
LINE
  5
1351
330
2
100
AcDbEntity
  8
CENTER
  6
CENS
100
AcDbLine
 10
62.74391037314967
 20
272.6329822073262
 30
0.0
 11
62.74391037314967
 21
300.9121638078081
 31
0.0
  0
LINE
  5
1352
330
2
100
AcDbEntity
  8
0
100
AcDbLine
 10
80.33799184648456
 20
296.2678870202003
 30
0.0
 11
79.74391037315013
 21
262.2329822073261
 31
0.0
  0
LINE
  5
1353
330
2
100
AcDbEntity
  8
0
100
AcDbLine
 10
63.27269539934173
 20
289.2288699765486
 30
0.0
 11
63.74391037315058
 21
262.2329822073261
 31
0.0
  0
LINE
  5
1354
330
2
100
AcDbEntity
  8
0
100
AcDbLine
 10
91.74391037314967
 20
262.2329822073261
 30
0.0
 11
48.74391037314968
 21
262.2329822073261
 31
0.0
  0
LINE
  5
1355
330
2
100
AcDbEntity
  8
0
100
AcDbLine
 10
74.21275341712067
 20
232.2329822073261
 30
0.0
 11
48.74391037314968
 21
232.2329822073261
 31
0.0
  0
LINE
  5
1356
330
2
100
AcDbEntity
  8
0
100
AcDbLine
 10
63.27269539934173
 20
235.2370944381036
 30
0.0
 11
63.74391037314968
 21
262.2329822073261
 31
0.0
  0
ARC
  5
1357
330
2
100
AcDbEntity
  8
0
100
AcDbCircle
 10
60.27216663595504
 20
235.2329822073261
 30
0.0
 40
3.0
100
AcDbArc
 50
270.0
 51
358.9999999999982
  0
ARC
  5
1358
330
2
100
AcDbEntity
  8
0
100
AcDbCircle
 10
75.8356954225394
 20
237.4651635617829
 30
0.0
 40
3.0
100
AcDbArc
 50
90.0
 51
178.9999999999721
  0
LINE
  5
1359
330
2
100
AcDbEntity
  8
0
100
AcDbLine
 10
66.36440866947783
 20
240.4651635617828
 30
0.0
 11
75.8356954225394
 21
240.4651635617824
 31
0.0
  0
LINE
  5
135A
330
2
100
AcDbEntity
  8
0
100
AcDbLine
 10
72.83615233707064
 20
237.5175207810948
 30
0.0
 11
72.77821123723083
 21
234.1980773944515
 31
0.0
  0
ARC
  5
135B
330
2
100
AcDbEntity
  8
0
100
AcDbCircle
 10
70.77851584691711
 20
234.2329822073261
 30
0.0
 40
2.0
100
AcDbArc
 50
270.0
 51
358.9999999999721
  0
LINE
  5
135C
330
2
100
AcDbEntity
  8
0
100
AcDbLine
 10
74.21275341712067
 20
292.2329822073265
 30
0.0
 11
48.74391037314968
 21
292.2329822073261
 31
0.0
  0
ARC
  5
135D
330
2
100
AcDbEntity
  8
0
100
AcDbCircle
 10
60.27216663595504
 20
289.2329822073261
 30
0.0
 40
3.0
100
AcDbArc
 50
1.000000000001775
 51
90.0
  0
ARC
  5
135E
330
2
100
AcDbEntity
  8
0
100
AcDbCircle
 10
82.33768723679645
 20
296.2329822073261
 30
0.0
 40
2.0
100
AcDbArc
 50
90.0
 51
178.9999999999982
  0
LINE
  5
135F
330
2
100
AcDbEntity
  8
0
100
AcDbLine
 10
91.74391037314967
 20
298.2329822073261
 30
0.0
 11
82.33768723679645
 21
298.2329822073261
 31
0.0
  0
ARC
  5
1360
330
2
100
AcDbEntity
  8
0
100
AcDbCircle
 10
75.40948400652019
 20
297.2329822073266
 30
0.0
 40
5.0
100
AcDbArc
 50
343.8741378563923
 51
351.7867892982563
  0
LINE
  5
1361
330
2
100
AcDbEntity
  8
0
100
AcDbLine
 10
48.74391037314968
 20
232.2329822073261
 30
0.0
 11
48.74391037314968
 21
292.2329822073261
 31
0.0
  0
LINE
  5
1362
330
2
100
AcDbEntity
  8
0
100
AcDbLine
 10
74.51275341712175
 20
235.372982207326
 30
0.0
 11
79.21275341712067
 21
235.372982207326
 31
0.0
  0
LINE
  5
1363
330
2
100
AcDbEntity
  8
0
100
AcDbLine
 10
79.21275341712067
 20
226.872982207326
 30
0.0
 11
74.51275341712175
 21
226.872982207326
 31
0.0
  0
LINE
  5
1364
330
2
100
AcDbEntity
  8
CENTER
  6
CENS
100
AcDbLine
 10
96.74391037314968
 20
231.122982207326
 30
0.0
 11
69.28693744306588
 21
231.122982207326
 31
0.0
  0
LINE
  5
1365
330
2
100
AcDbEntity
  8
0
100
AcDbLine
 10
74.21275341712067
 20
227.3925974495964
 30
0.0
 11
74.21275341712067
 21
234.8533669650555
 31
0.0
  0
LINE
  5
1366
330
2
100
AcDbEntity
  8
0
100
AcDbLine
 10
74.51275341712175
 20
235.372982207326
 30
0.0
 11
74.51275341712175
 21
226.872982207326
 31
0.0
  0
LINE
  5
1367
330
2
100
AcDbEntity
  8
0
100
AcDbLine
 10
74.51275341712175
 20
235.372982207326
 30
0.0
 11
74.21275341712067
 21
234.8533669650555
 31
0.0
  0
LINE
  5
1368
330
2
100
AcDbEntity
  8
0
100
AcDbLine
 10
74.21275341712067
 20
227.3925974495964
 30
0.0
 11
74.51275341712175
 21
226.872982207326
 31
0.0
  0
LINE
  5
1369
330
2
100
AcDbEntity
  8
0
100
AcDbLine
 10
79.21275341712067
 20
226.872982207326
 30
0.0
 11
80.21275341712067
 21
226.872982207326
 31
0.0
  0
LINE
  5
136A
330
2
100
AcDbEntity
  8
0
100
AcDbLine
 10
80.21275341712067
 20
226.872982207326
 30
0.0
 11
80.21275341712067
 21
235.372982207326
 31
0.0
  0
LINE
  5
136B
330
2
100
AcDbEntity
  8
0
100
AcDbLine
 10
80.21275341712067
 20
235.372982207326
 30
0.0
 11
79.21275341712067
 21
235.372982207326
 31
0.0
  0
LINE
  5
136C
330
2
100
AcDbEntity
  8
0
100
AcDbLine
 10
79.21275341712067
 20
235.372982207326
 30
0.0
 11
79.21275341712067
 21
226.872982207326
 31
0.0
  0
LINE
  5
136D
330
2
100
AcDbEntity
  8
0
100
AcDbLine
 10
79.21275341712067
 20
235.372982207326
 30
0.0
 11
79.21275341712067
 21
226.872982207326
 31
0.0
  0
LINE
  5
136E
330
2
100
AcDbEntity
  8
0
100
AcDbLine
 10
57.74390420196255
 20
296.2329822073261
 30
0.0
 11
67.74390420196255
 21
296.2329822073261
 31
0.0
  0
ARC
  5
136F
330
2
100
AcDbEntity
  8
0
100
AcDbCircle
 10
67.74390420196255
 20
292.2329822073261
 30
0.0
 40
4.0
100
AcDbArc
 50
0.0
 51
90.0
  0
ARC
  5
1370
330
2
100
AcDbEntity
  8
0
100
AcDbCircle
 10
57.74390420196255
 20
292.2329822073261
 30
0.0
 40
4.0
100
AcDbArc
 50
90.0
 51
180.0
  0
LINE
  5
1D64
330
2
100
AcDbEntity
  8
0
100
AcDbLine
 10
307.5303818490804
 20
126.3535853420851
 30
0.0
 11
302.0303818490758
 21
126.353585342111
 31
0.0
  0
CIRCLE
  5
1E67
330
2
100
AcDbEntity
  8
0
100
AcDbCircle
 10
462.508517775672
 20
262.2329822073266
 30
0.0
 40
19.5774
  0
ENDSEC
  0
SECTION
  2
OBJECTS
  0
DICTIONARY
  5
7
330
0
100
AcDbDictionary
  3
ACAD_COLOR
350
1D31
  3
ACAD_GROUP
350
75
  3
ACAD_LAYOUT
350
61
  3
ACAD_MATERIAL
350
1D07
  3
ACAD_MLEADERSTYLE
350
1D56
  3
ACAD_MLINESTYLE
350
76
  3
ACAD_PLOTSETTINGS
350
77
  3
ACAD_PLOTSTYLENAME
350
6
  3
ACAD_SCALELIST
350
1D34
  3
ACAD_TABLESTYLE
350
1D32
  3
ACAD_VISUALSTYLE
350
1D20
  3
ACADDIM
350
480
  3
ACDB_RECOMPOSE_DATA
350
1D7A
  3
ACDBHEADERROUNDTRIPXREC
350
1ED0
  3
ACDBVARIABLEDICTIONARY
350
102
  3
DWGPROPS
350
1E9C
  0
DICTIONARY
  5
1D83
330
6E
100
AcDbDictionary
280
     1
  3
ACAD_XREC_ROUNDTRIP
360
1EA3
  0
DICTIONARY
  5
AE5
330
66
100
AcDbDictionary
280
     1
  3
ACAD_LAYERSTATES
360
AE6
  0
DICTIONARY
  5
1D66
330
5E
100
AcDbDictionary
280
     1
  3
ACAD_XREC_ROUNDTRIP
360
1E9F
  3
ADSK_XREC_LAYER_RECONCILED
360
1D67
  0
DICTIONARY
  5
1D68
330
3E
100
AcDbDictionary
280
     1
  3
ACAD_XREC_ROUNDTRIP
360
1E9E
  3
ADSK_XREC_LAYER_RECONCILED
360
1D69
  0
DICTIONARY
  5
1D6E
330
2B5
100
AcDbDictionary
280
     1
  3
ACAD_XREC_ROUNDTRIP
360
1EA9
  3
ADSK_XREC_LAYER_RECONCILED
360
1D6F
  0
DICTIONARY
  5
1D70
330
2BA
100
AcDbDictionary
280
     1
  3
ACAD_XREC_ROUNDTRIP
360
1EAA
  3
ADSK_XREC_LAYER_RECONCILED
360
1D71
  0
DICTIONARY
  5
1D74
330
3FA
100
AcDbDictionary
280
     1
  3
ACAD_XREC_ROUNDTRIP
360
1EAC
  3
ADSK_XREC_LAYER_RECONCILED
360
1D75
  0
DICTIONARY
  5
1D76
330
478
100
AcDbDictionary
280
     1
  3
ACAD_XREC_ROUNDTRIP
360
1EAD
  3
ADSK_XREC_LAYER_RECONCILED
360
1D77
  0
DICTIONARY
  5
1EF1
330
2
100
AcDbDictionary
280
     1
  3
ACAD_LAYOUTSELFREF
360
1EF2
  0
DICTIONARY
  5
1EF3
330
1ECA
100
AcDbDictionary
280
     1
  3
ACAD_LAYOUTSELFREF
360
1EF4
  0
DICTIONARY
  5
1D31
102
{ACAD_REACTORS
330
7
102
}
330
7
100
AcDbDictionary
  0
DICTIONARY
  5
75
102
{ACAD_REACTORS
330
7
102
}
330
7
100
AcDbDictionary
  0
DICTIONARY
  5
61
102
{ACAD_REACTORS
330
7
102
}
330
7
100
AcDbDictionary
  0
DICTIONARY
  5
1D07
102
{ACAD_REACTORS
330
7
102
}
330
7
100
AcDbDictionary
  3
BYBLOCK
350
1D10
  3
BYLAYER
350
1D08
  3
GLOBAL
350
1D18
  0
DICTIONARY
  5
1D56
102
{ACAD_REACTORS
330
7
102
}
330
7
100
AcDbDictionary
  3
STANDARD
350
1D57
  0
DICTIONARY
  5
76
102
{ACAD_REACTORS
330
7
102
}
330
7
100
AcDbDictionary
  3
STANDARD
350
78
  0
DICTIONARY
  5
77
102
{ACAD_REACTORS
330
7
102
}
330
7
100
AcDbDictionary
  0
ACDBDICTIONARYWDFLT
  5
6
102
{ACAD_REACTORS
330
7
102
}
330
7
100
AcDbDictionary
281
     1
  3
Normal
350
5
100
AcDbDictionaryWithDefault
340
5
  0
DICTIONARY
  5
1D34
102
{ACAD_REACTORS
330
7
102
}
330
7
100
AcDbDictionary
  3
A0
350
1D35
  3
A1
350
1D36
  3
A2
350
1D37
  3
A3
350
1D38
  3
A4
350
1D39
  3
A5
350
1D3A
  3
A6
350
1D3B
  3
A7
350
1D3C
  3
A8
350
1D3D
  3
A9
350
1D3E
  3
B0
350
1D3F
  3
B1
350
1D40
  3
B2
350
1D41
  3
B3
350
1D42
  3
B4
350
1D43
  3
B5
350
1D44
  3
B6
350
1D45
  3
B7
350
1D46
  3
B8
350
1D47
  3
B9
350
1D48
  3
C0
350
1D49
  3
C1
350
1D4A
  3
C2
350
1D4B
  3
C3
350
1D4C
  3
C4
350
1D4D
  3
C5
350
1D4E
  3
C6
350
1D4F
  3
C7
350
1D50
  3
C8
350
1D51
  3
C9
350
1D52
  3
D0
350
1D53
  3
D1
350
1D54
  3
D2
350
1D55
  0
DICTIONARY
  5
1D32
102
{ACAD_REACTORS
330
7
102
}
330
7
100
AcDbDictionary
  3
STANDARD
350
1D33
  0
DICTIONARY
  5
1D20
102
{ACAD_REACTORS
330
7
102
}
330
7
100
AcDbDictionary
  3
2DWIREFRAME
350
1D26
  3
3D_HIDDEN
350
1D28
  3
3DWIREFRAME
350
1D27
  3
BASIC
350
1D25
  3
BRIGHTEN
350
1D2C
  3
COLORCHANGE
350
1D30
  3
CONCEPTUAL
350
1D29
  3
DIM
350
1D2B
  3
FACEPATTERN
350
1D2F
  3
FLAT
350
1D21
  3
FLATWITHEDGES
350
1D22
  3
GOURAUD
350
1D23
  3
GOURAUDWITHEDGES
350
1D24
  3
LINEPATTERN
350
1D2E
  3
REALISTIC
350
1D2A
  3
THICKEN
350
1D2D
  0
XRECORD
  5
480
102
{ACAD_REACTORS
330
7
102
}
330
7
100
AcDbXrecord
 90
   990106
  3

 60
     0
 61
     0
 62
     1
 63
     3
 64
     1
 65
     0
 66
     0
 67
     3
 68
     1
 69
     0
 70
     0
 71
     0
 72
     0
 40
0.0
170
     2
340
0
  0
XRECORD
  5
1D7A
102
{ACAD_REACTORS
330
7
102
}
330
7
100
AcDbXrecord
 90
        1
330
1D33
  0
DICTIONARY
  5
1ED0
102
{ACAD_REACTORS
330
7
102
}
330
7
100
AcDbDictionary
  3
CEPSNTYPE
350
1EDA
  3
DIMSTYLEDATA
350
1EDE
  3
FINGERPRINTGUID
350
1EDB
  3
HYPERLINKBASE
350
1ED3
  3
INSUNITS
350
1ED9
  3
LAYOUTDICT
350
1ED5
  3
LWETCUNION
350
1ED8
  3
PLOTSETDICT
350
1ED6
  3
PLOTSTYLNAMDICT
350
1ED7
  3
PSVPSCALE
350
1EDD
  3
PUCSBASE
350
1EE1
  3
PUCSORGBACK
350
1EE7
  3
PUCSORGBOTTOM
350
1EE3
  3
PUCSORGFRONT
350
1EE6
  3
PUCSORGLEFT
350
1EE4
  3
PUCSORGRIGHT
350
1EE5
  3
PUCSORGTOP
350
1EE2
  3
PUCSORTHOREF
350
1EDF
  3
PUCSORTHOVIEW
350
1EE0
  3
STYLESHEET
350
1ED4
  3
TSTACKALIGN
350
1ED1
  3
TSTACKSIZE
350
1ED2
  3
UCSBASE
350
1EEA
  3
UCSORGBACK
350
1EF0
  3
UCSORGBOTTOM
350
1EEC
  3
UCSORGFRONT
350
1EEF
  3
UCSORGLEFT
350
1EED
  3
UCSORGRIGHT
350
1EEE
  3
UCSORGTOP
350
1EEB
  3
UCSORTHOREF
350
1EE8
  3
UCSORTHOVIEW
350
1EE9
  3
VERSIONGUID
350
1EDC
  0
DICTIONARY
  5
102
102
{ACAD_REACTORS
330
7
102
}
330
7
100
AcDbDictionary
  3
CANNOSCALE
350
1D9B
  3
CMLEADERSTYLE
350
1D9A
  3
CTABLESTYLE
350
1D99
  3
DIMASSOC
350
103
  3
INDEXCTL
350
1D9C
  3
SORTENTS
350
549
  0
XRECORD
  5
1E9C
102
{ACAD_REACTORS
330
7
102
}
330
7
100
AcDbXrecord
  1
DWGPROPS COOKIE
  2

  3

  4

  6

  7

  8
ymorima
  9

300
=
301
=
302
=
303
=
304
=
305
=
306
=
307
=
308
=
309
=
 40
0.0278200810185185
 41
2454410.557961331
 42
2454425.675968055
  1

 90
        0
  0
XRECORD
  5
1EA3
102
{ACAD_REACTORS
330
1D83
102
}
330
1D83
100
AcDbXrecord
102
VTR_0.000_0.000_1.000_1.000_VISUALSTYLE
340
1D26
102
VTR_0.000_0.000_1.000_1.000_GRIDDISPLAY
 70
     3
102
VTR_0.000_0.000_1.000_1.000_GRIDMAJOR
 70
     5
102
VTR_0.000_0.000_1.000_1.000_DEFAULTLIGHTING
280
     1
102
VTR_0.000_0.000_1.000_1.000_DEFAULTLIGHTINGTYPE
 70
     1
102
VTR_0.000_0.000_1.000_1.000_BRIGHTNESS
141
0.0
102
VTR_0.000_0.000_1.000_1.000_CONTRAST
142
0.0
  0
DICTIONARY
  5
AE6
102
{ACAD_REACTORS
330
AE5
102
}
330
AE5
100
AcDbDictionary
  0
XRECORD
  5
1E9F
102
{ACAD_REACTORS
330
1D66
102
}
330
1D66
100
AcDbXrecord
102
MATERIAL
340
1D18
  0
XRECORD
  5
1D67
102
{ACAD_REACTORS
330
1D66
102
}
330
1D66
100
AcDbXrecord
290
     1
  0
XRECORD
  5
1E9E
102
{ACAD_REACTORS
330
1D68
102
}
330
1D68
100
AcDbXrecord
102
MATERIAL
340
1D18
  0
XRECORD
  5
1D69
102
{ACAD_REACTORS
330
1D68
102
}
330
1D68
100
AcDbXrecord
290
     1
  0
XRECORD
  5
1EA9
102
{ACAD_REACTORS
330
1D6E
102
}
330
1D6E
100
AcDbXrecord
102
MATERIAL
340
1D18
  0
XRECORD
  5
1D6F
102
{ACAD_REACTORS
330
1D6E
102
}
330
1D6E
100
AcDbXrecord
290
     1
  0
XRECORD
  5
1EAA
102
{ACAD_REACTORS
330
1D70
102
}
330
1D70
100
AcDbXrecord
102
MATERIAL
340
1D18
  0
XRECORD
  5
1D71
102
{ACAD_REACTORS
330
1D70
102
}
330
1D70
100
AcDbXrecord
290
     1
  0
XRECORD
  5
1EAC
102
{ACAD_REACTORS
330
1D74
102
}
330
1D74
100
AcDbXrecord
102
MATERIAL
340
1D18
  0
XRECORD
  5
1D75
102
{ACAD_REACTORS
330
1D74
102
}
330
1D74
100
AcDbXrecord
290
     1
  0
XRECORD
  5
1EAD
102
{ACAD_REACTORS
330
1D76
102
}
330
1D76
100
AcDbXrecord
102
MATERIAL
340
1D18
  0
XRECORD
  5
1D77
102
{ACAD_REACTORS
330
1D76
102
}
330
1D76
100
AcDbXrecord
290
     1
  0
XRECORD
  5
1EF2
102
{ACAD_REACTORS
330
1EF1
102
}
330
1EF1
100
AcDbXrecord
340
2
  0
XRECORD
  5
1EF4
102
{ACAD_REACTORS
330
1EF3
102
}
330
1EF3
100
AcDbXrecord
340
1ECA
  0
ACAD_PROXY_OBJECT
  5
1D10
102
{ACAD_XDICTIONARY
360
1D11
102
}
102
{ACAD_REACTORS
330
1D07
102
}
330
1D07
100
AcDbProxyObject
 90
      499
 91
      510
 93
     1340
310
42109E509B1BD8DAC02004014080404555555555555953FAA155555555555654FEA9AA400014080404555555555555953FAA155555555555654FEA9AA400000000000000E03F4080404555555555555953FAA155555555555654FEA9AA4014080404555555555555953FAA155555555555654FEA9AA4010201011555555555
310
55654FEA8555555555555953FAA6A9005020101155555555555654FEA8555555555555953FAA6A9000
 94
        0
1001
ACAD
1000
AcadProxyRoundTripData
1071
      504
1071
   655383
1070
     0
  0
ACAD_PROXY_OBJECT
  5
1D08
102
{ACAD_XDICTIONARY
360
1D09
102
}
102
{ACAD_REACTORS
330
1D07
102
}
330
1D07
100
AcDbProxyObject
 90
      499
 91
      510
 93
     1340
310
42109E53185E595C802004014080404555555555555953FAA155555555555654FEA9AA400014080404555555555555953FAA155555555555654FEA9AA400000000000000E03F4080404555555555555953FAA155555555555654FEA9AA4014080404555555555555953FAA155555555555654FEA9AA4010201011555555555
310
55654FEA8555555555555953FAA6A9005020101155555555555654FEA8555555555555953FAA6A9000
 94
        0
1001
ACAD
1000
AcadProxyRoundTripData
1071
      504
1071
   655383
1070
     0
  0
ACAD_PROXY_OBJECT
  5
1D18
102
{ACAD_XDICTIONARY
360
1D19
102
}
102
{ACAD_REACTORS
330
1D07
102
}
330
1D07
100
AcDbProxyObject
 90
      499
 91
      510
 93
     1332
310
41D1DB1BD8985B002004014080404555555555555953FAA155555555555654FEA9AA400014080404555555555555953FAA155555555555654FEA9AA400000000000000E03F4080404555555555555953FAA155555555555654FEA9AA4014080404555555555555953FAA155555555555654FEA9AA401020101155555555555
310
654FEA8555555555555953FAA6A9005020101155555555555654FEA8555555555555953FAA6A9000
 94
        0
1001
ACAD
1000
AcadProxyRoundTripData
1071
      504
1071
   655383
1070
     0
  0
ACAD_PROXY_OBJECT
  5
1D57
102
{ACAD_REACTORS
330
1D56
102
}
330
1D56
100
AcDbProxyObject
 90
      499
 91
      510
 93
      618
310
40901902A4063FBFFFFFE056BD1B81E855B9FC0AD7A3703D0AD73F4254DD185B99185C990000AD7A3703D0AC73F90141901A02B5E8DC0F42B1CFC02B5E8DC0F42B1CFE5764000000000000300FC6
340
6A
340
0
340
16
340
0
 94
        0
1001
ACAD_MLEADERVER
1070
     2
1001
ACAD
1000
AcadProxyRoundTripData
1071
      508
1071
   655383
1070
     0
  0
MLINESTYLE
  5
78
102
{ACAD_REACTORS
330
76
102
}
330
76
100
AcDbMlineStyle
  2
STANDARD
 70
     0
  3

 62
     0
 51
90.0
 52
90.0
 71
     2
 49
0.5
 62
   256
  6
BYLAYER
 49
-0.5
 62
   256
  6
BYLAYER
  0
ACDBPLACEHOLDER
  5
5
102
{ACAD_REACTORS
330
6
102
}
330
6
100
AcDbPlaceHolder
280
     0
  0
ACAD_PROXY_OBJECT
  5
1D35
102
{ACAD_REACTORS
330
1D34
102
}
330
1D34
100
AcDbProxyObject
 90
      499
 91
      510
 93
       49
310
904313A3100598
 94
        0
1001
ACAD
1000
AcadProxyRoundTripData
1071
      507
1071
   655383
1070
     0
  0
ACAD_PROXY_OBJECT
  5
1D36
102
{ACAD_REACTORS
330
1D34
102
}
330
1D34
100
AcDbProxyObject
 90
      499
 91
      510
 93
      113
310
904313A3200400000000000000406B
 94
        0
1001
ACAD
1000
AcadProxyRoundTripData
1071
      507
1071
   655383
1070
     0
  0
ACAD_PROXY_OBJECT
  5
1D37
102
{ACAD_REACTORS
330
1D34
102
}
330
1D34
100
AcDbProxyObject
 90
      499
 91
      510
 93
      113
310
904313A3400400000000000010406B
 94
        0
1001
ACAD
1000
AcadProxyRoundTripData
1071
      507
1071
   655383
1070
     0
  0
ACAD_PROXY_OBJECT
  5
1D38
102
{ACAD_REACTORS
330
1D34
102
}
330
1D34
100
AcDbProxyObject
 90
      499
 91
      510
 93
      113
310
904313A3500400000000000014406B
 94
        0
1001
ACAD
1000
AcadProxyRoundTripData
1071
      507
1071
   655383
1070
     0
  0
ACAD_PROXY_OBJECT
  5
1D39
102
{ACAD_REACTORS
330
1D34
102
}
330
1D34
100
AcDbProxyObject
 90
      499
 91
      510
 93
      113
310
904313A3800400000000000020406B
 94
        0
1001
ACAD
1000
AcadProxyRoundTripData
1071
      507
1071
   655383
1070
     0
  0
ACAD_PROXY_OBJECT
  5
1D3A
102
{ACAD_REACTORS
330
1D34
102
}
330
1D34
100
AcDbProxyObject
 90
      499
 91
      510
 93
      121
310
905313A3130004000000000000244051
 94
        0
1001
ACAD
1000
AcadProxyRoundTripData
1071
      507
1071
   655383
1070
     0
  0
ACAD_PROXY_OBJECT
  5
1D3B
102
{ACAD_REACTORS
330
1D34
102
}
330
1D34
100
AcDbProxyObject
 90
      499
 91
      510
 93
      121
310
905313A3136004000000000000304051
 94
        0
1001
ACAD
1000
AcadProxyRoundTripData
1071
      507
1071
   655383
1070
     0
  0
ACAD_PROXY_OBJECT
  5
1D3C
102
{ACAD_REACTORS
330
1D34
102
}
330
1D34
100
AcDbProxyObject
 90
      499
 91
      510
 93
      121
310
905313A3230004000000000000344051
 94
        0
1001
ACAD
1000
AcadProxyRoundTripData
1071
      507
1071
   655383
1070
     0
  0
ACAD_PROXY_OBJECT
  5
1D3D
102
{ACAD_REACTORS
330
1D34
102
}
330
1D34
100
AcDbProxyObject
 90
      499
 91
      510
 93
      121
310
905313A33300040000000000003E4051
 94
        0
1001
ACAD
1000
AcadProxyRoundTripData
1071
      507
1071
   655383
1070
     0
  0
ACAD_PROXY_OBJECT
  5
1D3E
102
{ACAD_REACTORS
330
1D34
102
}
330
1D34
100
AcDbProxyObject
 90
      499
 91
      510
 93
      121
310
905313A3430004000000000000444051
 94
        0
1001
ACAD
1000
AcadProxyRoundTripData
1071
      507
1071
   655383
1070
     0
  0
ACAD_PROXY_OBJECT
  5
1D3F
102
{ACAD_REACTORS
330
1D34
102
}
330
1D34
100
AcDbProxyObject
 90
      499
 91
      510
 93
      121
310
905313A3530004000000000000494051
 94
        0
1001
ACAD
1000
AcadProxyRoundTripData
1071
      507
1071
   655383
1070
     0
  0
ACAD_PROXY_OBJECT
  5
1D40
102
{ACAD_REACTORS
330
1D34
102
}
330
1D34
100
AcDbProxyObject
 90
      499
 91
      510
 93
      129
310
906313A313030004000000000000594038
 94
        0
1001
ACAD
1000
AcadProxyRoundTripData
1071
      507
1071
   655383
1070
     0
  0
ACAD_PROXY_OBJECT
  5
1D41
102
{ACAD_REACTORS
330
1D34
102
}
330
1D34
100
AcDbProxyObject
 90
      499
 91
      510
 93
      113
310
904323A31000000000000000010159
 94
        0
1001
ACAD
1000
AcadProxyRoundTripData
1071
      507
1071
   655383
1070
     0
  0
ACAD_PROXY_OBJECT
  5
1D42
102
{ACAD_REACTORS
330
1D34
102
}
330
1D34
100
AcDbProxyObject
 90
      499
 91
      510
 93
      113
310
904343A31000000000000000410159
 94
        0
1001
ACAD
1000
AcadProxyRoundTripData
1071
      507
1071
   655383
1070
     0
  0
ACAD_PROXY_OBJECT
  5
1D43
102
{ACAD_REACTORS
330
1D34
102
}
330
1D34
100
AcDbProxyObject
 90
      499
 91
      510
 93
      113
310
904383A31000000000000000810159
 94
        0
1001
ACAD
1000
AcadProxyRoundTripData
1071
      507
1071
   655383
1070
     0
  0
ACAD_PROXY_OBJECT
  5
1D44
102
{ACAD_REACTORS
330
1D34
102
}
330
1D34
100
AcDbProxyObject
 90
      499
 91
      510
 93
      121
310
90531303A31000000000000000910140
 94
        0
1001
ACAD
1000
AcadProxyRoundTripData
1071
      507
1071
   655383
1070
     0
  0
ACAD_PROXY_OBJECT
  5
1D45
102
{ACAD_REACTORS
330
1D34
102
}
330
1D34
100
AcDbProxyObject
 90
      499
 91
      510
 93
      129
310
9063130303A31000000000000001650138
 94
        0
1001
ACAD
1000
AcadProxyRoundTripData
1071
      507
1071
   655383
1070
     0
  0
ACAD_PROXY_OBJECT
  5
1D46
102
{ACAD_REACTORS
330
1D34
102
}
330
1D34
100
AcDbProxyObject
 90
      499
 91
      510
 93
      265
310
90F312F31323822203D2031272D302200000000000000200FC00000000000028402B
 94
        0
1001
ACAD
1000
AcadProxyRoundTripData
1071
      507
1071
   655383
1070
     0
  0
ACAD_PROXY_OBJECT
  5
1D47
102
{ACAD_REACTORS
330
1D34
102
}
330
1D34
100
AcDbProxyObject
 90
      499
 91
      510
 93
      257
310
90E312F363422203D2031272D302200000000000000240FC000000000000284040
 94
        0
1001
ACAD
1000
AcadProxyRoundTripData
1071
      507
1071
   655383
1070
     0
  0
ACAD_PROXY_OBJECT
  5
1D48
102
{ACAD_REACTORS
330
1D34
102
}
330
1D34
100
AcDbProxyObject
 90
      499
 91
      510
 93
      257
310
90E312F333222203D2031272D302200000000000000280FC000000000000284040
 94
        0
1001
ACAD
1000
AcadProxyRoundTripData
1071
      507
1071
   655383
1070
     0
  0
ACAD_PROXY_OBJECT
  5
1D49
102
{ACAD_REACTORS
330
1D34
102
}
330
1D34
100
AcDbProxyObject
 90
      499
 91
      510
 93
      257
310
90E312F313622203D2031272D3022000000000000002C0FC000000000000284040
 94
        0
1001
ACAD
1000
AcadProxyRoundTripData
1071
      507
1071
   655383
1070
     0
  0
ACAD_PROXY_OBJECT
  5
1D4A
102
{ACAD_REACTORS
330
1D34
102
}
330
1D34
100
AcDbProxyObject
 90
      499
 91
      510
 93
      257
310
90E332F333222203D2031272D3022000000000000002E0FC000000000000284040
 94
        0
1001
ACAD
1000
AcadProxyRoundTripData
1071
      507
1071
   655383
1070
     0
  0
ACAD_PROXY_OBJECT
  5
1D4B
102
{ACAD_REACTORS
330
1D34
102
}
330
1D34
100
AcDbProxyObject
 90
      499
 91
      510
 93
      249
310
90D312F3822203D2031272D302200000000000000300FC000000000000284040
 94
        0
1001
ACAD
1000
AcadProxyRoundTripData
1071
      507
1071
   655383
1070
     0
  0
ACAD_PROXY_OBJECT
  5
1D4C
102
{ACAD_REACTORS
330
1D34
102
}
330
1D34
100
AcDbProxyObject
 90
      499
 91
      510
 93
      257
310
90E332F313622203D2031272D302200000000000000320FC000000000000284040
 94
        0
1001
ACAD
1000
AcadProxyRoundTripData
1071
      507
1071
   655383
1070
     0
  0
ACAD_PROXY_OBJECT
  5
1D4D
102
{ACAD_REACTORS
330
1D34
102
}
330
1D34
100
AcDbProxyObject
 90
      499
 91
      510
 93
      249
310
90D312F3422203D2031272D302200000000000000340FC000000000000284040
 94
        0
1001
ACAD
1000
AcadProxyRoundTripData
1071
      507
1071
   655383
1070
     0
  0
ACAD_PROXY_OBJECT
  5
1D4E
102
{ACAD_REACTORS
330
1D34
102
}
330
1D34
100
AcDbProxyObject
 90
      499
 91
      510
 93
      249
310
90D332F3822203D2031272D302200000000000000360FC000000000000284040
 94
        0
1001
ACAD
1000
AcadProxyRoundTripData
1071
      507
1071
   655383
1070
     0
  0
ACAD_PROXY_OBJECT
  5
1D4F
102
{ACAD_REACTORS
330
1D34
102
}
330
1D34
100
AcDbProxyObject
 90
      499
 91
      510
 93
      249
310
90D312F3222203D2031272D302200000000000000380FC000000000000284040
 94
        0
1001
ACAD
1000
AcadProxyRoundTripData
1071
      507
1071
   655383
1070
     0
  0
ACAD_PROXY_OBJECT
  5
1D50
102
{ACAD_REACTORS
330
1D34
102
}
330
1D34
100
AcDbProxyObject
 90
      499
 91
      510
 93
      249
310
90D332F3422203D2031272D3022000000000000003A0FC000000000000284040
 94
        0
1001
ACAD
1000
AcadProxyRoundTripData
1071
      507
1071
   655383
1070
     0
  0
ACAD_PROXY_OBJECT
  5
1D51
102
{ACAD_REACTORS
330
1D34
102
}
330
1D34
100
AcDbProxyObject
 90
      499
 91
      510
 93
      169
310
90B3122203D2031272D3022004000000000000284020
 94
        0
1001
ACAD
1000
AcadProxyRoundTripData
1071
      507
1071
   655383
1070
     0
  0
ACAD_PROXY_OBJECT
  5
1D52
102
{ACAD_REACTORS
330
1D34
102
}
330
1D34
100
AcDbProxyObject
 90
      499
 91
      510
 93
      265
310
90F312D312F3222203D2031272D3022000000000000003E0FC00000000000028402B
 94
        0
1001
ACAD
1000
AcadProxyRoundTripData
1071
      507
1071
   655383
1070
     0
  0
ACAD_PROXY_OBJECT
  5
1D53
102
{ACAD_REACTORS
330
1D34
102
}
330
1D34
100
AcDbProxyObject
 90
      499
 91
      510
 93
      233
310
90B3322203D2031272D30220000000000000002100000000000000284000
 94
        0
1001
ACAD
1000
AcadProxyRoundTripData
1071
      507
1071
   655383
1070
     0
  0
ACAD_PROXY_OBJECT
  5
1D54
102
{ACAD_REACTORS
330
1D34
102
}
330
1D34
100
AcDbProxyObject
 90
      499
 91
      510
 93
      233
310
90B3622203D2031272D30220000000000000006100000000000000284000
 94
        0
1001
ACAD
1000
AcadProxyRoundTripData
1071
      507
1071
   655383
1070
     0
  0
ACAD_PROXY_OBJECT
  5
1D55
102
{ACAD_REACTORS
330
1D34
102
}
330
1D34
100
AcDbProxyObject
 90
      499
 91
      510
 93
      257
310
90E31272D3022203D2031272D3022000000000000000A100000000000000284040
 94
        0
1001
ACAD
1000
AcadProxyRoundTripData
1071
      507
1071
   655383
1070
     0
  0
ACAD_PROXY_OBJECT
  5
1D33
102
{ACAD_XDICTIONARY
360
1D78
102
}
102
{ACAD_REACTORS
330
1D32
102
}
330
1D32
100
AcDbProxyObject
 90
      499
 91
      510
 93
     1849
310
4254DD185B99185C990028B81E85EB51B8AE3F2E07A17AD46E2B8FC02B5E8DC0F42B1CFD028000000C1008070000C3001FDFF8000000C1003FBFF000000182007F7FE00000030400FEFFC00000060801FDFF8000000C1003FBFF00000018200000000000000681FA0B0000001820100E000186003FBFF000000182007F7FE0
310
0000030400FEFFC00000060801FDFF8000000C1003FBFF000000182007F7FE000000304000AD7A3703D0AC73F4160000003040201C00030C007F7FE00000030400FEFFC00000060801FDFF8000000C1003FBFF000000182007F7FE00000030400FEFFC000000608000
340
16
340
16
340
16
 94
        0
1001
ACAD
1000
AcadProxyRoundTripData
1071
      506
1071
   655383
1070
     0
  0
ACAD_PROXY_OBJECT
  5
1D26
102
{ACAD_REACTORS
330
1D20
102
}
330
1D20
100
AcDbProxyObject
 90
      499
 91
      510
 93
      444
310
430C9915DA5C99599C985B59401049028333333333333E3BF0000000000000FB0107901411070040501600405405064090741402480A0340
 94
        0
1001
ACAD
1000
AcDbSavedByObjectVersion
1070
     0
1000
AcadProxyRoundTripData
1071
      505
1071
   655383
1070
     0
  0
ACAD_PROXY_OBJECT
  5
1D28
102
{ACAD_REACTORS
330
1D20
102
}
330
1D20
100
AcDbProxyObject
 90
      499
 91
      510
 93
      508
310
428CD108121A5919195B8010640502408333333333333E3BF0000000000000FB01079024090700405020000000000001110200405405064090740C02480A0340
 94
        0
1001
ACAD
1000
AcDbSavedByObjectVersion
1070
     0
1000
AcadProxyRoundTripData
1071
      505
1071
   655383
1070
     0
  0
ACAD_PROXY_OBJECT
  5
1D27
102
{ACAD_REACTORS
330
1D20
102
}
330
1D20
100
AcDbProxyObject
 90
      499
 91
      510
 93
      444
310
430CD915DA5C99599C985B59401059028333333333333E3BF0000000000000FB0107901411070040501600405405064090741402480A0340
 94
        0
1001
ACAD
1000
AcDbSavedByObjectVersion
1070
     0
1000
AcadProxyRoundTripData
1071
      505
1071
   655383
1070
     0
  0
ACAD_PROXY_OBJECT
  5
1D25
102
{ACAD_REACTORS
330
1D20
102
}
330
1D20
100
AcDbProxyObject
 90
      499
 91
      510
 93
      396
310
4190985CDA58C0107406404333333333333E3BF0000000000000FB0107A41107004050150841D405064090741402480A0356
 94
        0
1001
ACAD
1000
AcDbSavedByObjectVersion
1070
     0
1000
AcadProxyRoundTripData
1071
      505
1071
   655383
1070
     0
  0
ACAD_PROXY_OBJECT
  5
1D2C
102
{ACAD_REACTORS
330
1D20
102
}
330
1D20
100
AcDbProxyObject
 90
      499
 91
      510
 93
      436
310
42509C9A59DA1D195B8010C409028333333333333E3BF0000000000000FB010790141107004050150841D405064090741402480A029956
 94
        0
1001
ACAD
1000
AcDbSavedByObjectVersion
1070
     0
1000
AcadProxyRoundTripData
1071
      505
1071
   655383
1070
     0
  0
ACAD_PROXY_OBJECT
  5
1D30
102
{ACAD_REACTORS
330
1D20
102
}
330
1D20
100
AcDbProxyObject
 90
      499
 91
      510
 93
      460
310
4310DBDB1BDC90DA185B99D9401104090240C333333333333E3BF0000000000000FB0108901411070040501508421405064090741402480A0354
 94
        0
1001
ACAD
1000
AcDbSavedByObjectVersion
1070
     0
1000
AcadProxyRoundTripData
1071
      505
1071
   655383
1070
     0
  0
ACAD_PROXY_OBJECT
  5
1D29
102
{ACAD_REACTORS
330
1D20
102
}
330
1D20
100
AcDbProxyObject
 90
      499
 91
      510
 93
      508
310
42D0DBDB98D95C1D1D585B0010940D028333333333333E3BF0000000000000FB0107902409070040501000000000000111010841D405064090740C02480A0340
 94
        0
1001
ACAD
1000
AcDbSavedByObjectVersion
1070
     0
1000
AcadProxyRoundTripData
1071
      505
1071
   655383
1070
     0
  0
ACAD_PROXY_OBJECT
  5
1D2B
102
{ACAD_REACTORS
330
1D20
102
}
330
1D20
100
AcDbProxyObject
 90
      499
 91
      510
 93
      420
310
41111A5B4010B409028333333333333E3BF0000000000000FB010790141107004050150841D405064090741402480A02677FFFFFDB
 94
        0
1001
ACAD
1000
AcDbSavedByObjectVersion
1070
     0
1000
AcadProxyRoundTripData
1071
      505
1071
   655383
1070
     0
  0
ACAD_PROXY_OBJECT
  5
1D2F
102
{ACAD_REACTORS
330
1D20
102
}
330
1D20
100
AcDbProxyObject
 90
      499
 91
      510
 93
      452
310
43119858D95C185D1D195C9B8010F409028333333333333E3BF0000000000000FB010790141107004050150841D405064090741402480A0350
 94
        0
1001
ACAD
1000
AcDbSavedByObjectVersion
1070
     0
1000
AcadProxyRoundTripData
1071
      505
1071
   655383
1070
     0
  0
ACAD_PROXY_OBJECT
  5
1D21
102
{ACAD_REACTORS
330
1D20
102
}
330
1D20
100
AcDbProxyObject
 90
      499
 91
      510
 93
      396
310
41519B185D00240901404333333333333E3BF0000000000000F9010740A41107004050150841D405064090741402480A1B55
 94
        0
1001
ACAD
1000
AcDbSavedByObjectVersion
1070
     0
1000
AcadProxyRoundTripData
1071
      505
1071
   655383
1070
     0
  0
ACAD_PROXY_OBJECT
  5
1D22
102
{ACAD_REACTORS
330
1D20
102
}
330
1D20
100
AcDbProxyObject
 90
      499
 91
      510
 93
      484
310
43919B185D15DA5D1A115919D95CC010140901404333333333333E3BF0000000000000F9010740901411070040501600405405064090741402480A1B50
 94
        0
1001
ACAD
1000
AcDbSavedByObjectVersion
1070
     0
1000
AcadProxyRoundTripData
1071
      505
1071
   655383
1070
     0
  0
ACAD_PROXY_OBJECT
  5
1D23
102
{ACAD_REACTORS
330
1D20
102
}
330
1D20
100
AcDbProxyObject
 90
      499
 91
      510
 93
      420
310
4211DBDD5C985D590010240902404333333333333E3BF0000000000000F9010740A411070040501641D405064090741402480A1B50
 94
        0
1001
ACAD
1000
AcDbSavedByObjectVersion
1070
     0
1000
AcadProxyRoundTripData
1071
      505
1071
   655383
1070
     0
  0
ACAD_PROXY_OBJECT
  5
1D24
102
{ACAD_REACTORS
330
1D20
102
}
330
1D20
100
AcDbProxyObject
 90
      499
 91
      510
 93
      508
310
4451DBDD5C985D5915DA5D1A115919D95CC010340902404333333333333E3BF0000000000000F9010740901411070040501600405405064090741402480A1B50
 94
        0
1001
ACAD
1000
AcDbSavedByObjectVersion
1070
     0
1000
AcadProxyRoundTripData
1071
      505
1071
   655383
1070
     0
  0
ACAD_PROXY_OBJECT
  5
1D2E
102
{ACAD_REACTORS
330
1D20
102
}
330
1D20
100
AcDbProxyObject
 90
      499
 91
      510
 93
      452
310
43131A5B995C185D1D195C9B8010E409028333333333333E3BF0000000000000FB010790141107004050750841D405064090741402483A0350
 94
        0
1001
ACAD
1000
AcDbSavedByObjectVersion
1070
     0
1000
AcadProxyRoundTripData
1071
      505
1071
   655383
1070
     0
  0
ACAD_PROXY_OBJECT
  5
1D2A
102
{ACAD_REACTORS
330
1D20
102
}
330
1D20
100
AcDbProxyObject
 90
      499
 91
      510
 93
      428
310
429499585B1A5CDD1A58C0108409028333333333333E3BF0000000000000FB01079019070040501508421405064090741402480A1B45
 94
        0
1001
ACAD
1000
AcDbSavedByObjectVersion
1070
     0
1000
AcadProxyRoundTripData
1071
      505
1071
   655383
1070
     0
  0
ACAD_PROXY_OBJECT
  5
1D2D
102
{ACAD_REACTORS
330
1D20
102
}
330
1D20
100
AcDbProxyObject
 90
      499
 91
      510
 93
      420
310
42151A1A58DAD95B8010D409028333333333333E3BF0000000000000FB010790141107004050150C41D405064090741402480A0352
 94
        0
1001
ACAD
1000
AcDbSavedByObjectVersion
1070
     0
1000
AcadProxyRoundTripData
1071
      505
1071
   655383
1070
     0
  0
XRECORD
  5
1EDA
102
{ACAD_REACTORS
330
1ED0
102
}
330
1ED0
100
AcDbXrecord
 90
        0
  0
XRECORD
  5
1EDE
102
{ACAD_REACTORS
330
1ED0
102
}
330
1ED0
100
AcDbXrecord
1000
DSTYLE
1002
{
1070
   179
 70
     2
1070
   277
 70
     6
1002
}
  0
XRECORD
  5
1EDB
102
{ACAD_REACTORS
330
1ED0
102
}
330
1ED0
100
AcDbXrecord
  1
{6385560B-F4B1-4644-A7C2-A3E32AC3D232}
  0
XRECORD
  5
1ED3
102
{ACAD_REACTORS
330
1ED0
102
}
330
1ED0
100
AcDbXrecord
  1

  0
XRECORD
  5
1ED9
102
{ACAD_REACTORS
330
1ED0
102
}
330
1ED0
100
AcDbXrecord
 90
        0
  0
XRECORD
  5
1ED5
102
{ACAD_REACTORS
330
1ED0
102
}
330
1ED0
100
AcDbXrecord
340
61
  0
XRECORD
  5
1ED8
102
{ACAD_REACTORS
330
1ED0
102
}
330
1ED0
100
AcDbXrecord
 90
    10781
  0
XRECORD
  5
1ED6
102
{ACAD_REACTORS
330
1ED0
102
}
330
1ED0
100
AcDbXrecord
340
77
  0
XRECORD
  5
1ED7
102
{ACAD_REACTORS
330
1ED0
102
}
330
1ED0
100
AcDbXrecord
340
6
  0
XRECORD
  5
1EDD
102
{ACAD_REACTORS
330
1ED0
102
}
330
1ED0
100
AcDbXrecord
 40
0.0
  0
XRECORD
  5
1EE1
102
{ACAD_REACTORS
330
1ED0
102
}
330
1ED0
100
AcDbXrecord
340
0
  0
XRECORD
  5
1EE7
102
{ACAD_REACTORS
330
1ED0
102
}
330
1ED0
100
AcDbXrecord
 10
0.0
 20
0.0
 30
0.0
  0
XRECORD
  5
1EE3
102
{ACAD_REACTORS
330
1ED0
102
}
330
1ED0
100
AcDbXrecord
 10
0.0
 20
0.0
 30
0.0
  0
XRECORD
  5
1EE6
102
{ACAD_REACTORS
330
1ED0
102
}
330
1ED0
100
AcDbXrecord
 10
0.0
 20
0.0
 30
0.0
  0
XRECORD
  5
1EE4
102
{ACAD_REACTORS
330
1ED0
102
}
330
1ED0
100
AcDbXrecord
 10
0.0
 20
0.0
 30
0.0
  0
XRECORD
  5
1EE5
102
{ACAD_REACTORS
330
1ED0
102
}
330
1ED0
100
AcDbXrecord
 10
0.0
 20
0.0
 30
0.0
  0
XRECORD
  5
1EE2
102
{ACAD_REACTORS
330
1ED0
102
}
330
1ED0
100
AcDbXrecord
 10
0.0
 20
0.0
 30
0.0
  0
XRECORD
  5
1EDF
102
{ACAD_REACTORS
330
1ED0
102
}
330
1ED0
100
AcDbXrecord
340
0
  0
XRECORD
  5
1EE0
102
{ACAD_REACTORS
330
1ED0
102
}
330
1ED0
100
AcDbXrecord
 70
     0
  0
XRECORD
  5
1ED4
102
{ACAD_REACTORS
330
1ED0
102
}
330
1ED0
100
AcDbXrecord
  1
Sekkei.ctb
  0
XRECORD
  5
1ED1
102
{ACAD_REACTORS
330
1ED0
102
}
330
1ED0
100
AcDbXrecord
 90
        1
  0
XRECORD
  5
1ED2
102
{ACAD_REACTORS
330
1ED0
102
}
330
1ED0
100
AcDbXrecord
 90
       70
  0
XRECORD
  5
1EEA
102
{ACAD_REACTORS
330
1ED0
102
}
330
1ED0
100
AcDbXrecord
340
0
  0
XRECORD
  5
1EF0
102
{ACAD_REACTORS
330
1ED0
102
}
330
1ED0
100
AcDbXrecord
 10
0.0
 20
0.0
 30
0.0
  0
XRECORD
  5
1EEC
102
{ACAD_REACTORS
330
1ED0
102
}
330
1ED0
100
AcDbXrecord
 10
0.0
 20
0.0
 30
0.0
  0
XRECORD
  5
1EEF
102
{ACAD_REACTORS
330
1ED0
102
}
330
1ED0
100
AcDbXrecord
 10
0.0
 20
0.0
 30
0.0
  0
XRECORD
  5
1EED
102
{ACAD_REACTORS
330
1ED0
102
}
330
1ED0
100
AcDbXrecord
 10
0.0
 20
0.0
 30
0.0
  0
XRECORD
  5
1EEE
102
{ACAD_REACTORS
330
1ED0
102
}
330
1ED0
100
AcDbXrecord
 10
0.0
 20
0.0
 30
0.0
  0
XRECORD
  5
1EEB
102
{ACAD_REACTORS
330
1ED0
102
}
330
1ED0
100
AcDbXrecord
 10
0.0
 20
0.0
 30
0.0
  0
XRECORD
  5
1EE8
102
{ACAD_REACTORS
330
1ED0
102
}
330
1ED0
100
AcDbXrecord
340
0
  0
XRECORD
  5
1EE9
102
{ACAD_REACTORS
330
1ED0
102
}
330
1ED0
100
AcDbXrecord
 70
     0
  0
XRECORD
  5
1EDC
102
{ACAD_REACTORS
330
1ED0
102
}
330
1ED0
100
AcDbXrecord
  1
{D6F93960-56E8-48AB-8F37-8208B2A051D0}
  0
DICTIONARYVAR
  5
1D9B
102
{ACAD_REACTORS
330
102
102
}
330
102
100
DictionaryVariables
280
     0
  1
1:1
  0
DICTIONARYVAR
  5
1D9A
102
{ACAD_REACTORS
330
102
102
}
330
102
100
DictionaryVariables
280
     0
  1
STANDARD
  0
DICTIONARYVAR
  5
1D99
102
{ACAD_REACTORS
330
102
102
}
330
102
100
DictionaryVariables
280
     0
  1
STANDARD
  0
DICTIONARYVAR
  5
103
102
{ACAD_REACTORS
330
102
102
}
330
102
100
DictionaryVariables
280
     0
  1
1
  0
DICTIONARYVAR
  5
1D9C
102
{ACAD_REACTORS
330
102
102
}
330
102
100
DictionaryVariables
280
     0
  1
0
  0
DICTIONARYVAR
  5
549
102
{ACAD_REACTORS
330
102
102
}
330
102
100
DictionaryVariables
280
     0
  1
96
  0
DICTIONARY
  5
1D11
330
1D10
100
AcDbDictionary
280
     1
  3
ACAD_XREC_ROUNDTRIP
360
1EB5
  3
BUMPTILE
360
1D13
  3
DIFFUSETILE
360
1D12
  3
OPACITYTILE
360
1D16
  3
REFLECTIONTILE
360
1D15
  3
REFRACTIONTILE
360
1D17
  3
SPECULARTILE
360
1D14
  0
DICTIONARY
  5
1D09
330
1D08
100
AcDbDictionary
280
     1
  3
ACAD_XREC_ROUNDTRIP
360
1EB4
  3
BUMPTILE
360
1D0B
  3
DIFFUSETILE
360
1D0A
  3
OPACITYTILE
360
1D0E
  3
REFLECTIONTILE
360
1D0D
  3
REFRACTIONTILE
360
1D0F
  3
SPECULARTILE
360
1D0C
  0
DICTIONARY
  5
1D19
330
1D18
100
AcDbDictionary
280
     1
  3
ACAD_XREC_ROUNDTRIP
360
1EB6
  3
BUMPTILE
360
1D1B
  3
DIFFUSETILE
360
1D1A
  3
OPACITYTILE
360
1D1E
  3
REFLECTIONTILE
360
1D1D
  3
REFRACTIONTILE
360
1D1F
  3
SPECULARTILE
360
1D1C
  0
DICTIONARY
  5
1D78
330
1D33
100
AcDbDictionary
280
     1
  3
ACAD_ROUNDTRIP_2008_TABLES
360
1E9B
  3
ACAD_XREC_ROUNDTRIP
360
1EB7
  0
XRECORD
  5
1EB5
102
{ACAD_REACTORS
330
1D11
102
}
330
1D11
100
AcDbXrecord
102
MATERIAL
148
0.0
149
0.0
149
0.0
 93
        0
 94
      127
282
     0
 72
     0
 77
     0
171
     0
175
     0
179
     0
273
     0
  0
XRECORD
  5
1D13
102
{ACAD_REACTORS
330
1D11
102
}
330
1D11
100
AcDbXrecord
270
     1
271
     1
  0
XRECORD
  5
1D12
102
{ACAD_REACTORS
330
1D11
102
}
330
1D11
100
AcDbXrecord
270
     1
271
     1
  0
XRECORD
  5
1D16
102
{ACAD_REACTORS
330
1D11
102
}
330
1D11
100
AcDbXrecord
270
     1
271
     1
  0
XRECORD
  5
1D15
102
{ACAD_REACTORS
330
1D11
102
}
330
1D11
100
AcDbXrecord
270
     1
271
     1
  0
XRECORD
  5
1D17
102
{ACAD_REACTORS
330
1D11
102
}
330
1D11
100
AcDbXrecord
270
     1
271
     1
  0
XRECORD
  5
1D14
102
{ACAD_REACTORS
330
1D11
102
}
330
1D11
100
AcDbXrecord
270
     1
271
     1
  0
XRECORD
  5
1EB4
102
{ACAD_REACTORS
330
1D09
102
}
330
1D09
100
AcDbXrecord
102
MATERIAL
148
0.0
149
0.0
149
0.0
 93
        0
 94
      127
282
     0
 72
     0
 77
     0
171
     0
175
     0
179
     0
273
     0
  0
XRECORD
  5
1D0B
102
{ACAD_REACTORS
330
1D09
102
}
330
1D09
100
AcDbXrecord
270
     1
271
     1
  0
XRECORD
  5
1D0A
102
{ACAD_REACTORS
330
1D09
102
}
330
1D09
100
AcDbXrecord
270
     1
271
     1
  0
XRECORD
  5
1D0E
102
{ACAD_REACTORS
330
1D09
102
}
330
1D09
100
AcDbXrecord
270
     1
271
     1
  0
XRECORD
  5
1D0D
102
{ACAD_REACTORS
330
1D09
102
}
330
1D09
100
AcDbXrecord
270
     1
271
     1
  0
XRECORD
  5
1D0F
102
{ACAD_REACTORS
330
1D09
102
}
330
1D09
100
AcDbXrecord
270
     1
271
     1
  0
XRECORD
  5
1D0C
102
{ACAD_REACTORS
330
1D09
102
}
330
1D09
100
AcDbXrecord
270
     1
271
     1
  0
XRECORD
  5
1EB6
102
{ACAD_REACTORS
330
1D19
102
}
330
1D19
100
AcDbXrecord
102
MATERIAL
148
0.0
149
0.0
149
0.0
 93
        0
 94
      127
282
     0
 72
     0
 77
     0
171
     0
175
     0
179
     0
273
     0
  0
XRECORD
  5
1D1B
102
{ACAD_REACTORS
330
1D19
102
}
330
1D19
100
AcDbXrecord
270
     1
271
     1
  0
XRECORD
  5
1D1A
102
{ACAD_REACTORS
330
1D19
102
}
330
1D19
100
AcDbXrecord
270
     1
271
     1
  0
XRECORD
  5
1D1E
102
{ACAD_REACTORS
330
1D19
102
}
330
1D19
100
AcDbXrecord
270
     1
271
     1
  0
XRECORD
  5
1D1D
102
{ACAD_REACTORS
330
1D19
102
}
330
1D19
100
AcDbXrecord
270
     1
271
     1
  0
XRECORD
  5
1D1F
102
{ACAD_REACTORS
330
1D19
102
}
330
1D19
100
AcDbXrecord
270
     1
271
     1
  0
XRECORD
  5
1D1C
102
{ACAD_REACTORS
330
1D19
102
}
330
1D19
100
AcDbXrecord
270
     1
271
     1
  0
ACAD_PROXY_OBJECT
  5
1E9B
102
{ACAD_REACTORS
330
1D78
102
}
330
1D78
100
AcDbProxyObject
 90
      499
 91
      510
 93
     5304
310
40D054060020000020000003200101A000080002A5058000000C100000000000000340FD012E07A17AD46E2B8FCB81E85EB51B8AE3F2E07A17AD46E2B8FCB81E85EB51B8AE3F02B5E8DC0F42B1CFC0AD7A3703D0AC73F419019018000000C1003FBFFFFFE02B5E8DC0F42A9CFD029018000000C1003FBFFFFFE02B5E8DC0F4
310
2A9CFD049018000000C1003FBFFFFFE02B5E8DC0F42A9CFD089018000000C1003FBFFFFFE02B5E8DC0F42A9CFD109018000000C1003FBFFFFFE02B5E8DC0F42A9CFD209018000000C1003FBFFFFFE02B5E8DC0F42A9CFD01405075F5449544C450041501A8000000C800406800020000A9416000000304000AD7A3703D0AC7
310
3F404B81E85EB51B8AE3F2E07A17AD46E2B8FCB81E85EB51B8AE3F2E07A17AD46E2B8FC0AD7A3703D0AC73F02B5E8DC0F42B1CFD0640640600000030400FEFFFFFF80AD7A3703D0AA73F40A40600000030400FEFFFFFF80AD7A3703D0AA73F41240600000030400FEFFFFFF80AD7A3703D0AA73F42240600000030400FEFFF
310
FFF80AD7A3703D0AA73F44240600000030400FEFFFFFF80AD7A3703D0AA73F48240600000030400FEFFFFFF80AD7A3703D0AA73F409014217D2115051115480105406A0000003200101A000080002A5028000000C10002B5E8DC0F42B1CFD012E07A17AD46E2B8FCB81E85EB51B8AE3F2E07A17AD46E2B8FCB81E85EB51B8A
310
E3F02B5E8DC0F42B1CFC0AD7A3703D0AC73F419019018000000C1003FBFFFFFE02B5E8DC0F42A9CFD029018000000C1003FBFFFFFE02B5E8DC0F42A9CFD049018000000C1003FBFFFFFE02B5E8DC0F42A9CFD089018000000C1003FBFFFFFE02B5E8DC0F42A9CFD109018000000C1003FBFFFFFE02B5E8DC0F42A9CFD20901
310
8000000C1003FBFFFFFE02B5E8DC0F42A9CFD03409065F4441544100AA
340
16
340
0
340
0
340
0
340
0
340
0
340
0
340
16
340
0
340
0
340
0
340
0
340
0
340
0
340
16
340
0
340
0
340
0
340
0
340
0
340
0
 94
        0
1001
ACAD
1000
AcadProxyRoundTripData
1071
      509
1071
   655383
1070
     0
  0
XRECORD
  5
1EB7
102
{ACAD_REACTORS
330
1D78
102
}
330
1D78
100
AcDbXrecord
102
ACAD_ROUNDTRIP_PRE2007_TABLESTYLE
 90
      512
 91
        0
  1

 92
      512
 93
        0
  2

 94
      512
 95
        0
  3

  0
ENDSEC
  0
EOF
