  0
SECTION
  2
HEADER
  9
$ACADVER
  1
AC1014
  9
$ACADMAINTVER
 70
     9
  9
$DWGCODEPAGE
  3
ANSI_932
  9
$INSBASE
 10
0.0
 20
0.0
 30
0.0
  9
$EXTMIN
 10
61.56676418249753
 20
82.71392222964953
 30
0.0
  9
$EXTMAX
 10
780.6065377191994
 20
548.1359443481101
 30
0.0
  9
$LIMMIN
 10
0.0
 20
0.0
  9
$LIMMAX
 10
297.0
 20
210.0
  9
$ORTHOMODE
 70
     1
  9
$REGENMODE
 70
     1
  9
$FILLMODE
 70
     1
  9
$QTEXTMODE
 70
     0
  9
$MIRRTEXT
 70
     0
  9
$DRAGMODE
 70
     2
  9
$LTSCALE
 40
2.0
  9
$OSMODE
 70
    37
  9
$ATTMODE
 70
     1
  9
$TEXTSIZE
 40
2.0
  9
$TRACEWID
 40
1.0
  9
$TEXTSTYLE
  7
STANDARD
  9
$CLAYER
  8
0
  9
$CELTYPE
  6
BYLAYER
  9
$CECOLOR
 62
   256
  9
$CELTSCALE
 40
1.0
  9
$DELOBJ
 70
     1
  9
$DISPSILH
 70
     0
  9
$DIMSCALE
 40
2.0
  9
$DIMASZ
 40
1.8
  9
$DIMEXO
 40
0.625
  9
$DIMDLI
 40
3.75
  9
$DIMRND
 40
0.0
  9
$DIMDLE
 40
0.0
  9
$DIMEXE
 40
0.8
  9
$DIMTP
 40
0.0
  9
$DIMTM
 40
0.0
  9
$DIMTXT
 40
1.8
  9
$DIMCEN
 40
2.5
  9
$DIMTSZ
 40
0.0
  9
$DIMTOL
 70
     0
  9
$DIMLIM
 70
     0
  9
$DIMTIH
 70
     0
  9
$DIMTOH
 70
     0
  9
$DIMSE1
 70
     0
  9
$DIMSE2
 70
     0
  9
$DIMTAD
 70
     1
  9
$DIMZIN
 70
     8
  9
$DIMBLK
  1

  9
$DIMASO
 70
     1
  9
$DIMSHO
 70
     1
  9
$DIMPOST
  1

  9
$DIMAPOST
  1

  9
$DIMALT
 70
     0
  9
$DIMALTD
 70
     4
  9
$DIMALTF
 40
0.0394
  9
$DIMLFAC
 40
1.0
  9
$DIMTOFL
 70
     1
  9
$DIMTVP
 40
0.0
  9
$DIMTIX
 70
     0
  9
$DIMSOXD
 70
     0
  9
$DIMSAH
 70
     0
  9
$DIMBLK1
  1

  9
$DIMBLK2
  1

  9
$DIMSTYLE
  2
STANDARD
  9
$DIMCLRD
 70
     0
  9
$DIMCLRE
 70
     0
  9
$DIMCLRT
 70
     0
  9
$DIMTFAC
 40
1.0
  9
$DIMGAP
 40
0.75
  9
$DIMJUST
 70
     0
  9
$DIMSD1
 70
     0
  9
$DIMSD2
 70
     0
  9
$DIMTOLJ
 70
     1
  9
$DIMTZIN
 70
     0
  9
$DIMALTZ
 70
     0
  9
$DIMALTTZ
 70
     0
  9
$DIMFIT
 70
     3
  9
$DIMUPT
 70
     0
  9
$DIMUNIT
 70
     8
  9
$DIMDEC
 70
     2
  9
$DIMTDEC
 70
     2
  9
$DIMALTU
 70
     8
  9
$DIMALTTD
 70
     4
  9
$DIMTXSTY
  7
STANDARD
  9
$DIMAUNIT
 70
     0
  9
$LUNITS
 70
     2
  9
$LUPREC
 70
     3
  9
$SKETCHINC
 40
1.0
  9
$FILLETRAD
 40
10.0
  9
$AUNITS
 70
     0
  9
$AUPREC
 70
     2
  9
$MENU
  1
.
  9
$ELEVATION
 40
0.0
  9
$PELEVATION
 40
0.0
  9
$THICKNESS
 40
0.0
  9
$LIMCHECK
 70
     0
  9
$BLIPMODE
 70
     0
  9
$CHAMFERA
 40
0.0
  9
$CHAMFERB
 40
0.0
  9
$CHAMFERC
 40
20.0
  9
$CHAMFERD
 40
0.0
  9
$SKPOLY
 70
     0
  9
$TDCREATE
 40
2454410.560790104
  9
$TDUPDATE
 40
2454425.684289271
  9
$TDINDWG
 40
0.0285172454
  9
$TDUSRTIMER
 40
0.0285172454
  9
$USRTIMER
 70
     1
  9
$ANGBASE
 50
0.0
  9
$ANGDIR
 70
     0
  9
$PDMODE
 70
     0
  9
$PDSIZE
 40
-10.0
  9
$PLINEWID
 40
0.0
  9
$COORDS
 70
     0
  9
$SPLFRAME
 70
     0
  9
$SPLINETYPE
 70
     6
  9
$SPLINESEGS
 70
     8
  9
$ATTDIA
 70
     0
  9
$ATTREQ
 70
     1
  9
$HANDLING
 70
-16383
  9
$HANDSEED
  5
1BF8
  9
$SURFTAB1
 70
     6
  9
$SURFTAB2
 70
     6
  9
$SURFTYPE
 70
     6
  9
$SURFU
 70
     6
  9
$SURFV
 70
     6
  9
$UCSNAME
  2

  9
$UCSORG
 10
0.0
 20
0.0
 30
0.0
  9
$UCSXDIR
 10
1.0
 20
0.0
 30
0.0
  9
$UCSYDIR
 10
0.0
 20
1.0
 30
0.0
  9
$PUCSNAME
  2

  9
$PUCSORG
 10
0.0
 20
0.0
 30
0.0
  9
$PUCSXDIR
 10
1.0
 20
0.0
 30
0.0
  9
$PUCSYDIR
 10
0.0
 20
1.0
 30
0.0
  9
$USERI1
 70
     0
  9
$USERI2
 70
     0
  9
$USERI3
 70
     0
  9
$USERI4
 70
     0
  9
$USERI5
 70
     0
  9
$USERR1
 40
0.0
  9
$USERR2
 40
0.0
  9
$USERR3
 40
0.0
  9
$USERR4
 40
0.0
  9
$USERR5
 40
0.0
  9
$WORLDVIEW
 70
     1
  9
$SHADEDGE
 70
     3
  9
$SHADEDIF
 70
    70
  9
$TILEMODE
 70
     1
  9
$MAXACTVP
 70
    48
  9
$PINSBASE
 10
0.0
 20
0.0
 30
0.0
  9
$PLIMCHECK
 70
     0
  9
$PEXTMIN
 10
0.0
 20
0.0
 30
0.0
  9
$PEXTMAX
 10
0.0
 20
0.0
 30
0.0
  9
$PLIMMIN
 10
0.0
 20
0.0
  9
$PLIMMAX
 10
12.0
 20
9.0
  9
$UNITMODE
 70
     0
  9
$VISRETAIN
 70
     1
  9
$PLINEGEN
 70
     0
  9
$PSLTSCALE
 70
     1
  9
$TREEDEPTH
 70
  3020
  9
$PICKSTYLE
 70
     1
  9
$CMLSTYLE
  2
STANDARD
  9
$CMLJUST
 70
     0
  9
$CMLSCALE
 40
1.0
  9
$PROXYGRAPHICS
 70
     1
  9
$MEASUREMENT
 70
     0
  0
ENDSEC
  0
SECTION
  2
CLASSES
  0
CLASS
  1
DICTIONARYVAR
  2
AcDbDictionaryVar
  3
AutoCAD 2000
 90
        0
280
     0
281
     0
  0
CLASS
  1
ACDBDICTIONARYWDFLT
  2
AcDbDictionaryWithDefault
  3
AutoCAD 2000
 90
        0
280
     0
281
     0
  0
CLASS
  1
ACDBPLACEHOLDER
  2
AcDbPlaceHolder
  3
AutoCAD 2000
 90
        0
280
     0
281
     0
  0
CLASS
  1
LAYOUT
  2
AcDbLayout
  3
AutoCAD 2000
 90
        0
280
     0
281
     0
  0
CLASS
  1
MATERIAL
  2
AcDbMaterial
  3
ObjectDBX Classes
 90
     1153
280
     0
281
     0
  0
CLASS
  1
VISUALSTYLE
  2
AcDbVisualStyle
  3
ObjectDBX Classes
 90
     4095
280
     0
281
     0
  0
CLASS
  1
TABLESTYLE
  2
AcDbTableStyle
  3
ObjectDBX Classes
 90
     4095
280
     0
281
     0
  0
CLASS
  1
SCALE
  2
AcDbScale
  3
ObjectDBX Classes
 90
     1153
280
     0
281
     0
  0
CLASS
  1
MLEADERSTYLE
  2
AcDbMLeaderStyle
  3
ACDB_MLEADERSTYLE_CLASS
 90
     4095
280
     0
281
     0
  0
CLASS
  1
CELLSTYLEMAP
  2
AcDbCellStyleMap
  3
ObjectDBX Classes
 90
     1152
280
     0
281
     0
  0
CLASS
  1
ACAD_PROXY_OBJECT_WRAPPER
  2
AcDbProxyObjectWrapper
  3
AutoCAD 2000
 90
        0
280
     0
281
     0
  0
CLASS
  1
LONG_TRANSACTION
  2
AcDbLongTransaction
  3
AutoCAD 2000
 90
        0
280
     0
281
     0
  0
CLASS
  1
LWPOLYLINE
  2
AcDbPolyline
  3
AutoCAD 2000
 90
        0
280
     0
281
     1
  0
CLASS
  1
HATCH
  2
AcDbHatch
  3
AutoCAD 2000
 90
        0
280
     0
281
     1
  0
CLASS
  1
XRECORD
  2
AcDbXrecord
  3
AutoCAD 2000
 90
        0
280
     0
281
     0
  0
ENDSEC
  0
SECTION
  2
TABLES
  0
TABLE
  2
VPORT
  5
6E
102
{ACAD_XDICTIONARY
360
1A9C
102
}
330
0
100
AcDbSymbolTable
 70
     2
  0
VPORT
  5
1BD2
330
6E
100
AcDbSymbolTableRecord
100
AcDbViewportTableRecord
  2
*ACTIVE
 70
     0
 10
0.0
 20
0.0
 11
1.0
 21
1.0
 12
471.618965094437
 22
306.624420740525
 13
0.0
 23
0.0
 14
10.0
 24
10.0
 15
10.0
 25
10.0
 16
0.0
 26
0.0
 36
1.0
 17
0.0
 27
0.0
 37
0.0
 40
487.0526763791446
 41
1.753504672897196
 42
50.0
 43
0.0
 44
0.0
 50
0.0
 51
0.0
 71
     0
 72
   100
 73
     1
 74
     3
 75
     0
 76
     0
 77
     0
 78
     0
  0
ENDTAB
  0
TABLE
  2
LTYPE
  5
69
330
0
100
AcDbSymbolTable
 70
     8
  0
LTYPE
  5
6A
330
69
100
AcDbSymbolTableRecord
100
AcDbLinetypeTableRecord
  2
BYBLOCK
 70
     0
  3

 72
    65
 73
     0
 40
0.0
  0
LTYPE
  5
6B
330
69
100
AcDbSymbolTableRecord
100
AcDbLinetypeTableRecord
  2
BYLAYER
 70
     0
  3

 72
    65
 73
     0
 40
0.0
  0
LTYPE
  5
8
330
69
100
AcDbSymbolTableRecord
100
AcDbLinetypeTableRecord
  2
CONTINUOUS
 70
     0
  3
Solid line
 72
    65
 73
     0
 40
0.0
  0
LTYPE
  5
27C
330
69
100
AcDbSymbolTableRecord
100
AcDbLinetypeTableRecord
  2
SEKKEI_A2_
 70
     0
  3
center(A2)  ____ _ ____ _ ____ _ ____ _ ____ _ 
 72
    65
 73
     4
 40
14.28749999999999
 49
9.525
 74
     0
 49
-1.587499999999999
 74
     0
 49
1.587499999999999
 74
     0
 49
-1.587499999999999
 74
     0
  0
LTYPE
  5
48F
330
69
100
AcDbSymbolTableRecord
100
AcDbLinetypeTableRecord
  2
SEKKEI_H
 70
     0
  3
Hidden-S _ _ _ _ _ _ _ _ _ _ _ _ _ _ _ _ _
 72
    65
 73
     2
 40
2.381249999999999
 49
1.587499999999999
 74
     0
 49
-0.79375
 74
     0
  0
LTYPE
  5
494
330
69
100
AcDbSymbolTableRecord
100
AcDbLinetypeTableRecord
  2
SEKKEI_P_S
 70
     0
  3
Phantom_S   __ _ _ __ _ _ __ _ _ ___
 72
    65
 73
     6
 40
7.5
 49
3.75
 74
     0
 49
-0.75
 74
     0
 49
0.75
 74
     0
 49
-0.75
 74
     0
 49
0.75
 74
     0
 49
-0.75
 74
     0
  0
LTYPE
  5
7EF
330
69
100
AcDbSymbolTableRecord
100
AcDbLinetypeTableRecord
  2
PHANTOM3
 70
     0
  3
Phantom  ___ _ _ ___ _ _ ___ _ _ ___ _ _
 72
    65
 73
     6
 40
9.0
 49
4.0
 74
     0
 49
-1.0
 74
     0
 49
1.0
 74
     0
 49
-1.0
 74
     0
 49
1.0
 74
     0
 49
-1.0
 74
     0
  0
LTYPE
  5
7F0
330
69
100
AcDbSymbolTableRecord
100
AcDbLinetypeTableRecord
  2
HIDDEN3
 70
     0
  3
Hidden (.3x) _ _ _ _ _ _ _ _ _ _ _ _ _ _ _ _ _
 72
    65
 73
     2
 40
2.857499999999999
 49
1.905
 74
     0
 49
-0.9525
 74
     0
  0
LTYPE
  5
AE4
330
69
100
AcDbSymbolTableRecord
100
AcDbLinetypeTableRecord
  2
CENS
 70
     0
  3
(一点鎖線１)---- - ---- - ---- - ---- - ---- - 
 72
    65
 73
     4
 40
7.0
 49
4.0
 74
     0
 49
-1.0
 74
     0
 49
1.0
 74
     0
 49
-1.0
 74
     0
  0
ENDTAB
  0
TABLE
  2
LAYER
  5
66
102
{ACAD_XDICTIONARY
360
AE5
102
}
330
0
100
AcDbSymbolTable
 70
    10
  0
LAYER
  5
5E
102
{ACAD_XDICTIONARY
360
1A4F
102
}
330
66
100
AcDbSymbolTableRecord
100
AcDbLayerTableRecord
  2
0
 70
     0
 62
     7
  6
CONTINUOUS
  0
LAYER
  5
3E
102
{ACAD_XDICTIONARY
360
1A51
102
}
330
66
100
AcDbSymbolTableRecord
100
AcDbLayerTableRecord
  2
CENTER
 70
     0
 62
     3
  6
SEKKEI_A2_
  0
LAYER
  5
2B5
102
{ACAD_XDICTIONARY
360
1A57
102
}
330
66
100
AcDbSymbolTableRecord
100
AcDbLayerTableRecord
  2
HIDS
 70
     0
 62
     1
  6
HIDDEN3
  0
LAYER
  5
2BA
102
{ACAD_XDICTIONARY
360
1A59
102
}
330
66
100
AcDbSymbolTableRecord
100
AcDbLayerTableRecord
  2
HOJO
 70
     0
 62
     4
  6
CONTINUOUS
  0
LAYER
  5
3FA
102
{ACAD_XDICTIONARY
360
1A5D
102
}
330
66
100
AcDbSymbolTableRecord
100
AcDbLayerTableRecord
  2
TITLE
 70
     0
 62
     4
  6
CONTINUOUS
  0
LAYER
  5
478
102
{ACAD_XDICTIONARY
360
1A5F
102
}
330
66
100
AcDbSymbolTableRecord
100
AcDbLayerTableRecord
  2
PHAS
 70
     0
 62
     2
  6
PHANTOM3
  0
ENDTAB
  0
TABLE
  2
STYLE
  5
67
330
0
100
AcDbSymbolTable
 70
     2
  0
STYLE
  5
16
330
67
100
AcDbSymbolTableRecord
100
AcDbTextStyleTableRecord
  2
STANDARD
 70
     0
 40
0.0
 41
1.0
 50
0.0
 71
     0
 42
2.0
  3
simplex.shx
  4
extfont.shx
  0
ENDTAB
  0
TABLE
  2
VIEW
  5
6C
330
0
100
AcDbSymbolTable
 70
     0
  0
ENDTAB
  0
TABLE
  2
UCS
  5
6D
330
0
100
AcDbSymbolTable
 70
     0
  0
ENDTAB
  0
TABLE
  2
APPID
  5
70
330
0
100
AcDbSymbolTable
 70
     4
  0
APPID
  5
71
330
70
100
AcDbSymbolTableRecord
100
AcDbRegAppTableRecord
  2
ACAD
 70
     0
  0
APPID
  5
1A4C
330
70
100
AcDbSymbolTableRecord
100
AcDbRegAppTableRecord
  2
ACAD_MLEADERVER
 70
     0
  0
APPID
  5
1A88
330
70
100
AcDbSymbolTableRecord
100
AcDbRegAppTableRecord
  2
ACAD_EXEMPT_FROM_CAD_STANDARDS
 70
     0
  0
APPID
  5
1AE1
330
70
100
AcDbSymbolTableRecord
100
AcDbRegAppTableRecord
  2
ACAD_DSTYLE_DIMRADIAL_EXTENSION
 70
     0
  0
ENDTAB
  0
TABLE
  2
DIMSTYLE
  5
72
330
0
100
AcDbSymbolTable
 70
     1
  0
DIMSTYLE
105
73
330
72
100
AcDbSymbolTableRecord
100
AcDbDimStyleTableRecord
  2
STANDARD
 70
     0
  3

  4

  5

  6

  7

 40
2.0
 41
1.8
 42
0.625
 43
3.75
 44
0.8
 45
0.0
 46
0.0
 47
0.0
 48
0.0
140
1.8
141
2.5
142
0.0
143
0.0394
144
1.0
145
0.0
146
1.0
147
0.75
 71
     0
 72
     0
 73
     0
 74
     0
 75
     0
 76
     0
 77
     1
 78
     8
170
     0
171
     4
172
     1
173
     0
174
     0
175
     0
176
     0
177
     0
178
     0
270
     8
271
     2
272
     2
273
     8
274
     4
340
16
275
     0
280
     0
281
     0
282
     0
283
     1
284
     0
285
     0
286
     0
287
     3
288
     0
  0
ENDTAB
  0
TABLE
  2
BLOCK_RECORD
  5
1
330
0
100
AcDbSymbolTable
 70
    56
  0
BLOCK_RECORD
  5
2
102
{ACAD_XDICTIONARY
360
1BF4
102
}
330
1
100
AcDbSymbolTableRecord
100
AcDbBlockTableRecord
  2
*MODEL_SPACE
  0
BLOCK_RECORD
  5
1BCD
102
{ACAD_XDICTIONARY
360
1BF6
102
}
330
1
100
AcDbSymbolTableRecord
100
AcDbBlockTableRecord
  2
*PAPER_SPACE
  0
ENDTAB
  0
ENDSEC
  0
SECTION
  2
BLOCKS
  0
BLOCK
  5
5D
330
2
100
AcDbEntity
  8
0
100
AcDbBlockBegin
  2
*MODEL_SPACE
 70
     0
 10
0.0
 20
0.0
 30
0.0
  3
*MODEL_SPACE
  1

  0
ENDBLK
  5
5F
330
2
100
AcDbEntity
  8
0
100
AcDbBlockEnd
  0
BLOCK
  5
1BCF
330
1BCD
100
AcDbEntity
 67
     1
  8
0
100
AcDbBlockBegin
  2
*PAPER_SPACE
 70
     0
 10
0.0
 20
0.0
 30
0.0
  3
*PAPER_SPACE
  1

  0
ENDBLK
  5
1BD0
330
1BCD
100
AcDbEntity
 67
     1
  8
0
100
AcDbBlockEnd
  0
ENDSEC
  0
SECTION
  2
ENTITIES
  0
TEXT
  5
F34
330
2
100
AcDbEntity
  8
TITLE
100
AcDbText
 10
291.7315538362095
 20
502.9412650740963
 30
0.0
 40
5.0
  1
AFCZ15S-7~10M200S3
100
AcDbText
  0
TEXT
  5
F35
330
2
100
AcDbEntity
  8
TITLE
100
AcDbText
 10
291.7315538362095
 20
494.4412650740964
 30
0.0
 40
5.0
  1
AFCZ15S-7~10L200S3
100
AcDbText
  0
LINE
  5
F37
330
2
100
AcDbEntity
  8
CENTER
100
AcDbLine
 10
431.3313715801823
 20
292.4100548712827
 30
0.0
 11
604.331371580181
 21
292.4100548712827
 31
0.0
  0
LINE
  5
F38
330
2
100
AcDbEntity
  8
CENTER
100
AcDbLine
 10
482.3313715801805
 20
343.4100548712827
 30
0.0
 11
482.3313715801805
 21
241.4100548712827
 31
0.0
  0
LINE
  5
F39
330
2
100
AcDbEntity
  8
CENTER
100
AcDbLine
 10
520.4024393920331
 20
330.4811226831353
 30
0.0
 11
444.260303768302
 21
254.3389870594051
 31
0.0
  0
LINE
  5
F3A
330
2
100
AcDbEntity
  8
CENTER
100
AcDbLine
 10
444.2603037683279
 20
330.4811226831362
 30
0.0
 11
520.4024393920581
 21
254.3389870594044
 31
0.0
  0
LINE
  5
F3B
330
2
100
AcDbEntity
  8
CENTER
100
AcDbLine
 10
482.3313715801805
 20
548.1359443481101
 30
0.0
 11
482.3313715801805
 21
428.1359443481097
 31
0.0
  0
LINE
  5
F3C
330
2
100
AcDbEntity
  8
0
100
AcDbLine
 10
554.3313715758113
 20
537.135944348113
 30
0.0
 11
554.3313715758113
 21
465.1359443481132
 31
0.0
  0
LINE
  5
F3D
330
2
100
AcDbEntity
  8
0
100
AcDbLine
 10
452.3313715801805
 20
458.1359443481129
 30
0.0
 11
512.3313715801805
 21
458.1359443481129
 31
0.0
  0
LINE
  5
F3E
330
2
100
AcDbEntity
  8
0
100
AcDbLine
 10
446.8462567798369
 20
463.1359443481129
 30
0.0
 11
517.8097506041304
 21
463.135944348112
 31
0.0
  0
LINE
  5
F3F
330
2
100
AcDbEntity
  8
0
100
AcDbLine
 10
452.3313715801805
 20
463.1359443481129
 30
0.0
 11
452.3313715801805
 21
458.1359443481129
 31
0.0
  0
LINE
  5
F40
330
2
100
AcDbEntity
  8
0
100
AcDbLine
 10
512.3313715801805
 20
463.1359443481129
 30
0.0
 11
512.3313715801805
 21
458.1359443481129
 31
0.0
  0
LINE
  5
F41
330
2
100
AcDbEntity
  8
CENTER
100
AcDbLine
 10
439.5146358037886
 20
501.1359443481132
 30
0.0
 11
604.3313715801805
 21
501.1359443481134
 31
0.0
  0
LINE
  5
F42
330
2
100
AcDbEntity
  8
0
100
AcDbLine
 10
446.3313715801805
 20
522.1359443484077
 30
0.0
 11
517.9581073565714
 21
522.1359443484061
 31
0.0
  0
LINE
  5
F43
330
2
100
AcDbEntity
  8
0
100
AcDbLine
 10
532.7803706677041
 20
527.688298244725
 30
0.0
 11
532.0850728110899
 21
501.1359443481132
 31
0.0
  0
LINE
  5
F44
330
2
100
AcDbEntity
  8
0
100
AcDbLine
 10
517.9581073565705
 20
522.1359443484068
 30
0.0
 11
518.4581073567787
 21
521.6359443481987
 31
0.0
  0
LINE
  5
F45
330
2
100
AcDbEntity
  8
0
100
AcDbLine
 10
529.699413590496
 20
521.6359443481994
 30
0.0
 11
518.4581073567787
 21
521.6359443481987
 31
0.0
  0
ARC
  5
F46
330
2
100
AcDbEntity
  8
0
100
AcDbCircle
 10
534.7796853176551
 20
527.6359443481094
 30
0.0
 40
2.0
100
AcDbArc
 50
90.0
 51
178.4999999999973
  0
LINE
  5
F47
330
2
100
AcDbEntity
  8
0
100
AcDbLine
 10
446.3313715801805
 20
522.1359443484077
 30
0.0
 11
446.8462567798369
 21
463.1359443481129
 31
0.0
  0
CIRCLE
  5
F48
330
2
100
AcDbEntity
  8
0
100
AcDbCircle
 10
482.3313715801823
 20
292.4100548712838
 30
0.0
 40
19.0
  0
CIRCLE
  5
F49
330
2
100
AcDbEntity
  8
0
100
AcDbCircle
 10
482.3313715801823
 20
292.4100548712838
 30
0.0
 40
24.00000000000017
  0
CIRCLE
  5
F4A
330
2
100
AcDbEntity
  8
0
100
AcDbCircle
 10
482.3313715801823
 20
292.4100548712838
 30
0.0
 40
30.0
  0
CIRCLE
  5
F4B
330
2
100
AcDbEntity
  8
0
100
AcDbCircle
 10
451.2186732079745
 20
261.2973564990757
 30
0.0
 40
2.1
  0
CIRCLE
  5
F4C
330
2
100
AcDbEntity
  8
0
100
AcDbCircle
 10
451.2186732079745
 20
323.5227532434922
 30
0.0
 40
2.1
  0
LINE
  5
F4D
330
2
100
AcDbEntity
  8
0
100
AcDbLine
 10
542.3313715801814
 20
326.9100548712823
 30
0.0
 11
542.3313715801814
 21
257.9100548712825
 31
0.0
  0
LINE
  5
F4E
330
2
100
AcDbEntity
  8
0
100
AcDbLine
 10
554.3313715801805
 20
328.9100548712823
 30
0.0
 11
554.3313715801805
 21
255.9100548712825
 31
0.0
  0
CIRCLE
  5
F4F
330
2
100
AcDbEntity
  8
0
100
AcDbCircle
 10
513.4440699523902
 20
261.2973564990757
 30
0.0
 40
2.1
  0
LINE
  5
F50
330
2
100
AcDbEntity
  8
0
100
AcDbLine
 10
544.3313715801814
 20
256.4100548712825
 30
0.0
 11
554.3313715801814
 21
256.4100548712825
 31
0.0
  0
ARC
  5
F51
330
2
100
AcDbEntity
  8
0
100
AcDbCircle
 10
544.3313715801814
 20
258.4100548712825
 30
0.0
 40
2.0
100
AcDbArc
 50
180.0
 51
270.0
  0
CIRCLE
  5
F52
330
2
100
AcDbEntity
  8
0
100
AcDbCircle
 10
513.4440699523902
 20
323.5227532434919
 30
0.0
 40
2.1
  0
LINE
  5
F53
330
2
100
AcDbEntity
  8
0
100
AcDbLine
 10
554.3313715801814
 20
328.4100548712822
 30
0.0
 11
544.3313715801814
 21
328.4100548712822
 31
0.0
  0
ARC
  5
F54
330
2
100
AcDbEntity
  8
0
100
AcDbCircle
 10
544.3313715801814
 20
326.4100548712822
 30
0.0
 40
2.0
100
AcDbArc
 50
90.0
 51
180.0
  0
CIRCLE
  5
F55
330
2
100
AcDbEntity
  8
CENTER
100
AcDbCircle
 10
482.3313715801823
 20
292.4100548712827
 30
0.0
 40
44.0
  0
CIRCLE
  5
F56
330
2
100
AcDbEntity
  8
HOJO
100
AcDbCircle
 10
451.2186732079745
 20
323.522753243491
 30
0.0
 40
2.5
  0
CIRCLE
  5
F57
330
2
100
AcDbEntity
  8
HOJO
100
AcDbCircle
 10
513.4440699523911
 20
323.5227532434929
 30
0.0
 40
2.5
  0
CIRCLE
  5
F58
330
2
100
AcDbEntity
  8
HOJO
100
AcDbCircle
 10
513.4440699523911
 20
261.2973564990766
 30
0.0
 40
2.5
  0
CIRCLE
  5
F59
330
2
100
AcDbEntity
  8
HOJO
100
AcDbCircle
 10
451.2186732079726
 20
261.2973564990762
 30
0.0
 40
2.5
  0
LINE
  5
F5A
330
2
100
AcDbEntity
  8
CENTER
100
AcDbLine
 10
457.7186732079744
 20
323.5227532434913
 30
0.0
 11
444.7186732079744
 21
323.5227532434913
 31
0.0
  0
LINE
  5
F5B
330
2
100
AcDbEntity
  8
CENTER
100
AcDbLine
 10
451.2186732079745
 20
330.0227532434913
 30
0.0
 11
451.2186732079745
 21
317.0227532434913
 31
0.0
  0
LINE
  5
F5C
330
2
100
AcDbEntity
  8
CENTER
100
AcDbLine
 10
457.7186732079744
 20
261.2973564990762
 30
0.0
 11
444.7186732079744
 21
261.2973564990762
 31
0.0
  0
LINE
  5
F5D
330
2
100
AcDbEntity
  8
CENTER
100
AcDbLine
 10
451.2186732079745
 20
267.7973564990762
 30
0.0
 11
451.2186732079745
 21
254.7973564990761
 31
0.0
  0
LINE
  5
F5E
330
2
100
AcDbEntity
  8
CENTER
100
AcDbLine
 10
519.9440699523911
 20
261.2973564990769
 30
0.0
 11
506.9440699523911
 21
261.2973564990769
 31
0.0
  0
LINE
  5
F5F
330
2
100
AcDbEntity
  8
CENTER
100
AcDbLine
 10
513.4440699523911
 20
267.7973564990768
 30
0.0
 11
513.4440699523911
 21
254.7973564990769
 31
0.0
  0
LINE
  5
F60
330
2
100
AcDbEntity
  8
CENTER
100
AcDbLine
 10
519.9440699523893
 20
323.5227532434919
 30
0.0
 11
506.9440699523893
 21
323.5227532434919
 31
0.0
  0
LINE
  5
F61
330
2
100
AcDbEntity
  8
CENTER
100
AcDbLine
 10
513.4440699523893
 20
330.022753243492
 30
0.0
 11
513.4440699523893
 21
317.0227532434919
 31
0.0
  0
ARC
  5
F62
330
2
100
AcDbEntity
  8
0
100
AcDbCircle
 10
454.3313715801805
 20
261.410054871279
 30
0.0
 40
5.0
100
AcDbArc
 50
270.0
 51
283.8418243184202
  0
ARC
  5
F63
330
2
100
AcDbEntity
  8
0
100
AcDbCircle
 10
482.3313715801832
 20
416.4100548712827
 30
0.0
 40
160.0
100
AcDbArc
 50
264.0709145121236
 51
275.9290854878763
  0
ARC
  5
F64
330
2
100
AcDbEntity
  8
0
100
AcDbCircle
 10
462.7048519001991
 20
227.4264584263726
 30
0.0
 40
30.0
100
AcDbArc
 50
84.07091451212361
 51
103.8418243184202
  0
ARC
  5
F65
330
2
100
AcDbEntity
  8
0
100
AcDbCircle
 10
501.9578912601619
 20
227.4264584263726
 30
0.0
 40
30.0
100
AcDbArc
 50
76.15817568157976
 51
95.92908548787638
  0
LINE
  5
F66
330
2
100
AcDbEntity
  8
0
100
AcDbLine
 10
510.3313715801805
 20
256.4100548712791
 30
0.0
 11
513.3313715801805
 21
256.4100548712791
 31
0.0
  0
ARC
  5
F67
330
2
100
AcDbEntity
  8
0
100
AcDbCircle
 10
510.3313715801805
 20
261.410054871279
 30
0.0
 40
5.0
100
AcDbArc
 50
256.1581756815797
 51
270.0
  0
ARC
  5
F68
330
2
100
AcDbEntity
  8
0
100
AcDbCircle
 10
513.3313715801805
 20
261.4100548712577
 30
0.0
 40
5.0
100
AcDbArc
 50
270.0
 51
0.0
  0
LINE
  5
F69
330
2
100
AcDbEntity
  8
0
100
AcDbLine
 10
518.3313715801805
 20
323.410054871257
 30
0.0
 11
518.3313715801805
 21
261.4100548712577
 31
0.0
  0
LINE
  5
F6A
330
2
100
AcDbEntity
  8
0
100
AcDbLine
 10
454.3313715801805
 20
256.4100548712791
 30
0.0
 11
451.3313715801805
 21
256.4100548712791
 31
0.0
  0
ARC
  5
F6B
330
2
100
AcDbEntity
  8
0
100
AcDbCircle
 10
451.3313715801805
 20
261.4100548712577
 30
0.0
 40
5.0
100
AcDbArc
 50
180.0
 51
270.0
  0
LINE
  5
F6C
330
2
100
AcDbEntity
  8
0
100
AcDbLine
 10
446.3313715801805
 20
264.4100548712791
 30
0.0
 11
446.3313715801805
 21
261.4100548712577
 31
0.0
  0
ARC
  5
F6D
330
2
100
AcDbEntity
  8
0
100
AcDbCircle
 10
451.3313715801805
 20
264.4100548712791
 30
0.0
 40
5.0
100
AcDbArc
 50
166.1581756815797
 51
180.0
  0
ARC
  5
F6E
330
2
100
AcDbEntity
  8
0
100
AcDbCircle
 10
417.3477751352739
 20
272.7835351912975
 30
0.0
 40
30.0
100
AcDbArc
 50
346.1581756815797
 51
5.929085487861648
  0
ARC
  5
F6F
330
2
100
AcDbEntity
  8
0
100
AcDbCircle
 10
606.3313715801805
 20
292.4100548712793
 30
0.0
 40
160.0
100
AcDbArc
 50
174.0709145121383
 51
185.9290854878616
  0
LINE
  5
F70
330
2
100
AcDbEntity
  8
0
100
AcDbLine
 10
446.3313715801805
 20
320.4100548712795
 30
0.0
 11
446.3313715801805
 21
323.4100548712577
 31
0.0
  0
ARC
  5
F71
330
2
100
AcDbEntity
  8
0
100
AcDbCircle
 10
417.3477751352739
 20
312.0365745512611
 30
0.0
 40
30.0
100
AcDbArc
 50
354.0709145121383
 51
13.84182431842024
  0
ARC
  5
F72
330
2
100
AcDbEntity
  8
0
100
AcDbCircle
 10
451.3313715801805
 20
320.4100548712795
 30
0.0
 40
5.0
100
AcDbArc
 50
180.0
 51
193.8418243184202
  0
ARC
  5
F73
330
2
100
AcDbEntity
  8
0
100
AcDbCircle
 10
451.3313715801805
 20
323.4100548712577
 30
0.0
 40
5.0
100
AcDbArc
 50
90.0
 51
180.0
  0
ARC
  5
F74
330
2
100
AcDbEntity
  8
0
100
AcDbCircle
 10
454.3313715801805
 20
323.4100548712793
 30
0.0
 40
5.0
100
AcDbArc
 50
76.15817568157976
 51
90.0
  0
LINE
  5
F75
330
2
100
AcDbEntity
  8
0
100
AcDbLine
 10
454.3313715801805
 20
328.4100548712793
 30
0.0
 11
451.3313715801805
 21
328.4100548712793
 31
0.0
  0
ARC
  5
F76
330
2
100
AcDbEntity
  8
0
100
AcDbCircle
 10
462.7048519001991
 20
357.3936513161857
 30
0.0
 40
30.0
100
AcDbArc
 50
256.1581756815797
 51
275.9290854878763
  0
ARC
  5
F77
330
2
100
AcDbEntity
  8
0
100
AcDbCircle
 10
482.3313715801841
 20
168.4100548712827
 30
0.0
 40
160.0
100
AcDbArc
 50
84.07091451212361
 51
95.92908548787638
  0
ARC
  5
F78
330
2
100
AcDbEntity
  8
0
100
AcDbCircle
 10
501.9578912601619
 20
357.3936513161857
 30
0.0
 40
30.0
100
AcDbArc
 50
264.0709145121236
 51
283.8418243184202
  0
LINE
  5
F79
330
2
100
AcDbEntity
  8
0
100
AcDbLine
 10
510.3313715801805
 20
328.4100548712793
 30
0.0
 11
513.3313715801805
 21
328.4100548712793
 31
0.0
  0
ARC
  5
F7A
330
2
100
AcDbEntity
  8
0
100
AcDbCircle
 10
510.3313715801805
 20
323.4100548712793
 30
0.0
 40
5.0
100
AcDbArc
 50
90.0
 51
103.8418243184202
  0
ARC
  5
F7B
330
2
100
AcDbEntity
  8
0
100
AcDbCircle
 10
513.3313715801805
 20
323.410054871257
 30
0.0
 40
5.0
100
AcDbArc
 50
0.0
 51
90.0
  0
ARC
  5
F7C
330
2
100
AcDbEntity
  8
0
100
AcDbCircle
 10
521.3313715801842
 20
266.9100548712827
 30
0.0
 40
3.0
100
AcDbArc
 50
90.0
 51
180.0
  0
ARC
  5
F7D
330
2
100
AcDbEntity
  8
0
100
AcDbCircle
 10
534.831371580185
 20
265.9100548712863
 30
0.0
 40
2.0
100
AcDbArc
 50
180.0000000000065
 51
270.0
  0
LINE
  5
F7E
330
2
100
AcDbEntity
  8
0
100
AcDbLine
 10
521.3313715801842
 20
269.9100548712827
 30
0.0
 11
529.8313715801914
 21
269.9100548712827
 31
0.0
  0
ARC
  5
F7F
330
2
100
AcDbEntity
  8
0
100
AcDbCircle
 10
529.8313715801914
 20
266.9100548712827
 30
0.0
 40
3.0
100
AcDbArc
 50
0.0000000000065138
 51
90.0
  0
ARC
  5
F80
330
2
100
AcDbEntity
  8
0
100
AcDbCircle
 10
521.3313715801842
 20
317.9100548712827
 30
0.0
 40
3.0
100
AcDbArc
 50
180.0
 51
270.0
  0
LINE
  5
F81
330
2
100
AcDbEntity
  8
0
100
AcDbLine
 10
521.3313715801842
 20
314.9100548712827
 30
0.0
 11
529.8313715801859
 21
314.9100548712827
 31
0.0
  0
ARC
  5
F82
330
2
100
AcDbEntity
  8
0
100
AcDbCircle
 10
534.831371580185
 20
318.9100548712791
 30
0.0
 40
2.0
100
AcDbArc
 50
90.0
 51
180.0000000000065
  0
ARC
  5
F83
330
2
100
AcDbEntity
  8
0
100
AcDbCircle
 10
529.8313715801859
 20
317.9100548712827
 30
0.0
 40
3.0
100
AcDbArc
 50
270.0
 51
0.0
  0
LINE
  5
F84
330
2
100
AcDbEntity
  8
0
100
AcDbLine
 10
532.8313715801914
 20
265.9100548712861
 30
0.0
 11
532.8313715801851
 21
318.9100548712786
 31
0.0
  0
LINE
  5
F85
330
2
100
AcDbEntity
  8
0
100
AcDbLine
 10
539.3313715801805
 20
320.9100548712791
 30
0.0
 11
534.831371580185
 21
320.9100548712791
 31
0.0
  0
LINE
  5
F86
330
2
100
AcDbEntity
  8
0
100
AcDbLine
 10
539.3313715801805
 20
263.9100548712864
 30
0.0
 11
534.831371580185
 21
263.9100548712864
 31
0.0
  0
ARC
  5
F87
330
2
100
AcDbEntity
  8
0
100
AcDbCircle
 10
539.3313715801805
 20
260.9100548712863
 30
0.0
 40
3.0
100
AcDbArc
 50
0.0
 51
90.0
  0
ARC
  5
F88
330
2
100
AcDbEntity
  8
0
100
AcDbCircle
 10
539.3313715801805
 20
323.9100548712791
 30
0.0
 40
3.0
100
AcDbArc
 50
270.0
 51
0.0
  0
LINE
  5
F89
330
2
100
AcDbEntity
  8
0
100
AcDbLine
 10
521.3313715801805
 20
294.9100548712827
 30
0.0
 11
529.8313715801878
 21
294.9100548712827
 31
0.0
  0
ARC
  5
F8A
330
2
100
AcDbEntity
  8
0
100
AcDbCircle
 10
534.7796853176551
 20
474.6359443481168
 30
0.0
 40
2.0
100
AcDbArc
 50
181.5000000000027
 51
270.0
  0
LINE
  5
F8B
330
2
100
AcDbEntity
  8
0
100
AcDbLine
 10
532.7803706677041
 20
474.5835904515011
 30
0.0
 11
532.0850728110899
 21
501.1359443481132
 31
0.0
  0
ARC
  5
F8C
330
2
100
AcDbEntity
  8
0
100
AcDbCircle
 10
529.7517854336328
 20
475.6359443481129
 30
0.0
 40
3.0
100
AcDbArc
 50
1.500000000002716
 51
90.0
  0
LINE
  5
F8D
330
2
100
AcDbEntity
  8
0
100
AcDbLine
 10
520.9189506866719
 20
478.635944348113
 30
0.0
 11
529.7517854336328
 21
478.635944348113
 31
0.0
  0
LINE
  5
F8E
330
2
100
AcDbEntity
  8
0
100
AcDbLine
 10
521.0934880424865
 20
503.6359443481131
 30
0.0
 11
529.2280670022473
 21
503.6359443481131
 31
0.0
  0
ARC
  5
F8F
330
2
100
AcDbEntity
  8
0
100
AcDbCircle
 10
521.0934880424865
 20
506.6359443481132
 30
0.0
 40
3.0
100
AcDbArc
 50
180.4999999999981
 51
270.0
  0
ARC
  5
F90
330
2
100
AcDbEntity
  8
0
100
AcDbCircle
 10
529.6994135904951
 20
524.6359443481995
 30
0.0
 40
3.0
100
AcDbArc
 50
270.0
 51
358.4999999999972
  0
ARC
  5
F91
330
2
100
AcDbEntity
  8
0
100
AcDbCircle
 10
529.8313715801878
 20
297.9100548712827
 30
0.0
 40
3.0
100
AcDbArc
 50
270.0
 51
0.0000000000065138
  0
ARC
  5
F92
330
2
100
AcDbEntity
  8
0
100
AcDbCircle
 10
521.3313715801805
 20
297.9100548712827
 30
0.0
 40
3.0
100
AcDbArc
 50
180.0
 51
270.0
  0
ARC
  5
F93
330
2
100
AcDbEntity
  8
0
100
AcDbCircle
 10
521.3313715801805
 20
286.9100548712822
 30
0.0
 40
3.0
100
AcDbArc
 50
90.0
 51
180.0
  0
LINE
  5
F94
330
2
100
AcDbEntity
  8
0
100
AcDbLine
 10
521.3313715801805
 20
289.9100548712823
 30
0.0
 11
529.8313715801878
 21
289.9100548712825
 31
0.0
  0
ARC
  5
F95
330
2
100
AcDbEntity
  8
0
100
AcDbCircle
 10
529.8313715801878
 20
286.9100548712825
 30
0.0
 40
3.0
100
AcDbArc
 50
359.9999999999934
 51
90.0
  0
LINE
  5
F96
330
2
100
AcDbEntity
  8
0
100
AcDbLine
 10
531.831371580185
 20
264.9100548712868
 30
0.0
 11
521.3313715801805
 21
264.910054871287
 31
0.0
  0
ARC
  5
F97
330
2
100
AcDbEntity
  8
0
100
AcDbCircle
 10
531.831371580185
 20
261.9100548712868
 30
0.0
 40
3.0
100
AcDbArc
 50
53.13010235412992
 51
90.0
  0
ARC
  5
F98
330
2
100
AcDbEntity
  8
0
100
AcDbCircle
 10
521.3313715801805
 20
261.910054871287
 30
0.0
 40
3.0
100
AcDbArc
 50
90.0
 51
180.0
  0
ARC
  5
F99
330
2
100
AcDbEntity
  8
0
100
AcDbCircle
 10
521.3313715801805
 20
322.9100548712784
 30
0.0
 40
3.0
100
AcDbArc
 50
180.0
 51
270.0
  0
LINE
  5
F9A
330
2
100
AcDbEntity
  8
0
100
AcDbLine
 10
531.831371580185
 20
319.9100548712786
 30
0.0
 11
521.3313715801805
 21
319.9100548712784
 31
0.0
  0
ARC
  5
F9B
330
2
100
AcDbEntity
  8
0
100
AcDbCircle
 10
531.831371580185
 20
322.9100548712786
 30
0.0
 40
3.0
100
AcDbArc
 50
270.0
 51
306.86989764587
  0
ARC
  5
F9C
330
2
100
AcDbEntity
  8
0
100
AcDbCircle
 10
529.2280670022473
 20
506.6359443481132
 30
0.0
 40
3.0
100
AcDbArc
 50
270.0
 51
358.4999999999972
  0
LINE
  5
F9D
330
2
100
AcDbEntity
  8
0
100
AcDbLine
 10
521.1002238188803
 20
498.6359443481129
 30
0.0
 11
529.2280670022473
 21
498.6359443481132
 31
0.0
  0
ARC
  5
F9E
330
2
100
AcDbEntity
  8
0
100
AcDbCircle
 10
529.2280670022473
 20
495.6359443481131
 30
0.0
 40
3.0
100
AcDbArc
 50
1.500000000002716
 51
90.0
  0
LINE
  5
F9F
330
2
100
AcDbEntity
  8
0
100
AcDbLine
 10
520.8753163477181
 20
473.6359443481129
 30
0.0
 11
531.7796853176596
 21
473.6359443481132
 31
0.0
  0
ARC
  5
FA0
330
2
100
AcDbEntity
  8
0
100
AcDbCircle
 10
531.7796853176596
 20
470.6359443481131
 30
0.0
 40
3.0
100
AcDbArc
 50
53.1301023542602
 51
90.0
  0
LINE
  5
FA1
330
2
100
AcDbEntity
  8
0
100
AcDbLine
 10
460.2627491297925
 20
445.1359443481133
 30
0.0
 11
504.3999940305647
 21
445.135944348113
 31
0.0
  0
LINE
  5
FA2
330
2
100
AcDbEntity
  8
0
100
AcDbLine
 10
457.9448056812098
 20
456.205743341518
 30
0.0
 11
458.2639674757547
 21
447.0661453547082
 31
0.0
  0
LINE
  5
FA3
330
2
100
AcDbEntity
  8
0
100
AcDbLine
 10
506.7179374791476
 20
456.205743341518
 30
0.0
 11
506.3987756846026
 21
447.0661453547082
 31
0.0
  0
ARC
  5
FA4
330
2
100
AcDbEntity
  8
0
100
AcDbCircle
 10
460.2627491297925
 20
447.1359443481131
 30
0.0
 40
2.0
100
AcDbArc
 50
181.9999999999971
 51
270.0
  0
ARC
  5
FA5
330
2
100
AcDbEntity
  8
0
100
AcDbCircle
 10
504.3999940305647
 20
447.1359443481131
 30
0.0
 40
2.0
100
AcDbArc
 50
270.0
 51
357.9999999999963
  0
ARC
  5
FA6
330
2
100
AcDbEntity
  8
0
100
AcDbCircle
 10
508.7167191331855
 20
456.1359443481131
 30
0.0
 40
2.0
100
AcDbArc
 50
90.0
 51
177.9999999999963
  0
ARC
  5
FA7
330
2
100
AcDbEntity
  8
0
100
AcDbCircle
 10
455.9460240271719
 20
456.1359443481131
 30
0.0
 40
2.0
100
AcDbArc
 50
1.99999999999713
 51
90.0
  0
LINE
  5
FA8
330
2
100
AcDbEntity
  8
0
100
AcDbLine
 10
510.3444645409563
 20
522.1359443484061
 30
0.0
 11
510.868868439863
 21
502.1097673998053
 31
0.0
  0
ARC
  5
FA9
330
2
100
AcDbEntity
  8
0
100
AcDbCircle
 10
511.8685257648385
 20
502.1359443481132
 30
0.0
 40
1.0
100
AcDbArc
 50
181.5000000000027
 51
270.0
  0
LINE
  5
FAA
330
2
100
AcDbEntity
  8
0
100
AcDbLine
 10
454.3313715801805
 20
521.6359443481128
 30
0.0
 11
454.3313715801805
 21
464.6359062711773
 31
0.0
  0
LINE
  5
FAB
330
2
100
AcDbEntity
  8
0
100
AcDbLine
 10
451.3313715801805
 20
521.6359443481128
 30
0.0
 11
451.3313715801805
 21
464.6359062711773
 31
0.0
  0
LINE
  5
FAC
330
2
100
AcDbEntity
  8
0
100
AcDbLine
 10
510.3313715801805
 20
501.1359443481132
 30
0.0
 11
510.3313715801805
 21
464.6359062711773
 31
0.0
  0
LINE
  5
FAD
330
2
100
AcDbEntity
  8
0
100
AcDbLine
 10
513.3313715801786
 20
501.1359443481132
 30
0.0
 11
513.3313715801805
 21
464.6359062711773
 31
0.0
  0
LINE
  5
FAE
330
2
100
AcDbEntity
  8
0
100
AcDbLine
 10
465.8037760601955
 20
521.6359443481128
 30
0.0
 11
465.8037760601955
 21
464.6359062711773
 31
0.0
  0
LINE
  5
FAF
330
2
100
AcDbEntity
  8
0
100
AcDbLine
 10
498.8589671001636
 20
521.6359443481128
 30
0.0
 11
498.8589671001636
 21
464.6359062711773
 31
0.0
  0
LINE
  5
FB0
330
2
100
AcDbEntity
  8
0
100
AcDbLine
 10
541.3886784036685
 20
501.1359443481132
 30
0.0
 11
554.3313715758113
 21
501.1359443481132
 31
0.0
  0
LINE
  5
FB1
330
2
100
AcDbEntity
  8
0
100
AcDbLine
 10
544.2796853220234
 20
537.135944348113
 30
0.0
 11
554.3313715758113
 21
537.135944348113
 31
0.0
  0
LINE
  5
FB2
330
2
100
AcDbEntity
  8
0
100
AcDbLine
 10
544.2796853220234
 20
465.1359443481132
 30
0.0
 11
554.3313715758113
 21
465.1359443481132
 31
0.0
  0
LINE
  5
FB3
330
2
100
AcDbEntity
  8
0
100
AcDbLine
 10
534.7796853220233
 20
529.635944348113
 30
0.0
 11
539.2125065556456
 21
529.635944348113
 31
0.0
  0
ARC
  5
FB4
330
2
100
AcDbEntity
  8
0
100
AcDbCircle
 10
539.2125065556456
 20
532.635944348113
 30
0.0
 40
3.0
100
AcDbArc
 50
270.0
 51
358.4999999999972
  0
ARC
  5
FB5
330
2
100
AcDbEntity
  8
0
100
AcDbCircle
 10
544.2796853220234
 20
535.135944348113
 30
0.0
 40
2.0
100
AcDbArc
 50
90.0
 51
178.4999999999842
  0
LINE
  5
FB6
330
2
100
AcDbEntity
  8
0
100
AcDbLine
 10
542.2803706720724
 20
535.18829824473
 30
0.0
 11
541.3886784036685
 21
501.1359443481132
 31
0.0
  0
LINE
  5
FB7
330
2
100
AcDbEntity
  8
0
100
AcDbLine
 10
534.7796853220233
 20
472.6359443481132
 30
0.0
 11
539.2125065556456
 21
472.6359443481132
 31
0.0
  0
ARC
  5
FB8
330
2
100
AcDbEntity
  8
0
100
AcDbCircle
 10
539.2125065556456
 20
469.6359443481131
 30
0.0
 40
3.0
100
AcDbArc
 50
1.500000000002716
 51
90.0
  0
ARC
  5
FB9
330
2
100
AcDbEntity
  8
0
100
AcDbCircle
 10
544.2796853220234
 20
467.1359443481131
 30
0.0
 40
2.0
100
AcDbArc
 50
181.5000000000157
 51
270.0
  0
LINE
  5
FBA
330
2
100
AcDbEntity
  8
0
100
AcDbLine
 10
542.2803706720724
 20
467.0835904514961
 30
0.0
 11
541.3886784036685
 21
501.1359443481132
 31
0.0
  0
LINE
  5
FBB
330
2
100
AcDbEntity
  8
0
100
AcDbLine
 10
480.0995682193943
 20
263.4100548712741
 30
0.0
 11
480.9995686073088
 21
263.4100548712741
 31
0.0
  0
LINE
  5
FBC
330
2
100
AcDbEntity
  8
0
100
AcDbLine
 10
481.3495682193933
 20
265.9100548712718
 30
0.0
 11
480.0995682193943
 21
263.4100548712741
 31
0.0
  0
ARC
  5
FBD
330
2
100
AcDbEntity
  8
0
100
AcDbCircle
 10
483.424545481891
 20
265.0600548712726
 30
0.0
 40
0.8499999999992269
100
AcDbArc
 50
307.5189678668038
 51
90.0
  0
LINE
  5
FBE
330
2
100
AcDbEntity
  8
0
100
AcDbLine
 10
483.9422159130345
 20
264.3858758707695
 30
0.0
 11
484.5631749379872
 21
263.4100548712741
 31
0.0
  0
LINE
  5
FBF
330
2
100
AcDbEntity
  8
0
100
AcDbLine
 10
483.6631745500735
 20
263.4100548712741
 30
0.0
 11
484.5631749379872
 21
263.4100548712741
 31
0.0
  0
LINE
  5
FC0
330
2
100
AcDbEntity
  8
0
100
AcDbLine
 10
481.8245682193929
 20
263.4100548712741
 30
0.0
 11
482.5745454818925
 21
263.4100548712741
 31
0.0
  0
LINE
  5
FC1
330
2
100
AcDbEntity
  8
0
100
AcDbLine
 10
481.1870686073088
 20
263.7850548712736
 30
0.0
 11
480.9995686073088
 21
263.4100548712741
 31
0.0
  0
LINE
  5
FC2
330
2
100
AcDbEntity
  8
0
100
AcDbLine
 10
481.1870686073088
 20
263.7850548712736
 30
0.0
 11
481.8245682193929
 21
263.7850548712736
 31
0.0
  0
LINE
  5
FC3
330
2
100
AcDbEntity
  8
0
100
AcDbLine
 10
481.8245682193929
 20
263.7850548712736
 30
0.0
 11
481.8245682193929
 21
263.4100548712741
 31
0.0
  0
LINE
  5
FC4
330
2
100
AcDbEntity
  8
0
100
AcDbLine
 10
481.5870686073085
 20
264.5850548712729
 30
0.0
 11
481.8245682193929
 21
264.5850548712729
 31
0.0
  0
LINE
  5
FC5
330
2
100
AcDbEntity
  8
0
100
AcDbLine
 10
481.8245682193929
 20
265.0600540954424
 30
0.0
 11
481.8245682193929
 21
264.5850548712729
 31
0.0
  0
LINE
  5
FC6
330
2
100
AcDbEntity
  8
0
100
AcDbLine
 10
481.8245682193929
 20
265.0600540954424
 30
0.0
 11
481.5870686073085
 21
264.5850548712729
 31
0.0
  0
LINE
  5
FC7
330
2
100
AcDbEntity
  8
0
100
AcDbLine
 10
482.6808182193917
 20
264.9538048712727
 30
0.0
 11
483.6631745500735
 21
263.4100548712741
 31
0.0
  0
LINE
  5
FC8
330
2
100
AcDbEntity
  8
0
100
AcDbLine
 10
482.5745454818925
 20
265.0600548712726
 30
0.0
 11
482.5745454818925
 21
263.4100548712741
 31
0.0
  0
LINE
  5
FC9
330
2
100
AcDbEntity
  8
0
100
AcDbLine
 10
482.5745454818925
 20
265.0600548712726
 30
0.0
 11
483.371443219391
 21
265.0600548712726
 31
0.0
  0
LINE
  5
FCA
330
2
100
AcDbEntity
  8
0
100
AcDbLine
 10
482.6808182193917
 20
264.9538048712727
 30
0.0
 11
483.371443219391
 21
264.9538048712727
 31
0.0
  0
ARC
  5
FCB
330
2
100
AcDbEntity
  8
0
100
AcDbCircle
 10
483.371443219391
 20
265.0069298712726
 30
0.0
 40
0.0531249999999517
100
AcDbArc
 50
270.0
 51
90.0
  0
LINE
  5
FCC
330
2
100
AcDbEntity
  8
0
100
AcDbLine
 10
481.3495682193933
 20
265.9100548712718
 30
0.0
 11
483.424545481891
 21
265.9100548712718
 31
0.0
  0
LINE
  5
FCD
330
2
100
AcDbEntity
  8
0
100
AcDbLine
 10
554.3313715801814
 20
328.9100548712823
 30
0.0
 11
544.3313715801814
 21
328.9100548712823
 31
0.0
  0
ARC
  5
FCE
330
2
100
AcDbEntity
  8
0
100
AcDbCircle
 10
544.3313715801814
 20
326.9100548712823
 30
0.0
 40
2.0
100
AcDbArc
 50
90.0
 51
180.0
  0
LINE
  5
FCF
330
2
100
AcDbEntity
  8
0
100
AcDbLine
 10
544.3313715801814
 20
255.9100548712825
 30
0.0
 11
554.3313715801814
 21
255.9100548712825
 31
0.0
  0
ARC
  5
FD0
330
2
100
AcDbEntity
  8
0
100
AcDbCircle
 10
544.3313715801814
 20
257.9100548712825
 30
0.0
 40
2.0
100
AcDbArc
 50
180.0
 51
270.0
  0
LINE
  5
FD1
330
2
100
AcDbEntity
  8
CENTER
100
AcDbLine
 10
183.5667641824938
 20
249.410054871282
 30
0.0
 11
183.5667641824938
 21
335.410054871282
 31
0.0
  0
LINE
  5
FD2
330
2
100
AcDbEntity
  8
CENTER
100
AcDbLine
 10
226.5667641824939
 20
292.4100548712827
 30
0.0
 11
61.56676418249753
 21
292.4100548712825
 31
0.0
  0
ARC
  5
FD3
330
2
100
AcDbEntity
  8
0
100
AcDbCircle
 10
121.5667641824975
 20
326.4100548712827
 30
0.0
 40
2.0
100
AcDbArc
 50
0.0
 51
90.0
  0
LINE
  5
FD4
330
2
100
AcDbEntity
  8
0
100
AcDbLine
 10
111.5667641824975
 20
255.9100548712827
 30
0.0
 11
111.5667641824975
 21
328.9100548712827
 31
0.0
  0
LINE
  5
FD5
330
2
100
AcDbEntity
  8
0
100
AcDbLine
 10
121.5667641824975
 20
328.4100548712827
 30
0.0
 11
111.5667641824975
 21
328.4100548712827
 31
0.0
  0
LINE
  5
FD6
330
2
100
AcDbEntity
  8
0
100
AcDbLine
 10
123.5667641824975
 20
257.9100548712827
 30
0.0
 11
123.5667641824993
 21
326.9100548712827
 31
0.0
  0
LINE
  5
FD7
330
2
100
AcDbEntity
  8
0
100
AcDbLine
 10
133.0667641824866
 20
318.9100548712793
 30
0.0
 11
133.0667641824929
 21
265.9100548712868
 31
0.0
  0
LINE
  5
FD8
330
2
100
AcDbEntity
  8
0
100
AcDbLine
 10
126.5667641824975
 20
320.9100548712791
 30
0.0
 11
131.0667641824929
 21
320.9100548712791
 31
0.0
  0
ARC
  5
FD9
330
2
100
AcDbEntity
  8
0
100
AcDbCircle
 10
121.5667641824975
 20
258.4100548712827
 30
0.0
 40
2.0
100
AcDbArc
 50
270.0
 51
0.0
  0
LINE
  5
FDA
330
2
100
AcDbEntity
  8
0
100
AcDbLine
 10
126.5667641824975
 20
263.9100548712864
 30
0.0
 11
131.0667641824929
 21
263.9100548712866
 31
0.0
  0
LINE
  5
FDB
330
2
100
AcDbEntity
  8
0
100
AcDbLine
 10
111.5667641824975
 20
256.4100548712827
 30
0.0
 11
121.5667641824975
 21
256.4100548712827
 31
0.0
  0
ARC
  5
FDC
330
2
100
AcDbEntity
  8
0
100
AcDbCircle
 10
59.5667641824939
 20
292.4100548712857
 30
0.0
 40
160.0
100
AcDbArc
 50
354.0709145121383
 51
5.929085487861648
  0
LINE
  5
FDD
330
2
100
AcDbEntity
  8
0
100
AcDbLine
 10
219.5667641824939
 20
264.4100548712854
 30
0.0
 11
219.5667641824939
 21
261.410054871307
 31
0.0
  0
ARC
  5
FDE
330
2
100
AcDbEntity
  8
0
100
AcDbCircle
 10
248.5503606274005
 20
272.7835351913036
 30
0.0
 40
30.0
100
AcDbArc
 50
174.0709145121383
 51
193.8418243184202
  0
ARC
  5
FDF
330
2
100
AcDbEntity
  8
0
100
AcDbCircle
 10
214.5667641824938
 20
264.4100548712854
 30
0.0
 40
5.0
100
AcDbArc
 50
0.0
 51
13.84182431842024
  0
LINE
  5
FE0
330
2
100
AcDbEntity
  8
0
100
AcDbLine
 10
211.5667641824939
 20
256.4100548712854
 30
0.0
 11
214.5667641824938
 21
256.4100548712854
 31
0.0
  0
ARC
  5
FE1
330
2
100
AcDbEntity
  8
0
100
AcDbCircle
 10
211.5667641824939
 20
261.4100548712854
 30
0.0
 40
5.0
100
AcDbArc
 50
256.1581756815797
 51
270.0
  0
ARC
  5
FE2
330
2
100
AcDbEntity
  8
0
100
AcDbCircle
 10
203.1932838624761
 20
227.426458426379
 30
0.0
 40
30.0
100
AcDbArc
 50
76.15817568157976
 51
95.92908548787638
  0
ARC
  5
FE3
330
2
100
AcDbEntity
  8
0
100
AcDbCircle
 10
163.9402445025125
 20
227.426458426379
 30
0.0
 40
30.0
100
AcDbArc
 50
84.07091451212361
 51
103.8418243184202
  0
LINE
  5
FE4
330
2
100
AcDbEntity
  8
0
100
AcDbLine
 10
155.5667641824939
 20
256.4100548712854
 30
0.0
 11
152.5667641824939
 21
256.4100548712854
 31
0.0
  0
ARC
  5
FE5
330
2
100
AcDbEntity
  8
0
100
AcDbCircle
 10
155.5667641824939
 20
261.4100548712854
 30
0.0
 40
5.0
100
AcDbArc
 50
270.0
 51
283.8418243184202
  0
ARC
  5
FE6
330
2
100
AcDbEntity
  8
0
100
AcDbCircle
 10
163.9402445025125
 20
357.3936513161921
 30
0.0
 40
30.0
100
AcDbArc
 50
256.1581756815797
 51
275.9290854878763
  0
LINE
  5
FE7
330
2
100
AcDbEntity
  8
0
100
AcDbLine
 10
155.5667641824939
 20
328.4100548712856
 30
0.0
 11
152.5667641824939
 21
328.4100548712856
 31
0.0
  0
ARC
  5
FE8
330
2
100
AcDbEntity
  8
0
100
AcDbCircle
 10
155.5667641824939
 20
323.4100548712857
 30
0.0
 40
5.0
100
AcDbArc
 50
76.15817568157976
 51
90.0
  0
LINE
  5
FE9
330
2
100
AcDbEntity
  8
0
100
AcDbLine
 10
211.5667641824939
 20
328.4100548712856
 30
0.0
 11
214.5667641824938
 21
328.4100548712856
 31
0.0
  0
ARC
  5
FEA
330
2
100
AcDbEntity
  8
0
100
AcDbCircle
 10
203.1932838624761
 20
357.3936513161921
 30
0.0
 40
30.0
100
AcDbArc
 50
264.0709145121236
 51
283.8418243184202
  0
ARC
  5
FEB
330
2
100
AcDbEntity
  8
0
100
AcDbCircle
 10
211.5667641824939
 20
323.4100548712857
 30
0.0
 40
5.0
100
AcDbArc
 50
90.0
 51
103.8418243184202
  0
LINE
  5
FEC
330
2
100
AcDbEntity
  8
0
100
AcDbLine
 10
219.5667641824939
 20
320.4100548712859
 30
0.0
 11
219.5667641824939
 21
323.410054871307
 31
0.0
  0
ARC
  5
FED
330
2
100
AcDbEntity
  8
0
100
AcDbCircle
 10
248.5503606274005
 20
312.0365745512672
 30
0.0
 40
30.0
100
AcDbArc
 50
166.1581756815797
 51
185.9290854878616
  0
ARC
  5
FEE
330
2
100
AcDbEntity
  8
0
100
AcDbCircle
 10
214.5667641824938
 20
320.4100548712859
 30
0.0
 40
5.0
100
AcDbArc
 50
346.1581756815797
 51
0.0
  0
ARC
  5
FEF
330
2
100
AcDbEntity
  8
0
100
AcDbCircle
 10
183.5667641824902
 20
416.410054871282
 30
0.0
 40
160.0
100
AcDbArc
 50
264.0709145121236
 51
275.9290854878763
  0
ARC
  5
FF0
330
2
100
AcDbEntity
  8
0
100
AcDbCircle
 10
183.5667641824911
 20
168.410054871282
 30
0.0
 40
160.0
100
AcDbArc
 50
84.07091451212361
 51
95.92908548787638
  0
ARC
  5
FF1
330
2
100
AcDbEntity
  8
0
100
AcDbCircle
 10
214.5667641824938
 20
261.410054871307
 30
0.0
 40
5.0
100
AcDbArc
 50
270.0
 51
0.0
  0
ARC
  5
FF2
330
2
100
AcDbEntity
  8
0
100
AcDbCircle
 10
152.5667641824939
 20
261.4100548713077
 30
0.0
 40
5.0
100
AcDbArc
 50
180.0
 51
270.0
  0
ARC
  5
FF3
330
2
100
AcDbEntity
  8
0
100
AcDbCircle
 10
152.5667641824939
 20
323.4100548713072
 30
0.0
 40
5.0
100
AcDbArc
 50
90.0
 51
180.0
  0
ARC
  5
FF4
330
2
100
AcDbEntity
  8
0
100
AcDbCircle
 10
214.5667641824938
 20
323.410054871307
 30
0.0
 40
5.0
100
AcDbArc
 50
0.0
 51
90.0
  0
LINE
  5
FF5
330
2
100
AcDbEntity
  8
0
100
AcDbLine
 10
147.5667641824939
 20
261.4100548713077
 30
0.0
 11
147.5667641824866
 21
323.4100548713066
 31
0.0
  0
LINE
  5
FF6
330
2
100
AcDbEntity
  8
0
100
AcDbLine
 10
144.5667641824939
 20
269.9100548712827
 30
0.0
 11
136.0667641824929
 21
269.9100548712827
 31
0.0
  0
LINE
  5
FF7
330
2
100
AcDbEntity
  8
0
100
AcDbLine
 10
144.5667641824939
 20
314.9100548712827
 30
0.0
 11
136.0667641824866
 21
314.9100548712827
 31
0.0
  0
ARC
  5
FF8
330
2
100
AcDbEntity
  8
0
100
AcDbCircle
 10
144.5667641824939
 20
266.9100548712827
 30
0.0
 40
3.0
100
AcDbArc
 50
0.0
 51
90.0
  0
LINE
  5
FF9
330
2
100
AcDbEntity
  8
0
100
AcDbLine
 10
133.0667641824929
 20
283.1364363757871
 30
0.0
 11
147.5667641824939
 21
283.1364363757871
 31
0.0
  0
LINE
  5
FFA
330
2
100
AcDbEntity
  8
0
100
AcDbLine
 10
133.066764182492
 20
301.6836733667781
 30
0.0
 11
147.5667641824939
 21
301.6836733667787
 31
0.0
  0
LINE
  5
FFB
330
2
100
AcDbEntity
  8
0
100
AcDbLine
 10
147.0667641824938
 20
283.1364363757871
 30
0.0
 11
147.0667641824938
 21
301.6836733667787
 31
0.0
  0
ARC
  5
FFC
330
2
100
AcDbEntity
  8
0
100
AcDbCircle
 10
131.0667641824929
 20
265.9100548712866
 30
0.0
 40
2.0
100
AcDbArc
 50
270.0
 51
0.0000000000065138
  0
ARC
  5
FFD
330
2
100
AcDbEntity
  8
0
100
AcDbCircle
 10
131.0667641824929
 20
318.9100548712791
 30
0.0
 40
2.0
100
AcDbArc
 50
0.0
 51
90.0
  0
ARC
  5
FFE
330
2
100
AcDbEntity
  8
0
100
AcDbCircle
 10
136.0667641824929
 20
266.9100548712827
 30
0.0
 40
3.0
100
AcDbArc
 50
90.0
 51
180.0
  0
ARC
  5
FFF
330
2
100
AcDbEntity
  8
0
100
AcDbCircle
 10
136.0667641824866
 20
317.9100548712827
 30
0.0
 40
3.0
100
AcDbArc
 50
180.0000000000065
 51
270.0
  0
ARC
  5
1000
330
2
100
AcDbEntity
  8
0
100
AcDbCircle
 10
144.5667641824939
 20
317.9100548712827
 30
0.0
 40
3.0
100
AcDbArc
 50
270.0
 51
0.0
  0
ARC
  5
1001
330
2
100
AcDbEntity
  8
0
100
AcDbCircle
 10
126.5667641824984
 20
260.9100548712863
 30
0.0
 40
3.0
100
AcDbArc
 50
90.0
 51
180.0
  0
ARC
  5
1002
330
2
100
AcDbEntity
  8
0
100
AcDbCircle
 10
126.5667641824984
 20
323.9100548712793
 30
0.0
 40
3.0
100
AcDbArc
 50
180.0
 51
270.0
  0
LINE
  5
1003
330
2
100
AcDbEntity
  8
0
100
AcDbLine
 10
134.0667641824929
 20
264.9100548712868
 30
0.0
 11
144.5667641824939
 21
264.9100548712872
 31
0.0
  0
ARC
  5
1004
330
2
100
AcDbEntity
  8
0
100
AcDbCircle
 10
134.0667641824929
 20
261.9100548712868
 30
0.0
 40
3.0
100
AcDbArc
 50
90.0
 51
126.8698976458049
  0
ARC
  5
1005
330
2
100
AcDbEntity
  8
0
100
AcDbCircle
 10
144.5667641824939
 20
261.9100548712872
 30
0.0
 40
3.0
100
AcDbArc
 50
0.0
 51
90.0
  0
ARC
  5
1006
330
2
100
AcDbEntity
  8
0
100
AcDbCircle
 10
144.5667641824939
 20
322.9100548712784
 30
0.0
 40
3.0
100
AcDbArc
 50
270.0
 51
0.0
  0
LINE
  5
1007
330
2
100
AcDbEntity
  8
0
100
AcDbLine
 10
134.0667641824929
 20
319.9100548712788
 30
0.0
 11
144.5667641824939
 21
319.9100548712784
 31
0.0
  0
ARC
  5
1008
330
2
100
AcDbEntity
  8
0
100
AcDbCircle
 10
134.0667641824929
 20
322.9100548712788
 30
0.0
 40
3.0
100
AcDbArc
 50
233.1301023541299
 51
270.0
  0
LINE
  5
1009
330
2
100
AcDbEntity
  8
0
100
AcDbLine
 10
111.5667641824975
 20
255.9100548712827
 30
0.0
 11
121.5667641824975
 21
255.9100548712827
 31
0.0
  0
ARC
  5
100A
330
2
100
AcDbEntity
  8
0
100
AcDbCircle
 10
121.5667641824975
 20
257.9100548712827
 30
0.0
 40
2.0
100
AcDbArc
 50
270.0
 51
0.0
  0
LINE
  5
100B
330
2
100
AcDbEntity
  8
0
100
AcDbLine
 10
121.5667641824975
 20
328.9100548712827
 30
0.0
 11
111.5667641824975
 21
328.9100548712827
 31
0.0
  0
ARC
  5
100C
330
2
100
AcDbEntity
  8
0
100
AcDbCircle
 10
121.5667641824975
 20
326.9100548712827
 30
0.0
 40
2.0
100
AcDbArc
 50
0.0
 51
90.0
  0
LINE
  5
100D
330
2
100
AcDbEntity
  8
CENTER
100
AcDbLine
 10
263.9241010703885
 20
292.4100548712661
 30
0.0
 11
399.9241010706869
 21
292.4100548712661
 31
0.0
  0
LINE
  5
100E
330
2
100
AcDbEntity
  8
CENTER
100
AcDbLine
 10
326.9241010706837
 20
248.9100548712679
 30
0.0
 11
326.9241010706837
 21
335.9100548712643
 31
0.0
  0
LINE
  5
100F
330
2
100
AcDbEntity
  8
0
100
AcDbLine
 10
364.9241010706846
 20
256.9249400708986
 30
0.0
 11
364.9241010706855
 21
327.8951696716267
 31
0.0
  0
LINE
  5
1010
330
2
100
AcDbEntity
  8
0
100
AcDbLine
 10
369.9241010706837
 20
262.4100548712695
 30
0.0
 11
369.9241010706837
 21
322.4100548712693
 31
0.0
  0
LINE
  5
1011
330
2
100
AcDbEntity
  8
0
100
AcDbLine
 10
364.9241010706837
 20
262.4100548712695
 30
0.0
 11
369.9241010706837
 21
262.4100548712695
 31
0.0
  0
LINE
  5
1012
330
2
100
AcDbEntity
  8
0
100
AcDbLine
 10
364.9241010706837
 20
322.4100548712693
 30
0.0
 11
369.9241010706837
 21
322.4100548712693
 31
0.0
  0
LINE
  5
1013
330
2
100
AcDbEntity
  8
0
100
AcDbLine
 10
382.9241010706873
 20
270.3414324208722
 30
0.0
 11
382.9241010706873
 21
314.4786773216445
 31
0.0
  0
LINE
  5
1014
330
2
100
AcDbEntity
  8
0
100
AcDbLine
 10
371.8543020772822
 20
268.0234889722894
 30
0.0
 11
380.9939000640925
 21
268.3426507668344
 31
0.0
  0
LINE
  5
1015
330
2
100
AcDbEntity
  8
0
100
AcDbLine
 10
371.8543020772822
 20
316.7966207702264
 30
0.0
 11
380.9939000640925
 21
316.4774589756824
 31
0.0
  0
ARC
  5
1016
330
2
100
AcDbEntity
  8
0
100
AcDbCircle
 10
380.9241010706873
 20
270.3414324208722
 30
0.0
 40
2.0
100
AcDbArc
 50
272.0000000000036
 51
0.0
  0
ARC
  5
1017
330
2
100
AcDbEntity
  8
0
100
AcDbCircle
 10
380.9241010706873
 20
314.4786773216445
 30
0.0
 40
2.0
100
AcDbArc
 50
0.0
 51
87.99999999999636
  0
ARC
  5
1018
330
2
100
AcDbEntity
  8
0
100
AcDbCircle
 10
371.9241010706873
 20
318.7954024242642
 30
0.0
 40
2.0
100
AcDbArc
 50
180.0
 51
267.9999999999963
  0
ARC
  5
1019
330
2
100
AcDbEntity
  8
0
100
AcDbCircle
 10
371.9241010706873
 20
266.0247073182516
 30
0.0
 40
2.0
100
AcDbArc
 50
92.00000000000365
 51
180.0
  0
LINE
  5
101A
330
2
100
AcDbEntity
  8
0
100
AcDbLine
 10
305.924101070389
 20
328.4100548712659
 30
0.0
 11
364.9241010706855
 21
327.8951696716267
 31
0.0
  0
LINE
  5
101B
330
2
100
AcDbEntity
  8
0
100
AcDbLine
 10
305.924101070389
 20
256.4100548712661
 30
0.0
 11
364.9241010706846
 21
256.9249400708986
 31
0.0
  0
ARC
  5
101C
330
2
100
AcDbEntity
  8
0
100
AcDbCircle
 10
295.92410107068
 20
261.3410926566533
 30
0.0
 40
5.0
100
AcDbArc
 50
180.0
 51
269.2042764472296
  0
LINE
  5
101D
330
2
100
AcDbEntity
  8
0
100
AcDbLine
 10
295.8546633232272
 20
256.3415748399805
 30
0.0
 11
326.92410107068
 21
255.9100548712679
 31
0.0
  0
LINE
  5
101E
330
2
100
AcDbEntity
  8
0
100
AcDbLine
 10
357.9935388181283
 20
256.3415748399814
 30
0.0
 11
326.9241010706819
 21
255.9100548712679
 31
0.0
  0
ARC
  5
101F
330
2
100
AcDbEntity
  8
0
100
AcDbCircle
 10
357.9241010706746
 20
261.3410926566542
 30
0.0
 40
5.0
100
AcDbArc
 50
270.7957235527183
 51
297.0504175270564
  0
ARC
  5
1020
330
2
100
AcDbEntity
  8
0
100
AcDbCircle
 10
295.92410107068
 20
323.479017085879
 30
0.0
 40
5.0
100
AcDbArc
 50
90.79572355271826
 51
180.0
  0
LINE
  5
1021
330
2
100
AcDbEntity
  8
0
100
AcDbLine
 10
295.8546633232272
 20
328.4785349025517
 30
0.0
 11
326.92410107068
 21
328.9100548712643
 31
0.0
  0
LINE
  5
1022
330
2
100
AcDbEntity
  8
0
100
AcDbLine
 10
290.92410107068
 20
323.479017085879
 30
0.0
 11
290.92410107068
 21
315.410054871267
 31
0.0
  0
LINE
  5
1023
330
2
100
AcDbEntity
  8
0
100
AcDbLine
 10
290.92410107068
 20
269.4100548712654
 30
0.0
 11
290.92410107068
 21
261.3410926566533
 31
0.0
  0
LINE
  5
1024
330
2
100
AcDbEntity
  8
0
100
AcDbLine
 10
357.9935388181283
 20
328.4785349025508
 30
0.0
 11
326.9241010706819
 21
328.9100548712643
 31
0.0
  0
ARC
  5
1025
330
2
100
AcDbEntity
  8
0
100
AcDbCircle
 10
357.9241010706746
 20
323.479017085878
 30
0.0
 40
5.0
100
AcDbArc
 50
62.9495824730018
 51
89.20427644728171
  0
LINE
  5
1026
330
2
100
AcDbEntity
  8
0
100
AcDbLine
 10
305.924101070389
 20
328.4056914373532
 30
0.0
 11
305.924101070389
 21
256.414418305186
 31
0.0
  0
LINE
  5
1027
330
2
100
AcDbEntity
  8
0
100
AcDbLine
 10
297.424101070389
 20
266.9100548712666
 30
0.0
 11
296.924101070389
 21
267.4100548712661
 31
0.0
  0
LINE
  5
1028
330
2
100
AcDbEntity
  8
0
100
AcDbLine
 10
297.4241010703835
 20
266.9100548712715
 30
0.0
 11
297.4241010703835
 21
265.6600548712745
 31
0.0
  0
LINE
  5
1029
330
2
100
AcDbEntity
  8
0
100
AcDbLine
 10
291.6241010703888
 20
270.1100548712655
 30
0.0
 11
293.2241010703883
 21
270.1100548712657
 31
0.0
  0
LINE
  5
102A
330
2
100
AcDbEntity
  8
0
100
AcDbLine
 10
293.424101070389
 20
269.6100548712657
 30
0.0
 11
293.6241010703888
 21
269.4100548712656
 31
0.0
  0
LINE
  5
102B
330
2
100
AcDbEntity
  8
0
100
AcDbLine
 10
296.9241010703835
 20
317.4100548712607
 30
0.0
 11
296.924101070389
 21
267.4100548712661
 31
0.0
  0
LINE
  5
102C
330
2
100
AcDbEntity
  8
0
100
AcDbLine
 10
293.6241010703888
 20
269.4100548712656
 30
0.0
 11
296.924101070389
 21
269.4100548712661
 31
0.0
  0
LINE
  5
102D
330
2
100
AcDbEntity
  8
0
100
AcDbLine
 10
293.424101070389
 20
269.6100548712657
 30
0.0
 11
293.424101070389
 21
315.2100548712667
 31
0.0
  0
LINE
  5
102E
330
2
100
AcDbEntity
  8
0
100
AcDbLine
 10
289.924101070389
 20
269.4100548712652
 30
0.0
 11
288.924101070389
 21
269.9874051404549
 31
0.0
  0
LINE
  5
102F
330
2
100
AcDbEntity
  8
0
100
AcDbLine
 10
289.924101070389
 20
269.4100548712652
 30
0.0
 11
291.2241010703883
 21
269.4100548712656
 31
0.0
  0
LINE
  5
1030
330
2
100
AcDbEntity
  8
0
100
AcDbLine
 10
291.424101070389
 20
269.6100548712655
 30
0.0
 11
291.4241010704399
 21
315.2100548712667
 31
0.0
  0
LINE
  5
1031
330
2
100
AcDbEntity
  8
0
100
AcDbLine
 10
296.9241010703899
 20
312.3053111849884
 30
0.0
 11
296.9241010703899
 21
272.5147985575436
 31
0.0
  0
LINE
  5
1032
330
2
100
AcDbEntity
  8
0
100
AcDbLine
 10
288.924101070389
 20
314.8327046020779
 30
0.0
 11
288.9241010703908
 21
269.987405140454
 31
0.0
  0
LINE
  5
1033
330
2
100
AcDbEntity
  8
0
100
AcDbLine
 10
291.6241010703888
 20
314.7100548712669
 30
0.0
 11
293.2241010703883
 21
314.7100548712667
 31
0.0
  0
LINE
  5
1034
330
2
100
AcDbEntity
  8
0
100
AcDbLine
 10
293.424101070389
 20
315.2100548712667
 30
0.0
 11
293.6241010703888
 21
315.4100548712668
 31
0.0
  0
LINE
  5
1035
330
2
100
AcDbEntity
  8
0
100
AcDbLine
 10
293.6241010703888
 20
315.4100548712668
 30
0.0
 11
296.924101070389
 21
315.4100548712663
 31
0.0
  0
LINE
  5
1036
330
2
100
AcDbEntity
  8
0
100
AcDbLine
 10
289.924101070389
 20
315.410054871267
 30
0.0
 11
288.924101070389
 21
314.8327046020775
 31
0.0
  0
LINE
  5
1037
330
2
100
AcDbEntity
  8
0
100
AcDbLine
 10
289.924101070389
 20
315.410054871267
 30
0.0
 11
291.2241010703883
 21
315.410054871267
 31
0.0
  0
LINE
  5
1038
330
2
100
AcDbEntity
  8
HIDS
  6
SEKKEI_H
100
AcDbLine
 10
298.0098875080111
 20
323.4958413088932
 30
0.0
 11
298.8383146327569
 21
324.3242684336394
 31
0.0
  0
LINE
  5
1039
330
2
100
AcDbEntity
  8
0
100
AcDbLine
 10
305.9240629927289
 20
328.4100547051199
 30
0.0
 11
300.4153745348858
 21
328.3619811092481
 31
0.0
  0
LINE
  5
103A
330
2
100
AcDbEntity
  8
0
100
AcDbLine
 10
305.924101070389
 20
328.4100548712659
 30
0.0
 11
305.924101070389
 21
256.4100548712661
 31
0.0
  0
LINE
  5
103B
330
2
100
AcDbEntity
  8
0
100
AcDbLine
 10
297.424101070389
 20
317.9100548712659
 30
0.0
 11
296.9241010703835
 21
317.4100548712607
 31
0.0
  0
ARC
  5
103C
330
2
100
AcDbEntity
  8
0
100
AcDbCircle
 10
300.4241010703835
 20
327.4100548712661
 30
0.0
 40
1.0
100
AcDbArc
 50
180.0
 51
180.0
  0
ARC
  5
103D
330
2
100
AcDbEntity
  8
HIDS
  6
SEKKEI_H
100
AcDbCircle
 10
299.4241010703835
 20
322.0816277465201
 30
0.0
 40
2.0
100
AcDbArc
 50
135.0000000000092
 51
180.0
  0
ARC
  5
103E
330
2
100
AcDbEntity
  8
HIDS
  6
SEKKEI_H
100
AcDbCircle
 10
297.4241010703835
 20
325.7384819960126
 30
0.0
 40
2.0
100
AcDbArc
 50
315.0000000000092
 51
0.0
  0
ARC
  5
103F
330
2
100
AcDbEntity
  8
0
100
AcDbCircle
 10
291.2241010703883
 20
315.2100548712667
 30
0.0
 40
0.2
100
AcDbArc
 50
359.9999999999348
 51
90.0
  0
ARC
  5
1040
330
2
100
AcDbEntity
  8
0
100
AcDbCircle
 10
291.6241010703888
 20
314.910054871267
 30
0.0
 40
0.2
100
AcDbArc
 50
180.0000000000651
 51
270.0
  0
ARC
  5
1041
330
2
100
AcDbEntity
  8
0
100
AcDbCircle
 10
293.2241010703883
 20
314.9100548712668
 30
0.0
 40
0.2
100
AcDbArc
 50
270.0
 51
0.0
  0
ARC
  5
1042
330
2
100
AcDbEntity
  8
0
100
AcDbCircle
 10
291.2241010703883
 20
269.6100548712655
 30
0.0
 40
0.2
100
AcDbArc
 50
270.0
 51
359.9999999999348
  0
ARC
  5
1043
330
2
100
AcDbEntity
  8
0
100
AcDbCircle
 10
291.6241010703888
 20
269.9100548712654
 30
0.0
 40
0.2
100
AcDbArc
 50
90.0
 51
179.9999999999348
  0
ARC
  5
1044
330
2
100
AcDbEntity
  8
0
100
AcDbCircle
 10
293.2241010703883
 20
269.9100548712656
 30
0.0
 40
0.2
100
AcDbArc
 50
0.0
 51
90.0
  0
LINE
  5
1045
330
2
100
AcDbEntity
  8
HIDS
  6
SEKKEI_H
100
AcDbLine
 10
298.0098875080111
 20
261.324268433639
 30
0.0
 11
298.8383146327578
 21
260.4958413088928
 31
0.0
  0
LINE
  5
1046
330
2
100
AcDbEntity
  8
0
100
AcDbLine
 10
305.9240629927289
 20
256.4100550374124
 30
0.0
 11
300.4153745348858
 21
256.4581286332846
 31
0.0
  0
LINE
  5
1047
330
2
100
AcDbEntity
  8
0
100
AcDbLine
 10
299.4241010703845
 20
327.6600548712572
 30
0.0
 11
299.4241010703845
 21
257.1600548712745
 31
0.0
  0
ARC
  5
1048
330
2
100
AcDbEntity
  8
0
100
AcDbCircle
 10
300.4241010703844
 20
257.4580905563485
 30
0.0
 40
1.0
100
AcDbArc
 50
180.0
 51
269.4999999999824
  0
ARC
  5
1049
330
2
100
AcDbEntity
  8
0
100
AcDbCircle
 10
300.4241010703844
 20
327.3620191861837
 30
0.0
 40
1.0
100
AcDbArc
 50
90.50000000001761
 51
180.0
  0
LINE
  5
104A
330
2
100
AcDbEntity
  8
0
100
AcDbLine
 10
297.4241010703845
 20
319.1600548712577
 30
0.0
 11
297.4241010703845
 21
265.6600548712745
 31
0.0
  0
ARC
  5
104B
330
2
100
AcDbEntity
  8
HIDS
  6
SEKKEI_H
100
AcDbCircle
 10
299.4241010703845
 20
262.7384819960121
 30
0.0
 40
2.0
100
AcDbArc
 50
180.0
 51
224.9999999999908
  0
ARC
  5
104C
330
2
100
AcDbEntity
  8
HIDS
  6
SEKKEI_H
100
AcDbCircle
 10
297.4241010703845
 20
259.0816277465197
 30
0.0
 40
2.0
100
AcDbArc
 50
0.0
 51
44.99999999999078
  0
LINE
  5
104D
330
2
100
AcDbEntity
  8
0
100
AcDbLine
 10
364.9241010706855
 20
320.4100548712795
 30
0.0
 11
305.924101070389
 21
320.4100548712795
 31
0.0
  0
LINE
  5
104E
330
2
100
AcDbEntity
  8
0
100
AcDbLine
 10
364.9241010706855
 20
323.4100548712577
 30
0.0
 11
305.924101070389
 21
323.4100548712577
 31
0.0
  0
LINE
  5
104F
330
2
100
AcDbEntity
  8
0
100
AcDbLine
 10
364.9241010706855
 20
308.9376503912625
 30
0.0
 11
305.924101070389
 21
308.9376503912625
 31
0.0
  0
LINE
  5
1050
330
2
100
AcDbEntity
  8
0
100
AcDbLine
 10
305.924101070389
 20
320.4100548712795
 30
0.0
 11
300.4153745348858
 21
320.4100548712795
 31
0.0
  0
LINE
  5
1051
330
2
100
AcDbEntity
  8
0
100
AcDbLine
 10
305.924101070389
 20
308.9376503912625
 30
0.0
 11
300.4153745348858
 21
308.9376503912623
 31
0.0
  0
LINE
  5
1052
330
2
100
AcDbEntity
  8
0
100
AcDbLine
 10
305.924101070389
 20
261.4100548712745
 30
0.0
 11
300.4153745348858
 21
261.4100548712745
 31
0.0
  0
LINE
  5
1053
330
2
100
AcDbEntity
  8
0
100
AcDbLine
 10
305.924101070389
 20
264.4100548712527
 30
0.0
 11
300.4153745348858
 21
264.4100548712527
 31
0.0
  0
LINE
  5
1054
330
2
100
AcDbEntity
  8
0
100
AcDbLine
 10
305.924101070389
 20
275.8824593512698
 30
0.0
 11
300.4153745348858
 21
275.8824593512699
 31
0.0
  0
LINE
  5
1055
330
2
100
AcDbEntity
  8
0
100
AcDbLine
 10
364.9241010706855
 20
264.4100548712527
 30
0.0
 11
305.924101070389
 21
264.4100548712527
 31
0.0
  0
LINE
  5
1056
330
2
100
AcDbEntity
  8
0
100
AcDbLine
 10
364.9241010706855
 20
261.4100548712745
 30
0.0
 11
305.924101070389
 21
261.4100548712745
 31
0.0
  0
LINE
  5
1057
330
2
100
AcDbEntity
  8
0
100
AcDbLine
 10
364.9241010706855
 20
275.8824593512698
 30
0.0
 11
305.924101070389
 21
275.8824593512698
 31
0.0
  0
LINE
  5
1058
330
2
100
AcDbEntity
  8
CENTER
100
AcDbLine
 10
221.8167641824929
 20
323.4100548712836
 30
0.0
 11
207.3167641824929
 21
323.4100548712829
 31
0.0
  0
LINE
  5
1059
330
2
100
AcDbEntity
  8
CENTER
100
AcDbLine
 10
214.566764182492
 20
330.6600548712834
 30
0.0
 11
214.566764182493
 21
316.1600548712832
 31
0.0
  0
LINE
  5
105A
330
2
100
AcDbEntity
  8
CENTER
100
AcDbLine
 10
145.3167641824948
 20
323.4100548712841
 30
0.0
 11
159.8167641824957
 21
323.4100548712834
 31
0.0
  0
LINE
  5
105B
330
2
100
AcDbEntity
  8
CENTER
100
AcDbLine
 10
146.8935591017361
 20
316.9100548712815
 30
0.0
 11
157.2399692632507
 21
316.910054871282
 31
0.0
  0
LINE
  5
105C
330
2
100
AcDbEntity
  8
CENTER
100
AcDbLine
 10
152.0667641824929
 20
322.0832599520388
 30
0.0
 11
152.0667641824938
 21
311.7368497905248
 31
0.0
  0
CIRCLE
  5
105D
330
2
100
AcDbEntity
  8
HOJO
100
AcDbCircle
 10
152.0667641824938
 20
316.9100548712818
 30
0.0
 40
2.0
  0
LINE
  5
105E
330
2
100
AcDbEntity
  8
CENTER
100
AcDbLine
 10
221.8167641824939
 20
261.4100548712829
 30
0.0
 11
207.3167641824939
 21
261.4100548712829
 31
0.0
  0
LINE
  5
105F
330
2
100
AcDbEntity
  8
CENTER
100
AcDbLine
 10
220.2399692632516
 20
267.9100548712832
 30
0.0
 11
209.8935591017371
 21
267.9100548712832
 31
0.0
  0
CIRCLE
  5
1060
330
2
100
AcDbEntity
  8
HOJO
100
AcDbCircle
 10
215.0667641824938
 20
267.9100548712832
 30
0.0
 40
2.0
  0
LINE
  5
1061
330
2
100
AcDbEntity
  8
CENTER
100
AcDbLine
 10
214.5667641824938
 20
254.1600548712827
 30
0.0
 11
214.5667641824938
 21
268.6600548712829
 31
0.0
  0
LINE
  5
1062
330
2
100
AcDbEntity
  8
CENTER
100
AcDbLine
 10
215.0667641824938
 20
262.7368497905261
 30
0.0
 11
215.0667641824938
 21
273.0832599520402
 31
0.0
  0
LINE
  5
1063
330
2
100
AcDbEntity
  8
CENTER
100
AcDbLine
 10
145.3167641824939
 20
261.410054871282
 30
0.0
 11
159.8167641824948
 21
261.4100548712825
 31
0.0
  0
ARC
  5
1064
330
2
100
AcDbEntity
  8
0
100
AcDbCircle
 10
152.9367641824937
 20
323.4100548712829
 30
0.0
 40
5.0
100
AcDbArc
 50
90.0
 51
180.0
  0
LINE
  5
1065
330
2
100
AcDbEntity
  8
0
100
AcDbLine
 10
155.5667641824948
 20
328.4100548712829
 30
0.0
 11
152.9367641824937
 21
328.4100548712829
 31
0.0
  0
LINE
  5
1066
330
2
100
AcDbEntity
  8
0
100
AcDbLine
 10
166.6403573113011
 20
261.9100548712827
 30
0.0
 11
200.4931710536866
 21
261.9100548712827
 31
0.0
  0
LINE
  5
1067
330
2
100
AcDbEntity
  8
0
100
AcDbLine
 10
166.6403573113011
 20
259.9100548712827
 30
0.0
 11
200.4931710536866
 21
259.9100548712825
 31
0.0
  0
CIRCLE
  5
1068
330
2
100
AcDbEntity
  8
0
100
AcDbCircle
 10
183.5667641824938
 20
292.4100548712829
 30
0.0
 40
25.5
  0
CIRCLE
  5
1069
330
2
100
AcDbEntity
  8
0
100
AcDbCircle
 10
183.5667641824938
 20
292.4100548712829
 30
0.0
 40
25.0
  0
CIRCLE
  5
106A
330
2
100
AcDbEntity
  8
0
100
AcDbCircle
 10
183.5667641824938
 20
292.4100548712829
 30
0.0
 40
22.42259999999999
  0
CIRCLE
  5
106B
330
2
100
AcDbEntity
  8
0
100
AcDbCircle
 10
183.5667641824938
 20
292.4100548712829
 30
0.0
 40
23.0
  0
CIRCLE
  5
106C
330
2
100
AcDbEntity
  8
0
100
AcDbCircle
 10
183.5667641824938
 20
292.4100548712829
 30
0.0
 40
19.5774
  0
CIRCLE
  5
106D
330
2
100
AcDbEntity
  8
0
100
AcDbCircle
 10
183.5667641824938
 20
292.4100548712829
 30
0.0
 40
19.0
  0
LINE
  5
106E
330
2
100
AcDbEntity
  8
0
100
AcDbLine
 10
214.0667641824947
 20
275.4836480000904
 30
0.0
 11
214.0667641824947
 21
309.3364617424754
 31
0.0
  0
LINE
  5
106F
330
2
100
AcDbEntity
  8
0
100
AcDbLine
 10
216.0667641824947
 20
275.4836480000904
 30
0.0
 11
216.0667641824947
 21
309.3364617424754
 31
0.0
  0
CIRCLE
  5
1070
330
2
100
AcDbEntity
  8
0
100
AcDbCircle
 10
215.0667641824938
 20
267.9100548712832
 30
0.0
 40
1.6
  0
LINE
  5
1071
330
2
100
AcDbEntity
  8
0
100
AcDbLine
 10
153.0667641824939
 20
309.3364617424754
 30
0.0
 11
153.0667641824939
 21
275.4836480000904
 31
0.0
  0
LINE
  5
1072
330
2
100
AcDbEntity
  8
0
100
AcDbLine
 10
151.0667641824938
 20
309.3364617424754
 30
0.0
 11
151.0667641824938
 21
275.4836480000904
 31
0.0
  0
LINE
  5
1073
330
2
100
AcDbEntity
  8
0
100
AcDbLine
 10
147.9367641824956
 20
261.4100548712827
 30
0.0
 11
147.9367641824937
 21
323.4100548712827
 31
0.0
  0
CIRCLE
  5
1074
330
2
100
AcDbEntity
  8
0
100
AcDbCircle
 10
152.0667641824938
 20
316.9100548712818
 30
0.0
 40
1.6
  0
ARC
  5
1075
330
2
100
AcDbEntity
  8
0
100
AcDbCircle
 10
152.9367641824956
 20
261.4100548712829
 30
0.0
 40
5.0
100
AcDbArc
 50
180.0
 51
270.0
  0
LINE
  5
1076
330
2
100
AcDbEntity
  8
0
100
AcDbLine
 10
155.5667641824948
 20
256.4100548712829
 30
0.0
 11
152.9367641824956
 21
256.4100548712829
 31
0.0
  0
LINE
  5
1077
330
2
100
AcDbEntity
  8
0
100
AcDbLine
 10
212.6022980884272
 20
271.9481140941575
 30
0.0
 11
204.0287049596199
 21
263.3745209653501
 31
0.0
  0
ARC
  5
1078
330
2
100
AcDbEntity
  8
0
100
AcDbCircle
 10
209.0667641824938
 20
275.4836480000904
 30
0.0
 40
5.0
100
AcDbArc
 50
315.0000000000092
 51
0.0
  0
ARC
  5
1079
330
2
100
AcDbEntity
  8
0
100
AcDbCircle
 10
200.4931710536866
 20
266.9100548712827
 30
0.0
 40
5.0
100
AcDbArc
 50
270.0
 51
315.0000000000092
  0
LINE
  5
107A
330
2
100
AcDbEntity
  8
0
100
AcDbLine
 10
214.0165116508005
 20
270.5339005317844
 30
0.0
 11
205.4429185219924
 21
261.9603074029769
 31
0.0
  0
ARC
  5
107B
330
2
100
AcDbEntity
  8
0
100
AcDbCircle
 10
209.0667641824938
 20
275.4836480000904
 30
0.0
 40
7.0
100
AcDbArc
 50
315.0000000000092
 51
0.0
  0
ARC
  5
107C
330
2
100
AcDbEntity
  8
0
100
AcDbCircle
 10
200.4931710536866
 20
266.9100548712827
 30
0.0
 40
7.0
100
AcDbArc
 50
270.0
 51
315.0000000000092
  0
ARC
  5
107D
330
2
100
AcDbEntity
  8
0
100
AcDbCircle
 10
158.0667641824939
 20
275.4836480000904
 30
0.0
 40
7.0
100
AcDbArc
 50
180.0
 51
224.9999999999908
  0
LINE
  5
107E
330
2
100
AcDbEntity
  8
0
100
AcDbLine
 10
153.1170167141881
 20
270.5339005317844
 30
0.0
 11
161.6906098429963
 21
261.9603074029769
 31
0.0
  0
LINE
  5
107F
330
2
100
AcDbEntity
  8
0
100
AcDbLine
 10
154.5312302765614
 20
271.9481140941575
 30
0.0
 11
163.1048234053687
 21
263.3745209653501
 31
0.0
  0
ARC
  5
1080
330
2
100
AcDbEntity
  8
0
100
AcDbCircle
 10
166.6403573113011
 20
266.9100548712827
 30
0.0
 40
7.0
100
AcDbArc
 50
224.9999999999908
 51
270.0
  0
ARC
  5
1081
330
2
100
AcDbEntity
  8
0
100
AcDbCircle
 10
166.6403573113011
 20
266.9100548712827
 30
0.0
 40
5.0
100
AcDbArc
 50
224.9999999999908
 51
270.0
  0
ARC
  5
1082
330
2
100
AcDbEntity
  8
0
100
AcDbCircle
 10
158.0667641824939
 20
275.4836480000904
 30
0.0
 40
5.0
100
AcDbArc
 50
180.0
 51
224.9999999999908
  0
ARC
  5
1083
330
2
100
AcDbEntity
  8
0
100
AcDbCircle
 10
200.4931710536866
 20
317.9100548712832
 30
0.0
 40
7.0
100
AcDbArc
 50
44.99999999999078
 51
90.0
  0
ARC
  5
1084
330
2
100
AcDbEntity
  8
0
100
AcDbCircle
 10
200.4931710536866
 20
317.9100548712832
 30
0.0
 40
5.0
100
AcDbArc
 50
44.99999999999078
 51
90.0
  0
LINE
  5
1085
330
2
100
AcDbEntity
  8
0
100
AcDbLine
 10
166.6403573113011
 20
324.9100548712829
 30
0.0
 11
200.4931710536866
 21
324.9100548712831
 31
0.0
  0
LINE
  5
1086
330
2
100
AcDbEntity
  8
0
100
AcDbLine
 10
166.6403573113011
 20
322.9100548712829
 30
0.0
 11
200.4931710536866
 21
322.9100548712829
 31
0.0
  0
ARC
  5
1087
330
2
100
AcDbEntity
  8
0
100
AcDbCircle
 10
166.6403573113011
 20
317.9100548712832
 30
0.0
 40
5.0
100
AcDbArc
 50
90.0
 51
135.0000000000092
  0
ARC
  5
1088
330
2
100
AcDbEntity
  8
0
100
AcDbCircle
 10
166.6403573113011
 20
317.9100548712832
 30
0.0
 40
7.0
100
AcDbArc
 50
90.0
 51
135.0000000000092
  0
LINE
  5
1089
330
2
100
AcDbEntity
  8
0
100
AcDbLine
 10
154.5312302765614
 20
312.8719956484081
 30
0.0
 11
163.1048234053687
 21
321.4455887772156
 31
0.0
  0
LINE
  5
108A
330
2
100
AcDbEntity
  8
0
100
AcDbLine
 10
153.1170167141881
 20
314.2862092107812
 30
0.0
 11
161.6906098429963
 21
322.8598023395887
 31
0.0
  0
ARC
  5
108B
330
2
100
AcDbEntity
  8
0
100
AcDbCircle
 10
158.0667641824939
 20
309.3364617424754
 30
0.0
 40
5.0
100
AcDbArc
 50
135.0000000000092
 51
180.0
  0
ARC
  5
108C
330
2
100
AcDbEntity
  8
0
100
AcDbCircle
 10
158.0667641824939
 20
309.3364617424754
 30
0.0
 40
7.0
100
AcDbArc
 50
135.0000000000092
 51
180.0
  0
ARC
  5
108D
330
2
100
AcDbEntity
  8
0
100
AcDbCircle
 10
209.0667641824938
 20
309.3364617424754
 30
0.0
 40
7.0
100
AcDbArc
 50
0.0
 51
44.99999999999078
  0
ARC
  5
108E
330
2
100
AcDbEntity
  8
0
100
AcDbCircle
 10
209.0667641824938
 20
309.3364617424754
 30
0.0
 40
5.0
100
AcDbArc
 50
0.0
 51
44.99999999999078
  0
LINE
  5
108F
330
2
100
AcDbEntity
  8
0
100
AcDbLine
 10
212.6022980884272
 20
312.8719956484083
 30
0.0
 11
204.0287049596199
 21
321.4455887772156
 31
0.0
  0
LINE
  5
1090
330
2
100
AcDbEntity
  8
0
100
AcDbLine
 10
214.0165116508005
 20
314.2862092107812
 30
0.0
 11
205.4429185219924
 21
322.8598023395889
 31
0.0
  0
LINE
  5
1091
330
2
100
AcDbEntity
  8
CENTER
100
AcDbLine
 10
221.6378319943719
 20
330.4811226831601
 30
0.0
 11
145.4956963706413
 21
254.3389870594294
 31
0.0
  0
LINE
  5
1092
330
2
100
AcDbEntity
  8
CENTER
100
AcDbLine
 10
152.5667641824948
 20
254.1600548712825
 30
0.0
 11
152.5667641824948
 21
268.6600548712827
 31
0.0
  0
LINE
  5
1093
330
2
100
AcDbEntity
  8
CENTER
100
AcDbLine
 10
152.5667641824957
 20
330.6600548712832
 30
0.0
 11
152.5667641824948
 21
316.1600548712827
 31
0.0
  0
LINE
  5
1094
330
2
100
AcDbEntity
  8
0
100
AcDbLine
 10
202.4065882155127
 20
262.2906572087261
 30
0.0
 11
203.1719550802427
 21
260.4428981437036
 31
0.0
  0
LINE
  5
1095
330
2
100
AcDbEntity
  8
0
100
AcDbLine
 10
213.6861618450511
 20
273.5702308382649
 30
0.0
 11
215.5339209100739
 21
272.8048639735348
 31
0.0
  0
LINE
  5
1096
330
2
100
AcDbEntity
  8
0
100
AcDbLine
 10
213.6861618450511
 20
311.2498789043009
 30
0.0
 11
215.5339209100739
 21
312.0152457690311
 31
0.0
  0
LINE
  5
1097
330
2
100
AcDbEntity
  8
0
100
AcDbLine
 10
202.4065882155127
 20
322.5294525338395
 30
0.0
 11
203.1719550802427
 21
324.377211598862
 31
0.0
  0
LINE
  5
1098
330
2
100
AcDbEntity
  8
0
100
AcDbLine
 10
153.4473665199375
 20
273.5702308382647
 30
0.0
 11
151.5996074549148
 21
272.8048639735344
 31
0.0
  0
LINE
  5
1099
330
2
100
AcDbEntity
  8
0
100
AcDbLine
 10
164.7269401494759
 20
262.2906572087261
 30
0.0
 11
163.961573284746
 21
260.4428981437034
 31
0.0
  0
LINE
  5
109A
330
2
100
AcDbEntity
  8
0
100
AcDbLine
 10
153.4473665199375
 20
311.2498789043007
 30
0.0
 11
151.5996074549148
 21
312.0152457690308
 31
0.0
  0
LINE
  5
109B
330
2
100
AcDbEntity
  8
0
100
AcDbLine
 10
164.7269401494759
 20
322.5294525338393
 30
0.0
 11
163.961573284746
 21
324.3772115988618
 31
0.0
  0
LINE
  5
109C
330
2
100
AcDbEntity
  8
CENTER
100
AcDbLine
 10
145.4956963706158
 20
330.4811226831601
 30
0.0
 11
221.6378319943473
 21
254.3389870594299
 31
0.0
  0
LINE
  5
109D
330
2
100
AcDbEntity
  8
0
100
AcDbLine
 10
216.566764182493
 20
322.2553543329023
 30
0.0
 11
214.566764182493
 21
321.1006537945229
 31
0.0
  0
CIRCLE
  5
109E
330
2
100
AcDbEntity
  8
0
100
AcDbCircle
 10
214.566764182493
 20
323.4100548712813
 30
0.0
 40
4.250000000000085
  0
CIRCLE
  5
109F
330
2
100
AcDbEntity
  8
0
100
AcDbCircle
 10
214.566764182493
 20
323.4100548712813
 30
0.0
 40
3.730384757729268
  0
LINE
  5
10A0
330
2
100
AcDbEntity
  8
0
100
AcDbLine
 10
214.566764182492
 20
325.7194559480397
 30
0.0
 11
216.566764182493
 21
324.5647554096606
 31
0.0
  0
LINE
  5
10A1
330
2
100
AcDbEntity
  8
0
100
AcDbLine
 10
212.566764182493
 20
324.5647554096606
 30
0.0
 11
212.566764182493
 21
322.255354332902
 31
0.0
  0
LINE
  5
10A2
330
2
100
AcDbEntity
  8
0
100
AcDbLine
 10
212.566764182493
 20
322.255354332902
 30
0.0
 11
214.566764182492
 21
321.1006537945229
 31
0.0
  0
LINE
  5
10A3
330
2
100
AcDbEntity
  8
0
100
AcDbLine
 10
214.566764182492
 20
325.7194559480399
 30
0.0
 11
212.566764182493
 21
324.5647554096606
 31
0.0
  0
LINE
  5
10A4
330
2
100
AcDbEntity
  8
0
100
AcDbLine
 10
216.566764182493
 20
324.5647554096606
 30
0.0
 11
216.566764182493
 21
322.2553543329023
 31
0.0
  0
LINE
  5
10A5
330
2
100
AcDbEntity
  8
0
100
AcDbLine
 10
216.5667641824938
 20
260.2553543329038
 30
0.0
 11
214.5667641824938
 21
259.1006537945245
 31
0.0
  0
CIRCLE
  5
10A6
330
2
100
AcDbEntity
  8
0
100
AcDbCircle
 10
214.5667641824938
 20
261.4100548712829
 30
0.0
 40
4.250000000000085
  0
CIRCLE
  5
10A7
330
2
100
AcDbEntity
  8
0
100
AcDbCircle
 10
214.5667641824938
 20
261.4100548712829
 30
0.0
 40
3.730384757729268
  0
LINE
  5
10A8
330
2
100
AcDbEntity
  8
0
100
AcDbLine
 10
214.5667641824938
 20
263.7194559480413
 30
0.0
 11
216.5667641824938
 21
262.5647554096622
 31
0.0
  0
LINE
  5
10A9
330
2
100
AcDbEntity
  8
0
100
AcDbLine
 10
212.5667641824938
 20
262.5647554096622
 30
0.0
 11
212.5667641824938
 21
260.2553543329036
 31
0.0
  0
LINE
  5
10AA
330
2
100
AcDbEntity
  8
0
100
AcDbLine
 10
212.5667641824938
 20
260.2553543329036
 30
0.0
 11
214.5667641824938
 21
259.1006537945245
 31
0.0
  0
LINE
  5
10AB
330
2
100
AcDbEntity
  8
0
100
AcDbLine
 10
214.5667641824938
 20
263.7194559480415
 30
0.0
 11
212.5667641824938
 21
262.5647554096622
 31
0.0
  0
LINE
  5
10AC
330
2
100
AcDbEntity
  8
0
100
AcDbLine
 10
216.5667641824938
 20
262.5647554096622
 30
0.0
 11
216.5667641824938
 21
260.2553543329038
 31
0.0
  0
LINE
  5
10AD
330
2
100
AcDbEntity
  8
0
100
AcDbLine
 10
150.5667641824957
 20
322.2553543329023
 30
0.0
 11
152.5667641824957
 21
321.1006537945229
 31
0.0
  0
CIRCLE
  5
10AE
330
2
100
AcDbEntity
  8
0
100
AcDbCircle
 10
152.5667641824957
 20
323.4100548712813
 30
0.0
 40
4.250000000000085
  0
CIRCLE
  5
10AF
330
2
100
AcDbEntity
  8
0
100
AcDbCircle
 10
152.5667641824957
 20
323.4100548712813
 30
0.0
 40
3.730384757729268
  0
LINE
  5
10B0
330
2
100
AcDbEntity
  8
0
100
AcDbLine
 10
152.5667641824957
 20
325.7194559480397
 30
0.0
 11
150.5667641824957
 21
324.5647554096606
 31
0.0
  0
LINE
  5
10B1
330
2
100
AcDbEntity
  8
0
100
AcDbLine
 10
154.5667641824957
 20
324.5647554096606
 30
0.0
 11
154.5667641824957
 21
322.255354332902
 31
0.0
  0
LINE
  5
10B2
330
2
100
AcDbEntity
  8
0
100
AcDbLine
 10
154.5667641824957
 20
322.255354332902
 30
0.0
 11
152.5667641824957
 21
321.1006537945229
 31
0.0
  0
LINE
  5
10B3
330
2
100
AcDbEntity
  8
0
100
AcDbLine
 10
152.5667641824957
 20
325.7194559480399
 30
0.0
 11
154.5667641824957
 21
324.5647554096606
 31
0.0
  0
LINE
  5
10B4
330
2
100
AcDbEntity
  8
0
100
AcDbLine
 10
150.5667641824957
 20
324.5647554096606
 30
0.0
 11
150.5667641824957
 21
322.2553543329023
 31
0.0
  0
LINE
  5
10B5
330
2
100
AcDbEntity
  8
0
100
AcDbLine
 10
150.5667641824939
 20
260.2553543329038
 30
0.0
 11
152.5667641824939
 21
259.1006537945245
 31
0.0
  0
CIRCLE
  5
10B6
330
2
100
AcDbEntity
  8
0
100
AcDbCircle
 10
152.5667641824939
 20
261.4100548712829
 30
0.0
 40
4.250000000000085
  0
CIRCLE
  5
10B7
330
2
100
AcDbEntity
  8
0
100
AcDbCircle
 10
152.5667641824939
 20
261.4100548712829
 30
0.0
 40
3.730384757729268
  0
LINE
  5
10B8
330
2
100
AcDbEntity
  8
0
100
AcDbLine
 10
152.5667641824939
 20
263.7194559480413
 30
0.0
 11
150.5667641824939
 21
262.5647554096622
 31
0.0
  0
LINE
  5
10B9
330
2
100
AcDbEntity
  8
0
100
AcDbLine
 10
154.5667641824939
 20
262.5647554096622
 30
0.0
 11
154.5667641824939
 21
260.2553543329036
 31
0.0
  0
LINE
  5
10BA
330
2
100
AcDbEntity
  8
0
100
AcDbLine
 10
154.5667641824939
 20
260.2553543329036
 30
0.0
 11
152.5667641824939
 21
259.1006537945245
 31
0.0
  0
LINE
  5
10BB
330
2
100
AcDbEntity
  8
0
100
AcDbLine
 10
152.5667641824939
 20
263.7194559480415
 30
0.0
 11
154.5667641824939
 21
262.5647554096622
 31
0.0
  0
LINE
  5
10BC
330
2
100
AcDbEntity
  8
0
100
AcDbLine
 10
150.5667641824939
 20
262.5647554096622
 30
0.0
 11
150.5667641824939
 21
260.2553543329038
 31
0.0
  0
LINE
  5
10BD
330
2
100
AcDbEntity
  8
CENTER
  6
CENS
100
AcDbLine
 10
290.1241010703888
 20
323.4100548712836
 30
0.0
 11
309.6728025509855
 21
323.4100548712836
 31
0.0
  0
LINE
  5
10BE
330
2
100
AcDbEntity
  8
0
100
AcDbLine
 10
293.424101070389
 20
327.6600548712577
 30
0.0
 11
299.4241010703845
 21
327.6600548712572
 31
0.0
  0
LINE
  5
10BF
330
2
100
AcDbEntity
  8
0
100
AcDbLine
 10
293.424101070389
 20
319.1600548712577
 30
0.0
 11
299.424101070389
 21
319.1600548712577
 31
0.0
  0
LINE
  5
10C0
330
2
100
AcDbEntity
  8
0
100
AcDbLine
 10
298.1241010703888
 20
319.1600548712577
 30
0.0
 11
298.1241010703888
 21
327.6600548712577
 31
0.0
  0
LINE
  5
10C1
330
2
100
AcDbEntity
  8
0
100
AcDbLine
 10
293.424101070389
 20
319.1600548712577
 30
0.0
 11
293.424101070389
 21
327.6600548712577
 31
0.0
  0
LINE
  5
10C2
330
2
100
AcDbEntity
  8
0
100
AcDbLine
 10
293.424101070389
 20
319.1600548712577
 30
0.0
 11
293.1241010703888
 21
319.6796701135281
 31
0.0
  0
LINE
  5
10C3
330
2
100
AcDbEntity
  8
0
100
AcDbLine
 10
293.424101070389
 20
327.6600548712577
 30
0.0
 11
293.1241010703888
 21
327.1404396289868
 31
0.0
  0
LINE
  5
10C4
330
2
100
AcDbEntity
  8
0
100
AcDbLine
 10
293.1241010703888
 20
319.6796701135281
 30
0.0
 11
293.1241010703888
 21
327.1404396289868
 31
0.0
  0
LINE
  5
10C5
330
2
100
AcDbEntity
  8
HIDS
  6
SEKKEI_H
100
AcDbLine
 10
297.4241010703835
 20
322.0816277465201
 30
0.0
 11
297.4241010703845
 21
319.1600548712577
 31
0.0
  0
LINE
  5
10C6
330
2
100
AcDbEntity
  8
CENTER
  6
CENS
100
AcDbLine
 10
290.1241010703888
 20
261.4100548712486
 30
0.0
 11
309.6728025509855
 21
261.4100548712486
 31
0.0
  0
LINE
  5
10C7
330
2
100
AcDbEntity
  8
0
100
AcDbLine
 10
293.424101070389
 20
257.1600548712745
 30
0.0
 11
299.4241010703845
 21
257.1600548712745
 31
0.0
  0
LINE
  5
10C8
330
2
100
AcDbEntity
  8
0
100
AcDbLine
 10
293.424101070389
 20
265.6600548712745
 30
0.0
 11
299.424101070389
 21
265.6600548712745
 31
0.0
  0
LINE
  5
10C9
330
2
100
AcDbEntity
  8
0
100
AcDbLine
 10
298.1241010703888
 20
265.6600548712745
 30
0.0
 11
298.1241010703888
 21
257.1600548712745
 31
0.0
  0
LINE
  5
10CA
330
2
100
AcDbEntity
  8
0
100
AcDbLine
 10
293.424101070389
 20
265.6600548712745
 30
0.0
 11
293.424101070389
 21
257.1600548712745
 31
0.0
  0
LINE
  5
10CB
330
2
100
AcDbEntity
  8
0
100
AcDbLine
 10
293.424101070389
 20
265.6600548712745
 30
0.0
 11
293.1241010703888
 21
265.1404396290041
 31
0.0
  0
LINE
  5
10CC
330
2
100
AcDbEntity
  8
0
100
AcDbLine
 10
293.424101070389
 20
257.1600548712745
 30
0.0
 11
293.1241010703888
 21
257.6796701135454
 31
0.0
  0
LINE
  5
10CD
330
2
100
AcDbEntity
  8
0
100
AcDbLine
 10
293.1241010703888
 20
265.1404396290041
 30
0.0
 11
293.1241010703888
 21
257.6796701135454
 31
0.0
  0
LINE
  5
10CE
330
2
100
AcDbEntity
  8
HIDS
  6
SEKKEI_H
100
AcDbLine
 10
297.4241010703845
 20
265.6600548712745
 30
0.0
 11
297.4241010703845
 21
262.7384819960121
 31
0.0
  0
LINE
  5
10CF
330
2
100
AcDbEntity
  8
0
100
AcDbLine
 10
517.9581073565705
 20
522.1359443484068
 30
0.0
 11
446.3357350141004
 21
522.1359443484068
 31
0.0
  0
LINE
  5
10D0
330
2
100
AcDbEntity
  8
0
100
AcDbLine
 10
456.8313715801805
 20
530.6359443484073
 30
0.0
 11
457.3313715801805
 21
531.1359443484071
 31
0.0
  0
LINE
  5
10D1
330
2
100
AcDbEntity
  8
0
100
AcDbLine
 10
456.831371580186
 20
530.6359443484122
 30
0.0
 11
455.5813715801887
 21
530.6359443484122
 31
0.0
  0
LINE
  5
10D2
330
2
100
AcDbEntity
  8
0
100
AcDbLine
 10
460.0313715801794
 20
536.4359443484074
 30
0.0
 11
460.0313715801794
 21
534.8359443484075
 31
0.0
  0
LINE
  5
10D3
330
2
100
AcDbEntity
  8
0
100
AcDbLine
 10
459.5313715801794
 20
534.6359443484074
 30
0.0
 11
459.3313715801796
 21
534.4359443484075
 31
0.0
  0
LINE
  5
10D4
330
2
100
AcDbEntity
  8
0
100
AcDbLine
 10
507.331371580175
 20
531.1359443484128
 30
0.0
 11
457.3313715801805
 21
531.1359443484071
 31
0.0
  0
LINE
  5
10D5
330
2
100
AcDbEntity
  8
0
100
AcDbLine
 10
459.3313715801796
 20
534.4359443484075
 30
0.0
 11
459.3313715801805
 21
531.1359443484072
 31
0.0
  0
LINE
  5
10D6
330
2
100
AcDbEntity
  8
0
100
AcDbLine
 10
459.5313715801794
 20
534.6359443484074
 30
0.0
 11
505.1313715801807
 21
534.6359443484073
 31
0.0
  0
LINE
  5
10D7
330
2
100
AcDbEntity
  8
0
100
AcDbLine
 10
459.3313715801786
 20
538.1359443484073
 30
0.0
 11
459.9087218493687
 21
539.1359443484075
 31
0.0
  0
LINE
  5
10D8
330
2
100
AcDbEntity
  8
0
100
AcDbLine
 10
459.3313715801786
 20
538.1359443484075
 30
0.0
 11
459.3313715801796
 21
536.8359443484076
 31
0.0
  0
LINE
  5
10D9
330
2
100
AcDbEntity
  8
0
100
AcDbLine
 10
459.5313715801794
 20
536.6359443484078
 30
0.0
 11
505.1313715801807
 21
536.6359443483559
 31
0.0
  0
LINE
  5
10DA
330
2
100
AcDbEntity
  8
0
100
AcDbLine
 10
502.2266278939023
 20
531.1359443484064
 30
0.0
 11
462.4361152664578
 21
531.1359443484064
 31
0.0
  0
LINE
  5
10DB
330
2
100
AcDbEntity
  8
0
100
AcDbLine
 10
504.7540213109924
 20
539.135944348407
 30
0.0
 11
459.9087218493678
 21
539.1359443484059
 31
0.0
  0
LINE
  5
10DC
330
2
100
AcDbEntity
  8
0
100
AcDbLine
 10
504.6313715801807
 20
536.4359443484074
 30
0.0
 11
504.6313715801807
 21
534.8359443484075
 31
0.0
  0
LINE
  5
10DD
330
2
100
AcDbEntity
  8
0
100
AcDbLine
 10
505.1313715801807
 20
534.6359443484073
 30
0.0
 11
505.3313715801805
 21
534.4359443484075
 31
0.0
  0
LINE
  5
10DE
330
2
100
AcDbEntity
  8
0
100
AcDbLine
 10
505.3313715801805
 20
534.4359443484075
 30
0.0
 11
505.3313715801805
 21
531.1359443484072
 31
0.0
  0
LINE
  5
10DF
330
2
100
AcDbEntity
  8
0
100
AcDbLine
 10
505.3313715801805
 20
538.1359443484073
 30
0.0
 11
504.7540213109914
 21
539.1359443484075
 31
0.0
  0
LINE
  5
10E0
330
2
100
AcDbEntity
  8
0
100
AcDbLine
 10
505.3313715801805
 20
538.1359443484075
 30
0.0
 11
505.3313715801805
 21
536.8359443484076
 31
0.0
  0
LINE
  5
10E1
330
2
100
AcDbEntity
  8
HIDS
  6
SEKKEI_H
100
AcDbLine
 10
513.4171580178072
 20
530.0501579107853
 30
0.0
 11
514.2455851425538
 21
529.2217307860392
 31
0.0
  0
LINE
  5
10E2
330
2
100
AcDbEntity
  8
0
100
AcDbLine
 10
517.9581073565709
 20
522.1359443484068
 30
0.0
 11
446.3313715801805
 21
522.1359443484068
 31
0.0
  0
LINE
  5
10E3
330
2
100
AcDbEntity
  8
0
100
AcDbLine
 10
507.8313715801796
 20
530.6359443484073
 30
0.0
 11
507.331371580175
 21
531.1359443484128
 31
0.0
  0
ARC
  5
10E4
330
2
100
AcDbEntity
  8
0
100
AcDbCircle
 10
517.3313715801805
 20
527.6359443484123
 30
0.0
 40
1.0
100
AcDbArc
 50
90.0
 51
90.0
  0
ARC
  5
10E5
330
2
100
AcDbEntity
  8
HIDS
  6
SEKKEI_H
100
AcDbCircle
 10
512.0029444554338
 20
528.6359443484123
 30
0.0
 40
2.0
100
AcDbArc
 50
44.99999999999078
 51
90.0
  0
ARC
  5
10E6
330
2
100
AcDbEntity
  8
HIDS
  6
SEKKEI_H
100
AcDbCircle
 10
515.6597987049263
 20
530.6359443484122
 30
0.0
 40
2.0
100
AcDbArc
 50
224.9999999999908
 51
270.0
  0
ARC
  5
10E7
330
2
100
AcDbEntity
  8
0
100
AcDbCircle
 10
505.1313715801807
 20
536.8359443484076
 30
0.0
 40
0.2
100
AcDbArc
 50
269.9999999999478
 51
359.9999999999739
  0
ARC
  5
10E8
330
2
100
AcDbEntity
  8
0
100
AcDbCircle
 10
504.8313715801805
 20
536.4359443484072
 30
0.0
 40
0.2
100
AcDbArc
 50
90.00000000005213
 51
180.0
  0
ARC
  5
10E9
330
2
100
AcDbEntity
  8
0
100
AcDbCircle
 10
504.8313715801805
 20
534.8359443484075
 30
0.0
 40
0.2
100
AcDbArc
 50
180.0
 51
270.0
  0
ARC
  5
10EA
330
2
100
AcDbEntity
  8
0
100
AcDbCircle
 10
459.5313715801794
 20
536.8359443484076
 30
0.0
 40
0.2
100
AcDbArc
 50
180.0
 51
269.9999999999478
  0
ARC
  5
10EB
330
2
100
AcDbEntity
  8
0
100
AcDbCircle
 10
459.8313715801796
 20
536.4359443484072
 30
0.0
 40
0.2
100
AcDbArc
 50
0.0
 51
89.99999999994789
  0
ARC
  5
10EC
330
2
100
AcDbEntity
  8
0
100
AcDbCircle
 10
459.8313715801796
 20
534.8359443484075
 30
0.0
 40
0.2
100
AcDbArc
 50
270.0
 51
0.0
  0
LINE
  5
10ED
330
2
100
AcDbEntity
  8
HIDS
  6
SEKKEI_H
100
AcDbLine
 10
451.2455851425529
 20
530.0501579107849
 30
0.0
 11
450.4171580178072
 21
529.2217307860387
 31
0.0
  0
LINE
  5
10EE
330
2
100
AcDbEntity
  8
0
100
AcDbLine
 10
446.3313715801805
 20
522.1359443484068
 30
0.0
 11
446.3794455083507
 21
527.6446708839102
 31
0.0
  0
LINE
  5
10EF
330
2
100
AcDbEntity
  8
0
100
AcDbLine
 10
517.5813715801714
 20
528.6359443484116
 30
0.0
 11
447.0813715801896
 21
528.635944348412
 31
0.0
  0
ARC
  5
10F0
330
2
100
AcDbEntity
  8
0
100
AcDbCircle
 10
447.3794074314146
 20
527.635944348412
 30
0.0
 40
1.0
100
AcDbArc
 50
90.0
 51
179.4999999999954
  0
LINE
  5
10F1
330
2
100
AcDbEntity
  8
0
100
AcDbLine
 10
509.0813715801714
 20
530.6359443484118
 30
0.0
 11
455.5813715801887
 21
530.6359443484118
 31
0.0
  0
ARC
  5
10F2
330
2
100
AcDbEntity
  8
HIDS
  6
SEKKEI_H
100
AcDbCircle
 10
452.6597987049263
 20
528.6359443484118
 30
0.0
 40
2.0
100
AcDbArc
 50
90.0
 51
135.0000000000092
  0
ARC
  5
10F3
330
2
100
AcDbEntity
  8
HIDS
  6
SEKKEI_H
100
AcDbCircle
 10
449.0029444554338
 20
530.6359443484118
 30
0.0
 40
2.0
100
AcDbArc
 50
270.0
 51
315.0000000000092
  0
LINE
  5
10F4
330
2
100
AcDbEntity
  8
0
100
AcDbLine
 10
510.3313715801932
 20
522.1359443484068
 30
0.0
 11
510.3313715801932
 21
527.6446708839102
 31
0.0
  0
LINE
  5
10F5
330
2
100
AcDbEntity
  8
0
100
AcDbLine
 10
498.8589671001764
 20
522.1359443484068
 30
0.0
 11
498.8589671001764
 21
527.6446708839102
 31
0.0
  0
LINE
  5
10F6
330
2
100
AcDbEntity
  8
0
100
AcDbLine
 10
451.3313715801887
 20
522.1359443484068
 30
0.0
 11
451.3313715801887
 21
527.6446708839102
 31
0.0
  0
LINE
  5
10F7
330
2
100
AcDbEntity
  8
0
100
AcDbLine
 10
454.3313715801668
 20
522.1359443484068
 30
0.0
 11
454.3313715801668
 21
527.6446708839102
 31
0.0
  0
LINE
  5
10F8
330
2
100
AcDbEntity
  8
0
100
AcDbLine
 10
465.8037760601837
 20
522.1359443484068
 30
0.0
 11
465.8037760601837
 21
527.6446708839102
 31
0.0
  0
LINE
  5
10F9
330
2
100
AcDbEntity
  8
CENTER
  6
CENS
100
AcDbLine
 10
513.3313715801977
 20
537.9359443484075
 30
0.0
 11
513.3313715801977
 21
518.3872428678107
 31
0.0
  0
LINE
  5
10FA
330
2
100
AcDbEntity
  8
0
100
AcDbLine
 10
517.5813715801714
 20
534.6359443484073
 30
0.0
 11
517.5813715801714
 21
528.6359443484116
 31
0.0
  0
LINE
  5
10FB
330
2
100
AcDbEntity
  8
0
100
AcDbLine
 10
509.0813715801714
 20
534.6359443484073
 30
0.0
 11
509.0813715801714
 21
528.6359443484075
 31
0.0
  0
LINE
  5
10FC
330
2
100
AcDbEntity
  8
0
100
AcDbLine
 10
509.0813715801714
 20
529.9359443484075
 30
0.0
 11
517.5813715801714
 21
529.9359443484075
 31
0.0
  0
LINE
  5
10FD
330
2
100
AcDbEntity
  8
0
100
AcDbLine
 10
509.0813715801714
 20
534.6359443484073
 30
0.0
 11
517.5813715801714
 21
534.6359443484073
 31
0.0
  0
LINE
  5
10FE
330
2
100
AcDbEntity
  8
0
100
AcDbLine
 10
509.0813715801714
 20
534.6359443484073
 30
0.0
 11
509.6009868224419
 21
534.9359443484074
 31
0.0
  0
LINE
  5
10FF
330
2
100
AcDbEntity
  8
0
100
AcDbLine
 10
517.5813715801714
 20
534.6359443484073
 30
0.0
 11
517.061756337901
 21
534.9359443484074
 31
0.0
  0
LINE
  5
1100
330
2
100
AcDbEntity
  8
0
100
AcDbLine
 10
509.6009868224419
 20
534.9359443484074
 30
0.0
 11
517.061756337901
 21
534.9359443484074
 31
0.0
  0
LINE
  5
1101
330
2
100
AcDbEntity
  8
HIDS
  6
SEKKEI_H
100
AcDbLine
 10
512.0029444554338
 20
530.6359443484122
 30
0.0
 11
509.0813715801714
 21
530.6359443484118
 31
0.0
  0
LINE
  5
1102
330
2
100
AcDbEntity
  8
CENTER
  6
CENS
100
AcDbLine
 10
451.3313715801623
 20
537.9359443484075
 30
0.0
 11
451.3313715801623
 21
518.3872428678107
 31
0.0
  0
LINE
  5
1103
330
2
100
AcDbEntity
  8
0
100
AcDbLine
 10
447.0813715801887
 20
534.6359443484073
 30
0.0
 11
447.0813715801896
 21
528.635944348412
 31
0.0
  0
LINE
  5
1104
330
2
100
AcDbEntity
  8
0
100
AcDbLine
 10
455.5813715801887
 20
534.6359443484073
 30
0.0
 11
455.5813715801887
 21
528.6359443484075
 31
0.0
  0
LINE
  5
1105
330
2
100
AcDbEntity
  8
0
100
AcDbLine
 10
455.5813715801887
 20
529.9359443484075
 30
0.0
 11
447.0813715801887
 21
529.9359443484075
 31
0.0
  0
LINE
  5
1106
330
2
100
AcDbEntity
  8
0
100
AcDbLine
 10
455.5813715801887
 20
534.6359443484073
 30
0.0
 11
447.0813715801887
 21
534.6359443484073
 31
0.0
  0
LINE
  5
1107
330
2
100
AcDbEntity
  8
0
100
AcDbLine
 10
455.5813715801887
 20
534.6359443484073
 30
0.0
 11
455.0617563379183
 21
534.9359443484074
 31
0.0
  0
LINE
  5
1108
330
2
100
AcDbEntity
  8
0
100
AcDbLine
 10
447.0813715801887
 20
534.6359443484073
 30
0.0
 11
447.6009868224601
 21
534.9359443484074
 31
0.0
  0
LINE
  5
1109
330
2
100
AcDbEntity
  8
0
100
AcDbLine
 10
455.0617563379183
 20
534.9359443484074
 30
0.0
 11
447.6009868224601
 21
534.9359443484074
 31
0.0
  0
LINE
  5
110A
330
2
100
AcDbEntity
  8
HIDS
  6
SEKKEI_H
100
AcDbLine
 10
455.5813715801887
 20
530.6359443484118
 30
0.0
 11
452.6597987049263
 21
530.6359443484118
 31
0.0
  0
LINE
  5
110B
330
2
100
AcDbEntity
  8
0
100
AcDbLine
 10
513.3313715801714
 20
522.1359443484068
 30
0.0
 11
513.3313715801977
 21
527.6446708839102
 31
0.0
  0
LINE
  5
110C
330
2
100
AcDbEntity
  8
0
100
AcDbLine
 10
517.9132976520095
 20
527.6446708839098
 30
0.0
 11
517.9613715801806
 21
522.1359443484059
 31
0.0
  0
ARC
  5
110D
330
2
100
AcDbEntity
  8
0
100
AcDbCircle
 10
516.9133357289456
 20
527.6359443484116
 30
0.0
 40
1.0
100
AcDbArc
 50
0.4999999999980603
 51
90.0
  0
LINE
  5
110E
330
2
100
AcDbEntity
  8
0
100
AcDbLine
 10
518.1413715801804
 20
501.1359443483224
 30
0.0
 11
517.8097506041304
 21
463.135944348112
 31
0.0
  0
ARC
  5
110F
330
2
100
AcDbEntity
  8
0
100
AcDbCircle
 10
520.8753163477181
 20
470.635944348113
 30
0.0
 40
3.0
100
AcDbArc
 50
90.0
 51
179.5000000000019
  0
ARC
  5
1110
330
2
100
AcDbEntity
  8
0
100
AcDbCircle
 10
520.9189506866719
 20
475.6359443481129
 30
0.0
 40
3.0
100
AcDbArc
 50
90.0
 51
179.5000000000019
  0
ARC
  5
1111
330
2
100
AcDbEntity
  8
0
100
AcDbCircle
 10
521.093488042487
 20
495.635944348113
 30
0.0
 40
3.0
100
AcDbArc
 50
90.0
 51
179.5000000000019
  0
LINE
  5
1112
330
2
100
AcDbEntity
  8
0
100
AcDbLine
 10
329.3532356587265
 20
133.2806121555744
 30
0.0
 11
389.3532356587265
 21
133.2806121555744
 31
0.0
  0
LINE
  5
1113
330
2
100
AcDbEntity
  8
0
100
AcDbLine
 10
308.3532356587265
 20
135.3306121555744
 30
0.0
 11
414.3532356587265
 21
135.3306121555741
 31
0.0
  0
LINE
  5
1114
330
2
100
AcDbEntity
  8
CENTER
100
AcDbLine
 10
421.3532356587261
 20
125.5306582605898
 30
0.0
 11
301.3532356587266
 21
125.530653897048
 31
0.0
  0
LINE
  5
1115
330
2
100
AcDbEntity
  8
0
100
AcDbLine
 10
386.3532356587266
 20
113.5306121555743
 30
0.0
 11
386.3532356587266
 21
113.0306121555743
 31
0.0
  0
LINE
  5
1116
330
2
100
AcDbEntity
  8
0
100
AcDbLine
 10
414.3532356587265
 20
137.5306121555743
 30
0.0
 11
414.3532356587265
 21
113.5306121555743
 31
0.0
  0
LINE
  5
1117
330
2
100
AcDbEntity
  8
0
100
AcDbLine
 10
414.3532356587265
 20
137.5306121555744
 30
0.0
 11
414.3532356587265
 21
113.5306121555746
 31
0.0
  0
LINE
  5
1118
330
2
100
AcDbEntity
  8
CENTER
100
AcDbLine
 10
407.8532356587265
 20
130.3750404855091
 30
0.0
 11
407.8532356587265
 21
141.8225918121776
 31
0.0
  0
LINE
  5
1119
330
2
100
AcDbEntity
  8
0
100
AcDbLine
 10
392.8781131158521
 20
113.5306121555743
 30
0.0
 11
414.3532356587265
 21
113.5306121555743
 31
0.0
  0
LINE
  5
111A
330
2
100
AcDbEntity
  8
0
100
AcDbLine
 10
399.5032356587262
 20
133.0306121555745
 30
0.0
 11
405.3532356587266
 21
133.0306121555745
 31
0.0
  0
LINE
  5
111B
330
2
100
AcDbEntity
  8
0
100
AcDbLine
 10
399.5032356587271
 20
118.0306121555742
 30
0.0
 11
405.3532356587266
 21
118.0306121555742
 31
0.0
  0
LINE
  5
111C
330
2
100
AcDbEntity
  8
0
100
AcDbLine
 10
392.8780527268581
 20
137.5306121555742
 30
0.0
 11
414.3532356587265
 21
137.5306121555743
 31
0.0
  0
LINE
  5
111D
330
2
100
AcDbEntity
  8
0
100
AcDbLine
 10
410.3532356587265
 20
117.5306121555742
 30
0.0
 11
410.3532356587265
 21
133.5306121555744
 31
0.0
  0
LINE
  5
111E
330
2
100
AcDbEntity
  8
0
100
AcDbLine
 10
405.3532356587266
 20
117.5306121555742
 30
0.0
 11
405.3532356587266
 21
133.5306121555744
 31
0.0
  0
LINE
  5
111F
330
2
100
AcDbEntity
  8
0
100
AcDbLine
 10
412.3532356587266
 20
133.0306121555745
 30
0.0
 11
412.3532356587266
 21
118.0306121555741
 31
0.0
  0
LINE
  5
1120
330
2
100
AcDbEntity
  8
0
100
AcDbLine
 10
410.3532356587265
 20
118.0306121555741
 30
0.0
 11
412.3532356587266
 21
118.0306121555742
 31
0.0
  0
LINE
  5
1121
330
2
100
AcDbEntity
  8
0
100
AcDbLine
 10
414.3532356587265
 20
116.8759116171947
 30
0.0
 11
412.3532356587266
 21
118.0306121555739
 31
0.0
  0
CIRCLE
  5
1122
330
2
100
AcDbEntity
  8
0
100
AcDbCircle
 10
386.4241010706873
 20
292.4100092571491
 30
0.0
 40
1.6
  0
CIRCLE
  5
1123
330
2
100
AcDbEntity
  8
HOJO
 48
0.5
100
AcDbCircle
 10
386.4241010706873
 20
292.4100092571491
 30
0.0
 40
2.0
  0
LINE
  5
1124
330
2
100
AcDbEntity
  8
0
100
AcDbLine
 10
405.3532356587266
 20
117.5306121555742
 30
0.0
 11
410.3532356587265
 21
117.5306121555742
 31
0.0
  0
LINE
  5
1125
330
2
100
AcDbEntity
  8
0
100
AcDbLine
 10
410.3532356587265
 20
133.0306121555745
 30
0.0
 11
412.3532356587266
 21
133.0306121555745
 31
0.0
  0
LINE
  5
1126
330
2
100
AcDbEntity
  8
0
100
AcDbLine
 10
414.3532356587265
 20
134.1853126939536
 30
0.0
 11
412.3532356587266
 21
133.0306121555745
 31
0.0
  0
LINE
  5
1127
330
2
100
AcDbEntity
  8
0
100
AcDbLine
 10
405.3532356587266
 20
133.5306121555744
 30
0.0
 11
410.3532356587265
 21
133.5306121555744
 31
0.0
  0
LINE
  5
1128
330
2
100
AcDbEntity
  8
HOJO
 48
0.5
100
AcDbLine
 10
405.8532356587265
 20
135.3306121555739
 30
0.0
 11
405.8532356587265
 21
137.5306121555741
 31
0.0
  0
LINE
  5
1129
330
2
100
AcDbEntity
  8
0
100
AcDbLine
 10
409.4532356587269
 20
135.3306121555741
 30
0.0
 11
409.4532356587269
 21
137.5306121555742
 31
0.0
  0
LINE
  5
112A
330
2
100
AcDbEntity
  8
HOJO
 48
0.5
100
AcDbLine
 10
409.8532356587266
 20
135.3306121555741
 30
0.0
 11
409.8532356587266
 21
137.5306121555741
 31
0.0
  0
LINE
  5
112B
330
2
100
AcDbEntity
  8
0
100
AcDbLine
 10
406.2532356587261
 20
135.3306121555739
 30
0.0
 11
406.2532356587261
 21
137.5306121555741
 31
0.0
  0
LINE
  5
112C
330
2
100
AcDbEntity
  8
0
100
AcDbLine
 10
389.3532356587265
 20
133.2806121555744
 30
0.0
 11
389.3532356587265
 21
117.7806121555743
 31
0.0
  0
LINE
  5
112D
330
2
100
AcDbEntity
  8
0
100
AcDbLine
 10
399.5032356587262
 20
133.3806121555745
 30
0.0
 11
399.5032356587271
 21
117.6806121555742
 31
0.0
  0
LINE
  5
112E
330
2
100
AcDbEntity
  8
0
100
AcDbLine
 10
398.3532356587265
 20
133.3806121555745
 30
0.0
 11
398.3532356587265
 21
117.6806121555742
 31
0.0
  0
LINE
  5
112F
330
2
100
AcDbEntity
  8
0
100
AcDbLine
 10
329.3532356587265
 20
117.7806121555743
 30
0.0
 11
389.3532356587265
 21
117.7806121555743
 31
0.0
  0
LINE
  5
1130
330
2
100
AcDbEntity
  8
0
100
AcDbLine
 10
389.3532356587265
 20
118.0306121555742
 30
0.0
 11
398.3532356587265
 21
118.0306121555742
 31
0.0
  0
LINE
  5
1131
330
2
100
AcDbEntity
  8
0
100
AcDbLine
 10
389.3532356587265
 20
133.0306121555743
 30
0.0
 11
398.3532356587265
 21
133.0306121555745
 31
0.0
  0
LINE
  5
1132
330
2
100
AcDbEntity
  8
0
100
AcDbLine
 10
386.3532356587266
 20
138.0306121555743
 30
0.0
 11
386.3532356587266
 21
137.5306121555742
 31
0.0
  0
LINE
  5
1133
330
2
100
AcDbEntity
  8
0
100
AcDbLine
 10
308.3532356587265
 20
137.5306121555735
 30
0.0
 11
308.3532356587265
 21
113.5306121555755
 31
0.0
  0
LINE
  5
1134
330
2
100
AcDbEntity
  8
0
100
AcDbLine
 10
320.9577834544152
 20
113.5306121555757
 30
0.0
 11
308.3532356587265
 21
113.5306121555757
 31
0.0
  0
LINE
  5
1135
330
2
100
AcDbEntity
  8
0
100
AcDbLine
 10
316.2032356587269
 20
133.3806121555743
 30
0.0
 11
316.2032356587269
 21
117.6806121555747
 31
0.0
  0
LINE
  5
1136
330
2
100
AcDbEntity
  8
0
100
AcDbLine
 10
317.3532356587266
 20
133.3806121555745
 30
0.0
 11
317.3532356587266
 21
117.6806121555744
 31
0.0
  0
LINE
  5
1137
330
2
100
AcDbEntity
  8
0
100
AcDbLine
 10
310.3532356587265
 20
133.0306121555745
 30
0.0
 11
310.3532356587265
 21
118.0306121555745
 31
0.0
  0
LINE
  5
1138
330
2
100
AcDbEntity
  8
0
100
AcDbLine
 10
329.3532356587265
 20
133.2806121555744
 30
0.0
 11
329.3532356587265
 21
117.7806121555743
 31
0.0
  0
LINE
  5
1139
330
2
100
AcDbEntity
  8
0
100
AcDbLine
 10
317.3532356587266
 20
118.0306121555744
 30
0.0
 11
329.3532356587265
 21
118.0306121555744
 31
0.0
  0
LINE
  5
113A
330
2
100
AcDbEntity
  8
0
100
AcDbLine
 10
310.3532356587265
 20
118.0306121555745
 30
0.0
 11
316.2032356587269
 21
118.0306121555744
 31
0.0
  0
LINE
  5
113B
330
2
100
AcDbEntity
  8
0
100
AcDbLine
 10
310.3532356587265
 20
118.0306121555745
 30
0.0
 11
308.3532356587265
 21
116.8759116171953
 31
0.0
  0
LINE
  5
113C
330
2
100
AcDbEntity
  8
0
100
AcDbLine
 10
320.9578434501354
 20
137.5306121555743
 30
0.0
 11
308.3532356587265
 21
137.5306121555735
 31
0.0
  0
LINE
  5
113D
330
2
100
AcDbEntity
  8
0
100
AcDbLine
 10
317.3532356587266
 20
133.0306121555745
 30
0.0
 11
329.3532356587265
 21
133.0306121555743
 31
0.0
  0
LINE
  5
113E
330
2
100
AcDbEntity
  8
0
100
AcDbLine
 10
310.3532356587265
 20
133.0306121555745
 30
0.0
 11
316.2032356587269
 21
133.0306121555745
 31
0.0
  0
LINE
  5
113F
330
2
100
AcDbEntity
  8
0
100
AcDbLine
 10
310.3532356587265
 20
133.0306121555746
 30
0.0
 11
308.3532356587265
 21
134.1853126939537
 31
0.0
  0
LINE
  5
1140
330
2
100
AcDbEntity
  8
0
100
AcDbLine
 10
316.2032356587269
 20
133.3806121555743
 30
0.0
 11
317.3532356587266
 21
133.3806121555745
 31
0.0
  0
LINE
  5
1141
330
2
100
AcDbEntity
  8
0
100
AcDbLine
 10
316.2032356587269
 20
117.6806121555747
 30
0.0
 11
317.3532356587266
 21
117.6806121555744
 31
0.0
  0
LINE
  5
1142
330
2
100
AcDbEntity
  8
0
100
AcDbLine
 10
398.3532356587265
 20
133.3806121555745
 30
0.0
 11
399.5032356587262
 21
133.3806121555745
 31
0.0
  0
LINE
  5
1143
330
2
100
AcDbEntity
  8
0
100
AcDbLine
 10
398.3532356587265
 20
117.6806121555742
 30
0.0
 11
399.5032356587271
 21
117.6806121555742
 31
0.0
  0
LINE
  5
1144
330
2
100
AcDbEntity
  8
CENTER
100
AcDbLine
 10
348.3532356587234
 20
82.71392222964953
 30
0.0
 11
348.3532356587234
 21
168.3473937824476
 31
0.0
  0
LINE
  5
1145
330
2
100
AcDbEntity
  8
0
100
AcDbLine
 10
386.3532356587238
 20
90.04554320568235
 30
0.0
 11
386.3532356587238
 21
114.4224700638859
 31
0.0
  0
LINE
  5
1146
330
2
100
AcDbEntity
  8
0
100
AcDbLine
 10
386.3532356587247
 20
136.6388439772649
 30
0.0
 11
386.3532356587247
 21
161.0157728064104
 31
0.0
  0
LINE
  5
1147
330
2
100
AcDbEntity
  8
0
100
AcDbLine
 10
391.3532356587229
 20
95.53065800605333
 30
0.0
 11
391.3532356587229
 21
114.4772316042476
 31
0.0
  0
LINE
  5
1148
330
2
100
AcDbEntity
  8
0
100
AcDbLine
 10
391.3532356587229
 20
136.5840828492541
 30
0.0
 11
391.3532356587229
 21
155.5306580060531
 31
0.0
  0
LINE
  5
1149
330
2
100
AcDbEntity
  8
0
100
AcDbLine
 10
386.3532356587229
 20
95.53065800605333
 30
0.0
 11
391.3532356587229
 21
95.53065800605333
 31
0.0
  0
LINE
  5
114A
330
2
100
AcDbEntity
  8
0
100
AcDbLine
 10
386.3532356587229
 20
155.5306580060531
 30
0.0
 11
391.3532356587229
 21
155.5306580060531
 31
0.0
  0
LINE
  5
114B
330
2
100
AcDbEntity
  8
0
100
AcDbLine
 10
404.3532356587266
 20
103.462035555656
 30
0.0
 11
404.3532356587266
 21
113.5306121555743
 31
0.0
  0
LINE
  5
114C
330
2
100
AcDbEntity
  8
0
100
AcDbLine
 10
404.3532356587266
 20
137.5306121555743
 30
0.0
 11
404.3532356587266
 21
147.5992804564282
 31
0.0
  0
LINE
  5
114D
330
2
100
AcDbEntity
  8
0
100
AcDbLine
 10
393.2834366653214
 20
101.1440921070732
 30
0.0
 11
402.4230346521317
 21
101.4632539016182
 31
0.0
  0
LINE
  5
114E
330
2
100
AcDbEntity
  8
0
100
AcDbLine
 10
393.2834366653214
 20
149.9172239050101
 30
0.0
 11
402.4230346521317
 21
149.5980621104661
 31
0.0
  0
ARC
  5
114F
330
2
100
AcDbEntity
  8
0
100
AcDbCircle
 10
402.3532356587265
 20
103.462035555656
 30
0.0
 40
2.0
100
AcDbArc
 50
272.0000000000036
 51
0.0
  0
ARC
  5
1150
330
2
100
AcDbEntity
  8
0
100
AcDbCircle
 10
402.3532356587265
 20
147.5992804564282
 30
0.0
 40
2.0
100
AcDbArc
 50
0.0
 51
87.99999999999636
  0
ARC
  5
1151
330
2
100
AcDbEntity
  8
0
100
AcDbCircle
 10
393.3532356587265
 20
151.916005559048
 30
0.0
 40
2.0
100
AcDbArc
 50
180.0
 51
267.9999999999963
  0
ARC
  5
1152
330
2
100
AcDbEntity
  8
0
100
AcDbCircle
 10
393.3532356587265
 20
99.1453104530354
 30
0.0
 40
2.0
100
AcDbArc
 50
92.00000000000365
 51
180.0
  0
LINE
  5
1153
330
2
100
AcDbEntity
  8
0
100
AcDbLine
 10
327.3532356584282
 20
161.5306580060496
 30
0.0
 11
386.3532356587247
 21
161.0157728064104
 31
0.0
  0
LINE
  5
1154
330
2
100
AcDbEntity
  8
0
100
AcDbLine
 10
327.3532356584282
 20
89.53065800604992
 30
0.0
 11
386.3532356587238
 21
90.04554320568235
 31
0.0
  0
LINE
  5
1155
330
2
100
AcDbEntity
  8
0
100
AcDbLine
 10
327.3532356584282
 20
161.5262945721369
 30
0.0
 11
327.3532356584282
 21
136.7108500934487
 31
0.0
  0
LINE
  5
1156
330
2
100
AcDbEntity
  8
0
100
AcDbLine
 10
327.3532356584282
 20
114.3504597690746
 30
0.0
 11
327.3532356584282
 21
89.53502143996985
 31
0.0
  0
LINE
  5
1157
330
2
100
AcDbEntity
  8
0
100
AcDbLine
 10
318.8532356584282
 20
100.0306580060503
 30
0.0
 11
318.3532356584283
 21
100.5306580060499
 31
0.0
  0
LINE
  5
1158
330
2
100
AcDbEntity
  8
0
100
AcDbLine
 10
318.8532356584228
 20
100.0306580060553
 30
0.0
 11
318.8532356584228
 21
98.78065800605845
 31
0.0
  0
LINE
  5
1159
330
2
100
AcDbEntity
  8
0
100
AcDbLine
 10
318.3532356584291
 20
106.530658006051
 30
0.0
 11
311.3532356584282
 21
106.530658006051
 31
0.0
  0
LINE
  5
115A
330
2
100
AcDbEntity
  8
0
100
AcDbLine
 10
313.053235658428
 20
103.2306580060492
 30
0.0
 11
314.6532356584275
 21
103.2306580060495
 31
0.0
  0
LINE
  5
115B
330
2
100
AcDbEntity
  8
0
100
AcDbLine
 10
314.8532356584282
 20
102.7306580060495
 30
0.0
 11
315.053235658428
 21
102.5306580060494
 31
0.0
  0
LINE
  5
115C
330
2
100
AcDbEntity
  8
0
100
AcDbLine
 10
318.3532356584228
 20
150.5306580060444
 30
0.0
 11
318.3532356584237
 21
145.4352953266783
 31
0.0
  0
LINE
  5
115D
330
2
100
AcDbEntity
  8
0
100
AcDbLine
 10
318.3532356584283
 20
105.6260130651459
 30
0.0
 11
318.3532356584283
 21
100.5306580060499
 31
0.0
  0
LINE
  5
115E
330
2
100
AcDbEntity
  8
0
100
AcDbLine
 10
315.053235658428
 20
102.5306580060494
 30
0.0
 11
318.3532356584283
 21
102.5306580060499
 31
0.0
  0
LINE
  5
115F
330
2
100
AcDbEntity
  8
0
100
AcDbLine
 10
314.8532356584282
 20
102.7306580060495
 30
0.0
 11
314.8532356584282
 21
105.3706430242737
 31
0.0
  0
LINE
  5
1160
330
2
100
AcDbEntity
  8
0
100
AcDbLine
 10
314.8532356584282
 20
145.6906658169655
 30
0.0
 11
314.8532356584282
 21
148.3306580060505
 31
0.0
  0
LINE
  5
1161
330
2
100
AcDbEntity
  8
0
100
AcDbLine
 10
311.3532356584282
 20
102.530658006049
 30
0.0
 11
310.3532356584282
 21
103.1080082752387
 31
0.0
  0
LINE
  5
1162
330
2
100
AcDbEntity
  8
0
100
AcDbLine
 10
311.3532356584282
 20
102.530658006049
 30
0.0
 11
312.6532356584275
 21
102.5306580060494
 31
0.0
  0
LINE
  5
1163
330
2
100
AcDbEntity
  8
0
100
AcDbLine
 10
312.8532356584282
 20
102.7306580060492
 30
0.0
 11
312.8532356584301
 21
105.109162416089
 31
0.0
  0
LINE
  5
1164
330
2
100
AcDbEntity
  8
0
100
AcDbLine
 10
312.8532356584774
 20
145.9521456663919
 30
0.0
 11
312.8532356584792
 21
148.3306580060505
 31
0.0
  0
LINE
  5
1165
330
2
100
AcDbEntity
  8
0
100
AcDbLine
 10
311.3532356584282
 20
106.530658006051
 30
0.0
 11
310.3532356584282
 21
105.9533077368612
 31
0.0
  0
LINE
  5
1166
330
2
100
AcDbEntity
  8
0
100
AcDbLine
 10
311.3532356584282
 20
144.5306580060512
 30
0.0
 11
311.3532356584282
 21
137.5306121555738
 31
0.0
  0
LINE
  5
1167
330
2
100
AcDbEntity
  8
0
100
AcDbLine
 10
311.3532356584282
 20
113.5306121555757
 30
0.0
 11
311.3532356584282
 21
106.530658006051
 31
0.0
  0
LINE
  5
1168
330
2
100
AcDbEntity
  8
0
100
AcDbLine
 10
310.3532356584282
 20
147.9533077368617
 30
0.0
 11
310.3532356584291
 21
137.5306121555736
 31
0.0
  0
LINE
  5
1169
330
2
100
AcDbEntity
  8
0
100
AcDbLine
 10
310.3532356584291
 20
125.5306542243137
 30
0.0
 11
310.3532356584301
 21
118.0306121555745
 31
0.0
  0
LINE
  5
116A
330
2
100
AcDbEntity
  8
0
100
AcDbLine
 10
310.3532356584291
 20
113.5306121555757
 30
0.0
 11
310.3532356584301
 21
103.1080082752378
 31
0.0
  0
LINE
  5
116B
330
2
100
AcDbEntity
  8
0
100
AcDbLine
 10
318.3532356584291
 20
144.5306580060499
 30
0.0
 11
311.3532356584264
 21
144.5306580060494
 31
0.0
  0
LINE
  5
116C
330
2
100
AcDbEntity
  8
0
100
AcDbLine
 10
313.053235658428
 20
147.8306580060507
 30
0.0
 11
314.6532356584275
 21
147.8306580060505
 31
0.0
  0
LINE
  5
116D
330
2
100
AcDbEntity
  8
0
100
AcDbLine
 10
314.8532356584282
 20
148.3306580060505
 30
0.0
 11
315.053235658428
 21
148.5306580060506
 31
0.0
  0
LINE
  5
116E
330
2
100
AcDbEntity
  8
0
100
AcDbLine
 10
315.053235658428
 20
148.5306580060506
 30
0.0
 11
318.3532356584283
 21
148.5306580060501
 31
0.0
  0
LINE
  5
116F
330
2
100
AcDbEntity
  8
0
100
AcDbLine
 10
311.3532356584282
 20
144.5306580060485
 30
0.0
 11
310.3532356584282
 21
145.108008275238
 31
0.0
  0
LINE
  5
1170
330
2
100
AcDbEntity
  8
0
100
AcDbLine
 10
311.3532356584282
 20
148.5306580060508
 30
0.0
 11
310.3532356584282
 21
147.9533077368612
 31
0.0
  0
LINE
  5
1171
330
2
100
AcDbEntity
  8
0
100
AcDbLine
 10
311.3532356584282
 20
148.5306580060508
 30
0.0
 11
312.6532356584275
 21
148.5306580060508
 31
0.0
  0
LINE
  5
1172
330
2
100
AcDbEntity
  8
HIDS
  6
SEKKEI_H
100
AcDbLine
 10
319.4390220960503
 20
156.616444443677
 30
0.0
 11
320.2674492207961
 21
157.4448715684232
 31
0.0
  0
LINE
  5
1173
330
2
100
AcDbEntity
  8
0
100
AcDbLine
 10
327.3532356584282
 20
161.5306580060499
 30
0.0
 11
321.8532356584237
 21
161.5306580060499
 31
0.0
  0
LINE
  5
1174
330
2
100
AcDbEntity
  8
0
100
AcDbLine
 10
327.3532356584282
 20
161.5306580060496
 30
0.0
 11
327.3532356584282
 21
136.7108500934487
 31
0.0
  0
LINE
  5
1175
330
2
100
AcDbEntity
  8
0
100
AcDbLine
 10
327.3532356584282
 20
114.3504597690748
 30
0.0
 11
327.3532356584282
 21
89.53065800604992
 31
0.0
  0
LINE
  5
1176
330
2
100
AcDbEntity
  8
0
100
AcDbLine
 10
318.8532356584282
 20
151.0306580060496
 30
0.0
 11
318.3532356584228
 21
150.5306580060444
 31
0.0
  0
ARC
  5
1177
330
2
100
AcDbEntity
  8
0
100
AcDbCircle
 10
321.8532356584228
 20
160.5306580060499
 30
0.0
 40
1.0
100
AcDbArc
 50
180.0
 51
180.0
  0
ARC
  5
1178
330
2
100
AcDbEntity
  8
HIDS
  6
SEKKEI_H
100
AcDbCircle
 10
320.8532356584228
 20
155.2022308813039
 30
0.0
 40
2.0
100
AcDbArc
 50
135.0000000000092
 51
180.0
  0
ARC
  5
1179
330
2
100
AcDbEntity
  8
HIDS
  6
SEKKEI_H
100
AcDbCircle
 10
318.8532356584228
 20
158.8590851307963
 30
0.0
 40
2.0
100
AcDbArc
 50
315.0000000000092
 51
0.0
  0
ARC
  5
117A
330
2
100
AcDbEntity
  8
0
100
AcDbCircle
 10
312.6532356584275
 20
148.3306580060505
 30
0.0
 40
0.2
100
AcDbArc
 50
359.9999999999348
 51
90.0
  0
ARC
  5
117B
330
2
100
AcDbEntity
  8
0
100
AcDbCircle
 10
313.053235658428
 20
148.0306580060508
 30
0.0
 40
0.2
100
AcDbArc
 50
180.0000000000651
 51
270.0
  0
ARC
  5
117C
330
2
100
AcDbEntity
  8
0
100
AcDbCircle
 10
314.6532356584275
 20
148.0306580060505
 30
0.0
 40
0.2
100
AcDbArc
 50
270.0
 51
0.0
  0
ARC
  5
117D
330
2
100
AcDbEntity
  8
0
100
AcDbCircle
 10
312.6532356584275
 20
102.7306580060492
 30
0.0
 40
0.2
100
AcDbArc
 50
270.0
 51
359.9999999999348
  0
ARC
  5
117E
330
2
100
AcDbEntity
  8
0
100
AcDbCircle
 10
313.053235658428
 20
103.0306580060492
 30
0.0
 40
0.2
100
AcDbArc
 50
90.0
 51
179.9999999999348
  0
ARC
  5
117F
330
2
100
AcDbEntity
  8
0
100
AcDbCircle
 10
314.6532356584275
 20
103.0306580060494
 30
0.0
 40
0.2
100
AcDbArc
 50
0.0
 51
90.0
  0
LINE
  5
1180
330
2
100
AcDbEntity
  8
HIDS
  6
SEKKEI_H
100
AcDbLine
 10
319.4390220960503
 20
94.4448715684228
 30
0.0
 11
320.267449220797
 21
93.61644444367659
 31
0.0
  0
LINE
  5
1181
330
2
100
AcDbEntity
  8
0
100
AcDbLine
 10
327.3532356584282
 20
89.53065800604992
 30
0.0
 11
321.8532356584237
 21
89.53065800604992
 31
0.0
  0
LINE
  5
1182
330
2
100
AcDbEntity
  8
0
100
AcDbLine
 10
320.8532356584237
 20
160.7806580060412
 30
0.0
 11
320.8532356584237
 21
137.6835435534708
 31
0.0
  0
LINE
  5
1183
330
2
100
AcDbEntity
  8
0
100
AcDbLine
 10
320.8532356584237
 20
113.3777643046082
 30
0.0
 11
320.8532356584237
 21
90.28065800605844
 31
0.0
  0
ARC
  5
1184
330
2
100
AcDbEntity
  8
0
100
AcDbCircle
 10
321.8532356584237
 20
160.5306580060499
 30
0.0
 40
1.0
100
AcDbArc
 50
90.0
 51
180.0
  0
LINE
  5
1185
330
2
100
AcDbEntity
  8
0
100
AcDbLine
 10
318.8532356584237
 20
152.2806580060414
 30
0.0
 11
318.8532356584237
 21
145.1498467180497
 31
0.0
  0
LINE
  5
1186
330
2
100
AcDbEntity
  8
0
100
AcDbLine
 10
318.8532356584237
 20
105.9114613112649
 30
0.0
 11
318.8532356584237
 21
98.78065800605845
 31
0.0
  0
ARC
  5
1187
330
2
100
AcDbEntity
  8
0
100
AcDbCircle
 10
321.8532356584237
 20
90.53065800604992
 30
0.0
 40
1.0
100
AcDbArc
 50
180.0
 51
270.0
  0
ARC
  5
1188
330
2
100
AcDbEntity
  8
HIDS
  6
SEKKEI_H
100
AcDbCircle
 10
320.8532356584237
 20
95.85908513079591
 30
0.0
 40
2.0
100
AcDbArc
 50
180.0
 51
224.9999999999908
  0
ARC
  5
1189
330
2
100
AcDbEntity
  8
HIDS
  6
SEKKEI_H
100
AcDbCircle
 10
318.8532356584237
 20
92.20223088130348
 30
0.0
 40
2.0
100
AcDbArc
 50
0.0
 51
44.99999999999078
  0
LINE
  5
118A
330
2
100
AcDbEntity
  8
0
100
AcDbLine
 10
386.3532356587247
 20
153.5306580060633
 30
0.0
 11
327.3532356584282
 21
153.5306580060633
 31
0.0
  0
LINE
  5
118B
330
2
100
AcDbEntity
  8
0
100
AcDbLine
 10
386.3532356587247
 20
156.5306580060415
 30
0.0
 11
327.3532356584282
 21
156.5306580060415
 31
0.0
  0
LINE
  5
118C
330
2
100
AcDbEntity
  8
0
100
AcDbLine
 10
386.3532356587247
 20
142.0582535260462
 30
0.0
 11
327.3532356584282
 21
142.0582535260462
 31
0.0
  0
LINE
  5
118D
330
2
100
AcDbEntity
  8
0
100
AcDbLine
 10
327.3532356584282
 20
153.5306580060633
 30
0.0
 11
321.8532356584237
 21
153.5306580060632
 31
0.0
  0
LINE
  5
118E
330
2
100
AcDbEntity
  8
0
100
AcDbLine
 10
327.3532356584282
 20
142.0582535260462
 30
0.0
 11
321.8532356584237
 21
142.0582535260461
 31
0.0
  0
LINE
  5
118F
330
2
100
AcDbEntity
  8
0
100
AcDbLine
 10
327.3532356584282
 20
94.53065800605832
 30
0.0
 11
321.8532356584237
 21
94.53065800605843
 31
0.0
  0
LINE
  5
1190
330
2
100
AcDbEntity
  8
0
100
AcDbLine
 10
327.3532356584282
 20
97.5306580060365
 30
0.0
 11
321.8532356584237
 21
97.53065800603661
 31
0.0
  0
LINE
  5
1191
330
2
100
AcDbEntity
  8
0
100
AcDbLine
 10
327.3532356584282
 20
109.0030624860535
 30
0.0
 11
321.8532356584237
 21
109.0030624860536
 31
0.0
  0
LINE
  5
1192
330
2
100
AcDbEntity
  8
0
100
AcDbLine
 10
386.3532356587247
 20
97.5306580060365
 30
0.0
 11
327.3532356584282
 21
97.5306580060365
 31
0.0
  0
LINE
  5
1193
330
2
100
AcDbEntity
  8
0
100
AcDbLine
 10
386.3532356587247
 20
94.53065800605832
 30
0.0
 11
327.3532356584282
 21
94.53065800605832
 31
0.0
  0
LINE
  5
1194
330
2
100
AcDbEntity
  8
0
100
AcDbLine
 10
386.3532356587247
 20
109.0030624860535
 30
0.0
 11
327.3532356584282
 21
109.0030624860535
 31
0.0
  0
LINE
  5
1195
330
2
100
AcDbEntity
  8
CENTER
  6
CENS
100
AcDbLine
 10
311.5532356584281
 20
156.5306580060674
 30
0.0
 11
331.1019371390248
 21
156.5306580060674
 31
0.0
  0
LINE
  5
1196
330
2
100
AcDbEntity
  8
0
100
AcDbLine
 10
314.8532356584282
 20
160.7806580060413
 30
0.0
 11
320.8532356584237
 21
160.7806580060412
 31
0.0
  0
LINE
  5
1197
330
2
100
AcDbEntity
  8
0
100
AcDbLine
 10
314.8532356584282
 20
152.2806580060414
 30
0.0
 11
320.8532356584282
 21
152.2806580060414
 31
0.0
  0
LINE
  5
1198
330
2
100
AcDbEntity
  8
0
100
AcDbLine
 10
319.553235658428
 20
152.2806580060414
 30
0.0
 11
319.553235658428
 21
160.7806580060413
 31
0.0
  0
LINE
  5
1199
330
2
100
AcDbEntity
  8
0
100
AcDbLine
 10
314.8532356584282
 20
152.2806580060414
 30
0.0
 11
314.8532356584282
 21
160.7806580060413
 31
0.0
  0
LINE
  5
119A
330
2
100
AcDbEntity
  8
0
100
AcDbLine
 10
314.8532356584282
 20
152.2806580060414
 30
0.0
 11
314.553235658428
 21
152.8002732483118
 31
0.0
  0
LINE
  5
119B
330
2
100
AcDbEntity
  8
0
100
AcDbLine
 10
314.8532356584282
 20
160.7806580060413
 30
0.0
 11
314.553235658428
 21
160.2610427637704
 31
0.0
  0
LINE
  5
119C
330
2
100
AcDbEntity
  8
0
100
AcDbLine
 10
314.553235658428
 20
152.8002732483118
 30
0.0
 11
314.553235658428
 21
160.2610427637704
 31
0.0
  0
LINE
  5
119D
330
2
100
AcDbEntity
  8
HIDS
  6
SEKKEI_H
100
AcDbLine
 10
318.8532356584228
 20
155.2022308813039
 30
0.0
 11
318.8532356584237
 21
152.2806580060414
 31
0.0
  0
LINE
  5
119E
330
2
100
AcDbEntity
  8
CENTER
  6
CENS
100
AcDbLine
 10
311.5532356584281
 20
94.53065800603241
 30
0.0
 11
331.1019371390248
 21
94.53065800603241
 31
0.0
  0
LINE
  5
119F
330
2
100
AcDbEntity
  8
0
100
AcDbLine
 10
314.8532356584282
 20
90.28065800605844
 30
0.0
 11
320.8532356584237
 21
90.28065800605844
 31
0.0
  0
LINE
  5
11A0
330
2
100
AcDbEntity
  8
0
100
AcDbLine
 10
314.8532356584282
 20
98.78065800605845
 30
0.0
 11
320.8532356584282
 21
98.78065800605845
 31
0.0
  0
LINE
  5
11A1
330
2
100
AcDbEntity
  8
0
100
AcDbLine
 10
319.553235658428
 20
98.78065800605845
 30
0.0
 11
319.553235658428
 21
90.28065800605844
 31
0.0
  0
LINE
  5
11A2
330
2
100
AcDbEntity
  8
0
100
AcDbLine
 10
314.8532356584282
 20
98.78065800605845
 30
0.0
 11
314.8532356584282
 21
90.28065800605844
 31
0.0
  0
LINE
  5
11A3
330
2
100
AcDbEntity
  8
0
100
AcDbLine
 10
314.8532356584282
 20
98.78065800605845
 30
0.0
 11
314.553235658428
 21
98.26104276378799
 31
0.0
  0
LINE
  5
11A4
330
2
100
AcDbEntity
  8
0
100
AcDbLine
 10
314.8532356584282
 20
90.28065800605844
 30
0.0
 11
314.553235658428
 21
90.80027324832935
 31
0.0
  0
LINE
  5
11A5
330
2
100
AcDbEntity
  8
0
100
AcDbLine
 10
314.553235658428
 20
98.26104276378799
 30
0.0
 11
314.553235658428
 21
90.80027324832935
 31
0.0
  0
LINE
  5
11A6
330
2
100
AcDbEntity
  8
HIDS
  6
SEKKEI_H
100
AcDbLine
 10
318.8532356584237
 20
98.78065800605845
 30
0.0
 11
318.8532356584237
 21
95.85908513079591
 31
0.0
  0
LINE
  5
11A7
330
2
100
AcDbEntity
  8
0
100
AcDbLine
 10
394.5602937363846
 20
105.2455670215568
 30
0.0
 11
395.3532356587265
 21
105.2663309365442
 31
0.0
  0
LINE
  5
11A8
330
2
100
AcDbEntity
  8
0
100
AcDbLine
 10
403.3532356587265
 20
106.5306576424216
 30
0.0
 11
403.3532356587265
 21
113.5306121555743
 31
0.0
  0
LINE
  5
11A9
330
2
100
AcDbEntity
  8
0
100
AcDbLine
 10
396.3532356587265
 20
106.5306576424218
 30
0.0
 11
396.3532356587265
 21
113.5306121555746
 31
0.0
  0
LINE
  5
11AA
330
2
100
AcDbEntity
  8
0
100
AcDbLine
 10
403.3532356587265
 20
137.5306121555743
 30
0.0
 11
403.3532356587265
 21
144.5306576424273
 31
0.0
  0
LINE
  5
11AB
330
2
100
AcDbEntity
  8
0
100
AcDbLine
 10
396.3532356587265
 20
137.5306121555743
 30
0.0
 11
396.3532356587265
 21
144.5306576424273
 31
0.0
  0
LINE
  5
11AC
330
2
100
AcDbEntity
  8
0
100
AcDbLine
 10
403.3532356587265
 20
106.5306576424216
 30
0.0
 11
404.3532356587266
 21
105.9533073732321
 31
0.0
  0
LINE
  5
11AD
330
2
100
AcDbEntity
  8
0
100
AcDbLine
 10
403.3532356587265
 20
106.5306576424216
 30
0.0
 11
395.3532356587265
 21
106.5306576424216
 31
0.0
  0
LINE
  5
11AE
330
2
100
AcDbEntity
  8
0
100
AcDbLine
 10
394.5602930384284
 20
145.8157482815631
 30
0.0
 11
395.3532356587265
 21
145.7949843482991
 31
0.0
  0
LINE
  5
11AF
330
2
100
AcDbEntity
  8
0
100
AcDbLine
 10
403.3532356587229
 20
144.530657642423
 30
0.0
 11
404.3532356587229
 21
145.1080079116127
 31
0.0
  0
LINE
  5
11B0
330
2
100
AcDbEntity
  8
0
100
AcDbLine
 10
403.3532356587265
 20
144.5306576424273
 30
0.0
 11
395.3532356587265
 21
144.5306576424273
 31
0.0
  0
LINE
  5
11B1
330
2
100
AcDbEntity
  8
0
100
AcDbLine
 10
395.3532356587265
 20
105.2663309365442
 30
0.0
 11
395.3532356587265
 21
113.5306121555743
 31
0.0
  0
LINE
  5
11B2
330
2
100
AcDbEntity
  8
0
100
AcDbLine
 10
395.3532356587265
 20
137.5306121555743
 30
0.0
 11
395.3532356587265
 21
145.7949843482991
 31
0.0
  0
SPLINE
  5
11B3
330
2
100
AcDbEntity
  8
HOJO
100
AcDbSpline
210
0.0
220
0.0
230
1.0
 70
     8
 71
     3
 72
    30
 73
    26
 74
     0
 42
0.0000000001
 43
0.0000000001
 40
0.5291151004632872
 40
0.5291151004632872
 40
0.5291151004632872
 40
0.5291151004632872
 40
1.956980023701299
 40
3.920474213777056
 40
6.804369916569926
 40
9.380599442303543
 40
11.64706261606478
 40
15.15450673012081
 40
18.33471389219206
 40
26.46123268957957
 40
33.84164654509357
 40
41.3139759608263
 40
50.08265962234144
 40
58.74767557572532
 40
65.64019968405365
 40
71.01864943212631
 40
79.37389829637055
 40
85.78834280733275
 40
89.35324359450742
 40
92.71679100073518
 40
95.51361072944564
 40
99.08107367810877
 40
102.5976528199299
 40
106.2025269131245
 40
108.7188069452504
 40
108.7188069452504
 40
108.7188069452504
 40
108.7188069452504
 10
310.3532356584282
 20
147.0893604370187
 30
0.0
 10
310.7848207059587
 20
146.8942535192969
 30
0.0
 10
311.8115813566655
 20
146.4244991490675
 30
0.0
 10
313.7389635940926
 20
145.4520501246182
 30
0.0
 10
316.2266835193013
 20
145.9208486293316
 30
0.0
 10
318.9814324082426
 20
145.5356736483201
 30
0.0
 10
320.5566571699919
 20
142.8246988793419
 30
0.0
 10
319.6376930159676
 20
139.8601974107547
 30
0.0
 10
322.2032642736303
 20
134.6569542862235
 30
0.0
 10
329.7595378699343
 20
138.2464094421922
 30
0.0
 10
336.9748712418277
 20
135.8117046466563
 30
0.0
 10
344.934964976569
 20
137.653190111944
 30
0.0
 10
353.1995709432221
 20
136.1196160737071
 30
0.0
 10
361.3191575104028
 20
138.0485402363156
 30
0.0
 10
368.235445321613
 20
135.4827648245753
 30
0.0
 10
374.9633216751163
 20
138.0529615632106
 30
0.0
 10
381.7992813295349
 20
135.6330753804161
 30
0.0
 10
387.5444304601596
 20
137.1156376535407
 30
0.0
 10
392.7081740298153
 20
136.0464926616917
 30
0.0
 10
393.882947871426
 20
139.9974312547504
 30
0.0
 10
392.918530901522
 20
142.9833325115827
 30
0.0
 10
394.4490963502457
 20
146.6993100463367
 30
0.0
 10
398.414945863572
 20
146.7458343593203
 30
0.0
 10
401.5675204758654
 20
146.3977832860728
 30
0.0
 10
403.5328645204662
 20
147.0898930477063
 30
0.0
 10
404.353235658732
 20
147.2799316979535
 30
0.0
  0
LINE
  5
11B4
330
2
100
AcDbEntity
  8
0
100
AcDbLine
 10
318.3532356584291
 20
145.4259143197721
 30
0.0
 11
318.3532356584291
 21
137.5306121555741
 31
0.0
  0
SPLINE
  5
11B5
330
2
100
AcDbEntity
  8
HOJO
100
AcDbSpline
210
0.0
220
0.0
230
1.0
 70
     8
 71
     3
 72
    30
 73
    26
 74
     0
 42
0.0000000001
 43
0.0000000001
 40
0.5291151004632872
 40
0.5291151004632872
 40
0.5291151004632872
 40
0.5291151004632872
 40
1.956980023701299
 40
3.920474213777056
 40
6.804369916569926
 40
9.380599442303543
 40
11.64706261606478
 40
15.15450673012081
 40
18.33471389219206
 40
26.46123268957957
 40
33.84164654509357
 40
41.3139759608263
 40
50.08265962234144
 40
58.74767557572532
 40
65.64019968405365
 40
71.01864943212631
 40
79.37389829637055
 40
85.78834280733275
 40
89.35324359450742
 40
92.71679100073518
 40
95.51361072944564
 40
99.08107367810877
 40
102.5976528199299
 40
106.2025269131245
 40
108.7188069452504
 40
108.7188069452504
 40
108.7188069452504
 40
108.7188069452504
 10
310.3532372262998
 20
103.9719480116086
 30
0.0
 10
310.7848222596412
 20
104.1670549607177
 30
0.0
 10
311.8115828761847
 20
104.6368094056191
 30
0.0
 10
313.7389650428894
 20
105.6092585702386
 30
0.0
 10
316.2266850021924
 20
105.1404602464463
 30
0.0
 10
318.9814338631212
 20
105.5256354277988
 30
0.0
 10
320.556658427713
 20
108.2366103113364
 30
0.0
 10
319.637694058093
 20
111.2011117130912
 30
0.0
 10
322.2032649373468
 20
116.4043550242054
 30
0.0
 10
329.7595387946957
 20
112.8149004177719
 30
0.0
 10
336.9748719895242
 20
115.249605738048
 30
0.0
 10
344.9349658581886
 20
113.4081208516636
 30
0.0
 10
353.1995717133113
 20
114.9416954909498
 30
0.0
 10
361.3191584207752
 20
113.0127719188438
 30
0.0
 10
368.2354460453871
 20
115.5785478335761
 30
0.0
 10
374.9633225858096
 20
113.0083515842303
 30
0.0
 10
381.7992820642402
 20
115.4282382641746
 30
0.0
 10
387.5444313026855
 20
113.94567640887
 30
0.0
 10
392.7081747945867
 20
115.0148217762559
 30
0.0
 10
393.8829489235313
 20
111.0638832686334
 30
0.0
 10
392.9185321707791
 20
108.0779819416632
 30
0.0
 10
394.4490978897502
 20
104.3620045182206
 30
0.0
 10
398.4149474064606
 20
104.3154804936563
 30
0.0
 10
401.5675219934419
 20
104.6635317961768
 30
0.0
 10
403.532866088376
 20
103.9714221774745
 30
0.0
 10
404.3532372404625
 20
103.7813835868892
 30
0.0
  0
LINE
  5
11B6
330
2
100
AcDbEntity
  8
0
100
AcDbLine
 10
318.3532356584291
 20
144.5306580060499
 30
0.0
 11
311.3532356584282
 21
137.5306121555738
 31
0.0
  0
LINE
  5
11B7
330
2
100
AcDbEntity
  8
0
100
AcDbLine
 10
311.3532356584264
 20
144.5306580060494
 30
0.0
 11
318.3532356584291
 21
137.5306121555741
 31
0.0
  0
LINE
  5
11B8
330
2
100
AcDbEntity
  8
0
100
AcDbLine
 10
318.3532356584291
 20
105.6353935621424
 30
0.0
 11
318.3532356584291
 21
113.5306957263404
 31
0.0
  0
LINE
  5
11B9
330
2
100
AcDbEntity
  8
0
100
AcDbLine
 10
311.3532356584282
 20
113.5306121555757
 30
0.0
 11
318.3532356584291
 21
106.530658006051
 31
0.0
  0
LINE
  5
11BA
330
2
100
AcDbEntity
  8
0
100
AcDbLine
 10
318.3532356584291
 20
113.5306121555757
 30
0.0
 11
311.3532356584282
 21
106.530658006051
 31
0.0
  0
LINE
  5
11BB
330
2
100
AcDbEntity
  8
0
100
AcDbLine
 10
396.3532356587265
 20
113.5306121555746
 30
0.0
 11
403.3532356587265
 21
106.5306576424216
 31
0.0
  0
LINE
  5
11BC
330
2
100
AcDbEntity
  8
0
100
AcDbLine
 10
396.3532356587265
 20
106.5306576424218
 30
0.0
 11
403.3532356587265
 21
113.5306121555743
 31
0.0
  0
LINE
  5
11BD
330
2
100
AcDbEntity
  8
0
100
AcDbLine
 10
396.3532356587265
 20
144.5306576424273
 30
0.0
 11
403.3532356587265
 21
137.5306121555743
 31
0.0
  0
LINE
  5
11BE
330
2
100
AcDbEntity
  8
0
100
AcDbLine
 10
396.3532356587265
 20
137.5306121555743
 30
0.0
 11
403.3532356587229
 21
144.530657642423
 31
0.0
  0
LINE
  5
11BF
330
2
100
AcDbEntity
  8
0
100
AcDbLine
 10
392.9241010706873
 20
304.4100114207386
 30
0.0
 11
392.9241010706873
 21
280.4100114207386
 31
0.0
  0
LINE
  5
11C0
330
2
100
AcDbEntity
  8
0
100
AcDbLine
 10
392.9241010706873
 20
304.4100114207386
 30
0.0
 11
392.9241010706873
 21
280.4100114207388
 31
0.0
  0
LINE
  5
11C1
330
2
100
AcDbEntity
  8
0
100
AcDbLine
 10
382.9241010706873
 20
280.4100114207386
 30
0.0
 11
392.9241010706873
 21
280.4100114207386
 31
0.0
  0
LINE
  5
11C2
330
2
100
AcDbEntity
  8
0
100
AcDbLine
 10
382.9241010706873
 20
280.4100114207386
 30
0.0
 11
392.9241010706873
 21
280.4100114207386
 31
0.0
  0
LINE
  5
11C3
330
2
100
AcDbEntity
  8
0
100
AcDbLine
 10
382.9241010706873
 20
304.4100114207386
 30
0.0
 11
392.9241010706873
 21
304.4100114207386
 31
0.0
  0
LINE
  5
11C4
330
2
100
AcDbEntity
  8
0
100
AcDbLine
 10
382.9241010706873
 20
304.4100114207386
 30
0.0
 11
392.9241010706873
 21
304.4100114207386
 31
0.0
  0
LINE
  5
11C5
330
2
100
AcDbEntity
  8
0
100
AcDbLine
 10
286.9241010706873
 20
304.4100114207377
 30
0.0
 11
286.9241010706873
 21
280.4100114207397
 31
0.0
  0
LINE
  5
11C6
330
2
100
AcDbEntity
  8
0
100
AcDbLine
 10
288.9241010703908
 20
280.41001142074
 30
0.0
 11
286.9241010706873
 21
280.41001142074
 31
0.0
  0
LINE
  5
11C7
330
2
100
AcDbEntity
  8
0
100
AcDbLine
 10
288.924101070389
 20
304.4100114207379
 30
0.0
 11
286.9241010706873
 21
304.4100114207377
 31
0.0
  0
LINE
  5
11C8
330
2
100
AcDbEntity
  8
CENTER
100
AcDbLine
 10
386.4241010706864
 20
297.4182621511814
 30
0.0
 11
386.4241010706864
 21
287.4018475913513
 31
0.0
  0
ARC
  5
11C9
330
2
100
AcDbEntity
  8
0
100
AcDbCircle
 10
482.331371575341
 20
292.4100548712827
 30
0.0
 40
7.5
100
AcDbArc
 50
109.4684732313215
 51
70.52603191574333
  0
LINE
  5
11CA
330
2
100
AcDbEntity
  8
0
100
AcDbLine
 10
479.831710644622
 20
302.2100548712824
 30
0.0
 11
484.831710644622
 21
302.2100548712824
 31
0.0
  0
LINE
  5
11CB
330
2
100
AcDbEntity
  8
0
100
AcDbLine
 10
484.831710644622
 20
299.4810027949084
 30
0.0
 11
484.831710644622
 21
302.2100548712827
 31
0.0
  0
LINE
  5
11CC
330
2
100
AcDbEntity
  8
0
100
AcDbLine
 10
479.831710644622
 20
299.4812425530963
 30
0.0
 11
479.831710644622
 21
302.2100548712824
 31
0.0
  0
ARC
  5
11CD
330
2
100
AcDbEntity
  8
0
100
AcDbCircle
 10
482.3313715801805
 20
292.4100548712827
 30
0.0
 40
8.558018947192636
100
AcDbArc
 50
106.9827670368304
 51
73.01248583569116
  0
CIRCLE
  5
11CE
330
2
100
AcDbEntity
  8
0
100
AcDbCircle
 10
482.3313715801805
 20
292.4100548712827
 30
0.0
 40
11.99995654945598
  0
ARC
  5
11CF
330
2
100
AcDbEntity
  8
0
100
AcDbCircle
 10
183.5667641776544
 20
292.4100548712827
 30
0.0
 40
7.5
100
AcDbArc
 50
109.4684732313215
 51
70.52603191574333
  0
LINE
  5
11D0
330
2
100
AcDbEntity
  8
0
100
AcDbLine
 10
181.0671032469354
 20
302.2100548712829
 30
0.0
 11
186.0671032469354
 21
302.2100548712829
 31
0.0
  0
LINE
  5
11D1
330
2
100
AcDbEntity
  8
0
100
AcDbLine
 10
186.0671032469354
 20
299.4810027949086
 30
0.0
 11
186.0671032469354
 21
302.2100548712829
 31
0.0
  0
LINE
  5
11D2
330
2
100
AcDbEntity
  8
0
100
AcDbLine
 10
181.0671032469354
 20
299.4812425530968
 30
0.0
 11
181.0671032469354
 21
302.2100548712829
 31
0.0
  0
ARC
  5
11D3
330
2
100
AcDbEntity
  8
0
100
AcDbCircle
 10
183.5667641824938
 20
292.4100548712827
 30
0.0
 40
8.558018947192636
100
AcDbArc
 50
106.9827670368304
 51
73.01248583569116
  0
CIRCLE
  5
11D4
330
2
100
AcDbEntity
  8
0
100
AcDbCircle
 10
183.5667641824938
 20
292.4100548712827
 30
0.0
 40
11.99995654945598
  0
CIRCLE
  5
11D5
330
2
100
AcDbEntity
  8
0
100
AcDbCircle
 10
482.3313259660635
 20
441.6359443481099
 30
0.0
 40
1.6
  0
CIRCLE
  5
11D6
330
2
100
AcDbEntity
  8
HOJO
 48
0.5
100
AcDbCircle
 10
482.3313259660635
 20
441.6359443481099
 30
0.0
 40
2.0
  0
LINE
  5
11D7
330
2
100
AcDbEntity
  8
0
100
AcDbLine
 10
494.3313281296523
 20
435.1359443481099
 30
0.0
 11
470.3313281296523
 21
435.1359443481094
 31
0.0
  0
LINE
  5
11D8
330
2
100
AcDbEntity
  8
0
100
AcDbLine
 10
494.3313281296532
 20
435.1359443481099
 30
0.0
 11
470.3313281296532
 21
435.1359443481099
 31
0.0
  0
LINE
  5
11D9
330
2
100
AcDbEntity
  8
0
100
AcDbLine
 10
470.3313281296523
 20
445.1359443481101
 30
0.0
 11
470.3313281296523
 21
435.1359443481097
 31
0.0
  0
LINE
  5
11DA
330
2
100
AcDbEntity
  8
0
100
AcDbLine
 10
470.3313281296532
 20
445.1359443481094
 30
0.0
 11
470.3313281296532
 21
435.1359443481099
 31
0.0
  0
LINE
  5
11DB
330
2
100
AcDbEntity
  8
0
100
AcDbLine
 10
494.3313281296532
 20
445.1359443481097
 30
0.0
 11
494.3313281296523
 21
435.1359443481099
 31
0.0
  0
LINE
  5
11DC
330
2
100
AcDbEntity
  8
0
100
AcDbLine
 10
494.3313281296532
 20
445.1359443481099
 30
0.0
 11
494.3313281296532
 21
435.1359443481099
 31
0.0
  0
LINE
  5
11DD
330
2
100
AcDbEntity
  8
0
100
AcDbLine
 10
494.3313281296513
 20
541.1359443481101
 30
0.0
 11
470.3313281296532
 21
541.1359443481101
 31
0.0
  0
LINE
  5
11DE
330
2
100
AcDbEntity
  8
0
100
AcDbLine
 10
470.3313281296541
 20
539.1359443484068
 30
0.0
 11
470.3313281296541
 21
541.1359443481098
 31
0.0
  0
LINE
  5
11DF
330
2
100
AcDbEntity
  8
0
100
AcDbLine
 10
494.3313281296513
 20
539.1359443484077
 30
0.0
 11
494.3313281296513
 21
541.1359443481101
 31
0.0
  0
LINE
  5
11E0
330
2
100
AcDbEntity
  8
CENTER
100
AcDbLine
 10
487.3395788600955
 20
441.6359443481108
 30
0.0
 11
477.3231643002654
 21
441.6359443481108
 31
0.0
  0
LINE
  5
11E1
330
2
100
AcDbEntity
  8
PHAS
  6
SEKKEI_P_S
100
AcDbLine
 10
270.924101070389
 20
280.8739443267386
 30
0.0
 11
270.9241010703881
 21
303.9461504157935
 31
0.0
  0
LINE
  5
11E2
330
2
100
AcDbEntity
  8
PHAS
  6
SEKKEI_P_S
100
AcDbLine
 10
275.0558228268764
 20
275.9499121485494
 30
0.0
 11
285.7976970703885
 21
274.0557458712661
 31
0.0
  0
ARC
  5
11E3
330
2
100
AcDbEntity
  8
PHAS
  6
SEKKEI_P_S
100
AcDbCircle
 10
275.924101070389
 20
280.8739443267386
 30
0.0
 40
5.0
100
AcDbArc
 50
180.0
 51
259.9995653374257
  0
LINE
  5
11E4
330
2
100
AcDbEntity
  8
PHAS
  6
SEKKEI_P_S
100
AcDbLine
 10
286.6240980703905
 20
314.2909448712662
 30
0.0
 11
286.6240980703887
 21
270.5291498712661
 31
0.0
  0
ARC
  5
11E5
330
2
100
AcDbEntity
  8
PHAS
  6
SEKKEI_P_S
100
AcDbCircle
 10
285.6240980703887
 20
273.0709438712661
 30
0.0
 40
1.0
100
AcDbArc
 50
0.0
 51
79.99999999999483
  0
LINE
  5
11E6
330
2
100
AcDbEntity
  8
PHAS
  6
SEKKEI_P_S
100
AcDbLine
 10
296.4241010703872
 20
266.4100548712661
 30
0.0
 11
296.4241010703881
 21
318.4100548712661
 31
0.0
  0
ARC
  5
11E7
330
2
100
AcDbEntity
  8
PHAS
  6
SEKKEI_P_S
100
AcDbCircle
 10
275.9241010703881
 20
303.9461504157935
 30
0.0
 40
5.0
100
AcDbArc
 50
100.0004346625742
 51
180.0
  0
LINE
  5
11E8
330
2
100
AcDbEntity
  8
PHAS
  6
SEKKEI_P_S
100
AcDbLine
 10
275.0558228268755
 20
308.8701825939827
 30
0.0
 11
285.7976970703885
 21
310.7643488712661
 31
0.0
  0
ARC
  5
11E9
330
2
100
AcDbEntity
  8
PHAS
  6
SEKKEI_P_S
100
AcDbCircle
 10
289.6240980703887
 20
314.2909448712662
 30
0.0
 40
3.0
100
AcDbArc
 50
103.0417940599517
 51
179.9999999999934
  0
ARC
  5
11EA
330
2
100
AcDbEntity
  8
PHAS
  6
SEKKEI_P_S
100
AcDbCircle
 10
285.6240980703887
 20
311.749150871266
 30
0.0
 40
1.0
100
AcDbArc
 50
280.0000000000051
 51
0.0
  0
LINE
  5
11EB
330
2
100
AcDbEntity
  8
PHAS
  6
SEKKEI_P_S
100
AcDbLine
 10
293.924101070389
 20
318.366414871266
 30
0.0
 11
288.9471128420291
 21
317.2135620204294
 31
0.0
  0
LINE
  5
11EC
330
2
100
AcDbEntity
  8
PHAS
  6
SEKKEI_P_S
100
AcDbLine
 10
293.924101070389
 20
318.366414871266
 30
0.0
 11
296.4241010703881
 21
318.4100548712661
 31
0.0
  0
ARC
  5
11ED
330
2
100
AcDbEntity
  8
PHAS
  6
SEKKEI_P_S
100
AcDbCircle
 10
289.6240980703887
 20
270.5291648712659
 30
0.0
 40
3.0
100
AcDbArc
 50
180.0
 51
256.9582059400482
  0
LINE
  5
11EE
330
2
100
AcDbEntity
  8
PHAS
  6
SEKKEI_P_S
100
AcDbLine
 10
293.924101070389
 20
266.4536948712662
 30
0.0
 11
288.9471128420291
 21
267.6065477221027
 31
0.0
  0
LINE
  5
11EF
330
2
100
AcDbEntity
  8
PHAS
  6
SEKKEI_P_S
100
AcDbLine
 10
293.924101070389
 20
266.4536948712662
 30
0.0
 11
296.4241010703872
 21
266.4100548712661
 31
0.0
  0
LINE
  5
11F1
330
2
100
AcDbEntity
  8
0
100
AcDbLine
 10
518.1413715801804
 20
501.1359443479039
 30
0.0
 11
517.9581073565705
 21
522.1359443484068
 31
0.0
  0
LINE
  5
122A
330
2
100
AcDbEntity
  8
CENTER
100
AcDbLine
 10
780.6065377191994
 20
292.4100548712725
 30
0.0
 11
660.6065377191985
 21
292.4100548712725
 31
0.0
  0
LINE
  5
122B
330
2
100
AcDbEntity
  8
CENTER
100
AcDbLine
 10
733.6065377192085
 20
335.9100548712707
 30
0.0
 11
733.606537719208
 21
248.9100548712743
 31
0.0
  0
LINE
  5
122C
330
2
100
AcDbEntity
  8
0
100
AcDbLine
 10
695.6065377192048
 20
327.8908062377202
 30
0.0
 11
695.6065377192039
 21
256.9293035048247
 31
0.0
  0
LINE
  5
122D
330
2
100
AcDbEntity
  8
0
100
AcDbLine
 10
690.6065377192057
 20
322.4100548712691
 30
0.0
 11
690.6065377192057
 21
262.4100548712693
 31
0.0
  0
LINE
  5
122E
330
2
100
AcDbEntity
  8
0
100
AcDbLine
 10
695.6065377192057
 20
322.4100548712691
 30
0.0
 11
690.6065377192057
 21
322.4100548712691
 31
0.0
  0
LINE
  5
122F
330
2
100
AcDbEntity
  8
0
100
AcDbLine
 10
695.6065377192057
 20
262.4100548712693
 30
0.0
 11
690.6065377192057
 21
262.4100548712693
 31
0.0
  0
LINE
  5
1230
330
2
100
AcDbEntity
  8
0
100
AcDbLine
 10
677.6065377192021
 20
314.4786773216663
 30
0.0
 11
677.6065377192021
 21
270.3414324208941
 31
0.0
  0
LINE
  5
1231
330
2
100
AcDbEntity
  8
0
100
AcDbLine
 10
688.6763367126072
 20
316.7966207702491
 30
0.0
 11
679.536738725797
 21
316.4774589757042
 31
0.0
  0
LINE
  5
1232
330
2
100
AcDbEntity
  8
0
100
AcDbLine
 10
688.6763367126072
 20
268.0234889723122
 30
0.0
 11
679.536738725797
 21
268.3426507668562
 31
0.0
  0
ARC
  5
1233
330
2
100
AcDbEntity
  8
0
100
AcDbCircle
 10
679.6065377192022
 20
314.4786773216663
 30
0.0
 40
2.0
100
AcDbArc
 50
92.00000000000365
 51
180.0
  0
ARC
  5
1234
330
2
100
AcDbEntity
  8
0
100
AcDbCircle
 10
679.6065377192022
 20
270.3414324208941
 30
0.0
 40
2.0
100
AcDbArc
 50
180.0
 51
267.9999999999963
  0
ARC
  5
1235
330
2
100
AcDbEntity
  8
0
100
AcDbCircle
 10
688.6065377192021
 20
266.0247073182743
 30
0.0
 40
2.0
100
AcDbArc
 50
0.0
 51
87.99999999999636
  0
ARC
  5
1236
330
2
100
AcDbEntity
  8
0
100
AcDbCircle
 10
688.6065377192021
 20
318.795402424287
 30
0.0
 40
2.0
100
AcDbArc
 50
272.0000000000036
 51
0.0
  0
LINE
  5
1237
330
2
100
AcDbEntity
  8
0
100
AcDbLine
 10
700.2307935465728
 20
256.8889482355901
 30
0.0
 11
695.6065377192039
 21
256.9293035048247
 31
0.0
  0
LINE
  5
1238
330
2
100
AcDbEntity
  8
0
100
AcDbLine
 10
700.3326658856671
 20
327.9320505333892
 30
0.0
 11
695.6065377192048
 21
327.8908062377202
 31
0.0
  0
ARC
  5
1239
330
2
100
AcDbEntity
  8
0
100
AcDbCircle
 10
764.6065377192094
 20
323.4790170858853
 30
0.0
 40
5.0
100
AcDbArc
 50
44.44120088040897
 51
89.20427644728171
  0
LINE
  5
123A
330
2
100
AcDbEntity
  8
0
100
AcDbLine
 10
764.6759754666622
 20
328.4785349025581
 30
0.0
 11
733.6065377192094
 21
328.9100548712706
 31
0.0
  0
LINE
  5
123B
330
2
100
AcDbEntity
  8
0
100
AcDbLine
 10
702.5370999717611
 20
328.4785349025572
 30
0.0
 11
733.6065377192076
 21
328.9100548712706
 31
0.0
  0
ARC
  5
123C
330
2
100
AcDbEntity
  8
0
100
AcDbCircle
 10
702.6065377192148
 20
323.4790170858844
 30
0.0
 40
5.0
100
AcDbArc
 50
90.79572355271826
 51
135.558799116601
  0
ARC
  5
123D
330
2
100
AcDbEntity
  8
0
100
AcDbCircle
 10
764.6065377192094
 20
261.3410926566596
 30
0.0
 40
5.0
100
AcDbArc
 50
270.7957235527183
 51
315.5587991245656
  0
LINE
  5
123E
330
2
100
AcDbEntity
  8
0
100
AcDbLine
 10
764.6759754666622
 20
256.3415748399868
 30
0.0
 11
733.6065377192094
 21
255.9100548712743
 31
0.0
  0
LINE
  5
123F
330
2
100
AcDbEntity
  8
0
100
AcDbLine
 10
702.5370999717611
 20
256.3415748399878
 30
0.0
 11
733.6065377192076
 21
255.9100548712743
 31
0.0
  0
ARC
  5
1240
330
2
100
AcDbEntity
  8
0
100
AcDbCircle
 10
702.6065377192148
 20
261.3410926566605
 30
0.0
 40
5.0
100
AcDbArc
 50
224.4412008784415
 51
269.2042764472816
  0
LINE
  5
1241
330
2
100
AcDbEntity
  8
0
100
AcDbLine
 10
770.6065377194968
 20
315.4100548712734
 30
0.0
 11
771.6065377194977
 21
314.8327046020836
 31
0.0
  0
LINE
  5
1242
330
2
100
AcDbEntity
  8
0
100
AcDbLine
 10
770.6065377194977
 20
315.4100548712734
 30
0.0
 11
769.7870932747646
 21
315.4100548712731
 31
0.0
  0
LINE
  5
1243
330
2
100
AcDbEntity
  8
0
100
AcDbLine
 10
771.6065377194968
 20
269.9874051404606
 30
0.0
 11
771.6065377194959
 21
314.8327046020845
 31
0.0
  0
LINE
  5
1244
330
2
100
AcDbEntity
  8
0
100
AcDbLine
 10
770.6065377194968
 20
269.4100548712715
 30
0.0
 11
771.6065377194977
 21
269.9874051404611
 31
0.0
  0
LINE
  5
1245
330
2
100
AcDbEntity
  8
0
100
AcDbLine
 10
770.6065377194977
 20
269.4100548712715
 30
0.0
 11
769.7870932747637
 21
269.4100548712715
 31
0.0
  0
LINE
  5
1246
330
2
100
AcDbEntity
  8
0
100
AcDbLine
 10
770.6065377194968
 20
315.4100548712734
 30
0.0
 11
770.6065377194977
 21
269.4100548712715
 31
0.0
  0
LINE
  5
1247
330
2
100
AcDbEntity
  8
0
100
AcDbLine
 10
667.6065377191985
 20
304.4100114207449
 30
0.0
 11
667.6065377191985
 21
280.4100114207449
 31
0.0
  0
LINE
  5
1248
330
2
100
AcDbEntity
  8
0
100
AcDbLine
 10
667.6065377191985
 20
304.4100114207449
 30
0.0
 11
667.6065377191985
 21
280.4100114207452
 31
0.0
  0
LINE
  5
1249
330
2
100
AcDbEntity
  8
0
100
AcDbLine
 10
677.6065377191994
 20
280.4100114207449
 30
0.0
 11
667.6065377191985
 21
280.4100114207449
 31
0.0
  0
LINE
  5
124A
330
2
100
AcDbEntity
  8
0
100
AcDbLine
 10
677.6065377191985
 20
280.4100114207449
 30
0.0
 11
667.6065377191985
 21
280.4100114207449
 31
0.0
  0
LINE
  5
124B
330
2
100
AcDbEntity
  8
0
100
AcDbLine
 10
677.6065377191985
 20
304.4100114207449
 30
0.0
 11
667.6065377191985
 21
304.4100114207449
 31
0.0
  0
LINE
  5
124C
330
2
100
AcDbEntity
  8
0
100
AcDbLine
 10
677.6065377191985
 20
304.4100114207449
 30
0.0
 11
667.6065377191985
 21
304.4100114207449
 31
0.0
  0
LINE
  5
124D
330
2
100
AcDbEntity
  8
0
100
AcDbLine
 10
773.6065377191994
 20
304.410011420744
 30
0.0
 11
773.6065377191994
 21
280.4100114207461
 31
0.0
  0
LINE
  5
124E
330
2
100
AcDbEntity
  8
0
100
AcDbLine
 10
771.6065377194959
 20
280.4100114207463
 30
0.0
 11
773.6065377191985
 21
280.4100114207463
 31
0.0
  0
LINE
  5
124F
330
2
100
AcDbEntity
  8
0
100
AcDbLine
 10
771.6065377194968
 20
304.4100114207442
 30
0.0
 11
773.6065377191994
 21
304.410011420744
 31
0.0
  0
LINE
  5
1251
330
2
100
AcDbEntity
  8
0
100
AcDbLine
 10
94.33560722646962
 20
319.2700548712826
 30
0.0
 11
99.03560722646853
 21
319.2700548712826
 31
0.0
  0
LINE
  5
1252
330
2
100
AcDbEntity
  8
0
100
AcDbLine
 10
99.03560722646853
 20
327.7700548712826
 30
0.0
 11
94.33560722646962
 21
327.7700548712826
 31
0.0
  0
LINE
  5
1253
330
2
100
AcDbEntity
  8
CENTER
  6
CENS
100
AcDbLine
 10
116.5667641824975
 20
323.5200548712826
 30
0.0
 11
89.10979125241373
 21
323.5200548712826
 31
0.0
  0
LINE
  5
1254
330
2
100
AcDbEntity
  8
0
100
AcDbLine
 10
94.03560722646853
 20
327.2504396290122
 30
0.0
 11
94.03560722646853
 21
319.7896701135531
 31
0.0
  0
LINE
  5
1255
330
2
100
AcDbEntity
  8
0
100
AcDbLine
 10
94.33560722646962
 20
319.2700548712826
 30
0.0
 11
94.33560722646962
 21
327.7700548712826
 31
0.0
  0
LINE
  5
1256
330
2
100
AcDbEntity
  8
0
100
AcDbLine
 10
94.33560722646962
 20
319.2700548712826
 30
0.0
 11
94.03560722646853
 21
319.7896701135531
 31
0.0
  0
LINE
  5
1257
330
2
100
AcDbEntity
  8
0
100
AcDbLine
 10
94.03560722646853
 20
327.2504396290122
 30
0.0
 11
94.33560722646962
 21
327.7700548712826
 31
0.0
  0
LINE
  5
1258
330
2
100
AcDbEntity
  8
0
100
AcDbLine
 10
99.03560722646853
 20
327.7700548712826
 30
0.0
 11
100.0356072264685
 21
327.7700548712826
 31
0.0
  0
LINE
  5
1259
330
2
100
AcDbEntity
  8
0
100
AcDbLine
 10
100.0356072264685
 20
327.7700548712826
 30
0.0
 11
100.0356072264685
 21
319.2700548712826
 31
0.0
  0
LINE
  5
125A
330
2
100
AcDbEntity
  8
0
100
AcDbLine
 10
100.0356072264685
 20
319.2700548712826
 30
0.0
 11
99.03560722646853
 21
319.2700548712826
 31
0.0
  0
LINE
  5
125B
330
2
100
AcDbEntity
  8
0
100
AcDbLine
 10
99.03560722646853
 20
319.2700548712826
 30
0.0
 11
99.03560722646853
 21
327.7700548712826
 31
0.0
  0
LINE
  5
125C
330
2
100
AcDbEntity
  8
0
100
AcDbLine
 10
99.03560722646853
 20
319.2700548712826
 30
0.0
 11
99.03560722646853
 21
327.7700548712826
 31
0.0
  0
ARC
  5
125D
330
2
100
AcDbEntity
  8
0
100
AcDbCircle
 10
95.23233781586805
 20
257.410054871282
 30
0.0
 40
5.0
100
AcDbArc
 50
8.213210701743676
 51
16.12586214360769
  0
LINE
  5
125E
330
2
100
AcDbEntity
  8
0
100
AcDbLine
 10
100.1608456558324
 20
258.3751500584078
 30
0.0
 11
99.56676418249754
 21
292.4100548712825
 31
0.0
  0
LINE
  5
125F
330
2
100
AcDbEntity
  8
0
100
AcDbLine
 10
111.5667641824975
 20
256.4100548712825
 30
0.0
 11
102.1605410461443
 21
256.4100548712825
 31
0.0
  0
ARC
  5
1260
330
2
100
AcDbEntity
  8
0
100
AcDbCircle
 10
102.1605410461443
 20
258.4100548712825
 30
0.0
 40
2.0
100
AcDbArc
 50
181.0000000000017
 51
270.0
  0
LINE
  5
1261
330
2
100
AcDbEntity
  8
CENTER
  6
CENS
100
AcDbLine
 10
82.56676418249753
 20
302.8100548712826
 30
0.0
 11
82.56676418249753
 21
331.0892364717645
 31
0.0
  0
LINE
  5
1262
330
2
100
AcDbEntity
  8
0
100
AcDbLine
 10
100.1608456558324
 20
326.4449596841566
 30
0.0
 11
99.56676418249799
 21
292.4100548712825
 31
0.0
  0
LINE
  5
1263
330
2
100
AcDbEntity
  8
0
100
AcDbLine
 10
83.0955492086896
 20
319.4059426405049
 30
0.0
 11
83.56676418249845
 21
292.4100548712825
 31
0.0
  0
LINE
  5
1264
330
2
100
AcDbEntity
  8
0
100
AcDbLine
 10
111.5667641824975
 20
292.4100548712825
 30
0.0
 11
68.56676418249754
 21
292.4100548712825
 31
0.0
  0
LINE
  5
1265
330
2
100
AcDbEntity
  8
0
100
AcDbLine
 10
94.03560722646853
 20
262.4100548712825
 30
0.0
 11
68.56676418249754
 21
262.4100548712825
 31
0.0
  0
LINE
  5
1266
330
2
100
AcDbEntity
  8
0
100
AcDbLine
 10
83.0955492086896
 20
265.41416710206
 30
0.0
 11
83.56676418249753
 21
292.4100548712825
 31
0.0
  0
ARC
  5
1267
330
2
100
AcDbEntity
  8
0
100
AcDbCircle
 10
80.09502044530291
 20
265.4100548712825
 30
0.0
 40
3.0
100
AcDbArc
 50
270.0
 51
358.9999999999982
  0
ARC
  5
1268
330
2
100
AcDbEntity
  8
0
100
AcDbCircle
 10
95.65854923188727
 20
267.6422362257393
 30
0.0
 40
3.0
100
AcDbArc
 50
90.0
 51
178.9999999999721
  0
LINE
  5
1269
330
2
100
AcDbEntity
  8
0
100
AcDbLine
 10
86.18726247882568
 20
270.6422362257392
 30
0.0
 11
95.65854923188727
 21
270.6422362257388
 31
0.0
  0
LINE
  5
126A
330
2
100
AcDbEntity
  8
0
100
AcDbLine
 10
92.6590061464185
 20
267.6945934450512
 30
0.0
 11
92.60106504657869
 21
264.3751500584079
 31
0.0
  0
ARC
  5
126B
330
2
100
AcDbEntity
  8
0
100
AcDbCircle
 10
90.60136965626497
 20
264.4100548712825
 30
0.0
 40
2.0
100
AcDbArc
 50
270.0
 51
358.9999999999721
  0
LINE
  5
126C
330
2
100
AcDbEntity
  8
0
100
AcDbLine
 10
94.03560722646853
 20
322.4100548712829
 30
0.0
 11
68.56676418249754
 21
322.4100548712825
 31
0.0
  0
ARC
  5
126D
330
2
100
AcDbEntity
  8
0
100
AcDbCircle
 10
80.09502044530291
 20
319.4100548712825
 30
0.0
 40
3.0
100
AcDbArc
 50
1.000000000001775
 51
90.0
  0
ARC
  5
126E
330
2
100
AcDbEntity
  8
0
100
AcDbCircle
 10
102.1605410461443
 20
326.4100548712825
 30
0.0
 40
2.0
100
AcDbArc
 50
90.0
 51
178.9999999999982
  0
LINE
  5
126F
330
2
100
AcDbEntity
  8
0
100
AcDbLine
 10
111.5667641824975
 20
328.4100548712824
 30
0.0
 11
102.1605410461443
 21
328.4100548712824
 31
0.0
  0
ARC
  5
1270
330
2
100
AcDbEntity
  8
0
100
AcDbCircle
 10
95.23233781586805
 20
327.4100548712829
 30
0.0
 40
5.0
100
AcDbArc
 50
343.8741378563923
 51
351.7867892982563
  0
LINE
  5
1271
330
2
100
AcDbEntity
  8
0
100
AcDbLine
 10
68.56676418249754
 20
262.4100548712825
 30
0.0
 11
68.56676418249754
 21
322.4100548712825
 31
0.0
  0
LINE
  5
1272
330
2
100
AcDbEntity
  8
0
100
AcDbLine
 10
94.33560722646962
 20
265.5500548712824
 30
0.0
 11
99.03560722646853
 21
265.5500548712824
 31
0.0
  0
LINE
  5
1273
330
2
100
AcDbEntity
  8
0
100
AcDbLine
 10
99.03560722646853
 20
257.0500548712824
 30
0.0
 11
94.33560722646962
 21
257.0500548712824
 31
0.0
  0
LINE
  5
1274
330
2
100
AcDbEntity
  8
CENTER
  6
CENS
100
AcDbLine
 10
116.5667641824975
 20
261.3000548712824
 30
0.0
 11
89.10979125241373
 21
261.3000548712824
 31
0.0
  0
LINE
  5
1275
330
2
100
AcDbEntity
  8
0
100
AcDbLine
 10
94.03560722646853
 20
257.5696701135528
 30
0.0
 11
94.03560722646853
 21
265.0304396290119
 31
0.0
  0
LINE
  5
1276
330
2
100
AcDbEntity
  8
0
100
AcDbLine
 10
94.33560722646962
 20
265.5500548712824
 30
0.0
 11
94.33560722646962
 21
257.0500548712824
 31
0.0
  0
LINE
  5
1277
330
2
100
AcDbEntity
  8
0
100
AcDbLine
 10
94.33560722646962
 20
265.5500548712824
 30
0.0
 11
94.03560722646853
 21
265.0304396290119
 31
0.0
  0
LINE
  5
1278
330
2
100
AcDbEntity
  8
0
100
AcDbLine
 10
94.03560722646853
 20
257.5696701135528
 30
0.0
 11
94.33560722646962
 21
257.0500548712824
 31
0.0
  0
LINE
  5
1279
330
2
100
AcDbEntity
  8
0
100
AcDbLine
 10
99.03560722646853
 20
257.0500548712824
 30
0.0
 11
100.0356072264685
 21
257.0500548712824
 31
0.0
  0
LINE
  5
127A
330
2
100
AcDbEntity
  8
0
100
AcDbLine
 10
100.0356072264685
 20
257.0500548712824
 30
0.0
 11
100.0356072264685
 21
265.5500548712824
 31
0.0
  0
LINE
  5
127B
330
2
100
AcDbEntity
  8
0
100
AcDbLine
 10
100.0356072264685
 20
265.5500548712824
 30
0.0
 11
99.03560722646853
 21
265.5500548712824
 31
0.0
  0
LINE
  5
127C
330
2
100
AcDbEntity
  8
0
100
AcDbLine
 10
99.03560722646853
 20
265.5500548712824
 30
0.0
 11
99.03560722646853
 21
257.0500548712824
 31
0.0
  0
LINE
  5
127D
330
2
100
AcDbEntity
  8
0
100
AcDbLine
 10
99.03560722646853
 20
265.5500548712824
 30
0.0
 11
99.03560722646853
 21
257.0500548712824
 31
0.0
  0
LINE
  5
127E
330
2
100
AcDbEntity
  8
0
100
AcDbLine
 10
77.56675801131041
 20
326.4100548712825
 30
0.0
 11
87.56675801131041
 21
326.4100548712825
 31
0.0
  0
ARC
  5
127F
330
2
100
AcDbEntity
  8
0
100
AcDbCircle
 10
87.56675801131041
 20
322.4100548712825
 30
0.0
 40
4.0
100
AcDbArc
 50
0.0
 51
90.0
  0
ARC
  5
1280
330
2
100
AcDbEntity
  8
0
100
AcDbCircle
 10
77.56675801131041
 20
322.4100548712825
 30
0.0
 40
4.0
100
AcDbArc
 50
90.0
 51
180.0
  0
LINE
  5
1281
330
2
100
AcDbEntity
  8
0
100
AcDbLine
 10
702.5375755045965
 20
256.4100548712786
 30
0.0
 11
764.6754999338213
 21
256.4100548712786
 31
0.0
  0
CIRCLE
  5
1282
330
2
100
AcDbEntity
  8
HIDS
100
AcDbCircle
 10
733.6065377192085
 20
292.4100548712786
 30
0.0
 40
30.0
  0
ARC
  5
1283
330
2
100
AcDbEntity
  8
0
100
AcDbCircle
 10
708.67928113055
 20
267.410054871279
 30
0.0
 40
5.0
100
AcDbArc
 50
180.1666666666621
 51
270.0
  0
LINE
  5
1284
330
2
100
AcDbEntity
  8
CENTER
100
AcDbLine
 10
713.8565377192085
 20
317.1600548712786
 30
0.0
 11
703.8565377192085
 21
317.1600548712786
 31
0.0
  0
LINE
  5
1285
330
2
100
AcDbEntity
  8
CENTER
100
AcDbLine
 10
713.8565377192085
 20
267.6600548712786
 30
0.0
 11
703.8565377192085
 21
267.6600548712786
 31
0.0
  0
ARC
  5
1286
330
2
100
AcDbEntity
  8
0
100
AcDbCircle
 10
708.67928113055
 20
317.4100548712782
 30
0.0
 40
5.0
100
AcDbArc
 50
90.0
 51
179.8333333333378
  0
LINE
  5
1287
330
2
100
AcDbEntity
  8
0
100
AcDbLine
 10
697.5380576879238
 20
261.3406171238244
 30
0.0
 11
697.1065377191985
 21
292.41005487128
 31
0.0
  0
LINE
  5
1288
330
2
100
AcDbEntity
  8
0
100
AcDbLine
 10
703.6793022845227
 20
267.3955104813576
 30
0.0
 11
703.6065377192085
 21
292.4100548712786
 31
0.0
  0
ARC
  5
1289
330
2
100
AcDbEntity
  8
0
100
AcDbCircle
 10
702.5375755045965
 20
261.4100548712781
 30
0.0
 40
5.0
100
AcDbArc
 50
180.7957235527443
 51
270.0
  0
LINE
  5
128A
330
2
100
AcDbEntity
  8
0
100
AcDbLine
 10
697.5380576879238
 20
323.4794926187324
 30
0.0
 11
697.1065377191989
 21
292.41005487128
 31
0.0
  0
LINE
  5
128B
330
2
100
AcDbEntity
  8
0
100
AcDbLine
 10
703.6793022845227
 20
317.4245992611996
 30
0.0
 11
703.6065377192085
 21
292.4100548712786
 31
0.0
  0
LINE
  5
128C
330
2
100
AcDbEntity
  8
0
100
AcDbLine
 10
703.6065377192085
 20
292.4100548712786
 30
0.0
 11
697.1065377192084
 21
292.4100548712782
 31
0.0
  0
ARC
  5
128D
330
2
100
AcDbEntity
  8
0
100
AcDbCircle
 10
702.5375755045965
 20
323.4100548712786
 30
0.0
 40
5.0
100
AcDbArc
 50
90.0
 51
179.2042764472556
  0
LINE
  5
128E
330
2
100
AcDbEntity
  8
0
100
AcDbLine
 10
769.6750177504941
 20
261.3406171238244
 30
0.0
 11
770.106537719208
 21
292.41005487128
 31
0.0
  0
LINE
  5
128F
330
2
100
AcDbEntity
  8
0
100
AcDbLine
 10
763.5337731538952
 20
267.3955104813576
 30
0.0
 11
763.6065377192085
 21
292.4100548712786
 31
0.0
  0
LINE
  5
1290
330
2
100
AcDbEntity
  8
0
100
AcDbLine
 10
758.533794307868
 20
262.4100548712786
 30
0.0
 11
708.67928113055
 21
262.4100548712786
 31
0.0
  0
LINE
  5
1291
330
2
100
AcDbEntity
  8
CENTER
100
AcDbLine
 10
708.8565377192085
 20
272.6600548712786
 30
0.0
 11
708.8565377192085
 21
262.6600548712786
 31
0.0
  0
LINE
  5
1292
330
2
100
AcDbEntity
  8
HIDS
100
AcDbLine
 10
754.1408385832905
 20
264.375150058404
 30
0.0
 11
754.2288763330048
 21
269.4188293616421
 31
0.0
  0
ARC
  5
1293
330
2
100
AcDbEntity
  8
0
100
AcDbCircle
 10
758.533794307868
 20
267.410054871279
 30
0.0
 40
5.0
100
AcDbArc
 50
270.0
 51
359.8333333333378
  0
LINE
  5
1294
330
2
100
AcDbEntity
  8
CENTER
100
AcDbLine
 10
758.3565377192085
 20
272.6600548712786
 30
0.0
 11
758.3565377192085
 21
262.6600548712786
 31
0.0
  0
ARC
  5
1295
330
2
100
AcDbEntity
  8
0
100
AcDbCircle
 10
764.6754999338213
 20
261.4100548712781
 30
0.0
 40
4.999999999999999
100
AcDbArc
 50
270.0
 51
359.2042764472556
  0
ARC
  5
1296
330
2
100
AcDbEntity
  8
HIDS
100
AcDbCircle
 10
752.1411431929768
 20
264.4100548712786
 30
0.0
 40
2.0
100
AcDbArc
 50
270.0
 51
358.9999999999982
  0
LINE
  5
1297
330
2
100
AcDbEntity
  8
CENTER
100
AcDbLine
 10
763.3565377192085
 20
267.6600548712786
 30
0.0
 11
753.3565377192084
 21
267.6600548712786
 31
0.0
  0
ARC
  5
1298
330
2
100
AcDbEntity
  8
HIDS
100
AcDbCircle
 10
757.2284194184744
 20
269.3664721423297
 30
0.0
 40
3.0
100
AcDbArc
 50
135.7099981688253
 51
178.9999999999982
  0
LINE
  5
1299
330
2
100
AcDbEntity
  8
0
100
AcDbLine
 10
758.533794307868
 20
322.4100548712786
 30
0.0
 11
708.67928113055
 21
322.4100548712781
 31
0.0
  0
LINE
  5
129A
330
2
100
AcDbEntity
  8
HIDS
100
AcDbLine
 10
717.3565377192094
 20
322.4100548712781
 30
0.0
 11
717.6041058378855
 21
308.2268868512842
 31
0.0
  0
LINE
  5
129B
330
2
100
AcDbEntity
  8
CENTER
100
AcDbLine
 10
708.8565377192085
 20
322.1600548712786
 30
0.0
 11
708.8565377192085
 21
312.1600548712786
 31
0.0
  0
ARC
  5
129C
330
2
100
AcDbEntity
  8
HIDS
100
AcDbCircle
 10
709.9846560199434
 20
315.4536376002275
 30
0.0
 40
3.0
100
AcDbArc
 50
315.7099981688253
 51
358.9999999999982
  0
ARC
  5
129D
330
2
100
AcDbEntity
  8
HIDS
100
AcDbCircle
 10
715.0719322454401
 20
320.4100548712781
 30
0.0
 40
2.0
100
AcDbArc
 50
90.0
 51
178.9999999999982
  0
LINE
  5
129E
330
2
100
AcDbEntity
  8
HIDS
100
AcDbLine
 10
713.0722368551273
 20
320.4449596841528
 30
0.0
 11
712.9841991054122
 21
315.4012803809151
 31
0.0
  0
LINE
  5
129F
330
2
100
AcDbEntity
  8
HIDS
100
AcDbLine
 10
728.8565377192085
 20
322.4100548712786
 30
0.0
 11
728.7162360953638
 21
314.3721802244381
 31
0.0
  0
LINE
  5
12A0
330
2
100
AcDbEntity
  8
0
100
AcDbLine
 10
769.6750177504941
 20
323.4794926187324
 30
0.0
 11
770.1065377192085
 21
292.41005487128
 31
0.0
  0
LINE
  5
12A1
330
2
100
AcDbEntity
  8
0
100
AcDbLine
 10
763.5337731538952
 20
317.4245992611996
 30
0.0
 11
763.6065377192085
 21
292.4100548712786
 31
0.0
  0
LINE
  5
12A2
330
2
100
AcDbEntity
  8
CENTER
100
AcDbLine
 10
758.3565377192085
 20
322.1600548712786
 30
0.0
 11
758.3565377192085
 21
312.1600548712786
 31
0.0
  0
LINE
  5
12A3
330
2
100
AcDbEntity
  8
0
100
AcDbLine
 10
763.6065377192085
 20
292.4100548712786
 30
0.0
 11
770.1065377192094
 21
292.4100548712786
 31
0.0
  0
ARC
  5
12A4
330
2
100
AcDbEntity
  8
0
100
AcDbCircle
 10
764.6754999338213
 20
323.4100548712786
 30
0.0
 40
4.999999999999999
100
AcDbArc
 50
0.7957235527443399
 51
90.0
  0
ARC
  5
12A5
330
2
100
AcDbEntity
  8
0
100
AcDbCircle
 10
758.533794307868
 20
317.4100548712782
 30
0.0
 40
5.0
100
AcDbArc
 50
0.1666666666621044
 51
90.0
  0
LINE
  5
12A6
330
2
100
AcDbEntity
  8
CENTER
100
AcDbLine
 10
763.3565377192085
 20
317.1600548712786
 30
0.0
 11
753.3565377192084
 21
317.1600548712786
 31
0.0
  0
CIRCLE
  5
12A7
330
2
100
AcDbEntity
  8
0
100
AcDbCircle
 10
733.6065377192085
 20
292.4100548712786
 30
0.0
 40
25.00000000022851
  0
LINE
  5
12A8
330
2
100
AcDbEntity
  8
0
100
AcDbLine
 10
702.5375755045965
 20
328.4100548712786
 30
0.0
 11
764.6754999338213
 21
328.4100548712786
 31
0.0
  0
CIRCLE
  5
12A9
330
2
100
AcDbEntity
  8
0
100
AcDbCircle
 10
702.4965377192089
 20
261.3000548712785
 30
0.0
 40
2.75
  0
CIRCLE
  5
12AA
330
2
100
AcDbEntity
  8
0
100
AcDbCircle
 10
764.7165377192082
 20
323.5200548712787
 30
0.0
 40
2.75
  0
CIRCLE
  5
12AB
330
2
100
AcDbEntity
  8
0
100
AcDbCircle
 10
764.7165377192082
 20
261.3000548712789
 30
0.0
 40
2.75
  0
ARC
  5
12AC
330
2
100
AcDbEntity
  8
0
100
AcDbCircle
 10
702.4965377192089
 20
323.5200548712787
 30
0.0
 40
4.25000000000019
100
AcDbArc
 50
337.0991355555478
 51
293.5789623545196
  0
ARC
  5
12AD
330
2
100
AcDbEntity
  8
0
100
AcDbCircle
 10
702.4965377192089
 20
323.5200548712787
 30
0.0
 40
3.730384757729381
100
AcDbArc
 50
321.5287333511405
 51
309.1493645588748
  0
LWPOLYLINE
  5
12AE
330
2
100
AcDbEntity
  8
0
100
AcDbPolyline
 90
        6
 70
     1
 43
0.0
 10
704.4965377192088
 20
324.6747554096578
 10
702.4965377192089
 20
325.8294559480373
 10
700.4965377192088
 20
324.6747554096578
 10
700.4965377192088
 20
322.3653543328997
 10
702.4965377192089
 20
321.2106537945201
 10
704.4965377192088
 20
322.3653543328997
  0
CIRCLE
  5
12AF
330
2
100
AcDbEntity
  8
0
100
AcDbCircle
 10
702.4965377192089
 20
323.5200548712787
 30
0.0
 40
2.3094010767585
  0
LINE
  5
12B0
330
2
100
AcDbEntity
  8
CENTER
100
AcDbLine
 10
702.496537719207
 20
329.4784851185728
 30
0.0
 11
702.496537719207
 21
317.5616246239847
 31
0.0
  0
LINE
  5
12B1
330
2
100
AcDbEntity
  8
CENTER
100
AcDbLine
 10
696.538107471913
 20
323.5200548712787
 30
0.0
 11
708.454967966501
 21
323.5200548712787
 31
0.0
  0
ARC
  5
12B2
330
2
100
AcDbEntity
  8
0
100
AcDbCircle
 10
764.7165377192099
 20
323.5200548712787
 30
0.0
 40
4.25000000000019
100
AcDbArc
 50
246.4210376454803
 51
202.9008644444513
  0
ARC
  5
12B3
330
2
100
AcDbEntity
  8
0
100
AcDbCircle
 10
764.7165377192099
 20
323.5200548712787
 30
0.0
 40
3.730384757729381
100
AcDbArc
 50
230.8506354409949
 51
218.4712666488647
  0
LWPOLYLINE
  5
12B4
330
2
100
AcDbEntity
  8
0
100
AcDbPolyline
 90
        6
 70
     1
 43
0.0
 10
766.71653771921
 20
324.6747554096578
 10
764.7165377192099
 20
325.8294559480373
 10
762.71653771921
 20
324.6747554096578
 10
762.71653771921
 20
322.3653543328997
 10
764.7165377192099
 20
321.2106537945201
 10
766.71653771921
 20
322.3653543328997
  0
CIRCLE
  5
12B5
330
2
100
AcDbEntity
  8
0
100
AcDbCircle
 10
764.7165377192099
 20
323.5200548712787
 30
0.0
 40
2.3094010767585
  0
LINE
  5
12B6
330
2
100
AcDbEntity
  8
CENTER
100
AcDbLine
 10
764.7165377192082
 20
329.4784851185728
 30
0.0
 11
764.7165377192082
 21
317.5616246239847
 31
0.0
  0
LINE
  5
12B7
330
2
100
AcDbEntity
  8
CENTER
100
AcDbLine
 10
758.7581074719142
 20
323.5200548712787
 30
0.0
 11
770.6749679665022
 21
323.5200548712787
 31
0.0
  0
ARC
  5
12B8
330
2
100
AcDbEntity
  8
0
100
AcDbCircle
 10
764.7165377192099
 20
261.3000548712789
 30
0.0
 40
4.25000000000019
100
AcDbArc
 50
157.0991355555478
 51
113.5789623545196
  0
ARC
  5
12B9
330
2
100
AcDbEntity
  8
0
100
AcDbCircle
 10
764.7165377192099
 20
261.3000548712789
 30
0.0
 40
3.730384757729381
100
AcDbArc
 50
141.5287333511352
 51
129.1493645588748
  0
LWPOLYLINE
  5
12BA
330
2
100
AcDbEntity
  8
0
100
AcDbPolyline
 90
        6
 70
     1
 43
0.0
 10
766.71653771921
 20
262.454755409658
 10
764.7165377192099
 20
263.6094559480375
 10
762.71653771921
 20
262.454755409658
 10
762.71653771921
 20
260.1453543328998
 10
764.7165377192099
 20
258.9906537945203
 10
766.71653771921
 20
260.1453543328998
  0
CIRCLE
  5
12BB
330
2
100
AcDbEntity
  8
0
100
AcDbCircle
 10
764.7165377192099
 20
261.3000548712789
 30
0.0
 40
2.3094010767585
  0
LINE
  5
12BC
330
2
100
AcDbEntity
  8
CENTER
100
AcDbLine
 10
764.7165377192082
 20
267.2584851185729
 30
0.0
 11
764.7165377192082
 21
255.3416246239849
 31
0.0
  0
LINE
  5
12BD
330
2
100
AcDbEntity
  8
CENTER
100
AcDbLine
 10
758.7581074719142
 20
261.3000548712789
 30
0.0
 11
770.6749679665022
 21
261.3000548712789
 31
0.0
  0
ARC
  5
12BE
330
2
100
AcDbEntity
  8
0
100
AcDbCircle
 10
702.4965377192097
 20
261.3000548712785
 30
0.0
 40
4.25000000000019
100
AcDbArc
 50
66.42103764559411
 51
22.90086444441159
  0
ARC
  5
12BF
330
2
100
AcDbEntity
  8
0
100
AcDbCircle
 10
702.4965377192097
 20
261.3000548712785
 30
0.0
 40
3.730384757729381
100
AcDbArc
 50
50.85063544125946
 51
38.47126664869841
  0
LWPOLYLINE
  5
12C0
330
2
100
AcDbEntity
  8
0
100
AcDbPolyline
 90
        6
 70
     1
 43
0.0
 10
704.4965377192097
 20
262.454755409658
 10
702.4965377192097
 20
263.6094559480371
 10
700.4965377192097
 20
262.454755409658
 10
700.4965377192097
 20
260.1453543328994
 10
702.4965377192097
 20
258.9906537945203
 10
704.4965377192097
 20
260.1453543328994
  0
CIRCLE
  5
12C1
330
2
100
AcDbEntity
  8
0
100
AcDbCircle
 10
702.4965377192097
 20
261.3000548712785
 30
0.0
 40
2.3094010767585
  0
LINE
  5
12C2
330
2
100
AcDbEntity
  8
CENTER
100
AcDbLine
 10
702.4965377192089
 20
267.2584851185725
 30
0.0
 11
702.4965377192089
 21
255.3416246239844
 31
0.0
  0
LINE
  5
12C3
330
2
100
AcDbEntity
  8
CENTER
100
AcDbLine
 10
696.5381074719148
 20
261.3000548712785
 30
0.0
 11
708.4549679665029
 21
261.3000548712785
 31
0.0
  0
LINE
  5
12C4
330
2
100
AcDbEntity
  8
HIDS
100
AcDbLine
 10
725.1065377192085
 20
291.6600548712786
 30
0.0
 11
725.1065377192085
 21
283.2100548712783
 31
0.0
  0
LINE
  5
12C5
330
2
100
AcDbEntity
  8
HIDS
100
AcDbLine
 10
724.7732043858754
 20
291.6600548712786
 30
0.0
 11
724.7732043858754
 21
282.8767215379453
 31
0.0
  0
LINE
  5
12C6
330
2
100
AcDbEntity
  8
HIDS
100
AcDbLine
 10
721.4398710525415
 20
291.6600548712786
 30
0.0
 11
721.4398710525415
 21
284.0713066305521
 31
0.0
  0
LINE
  5
12C7
330
2
100
AcDbEntity
  8
HIDS
100
AcDbLine
 10
721.1065377192085
 20
291.6600548712786
 30
0.0
 11
721.1065377192085
 21
284.5798249895956
 31
0.0
  0
LINE
  5
12C8
330
2
100
AcDbEntity
  8
CENTER
  6
CENS
100
AcDbLine
 10
723.1065377192085
 20
331.0892364717606
 30
0.0
 11
723.1065377192085
 21
280.9578045267217
 31
0.0
  0
LINE
  5
12C9
330
2
100
AcDbEntity
  8
HIDS
100
AcDbLine
 10
725.1065377192085
 20
291.6600548712786
 30
0.0
 11
725.1065377192085
 21
280.3554914200372
 31
0.0
  0
LINE
  5
12CA
330
2
100
AcDbEntity
  8
HIDS
100
AcDbLine
 10
722.0773356652939
 20
283.2100548712783
 30
0.0
 11
723.1065377192085
 21
283.2100548712783
 31
0.0
  0
LINE
  5
12CB
330
2
100
AcDbEntity
  8
0
100
AcDbLine
 10
721.9065377192086
 20
282.4100548712786
 30
0.0
 11
722.7639134981077
 21
282.4100548712786
 31
0.0
  0
LINE
  5
12CC
330
2
100
AcDbEntity
  8
0
100
AcDbLine
 10
721.1065377192085
 20
284.5798249895956
 30
0.0
 11
721.1065377192085
 21
283.2100548712783
 31
0.0
  0
LINE
  5
12CD
330
2
100
AcDbEntity
  8
HOJO
100
AcDbLine
 10
721.4398710525415
 20
284.0713066305521
 30
0.0
 11
721.4398710525415
 21
282.8767215379453
 31
0.0
  0
LINE
  5
12CE
330
2
100
AcDbEntity
  8
0
100
AcDbLine
 10
721.1065377192085
 20
283.2100548712783
 30
0.0
 11
722.0773356652939
 21
283.2100548712783
 31
0.0
  0
LINE
  5
12CF
330
2
100
AcDbEntity
  8
0
100
AcDbLine
 10
721.1065377192085
 20
283.2100548712783
 30
0.0
 11
721.9065377192086
 21
282.4100548712786
 31
0.0
  0
LINE
  5
12D0
330
2
100
AcDbEntity
  8
HIDS
100
AcDbLine
 10
722.7639134981077
 20
282.4100548712786
 30
0.0
 11
723.1065377192085
 21
282.4100548712786
 31
0.0
  0
LINE
  5
12D1
330
2
100
AcDbEntity
  8
HIDS
100
AcDbLine
 10
725.1065377192085
 20
283.2100548712783
 30
0.0
 11
724.3065377192083
 21
282.4100548712786
 31
0.0
  0
LINE
  5
12D2
330
2
100
AcDbEntity
  8
HIDS
100
AcDbLine
 10
724.3065377192083
 20
282.4100548712786
 30
0.0
 11
723.1065377192085
 21
282.4100548712786
 31
0.0
  0
LINE
  5
12D3
330
2
100
AcDbEntity
  8
HIDS
100
AcDbLine
 10
725.1065377192085
 20
283.2100548712783
 30
0.0
 11
723.1065377192085
 21
283.2100548712783
 31
0.0
  0
LINE
  5
12D4
330
2
100
AcDbEntity
  8
HIDS
100
AcDbLine
 10
724.7732043858754
 20
282.8767215379453
 30
0.0
 11
724.7732043858754
 21
280.5975732428392
 31
0.0
  0
LINE
  5
12D5
330
2
100
AcDbEntity
  8
HIDS
100
AcDbLine
 10
719.7298486328304
 20
297.4100548712786
 30
0.0
 11
726.6065377192084
 21
297.4100548712786
 31
0.0
  0
LINE
  5
12D6
330
2
100
AcDbEntity
  8
HIDS
100
AcDbLine
 10
721.6955134139693
 20
301.1100548712789
 30
0.0
 11
726.6065377192084
 21
301.1100548712789
 31
0.0
  0
LINE
  5
12D7
330
2
100
AcDbEntity
  8
HIDS
100
AcDbLine
 10
726.086922476938
 20
301.4100548712786
 30
0.0
 11
721.9205418266879
 21
301.4100548712786
 31
0.0
  0
LINE
  5
12D8
330
2
100
AcDbEntity
  8
HIDS
100
AcDbLine
 10
725.1065377192085
 20
295.7433882046121
 30
0.0
 11
721.1065377192085
 21
295.7433882046121
 31
0.0
  0
LINE
  5
12D9
330
2
100
AcDbEntity
  8
HIDS
100
AcDbLine
 10
719.7298486328304
 20
297.4100548712786
 30
0.0
 11
727.1065377192085
 21
297.4100548712786
 31
0.0
  0
LINE
  5
12DA
330
2
100
AcDbEntity
  8
0
100
AcDbLine
 10
718.8756178565522
 20
293.1600548712786
 30
0.0
 11
723.1065377192085
 21
293.1600548712786
 31
0.0
  0
LINE
  5
12DB
330
2
100
AcDbEntity
  8
0
100
AcDbLine
 10
718.8756178565522
 20
291.6600548712786
 30
0.0
 11
723.1065377192085
 21
291.6600548712786
 31
0.0
  0
LINE
  5
12DC
330
2
100
AcDbEntity
  8
0
100
AcDbLine
 10
719.6065377192085
 20
301.1100548712789
 30
0.0
 11
719.6065377192085
 21
297.4100548712786
 31
0.0
  0
LINE
  5
12DD
330
2
100
AcDbEntity
  8
0
100
AcDbLine
 10
721.1065377192085
 20
293.1600548712786
 30
0.0
 11
721.1065377192085
 21
291.6600548712786
 31
0.0
  0
LINE
  5
12DE
330
2
100
AcDbEntity
  8
HOJO
100
AcDbLine
 10
721.4398710525415
 20
293.1600548712786
 30
0.0
 11
721.4398710525415
 21
291.6600548712786
 31
0.0
  0
LINE
  5
12DF
330
2
100
AcDbEntity
  8
HIDS
100
AcDbLine
 10
721.1065377192085
 20
297.4100548712786
 30
0.0
 11
721.4398710525415
 21
295.7433882046121
 31
0.0
  0
LINE
  5
12E0
330
2
100
AcDbEntity
  8
0
100
AcDbLine
 10
719.6065377192085
 20
297.4100548712786
 30
0.0
 11
719.7298486328304
 21
297.4100548712786
 31
0.0
  0
LINE
  5
12E1
330
2
100
AcDbEntity
  8
HIDS
100
AcDbLine
 10
721.4398710525415
 20
295.7433882046121
 30
0.0
 11
721.4398710525415
 21
293.1600548712786
 31
0.0
  0
LINE
  5
12E2
330
2
100
AcDbEntity
  8
HIDS
100
AcDbLine
 10
721.1065377192085
 20
297.4100548712786
 30
0.0
 11
721.1065377192085
 21
293.1600548712786
 31
0.0
  0
LINE
  5
12E3
330
2
100
AcDbEntity
  8
HIDS
100
AcDbLine
 10
720.6065377192085
 20
297.4100548712786
 30
0.0
 11
720.6065377192085
 21
293.1600548712786
 31
0.0
  0
LINE
  5
12E4
330
2
100
AcDbEntity
  8
0
100
AcDbLine
 10
721.9205418266879
 20
301.4100548712786
 30
0.0
 11
720.1261529614798
 21
301.4100548712786
 31
0.0
  0
LINE
  5
12E5
330
2
100
AcDbEntity
  8
0
100
AcDbLine
 10
719.6065377192085
 20
301.1100548712789
 30
0.0
 11
720.1261529614798
 21
301.4100548712786
 31
0.0
  0
LINE
  5
12E6
330
2
100
AcDbEntity
  8
0
100
AcDbLine
 10
719.6065377192085
 20
301.1100548712789
 30
0.0
 11
721.6955134139693
 21
301.1100548712789
 31
0.0
  0
LINE
  5
12E7
330
2
100
AcDbEntity
  8
HIDS
100
AcDbLine
 10
726.6065377192084
 20
297.4100548712786
 30
0.0
 11
726.6065377192084
 21
301.1100548712789
 31
0.0
  0
LINE
  5
12E8
330
2
100
AcDbEntity
  8
HIDS
100
AcDbLine
 10
727.1065377192085
 20
305.6506175481441
 30
0.0
 11
727.1065377192085
 21
297.4100548712786
 31
0.0
  0
LINE
  5
12E9
330
2
100
AcDbEntity
  8
HOJO
100
AcDbLine
 10
724.7732043858754
 20
293.1600548712786
 30
0.0
 11
724.7732043858754
 21
291.6600548712786
 31
0.0
  0
LINE
  5
12EA
330
2
100
AcDbEntity
  8
0
100
AcDbLine
 10
725.1065377192085
 20
293.1600548712786
 30
0.0
 11
725.1065377192085
 21
291.6600548712786
 31
0.0
  0
LINE
  5
12EB
330
2
100
AcDbEntity
  8
0
100
AcDbLine
 10
723.1065377192085
 20
291.6600548712786
 30
0.0
 11
728.157914039783
 21
291.6600548712786
 31
0.0
  0
LINE
  5
12EC
330
2
100
AcDbEntity
  8
0
100
AcDbLine
 10
723.1065377192085
 20
293.1600548712786
 30
0.0
 11
728.157914039783
 21
293.1600548712786
 31
0.0
  0
LINE
  5
12ED
330
2
100
AcDbEntity
  8
HIDS
100
AcDbLine
 10
725.1065377192085
 20
297.4100548712786
 30
0.0
 11
724.7732043858754
 21
295.7433882046121
 31
0.0
  0
LINE
  5
12EE
330
2
100
AcDbEntity
  8
HIDS
100
AcDbLine
 10
725.1065377192085
 20
297.4100548712786
 30
0.0
 11
725.1065377192085
 21
293.1600548712786
 31
0.0
  0
LINE
  5
12EF
330
2
100
AcDbEntity
  8
HIDS
100
AcDbLine
 10
724.7732043858754
 20
295.7433882046121
 30
0.0
 11
724.7732043858754
 21
293.1600548712786
 31
0.0
  0
LINE
  5
12F0
330
2
100
AcDbEntity
  8
HIDS
100
AcDbLine
 10
725.6065377192085
 20
297.4100548712786
 30
0.0
 11
725.6065377192085
 21
293.1600548712786
 31
0.0
  0
LINE
  5
12F1
330
2
100
AcDbEntity
  8
CENTER
100
AcDbLine
 10
733.6065377192085
 20
289.9100548712786
 30
0.0
 11
733.6065377192085
 21
294.9100548712786
 31
0.0
  0
LINE
  5
12F2
330
2
100
AcDbEntity
  8
CENTER
100
AcDbLine
 10
731.1065377192085
 20
292.4100548712786
 30
0.0
 11
736.1065377192085
 21
292.4100548712786
 31
0.0
  0
LINE
  5
12F3
330
2
100
AcDbEntity
  8
HIDS
100
AcDbLine
 10
726.086922476938
 20
301.4100548712786
 30
0.0
 11
726.6065377192084
 21
301.1100548712789
 31
0.0
  0
LINE
  5
12F4
330
2
100
AcDbEntity
  8
0
100
AcDbLine
 10
747.6065377192085
 20
291.6600548712786
 30
0.0
 11
739.0551613986349
 21
291.6600548712786
 31
0.0
  0
LINE
  5
12F5
330
2
100
AcDbEntity
  8
0
100
AcDbLine
 10
739.0551613986349
 20
293.1600548712786
 30
0.0
 11
747.6065377192085
 21
293.1600548712786
 31
0.0
  0
LINE
  5
12F6
330
2
100
AcDbEntity
  8
0
100
AcDbLine
 10
747.6065377192085
 20
293.1600548712786
 30
0.0
 11
747.6065377192085
 21
291.6600548712786
 31
0.0
  0
LINE
  5
12F7
330
2
100
AcDbEntity
  8
CENTER
100
AcDbLine
 10
731.1065377192085
 20
292.4100548712786
 30
0.0
 11
736.1065377192085
 21
292.4100548712786
 31
0.0
  0
LINE
  5
12F8
330
2
100
AcDbEntity
  8
CENTER
100
AcDbLine
 10
733.6065377192085
 20
289.9100548712786
 30
0.0
 11
733.6065377192085
 21
294.9100548712786
 31
0.0
  0
CIRCLE
  5
12F9
330
2
100
AcDbEntity
  8
0
100
AcDbCircle
 10
733.6065377192085
 20
292.41005487128
 30
0.0
 40
5.5
  0
ARC
  5
12FA
330
2
100
AcDbEntity
  8
0
100
AcDbCircle
 10
733.6065377192067
 20
292.4100548712786
 30
0.0
 40
6.654700538379415
100
AcDbArc
 50
6.471114411175151
 51
173.5288855888248
  0
ARC
  5
12FB
330
2
100
AcDbEntity
  8
0
100
AcDbCircle
 10
733.6065377192067
 20
292.4100548712786
 30
0.0
 40
6.654700538379415
100
AcDbArc
 50
186.4711144111751
 51
353.5288855888248
  0
LINE
  5
12FC
330
2
100
AcDbEntity
  8
0
100
AcDbLine
 10
718.1065315480213
 20
326.4100527357046
 30
0.0
 11
728.1065315480214
 21
326.4100527357046
 31
0.0
  0
ARC
  5
12FD
330
2
100
AcDbEntity
  8
0
100
AcDbCircle
 10
728.1065315480214
 20
322.4100527357045
 30
0.0
 40
4.0
100
AcDbArc
 50
0.0
 51
90.0
  0
LINE
  5
12FE
330
2
100
AcDbEntity
  8
0
100
AcDbLine
 10
732.1065315480214
 20
322.4100527357045
 30
0.0
 11
732.1065315480214
 21
322.4100527357045
 31
0.0
  0
ARC
  5
12FF
330
2
100
AcDbEntity
  8
0
100
AcDbCircle
 10
718.1065315480213
 20
322.4100527357045
 30
0.0
 40
4.0
100
AcDbArc
 50
90.0
 51
180.0
  0
CIRCLE
  5
1300
330
2
100
AcDbEntity
  8
HOJO
100
AcDbCircle
 10
758.3565377192094
 20
317.1600548712782
 30
0.0
 40
2.0
  0
CIRCLE
  5
1301
330
2
100
AcDbEntity
  8
0
100
AcDbCircle
 10
758.3565377192094
 20
317.1600548712782
 30
0.0
 40
1.6
  0
CIRCLE
  5
1302
330
2
100
AcDbEntity
  8
HOJO
100
AcDbCircle
 10
708.8565377192085
 20
317.1600548712786
 30
0.0
 40
2.0
  0
CIRCLE
  5
1303
330
2
100
AcDbEntity
  8
0
100
AcDbCircle
 10
708.8565377192085
 20
317.1600548712786
 30
0.0
 40
1.6
  0
CIRCLE
  5
1304
330
2
100
AcDbEntity
  8
HOJO
100
AcDbCircle
 10
708.8565377192085
 20
267.6600548712786
 30
0.0
 40
2.0
  0
CIRCLE
  5
1305
330
2
100
AcDbEntity
  8
0
100
AcDbCircle
 10
708.8565377192085
 20
267.6600548712786
 30
0.0
 40
1.6
  0
CIRCLE
  5
1306
330
2
100
AcDbEntity
  8
HOJO
100
AcDbCircle
 10
758.3565377192085
 20
267.6600548712786
 30
0.0
 40
2.0
  0
CIRCLE
  5
1307
330
2
100
AcDbEntity
  8
0
100
AcDbCircle
 10
758.3565377192085
 20
267.6600548712786
 30
0.0
 40
1.6
  0
CIRCLE
  5
1308
330
2
100
AcDbEntity
  8
CENTER
100
AcDbCircle
 10
733.6065377192067
 20
292.4100548712813
 30
0.0
 40
35.00178566873169
  0
CIRCLE
  5
1309
330
2
100
AcDbEntity
  8
0
100
AcDbCircle
 10
733.6065377192085
 20
292.41005487128
 30
0.0
 40
14.75
  0
CIRCLE
  5
130A
330
2
100
AcDbEntity
  8
0
100
AcDbCircle
 10
733.6065377192067
 20
292.41005487128
 30
0.0
 40
22.5
  0
LINE
  5
130B
330
2
100
AcDbEntity
  8
0
100
AcDbLine
 10
571.5625285362084
 20
319.2700548712828
 30
0.0
 11
566.8625285362095
 21
319.2700548712828
 31
0.0
  0
LINE
  5
130C
330
2
100
AcDbEntity
  8
0
100
AcDbLine
 10
566.8625285362095
 20
327.7700548712828
 30
0.0
 11
571.5625285362084
 21
327.7700548712828
 31
0.0
  0
LINE
  5
130D
330
2
100
AcDbEntity
  8
CENTER
  6
CENS
100
AcDbLine
 10
549.3313715801805
 20
323.5200548712828
 30
0.0
 11
576.7883445102643
 21
323.5200548712828
 31
0.0
  0
LINE
  5
130E
330
2
100
AcDbEntity
  8
0
100
AcDbLine
 10
571.8625285362095
 20
327.2504396290124
 30
0.0
 11
571.8625285362095
 21
319.7896701135533
 31
0.0
  0
LINE
  5
130F
330
2
100
AcDbEntity
  8
0
100
AcDbLine
 10
571.5625285362084
 20
319.2700548712828
 30
0.0
 11
571.5625285362084
 21
327.7700548712828
 31
0.0
  0
LINE
  5
1310
330
2
100
AcDbEntity
  8
0
100
AcDbLine
 10
571.5625285362084
 20
319.2700548712828
 30
0.0
 11
571.8625285362095
 21
319.7896701135533
 31
0.0
  0
LINE
  5
1311
330
2
100
AcDbEntity
  8
0
100
AcDbLine
 10
571.8625285362095
 20
327.2504396290124
 30
0.0
 11
571.5625285362084
 21
327.7700548712828
 31
0.0
  0
LINE
  5
1312
330
2
100
AcDbEntity
  8
0
100
AcDbLine
 10
566.8625285362095
 20
327.7700548712828
 30
0.0
 11
565.8625285362095
 21
327.7700548712828
 31
0.0
  0
LINE
  5
1313
330
2
100
AcDbEntity
  8
0
100
AcDbLine
 10
565.8625285362095
 20
327.7700548712828
 30
0.0
 11
565.8625285362095
 21
319.2700548712828
 31
0.0
  0
LINE
  5
1314
330
2
100
AcDbEntity
  8
0
100
AcDbLine
 10
565.8625285362095
 20
319.2700548712828
 30
0.0
 11
566.8625285362095
 21
319.2700548712828
 31
0.0
  0
LINE
  5
1315
330
2
100
AcDbEntity
  8
0
100
AcDbLine
 10
566.8625285362095
 20
319.2700548712828
 30
0.0
 11
566.8625285362095
 21
327.7700548712828
 31
0.0
  0
LINE
  5
1316
330
2
100
AcDbEntity
  8
0
100
AcDbLine
 10
566.8625285362095
 20
319.2700548712828
 30
0.0
 11
566.8625285362095
 21
327.7700548712828
 31
0.0
  0
ARC
  5
1317
330
2
100
AcDbEntity
  8
0
100
AcDbCircle
 10
570.66579794681
 20
257.4100548712822
 30
0.0
 40
5.0
100
AcDbArc
 50
163.8741378563922
 51
171.7867892982563
  0
LINE
  5
1318
330
2
100
AcDbEntity
  8
0
100
AcDbLine
 10
565.7372901068456
 20
258.3751500584081
 30
0.0
 11
566.3313715801804
 21
292.4100548712827
 31
0.0
  0
LINE
  5
1319
330
2
100
AcDbEntity
  8
0
100
AcDbLine
 10
554.3313715801805
 20
256.4100548712827
 30
0.0
 11
563.7375947165337
 21
256.4100548712827
 31
0.0
  0
ARC
  5
131A
330
2
100
AcDbEntity
  8
0
100
AcDbCircle
 10
563.7375947165337
 20
258.4100548712827
 30
0.0
 40
2.0
100
AcDbArc
 50
270.0
 51
358.9999999999982
  0
LINE
  5
131B
330
2
100
AcDbEntity
  8
CENTER
100
AcDbLine
 10
583.3313715801805
 20
302.8100548712828
 30
0.0
 11
583.3313715801805
 21
331.0892364717647
 31
0.0
  0
LINE
  5
131C
330
2
100
AcDbEntity
  8
0
100
AcDbLine
 10
565.7372901068456
 20
326.4449596841568
 30
0.0
 11
566.1914298627843
 21
300.4273104914273
 31
0.0
  0
LINE
  5
131D
330
2
100
AcDbEntity
  8
0
100
AcDbLine
 10
582.8025865539884
 20
319.4059426405051
 30
0.0
 11
582.585043543454
 21
306.942911914015
 31
0.0
  0
LINE
  5
131E
330
2
100
AcDbEntity
  8
0
100
AcDbLine
 10
554.3313715801805
 20
292.4100548712827
 30
0.0
 11
554.7914109333678
 21
292.4100548712828
 31
0.0
  0
LINE
  5
131F
330
2
100
AcDbEntity
  8
0
100
AcDbLine
 10
571.8625285362095
 20
262.4100548712827
 30
0.0
 11
597.3313715801805
 21
262.4100548712827
 31
0.0
  0
LINE
  5
1320
330
2
100
AcDbEntity
  8
0
100
AcDbLine
 10
582.8025865539884
 20
265.4141671020602
 30
0.0
 11
582.3313715801805
 21
292.4100548712827
 31
0.0
  0
ARC
  5
1321
330
2
100
AcDbEntity
  8
0
100
AcDbCircle
 10
585.8031153173751
 20
265.4100548712827
 30
0.0
 40
3.0
100
AcDbArc
 50
181.0000000000017
 51
270.0
  0
ARC
  5
1322
330
2
100
AcDbEntity
  8
0
100
AcDbCircle
 10
570.2395865307908
 20
317.1778735168259
 30
0.0
 40
3.0
100
AcDbArc
 50
270.0
 51
358.9999999999721
  0
LINE
  5
1323
330
2
100
AcDbEntity
  8
0
100
AcDbLine
 10
579.7108732838523
 20
314.1778735168259
 30
0.0
 11
570.2395865307908
 21
314.1778735168264
 31
0.0
  0
LINE
  5
1324
330
2
100
AcDbEntity
  8
0
100
AcDbLine
 10
573.2391296162595
 20
317.125516297514
 30
0.0
 11
573.2970707160993
 21
320.4449596841573
 31
0.0
  0
ARC
  5
1325
330
2
100
AcDbEntity
  8
0
100
AcDbCircle
 10
575.2967661064131
 20
320.4100548712827
 30
0.0
 40
2.0
100
AcDbArc
 50
90.0
 51
178.9999999999721
  0
LINE
  5
1326
330
2
100
AcDbEntity
  8
0
100
AcDbLine
 10
571.8625285362095
 20
322.4100548712832
 30
0.0
 11
597.3313715801805
 21
322.4100548712827
 31
0.0
  0
ARC
  5
1327
330
2
100
AcDbEntity
  8
0
100
AcDbCircle
 10
585.8031153173751
 20
319.4100548712827
 30
0.0
 40
3.0
100
AcDbArc
 50
90.0
 51
178.9999999999982
  0
ARC
  5
1328
330
2
100
AcDbEntity
  8
0
100
AcDbCircle
 10
563.7375947165337
 20
326.4100548712827
 30
0.0
 40
2.0
100
AcDbArc
 50
1.000000000001775
 51
90.0
  0
LINE
  5
1329
330
2
100
AcDbEntity
  8
0
100
AcDbLine
 10
554.3313715801805
 20
328.4100548712827
 30
0.0
 11
563.7375947165337
 21
328.4100548712827
 31
0.0
  0
ARC
  5
132A
330
2
100
AcDbEntity
  8
0
100
AcDbCircle
 10
570.66579794681
 20
327.4100548712831
 30
0.0
 40
5.0
100
AcDbArc
 50
188.2132107017437
 51
196.1258621436077
  0
LINE
  5
132B
330
2
100
AcDbEntity
  8
0
100
AcDbLine
 10
587.2307049085634
 20
314.9100548712827
 30
0.0
 11
590.3313715801805
 21
314.9100548712827
 31
0.0
  0
LINE
  5
132C
330
2
100
AcDbEntity
  8
0
100
AcDbLine
 10
597.3313715801805
 20
262.4100548712827
 30
0.0
 11
597.3313715801805
 21
322.4100548712827
 31
0.0
  0
LINE
  5
132D
330
2
100
AcDbEntity
  8
0
100
AcDbLine
 10
571.5625285362084
 20
265.5500548712826
 30
0.0
 11
566.8625285362095
 21
265.5500548712826
 31
0.0
  0
LINE
  5
132E
330
2
100
AcDbEntity
  8
0
100
AcDbLine
 10
566.8625285362095
 20
257.0500548712826
 30
0.0
 11
571.5625285362084
 21
257.0500548712826
 31
0.0
  0
LINE
  5
132F
330
2
100
AcDbEntity
  8
CENTER
  6
CENS
100
AcDbLine
 10
549.3313715801805
 20
261.3000548712826
 30
0.0
 11
576.7883445102643
 21
261.3000548712826
 31
0.0
  0
LINE
  5
1330
330
2
100
AcDbEntity
  8
0
100
AcDbLine
 10
571.8625285362095
 20
257.569670113553
 30
0.0
 11
571.8625285362095
 21
265.0304396290121
 31
0.0
  0
LINE
  5
1331
330
2
100
AcDbEntity
  8
0
100
AcDbLine
 10
571.5625285362084
 20
265.5500548712826
 30
0.0
 11
571.5625285362084
 21
257.0500548712826
 31
0.0
  0
LINE
  5
1332
330
2
100
AcDbEntity
  8
0
100
AcDbLine
 10
571.5625285362084
 20
265.5500548712826
 30
0.0
 11
571.8625285362095
 21
265.0304396290121
 31
0.0
  0
LINE
  5
1333
330
2
100
AcDbEntity
  8
0
100
AcDbLine
 10
571.8625285362095
 20
257.569670113553
 30
0.0
 11
571.5625285362084
 21
257.0500548712826
 31
0.0
  0
LINE
  5
1334
330
2
100
AcDbEntity
  8
0
100
AcDbLine
 10
566.8625285362095
 20
257.0500548712826
 30
0.0
 11
565.8625285362095
 21
257.0500548712826
 31
0.0
  0
LINE
  5
1335
330
2
100
AcDbEntity
  8
0
100
AcDbLine
 10
565.8625285362095
 20
257.0500548712826
 30
0.0
 11
565.8625285362095
 21
265.5500548712826
 31
0.0
  0
LINE
  5
1336
330
2
100
AcDbEntity
  8
0
100
AcDbLine
 10
565.8625285362095
 20
265.5500548712826
 30
0.0
 11
566.8625285362095
 21
265.5500548712826
 31
0.0
  0
LINE
  5
1337
330
2
100
AcDbEntity
  8
0
100
AcDbLine
 10
566.8625285362095
 20
265.5500548712826
 30
0.0
 11
566.8625285362095
 21
257.0500548712826
 31
0.0
  0
LINE
  5
1338
330
2
100
AcDbEntity
  8
0
100
AcDbLine
 10
566.8625285362095
 20
265.5500548712826
 30
0.0
 11
566.8625285362095
 21
257.0500548712826
 31
0.0
  0
LINE
  5
1339
330
2
100
AcDbEntity
  8
0
100
AcDbLine
 10
587.8313609711304
 20
297.9100548712832
 30
0.0
 11
577.8313609711303
 21
297.9100548712832
 31
0.0
  0
LINE
  5
133A
330
2
100
AcDbEntity
  8
0
100
AcDbLine
 10
587.8313609711304
 20
297.9100548712827
 30
0.0
 11
587.8313609711304
 21
292.4100548712827
 31
0.0
  0
LINE
  5
133B
330
2
100
AcDbEntity
  8
0
100
AcDbLine
 10
589.8313609711303
 20
299.0647554096622
 30
0.0
 11
587.8313609711304
 21
297.9100548712827
 31
0.0
  0
LINE
  5
133C
330
2
100
AcDbEntity
  8
0
100
AcDbLine
 10
560.8313609711303
 20
298.1600548712827
 30
0.0
 11
560.8313609711303
 21
292.4100548712827
 31
0.0
  0
LINE
  5
133D
330
2
100
AcDbEntity
  8
0
100
AcDbLine
 10
587.8313609711304
 20
297.9100548712832
 30
0.0
 11
577.8313609711303
 21
297.9100548712832
 31
0.0
  0
LINE
  5
133E
330
2
100
AcDbEntity
  8
0
100
AcDbLine
 10
582.7435751498041
 20
307.1600548712832
 30
0.0
 11
589.8313609711303
 21
307.1600548712832
 31
0.0
  0
LINE
  5
133F
330
2
100
AcDbEntity
  8
0
100
AcDbLine
 10
589.8313609711303
 20
307.1600548712832
 30
0.0
 11
589.8313609711303
 21
292.4100548712827
 31
0.0
  0
LINE
  5
1340
330
2
100
AcDbEntity
  8
0
100
AcDbLine
 10
575.8313609711303
 20
302.6947360580062
 30
0.0
 11
575.8313609711303
 21
292.4100548712827
 31
0.0
  0
LINE
  5
1341
330
2
100
AcDbEntity
  8
0
100
AcDbLine
 10
577.8313609711303
 20
303.2201362054375
 30
0.0
 11
577.8313609711303
 21
292.4100548712827
 31
0.0
  0
LINE
  5
1342
330
2
100
AcDbEntity
  8
0
100
AcDbLine
 10
568.8313609711303
 20
298.1600548712827
 30
0.0
 11
560.8313609711303
 21
298.1600548712827
 31
0.0
  0
LINE
  5
1343
330
2
100
AcDbEntity
  8
0
100
AcDbLine
 10
568.8313609711303
 20
292.4100548712827
 30
0.0
 11
568.8313609711303
 21
298.1600548712827
 31
0.0
  0
LINE
  5
1344
330
2
100
AcDbEntity
  8
0
100
AcDbLine
 10
575.8313609711303
 20
297.9100548712827
 30
0.0
 11
568.8313609711303
 21
297.9100548712827
 31
0.0
  0
LINE
  5
1345
330
2
100
AcDbEntity
  8
0
100
AcDbLine
 10
557.9446096251822
 20
292.4100548712827
 30
0.0
 11
560.8313609711303
 21
297.4100548712827
 31
0.0
  0
SPLINE
  5
1346
330
2
100
AcDbEntity
  8
HOJO
100
AcDbSpline
210
0.0
220
0.0
230
1.0
 70
     8
 71
     3
 72
    20
 73
    16
 74
     0
 42
0.0000000001
 43
0.0000000001
 40
0.0
 40
0.0
 40
0.0
 40
0.0
 40
5.311626210389601
 40
7.954639692924123
 40
10.24579206730457
 40
14.18281221953265
 40
18.83794314114633
 40
26.54246833222011
 40
31.19712602527561
 40
34.95638115537181
 40
42.12378530287149
 40
45.78553747213095
 40
50.20353689726185
 40
53.26513166942802
 40
54.23175360515262
 40
54.23175360515262
 40
54.23175360515262
 40
54.23175360515262
 10
597.3313715801805
 20
319.0975035932988
 30
0.0
 10
595.6183924142924
 20
318.9894615430726
 30
0.0
 10
593.0530514948814
 20
318.8276588206682
 30
0.0
 10
589.2812976078048
 20
318.575526148501
 30
0.0
 10
587.9621563916707
 20
315.643084663534
 30
0.0
 10
585.5269470233788
 20
312.9885758402384
 30
0.0
 10
583.6888986802287
 20
307.8372804070746
 30
0.0
 10
579.5640622707533
 20
303.127533055449
 30
0.0
 10
574.0864147677466
 20
302.4902016210299
 30
0.0
 10
569.1730292581805
 20
300.8038826743223
 30
0.0
 10
564.3390299114225
 20
300.1838955823478
 30
0.0
 10
559.3013031467826
 20
299.2286715646865
 30
0.0
 10
556.2301525254143
 20
296.6944597219358
 30
0.0
 10
555.2301782306885
 20
294.0162192010462
 30
0.0
 10
554.8741387054551
 20
292.7212061709752
 30
0.0
 10
554.7914109333678
 20
292.4100548712827
 30
0.0
  0
LINE
  5
1347
330
2
100
AcDbEntity
  8
0
100
AcDbLine
 10
597.3313715801805
 20
317.4100548712832
 30
0.0
 11
590.3313715801805
 21
317.4100548712832
 31
0.0
  0
LINE
  5
1348
330
2
100
AcDbEntity
  8
0
100
AcDbLine
 10
590.3313715801805
 20
317.4100548712832
 30
0.0
 11
590.3313715801805
 21
292.4100548712827
 31
0.0
  0
LINE
  5
1349
330
2
100
AcDbEntity
  8
0
100
AcDbLine
 10
588.3313777513676
 20
326.4100548712827
 30
0.0
 11
578.3313777513676
 21
326.4100548712827
 31
0.0
  0
ARC
  5
134A
330
2
100
AcDbEntity
  8
0
100
AcDbCircle
 10
578.3313777513676
 20
322.4100548712827
 30
0.0
 40
4.0
100
AcDbArc
 50
90.0
 51
180.0
  0
ARC
  5
134B
330
2
100
AcDbEntity
  8
0
100
AcDbCircle
 10
588.3313777513676
 20
322.4100548712827
 30
0.0
 40
4.0
100
AcDbArc
 50
0.0
 51
90.0
  0
ARC
  5
134D
330
2
100
AcDbEntity
  8
0
100
AcDbCircle
 10
564.3313715758113
 20
535.135944348113
 30
0.0
 40
2.0
100
AcDbArc
 50
40.04151653423844
 51
90.0
  0
ARC
  5
134E
330
2
100
AcDbEntity
  8
0
100
AcDbCircle
 10
564.3313715758113
 20
467.1359443481131
 30
0.0
 40
2.0
100
AcDbArc
 50
270.0
 51
319.9584834657615
  0
LINE
  5
134F
330
2
100
AcDbEntity
  8
0
100
AcDbLine
 10
573.3313715758113
 20
498.1359443481127
 30
0.0
 11
573.3313715758113
 21
483.6359443481127
 31
0.0
  0
LINE
  5
1350
330
2
100
AcDbEntity
  8
0
100
AcDbLine
 10
566.3313715758113
 20
527.9959443481131
 30
0.0
 11
566.3313715758113
 21
474.275944348113
 31
0.0
  0
LINE
  5
1351
330
2
100
AcDbEntity
  8
CENTER
  6
CENS
100
AcDbLine
 10
583.3313715758113
 20
501.3859443481131
 30
0.0
 11
583.3313715758113
 21
479.8859443481132
 31
0.0
  0
LINE
  5
1352
330
2
100
AcDbEntity
  8
0
100
AcDbLine
 10
582.3313715758112
 20
528.1359443481131
 30
0.0
 11
582.3313715758112
 21
504.1359443481131
 31
0.0
  0
LINE
  5
1353
330
2
100
AcDbEntity
  8
0
100
AcDbLine
 10
571.8625285318402
 20
531.135944348113
 30
0.0
 11
597.3313715758113
 21
531.135944348113
 31
0.0
  0
ARC
  5
1354
330
2
100
AcDbEntity
  8
0
100
AcDbCircle
 10
585.3313715758113
 20
528.1359443481131
 30
0.0
 40
3.0
100
AcDbArc
 50
90.0
 51
180.0
  0
ARC
  5
1355
330
2
100
AcDbEntity
  8
0
100
AcDbCircle
 10
579.3313715758113
 20
504.1359443481131
 30
0.0
 40
3.0
100
AcDbArc
 50
270.0
 51
0.0
  0
ARC
  5
1356
330
2
100
AcDbEntity
  8
0
100
AcDbCircle
 10
576.3313715758113
 20
498.1359443481127
 30
0.0
 40
3.0
100
AcDbArc
 50
90.0
 51
180.0
  0
LINE
  5
1357
330
2
100
AcDbEntity
  8
0
100
AcDbLine
 10
576.3313715758113
 20
501.1359443481132
 30
0.0
 11
579.3313715758113
 21
501.1359443481132
 31
0.0
  0
LINE
  5
1358
330
2
100
AcDbEntity
  8
0
100
AcDbLine
 10
571.8625285318402
 20
471.1359443481131
 30
0.0
 11
597.3313715758113
 21
471.1359443481131
 31
0.0
  0
LINE
  5
1359
330
2
100
AcDbEntity
  8
CENTER
  6
CENS
100
AcDbLine
 10
572.5813715758113
 20
490.6359443481131
 30
0.0
 11
594.0813715758113
 21
490.6359443481131
 31
0.0
  0
ARC
  5
135A
330
2
100
AcDbEntity
  8
0
100
AcDbCircle
 10
576.3313715758113
 20
483.6359443481127
 30
0.0
 40
3.0
100
AcDbArc
 50
180.0
 51
270.0
  0
ARC
  5
135B
330
2
100
AcDbEntity
  8
0
100
AcDbCircle
 10
579.3313715758113
 20
477.6359443481132
 30
0.0
 40
3.0
100
AcDbArc
 50
0.0
 51
90.0
  0
LINE
  5
135C
330
2
100
AcDbEntity
  8
0
100
AcDbLine
 10
576.3313715758113
 20
480.6359443481132
 30
0.0
 11
579.3313715758113
 21
480.6359443481132
 31
0.0
  0
LINE
  5
135D
330
2
100
AcDbEntity
  8
0
100
AcDbLine
 10
582.3313715758112
 20
477.6359443481132
 30
0.0
 11
582.3313715758112
 21
474.1359443481131
 31
0.0
  0
ARC
  5
135E
330
2
100
AcDbEntity
  8
0
100
AcDbCircle
 10
585.3313715758113
 20
474.1359443481131
 30
0.0
 40
3.0
100
AcDbArc
 50
180.0
 51
270.0
  0
LINE
  5
135F
330
2
100
AcDbEntity
  8
0
100
AcDbLine
 10
554.3313715758113
 20
537.135944348113
 30
0.0
 11
564.3313715758113
 21
537.135944348113
 31
0.0
  0
LINE
  5
1360
330
2
100
AcDbEntity
  8
0
100
AcDbLine
 10
554.3313715758113
 20
465.1359443481132
 30
0.0
 11
564.3313715758113
 21
465.1359443481132
 31
0.0
  0
LINE
  5
1361
330
2
100
AcDbEntity
  8
0
100
AcDbLine
 10
597.3313715758113
 20
531.135944348113
 30
0.0
 11
597.3313715758113
 21
471.1359443481131
 31
0.0
  0
LINE
  5
1362
330
2
100
AcDbEntity
  8
0
100
AcDbLine
 10
571.5625285318392
 20
474.275944348113
 30
0.0
 11
566.8625285318403
 21
474.275944348113
 31
0.0
  0
LINE
  5
1363
330
2
100
AcDbEntity
  8
0
100
AcDbLine
 10
566.8625285318403
 20
465.775944348113
 30
0.0
 11
571.5625285318392
 21
465.775944348113
 31
0.0
  0
LINE
  5
1364
330
2
100
AcDbEntity
  8
CENTER
  6
CENS
100
AcDbLine
 10
549.3313715758112
 20
470.025944348113
 30
0.0
 11
576.788344505895
 21
470.025944348113
 31
0.0
  0
LINE
  5
1365
330
2
100
AcDbEntity
  8
0
100
AcDbLine
 10
571.8625285318402
 20
466.2955595903834
 30
0.0
 11
571.8625285318402
 21
473.7563291058425
 31
0.0
  0
LINE
  5
1366
330
2
100
AcDbEntity
  8
0
100
AcDbLine
 10
571.5625285318392
 20
474.275944348113
 30
0.0
 11
571.5625285318392
 21
465.775944348113
 31
0.0
  0
LINE
  5
1367
330
2
100
AcDbEntity
  8
0
100
AcDbLine
 10
571.5625285318392
 20
474.275944348113
 30
0.0
 11
571.8625285318402
 21
473.7563291058425
 31
0.0
  0
LINE
  5
1368
330
2
100
AcDbEntity
  8
0
100
AcDbLine
 10
571.8625285318402
 20
466.2955595903834
 30
0.0
 11
571.5625285318392
 21
465.775944348113
 31
0.0
  0
LINE
  5
1369
330
2
100
AcDbEntity
  8
0
100
AcDbLine
 10
566.8625285318403
 20
465.775944348113
 30
0.0
 11
565.8625285318403
 21
465.775944348113
 31
0.0
  0
LINE
  5
136A
330
2
100
AcDbEntity
  8
0
100
AcDbLine
 10
565.8625285318403
 20
465.775944348113
 30
0.0
 11
565.8625285318403
 21
474.275944348113
 31
0.0
  0
LINE
  5
136B
330
2
100
AcDbEntity
  8
0
100
AcDbLine
 10
565.8625285318403
 20
474.275944348113
 30
0.0
 11
566.8625285318403
 21
474.275944348113
 31
0.0
  0
LINE
  5
136C
330
2
100
AcDbEntity
  8
0
100
AcDbLine
 10
566.8625285318403
 20
474.275944348113
 30
0.0
 11
566.8625285318403
 21
465.775944348113
 31
0.0
  0
LINE
  5
136D
330
2
100
AcDbEntity
  8
0
100
AcDbLine
 10
566.8625285318403
 20
474.275944348113
 30
0.0
 11
566.8625285318403
 21
465.775944348113
 31
0.0
  0
LINE
  5
136E
330
2
100
AcDbEntity
  8
0
100
AcDbLine
 10
571.5625285318392
 20
527.9959443481131
 30
0.0
 11
566.8625285318403
 21
527.9959443481131
 31
0.0
  0
LINE
  5
136F
330
2
100
AcDbEntity
  8
0
100
AcDbLine
 10
566.8625285318403
 20
536.4959443481132
 30
0.0
 11
571.5625285318392
 21
536.4959443481132
 31
0.0
  0
LINE
  5
1370
330
2
100
AcDbEntity
  8
CENTER
  6
CENS
100
AcDbLine
 10
549.3313715758112
 20
532.2459443481132
 30
0.0
 11
576.788344505895
 21
532.2459443481132
 31
0.0
  0
LINE
  5
1371
330
2
100
AcDbEntity
  8
0
100
AcDbLine
 10
571.8625285318402
 20
535.9763291058427
 30
0.0
 11
571.8625285318402
 21
528.5155595903836
 31
0.0
  0
LINE
  5
1372
330
2
100
AcDbEntity
  8
0
100
AcDbLine
 10
571.5625285318392
 20
527.9959443481131
 30
0.0
 11
571.5625285318392
 21
536.4959443481132
 31
0.0
  0
LINE
  5
1373
330
2
100
AcDbEntity
  8
0
100
AcDbLine
 10
571.5625285318392
 20
527.9959443481131
 30
0.0
 11
571.8625285318402
 21
528.5155595903836
 31
0.0
  0
LINE
  5
1374
330
2
100
AcDbEntity
  8
0
100
AcDbLine
 10
571.8625285318402
 20
535.9763291058427
 30
0.0
 11
571.5625285318392
 21
536.4959443481132
 31
0.0
  0
LINE
  5
1375
330
2
100
AcDbEntity
  8
0
100
AcDbLine
 10
566.8625285318403
 20
536.4959443481132
 30
0.0
 11
565.8625285318403
 21
536.4959443481132
 31
0.0
  0
LINE
  5
1376
330
2
100
AcDbEntity
  8
0
100
AcDbLine
 10
565.8625285318403
 20
536.4959443481132
 30
0.0
 11
565.8625285318403
 21
527.9959443481131
 31
0.0
  0
LINE
  5
1377
330
2
100
AcDbEntity
  8
0
100
AcDbLine
 10
565.8625285318403
 20
527.9959443481131
 30
0.0
 11
566.8625285318403
 21
527.9959443481131
 31
0.0
  0
LINE
  5
1378
330
2
100
AcDbEntity
  8
0
100
AcDbLine
 10
566.8625285318403
 20
527.9959443481131
 30
0.0
 11
566.8625285318403
 21
536.4959443481132
 31
0.0
  0
LINE
  5
1379
330
2
100
AcDbEntity
  8
0
100
AcDbLine
 10
566.8625285318403
 20
527.9959443481131
 30
0.0
 11
566.8625285318403
 21
536.4959443481132
 31
0.0
  0
CIRCLE
  5
137A
330
2
100
AcDbEntity
  8
0
100
AcDbCircle
 10
583.3313715758113
 20
490.6359443481131
 30
0.0
 40
9.000006171187123
  0
LINE
  5
1A8F
330
2
100
AcDbEntity
  8
0
100
AcDbLine
 10
305.924101070389
 20
323.4100548712577
 30
0.0
 11
300.4153745348858
 21
323.4100548712836
 31
0.0
  0
CIRCLE
  5
1B62
330
2
100
AcDbEntity
  8
0
100
AcDbCircle
 10
482.3313715850199
 20
292.4100548712829
 30
0.0
 40
19.5774
  0
ENDSEC
  0
SECTION
  2
OBJECTS
  0
DICTIONARY
  5
7
330
0
100
AcDbDictionary
  3
ACAD_COLOR
350
1A25
  3
ACAD_GROUP
350
75
  3
ACAD_LAYOUT
350
61
  3
ACAD_MATERIAL
350
19FB
  3
ACAD_MLEADERSTYLE
350
1A4A
  3
ACAD_MLINESTYLE
350
76
  3
ACAD_PLOTSETTINGS
350
77
  3
ACAD_PLOTSTYLENAME
350
6
  3
ACAD_SCALELIST
350
1A28
  3
ACAD_TABLESTYLE
350
1A26
  3
ACAD_VISUALSTYLE
350
1A14
  3
ACADDIM
350
480
  3
ACDB_RECOMPOSE_DATA
350
1A93
  3
ACDBHEADERROUNDTRIPXREC
350
1BD3
  3
ACDBVARIABLEDICTIONARY
350
102
  3
DWGPROPS
350
1B9F
  0
DICTIONARY
  5
1A9C
330
6E
100
AcDbDictionary
280
     1
  3
ACAD_XREC_ROUNDTRIP
360
1BA6
  0
DICTIONARY
  5
AE5
330
66
100
AcDbDictionary
280
     1
  3
ACAD_LAYERSTATES
360
AE6
  0
DICTIONARY
  5
1A4F
330
5E
100
AcDbDictionary
280
     1
  3
ACAD_XREC_ROUNDTRIP
360
1BA2
  3
ADSK_XREC_LAYER_RECONCILED
360
1A50
  0
DICTIONARY
  5
1A51
330
3E
100
AcDbDictionary
280
     1
  3
ACAD_XREC_ROUNDTRIP
360
1BA1
  3
ADSK_XREC_LAYER_RECONCILED
360
1A52
  0
DICTIONARY
  5
1A57
330
2B5
100
AcDbDictionary
280
     1
  3
ACAD_XREC_ROUNDTRIP
360
1BAC
  3
ADSK_XREC_LAYER_RECONCILED
360
1A58
  0
DICTIONARY
  5
1A59
330
2BA
100
AcDbDictionary
280
     1
  3
ACAD_XREC_ROUNDTRIP
360
1BAD
  3
ADSK_XREC_LAYER_RECONCILED
360
1A5A
  0
DICTIONARY
  5
1A5D
330
3FA
100
AcDbDictionary
280
     1
  3
ACAD_XREC_ROUNDTRIP
360
1BAF
  3
ADSK_XREC_LAYER_RECONCILED
360
1A5E
  0
DICTIONARY
  5
1A5F
330
478
100
AcDbDictionary
280
     1
  3
ACAD_XREC_ROUNDTRIP
360
1BB0
  3
ADSK_XREC_LAYER_RECONCILED
360
1A60
  0
DICTIONARY
  5
1BF4
330
2
100
AcDbDictionary
280
     1
  3
ACAD_LAYOUTSELFREF
360
1BF5
  0
DICTIONARY
  5
1BF6
330
1BCD
100
AcDbDictionary
280
     1
  3
ACAD_LAYOUTSELFREF
360
1BF7
  0
DICTIONARY
  5
1A25
102
{ACAD_REACTORS
330
7
102
}
330
7
100
AcDbDictionary
  0
DICTIONARY
  5
75
102
{ACAD_REACTORS
330
7
102
}
330
7
100
AcDbDictionary
  0
DICTIONARY
  5
61
102
{ACAD_REACTORS
330
7
102
}
330
7
100
AcDbDictionary
  0
DICTIONARY
  5
19FB
102
{ACAD_REACTORS
330
7
102
}
330
7
100
AcDbDictionary
  3
BYBLOCK
350
1A04
  3
BYLAYER
350
19FC
  3
GLOBAL
350
1A0C
  0
DICTIONARY
  5
1A4A
102
{ACAD_REACTORS
330
7
102
}
330
7
100
AcDbDictionary
  3
STANDARD
350
1A4B
  0
DICTIONARY
  5
76
102
{ACAD_REACTORS
330
7
102
}
330
7
100
AcDbDictionary
  3
STANDARD
350
78
  0
DICTIONARY
  5
77
102
{ACAD_REACTORS
330
7
102
}
330
7
100
AcDbDictionary
  0
ACDBDICTIONARYWDFLT
  5
6
102
{ACAD_REACTORS
330
7
102
}
330
7
100
AcDbDictionary
281
     1
  3
Normal
350
5
100
AcDbDictionaryWithDefault
340
5
  0
DICTIONARY
  5
1A28
102
{ACAD_REACTORS
330
7
102
}
330
7
100
AcDbDictionary
  3
A0
350
1A29
  3
A1
350
1A2A
  3
A2
350
1A2B
  3
A3
350
1A2C
  3
A4
350
1A2D
  3
A5
350
1A2E
  3
A6
350
1A2F
  3
A7
350
1A30
  3
A8
350
1A31
  3
A9
350
1A32
  3
B0
350
1A33
  3
B1
350
1A34
  3
B2
350
1A35
  3
B3
350
1A36
  3
B4
350
1A37
  3
B5
350
1A38
  3
B6
350
1A39
  3
B7
350
1A3A
  3
B8
350
1A3B
  3
B9
350
1A3C
  3
C0
350
1A3D
  3
C1
350
1A3E
  3
C2
350
1A3F
  3
C3
350
1A40
  3
C4
350
1A41
  3
C5
350
1A42
  3
C6
350
1A43
  3
C7
350
1A44
  3
C8
350
1A45
  3
C9
350
1A46
  3
D0
350
1A47
  3
D1
350
1A48
  3
D2
350
1A49
  0
DICTIONARY
  5
1A26
102
{ACAD_REACTORS
330
7
102
}
330
7
100
AcDbDictionary
  3
STANDARD
350
1A27
  0
DICTIONARY
  5
1A14
102
{ACAD_REACTORS
330
7
102
}
330
7
100
AcDbDictionary
  3
2DWIREFRAME
350
1A1A
  3
3D_HIDDEN
350
1A1C
  3
3DWIREFRAME
350
1A1B
  3
BASIC
350
1A19
  3
BRIGHTEN
350
1A20
  3
COLORCHANGE
350
1A24
  3
CONCEPTUAL
350
1A1D
  3
DIM
350
1A1F
  3
FACEPATTERN
350
1A23
  3
FLAT
350
1A15
  3
FLATWITHEDGES
350
1A16
  3
GOURAUD
350
1A17
  3
GOURAUDWITHEDGES
350
1A18
  3
LINEPATTERN
350
1A22
  3
REALISTIC
350
1A1E
  3
THICKEN
350
1A21
  0
XRECORD
  5
480
102
{ACAD_REACTORS
330
7
102
}
330
7
100
AcDbXrecord
 90
   990106
  3

 60
     0
 61
     0
 62
     1
 63
     3
 64
     1
 65
     0
 66
     0
 67
     3
 68
     1
 69
     0
 70
     0
 71
     0
 72
     0
 40
0.0
170
     2
340
0
  0
XRECORD
  5
1A93
102
{ACAD_REACTORS
330
7
102
}
330
7
100
AcDbXrecord
 90
        1
330
1A27
  0
DICTIONARY
  5
1BD3
102
{ACAD_REACTORS
330
7
102
}
330
7
100
AcDbDictionary
  3
CEPSNTYPE
350
1BDD
  3
DIMSTYLEDATA
350
1BE1
  3
FINGERPRINTGUID
350
1BDE
  3
HYPERLINKBASE
350
1BD6
  3
INSUNITS
350
1BDC
  3
LAYOUTDICT
350
1BD8
  3
LWETCUNION
350
1BDB
  3
PLOTSETDICT
350
1BD9
  3
PLOTSTYLNAMDICT
350
1BDA
  3
PSVPSCALE
350
1BE0
  3
PUCSBASE
350
1BE4
  3
PUCSORGBACK
350
1BEA
  3
PUCSORGBOTTOM
350
1BE6
  3
PUCSORGFRONT
350
1BE9
  3
PUCSORGLEFT
350
1BE7
  3
PUCSORGRIGHT
350
1BE8
  3
PUCSORGTOP
350
1BE5
  3
PUCSORTHOREF
350
1BE2
  3
PUCSORTHOVIEW
350
1BE3
  3
STYLESHEET
350
1BD7
  3
TSTACKALIGN
350
1BD4
  3
TSTACKSIZE
350
1BD5
  3
UCSBASE
350
1BED
  3
UCSORGBACK
350
1BF3
  3
UCSORGBOTTOM
350
1BEF
  3
UCSORGFRONT
350
1BF2
  3
UCSORGLEFT
350
1BF0
  3
UCSORGRIGHT
350
1BF1
  3
UCSORGTOP
350
1BEE
  3
UCSORTHOREF
350
1BEB
  3
UCSORTHOVIEW
350
1BEC
  3
VERSIONGUID
350
1BDF
  0
DICTIONARY
  5
102
102
{ACAD_REACTORS
330
7
102
}
330
7
100
AcDbDictionary
  3
CANNOSCALE
350
1AB4
  3
CMLEADERSTYLE
350
1AB3
  3
CTABLESTYLE
350
1AB2
  3
DIMASSOC
350
103
  3
INDEXCTL
350
1AB5
  3
SORTENTS
350
549
  0
XRECORD
  5
1B9F
102
{ACAD_REACTORS
330
7
102
}
330
7
100
AcDbXrecord
  1
DWGPROPS COOKIE
  2

  3

  4

  6

  7

  8
ymorima
  9

300
=
301
=
302
=
303
=
304
=
305
=
306
=
307
=
308
=
309
=
 40
0.0283326041666667
 41
2454410.560790104
 42
2454425.67609971
  1

 90
        0
  0
XRECORD
  5
1BA6
102
{ACAD_REACTORS
330
1A9C
102
}
330
1A9C
100
AcDbXrecord
102
VTR_0.000_0.000_1.000_1.000_VISUALSTYLE
340
1A1A
102
VTR_0.000_0.000_1.000_1.000_GRIDDISPLAY
 70
     3
102
VTR_0.000_0.000_1.000_1.000_GRIDMAJOR
 70
     5
102
VTR_0.000_0.000_1.000_1.000_DEFAULTLIGHTING
280
     1
102
VTR_0.000_0.000_1.000_1.000_DEFAULTLIGHTINGTYPE
 70
     1
102
VTR_0.000_0.000_1.000_1.000_BRIGHTNESS
141
0.0
102
VTR_0.000_0.000_1.000_1.000_CONTRAST
142
0.0
  0
DICTIONARY
  5
AE6
102
{ACAD_REACTORS
330
AE5
102
}
330
AE5
100
AcDbDictionary
  0
XRECORD
  5
1BA2
102
{ACAD_REACTORS
330
1A4F
102
}
330
1A4F
100
AcDbXrecord
102
MATERIAL
340
1A0C
  0
XRECORD
  5
1A50
102
{ACAD_REACTORS
330
1A4F
102
}
330
1A4F
100
AcDbXrecord
290
     1
  0
XRECORD
  5
1BA1
102
{ACAD_REACTORS
330
1A51
102
}
330
1A51
100
AcDbXrecord
102
MATERIAL
340
1A0C
  0
XRECORD
  5
1A52
102
{ACAD_REACTORS
330
1A51
102
}
330
1A51
100
AcDbXrecord
290
     1
  0
XRECORD
  5
1BAC
102
{ACAD_REACTORS
330
1A57
102
}
330
1A57
100
AcDbXrecord
102
MATERIAL
340
1A0C
  0
XRECORD
  5
1A58
102
{ACAD_REACTORS
330
1A57
102
}
330
1A57
100
AcDbXrecord
290
     1
  0
XRECORD
  5
1BAD
102
{ACAD_REACTORS
330
1A59
102
}
330
1A59
100
AcDbXrecord
102
MATERIAL
340
1A0C
  0
XRECORD
  5
1A5A
102
{ACAD_REACTORS
330
1A59
102
}
330
1A59
100
AcDbXrecord
290
     1
  0
XRECORD
  5
1BAF
102
{ACAD_REACTORS
330
1A5D
102
}
330
1A5D
100
AcDbXrecord
102
MATERIAL
340
1A0C
  0
XRECORD
  5
1A5E
102
{ACAD_REACTORS
330
1A5D
102
}
330
1A5D
100
AcDbXrecord
290
     1
  0
XRECORD
  5
1BB0
102
{ACAD_REACTORS
330
1A5F
102
}
330
1A5F
100
AcDbXrecord
102
MATERIAL
340
1A0C
  0
XRECORD
  5
1A60
102
{ACAD_REACTORS
330
1A5F
102
}
330
1A5F
100
AcDbXrecord
290
     1
  0
XRECORD
  5
1BF5
102
{ACAD_REACTORS
330
1BF4
102
}
330
1BF4
100
AcDbXrecord
340
2
  0
XRECORD
  5
1BF7
102
{ACAD_REACTORS
330
1BF6
102
}
330
1BF6
100
AcDbXrecord
340
1BCD
  0
ACAD_PROXY_OBJECT
  5
1A04
102
{ACAD_XDICTIONARY
360
1A05
102
}
102
{ACAD_REACTORS
330
19FB
102
}
330
19FB
100
AcDbProxyObject
 90
      499
 91
      510
 93
     1340
310
42109E509B1BD8DAC02004014080404555555555555953FAA155555555555654FEA9AA400014080404555555555555953FAA155555555555654FEA9AA400000000000000E03F4080404555555555555953FAA155555555555654FEA9AA4014080404555555555555953FAA155555555555654FEA9AA4010201011555555555
310
55654FEA8555555555555953FAA6A9005020101155555555555654FEA8555555555555953FAA6A9005
 94
        0
1001
ACAD
1000
AcadProxyRoundTripData
1071
      504
1071
   655383
1070
     0
  0
ACAD_PROXY_OBJECT
  5
19FC
102
{ACAD_XDICTIONARY
360
19FD
102
}
102
{ACAD_REACTORS
330
19FB
102
}
330
19FB
100
AcDbProxyObject
 90
      499
 91
      510
 93
     1340
310
42109E53185E595C802004014080404555555555555953FAA155555555555654FEA9AA400014080404555555555555953FAA155555555555654FEA9AA400000000000000E03F4080404555555555555953FAA155555555555654FEA9AA4014080404555555555555953FAA155555555555654FEA9AA4010201011555555555
310
55654FEA8555555555555953FAA6A9005020101155555555555654FEA8555555555555953FAA6A9005
 94
        0
1001
ACAD
1000
AcadProxyRoundTripData
1071
      504
1071
   655383
1070
     0
  0
ACAD_PROXY_OBJECT
  5
1A0C
102
{ACAD_XDICTIONARY
360
1A0D
102
}
102
{ACAD_REACTORS
330
19FB
102
}
330
19FB
100
AcDbProxyObject
 90
      499
 91
      510
 93
     1332
310
41D1DB1BD8985B002004014080404555555555555953FAA155555555555654FEA9AA400014080404555555555555953FAA155555555555654FEA9AA400000000000000E03F4080404555555555555953FAA155555555555654FEA9AA4014080404555555555555953FAA155555555555654FEA9AA401020101155555555555
310
654FEA8555555555555953FAA6A9005020101155555555555654FEA8555555555555953FAA6A9000
 94
        0
1001
ACAD
1000
AcadProxyRoundTripData
1071
      504
1071
   655383
1070
     0
  0
ACAD_PROXY_OBJECT
  5
1A4B
102
{ACAD_REACTORS
330
1A4A
102
}
330
1A4A
100
AcDbProxyObject
 90
      499
 91
      510
 93
      618
310
40901902A4063FBFFFFFE056BD1B81E855B9FC0AD7A3703D0AD73F4254DD185B99185C990000AD7A3703D0AC73F90141901A02B5E8DC0F42B1CFC02B5E8DC0F42B1CFE5764000000000000300FC6
340
6A
340
0
340
16
340
0
 94
        0
1001
ACAD_MLEADERVER
1070
     2
1001
ACAD
1000
AcadProxyRoundTripData
1071
      508
1071
   655383
1070
     0
  0
MLINESTYLE
  5
78
102
{ACAD_REACTORS
330
76
102
}
330
76
100
AcDbMlineStyle
  2
STANDARD
 70
     0
  3

 62
     0
 51
90.0
 52
90.0
 71
     2
 49
0.5
 62
   256
  6
BYLAYER
 49
-0.5
 62
   256
  6
BYLAYER
  0
ACDBPLACEHOLDER
  5
5
102
{ACAD_REACTORS
330
6
102
}
330
6
100
AcDbPlaceHolder
280
     0
  0
ACAD_PROXY_OBJECT
  5
1A29
102
{ACAD_REACTORS
330
1A28
102
}
330
1A28
100
AcDbProxyObject
 90
      499
 91
      510
 93
       49
310
904313A3100598
 94
        0
1001
ACAD
1000
AcadProxyRoundTripData
1071
      507
1071
   655383
1070
     0
  0
ACAD_PROXY_OBJECT
  5
1A2A
102
{ACAD_REACTORS
330
1A28
102
}
330
1A28
100
AcDbProxyObject
 90
      499
 91
      510
 93
      113
310
904313A3200400000000000000406B
 94
        0
1001
ACAD
1000
AcadProxyRoundTripData
1071
      507
1071
   655383
1070
     0
  0
ACAD_PROXY_OBJECT
  5
1A2B
102
{ACAD_REACTORS
330
1A28
102
}
330
1A28
100
AcDbProxyObject
 90
      499
 91
      510
 93
      113
310
904313A3400400000000000010406B
 94
        0
1001
ACAD
1000
AcadProxyRoundTripData
1071
      507
1071
   655383
1070
     0
  0
ACAD_PROXY_OBJECT
  5
1A2C
102
{ACAD_REACTORS
330
1A28
102
}
330
1A28
100
AcDbProxyObject
 90
      499
 91
      510
 93
      113
310
904313A3500400000000000014406B
 94
        0
1001
ACAD
1000
AcadProxyRoundTripData
1071
      507
1071
   655383
1070
     0
  0
ACAD_PROXY_OBJECT
  5
1A2D
102
{ACAD_REACTORS
330
1A28
102
}
330
1A28
100
AcDbProxyObject
 90
      499
 91
      510
 93
      113
310
904313A3800400000000000020406B
 94
        0
1001
ACAD
1000
AcadProxyRoundTripData
1071
      507
1071
   655383
1070
     0
  0
ACAD_PROXY_OBJECT
  5
1A2E
102
{ACAD_REACTORS
330
1A28
102
}
330
1A28
100
AcDbProxyObject
 90
      499
 91
      510
 93
      121
310
905313A3130004000000000000244051
 94
        0
1001
ACAD
1000
AcadProxyRoundTripData
1071
      507
1071
   655383
1070
     0
  0
ACAD_PROXY_OBJECT
  5
1A2F
102
{ACAD_REACTORS
330
1A28
102
}
330
1A28
100
AcDbProxyObject
 90
      499
 91
      510
 93
      121
310
905313A3136004000000000000304051
 94
        0
1001
ACAD
1000
AcadProxyRoundTripData
1071
      507
1071
   655383
1070
     0
  0
ACAD_PROXY_OBJECT
  5
1A30
102
{ACAD_REACTORS
330
1A28
102
}
330
1A28
100
AcDbProxyObject
 90
      499
 91
      510
 93
      121
310
905313A3230004000000000000344051
 94
        0
1001
ACAD
1000
AcadProxyRoundTripData
1071
      507
1071
   655383
1070
     0
  0
ACAD_PROXY_OBJECT
  5
1A31
102
{ACAD_REACTORS
330
1A28
102
}
330
1A28
100
AcDbProxyObject
 90
      499
 91
      510
 93
      121
310
905313A33300040000000000003E4051
 94
        0
1001
ACAD
1000
AcadProxyRoundTripData
1071
      507
1071
   655383
1070
     0
  0
ACAD_PROXY_OBJECT
  5
1A32
102
{ACAD_REACTORS
330
1A28
102
}
330
1A28
100
AcDbProxyObject
 90
      499
 91
      510
 93
      121
310
905313A3430004000000000000444051
 94
        0
1001
ACAD
1000
AcadProxyRoundTripData
1071
      507
1071
   655383
1070
     0
  0
ACAD_PROXY_OBJECT
  5
1A33
102
{ACAD_REACTORS
330
1A28
102
}
330
1A28
100
AcDbProxyObject
 90
      499
 91
      510
 93
      121
310
905313A3530004000000000000494051
 94
        0
1001
ACAD
1000
AcadProxyRoundTripData
1071
      507
1071
   655383
1070
     0
  0
ACAD_PROXY_OBJECT
  5
1A34
102
{ACAD_REACTORS
330
1A28
102
}
330
1A28
100
AcDbProxyObject
 90
      499
 91
      510
 93
      129
310
906313A313030004000000000000594038
 94
        0
1001
ACAD
1000
AcadProxyRoundTripData
1071
      507
1071
   655383
1070
     0
  0
ACAD_PROXY_OBJECT
  5
1A35
102
{ACAD_REACTORS
330
1A28
102
}
330
1A28
100
AcDbProxyObject
 90
      499
 91
      510
 93
      113
310
904323A31000000000000000010159
 94
        0
1001
ACAD
1000
AcadProxyRoundTripData
1071
      507
1071
   655383
1070
     0
  0
ACAD_PROXY_OBJECT
  5
1A36
102
{ACAD_REACTORS
330
1A28
102
}
330
1A28
100
AcDbProxyObject
 90
      499
 91
      510
 93
      113
310
904343A31000000000000000410159
 94
        0
1001
ACAD
1000
AcadProxyRoundTripData
1071
      507
1071
   655383
1070
     0
  0
ACAD_PROXY_OBJECT
  5
1A37
102
{ACAD_REACTORS
330
1A28
102
}
330
1A28
100
AcDbProxyObject
 90
      499
 91
      510
 93
      113
310
904383A31000000000000000810159
 94
        0
1001
ACAD
1000
AcadProxyRoundTripData
1071
      507
1071
   655383
1070
     0
  0
ACAD_PROXY_OBJECT
  5
1A38
102
{ACAD_REACTORS
330
1A28
102
}
330
1A28
100
AcDbProxyObject
 90
      499
 91
      510
 93
      121
310
90531303A31000000000000000910140
 94
        0
1001
ACAD
1000
AcadProxyRoundTripData
1071
      507
1071
   655383
1070
     0
  0
ACAD_PROXY_OBJECT
  5
1A39
102
{ACAD_REACTORS
330
1A28
102
}
330
1A28
100
AcDbProxyObject
 90
      499
 91
      510
 93
      129
310
9063130303A31000000000000001650138
 94
        0
1001
ACAD
1000
AcadProxyRoundTripData
1071
      507
1071
   655383
1070
     0
  0
ACAD_PROXY_OBJECT
  5
1A3A
102
{ACAD_REACTORS
330
1A28
102
}
330
1A28
100
AcDbProxyObject
 90
      499
 91
      510
 93
      265
310
90F312F31323822203D2031272D302200000000000000200FC00000000000028402B
 94
        0
1001
ACAD
1000
AcadProxyRoundTripData
1071
      507
1071
   655383
1070
     0
  0
ACAD_PROXY_OBJECT
  5
1A3B
102
{ACAD_REACTORS
330
1A28
102
}
330
1A28
100
AcDbProxyObject
 90
      499
 91
      510
 93
      257
310
90E312F363422203D2031272D302200000000000000240FC000000000000284040
 94
        0
1001
ACAD
1000
AcadProxyRoundTripData
1071
      507
1071
   655383
1070
     0
  0
ACAD_PROXY_OBJECT
  5
1A3C
102
{ACAD_REACTORS
330
1A28
102
}
330
1A28
100
AcDbProxyObject
 90
      499
 91
      510
 93
      257
310
90E312F333222203D2031272D302200000000000000280FC000000000000284040
 94
        0
1001
ACAD
1000
AcadProxyRoundTripData
1071
      507
1071
   655383
1070
     0
  0
ACAD_PROXY_OBJECT
  5
1A3D
102
{ACAD_REACTORS
330
1A28
102
}
330
1A28
100
AcDbProxyObject
 90
      499
 91
      510
 93
      257
310
90E312F313622203D2031272D3022000000000000002C0FC000000000000284040
 94
        0
1001
ACAD
1000
AcadProxyRoundTripData
1071
      507
1071
   655383
1070
     0
  0
ACAD_PROXY_OBJECT
  5
1A3E
102
{ACAD_REACTORS
330
1A28
102
}
330
1A28
100
AcDbProxyObject
 90
      499
 91
      510
 93
      257
310
90E332F333222203D2031272D3022000000000000002E0FC000000000000284040
 94
        0
1001
ACAD
1000
AcadProxyRoundTripData
1071
      507
1071
   655383
1070
     0
  0
ACAD_PROXY_OBJECT
  5
1A3F
102
{ACAD_REACTORS
330
1A28
102
}
330
1A28
100
AcDbProxyObject
 90
      499
 91
      510
 93
      249
310
90D312F3822203D2031272D302200000000000000300FC000000000000284040
 94
        0
1001
ACAD
1000
AcadProxyRoundTripData
1071
      507
1071
   655383
1070
     0
  0
ACAD_PROXY_OBJECT
  5
1A40
102
{ACAD_REACTORS
330
1A28
102
}
330
1A28
100
AcDbProxyObject
 90
      499
 91
      510
 93
      257
310
90E332F313622203D2031272D302200000000000000320FC000000000000284040
 94
        0
1001
ACAD
1000
AcadProxyRoundTripData
1071
      507
1071
   655383
1070
     0
  0
ACAD_PROXY_OBJECT
  5
1A41
102
{ACAD_REACTORS
330
1A28
102
}
330
1A28
100
AcDbProxyObject
 90
      499
 91
      510
 93
      249
310
90D312F3422203D2031272D302200000000000000340FC000000000000284040
 94
        0
1001
ACAD
1000
AcadProxyRoundTripData
1071
      507
1071
   655383
1070
     0
  0
ACAD_PROXY_OBJECT
  5
1A42
102
{ACAD_REACTORS
330
1A28
102
}
330
1A28
100
AcDbProxyObject
 90
      499
 91
      510
 93
      249
310
90D332F3822203D2031272D302200000000000000360FC000000000000284040
 94
        0
1001
ACAD
1000
AcadProxyRoundTripData
1071
      507
1071
   655383
1070
     0
  0
ACAD_PROXY_OBJECT
  5
1A43
102
{ACAD_REACTORS
330
1A28
102
}
330
1A28
100
AcDbProxyObject
 90
      499
 91
      510
 93
      249
310
90D312F3222203D2031272D302200000000000000380FC000000000000284040
 94
        0
1001
ACAD
1000
AcadProxyRoundTripData
1071
      507
1071
   655383
1070
     0
  0
ACAD_PROXY_OBJECT
  5
1A44
102
{ACAD_REACTORS
330
1A28
102
}
330
1A28
100
AcDbProxyObject
 90
      499
 91
      510
 93
      249
310
90D332F3422203D2031272D3022000000000000003A0FC000000000000284040
 94
        0
1001
ACAD
1000
AcadProxyRoundTripData
1071
      507
1071
   655383
1070
     0
  0
ACAD_PROXY_OBJECT
  5
1A45
102
{ACAD_REACTORS
330
1A28
102
}
330
1A28
100
AcDbProxyObject
 90
      499
 91
      510
 93
      169
310
90B3122203D2031272D3022004000000000000284020
 94
        0
1001
ACAD
1000
AcadProxyRoundTripData
1071
      507
1071
   655383
1070
     0
  0
ACAD_PROXY_OBJECT
  5
1A46
102
{ACAD_REACTORS
330
1A28
102
}
330
1A28
100
AcDbProxyObject
 90
      499
 91
      510
 93
      265
310
90F312D312F3222203D2031272D3022000000000000003E0FC00000000000028402B
 94
        0
1001
ACAD
1000
AcadProxyRoundTripData
1071
      507
1071
   655383
1070
     0
  0
ACAD_PROXY_OBJECT
  5
1A47
102
{ACAD_REACTORS
330
1A28
102
}
330
1A28
100
AcDbProxyObject
 90
      499
 91
      510
 93
      233
310
90B3322203D2031272D30220000000000000002100000000000000284000
 94
        0
1001
ACAD
1000
AcadProxyRoundTripData
1071
      507
1071
   655383
1070
     0
  0
ACAD_PROXY_OBJECT
  5
1A48
102
{ACAD_REACTORS
330
1A28
102
}
330
1A28
100
AcDbProxyObject
 90
      499
 91
      510
 93
      233
310
90B3622203D2031272D30220000000000000006100000000000000284000
 94
        0
1001
ACAD
1000
AcadProxyRoundTripData
1071
      507
1071
   655383
1070
     0
  0
ACAD_PROXY_OBJECT
  5
1A49
102
{ACAD_REACTORS
330
1A28
102
}
330
1A28
100
AcDbProxyObject
 90
      499
 91
      510
 93
      257
310
90E31272D3022203D2031272D3022000000000000000A100000000000000284040
 94
        0
1001
ACAD
1000
AcadProxyRoundTripData
1071
      507
1071
   655383
1070
     0
  0
ACAD_PROXY_OBJECT
  5
1A27
102
{ACAD_XDICTIONARY
360
1A91
102
}
102
{ACAD_REACTORS
330
1A26
102
}
330
1A26
100
AcDbProxyObject
 90
      499
 91
      510
 93
     1849
310
4254DD185B99185C990028B81E85EB51B8AE3F2E07A17AD46E2B8FC02B5E8DC0F42B1CFD028000000C1008070000C3001FDFF8000000C1003FBFF000000182007F7FE00000030400FEFFC00000060801FDFF8000000C1003FBFF00000018200000000000000681FA0B0000001820100E000186003FBFF000000182007F7FE0
310
0000030400FEFFC00000060801FDFF8000000C1003FBFF000000182007F7FE000000304000AD7A3703D0AC73F4160000003040201C00030C007F7FE00000030400FEFFC00000060801FDFF8000000C1003FBFF000000182007F7FE00000030400FEFFC00000060800A
340
16
340
16
340
16
 94
        0
1001
ACAD
1000
AcadProxyRoundTripData
1071
      506
1071
   655383
1070
     0
  0
ACAD_PROXY_OBJECT
  5
1A1A
102
{ACAD_REACTORS
330
1A14
102
}
330
1A14
100
AcDbProxyObject
 90
      499
 91
      510
 93
      444
310
430C9915DA5C99599C985B59401049028333333333333E3BF0000000000000FB0107901411070040501600405405064090741402480A0340
 94
        0
1001
ACAD
1000
AcDbSavedByObjectVersion
1070
     0
1000
AcadProxyRoundTripData
1071
      505
1071
   655383
1070
     0
  0
ACAD_PROXY_OBJECT
  5
1A1C
102
{ACAD_REACTORS
330
1A14
102
}
330
1A14
100
AcDbProxyObject
 90
      499
 91
      510
 93
      508
310
428CD108121A5919195B8010640502408333333333333E3BF0000000000000FB01079024090700405020000000000001110200405405064090740C02480A0340
 94
        0
1001
ACAD
1000
AcDbSavedByObjectVersion
1070
     0
1000
AcadProxyRoundTripData
1071
      505
1071
   655383
1070
     0
  0
ACAD_PROXY_OBJECT
  5
1A1B
102
{ACAD_REACTORS
330
1A14
102
}
330
1A14
100
AcDbProxyObject
 90
      499
 91
      510
 93
      444
310
430CD915DA5C99599C985B59401059028333333333333E3BF0000000000000FB0107901411070040501600405405064090741402480A0340
 94
        0
1001
ACAD
1000
AcDbSavedByObjectVersion
1070
     0
1000
AcadProxyRoundTripData
1071
      505
1071
   655383
1070
     0
  0
ACAD_PROXY_OBJECT
  5
1A19
102
{ACAD_REACTORS
330
1A14
102
}
330
1A14
100
AcDbProxyObject
 90
      499
 91
      510
 93
      396
310
4190985CDA58C0107406404333333333333E3BF0000000000000FB0107A41107004050150841D405064090741402480A0356
 94
        0
1001
ACAD
1000
AcDbSavedByObjectVersion
1070
     0
1000
AcadProxyRoundTripData
1071
      505
1071
   655383
1070
     0
  0
ACAD_PROXY_OBJECT
  5
1A20
102
{ACAD_REACTORS
330
1A14
102
}
330
1A14
100
AcDbProxyObject
 90
      499
 91
      510
 93
      436
310
42509C9A59DA1D195B8010C409028333333333333E3BF0000000000000FB010790141107004050150841D405064090741402480A029956
 94
        0
1001
ACAD
1000
AcDbSavedByObjectVersion
1070
     0
1000
AcadProxyRoundTripData
1071
      505
1071
   655383
1070
     0
  0
ACAD_PROXY_OBJECT
  5
1A24
102
{ACAD_REACTORS
330
1A14
102
}
330
1A14
100
AcDbProxyObject
 90
      499
 91
      510
 93
      460
310
4310DBDB1BDC90DA185B99D9401104090240C333333333333E3BF0000000000000FB0108901411070040501508421405064090741402480A0354
 94
        0
1001
ACAD
1000
AcDbSavedByObjectVersion
1070
     0
1000
AcadProxyRoundTripData
1071
      505
1071
   655383
1070
     0
  0
ACAD_PROXY_OBJECT
  5
1A1D
102
{ACAD_REACTORS
330
1A14
102
}
330
1A14
100
AcDbProxyObject
 90
      499
 91
      510
 93
      508
310
42D0DBDB98D95C1D1D585B0010940D028333333333333E3BF0000000000000FB0107902409070040501000000000000111010841D405064090740C02480A0340
 94
        0
1001
ACAD
1000
AcDbSavedByObjectVersion
1070
     0
1000
AcadProxyRoundTripData
1071
      505
1071
   655383
1070
     0
  0
ACAD_PROXY_OBJECT
  5
1A1F
102
{ACAD_REACTORS
330
1A14
102
}
330
1A14
100
AcDbProxyObject
 90
      499
 91
      510
 93
      420
310
41111A5B4010B409028333333333333E3BF0000000000000FB010790141107004050150841D405064090741402480A02677FFFFFDB
 94
        0
1001
ACAD
1000
AcDbSavedByObjectVersion
1070
     0
1000
AcadProxyRoundTripData
1071
      505
1071
   655383
1070
     0
  0
ACAD_PROXY_OBJECT
  5
1A23
102
{ACAD_REACTORS
330
1A14
102
}
330
1A14
100
AcDbProxyObject
 90
      499
 91
      510
 93
      452
310
43119858D95C185D1D195C9B8010F409028333333333333E3BF0000000000000FB010790141107004050150841D405064090741402480A0350
 94
        0
1001
ACAD
1000
AcDbSavedByObjectVersion
1070
     0
1000
AcadProxyRoundTripData
1071
      505
1071
   655383
1070
     0
  0
ACAD_PROXY_OBJECT
  5
1A15
102
{ACAD_REACTORS
330
1A14
102
}
330
1A14
100
AcDbProxyObject
 90
      499
 91
      510
 93
      396
310
41519B185D00240901404333333333333E3BF0000000000000F9010740A41107004050150841D405064090741402480A1B55
 94
        0
1001
ACAD
1000
AcDbSavedByObjectVersion
1070
     0
1000
AcadProxyRoundTripData
1071
      505
1071
   655383
1070
     0
  0
ACAD_PROXY_OBJECT
  5
1A16
102
{ACAD_REACTORS
330
1A14
102
}
330
1A14
100
AcDbProxyObject
 90
      499
 91
      510
 93
      484
310
43919B185D15DA5D1A115919D95CC010140901404333333333333E3BF0000000000000F9010740901411070040501600405405064090741402480A1B50
 94
        0
1001
ACAD
1000
AcDbSavedByObjectVersion
1070
     0
1000
AcadProxyRoundTripData
1071
      505
1071
   655383
1070
     0
  0
ACAD_PROXY_OBJECT
  5
1A17
102
{ACAD_REACTORS
330
1A14
102
}
330
1A14
100
AcDbProxyObject
 90
      499
 91
      510
 93
      420
310
4211DBDD5C985D590010240902404333333333333E3BF0000000000000F9010740A411070040501641D405064090741402480A1B50
 94
        0
1001
ACAD
1000
AcDbSavedByObjectVersion
1070
     0
1000
AcadProxyRoundTripData
1071
      505
1071
   655383
1070
     0
  0
ACAD_PROXY_OBJECT
  5
1A18
102
{ACAD_REACTORS
330
1A14
102
}
330
1A14
100
AcDbProxyObject
 90
      499
 91
      510
 93
      508
310
4451DBDD5C985D5915DA5D1A115919D95CC010340902404333333333333E3BF0000000000000F9010740901411070040501600405405064090741402480A1B50
 94
        0
1001
ACAD
1000
AcDbSavedByObjectVersion
1070
     0
1000
AcadProxyRoundTripData
1071
      505
1071
   655383
1070
     0
  0
ACAD_PROXY_OBJECT
  5
1A22
102
{ACAD_REACTORS
330
1A14
102
}
330
1A14
100
AcDbProxyObject
 90
      499
 91
      510
 93
      452
310
43131A5B995C185D1D195C9B8010E409028333333333333E3BF0000000000000FB010790141107004050750841D405064090741402483A0350
 94
        0
1001
ACAD
1000
AcDbSavedByObjectVersion
1070
     0
1000
AcadProxyRoundTripData
1071
      505
1071
   655383
1070
     0
  0
ACAD_PROXY_OBJECT
  5
1A1E
102
{ACAD_REACTORS
330
1A14
102
}
330
1A14
100
AcDbProxyObject
 90
      499
 91
      510
 93
      428
310
429499585B1A5CDD1A58C0108409028333333333333E3BF0000000000000FB01079019070040501508421405064090741402480A1B45
 94
        0
1001
ACAD
1000
AcDbSavedByObjectVersion
1070
     0
1000
AcadProxyRoundTripData
1071
      505
1071
   655383
1070
     0
  0
ACAD_PROXY_OBJECT
  5
1A21
102
{ACAD_REACTORS
330
1A14
102
}
330
1A14
100
AcDbProxyObject
 90
      499
 91
      510
 93
      420
310
42151A1A58DAD95B8010D409028333333333333E3BF0000000000000FB010790141107004050150C41D405064090741402480A0352
 94
        0
1001
ACAD
1000
AcDbSavedByObjectVersion
1070
     0
1000
AcadProxyRoundTripData
1071
      505
1071
   655383
1070
     0
  0
XRECORD
  5
1BDD
102
{ACAD_REACTORS
330
1BD3
102
}
330
1BD3
100
AcDbXrecord
 90
        0
  0
XRECORD
  5
1BE1
102
{ACAD_REACTORS
330
1BD3
102
}
330
1BD3
100
AcDbXrecord
1000
DSTYLE
1002
{
1070
   179
 70
     2
1070
   277
 70
     6
1002
}
  0
XRECORD
  5
1BDE
102
{ACAD_REACTORS
330
1BD3
102
}
330
1BD3
100
AcDbXrecord
  1
{6385560B-F4B1-4644-A7C2-A3E32AC3D232}
  0
XRECORD
  5
1BD6
102
{ACAD_REACTORS
330
1BD3
102
}
330
1BD3
100
AcDbXrecord
  1

  0
XRECORD
  5
1BDC
102
{ACAD_REACTORS
330
1BD3
102
}
330
1BD3
100
AcDbXrecord
 90
        0
  0
XRECORD
  5
1BD8
102
{ACAD_REACTORS
330
1BD3
102
}
330
1BD3
100
AcDbXrecord
340
61
  0
XRECORD
  5
1BDB
102
{ACAD_REACTORS
330
1BD3
102
}
330
1BD3
100
AcDbXrecord
 90
    10781
  0
XRECORD
  5
1BD9
102
{ACAD_REACTORS
330
1BD3
102
}
330
1BD3
100
AcDbXrecord
340
77
  0
XRECORD
  5
1BDA
102
{ACAD_REACTORS
330
1BD3
102
}
330
1BD3
100
AcDbXrecord
340
6
  0
XRECORD
  5
1BE0
102
{ACAD_REACTORS
330
1BD3
102
}
330
1BD3
100
AcDbXrecord
 40
0.0
  0
XRECORD
  5
1BE4
102
{ACAD_REACTORS
330
1BD3
102
}
330
1BD3
100
AcDbXrecord
340
0
  0
XRECORD
  5
1BEA
102
{ACAD_REACTORS
330
1BD3
102
}
330
1BD3
100
AcDbXrecord
 10
0.0
 20
0.0
 30
0.0
  0
XRECORD
  5
1BE6
102
{ACAD_REACTORS
330
1BD3
102
}
330
1BD3
100
AcDbXrecord
 10
0.0
 20
0.0
 30
0.0
  0
XRECORD
  5
1BE9
102
{ACAD_REACTORS
330
1BD3
102
}
330
1BD3
100
AcDbXrecord
 10
0.0
 20
0.0
 30
0.0
  0
XRECORD
  5
1BE7
102
{ACAD_REACTORS
330
1BD3
102
}
330
1BD3
100
AcDbXrecord
 10
0.0
 20
0.0
 30
0.0
  0
XRECORD
  5
1BE8
102
{ACAD_REACTORS
330
1BD3
102
}
330
1BD3
100
AcDbXrecord
 10
0.0
 20
0.0
 30
0.0
  0
XRECORD
  5
1BE5
102
{ACAD_REACTORS
330
1BD3
102
}
330
1BD3
100
AcDbXrecord
 10
0.0
 20
0.0
 30
0.0
  0
XRECORD
  5
1BE2
102
{ACAD_REACTORS
330
1BD3
102
}
330
1BD3
100
AcDbXrecord
340
0
  0
XRECORD
  5
1BE3
102
{ACAD_REACTORS
330
1BD3
102
}
330
1BD3
100
AcDbXrecord
 70
     0
  0
XRECORD
  5
1BD7
102
{ACAD_REACTORS
330
1BD3
102
}
330
1BD3
100
AcDbXrecord
  1
Sekkei.ctb
  0
XRECORD
  5
1BD4
102
{ACAD_REACTORS
330
1BD3
102
}
330
1BD3
100
AcDbXrecord
 90
        1
  0
XRECORD
  5
1BD5
102
{ACAD_REACTORS
330
1BD3
102
}
330
1BD3
100
AcDbXrecord
 90
       70
  0
XRECORD
  5
1BED
102
{ACAD_REACTORS
330
1BD3
102
}
330
1BD3
100
AcDbXrecord
340
0
  0
XRECORD
  5
1BF3
102
{ACAD_REACTORS
330
1BD3
102
}
330
1BD3
100
AcDbXrecord
 10
0.0
 20
0.0
 30
0.0
  0
XRECORD
  5
1BEF
102
{ACAD_REACTORS
330
1BD3
102
}
330
1BD3
100
AcDbXrecord
 10
0.0
 20
0.0
 30
0.0
  0
XRECORD
  5
1BF2
102
{ACAD_REACTORS
330
1BD3
102
}
330
1BD3
100
AcDbXrecord
 10
0.0
 20
0.0
 30
0.0
  0
XRECORD
  5
1BF0
102
{ACAD_REACTORS
330
1BD3
102
}
330
1BD3
100
AcDbXrecord
 10
0.0
 20
0.0
 30
0.0
  0
XRECORD
  5
1BF1
102
{ACAD_REACTORS
330
1BD3
102
}
330
1BD3
100
AcDbXrecord
 10
0.0
 20
0.0
 30
0.0
  0
XRECORD
  5
1BEE
102
{ACAD_REACTORS
330
1BD3
102
}
330
1BD3
100
AcDbXrecord
 10
0.0
 20
0.0
 30
0.0
  0
XRECORD
  5
1BEB
102
{ACAD_REACTORS
330
1BD3
102
}
330
1BD3
100
AcDbXrecord
340
0
  0
XRECORD
  5
1BEC
102
{ACAD_REACTORS
330
1BD3
102
}
330
1BD3
100
AcDbXrecord
 70
     0
  0
XRECORD
  5
1BDF
102
{ACAD_REACTORS
330
1BD3
102
}
330
1BD3
100
AcDbXrecord
  1
{7CB437FD-EDC3-453B-A64F-08C113108A2B}
  0
DICTIONARYVAR
  5
1AB4
102
{ACAD_REACTORS
330
102
102
}
330
102
100
DictionaryVariables
280
     0
  1
1:1
  0
DICTIONARYVAR
  5
1AB3
102
{ACAD_REACTORS
330
102
102
}
330
102
100
DictionaryVariables
280
     0
  1
STANDARD
  0
DICTIONARYVAR
  5
1AB2
102
{ACAD_REACTORS
330
102
102
}
330
102
100
DictionaryVariables
280
     0
  1
STANDARD
  0
DICTIONARYVAR
  5
103
102
{ACAD_REACTORS
330
102
102
}
330
102
100
DictionaryVariables
280
     0
  1
1
  0
DICTIONARYVAR
  5
1AB5
102
{ACAD_REACTORS
330
102
102
}
330
102
100
DictionaryVariables
280
     0
  1
0
  0
DICTIONARYVAR
  5
549
102
{ACAD_REACTORS
330
102
102
}
330
102
100
DictionaryVariables
280
     0
  1
96
  0
DICTIONARY
  5
1A05
330
1A04
100
AcDbDictionary
280
     1
  3
ACAD_XREC_ROUNDTRIP
360
1BB8
  3
BUMPTILE
360
1A07
  3
DIFFUSETILE
360
1A06
  3
OPACITYTILE
360
1A0A
  3
REFLECTIONTILE
360
1A09
  3
REFRACTIONTILE
360
1A0B
  3
SPECULARTILE
360
1A08
  0
DICTIONARY
  5
19FD
330
19FC
100
AcDbDictionary
280
     1
  3
ACAD_XREC_ROUNDTRIP
360
1BB7
  3
BUMPTILE
360
19FF
  3
DIFFUSETILE
360
19FE
  3
OPACITYTILE
360
1A02
  3
REFLECTIONTILE
360
1A01
  3
REFRACTIONTILE
360
1A03
  3
SPECULARTILE
360
1A00
  0
DICTIONARY
  5
1A0D
330
1A0C
100
AcDbDictionary
280
     1
  3
ACAD_XREC_ROUNDTRIP
360
1BB9
  3
BUMPTILE
360
1A0F
  3
DIFFUSETILE
360
1A0E
  3
OPACITYTILE
360
1A12
  3
REFLECTIONTILE
360
1A11
  3
REFRACTIONTILE
360
1A13
  3
SPECULARTILE
360
1A10
  0
DICTIONARY
  5
1A91
330
1A27
100
AcDbDictionary
280
     1
  3
ACAD_ROUNDTRIP_2008_TABLES
360
1B9E
  3
ACAD_XREC_ROUNDTRIP
360
1BBA
  0
XRECORD
  5
1BB8
102
{ACAD_REACTORS
330
1A05
102
}
330
1A05
100
AcDbXrecord
102
MATERIAL
148
0.0
149
0.0
149
0.0
 93
        0
 94
      127
282
     0
 72
     0
 77
     0
171
     0
175
     0
179
     0
273
     0
  0
XRECORD
  5
1A07
102
{ACAD_REACTORS
330
1A05
102
}
330
1A05
100
AcDbXrecord
270
     1
271
     1
  0
XRECORD
  5
1A06
102
{ACAD_REACTORS
330
1A05
102
}
330
1A05
100
AcDbXrecord
270
     1
271
     1
  0
XRECORD
  5
1A0A
102
{ACAD_REACTORS
330
1A05
102
}
330
1A05
100
AcDbXrecord
270
     1
271
     1
  0
XRECORD
  5
1A09
102
{ACAD_REACTORS
330
1A05
102
}
330
1A05
100
AcDbXrecord
270
     1
271
     1
  0
XRECORD
  5
1A0B
102
{ACAD_REACTORS
330
1A05
102
}
330
1A05
100
AcDbXrecord
270
     1
271
     1
  0
XRECORD
  5
1A08
102
{ACAD_REACTORS
330
1A05
102
}
330
1A05
100
AcDbXrecord
270
     1
271
     1
  0
XRECORD
  5
1BB7
102
{ACAD_REACTORS
330
19FD
102
}
330
19FD
100
AcDbXrecord
102
MATERIAL
148
0.0
149
0.0
149
0.0
 93
        0
 94
      127
282
     0
 72
     0
 77
     0
171
     0
175
     0
179
     0
273
     0
  0
XRECORD
  5
19FF
102
{ACAD_REACTORS
330
19FD
102
}
330
19FD
100
AcDbXrecord
270
     1
271
     1
  0
XRECORD
  5
19FE
102
{ACAD_REACTORS
330
19FD
102
}
330
19FD
100
AcDbXrecord
270
     1
271
     1
  0
XRECORD
  5
1A02
102
{ACAD_REACTORS
330
19FD
102
}
330
19FD
100
AcDbXrecord
270
     1
271
     1
  0
XRECORD
  5
1A01
102
{ACAD_REACTORS
330
19FD
102
}
330
19FD
100
AcDbXrecord
270
     1
271
     1
  0
XRECORD
  5
1A03
102
{ACAD_REACTORS
330
19FD
102
}
330
19FD
100
AcDbXrecord
270
     1
271
     1
  0
XRECORD
  5
1A00
102
{ACAD_REACTORS
330
19FD
102
}
330
19FD
100
AcDbXrecord
270
     1
271
     1
  0
XRECORD
  5
1BB9
102
{ACAD_REACTORS
330
1A0D
102
}
330
1A0D
100
AcDbXrecord
102
MATERIAL
148
0.0
149
0.0
149
0.0
 93
        0
 94
      127
282
     0
 72
     0
 77
     0
171
     0
175
     0
179
     0
273
     0
  0
XRECORD
  5
1A0F
102
{ACAD_REACTORS
330
1A0D
102
}
330
1A0D
100
AcDbXrecord
270
     1
271
     1
  0
XRECORD
  5
1A0E
102
{ACAD_REACTORS
330
1A0D
102
}
330
1A0D
100
AcDbXrecord
270
     1
271
     1
  0
XRECORD
  5
1A12
102
{ACAD_REACTORS
330
1A0D
102
}
330
1A0D
100
AcDbXrecord
270
     1
271
     1
  0
XRECORD
  5
1A11
102
{ACAD_REACTORS
330
1A0D
102
}
330
1A0D
100
AcDbXrecord
270
     1
271
     1
  0
XRECORD
  5
1A13
102
{ACAD_REACTORS
330
1A0D
102
}
330
1A0D
100
AcDbXrecord
270
     1
271
     1
  0
XRECORD
  5
1A10
102
{ACAD_REACTORS
330
1A0D
102
}
330
1A0D
100
AcDbXrecord
270
     1
271
     1
  0
ACAD_PROXY_OBJECT
  5
1B9E
102
{ACAD_REACTORS
330
1A91
102
}
330
1A91
100
AcDbProxyObject
 90
      499
 91
      510
 93
     5304
310
40D054060020000020000003200101A000080002A5058000000C100000000000000340FD012E07A17AD46E2B8FCB81E85EB51B8AE3F2E07A17AD46E2B8FCB81E85EB51B8AE3F02B5E8DC0F42B1CFC0AD7A3703D0AC73F419019018000000C1003FBFFFFFE02B5E8DC0F42A9CFD029018000000C1003FBFFFFFE02B5E8DC0F4
310
2A9CFD049018000000C1003FBFFFFFE02B5E8DC0F42A9CFD089018000000C1003FBFFFFFE02B5E8DC0F42A9CFD109018000000C1003FBFFFFFE02B5E8DC0F42A9CFD209018000000C1003FBFFFFFE02B5E8DC0F42A9CFD01405075F5449544C450041501A8000000C800406800020000A9416000000304000AD7A3703D0AC7
310
3F404B81E85EB51B8AE3F2E07A17AD46E2B8FCB81E85EB51B8AE3F2E07A17AD46E2B8FC0AD7A3703D0AC73F02B5E8DC0F42B1CFD0640640600000030400FEFFFFFF80AD7A3703D0AA73F40A40600000030400FEFFFFFF80AD7A3703D0AA73F41240600000030400FEFFFFFF80AD7A3703D0AA73F42240600000030400FEFFF
310
FFF80AD7A3703D0AA73F44240600000030400FEFFFFFF80AD7A3703D0AA73F48240600000030400FEFFFFFF80AD7A3703D0AA73F409014217D2115051115480105406A0000003200101A000080002A5028000000C10002B5E8DC0F42B1CFD012E07A17AD46E2B8FCB81E85EB51B8AE3F2E07A17AD46E2B8FCB81E85EB51B8A
310
E3F02B5E8DC0F42B1CFC0AD7A3703D0AC73F419019018000000C1003FBFFFFFE02B5E8DC0F42A9CFD029018000000C1003FBFFFFFE02B5E8DC0F42A9CFD049018000000C1003FBFFFFFE02B5E8DC0F42A9CFD089018000000C1003FBFFFFFE02B5E8DC0F42A9CFD109018000000C1003FBFFFFFE02B5E8DC0F42A9CFD20901
310
8000000C1003FBFFFFFE02B5E8DC0F42A9CFD03409065F44415441004F
340
16
340
0
340
0
340
0
340
0
340
0
340
0
340
16
340
0
340
0
340
0
340
0
340
0
340
0
340
16
340
0
340
0
340
0
340
0
340
0
340
0
 94
        0
1001
ACAD
1000
AcadProxyRoundTripData
1071
      509
1071
   655383
1070
     0
  0
XRECORD
  5
1BBA
102
{ACAD_REACTORS
330
1A91
102
}
330
1A91
100
AcDbXrecord
102
ACAD_ROUNDTRIP_PRE2007_TABLESTYLE
 90
      512
 91
        0
  1

 92
      512
 93
        0
  2

 94
      512
 95
        0
  3

  0
ENDSEC
  0
EOF
