  0
SECTION
  2
HEADER
  9
$ACADVER
  1
AC1014
  9
$ACADMAINTVER
 70
     9
  9
$DWGCODEPAGE
  3
ANSI_932
  9
$INSBASE
 10
0.0
 20
0.0
 30
0.0
  9
$EXTMIN
 10
61.74391316423566
 20
82.35978292052056
 30
0.0
  9
$EXTMAX
 10
780.7836867009375
 20
547.7818050389812
 30
0.0
  9
$LIMMIN
 10
0.0
 20
0.0
  9
$LIMMAX
 10
297.0
 20
210.0
  9
$ORTHOMODE
 70
     1
  9
$REGENMODE
 70
     1
  9
$FILLMODE
 70
     1
  9
$QTEXTMODE
 70
     0
  9
$MIRRTEXT
 70
     0
  9
$DRAGMODE
 70
     2
  9
$LTSCALE
 40
2.0
  9
$OSMODE
 70
    37
  9
$ATTMODE
 70
     1
  9
$TEXTSIZE
 40
2.0
  9
$TRACEWID
 40
1.0
  9
$TEXTSTYLE
  7
STANDARD
  9
$CLAYER
  8
0
  9
$CELTYPE
  6
BYLAYER
  9
$CECOLOR
 62
   256
  9
$CELTSCALE
 40
1.0
  9
$DELOBJ
 70
     1
  9
$DISPSILH
 70
     0
  9
$DIMSCALE
 40
2.0
  9
$DIMASZ
 40
1.8
  9
$DIMEXO
 40
0.625
  9
$DIMDLI
 40
3.75
  9
$DIMRND
 40
0.0
  9
$DIMDLE
 40
0.0
  9
$DIMEXE
 40
0.8
  9
$DIMTP
 40
0.0
  9
$DIMTM
 40
0.0
  9
$DIMTXT
 40
1.8
  9
$DIMCEN
 40
2.5
  9
$DIMTSZ
 40
0.0
  9
$DIMTOL
 70
     0
  9
$DIMLIM
 70
     0
  9
$DIMTIH
 70
     0
  9
$DIMTOH
 70
     0
  9
$DIMSE1
 70
     0
  9
$DIMSE2
 70
     0
  9
$DIMTAD
 70
     1
  9
$DIMZIN
 70
     8
  9
$DIMBLK
  1

  9
$DIMASO
 70
     1
  9
$DIMSHO
 70
     1
  9
$DIMPOST
  1

  9
$DIMAPOST
  1

  9
$DIMALT
 70
     0
  9
$DIMALTD
 70
     4
  9
$DIMALTF
 40
0.0394
  9
$DIMLFAC
 40
1.0
  9
$DIMTOFL
 70
     1
  9
$DIMTVP
 40
0.0
  9
$DIMTIX
 70
     0
  9
$DIMSOXD
 70
     0
  9
$DIMSAH
 70
     0
  9
$DIMBLK1
  1

  9
$DIMBLK2
  1

  9
$DIMSTYLE
  2
STANDARD
  9
$DIMCLRD
 70
     0
  9
$DIMCLRE
 70
     0
  9
$DIMCLRT
 70
     0
  9
$DIMTFAC
 40
1.0
  9
$DIMGAP
 40
0.75
  9
$DIMJUST
 70
     0
  9
$DIMSD1
 70
     0
  9
$DIMSD2
 70
     0
  9
$DIMTOLJ
 70
     1
  9
$DIMTZIN
 70
     0
  9
$DIMALTZ
 70
     0
  9
$DIMALTTZ
 70
     0
  9
$DIMFIT
 70
     3
  9
$DIMUPT
 70
     0
  9
$DIMUNIT
 70
     8
  9
$DIMDEC
 70
     2
  9
$DIMTDEC
 70
     2
  9
$DIMALTU
 70
     8
  9
$DIMALTTD
 70
     4
  9
$DIMTXSTY
  7
STANDARD
  9
$DIMAUNIT
 70
     0
  9
$LUNITS
 70
     2
  9
$LUPREC
 70
     3
  9
$SKETCHINC
 40
1.0
  9
$FILLETRAD
 40
10.0
  9
$AUNITS
 70
     0
  9
$AUPREC
 70
     2
  9
$MENU
  1
.
  9
$ELEVATION
 40
0.0
  9
$PELEVATION
 40
0.0
  9
$THICKNESS
 40
0.0
  9
$LIMCHECK
 70
     0
  9
$BLIPMODE
 70
     0
  9
$CHAMFERA
 40
0.0
  9
$CHAMFERB
 40
0.0
  9
$CHAMFERC
 40
20.0
  9
$CHAMFERD
 40
0.0
  9
$SKPOLY
 70
     0
  9
$TDCREATE
 40
2454410.563830104
  9
$TDUPDATE
 40
2454425.683889606
  9
$TDINDWG
 40
0.0134981134
  9
$TDUSRTIMER
 40
0.0134981134
  9
$USRTIMER
 70
     1
  9
$ANGBASE
 50
0.0
  9
$ANGDIR
 70
     0
  9
$PDMODE
 70
     0
  9
$PDSIZE
 40
-10.0
  9
$PLINEWID
 40
0.0
  9
$COORDS
 70
     0
  9
$SPLFRAME
 70
     0
  9
$SPLINETYPE
 70
     6
  9
$SPLINESEGS
 70
     8
  9
$ATTDIA
 70
     0
  9
$ATTREQ
 70
     1
  9
$HANDLING
 70
-16383
  9
$HANDSEED
  5
1B71
  9
$SURFTAB1
 70
     6
  9
$SURFTAB2
 70
     6
  9
$SURFTYPE
 70
     6
  9
$SURFU
 70
     6
  9
$SURFV
 70
     6
  9
$UCSNAME
  2

  9
$UCSORG
 10
0.0
 20
0.0
 30
0.0
  9
$UCSXDIR
 10
1.0
 20
0.0
 30
0.0
  9
$UCSYDIR
 10
0.0
 20
1.0
 30
0.0
  9
$PUCSNAME
  2

  9
$PUCSORG
 10
0.0
 20
0.0
 30
0.0
  9
$PUCSXDIR
 10
1.0
 20
0.0
 30
0.0
  9
$PUCSYDIR
 10
0.0
 20
1.0
 30
0.0
  9
$USERI1
 70
     0
  9
$USERI2
 70
     0
  9
$USERI3
 70
     0
  9
$USERI4
 70
     0
  9
$USERI5
 70
     0
  9
$USERR1
 40
0.0
  9
$USERR2
 40
0.0
  9
$USERR3
 40
0.0
  9
$USERR4
 40
0.0
  9
$USERR5
 40
0.0
  9
$WORLDVIEW
 70
     1
  9
$SHADEDGE
 70
     3
  9
$SHADEDIF
 70
    70
  9
$TILEMODE
 70
     1
  9
$MAXACTVP
 70
    48
  9
$PINSBASE
 10
0.0
 20
0.0
 30
0.0
  9
$PLIMCHECK
 70
     0
  9
$PEXTMIN
 10
0.0
 20
0.0
 30
0.0
  9
$PEXTMAX
 10
0.0
 20
0.0
 30
0.0
  9
$PLIMMIN
 10
0.0
 20
0.0
  9
$PLIMMAX
 10
12.0
 20
9.0
  9
$UNITMODE
 70
     0
  9
$VISRETAIN
 70
     1
  9
$PLINEGEN
 70
     0
  9
$PSLTSCALE
 70
     1
  9
$TREEDEPTH
 70
  3020
  9
$PICKSTYLE
 70
     1
  9
$CMLSTYLE
  2
STANDARD
  9
$CMLJUST
 70
     0
  9
$CMLSCALE
 40
1.0
  9
$PROXYGRAPHICS
 70
     1
  9
$MEASUREMENT
 70
     0
  0
ENDSEC
  0
SECTION
  2
CLASSES
  0
CLASS
  1
DICTIONARYVAR
  2
AcDbDictionaryVar
  3
AutoCAD 2000
 90
        0
280
     0
281
     0
  0
CLASS
  1
ACDBDICTIONARYWDFLT
  2
AcDbDictionaryWithDefault
  3
AutoCAD 2000
 90
        0
280
     0
281
     0
  0
CLASS
  1
ACDBPLACEHOLDER
  2
AcDbPlaceHolder
  3
AutoCAD 2000
 90
        0
280
     0
281
     0
  0
CLASS
  1
LAYOUT
  2
AcDbLayout
  3
AutoCAD 2000
 90
        0
280
     0
281
     0
  0
CLASS
  1
MATERIAL
  2
AcDbMaterial
  3
ObjectDBX Classes
 90
     1153
280
     0
281
     0
  0
CLASS
  1
VISUALSTYLE
  2
AcDbVisualStyle
  3
ObjectDBX Classes
 90
     4095
280
     0
281
     0
  0
CLASS
  1
TABLESTYLE
  2
AcDbTableStyle
  3
ObjectDBX Classes
 90
     4095
280
     0
281
     0
  0
CLASS
  1
SCALE
  2
AcDbScale
  3
ObjectDBX Classes
 90
     1153
280
     0
281
     0
  0
CLASS
  1
MLEADERSTYLE
  2
AcDbMLeaderStyle
  3
ACDB_MLEADERSTYLE_CLASS
 90
     4095
280
     0
281
     0
  0
CLASS
  1
CELLSTYLEMAP
  2
AcDbCellStyleMap
  3
ObjectDBX Classes
 90
     1152
280
     0
281
     0
  0
CLASS
  1
ACAD_PROXY_OBJECT_WRAPPER
  2
AcDbProxyObjectWrapper
  3
AutoCAD 2000
 90
        0
280
     0
281
     0
  0
CLASS
  1
LONG_TRANSACTION
  2
AcDbLongTransaction
  3
AutoCAD 2000
 90
        0
280
     0
281
     0
  0
CLASS
  1
LWPOLYLINE
  2
AcDbPolyline
  3
AutoCAD 2000
 90
        0
280
     0
281
     1
  0
CLASS
  1
HATCH
  2
AcDbHatch
  3
AutoCAD 2000
 90
        0
280
     0
281
     1
  0
CLASS
  1
XRECORD
  2
AcDbXrecord
  3
AutoCAD 2000
 90
        0
280
     0
281
     0
  0
ENDSEC
  0
SECTION
  2
TABLES
  0
TABLE
  2
VPORT
  5
6E
102
{ACAD_XDICTIONARY
360
1A8C
102
}
330
0
100
AcDbSymbolTable
 70
     2
  0
VPORT
  5
1B4B
330
6E
100
AcDbSymbolTableRecord
100
AcDbViewportTableRecord
  2
*ACTIVE
 70
     0
 10
0.0
 20
0.0
 11
1.0
 21
1.0
 12
471.8004968523211
 22
306.2800435130286
 13
0.0
 23
0.0
 14
10.0
 24
10.0
 15
10.0
 25
10.0
 16
0.0
 26
0.0
 36
1.0
 17
0.0
 27
0.0
 37
0.0
 40
486.820156398757
 41
1.753504672897196
 42
50.0
 43
0.0
 44
0.0
 50
0.0
 51
0.0
 71
     0
 72
   100
 73
     1
 74
     3
 75
     0
 76
     0
 77
     0
 78
     0
  0
ENDTAB
  0
TABLE
  2
LTYPE
  5
69
330
0
100
AcDbSymbolTable
 70
     8
  0
LTYPE
  5
6A
330
69
100
AcDbSymbolTableRecord
100
AcDbLinetypeTableRecord
  2
BYBLOCK
 70
     0
  3

 72
    65
 73
     0
 40
0.0
  0
LTYPE
  5
6B
330
69
100
AcDbSymbolTableRecord
100
AcDbLinetypeTableRecord
  2
BYLAYER
 70
     0
  3

 72
    65
 73
     0
 40
0.0
  0
LTYPE
  5
8
330
69
100
AcDbSymbolTableRecord
100
AcDbLinetypeTableRecord
  2
CONTINUOUS
 70
     0
  3
Solid line
 72
    65
 73
     0
 40
0.0
  0
LTYPE
  5
27C
330
69
100
AcDbSymbolTableRecord
100
AcDbLinetypeTableRecord
  2
SEKKEI_A2_
 70
     0
  3
center(A2)  ____ _ ____ _ ____ _ ____ _ ____ _ 
 72
    65
 73
     4
 40
14.28749999999999
 49
9.525
 74
     0
 49
-1.587499999999999
 74
     0
 49
1.587499999999999
 74
     0
 49
-1.587499999999999
 74
     0
  0
LTYPE
  5
48F
330
69
100
AcDbSymbolTableRecord
100
AcDbLinetypeTableRecord
  2
SEKKEI_H
 70
     0
  3
Hidden-S _ _ _ _ _ _ _ _ _ _ _ _ _ _ _ _ _
 72
    65
 73
     2
 40
2.381249999999999
 49
1.587499999999999
 74
     0
 49
-0.79375
 74
     0
  0
LTYPE
  5
494
330
69
100
AcDbSymbolTableRecord
100
AcDbLinetypeTableRecord
  2
SEKKEI_P_S
 70
     0
  3
Phantom_S   __ _ _ __ _ _ __ _ _ ___
 72
    65
 73
     6
 40
7.5
 49
3.75
 74
     0
 49
-0.75
 74
     0
 49
0.75
 74
     0
 49
-0.75
 74
     0
 49
0.75
 74
     0
 49
-0.75
 74
     0
  0
LTYPE
  5
7EF
330
69
100
AcDbSymbolTableRecord
100
AcDbLinetypeTableRecord
  2
PHANTOM3
 70
     0
  3
Phantom  ___ _ _ ___ _ _ ___ _ _ ___ _ _
 72
    65
 73
     6
 40
9.0
 49
4.0
 74
     0
 49
-1.0
 74
     0
 49
1.0
 74
     0
 49
-1.0
 74
     0
 49
1.0
 74
     0
 49
-1.0
 74
     0
  0
LTYPE
  5
7F0
330
69
100
AcDbSymbolTableRecord
100
AcDbLinetypeTableRecord
  2
HIDDEN3
 70
     0
  3
Hidden (.3x) _ _ _ _ _ _ _ _ _ _ _ _ _ _ _ _ _
 72
    65
 73
     2
 40
2.857499999999999
 49
1.905
 74
     0
 49
-0.9525
 74
     0
  0
LTYPE
  5
AE4
330
69
100
AcDbSymbolTableRecord
100
AcDbLinetypeTableRecord
  2
CENS
 70
     0
  3
(一点鎖線１)---- - ---- - ---- - ---- - ---- - 
 72
    65
 73
     4
 40
7.0
 49
4.0
 74
     0
 49
-1.0
 74
     0
 49
1.0
 74
     0
 49
-1.0
 74
     0
  0
ENDTAB
  0
TABLE
  2
LAYER
  5
66
102
{ACAD_XDICTIONARY
360
AE5
102
}
330
0
100
AcDbSymbolTable
 70
    10
  0
LAYER
  5
5E
102
{ACAD_XDICTIONARY
360
1A6F
102
}
330
66
100
AcDbSymbolTableRecord
100
AcDbLayerTableRecord
  2
0
 70
     0
 62
     7
  6
CONTINUOUS
  0
LAYER
  5
3E
102
{ACAD_XDICTIONARY
360
1A71
102
}
330
66
100
AcDbSymbolTableRecord
100
AcDbLayerTableRecord
  2
CENTER
 70
     0
 62
     3
  6
SEKKEI_A2_
  0
LAYER
  5
2B5
102
{ACAD_XDICTIONARY
360
1A77
102
}
330
66
100
AcDbSymbolTableRecord
100
AcDbLayerTableRecord
  2
HIDS
 70
     0
 62
     1
  6
HIDDEN3
  0
LAYER
  5
2BA
102
{ACAD_XDICTIONARY
360
1A79
102
}
330
66
100
AcDbSymbolTableRecord
100
AcDbLayerTableRecord
  2
HOJO
 70
     0
 62
     4
  6
CONTINUOUS
  0
LAYER
  5
3FA
102
{ACAD_XDICTIONARY
360
1A7D
102
}
330
66
100
AcDbSymbolTableRecord
100
AcDbLayerTableRecord
  2
TITLE
 70
     0
 62
     4
  6
CONTINUOUS
  0
LAYER
  5
478
102
{ACAD_XDICTIONARY
360
1A7F
102
}
330
66
100
AcDbSymbolTableRecord
100
AcDbLayerTableRecord
  2
PHAS
 70
     0
 62
     2
  6
PHANTOM3
  0
ENDTAB
  0
TABLE
  2
STYLE
  5
67
330
0
100
AcDbSymbolTable
 70
     2
  0
STYLE
  5
16
330
67
100
AcDbSymbolTableRecord
100
AcDbTextStyleTableRecord
  2
STANDARD
 70
     0
 40
0.0
 41
1.0
 50
0.0
 71
     0
 42
2.0
  3
simplex.shx
  4
extfont.shx
  0
ENDTAB
  0
TABLE
  2
VIEW
  5
6C
330
0
100
AcDbSymbolTable
 70
     0
  0
ENDTAB
  0
TABLE
  2
UCS
  5
6D
330
0
100
AcDbSymbolTable
 70
     0
  0
ENDTAB
  0
TABLE
  2
APPID
  5
70
330
0
100
AcDbSymbolTable
 70
     3
  0
APPID
  5
71
330
70
100
AcDbSymbolTableRecord
100
AcDbRegAppTableRecord
  2
ACAD
 70
     0
  0
APPID
  5
1733
330
70
100
AcDbSymbolTableRecord
100
AcDbRegAppTableRecord
  2
ACAD_MLEADERVER
 70
     0
  0
APPID
  5
1A66
330
70
100
AcDbSymbolTableRecord
100
AcDbRegAppTableRecord
  2
ACAD_EXEMPT_FROM_CAD_STANDARDS
 70
     0
  0
ENDTAB
  0
TABLE
  2
DIMSTYLE
  5
72
330
0
100
AcDbSymbolTable
 70
     1
  0
DIMSTYLE
105
73
330
72
100
AcDbSymbolTableRecord
100
AcDbDimStyleTableRecord
  2
STANDARD
 70
     0
  3

  4

  5

  6

  7

 40
2.0
 41
1.8
 42
0.625
 43
3.75
 44
0.8
 45
0.0
 46
0.0
 47
0.0
 48
0.0
140
1.8
141
2.5
142
0.0
143
0.0394
144
1.0
145
0.0
146
1.0
147
0.75
 71
     0
 72
     0
 73
     0
 74
     0
 75
     0
 76
     0
 77
     1
 78
     8
170
     0
171
     4
172
     1
173
     0
174
     0
175
     0
176
     0
177
     0
178
     0
270
     8
271
     2
272
     2
273
     8
274
     4
340
16
275
     0
280
     0
281
     0
282
     0
283
     1
284
     0
285
     0
286
     0
287
     3
288
     0
  0
ENDTAB
  0
TABLE
  2
BLOCK_RECORD
  5
1
330
0
100
AcDbSymbolTable
 70
    56
  0
BLOCK_RECORD
  5
2
102
{ACAD_XDICTIONARY
360
1B6D
102
}
330
1
100
AcDbSymbolTableRecord
100
AcDbBlockTableRecord
  2
*MODEL_SPACE
  0
BLOCK_RECORD
  5
1B46
102
{ACAD_XDICTIONARY
360
1B6F
102
}
330
1
100
AcDbSymbolTableRecord
100
AcDbBlockTableRecord
  2
*PAPER_SPACE
  0
ENDTAB
  0
ENDSEC
  0
SECTION
  2
BLOCKS
  0
BLOCK
  5
5D
330
2
100
AcDbEntity
  8
0
100
AcDbBlockBegin
  2
*MODEL_SPACE
 70
     0
 10
0.0
 20
0.0
 30
0.0
  3
*MODEL_SPACE
  1

  0
ENDBLK
  5
5F
330
2
100
AcDbEntity
  8
0
100
AcDbBlockEnd
  0
BLOCK
  5
1B48
330
1B46
100
AcDbEntity
 67
     1
  8
0
100
AcDbBlockBegin
  2
*PAPER_SPACE
 70
     0
 10
0.0
 20
0.0
 30
0.0
  3
*PAPER_SPACE
  1

  0
ENDBLK
  5
1B49
330
1B46
100
AcDbEntity
 67
     1
  8
0
100
AcDbBlockEnd
  0
ENDSEC
  0
SECTION
  2
ENTITIES
  0
TEXT
  5
F30
330
2
100
AcDbEntity
  8
TITLE
100
AcDbText
 10
278.9819268413556
 20
500.4029087340693
 30
0.0
 40
5.0
  1
AFCZ15S-3~5M400S1
100
AcDbText
  0
TEXT
  5
F31
330
2
100
AcDbEntity
  8
TITLE
100
AcDbText
 10
278.9819268413556
 20
491.9029087340693
 30
0.0
 40
5.0
  1
AFCZ15S-3~5L400S1
100
AcDbText
  0
LINE
  5
F33
330
2
100
AcDbEntity
  8
CENTER
100
AcDbLine
 10
431.5085205619205
 20
292.0559155621537
 30
0.0
 11
604.5085205619191
 21
292.0559155621537
 31
0.0
  0
LINE
  5
F34
330
2
100
AcDbEntity
  8
CENTER
100
AcDbLine
 10
482.5085205619187
 20
343.0559155621537
 30
0.0
 11
482.5085205619187
 21
241.0559155621537
 31
0.0
  0
LINE
  5
F35
330
2
100
AcDbEntity
  8
CENTER
100
AcDbLine
 10
520.5795883737712
 20
330.1269833740063
 30
0.0
 11
444.4374527500401
 21
253.9848477502761
 31
0.0
  0
LINE
  5
F36
330
2
100
AcDbEntity
  8
CENTER
100
AcDbLine
 10
444.437452750066
 20
330.1269833740072
 30
0.0
 11
520.5795883737962
 21
253.9848477502754
 31
0.0
  0
LINE
  5
F37
330
2
100
AcDbEntity
  8
CENTER
100
AcDbLine
 10
482.5085205619187
 20
547.7818050389812
 30
0.0
 11
482.5085205619187
 21
427.7818050389807
 31
0.0
  0
LINE
  5
F38
330
2
100
AcDbEntity
  8
0
100
AcDbLine
 10
554.5085205575494
 20
536.7818050389842
 30
0.0
 11
554.5085205575494
 21
464.781805038984
 31
0.0
  0
LINE
  5
F39
330
2
100
AcDbEntity
  8
0
100
AcDbLine
 10
452.5085205619186
 20
457.7818050389838
 30
0.0
 11
512.5085205619186
 21
457.7818050389838
 31
0.0
  0
LINE
  5
F3A
330
2
100
AcDbEntity
  8
0
100
AcDbLine
 10
447.023405761575
 20
462.7818050389838
 30
0.0
 11
517.9868995858685
 21
462.7818050389829
 31
0.0
  0
LINE
  5
F3B
330
2
100
AcDbEntity
  8
0
100
AcDbLine
 10
452.5085205619186
 20
462.7818050389838
 30
0.0
 11
452.5085205619186
 21
457.7818050389838
 31
0.0
  0
LINE
  5
F3C
330
2
100
AcDbEntity
  8
0
100
AcDbLine
 10
512.5085205619186
 20
462.7818050389838
 30
0.0
 11
512.5085205619186
 21
457.7818050389838
 31
0.0
  0
LINE
  5
F3D
330
2
100
AcDbEntity
  8
CENTER
100
AcDbLine
 10
439.6917847855267
 20
500.7818050389841
 30
0.0
 11
604.5085205619186
 21
500.7818050389842
 31
0.0
  0
LINE
  5
F3E
330
2
100
AcDbEntity
  8
0
100
AcDbLine
 10
446.5085205619186
 20
521.7818050392788
 30
0.0
 11
518.1352563383095
 21
521.7818050392772
 31
0.0
  0
LINE
  5
F3F
330
2
100
AcDbEntity
  8
0
100
AcDbLine
 10
532.9575196494422
 20
527.3341589355961
 30
0.0
 11
532.262221792828
 21
500.7818050389841
 31
0.0
  0
LINE
  5
F40
330
2
100
AcDbEntity
  8
0
100
AcDbLine
 10
518.1352563383086
 20
521.781805039278
 30
0.0
 11
518.6352563385169
 21
521.2818050390699
 31
0.0
  0
LINE
  5
F41
330
2
100
AcDbEntity
  8
0
100
AcDbLine
 10
529.8765625722341
 20
521.2818050390706
 30
0.0
 11
518.6352563385169
 21
521.2818050390699
 31
0.0
  0
ARC
  5
F42
330
2
100
AcDbEntity
  8
0
100
AcDbCircle
 10
534.9568342993932
 20
527.2818050389806
 30
0.0
 40
2.0
100
AcDbArc
 50
90.0
 51
178.5000000000005
  0
LINE
  5
F43
330
2
100
AcDbEntity
  8
0
100
AcDbLine
 10
446.5085205619186
 20
521.7818050392788
 30
0.0
 11
447.023405761575
 21
462.7818050389838
 31
0.0
  0
CIRCLE
  5
F44
330
2
100
AcDbEntity
  8
0
100
AcDbCircle
 10
482.5085205619204
 20
292.0559155621548
 30
0.0
 40
19.0
  0
CIRCLE
  5
F45
330
2
100
AcDbEntity
  8
0
100
AcDbCircle
 10
482.5085205619204
 20
292.0559155621548
 30
0.0
 40
24.00000000000017
  0
CIRCLE
  5
F46
330
2
100
AcDbEntity
  8
0
100
AcDbCircle
 10
482.5085205619204
 20
292.0559155621548
 30
0.0
 40
30.0
  0
CIRCLE
  5
F47
330
2
100
AcDbEntity
  8
0
100
AcDbCircle
 10
451.3958221897126
 20
260.9432171899467
 30
0.0
 40
2.1
  0
CIRCLE
  5
F48
330
2
100
AcDbEntity
  8
0
100
AcDbCircle
 10
451.3958221897126
 20
323.1686139343632
 30
0.0
 40
2.1
  0
LINE
  5
F49
330
2
100
AcDbEntity
  8
0
100
AcDbLine
 10
542.5085205619195
 20
326.5559155621533
 30
0.0
 11
542.5085205619195
 21
257.5559155621535
 31
0.0
  0
LINE
  5
F4A
330
2
100
AcDbEntity
  8
0
100
AcDbLine
 10
554.5085205619186
 20
328.5559155621533
 30
0.0
 11
554.5085205619186
 21
255.5559155621535
 31
0.0
  0
CIRCLE
  5
F4B
330
2
100
AcDbEntity
  8
0
100
AcDbCircle
 10
513.6212189341283
 20
260.9432171899467
 30
0.0
 40
2.1
  0
LINE
  5
F4C
330
2
100
AcDbEntity
  8
0
100
AcDbLine
 10
544.5085205619196
 20
256.0559155621535
 30
0.0
 11
554.5085205619195
 21
256.0559155621535
 31
0.0
  0
ARC
  5
F4D
330
2
100
AcDbEntity
  8
0
100
AcDbCircle
 10
544.5085205619196
 20
258.0559155621535
 30
0.0
 40
2.0
100
AcDbArc
 50
180.0
 51
270.0
  0
CIRCLE
  5
F4E
330
2
100
AcDbEntity
  8
0
100
AcDbCircle
 10
513.6212189341283
 20
323.168613934363
 30
0.0
 40
2.1
  0
LINE
  5
F4F
330
2
100
AcDbEntity
  8
0
100
AcDbLine
 10
554.5085205619195
 20
328.0559155621533
 30
0.0
 11
544.5085205619196
 21
328.0559155621533
 31
0.0
  0
ARC
  5
F50
330
2
100
AcDbEntity
  8
0
100
AcDbCircle
 10
544.5085205619196
 20
326.0559155621533
 30
0.0
 40
2.0
100
AcDbArc
 50
90.0
 51
180.0
  0
CIRCLE
  5
F51
330
2
100
AcDbEntity
  8
CENTER
100
AcDbCircle
 10
482.5085205619204
 20
292.0559155621537
 30
0.0
 40
44.0
  0
CIRCLE
  5
F52
330
2
100
AcDbEntity
  8
HOJO
100
AcDbCircle
 10
451.3958221897126
 20
323.168613934362
 30
0.0
 40
2.5
  0
CIRCLE
  5
F53
330
2
100
AcDbEntity
  8
HOJO
100
AcDbCircle
 10
513.6212189341292
 20
323.1686139343639
 30
0.0
 40
2.5
  0
CIRCLE
  5
F54
330
2
100
AcDbEntity
  8
HOJO
100
AcDbCircle
 10
513.6212189341292
 20
260.9432171899476
 30
0.0
 40
2.5
  0
CIRCLE
  5
F55
330
2
100
AcDbEntity
  8
HOJO
100
AcDbCircle
 10
451.3958221897107
 20
260.9432171899472
 30
0.0
 40
2.5
  0
LINE
  5
F56
330
2
100
AcDbEntity
  8
CENTER
100
AcDbLine
 10
457.8958221897125
 20
323.1686139343623
 30
0.0
 11
444.8958221897125
 21
323.1686139343623
 31
0.0
  0
LINE
  5
F57
330
2
100
AcDbEntity
  8
CENTER
100
AcDbLine
 10
451.3958221897126
 20
329.6686139343623
 30
0.0
 11
451.3958221897126
 21
316.6686139343623
 31
0.0
  0
LINE
  5
F58
330
2
100
AcDbEntity
  8
CENTER
100
AcDbLine
 10
457.8958221897125
 20
260.9432171899472
 30
0.0
 11
444.8958221897125
 21
260.9432171899472
 31
0.0
  0
LINE
  5
F59
330
2
100
AcDbEntity
  8
CENTER
100
AcDbLine
 10
451.3958221897126
 20
267.4432171899472
 30
0.0
 11
451.3958221897126
 21
254.4432171899472
 31
0.0
  0
LINE
  5
F5A
330
2
100
AcDbEntity
  8
CENTER
100
AcDbLine
 10
520.1212189341292
 20
260.9432171899479
 30
0.0
 11
507.1212189341292
 21
260.9432171899479
 31
0.0
  0
LINE
  5
F5B
330
2
100
AcDbEntity
  8
CENTER
100
AcDbLine
 10
513.6212189341292
 20
267.4432171899479
 30
0.0
 11
513.6212189341292
 21
254.4432171899479
 31
0.0
  0
LINE
  5
F5C
330
2
100
AcDbEntity
  8
CENTER
100
AcDbLine
 10
520.1212189341275
 20
323.168613934363
 30
0.0
 11
507.1212189341274
 21
323.168613934363
 31
0.0
  0
LINE
  5
F5D
330
2
100
AcDbEntity
  8
CENTER
100
AcDbLine
 10
513.6212189341274
 20
329.668613934363
 30
0.0
 11
513.6212189341274
 21
316.668613934363
 31
0.0
  0
ARC
  5
F5E
330
2
100
AcDbEntity
  8
0
100
AcDbCircle
 10
454.5085205619186
 20
261.0559155621501
 30
0.0
 40
5.0
100
AcDbArc
 50
270.0
 51
283.841824318421
  0
ARC
  5
F5F
330
2
100
AcDbEntity
  8
0
100
AcDbCircle
 10
482.5085205619213
 20
416.0559155621537
 30
0.0
 40
160.0
100
AcDbArc
 50
264.0709145121236
 51
275.9290854878763
  0
ARC
  5
F60
330
2
100
AcDbEntity
  8
0
100
AcDbCircle
 10
462.8820008819372
 20
227.0723191172436
 30
0.0
 40
30.0
100
AcDbArc
 50
84.07091451212361
 51
103.841824318421
  0
ARC
  5
F61
330
2
100
AcDbEntity
  8
0
100
AcDbCircle
 10
502.1350402419
 20
227.0723191172436
 30
0.0
 40
30.0
100
AcDbArc
 50
76.15817568157897
 51
95.92908548787638
  0
LINE
  5
F62
330
2
100
AcDbEntity
  8
0
100
AcDbLine
 10
510.5085205619186
 20
256.0559155621501
 30
0.0
 11
513.5085205619186
 21
256.0559155621501
 31
0.0
  0
ARC
  5
F63
330
2
100
AcDbEntity
  8
0
100
AcDbCircle
 10
510.5085205619186
 20
261.0559155621501
 30
0.0
 40
5.0
100
AcDbArc
 50
256.1581756815789
 51
270.0
  0
ARC
  5
F64
330
2
100
AcDbEntity
  8
0
100
AcDbCircle
 10
513.5085205619186
 20
261.0559155621287
 30
0.0
 40
5.0
100
AcDbArc
 50
270.0
 51
0.0
  0
LINE
  5
F65
330
2
100
AcDbEntity
  8
0
100
AcDbLine
 10
518.5085205619186
 20
323.055915562128
 30
0.0
 11
518.5085205619186
 21
261.0559155621287
 31
0.0
  0
LINE
  5
F66
330
2
100
AcDbEntity
  8
0
100
AcDbLine
 10
454.5085205619186
 20
256.0559155621501
 30
0.0
 11
451.5085205619186
 21
256.0559155621501
 31
0.0
  0
ARC
  5
F67
330
2
100
AcDbEntity
  8
0
100
AcDbCircle
 10
451.5085205619186
 20
261.0559155621287
 30
0.0
 40
5.0
100
AcDbArc
 50
180.0
 51
270.0
  0
LINE
  5
F68
330
2
100
AcDbEntity
  8
0
100
AcDbLine
 10
446.5085205619186
 20
264.0559155621501
 30
0.0
 11
446.5085205619186
 21
261.0559155621287
 31
0.0
  0
ARC
  5
F69
330
2
100
AcDbEntity
  8
0
100
AcDbCircle
 10
451.5085205619186
 20
264.0559155621501
 30
0.0
 40
5.0
100
AcDbArc
 50
166.1581756815797
 51
180.0
  0
ARC
  5
F6A
330
2
100
AcDbEntity
  8
0
100
AcDbCircle
 10
417.524924117012
 20
272.4293958821685
 30
0.0
 40
30.0
100
AcDbArc
 50
346.1581756815797
 51
5.929085487860029
  0
ARC
  5
F6B
330
2
100
AcDbEntity
  8
0
100
AcDbCircle
 10
606.5085205619186
 20
292.0559155621503
 30
0.0
 40
160.0
100
AcDbArc
 50
174.0709145121399
 51
185.92908548786
  0
LINE
  5
F6C
330
2
100
AcDbEntity
  8
0
100
AcDbLine
 10
446.5085205619186
 20
320.0559155621505
 30
0.0
 11
446.5085205619186
 21
323.0559155621287
 31
0.0
  0
ARC
  5
F6D
330
2
100
AcDbEntity
  8
0
100
AcDbCircle
 10
417.524924117012
 20
311.6824352421321
 30
0.0
 40
30.0
100
AcDbArc
 50
354.0709145121399
 51
13.84182431842024
  0
ARC
  5
F6E
330
2
100
AcDbEntity
  8
0
100
AcDbCircle
 10
451.5085205619186
 20
320.0559155621505
 30
0.0
 40
5.0
100
AcDbArc
 50
180.0
 51
193.8418243184202
  0
ARC
  5
F6F
330
2
100
AcDbEntity
  8
0
100
AcDbCircle
 10
451.5085205619186
 20
323.0559155621287
 30
0.0
 40
5.0
100
AcDbArc
 50
90.0
 51
180.0
  0
ARC
  5
F70
330
2
100
AcDbEntity
  8
0
100
AcDbCircle
 10
454.5085205619186
 20
323.0559155621503
 30
0.0
 40
5.0
100
AcDbArc
 50
76.15817568157897
 51
90.0
  0
LINE
  5
F71
330
2
100
AcDbEntity
  8
0
100
AcDbLine
 10
454.5085205619186
 20
328.0559155621503
 30
0.0
 11
451.5085205619186
 21
328.0559155621503
 31
0.0
  0
ARC
  5
F72
330
2
100
AcDbEntity
  8
0
100
AcDbCircle
 10
462.8820008819372
 20
357.0395120070567
 30
0.0
 40
30.0
100
AcDbArc
 50
256.1581756815789
 51
275.9290854878763
  0
ARC
  5
F73
330
2
100
AcDbEntity
  8
0
100
AcDbCircle
 10
482.5085205619223
 20
168.0559155621537
 30
0.0
 40
160.0
100
AcDbArc
 50
84.07091451212361
 51
95.92908548787638
  0
ARC
  5
F74
330
2
100
AcDbEntity
  8
0
100
AcDbCircle
 10
502.1350402419
 20
357.0395120070567
 30
0.0
 40
30.0
100
AcDbArc
 50
264.0709145121236
 51
283.841824318421
  0
LINE
  5
F75
330
2
100
AcDbEntity
  8
0
100
AcDbLine
 10
510.5085205619186
 20
328.0559155621503
 30
0.0
 11
513.5085205619186
 21
328.0559155621503
 31
0.0
  0
ARC
  5
F76
330
2
100
AcDbEntity
  8
0
100
AcDbCircle
 10
510.5085205619186
 20
323.0559155621503
 30
0.0
 40
5.0
100
AcDbArc
 50
90.0
 51
103.841824318421
  0
ARC
  5
F77
330
2
100
AcDbEntity
  8
0
100
AcDbCircle
 10
513.5085205619186
 20
323.055915562128
 30
0.0
 40
5.0
100
AcDbArc
 50
0.0
 51
90.0
  0
ARC
  5
F78
330
2
100
AcDbEntity
  8
0
100
AcDbCircle
 10
521.5085205619223
 20
266.5559155621537
 30
0.0
 40
3.0
100
AcDbArc
 50
90.0
 51
180.0
  0
ARC
  5
F79
330
2
100
AcDbEntity
  8
0
100
AcDbCircle
 10
535.0085205619231
 20
265.5559155621574
 30
0.0
 40
2.0
100
AcDbArc
 50
180.0000000000065
 51
270.0
  0
LINE
  5
F7A
330
2
100
AcDbEntity
  8
0
100
AcDbLine
 10
521.5085205619223
 20
269.5559155621537
 30
0.0
 11
530.0085205619295
 21
269.5559155621537
 31
0.0
  0
ARC
  5
F7B
330
2
100
AcDbEntity
  8
0
100
AcDbCircle
 10
530.0085205619295
 20
266.5559155621537
 30
0.0
 40
3.0
100
AcDbArc
 50
0.0000000000065138
 51
90.0
  0
ARC
  5
F7C
330
2
100
AcDbEntity
  8
0
100
AcDbCircle
 10
521.5085205619223
 20
317.5559155621537
 30
0.0
 40
3.0
100
AcDbArc
 50
180.0
 51
270.0
  0
LINE
  5
F7D
330
2
100
AcDbEntity
  8
0
100
AcDbLine
 10
521.5085205619223
 20
314.5559155621537
 30
0.0
 11
530.008520561924
 21
314.5559155621537
 31
0.0
  0
ARC
  5
F7E
330
2
100
AcDbEntity
  8
0
100
AcDbCircle
 10
535.0085205619231
 20
318.5559155621501
 30
0.0
 40
2.0
100
AcDbArc
 50
90.0
 51
180.0000000000065
  0
ARC
  5
F7F
330
2
100
AcDbEntity
  8
0
100
AcDbCircle
 10
530.008520561924
 20
317.5559155621537
 30
0.0
 40
3.0
100
AcDbArc
 50
270.0
 51
0.0
  0
LINE
  5
F80
330
2
100
AcDbEntity
  8
0
100
AcDbLine
 10
533.0085205619296
 20
265.5559155621571
 30
0.0
 11
533.0085205619232
 21
318.5559155621496
 31
0.0
  0
LINE
  5
F81
330
2
100
AcDbEntity
  8
0
100
AcDbLine
 10
539.5085205619186
 20
320.5559155621501
 30
0.0
 11
535.0085205619231
 21
320.5559155621501
 31
0.0
  0
LINE
  5
F82
330
2
100
AcDbEntity
  8
0
100
AcDbLine
 10
539.5085205619186
 20
263.5559155621574
 30
0.0
 11
535.0085205619231
 21
263.5559155621574
 31
0.0
  0
ARC
  5
F83
330
2
100
AcDbEntity
  8
0
100
AcDbCircle
 10
539.5085205619186
 20
260.5559155621573
 30
0.0
 40
3.0
100
AcDbArc
 50
0.0
 51
90.0
  0
ARC
  5
F84
330
2
100
AcDbEntity
  8
0
100
AcDbCircle
 10
539.5085205619186
 20
323.5559155621501
 30
0.0
 40
3.0
100
AcDbArc
 50
270.0
 51
0.0
  0
LINE
  5
F85
330
2
100
AcDbEntity
  8
0
100
AcDbLine
 10
521.5085205619186
 20
294.5559155621537
 30
0.0
 11
530.0085205619259
 21
294.5559155621537
 31
0.0
  0
ARC
  5
F86
330
2
100
AcDbEntity
  8
0
100
AcDbCircle
 10
534.9568342993932
 20
474.2818050389877
 30
0.0
 40
2.0
100
AcDbArc
 50
181.4999999999994
 51
270.0
  0
LINE
  5
F87
330
2
100
AcDbEntity
  8
0
100
AcDbLine
 10
532.9575196494422
 20
474.2294511423721
 30
0.0
 11
532.262221792828
 21
500.7818050389841
 31
0.0
  0
ARC
  5
F88
330
2
100
AcDbEntity
  8
0
100
AcDbCircle
 10
529.928934415371
 20
475.2818050389838
 30
0.0
 40
3.0
100
AcDbArc
 50
1.49999999999946
 51
90.0
  0
LINE
  5
F89
330
2
100
AcDbEntity
  8
0
100
AcDbLine
 10
521.09609966841
 20
478.2818050389838
 30
0.0
 11
529.928934415371
 21
478.2818050389838
 31
0.0
  0
LINE
  5
F8A
330
2
100
AcDbEntity
  8
0
100
AcDbLine
 10
521.2706370242247
 20
503.2818050389841
 30
0.0
 11
529.4052159839854
 21
503.2818050389841
 31
0.0
  0
ARC
  5
F8B
330
2
100
AcDbEntity
  8
0
100
AcDbCircle
 10
521.2706370242247
 20
506.281805038984
 30
0.0
 40
3.0
100
AcDbArc
 50
180.4999999999981
 51
270.0
  0
ARC
  5
F8C
330
2
100
AcDbEntity
  8
0
100
AcDbCircle
 10
529.8765625722333
 20
524.2818050390706
 30
0.0
 40
3.0
100
AcDbArc
 50
270.0
 51
358.4999999999972
  0
ARC
  5
F8D
330
2
100
AcDbEntity
  8
0
100
AcDbCircle
 10
530.0085205619259
 20
297.5559155621537
 30
0.0
 40
3.0
100
AcDbArc
 50
270.0
 51
0.0000000000065138
  0
ARC
  5
F8E
330
2
100
AcDbEntity
  8
0
100
AcDbCircle
 10
521.5085205619186
 20
297.5559155621537
 30
0.0
 40
3.0
100
AcDbArc
 50
180.0
 51
270.0
  0
ARC
  5
F8F
330
2
100
AcDbEntity
  8
0
100
AcDbCircle
 10
521.5085205619186
 20
286.5559155621533
 30
0.0
 40
3.0
100
AcDbArc
 50
90.0
 51
180.0
  0
LINE
  5
F90
330
2
100
AcDbEntity
  8
0
100
AcDbLine
 10
521.5085205619186
 20
289.5559155621532
 30
0.0
 11
530.0085205619259
 21
289.5559155621535
 31
0.0
  0
ARC
  5
F91
330
2
100
AcDbEntity
  8
0
100
AcDbCircle
 10
530.0085205619259
 20
286.5559155621535
 30
0.0
 40
3.0
100
AcDbArc
 50
359.9999999999934
 51
90.0
  0
LINE
  5
F92
330
2
100
AcDbEntity
  8
0
100
AcDbLine
 10
532.0085205619232
 20
264.5559155621578
 30
0.0
 11
521.5085205619186
 21
264.555915562158
 31
0.0
  0
ARC
  5
F93
330
2
100
AcDbEntity
  8
0
100
AcDbCircle
 10
532.0085205619232
 20
261.5559155621578
 30
0.0
 40
3.0
100
AcDbArc
 50
53.13010235413171
 51
90.0
  0
ARC
  5
F94
330
2
100
AcDbEntity
  8
0
100
AcDbCircle
 10
521.5085205619186
 20
261.555915562158
 30
0.0
 40
3.0
100
AcDbArc
 50
90.0
 51
180.0
  0
ARC
  5
F95
330
2
100
AcDbEntity
  8
0
100
AcDbCircle
 10
521.5085205619186
 20
322.5559155621494
 30
0.0
 40
3.0
100
AcDbArc
 50
180.0
 51
270.0
  0
LINE
  5
F96
330
2
100
AcDbEntity
  8
0
100
AcDbLine
 10
532.0085205619232
 20
319.5559155621496
 30
0.0
 11
521.5085205619186
 21
319.5559155621494
 31
0.0
  0
ARC
  5
F97
330
2
100
AcDbEntity
  8
0
100
AcDbCircle
 10
532.0085205619232
 20
322.5559155621496
 30
0.0
 40
3.0
100
AcDbArc
 50
270.0
 51
306.869897645868
  0
ARC
  5
F98
330
2
100
AcDbEntity
  8
0
100
AcDbCircle
 10
529.4052159839854
 20
506.281805038984
 30
0.0
 40
3.0
100
AcDbArc
 50
270.0
 51
358.4999999999972
  0
LINE
  5
F99
330
2
100
AcDbEntity
  8
0
100
AcDbLine
 10
521.2773728006184
 20
498.2818050389838
 30
0.0
 11
529.4052159839854
 21
498.281805038984
 31
0.0
  0
ARC
  5
F9A
330
2
100
AcDbEntity
  8
0
100
AcDbCircle
 10
529.4052159839854
 20
495.2818050389841
 30
0.0
 40
3.0
100
AcDbArc
 50
1.500000000002716
 51
90.0
  0
LINE
  5
F9B
330
2
100
AcDbEntity
  8
0
100
AcDbLine
 10
521.0524653294562
 20
473.2818050389838
 30
0.0
 11
531.9568342993977
 21
473.281805038984
 31
0.0
  0
ARC
  5
F9C
330
2
100
AcDbEntity
  8
0
100
AcDbCircle
 10
531.9568342993977
 20
470.2818050389841
 30
0.0
 40
3.0
100
AcDbArc
 50
53.13010235425841
 51
90.0
  0
LINE
  5
F9D
330
2
100
AcDbEntity
  8
0
100
AcDbLine
 10
460.4398981115307
 20
444.7818050389844
 30
0.0
 11
504.5771430123029
 21
444.7818050389841
 31
0.0
  0
LINE
  5
F9E
330
2
100
AcDbEntity
  8
0
100
AcDbLine
 10
458.1219546629479
 20
455.851604032389
 30
0.0
 11
458.4411164574929
 21
446.7120060455792
 31
0.0
  0
LINE
  5
F9F
330
2
100
AcDbEntity
  8
0
100
AcDbLine
 10
506.8950864608857
 20
455.851604032389
 30
0.0
 11
506.5759246663408
 21
446.7120060455792
 31
0.0
  0
ARC
  5
FA0
330
2
100
AcDbEntity
  8
0
100
AcDbCircle
 10
460.4398981115307
 20
446.7818050389841
 30
0.0
 40
2.0
100
AcDbArc
 50
181.9999999999971
 51
270.0
  0
ARC
  5
FA1
330
2
100
AcDbEntity
  8
0
100
AcDbCircle
 10
504.5771430123029
 20
446.7818050389841
 30
0.0
 40
2.0
100
AcDbArc
 50
270.0
 51
357.9999999999963
  0
ARC
  5
FA2
330
2
100
AcDbEntity
  8
0
100
AcDbCircle
 10
508.8938681149236
 20
455.781805038984
 30
0.0
 40
2.0
100
AcDbArc
 50
90.0
 51
177.9999999999963
  0
ARC
  5
FA3
330
2
100
AcDbEntity
  8
0
100
AcDbCircle
 10
456.12317300891
 20
455.781805038984
 30
0.0
 40
2.0
100
AcDbArc
 50
1.99999999999713
 51
90.0
  0
LINE
  5
FA4
330
2
100
AcDbEntity
  8
0
100
AcDbLine
 10
510.5216135226944
 20
521.7818050392772
 30
0.0
 11
511.0460174216012
 21
501.7556280906761
 31
0.0
  0
ARC
  5
FA5
330
2
100
AcDbEntity
  8
0
100
AcDbCircle
 10
512.0456747465766
 20
501.781805038984
 30
0.0
 40
1.0
100
AcDbArc
 50
181.5000000000027
 51
270.0
  0
LINE
  5
FA6
330
2
100
AcDbEntity
  8
0
100
AcDbLine
 10
454.5085205619186
 20
521.281805038984
 30
0.0
 11
454.5085205619186
 21
464.2817669620482
 31
0.0
  0
LINE
  5
FA7
330
2
100
AcDbEntity
  8
0
100
AcDbLine
 10
451.5085205619186
 20
521.281805038984
 30
0.0
 11
451.5085205619186
 21
464.2817669620482
 31
0.0
  0
LINE
  5
FA8
330
2
100
AcDbEntity
  8
0
100
AcDbLine
 10
510.5085205619186
 20
500.7818050389841
 30
0.0
 11
510.5085205619186
 21
464.2817669620482
 31
0.0
  0
LINE
  5
FA9
330
2
100
AcDbEntity
  8
0
100
AcDbLine
 10
513.5085205619168
 20
500.7818050389841
 30
0.0
 11
513.5085205619186
 21
464.2817669620482
 31
0.0
  0
LINE
  5
FAA
330
2
100
AcDbEntity
  8
0
100
AcDbLine
 10
465.9809250419336
 20
521.281805038984
 30
0.0
 11
465.9809250419336
 21
464.2817669620482
 31
0.0
  0
LINE
  5
FAB
330
2
100
AcDbEntity
  8
0
100
AcDbLine
 10
499.0361160819018
 20
521.281805038984
 30
0.0
 11
499.0361160819018
 21
464.2817669620482
 31
0.0
  0
LINE
  5
FAC
330
2
100
AcDbEntity
  8
0
100
AcDbLine
 10
541.5658273854067
 20
500.7818050389841
 30
0.0
 11
554.5085205575494
 21
500.7818050389841
 31
0.0
  0
LINE
  5
FAD
330
2
100
AcDbEntity
  8
0
100
AcDbLine
 10
544.4568343037615
 20
536.7818050389842
 30
0.0
 11
554.5085205575494
 21
536.7818050389842
 31
0.0
  0
LINE
  5
FAE
330
2
100
AcDbEntity
  8
0
100
AcDbLine
 10
544.4568343037615
 20
464.781805038984
 30
0.0
 11
554.5085205575494
 21
464.781805038984
 31
0.0
  0
LINE
  5
FAF
330
2
100
AcDbEntity
  8
0
100
AcDbLine
 10
534.9568343037615
 20
529.2818050389842
 30
0.0
 11
539.3896555373837
 21
529.2818050389842
 31
0.0
  0
ARC
  5
FB0
330
2
100
AcDbEntity
  8
0
100
AcDbCircle
 10
539.3896555373837
 20
532.2818050389842
 30
0.0
 40
3.0
100
AcDbArc
 50
270.0
 51
358.4999999999972
  0
ARC
  5
FB1
330
2
100
AcDbEntity
  8
0
100
AcDbCircle
 10
544.4568343037615
 20
534.7818050389841
 30
0.0
 40
2.0
100
AcDbArc
 50
90.0
 51
178.4999999999842
  0
LINE
  5
FB2
330
2
100
AcDbEntity
  8
0
100
AcDbLine
 10
542.4575196538105
 20
534.8341589356011
 30
0.0
 11
541.5658273854067
 21
500.7818050389841
 31
0.0
  0
LINE
  5
FB3
330
2
100
AcDbEntity
  8
0
100
AcDbLine
 10
534.9568343037615
 20
472.281805038984
 30
0.0
 11
539.3896555373837
 21
472.281805038984
 31
0.0
  0
ARC
  5
FB4
330
2
100
AcDbEntity
  8
0
100
AcDbCircle
 10
539.3896555373837
 20
469.281805038984
 30
0.0
 40
3.0
100
AcDbArc
 50
1.500000000002716
 51
90.0
  0
ARC
  5
FB5
330
2
100
AcDbEntity
  8
0
100
AcDbCircle
 10
544.4568343037615
 20
466.7818050389841
 30
0.0
 40
2.0
100
AcDbArc
 50
181.5000000000157
 51
270.0
  0
LINE
  5
FB6
330
2
100
AcDbEntity
  8
0
100
AcDbLine
 10
542.4575196538105
 20
466.7294511423671
 30
0.0
 11
541.5658273854067
 21
500.7818050389841
 31
0.0
  0
LINE
  5
FB7
330
2
100
AcDbEntity
  8
0
100
AcDbLine
 10
480.2767172011324
 20
263.0559155621451
 30
0.0
 11
481.176717589047
 21
263.0559155621451
 31
0.0
  0
LINE
  5
FB8
330
2
100
AcDbEntity
  8
0
100
AcDbLine
 10
481.5267172011315
 20
265.5559155621428
 30
0.0
 11
480.2767172011324
 21
263.0559155621451
 31
0.0
  0
ARC
  5
FB9
330
2
100
AcDbEntity
  8
0
100
AcDbCircle
 10
483.6016944636291
 20
264.7059155621436
 30
0.0
 40
0.8499999999992269
100
AcDbArc
 50
307.518967866804
 51
90.0
  0
LINE
  5
FBA
330
2
100
AcDbEntity
  8
0
100
AcDbLine
 10
484.1193648947726
 20
264.0317365616405
 30
0.0
 11
484.7403239197253
 21
263.0559155621451
 31
0.0
  0
LINE
  5
FBB
330
2
100
AcDbEntity
  8
0
100
AcDbLine
 10
483.8403235318117
 20
263.0559155621451
 30
0.0
 11
484.7403239197253
 21
263.0559155621451
 31
0.0
  0
LINE
  5
FBC
330
2
100
AcDbEntity
  8
0
100
AcDbLine
 10
482.001717201131
 20
263.0559155621451
 30
0.0
 11
482.7516944636307
 21
263.0559155621451
 31
0.0
  0
LINE
  5
FBD
330
2
100
AcDbEntity
  8
0
100
AcDbLine
 10
481.364217589047
 20
263.4309155621446
 30
0.0
 11
481.176717589047
 21
263.0559155621451
 31
0.0
  0
LINE
  5
FBE
330
2
100
AcDbEntity
  8
0
100
AcDbLine
 10
481.364217589047
 20
263.4309155621446
 30
0.0
 11
482.001717201131
 21
263.4309155621446
 31
0.0
  0
LINE
  5
FBF
330
2
100
AcDbEntity
  8
0
100
AcDbLine
 10
482.001717201131
 20
263.4309155621446
 30
0.0
 11
482.001717201131
 21
263.0559155621451
 31
0.0
  0
LINE
  5
FC0
330
2
100
AcDbEntity
  8
0
100
AcDbLine
 10
481.7642175890466
 20
264.2309155621439
 30
0.0
 11
482.001717201131
 21
264.2309155621439
 31
0.0
  0
LINE
  5
FC1
330
2
100
AcDbEntity
  8
0
100
AcDbLine
 10
482.001717201131
 20
264.7059147863135
 30
0.0
 11
482.001717201131
 21
264.2309155621439
 31
0.0
  0
LINE
  5
FC2
330
2
100
AcDbEntity
  8
0
100
AcDbLine
 10
482.001717201131
 20
264.7059147863135
 30
0.0
 11
481.7642175890466
 21
264.2309155621439
 31
0.0
  0
LINE
  5
FC3
330
2
100
AcDbEntity
  8
0
100
AcDbLine
 10
482.8579672011299
 20
264.5996655621437
 30
0.0
 11
483.8403235318117
 21
263.0559155621451
 31
0.0
  0
LINE
  5
FC4
330
2
100
AcDbEntity
  8
0
100
AcDbLine
 10
482.7516944636307
 20
264.7059155621436
 30
0.0
 11
482.7516944636307
 21
263.0559155621451
 31
0.0
  0
LINE
  5
FC5
330
2
100
AcDbEntity
  8
0
100
AcDbLine
 10
482.7516944636307
 20
264.7059155621436
 30
0.0
 11
483.5485922011291
 21
264.7059155621436
 31
0.0
  0
LINE
  5
FC6
330
2
100
AcDbEntity
  8
0
100
AcDbLine
 10
482.8579672011299
 20
264.5996655621437
 30
0.0
 11
483.5485922011291
 21
264.5996655621437
 31
0.0
  0
ARC
  5
FC7
330
2
100
AcDbEntity
  8
0
100
AcDbCircle
 10
483.5485922011291
 20
264.6527905621437
 30
0.0
 40
0.0531249999999517
100
AcDbArc
 50
270.0
 51
90.0
  0
LINE
  5
FC8
330
2
100
AcDbEntity
  8
0
100
AcDbLine
 10
481.5267172011315
 20
265.5559155621428
 30
0.0
 11
483.6016944636291
 21
265.5559155621428
 31
0.0
  0
LINE
  5
FC9
330
2
100
AcDbEntity
  8
0
100
AcDbLine
 10
554.5085205619195
 20
328.5559155621533
 30
0.0
 11
544.5085205619196
 21
328.5559155621533
 31
0.0
  0
ARC
  5
FCA
330
2
100
AcDbEntity
  8
0
100
AcDbCircle
 10
544.5085205619196
 20
326.5559155621533
 30
0.0
 40
2.0
100
AcDbArc
 50
90.0
 51
180.0
  0
LINE
  5
FCB
330
2
100
AcDbEntity
  8
0
100
AcDbLine
 10
544.5085205619196
 20
255.5559155621535
 30
0.0
 11
554.5085205619195
 21
255.5559155621535
 31
0.0
  0
ARC
  5
FCC
330
2
100
AcDbEntity
  8
0
100
AcDbCircle
 10
544.5085205619196
 20
257.5559155621535
 30
0.0
 40
2.0
100
AcDbArc
 50
180.0
 51
270.0
  0
LINE
  5
FCD
330
2
100
AcDbEntity
  8
CENTER
100
AcDbLine
 10
183.743913164232
 20
249.055915562153
 30
0.0
 11
183.743913164232
 21
335.055915562153
 31
0.0
  0
LINE
  5
FCE
330
2
100
AcDbEntity
  8
CENTER
100
AcDbLine
 10
226.743913164232
 20
292.0559155621537
 30
0.0
 11
61.74391316423566
 21
292.0559155621535
 31
0.0
  0
ARC
  5
FCF
330
2
100
AcDbEntity
  8
0
100
AcDbCircle
 10
121.7439131642356
 20
326.0559155621537
 30
0.0
 40
2.0
100
AcDbArc
 50
0.0
 51
90.0
  0
LINE
  5
FD0
330
2
100
AcDbEntity
  8
0
100
AcDbLine
 10
111.7439131642356
 20
255.5559155621537
 30
0.0
 11
111.7439131642356
 21
328.5559155621537
 31
0.0
  0
LINE
  5
FD1
330
2
100
AcDbEntity
  8
0
100
AcDbLine
 10
121.7439131642356
 20
328.0559155621537
 30
0.0
 11
111.7439131642356
 21
328.0559155621537
 31
0.0
  0
LINE
  5
FD2
330
2
100
AcDbEntity
  8
0
100
AcDbLine
 10
123.7439131642356
 20
257.5559155621537
 30
0.0
 11
123.7439131642374
 21
326.5559155621537
 31
0.0
  0
LINE
  5
FD3
330
2
100
AcDbEntity
  8
0
100
AcDbLine
 10
133.2439131642247
 20
318.5559155621503
 30
0.0
 11
133.2439131642311
 21
265.5559155621578
 31
0.0
  0
LINE
  5
FD4
330
2
100
AcDbEntity
  8
0
100
AcDbLine
 10
126.7439131642356
 20
320.5559155621501
 30
0.0
 11
131.2439131642311
 21
320.5559155621501
 31
0.0
  0
ARC
  5
FD5
330
2
100
AcDbEntity
  8
0
100
AcDbCircle
 10
121.7439131642356
 20
258.0559155621537
 30
0.0
 40
2.0
100
AcDbArc
 50
270.0
 51
0.0
  0
LINE
  5
FD6
330
2
100
AcDbEntity
  8
0
100
AcDbLine
 10
126.7439131642356
 20
263.5559155621574
 30
0.0
 11
131.2439131642311
 21
263.5559155621576
 31
0.0
  0
LINE
  5
FD7
330
2
100
AcDbEntity
  8
0
100
AcDbLine
 10
111.7439131642356
 20
256.0559155621537
 30
0.0
 11
121.7439131642356
 21
256.0559155621537
 31
0.0
  0
ARC
  5
FD8
330
2
100
AcDbEntity
  8
0
100
AcDbCircle
 10
59.74391316423202
 20
292.0559155621567
 30
0.0
 40
160.0
100
AcDbArc
 50
354.0709145121399
 51
5.929085487860029
  0
LINE
  5
FD9
330
2
100
AcDbEntity
  8
0
100
AcDbLine
 10
219.743913164232
 20
264.0559155621565
 30
0.0
 11
219.743913164232
 21
261.0559155621781
 31
0.0
  0
ARC
  5
FDA
330
2
100
AcDbEntity
  8
0
100
AcDbCircle
 10
248.7275096091386
 20
272.4293958821746
 30
0.0
 40
30.0
100
AcDbArc
 50
174.0709145121399
 51
193.8418243184202
  0
ARC
  5
FDB
330
2
100
AcDbEntity
  8
0
100
AcDbCircle
 10
214.743913164232
 20
264.0559155621565
 30
0.0
 40
5.0
100
AcDbArc
 50
0.0
 51
13.84182431842024
  0
LINE
  5
FDC
330
2
100
AcDbEntity
  8
0
100
AcDbLine
 10
211.743913164232
 20
256.0559155621564
 30
0.0
 11
214.743913164232
 21
256.0559155621564
 31
0.0
  0
ARC
  5
FDD
330
2
100
AcDbEntity
  8
0
100
AcDbCircle
 10
211.743913164232
 20
261.0559155621564
 30
0.0
 40
5.0
100
AcDbArc
 50
256.1581756815789
 51
270.0
  0
ARC
  5
FDE
330
2
100
AcDbEntity
  8
0
100
AcDbCircle
 10
203.3704328442142
 20
227.07231911725
 30
0.0
 40
30.0
100
AcDbArc
 50
76.15817568157897
 51
95.92908548787638
  0
ARC
  5
FDF
330
2
100
AcDbEntity
  8
0
100
AcDbCircle
 10
164.1173934842506
 20
227.07231911725
 30
0.0
 40
30.0
100
AcDbArc
 50
84.07091451212361
 51
103.841824318421
  0
LINE
  5
FE0
330
2
100
AcDbEntity
  8
0
100
AcDbLine
 10
155.743913164232
 20
256.0559155621564
 30
0.0
 11
152.743913164232
 21
256.0559155621564
 31
0.0
  0
ARC
  5
FE1
330
2
100
AcDbEntity
  8
0
100
AcDbCircle
 10
155.743913164232
 20
261.0559155621564
 30
0.0
 40
5.0
100
AcDbArc
 50
270.0
 51
283.841824318421
  0
ARC
  5
FE2
330
2
100
AcDbEntity
  8
0
100
AcDbCircle
 10
164.1173934842506
 20
357.0395120070631
 30
0.0
 40
30.0
100
AcDbArc
 50
256.1581756815789
 51
275.9290854878763
  0
LINE
  5
FE3
330
2
100
AcDbEntity
  8
0
100
AcDbLine
 10
155.743913164232
 20
328.0559155621567
 30
0.0
 11
152.743913164232
 21
328.0559155621567
 31
0.0
  0
ARC
  5
FE4
330
2
100
AcDbEntity
  8
0
100
AcDbCircle
 10
155.743913164232
 20
323.0559155621567
 30
0.0
 40
5.0
100
AcDbArc
 50
76.15817568157897
 51
90.0
  0
LINE
  5
FE5
330
2
100
AcDbEntity
  8
0
100
AcDbLine
 10
211.743913164232
 20
328.0559155621567
 30
0.0
 11
214.743913164232
 21
328.0559155621567
 31
0.0
  0
ARC
  5
FE6
330
2
100
AcDbEntity
  8
0
100
AcDbCircle
 10
203.3704328442142
 20
357.0395120070631
 30
0.0
 40
30.0
100
AcDbArc
 50
264.0709145121236
 51
283.841824318421
  0
ARC
  5
FE7
330
2
100
AcDbEntity
  8
0
100
AcDbCircle
 10
211.743913164232
 20
323.0559155621567
 30
0.0
 40
5.0
100
AcDbArc
 50
90.0
 51
103.841824318421
  0
LINE
  5
FE8
330
2
100
AcDbEntity
  8
0
100
AcDbLine
 10
219.743913164232
 20
320.0559155621569
 30
0.0
 11
219.743913164232
 21
323.055915562178
 31
0.0
  0
ARC
  5
FE9
330
2
100
AcDbEntity
  8
0
100
AcDbCircle
 10
248.7275096091386
 20
311.6824352421383
 30
0.0
 40
30.0
100
AcDbArc
 50
166.1581756815797
 51
185.92908548786
  0
ARC
  5
FEA
330
2
100
AcDbEntity
  8
0
100
AcDbCircle
 10
214.743913164232
 20
320.0559155621569
 30
0.0
 40
5.0
100
AcDbArc
 50
346.1581756815797
 51
0.0
  0
ARC
  5
FEB
330
2
100
AcDbEntity
  8
0
100
AcDbCircle
 10
183.7439131642284
 20
416.055915562153
 30
0.0
 40
160.0
100
AcDbArc
 50
264.0709145121236
 51
275.9290854878763
  0
ARC
  5
FEC
330
2
100
AcDbEntity
  8
0
100
AcDbCircle
 10
183.7439131642293
 20
168.055915562153
 30
0.0
 40
160.0
100
AcDbArc
 50
84.07091451212361
 51
95.92908548787638
  0
ARC
  5
FED
330
2
100
AcDbEntity
  8
0
100
AcDbCircle
 10
214.743913164232
 20
261.0559155621781
 30
0.0
 40
5.0
100
AcDbArc
 50
270.0
 51
0.0
  0
ARC
  5
FEE
330
2
100
AcDbEntity
  8
0
100
AcDbCircle
 10
152.743913164232
 20
261.0559155621787
 30
0.0
 40
5.0
100
AcDbArc
 50
180.0
 51
270.0
  0
ARC
  5
FEF
330
2
100
AcDbEntity
  8
0
100
AcDbCircle
 10
152.743913164232
 20
323.0559155621783
 30
0.0
 40
5.0
100
AcDbArc
 50
90.0
 51
180.0
  0
ARC
  5
FF0
330
2
100
AcDbEntity
  8
0
100
AcDbCircle
 10
214.743913164232
 20
323.055915562178
 30
0.0
 40
5.0
100
AcDbArc
 50
0.0
 51
90.0
  0
LINE
  5
FF1
330
2
100
AcDbEntity
  8
0
100
AcDbLine
 10
147.743913164232
 20
261.0559155621787
 30
0.0
 11
147.7439131642247
 21
323.0559155621776
 31
0.0
  0
LINE
  5
FF2
330
2
100
AcDbEntity
  8
0
100
AcDbLine
 10
144.743913164232
 20
269.5559155621537
 30
0.0
 11
136.2439131642311
 21
269.5559155621537
 31
0.0
  0
LINE
  5
FF3
330
2
100
AcDbEntity
  8
0
100
AcDbLine
 10
144.743913164232
 20
314.5559155621537
 30
0.0
 11
136.2439131642247
 21
314.5559155621537
 31
0.0
  0
ARC
  5
FF4
330
2
100
AcDbEntity
  8
0
100
AcDbCircle
 10
144.743913164232
 20
266.5559155621537
 30
0.0
 40
3.0
100
AcDbArc
 50
0.0
 51
90.0
  0
LINE
  5
FF5
330
2
100
AcDbEntity
  8
0
100
AcDbLine
 10
133.2439131642311
 20
282.7822970666581
 30
0.0
 11
147.743913164232
 21
282.7822970666581
 31
0.0
  0
LINE
  5
FF6
330
2
100
AcDbEntity
  8
0
100
AcDbLine
 10
133.2439131642302
 20
301.3295340576491
 30
0.0
 11
147.743913164232
 21
301.3295340576498
 31
0.0
  0
LINE
  5
FF7
330
2
100
AcDbEntity
  8
0
100
AcDbLine
 10
147.243913164232
 20
282.7822970666581
 30
0.0
 11
147.243913164232
 21
301.3295340576498
 31
0.0
  0
ARC
  5
FF8
330
2
100
AcDbEntity
  8
0
100
AcDbCircle
 10
131.2439131642311
 20
265.5559155621576
 30
0.0
 40
2.0
100
AcDbArc
 50
270.0
 51
0.0000000000065138
  0
ARC
  5
FF9
330
2
100
AcDbEntity
  8
0
100
AcDbCircle
 10
131.2439131642311
 20
318.5559155621501
 30
0.0
 40
2.0
100
AcDbArc
 50
0.0
 51
90.0
  0
ARC
  5
FFA
330
2
100
AcDbEntity
  8
0
100
AcDbCircle
 10
136.2439131642311
 20
266.5559155621537
 30
0.0
 40
3.0
100
AcDbArc
 50
90.0
 51
180.0
  0
ARC
  5
FFB
330
2
100
AcDbEntity
  8
0
100
AcDbCircle
 10
136.2439131642247
 20
317.5559155621537
 30
0.0
 40
3.0
100
AcDbArc
 50
180.0000000000065
 51
270.0
  0
ARC
  5
FFC
330
2
100
AcDbEntity
  8
0
100
AcDbCircle
 10
144.743913164232
 20
317.5559155621537
 30
0.0
 40
3.0
100
AcDbArc
 50
270.0
 51
0.0
  0
ARC
  5
FFD
330
2
100
AcDbEntity
  8
0
100
AcDbCircle
 10
126.7439131642365
 20
260.5559155621573
 30
0.0
 40
3.0
100
AcDbArc
 50
90.0
 51
180.0
  0
ARC
  5
FFE
330
2
100
AcDbEntity
  8
0
100
AcDbCircle
 10
126.7439131642365
 20
323.5559155621503
 30
0.0
 40
3.0
100
AcDbArc
 50
180.0
 51
270.0
  0
LINE
  5
FFF
330
2
100
AcDbEntity
  8
0
100
AcDbLine
 10
134.2439131642311
 20
264.5559155621578
 30
0.0
 11
144.743913164232
 21
264.5559155621583
 31
0.0
  0
ARC
  5
1000
330
2
100
AcDbEntity
  8
0
100
AcDbCircle
 10
134.2439131642311
 20
261.5559155621578
 30
0.0
 40
3.0
100
AcDbArc
 50
90.0
 51
126.8698976458067
  0
ARC
  5
1001
330
2
100
AcDbEntity
  8
0
100
AcDbCircle
 10
144.743913164232
 20
261.5559155621582
 30
0.0
 40
3.0
100
AcDbArc
 50
0.0
 51
90.0
  0
ARC
  5
1002
330
2
100
AcDbEntity
  8
0
100
AcDbCircle
 10
144.743913164232
 20
322.5559155621494
 30
0.0
 40
3.0
100
AcDbArc
 50
270.0
 51
0.0
  0
LINE
  5
1003
330
2
100
AcDbEntity
  8
0
100
AcDbLine
 10
134.2439131642311
 20
319.5559155621499
 30
0.0
 11
144.743913164232
 21
319.5559155621494
 31
0.0
  0
ARC
  5
1004
330
2
100
AcDbEntity
  8
0
100
AcDbCircle
 10
134.2439131642311
 20
322.5559155621498
 30
0.0
 40
3.0
100
AcDbArc
 50
233.1301023541319
 51
270.0
  0
LINE
  5
1005
330
2
100
AcDbEntity
  8
0
100
AcDbLine
 10
111.7439131642356
 20
255.5559155621537
 30
0.0
 11
121.7439131642356
 21
255.5559155621537
 31
0.0
  0
ARC
  5
1006
330
2
100
AcDbEntity
  8
0
100
AcDbCircle
 10
121.7439131642356
 20
257.5559155621537
 30
0.0
 40
2.0
100
AcDbArc
 50
270.0
 51
0.0
  0
LINE
  5
1007
330
2
100
AcDbEntity
  8
0
100
AcDbLine
 10
121.7439131642356
 20
328.5559155621537
 30
0.0
 11
111.7439131642356
 21
328.5559155621537
 31
0.0
  0
ARC
  5
1008
330
2
100
AcDbEntity
  8
0
100
AcDbCircle
 10
121.7439131642356
 20
326.5559155621537
 30
0.0
 40
2.0
100
AcDbArc
 50
0.0
 51
90.0
  0
LINE
  5
1009
330
2
100
AcDbEntity
  8
CENTER
100
AcDbLine
 10
264.1012500521267
 20
292.0559155621371
 30
0.0
 11
400.101250052425
 21
292.0559155621371
 31
0.0
  0
LINE
  5
100A
330
2
100
AcDbEntity
  8
CENTER
100
AcDbLine
 10
327.1012500524218
 20
248.5559155621389
 30
0.0
 11
327.1012500524218
 21
335.5559155621353
 31
0.0
  0
LINE
  5
100B
330
2
100
AcDbEntity
  8
0
100
AcDbLine
 10
365.1012500524227
 20
256.5708007617697
 30
0.0
 11
365.1012500524236
 21
327.5410303624977
 31
0.0
  0
LINE
  5
100C
330
2
100
AcDbEntity
  8
0
100
AcDbLine
 10
370.1012500524218
 20
262.0559155621405
 30
0.0
 11
370.1012500524218
 21
322.0559155621403
 31
0.0
  0
LINE
  5
100D
330
2
100
AcDbEntity
  8
0
100
AcDbLine
 10
365.1012500524218
 20
262.0559155621405
 30
0.0
 11
370.1012500524218
 21
262.0559155621405
 31
0.0
  0
LINE
  5
100E
330
2
100
AcDbEntity
  8
0
100
AcDbLine
 10
365.1012500524218
 20
322.0559155621403
 30
0.0
 11
370.1012500524218
 21
322.0559155621403
 31
0.0
  0
LINE
  5
100F
330
2
100
AcDbEntity
  8
0
100
AcDbLine
 10
383.1012500524254
 20
269.9872931117433
 30
0.0
 11
383.1012500524254
 21
314.1245380125155
 31
0.0
  0
LINE
  5
1010
330
2
100
AcDbEntity
  8
0
100
AcDbLine
 10
372.0314510590203
 20
267.6693496631605
 30
0.0
 11
381.1710490458306
 21
267.9885114577054
 31
0.0
  0
LINE
  5
1011
330
2
100
AcDbEntity
  8
0
100
AcDbLine
 10
372.0314510590203
 20
316.4424814610974
 30
0.0
 11
381.1710490458306
 21
316.1233196665534
 31
0.0
  0
ARC
  5
1012
330
2
100
AcDbEntity
  8
0
100
AcDbCircle
 10
381.1012500524254
 20
269.9872931117433
 30
0.0
 40
2.0
100
AcDbArc
 50
272.0000000000036
 51
0.0
  0
ARC
  5
1013
330
2
100
AcDbEntity
  8
0
100
AcDbCircle
 10
381.1012500524254
 20
314.1245380125155
 30
0.0
 40
2.0
100
AcDbArc
 50
0.0
 51
87.99999999999636
  0
ARC
  5
1014
330
2
100
AcDbEntity
  8
0
100
AcDbCircle
 10
372.1012500524254
 20
318.4412631151353
 30
0.0
 40
2.0
100
AcDbArc
 50
180.0
 51
267.9999999999963
  0
ARC
  5
1015
330
2
100
AcDbEntity
  8
0
100
AcDbCircle
 10
372.1012500524254
 20
265.6705680091226
 30
0.0
 40
2.0
100
AcDbArc
 50
92.00000000000365
 51
180.0
  0
LINE
  5
1016
330
2
100
AcDbEntity
  8
0
100
AcDbLine
 10
306.1012500521271
 20
328.0559155621369
 30
0.0
 11
365.1012500524236
 21
327.5410303624977
 31
0.0
  0
LINE
  5
1017
330
2
100
AcDbEntity
  8
0
100
AcDbLine
 10
306.1012500521271
 20
256.0559155621371
 30
0.0
 11
365.1012500524227
 21
256.5708007617697
 31
0.0
  0
ARC
  5
1018
330
2
100
AcDbEntity
  8
0
100
AcDbCircle
 10
296.1012500524182
 20
260.9869533475243
 30
0.0
 40
5.0
100
AcDbArc
 50
180.0
 51
269.2042764472296
  0
LINE
  5
1019
330
2
100
AcDbEntity
  8
0
100
AcDbLine
 10
296.0318123049653
 20
255.9874355308515
 30
0.0
 11
327.1012500524182
 21
255.5559155621389
 31
0.0
  0
LINE
  5
101A
330
2
100
AcDbEntity
  8
0
100
AcDbLine
 10
358.1706877998665
 20
255.9874355308524
 30
0.0
 11
327.10125005242
 21
255.5559155621389
 31
0.0
  0
ARC
  5
101B
330
2
100
AcDbEntity
  8
0
100
AcDbCircle
 10
358.1012500524127
 20
260.9869533475252
 30
0.0
 40
5.0
100
AcDbArc
 50
270.7957235527183
 51
297.0504175270566
  0
ARC
  5
101C
330
2
100
AcDbEntity
  8
0
100
AcDbCircle
 10
296.1012500524182
 20
323.12487777675
 30
0.0
 40
5.0
100
AcDbArc
 50
90.79572355271826
 51
180.0
  0
LINE
  5
101D
330
2
100
AcDbEntity
  8
0
100
AcDbLine
 10
296.0318123049653
 20
328.1243955934227
 30
0.0
 11
327.1012500524182
 21
328.5559155621353
 31
0.0
  0
LINE
  5
101E
330
2
100
AcDbEntity
  8
0
100
AcDbLine
 10
291.1012500524181
 20
323.12487777675
 30
0.0
 11
291.1012500524181
 21
315.055915562138
 31
0.0
  0
LINE
  5
101F
330
2
100
AcDbEntity
  8
0
100
AcDbLine
 10
291.1012500524181
 20
269.0559155621364
 30
0.0
 11
291.1012500524181
 21
260.9869533475243
 31
0.0
  0
LINE
  5
1020
330
2
100
AcDbEntity
  8
0
100
AcDbLine
 10
358.1706877998665
 20
328.1243955934218
 30
0.0
 11
327.10125005242
 21
328.5559155621353
 31
0.0
  0
ARC
  5
1021
330
2
100
AcDbEntity
  8
0
100
AcDbCircle
 10
358.1012500524127
 20
323.124877776749
 30
0.0
 40
5.0
100
AcDbArc
 50
62.9495824730018
 51
89.20427644728171
  0
LINE
  5
1022
330
2
100
AcDbEntity
  8
0
100
AcDbLine
 10
306.1012500521271
 20
328.0515521282242
 30
0.0
 11
306.1012500521271
 21
256.0602789960571
 31
0.0
  0
LINE
  5
1023
330
2
100
AcDbEntity
  8
0
100
AcDbLine
 10
297.6012500521271
 20
266.5559155621376
 30
0.0
 11
297.1012500521272
 21
267.0559155621371
 31
0.0
  0
LINE
  5
1024
330
2
100
AcDbEntity
  8
0
100
AcDbLine
 10
297.6012500521217
 20
266.5559155621426
 30
0.0
 11
297.6012500521217
 21
265.3059155621455
 31
0.0
  0
LINE
  5
1025
330
2
100
AcDbEntity
  8
0
100
AcDbLine
 10
291.8012500521269
 20
269.7559155621365
 30
0.0
 11
293.4012500521264
 21
269.7559155621367
 31
0.0
  0
LINE
  5
1026
330
2
100
AcDbEntity
  8
0
100
AcDbLine
 10
293.6012500521271
 20
269.2559155621367
 30
0.0
 11
293.8012500521269
 21
269.0559155621367
 31
0.0
  0
LINE
  5
1027
330
2
100
AcDbEntity
  8
0
100
AcDbLine
 10
297.1012500521217
 20
317.0559155621317
 30
0.0
 11
297.1012500521272
 21
267.0559155621371
 31
0.0
  0
LINE
  5
1028
330
2
100
AcDbEntity
  8
0
100
AcDbLine
 10
293.8012500521269
 20
269.0559155621367
 30
0.0
 11
297.1012500521272
 21
269.0559155621371
 31
0.0
  0
LINE
  5
1029
330
2
100
AcDbEntity
  8
0
100
AcDbLine
 10
293.6012500521271
 20
269.2559155621367
 30
0.0
 11
293.6012500521271
 21
314.8559155621378
 31
0.0
  0
LINE
  5
102A
330
2
100
AcDbEntity
  8
0
100
AcDbLine
 10
290.1012500521271
 20
269.0559155621362
 30
0.0
 11
289.1012500521271
 21
269.633265831326
 31
0.0
  0
LINE
  5
102B
330
2
100
AcDbEntity
  8
0
100
AcDbLine
 10
290.1012500521271
 20
269.0559155621362
 30
0.0
 11
291.4012500521264
 21
269.0559155621367
 31
0.0
  0
LINE
  5
102C
330
2
100
AcDbEntity
  8
0
100
AcDbLine
 10
291.6012500521271
 20
269.2559155621365
 30
0.0
 11
291.6012500521781
 21
314.8559155621378
 31
0.0
  0
LINE
  5
102D
330
2
100
AcDbEntity
  8
0
100
AcDbLine
 10
297.101250052128
 20
311.9511718758594
 30
0.0
 11
297.101250052128
 21
272.1606592484146
 31
0.0
  0
LINE
  5
102E
330
2
100
AcDbEntity
  8
0
100
AcDbLine
 10
289.1012500521271
 20
314.4785652929489
 30
0.0
 11
289.101250052129
 21
269.633265831325
 31
0.0
  0
LINE
  5
102F
330
2
100
AcDbEntity
  8
0
100
AcDbLine
 10
291.8012500521269
 20
314.355915562138
 30
0.0
 11
293.4012500521264
 21
314.3559155621378
 31
0.0
  0
LINE
  5
1030
330
2
100
AcDbEntity
  8
0
100
AcDbLine
 10
293.6012500521271
 20
314.8559155621378
 30
0.0
 11
293.8012500521269
 21
315.0559155621378
 31
0.0
  0
LINE
  5
1031
330
2
100
AcDbEntity
  8
0
100
AcDbLine
 10
293.8012500521269
 20
315.0559155621378
 30
0.0
 11
297.1012500521272
 21
315.0559155621373
 31
0.0
  0
LINE
  5
1032
330
2
100
AcDbEntity
  8
0
100
AcDbLine
 10
290.1012500521271
 20
315.055915562138
 30
0.0
 11
289.1012500521271
 21
314.4785652929485
 31
0.0
  0
LINE
  5
1033
330
2
100
AcDbEntity
  8
0
100
AcDbLine
 10
290.1012500521271
 20
315.055915562138
 30
0.0
 11
291.4012500521264
 21
315.055915562138
 31
0.0
  0
LINE
  5
1034
330
2
100
AcDbEntity
  8
HIDS
  6
SEKKEI_H
100
AcDbLine
 10
298.1870364897492
 20
323.1417019997643
 30
0.0
 11
299.015463614495
 21
323.9701291245105
 31
0.0
  0
LINE
  5
1035
330
2
100
AcDbEntity
  8
0
100
AcDbLine
 10
306.101211974467
 20
328.0559153959909
 30
0.0
 11
300.5925235166239
 21
328.0078418001191
 31
0.0
  0
LINE
  5
1036
330
2
100
AcDbEntity
  8
0
100
AcDbLine
 10
306.1012500521271
 20
328.0559155621369
 30
0.0
 11
306.1012500521271
 21
256.0559155621371
 31
0.0
  0
LINE
  5
1037
330
2
100
AcDbEntity
  8
0
100
AcDbLine
 10
297.6012500521271
 20
317.5559155621369
 30
0.0
 11
297.1012500521217
 21
317.0559155621317
 31
0.0
  0
ARC
  5
1038
330
2
100
AcDbEntity
  8
0
100
AcDbCircle
 10
300.6012500521217
 20
327.0559155621371
 30
0.0
 40
1.0
100
AcDbArc
 50
180.0
 51
180.0
  0
ARC
  5
1039
330
2
100
AcDbEntity
  8
HIDS
  6
SEKKEI_H
100
AcDbCircle
 10
299.6012500521217
 20
321.7274884373911
 30
0.0
 40
2.0
100
AcDbArc
 50
135.0000000000069
 51
180.0
  0
ARC
  5
103A
330
2
100
AcDbEntity
  8
HIDS
  6
SEKKEI_H
100
AcDbCircle
 10
297.6012500521217
 20
325.3843426868836
 30
0.0
 40
2.0
100
AcDbArc
 50
315.0000000000069
 51
0.0
  0
ARC
  5
103B
330
2
100
AcDbEntity
  8
0
100
AcDbCircle
 10
291.4012500521264
 20
314.8559155621378
 30
0.0
 40
0.2
100
AcDbArc
 50
359.9999999999348
 51
90.0
  0
ARC
  5
103C
330
2
100
AcDbEntity
  8
0
100
AcDbCircle
 10
291.8012500521269
 20
314.555915562138
 30
0.0
 40
0.2
100
AcDbArc
 50
180.0000000000651
 51
270.0
  0
ARC
  5
103D
330
2
100
AcDbEntity
  8
0
100
AcDbCircle
 10
293.4012500521264
 20
314.5559155621378
 30
0.0
 40
0.2
100
AcDbArc
 50
270.0
 51
0.0
  0
ARC
  5
103E
330
2
100
AcDbEntity
  8
0
100
AcDbCircle
 10
291.4012500521264
 20
269.2559155621365
 30
0.0
 40
0.2
100
AcDbArc
 50
270.0
 51
359.9999999999348
  0
ARC
  5
103F
330
2
100
AcDbEntity
  8
0
100
AcDbCircle
 10
291.8012500521269
 20
269.5559155621364
 30
0.0
 40
0.2
100
AcDbArc
 50
90.0
 51
179.9999999999348
  0
ARC
  5
1040
330
2
100
AcDbEntity
  8
0
100
AcDbCircle
 10
293.4012500521264
 20
269.5559155621367
 30
0.0
 40
0.2
100
AcDbArc
 50
0.0
 51
90.0
  0
LINE
  5
1041
330
2
100
AcDbEntity
  8
HIDS
  6
SEKKEI_H
100
AcDbLine
 10
298.1870364897492
 20
260.97012912451
 30
0.0
 11
299.0154636144959
 21
260.1417019997638
 31
0.0
  0
LINE
  5
1042
330
2
100
AcDbEntity
  8
0
100
AcDbLine
 10
306.101211974467
 20
256.0559157282834
 30
0.0
 11
300.5925235166239
 21
256.1039893241556
 31
0.0
  0
LINE
  5
1043
330
2
100
AcDbEntity
  8
0
100
AcDbLine
 10
299.6012500521226
 20
327.3059155621282
 30
0.0
 11
299.6012500521226
 21
256.8059155621455
 31
0.0
  0
ARC
  5
1044
330
2
100
AcDbEntity
  8
0
100
AcDbCircle
 10
300.6012500521226
 20
257.1039512472195
 30
0.0
 40
1.0
100
AcDbArc
 50
180.0
 51
269.4999999999824
  0
ARC
  5
1045
330
2
100
AcDbEntity
  8
0
100
AcDbCircle
 10
300.6012500521226
 20
327.0078798770548
 30
0.0
 40
1.0
100
AcDbArc
 50
90.50000000001761
 51
180.0
  0
LINE
  5
1046
330
2
100
AcDbEntity
  8
0
100
AcDbLine
 10
297.6012500521226
 20
318.8059155621287
 30
0.0
 11
297.6012500521226
 21
265.3059155621455
 31
0.0
  0
ARC
  5
1047
330
2
100
AcDbEntity
  8
HIDS
  6
SEKKEI_H
100
AcDbCircle
 10
299.6012500521226
 20
262.3843426868831
 30
0.0
 40
2.0
100
AcDbArc
 50
180.0
 51
224.999999999993
  0
ARC
  5
1048
330
2
100
AcDbEntity
  8
HIDS
  6
SEKKEI_H
100
AcDbCircle
 10
297.6012500521226
 20
258.7274884373907
 30
0.0
 40
2.0
100
AcDbArc
 50
0.0
 51
44.99999999999309
  0
LINE
  5
1049
330
2
100
AcDbEntity
  8
0
100
AcDbLine
 10
365.1012500524236
 20
320.0559155621505
 30
0.0
 11
306.1012500521271
 21
320.0559155621505
 31
0.0
  0
LINE
  5
104A
330
2
100
AcDbEntity
  8
0
100
AcDbLine
 10
365.1012500524236
 20
323.0559155621287
 30
0.0
 11
306.1012500521271
 21
323.0559155621287
 31
0.0
  0
LINE
  5
104B
330
2
100
AcDbEntity
  8
0
100
AcDbLine
 10
365.1012500524236
 20
308.5835110821335
 30
0.0
 11
306.1012500521271
 21
308.5835110821335
 31
0.0
  0
LINE
  5
104C
330
2
100
AcDbEntity
  8
0
100
AcDbLine
 10
306.1012500521271
 20
320.0559155621505
 30
0.0
 11
300.5925235166239
 21
320.0559155621505
 31
0.0
  0
LINE
  5
104D
330
2
100
AcDbEntity
  8
0
100
AcDbLine
 10
306.1012500521271
 20
308.5835110821335
 30
0.0
 11
300.5925235166239
 21
308.5835110821333
 31
0.0
  0
LINE
  5
104E
330
2
100
AcDbEntity
  8
0
100
AcDbLine
 10
306.1012500521271
 20
261.0559155621455
 30
0.0
 11
300.5925235166239
 21
261.0559155621196
 31
0.0
  0
LINE
  5
104F
330
2
100
AcDbEntity
  8
0
100
AcDbLine
 10
306.1012500521271
 20
264.0559155621237
 30
0.0
 11
300.5925235166239
 21
264.0559155621237
 31
0.0
  0
LINE
  5
1050
330
2
100
AcDbEntity
  8
0
100
AcDbLine
 10
306.1012500521271
 20
275.5283200421408
 30
0.0
 11
300.5925235166239
 21
275.528320042141
 31
0.0
  0
LINE
  5
1051
330
2
100
AcDbEntity
  8
0
100
AcDbLine
 10
365.1012500524236
 20
264.0559155621237
 30
0.0
 11
306.1012500521271
 21
264.0559155621237
 31
0.0
  0
LINE
  5
1052
330
2
100
AcDbEntity
  8
0
100
AcDbLine
 10
365.1012500524236
 20
261.0559155621455
 30
0.0
 11
306.1012500521271
 21
261.0559155621455
 31
0.0
  0
LINE
  5
1053
330
2
100
AcDbEntity
  8
0
100
AcDbLine
 10
365.1012500524236
 20
275.5283200421408
 30
0.0
 11
306.1012500521271
 21
275.5283200421408
 31
0.0
  0
LINE
  5
1054
330
2
100
AcDbEntity
  8
CENTER
100
AcDbLine
 10
221.9939131642311
 20
323.0559155621546
 30
0.0
 11
207.4939131642311
 21
323.055915562154
 31
0.0
  0
LINE
  5
1055
330
2
100
AcDbEntity
  8
CENTER
100
AcDbLine
 10
214.7439131642302
 20
330.3059155621544
 30
0.0
 11
214.7439131642311
 21
315.8059155621542
 31
0.0
  0
LINE
  5
1056
330
2
100
AcDbEntity
  8
CENTER
100
AcDbLine
 10
145.4939131642329
 20
323.0559155621551
 30
0.0
 11
159.9939131642338
 21
323.0559155621544
 31
0.0
  0
LINE
  5
1057
330
2
100
AcDbEntity
  8
CENTER
100
AcDbLine
 10
147.0707080834743
 20
316.5559155621526
 30
0.0
 11
157.4171182449888
 21
316.555915562153
 31
0.0
  0
LINE
  5
1058
330
2
100
AcDbEntity
  8
CENTER
100
AcDbLine
 10
152.2439131642311
 20
321.7291206429099
 30
0.0
 11
152.243913164232
 21
311.3827104813958
 31
0.0
  0
CIRCLE
  5
1059
330
2
100
AcDbEntity
  8
HOJO
100
AcDbCircle
 10
152.243913164232
 20
316.5559155621528
 30
0.0
 40
2.0
  0
LINE
  5
105A
330
2
100
AcDbEntity
  8
CENTER
100
AcDbLine
 10
221.993913164232
 20
261.0559155621539
 30
0.0
 11
207.493913164232
 21
261.0559155621539
 31
0.0
  0
LINE
  5
105B
330
2
100
AcDbEntity
  8
CENTER
100
AcDbLine
 10
220.4171182449897
 20
267.5559155621542
 30
0.0
 11
210.0707080834752
 21
267.5559155621542
 31
0.0
  0
CIRCLE
  5
105C
330
2
100
AcDbEntity
  8
HOJO
100
AcDbCircle
 10
215.243913164232
 20
267.5559155621542
 30
0.0
 40
2.0
  0
LINE
  5
105D
330
2
100
AcDbEntity
  8
CENTER
100
AcDbLine
 10
214.743913164232
 20
253.8059155621537
 30
0.0
 11
214.743913164232
 21
268.3059155621539
 31
0.0
  0
LINE
  5
105E
330
2
100
AcDbEntity
  8
CENTER
100
AcDbLine
 10
215.243913164232
 20
262.3827104813971
 30
0.0
 11
215.243913164232
 21
272.7291206429112
 31
0.0
  0
LINE
  5
105F
330
2
100
AcDbEntity
  8
CENTER
100
AcDbLine
 10
145.493913164232
 20
261.055915562153
 30
0.0
 11
159.9939131642329
 21
261.0559155621535
 31
0.0
  0
ARC
  5
1060
330
2
100
AcDbEntity
  8
0
100
AcDbCircle
 10
153.1139131642319
 20
323.055915562154
 30
0.0
 40
5.0
100
AcDbArc
 50
90.0
 51
180.0
  0
LINE
  5
1061
330
2
100
AcDbEntity
  8
0
100
AcDbLine
 10
155.7439131642329
 20
328.0559155621539
 30
0.0
 11
153.1139131642319
 21
328.0559155621539
 31
0.0
  0
LINE
  5
1062
330
2
100
AcDbEntity
  8
0
100
AcDbLine
 10
166.8175062930392
 20
261.5559155621537
 30
0.0
 11
200.6703200354247
 21
261.5559155621537
 31
0.0
  0
LINE
  5
1063
330
2
100
AcDbEntity
  8
0
100
AcDbLine
 10
166.8175062930392
 20
259.5559155621537
 30
0.0
 11
200.6703200354247
 21
259.5559155621535
 31
0.0
  0
CIRCLE
  5
1064
330
2
100
AcDbEntity
  8
0
100
AcDbCircle
 10
183.743913164232
 20
292.0559155621539
 30
0.0
 40
25.5
  0
CIRCLE
  5
1065
330
2
100
AcDbEntity
  8
0
100
AcDbCircle
 10
183.743913164232
 20
292.0559155621539
 30
0.0
 40
25.0
  0
CIRCLE
  5
1066
330
2
100
AcDbEntity
  8
0
100
AcDbCircle
 10
183.743913164232
 20
292.0559155621539
 30
0.0
 40
22.42259999999999
  0
CIRCLE
  5
1067
330
2
100
AcDbEntity
  8
0
100
AcDbCircle
 10
183.743913164232
 20
292.0559155621539
 30
0.0
 40
23.0
  0
CIRCLE
  5
1068
330
2
100
AcDbEntity
  8
0
100
AcDbCircle
 10
183.743913164232
 20
292.0559155621539
 30
0.0
 40
19.5774
  0
CIRCLE
  5
1069
330
2
100
AcDbEntity
  8
0
100
AcDbCircle
 10
183.743913164232
 20
292.0559155621539
 30
0.0
 40
19.0
  0
LINE
  5
106A
330
2
100
AcDbEntity
  8
0
100
AcDbLine
 10
214.2439131642329
 20
275.1295086909614
 30
0.0
 11
214.2439131642329
 21
308.9823224333465
 31
0.0
  0
LINE
  5
106B
330
2
100
AcDbEntity
  8
0
100
AcDbLine
 10
216.2439131642329
 20
275.1295086909614
 30
0.0
 11
216.2439131642329
 21
308.9823224333465
 31
0.0
  0
CIRCLE
  5
106C
330
2
100
AcDbEntity
  8
0
100
AcDbCircle
 10
215.243913164232
 20
267.5559155621542
 30
0.0
 40
1.6
  0
LINE
  5
106D
330
2
100
AcDbEntity
  8
0
100
AcDbLine
 10
153.243913164232
 20
308.9823224333465
 30
0.0
 11
153.243913164232
 21
275.1295086909614
 31
0.0
  0
LINE
  5
106E
330
2
100
AcDbEntity
  8
0
100
AcDbLine
 10
151.243913164232
 20
308.9823224333465
 30
0.0
 11
151.243913164232
 21
275.1295086909614
 31
0.0
  0
LINE
  5
106F
330
2
100
AcDbEntity
  8
0
100
AcDbLine
 10
148.1139131642337
 20
261.0559155621537
 30
0.0
 11
148.1139131642319
 21
323.0559155621537
 31
0.0
  0
CIRCLE
  5
1070
330
2
100
AcDbEntity
  8
0
100
AcDbCircle
 10
152.243913164232
 20
316.5559155621528
 30
0.0
 40
1.6
  0
ARC
  5
1071
330
2
100
AcDbEntity
  8
0
100
AcDbCircle
 10
153.1139131642337
 20
261.0559155621539
 30
0.0
 40
5.0
100
AcDbArc
 50
180.0
 51
270.0
  0
LINE
  5
1072
330
2
100
AcDbEntity
  8
0
100
AcDbLine
 10
155.7439131642329
 20
256.0559155621539
 30
0.0
 11
153.1139131642337
 21
256.0559155621539
 31
0.0
  0
LINE
  5
1073
330
2
100
AcDbEntity
  8
0
100
AcDbLine
 10
212.7794470701653
 20
271.5939747850285
 30
0.0
 11
204.205853941358
 21
263.0203816562211
 31
0.0
  0
ARC
  5
1074
330
2
100
AcDbEntity
  8
0
100
AcDbCircle
 10
209.243913164232
 20
275.1295086909614
 30
0.0
 40
5.0
100
AcDbArc
 50
315.0000000000092
 51
0.0
  0
ARC
  5
1075
330
2
100
AcDbEntity
  8
0
100
AcDbCircle
 10
200.6703200354247
 20
266.5559155621537
 30
0.0
 40
5.0
100
AcDbArc
 50
270.0
 51
315.0000000000092
  0
LINE
  5
1076
330
2
100
AcDbEntity
  8
0
100
AcDbLine
 10
214.1936606325387
 20
270.1797612226554
 30
0.0
 11
205.6200675037305
 21
261.606168093848
 31
0.0
  0
ARC
  5
1077
330
2
100
AcDbEntity
  8
0
100
AcDbCircle
 10
209.243913164232
 20
275.1295086909614
 30
0.0
 40
7.0
100
AcDbArc
 50
315.0000000000092
 51
0.0
  0
ARC
  5
1078
330
2
100
AcDbEntity
  8
0
100
AcDbCircle
 10
200.6703200354247
 20
266.5559155621537
 30
0.0
 40
7.0
100
AcDbArc
 50
270.0
 51
315.0000000000092
  0
ARC
  5
1079
330
2
100
AcDbEntity
  8
0
100
AcDbCircle
 10
158.243913164232
 20
275.1295086909614
 30
0.0
 40
7.0
100
AcDbArc
 50
180.0
 51
224.9999999999908
  0
LINE
  5
107A
330
2
100
AcDbEntity
  8
0
100
AcDbLine
 10
153.2941656959262
 20
270.1797612226554
 30
0.0
 11
161.8677588247344
 21
261.606168093848
 31
0.0
  0
LINE
  5
107B
330
2
100
AcDbEntity
  8
0
100
AcDbLine
 10
154.7083792582996
 20
271.5939747850285
 30
0.0
 11
163.2819723871068
 21
263.0203816562211
 31
0.0
  0
ARC
  5
107C
330
2
100
AcDbEntity
  8
0
100
AcDbCircle
 10
166.8175062930392
 20
266.5559155621537
 30
0.0
 40
7.0
100
AcDbArc
 50
224.9999999999908
 51
270.0
  0
ARC
  5
107D
330
2
100
AcDbEntity
  8
0
100
AcDbCircle
 10
166.8175062930392
 20
266.5559155621537
 30
0.0
 40
5.0
100
AcDbArc
 50
224.9999999999908
 51
270.0
  0
ARC
  5
107E
330
2
100
AcDbEntity
  8
0
100
AcDbCircle
 10
158.243913164232
 20
275.1295086909614
 30
0.0
 40
5.0
100
AcDbArc
 50
180.0
 51
224.9999999999908
  0
ARC
  5
107F
330
2
100
AcDbEntity
  8
0
100
AcDbCircle
 10
200.6703200354247
 20
317.5559155621542
 30
0.0
 40
7.0
100
AcDbArc
 50
44.99999999999078
 51
90.0
  0
ARC
  5
1080
330
2
100
AcDbEntity
  8
0
100
AcDbCircle
 10
200.6703200354247
 20
317.5559155621542
 30
0.0
 40
5.0
100
AcDbArc
 50
44.99999999999078
 51
90.0
  0
LINE
  5
1081
330
2
100
AcDbEntity
  8
0
100
AcDbLine
 10
166.8175062930392
 20
324.5559155621539
 30
0.0
 11
200.6703200354247
 21
324.5559155621542
 31
0.0
  0
LINE
  5
1082
330
2
100
AcDbEntity
  8
0
100
AcDbLine
 10
166.8175062930392
 20
322.5559155621539
 30
0.0
 11
200.6703200354247
 21
322.5559155621539
 31
0.0
  0
ARC
  5
1083
330
2
100
AcDbEntity
  8
0
100
AcDbCircle
 10
166.8175062930392
 20
317.5559155621542
 30
0.0
 40
5.0
100
AcDbArc
 50
90.0
 51
135.0000000000092
  0
ARC
  5
1084
330
2
100
AcDbEntity
  8
0
100
AcDbCircle
 10
166.8175062930392
 20
317.5559155621542
 30
0.0
 40
7.0
100
AcDbArc
 50
90.0
 51
135.0000000000092
  0
LINE
  5
1085
330
2
100
AcDbEntity
  8
0
100
AcDbLine
 10
154.7083792582996
 20
312.5178563392791
 30
0.0
 11
163.2819723871068
 21
321.0914494680866
 31
0.0
  0
LINE
  5
1086
330
2
100
AcDbEntity
  8
0
100
AcDbLine
 10
153.2941656959262
 20
313.9320699016522
 30
0.0
 11
161.8677588247344
 21
322.5056630304597
 31
0.0
  0
ARC
  5
1087
330
2
100
AcDbEntity
  8
0
100
AcDbCircle
 10
158.243913164232
 20
308.9823224333465
 30
0.0
 40
5.0
100
AcDbArc
 50
135.0000000000092
 51
180.0
  0
ARC
  5
1088
330
2
100
AcDbEntity
  8
0
100
AcDbCircle
 10
158.243913164232
 20
308.9823224333465
 30
0.0
 40
7.0
100
AcDbArc
 50
135.0000000000092
 51
180.0
  0
ARC
  5
1089
330
2
100
AcDbEntity
  8
0
100
AcDbCircle
 10
209.243913164232
 20
308.9823224333465
 30
0.0
 40
7.0
100
AcDbArc
 50
0.0
 51
44.99999999999078
  0
ARC
  5
108A
330
2
100
AcDbEntity
  8
0
100
AcDbCircle
 10
209.243913164232
 20
308.9823224333465
 30
0.0
 40
5.0
100
AcDbArc
 50
0.0
 51
44.99999999999078
  0
LINE
  5
108B
330
2
100
AcDbEntity
  8
0
100
AcDbLine
 10
212.7794470701653
 20
312.5178563392793
 30
0.0
 11
204.205853941358
 21
321.0914494680866
 31
0.0
  0
LINE
  5
108C
330
2
100
AcDbEntity
  8
0
100
AcDbLine
 10
214.1936606325387
 20
313.9320699016522
 30
0.0
 11
205.6200675037305
 21
322.5056630304599
 31
0.0
  0
LINE
  5
108D
330
2
100
AcDbEntity
  8
CENTER
100
AcDbLine
 10
221.81498097611
 20
330.1269833740311
 30
0.0
 11
145.6728453523794
 21
253.9848477503005
 31
0.0
  0
LINE
  5
108E
330
2
100
AcDbEntity
  8
CENTER
100
AcDbLine
 10
152.7439131642329
 20
253.8059155621535
 30
0.0
 11
152.7439131642329
 21
268.3059155621537
 31
0.0
  0
LINE
  5
108F
330
2
100
AcDbEntity
  8
CENTER
100
AcDbLine
 10
152.7439131642338
 20
330.3059155621542
 30
0.0
 11
152.7439131642329
 21
315.8059155621537
 31
0.0
  0
LINE
  5
1090
330
2
100
AcDbEntity
  8
0
100
AcDbLine
 10
202.5837371972509
 20
261.9365178995971
 30
0.0
 11
203.3491040619808
 21
260.0887588345746
 31
0.0
  0
LINE
  5
1091
330
2
100
AcDbEntity
  8
0
100
AcDbLine
 10
213.8633108267892
 20
273.2160915291359
 30
0.0
 11
215.711069891812
 21
272.4507246644058
 31
0.0
  0
LINE
  5
1092
330
2
100
AcDbEntity
  8
0
100
AcDbLine
 10
213.8633108267892
 20
310.8957395951719
 30
0.0
 11
215.711069891812
 21
311.6611064599021
 31
0.0
  0
LINE
  5
1093
330
2
100
AcDbEntity
  8
0
100
AcDbLine
 10
202.5837371972509
 20
322.1753132247105
 30
0.0
 11
203.3491040619808
 21
324.023072289733
 31
0.0
  0
LINE
  5
1094
330
2
100
AcDbEntity
  8
0
100
AcDbLine
 10
153.6245155016756
 20
273.2160915291357
 30
0.0
 11
151.7767564366529
 21
272.4507246644054
 31
0.0
  0
LINE
  5
1095
330
2
100
AcDbEntity
  8
0
100
AcDbLine
 10
164.904089131214
 20
261.9365178995971
 30
0.0
 11
164.1387222664841
 21
260.0887588345744
 31
0.0
  0
LINE
  5
1096
330
2
100
AcDbEntity
  8
0
100
AcDbLine
 10
153.6245155016756
 20
310.8957395951717
 30
0.0
 11
151.7767564366529
 21
311.6611064599018
 31
0.0
  0
LINE
  5
1097
330
2
100
AcDbEntity
  8
0
100
AcDbLine
 10
164.904089131214
 20
322.1753132247103
 30
0.0
 11
164.1387222664841
 21
324.0230722897328
 31
0.0
  0
LINE
  5
1098
330
2
100
AcDbEntity
  8
CENTER
100
AcDbLine
 10
145.6728453523539
 20
330.1269833740311
 30
0.0
 11
221.8149809760855
 21
253.9848477503009
 31
0.0
  0
LINE
  5
1099
330
2
100
AcDbEntity
  8
0
100
AcDbLine
 10
216.7439131642311
 20
321.9012150237733
 30
0.0
 11
214.7439131642311
 21
320.746514485394
 31
0.0
  0
CIRCLE
  5
109A
330
2
100
AcDbEntity
  8
0
100
AcDbCircle
 10
214.7439131642311
 20
323.0559155621524
 30
0.0
 40
4.250000000000085
  0
CIRCLE
  5
109B
330
2
100
AcDbEntity
  8
0
100
AcDbCircle
 10
214.7439131642311
 20
323.0559155621524
 30
0.0
 40
3.730384757729268
  0
LINE
  5
109C
330
2
100
AcDbEntity
  8
0
100
AcDbLine
 10
214.7439131642302
 20
325.3653166389107
 30
0.0
 11
216.7439131642311
 21
324.2106161005317
 31
0.0
  0
LINE
  5
109D
330
2
100
AcDbEntity
  8
0
100
AcDbLine
 10
212.7439131642311
 20
324.2106161005317
 30
0.0
 11
212.7439131642311
 21
321.901215023773
 31
0.0
  0
LINE
  5
109E
330
2
100
AcDbEntity
  8
0
100
AcDbLine
 10
212.7439131642311
 20
321.901215023773
 30
0.0
 11
214.7439131642302
 21
320.746514485394
 31
0.0
  0
LINE
  5
109F
330
2
100
AcDbEntity
  8
0
100
AcDbLine
 10
214.7439131642302
 20
325.3653166389109
 30
0.0
 11
212.7439131642311
 21
324.2106161005317
 31
0.0
  0
LINE
  5
10A0
330
2
100
AcDbEntity
  8
0
100
AcDbLine
 10
216.7439131642311
 20
324.2106161005317
 30
0.0
 11
216.7439131642311
 21
321.9012150237733
 31
0.0
  0
LINE
  5
10A1
330
2
100
AcDbEntity
  8
0
100
AcDbLine
 10
216.743913164232
 20
259.9012150237749
 30
0.0
 11
214.743913164232
 21
258.7465144853956
 31
0.0
  0
CIRCLE
  5
10A2
330
2
100
AcDbEntity
  8
0
100
AcDbCircle
 10
214.743913164232
 20
261.0559155621539
 30
0.0
 40
4.250000000000085
  0
CIRCLE
  5
10A3
330
2
100
AcDbEntity
  8
0
100
AcDbCircle
 10
214.743913164232
 20
261.0559155621539
 30
0.0
 40
3.730384757729268
  0
LINE
  5
10A4
330
2
100
AcDbEntity
  8
0
100
AcDbLine
 10
214.743913164232
 20
263.3653166389123
 30
0.0
 11
216.743913164232
 21
262.2106161005333
 31
0.0
  0
LINE
  5
10A5
330
2
100
AcDbEntity
  8
0
100
AcDbLine
 10
212.743913164232
 20
262.2106161005333
 30
0.0
 11
212.743913164232
 21
259.9012150237746
 31
0.0
  0
LINE
  5
10A6
330
2
100
AcDbEntity
  8
0
100
AcDbLine
 10
212.743913164232
 20
259.9012150237746
 30
0.0
 11
214.743913164232
 21
258.7465144853956
 31
0.0
  0
LINE
  5
10A7
330
2
100
AcDbEntity
  8
0
100
AcDbLine
 10
214.743913164232
 20
263.3653166389125
 30
0.0
 11
212.743913164232
 21
262.2106161005333
 31
0.0
  0
LINE
  5
10A8
330
2
100
AcDbEntity
  8
0
100
AcDbLine
 10
216.743913164232
 20
262.2106161005333
 30
0.0
 11
216.743913164232
 21
259.9012150237749
 31
0.0
  0
LINE
  5
10A9
330
2
100
AcDbEntity
  8
0
100
AcDbLine
 10
150.7439131642338
 20
321.9012150237733
 30
0.0
 11
152.7439131642338
 21
320.746514485394
 31
0.0
  0
CIRCLE
  5
10AA
330
2
100
AcDbEntity
  8
0
100
AcDbCircle
 10
152.7439131642338
 20
323.0559155621524
 30
0.0
 40
4.250000000000085
  0
CIRCLE
  5
10AB
330
2
100
AcDbEntity
  8
0
100
AcDbCircle
 10
152.7439131642338
 20
323.0559155621524
 30
0.0
 40
3.730384757729268
  0
LINE
  5
10AC
330
2
100
AcDbEntity
  8
0
100
AcDbLine
 10
152.7439131642338
 20
325.3653166389107
 30
0.0
 11
150.7439131642338
 21
324.2106161005317
 31
0.0
  0
LINE
  5
10AD
330
2
100
AcDbEntity
  8
0
100
AcDbLine
 10
154.7439131642338
 20
324.2106161005317
 30
0.0
 11
154.7439131642338
 21
321.901215023773
 31
0.0
  0
LINE
  5
10AE
330
2
100
AcDbEntity
  8
0
100
AcDbLine
 10
154.7439131642338
 20
321.901215023773
 30
0.0
 11
152.7439131642338
 21
320.746514485394
 31
0.0
  0
LINE
  5
10AF
330
2
100
AcDbEntity
  8
0
100
AcDbLine
 10
152.7439131642338
 20
325.3653166389109
 30
0.0
 11
154.7439131642338
 21
324.2106161005317
 31
0.0
  0
LINE
  5
10B0
330
2
100
AcDbEntity
  8
0
100
AcDbLine
 10
150.7439131642338
 20
324.2106161005317
 30
0.0
 11
150.7439131642338
 21
321.9012150237733
 31
0.0
  0
LINE
  5
10B1
330
2
100
AcDbEntity
  8
0
100
AcDbLine
 10
150.743913164232
 20
259.9012150237749
 30
0.0
 11
152.743913164232
 21
258.7465144853956
 31
0.0
  0
CIRCLE
  5
10B2
330
2
100
AcDbEntity
  8
0
100
AcDbCircle
 10
152.743913164232
 20
261.0559155621539
 30
0.0
 40
4.250000000000085
  0
CIRCLE
  5
10B3
330
2
100
AcDbEntity
  8
0
100
AcDbCircle
 10
152.743913164232
 20
261.0559155621539
 30
0.0
 40
3.730384757729268
  0
LINE
  5
10B4
330
2
100
AcDbEntity
  8
0
100
AcDbLine
 10
152.743913164232
 20
263.3653166389123
 30
0.0
 11
150.743913164232
 21
262.2106161005333
 31
0.0
  0
LINE
  5
10B5
330
2
100
AcDbEntity
  8
0
100
AcDbLine
 10
154.743913164232
 20
262.2106161005333
 30
0.0
 11
154.743913164232
 21
259.9012150237746
 31
0.0
  0
LINE
  5
10B6
330
2
100
AcDbEntity
  8
0
100
AcDbLine
 10
154.743913164232
 20
259.9012150237746
 30
0.0
 11
152.743913164232
 21
258.7465144853956
 31
0.0
  0
LINE
  5
10B7
330
2
100
AcDbEntity
  8
0
100
AcDbLine
 10
152.743913164232
 20
263.3653166389125
 30
0.0
 11
154.743913164232
 21
262.2106161005333
 31
0.0
  0
LINE
  5
10B8
330
2
100
AcDbEntity
  8
0
100
AcDbLine
 10
150.743913164232
 20
262.2106161005333
 30
0.0
 11
150.743913164232
 21
259.9012150237749
 31
0.0
  0
LINE
  5
10B9
330
2
100
AcDbEntity
  8
CENTER
  6
CENS
100
AcDbLine
 10
290.301250052127
 20
323.0559155621546
 30
0.0
 11
309.8499515327237
 21
323.0559155621546
 31
0.0
  0
LINE
  5
10BA
330
2
100
AcDbEntity
  8
0
100
AcDbLine
 10
293.6012500521271
 20
327.3059155621287
 30
0.0
 11
299.6012500521226
 21
327.3059155621282
 31
0.0
  0
LINE
  5
10BB
330
2
100
AcDbEntity
  8
0
100
AcDbLine
 10
293.6012500521271
 20
318.8059155621287
 30
0.0
 11
299.6012500521271
 21
318.8059155621287
 31
0.0
  0
LINE
  5
10BC
330
2
100
AcDbEntity
  8
0
100
AcDbLine
 10
298.3012500521269
 20
318.8059155621287
 30
0.0
 11
298.3012500521269
 21
327.3059155621287
 31
0.0
  0
LINE
  5
10BD
330
2
100
AcDbEntity
  8
0
100
AcDbLine
 10
293.6012500521271
 20
318.8059155621287
 30
0.0
 11
293.6012500521271
 21
327.3059155621287
 31
0.0
  0
LINE
  5
10BE
330
2
100
AcDbEntity
  8
0
100
AcDbLine
 10
293.6012500521271
 20
318.8059155621287
 30
0.0
 11
293.301250052127
 21
319.3255308043991
 31
0.0
  0
LINE
  5
10BF
330
2
100
AcDbEntity
  8
0
100
AcDbLine
 10
293.6012500521271
 20
327.3059155621287
 30
0.0
 11
293.301250052127
 21
326.7863003198578
 31
0.0
  0
LINE
  5
10C0
330
2
100
AcDbEntity
  8
0
100
AcDbLine
 10
293.301250052127
 20
319.3255308043991
 30
0.0
 11
293.301250052127
 21
326.7863003198578
 31
0.0
  0
LINE
  5
10C1
330
2
100
AcDbEntity
  8
HIDS
  6
SEKKEI_H
100
AcDbLine
 10
297.6012500521217
 20
321.7274884373911
 30
0.0
 11
297.6012500521226
 21
318.8059155621287
 31
0.0
  0
LINE
  5
10C2
330
2
100
AcDbEntity
  8
CENTER
  6
CENS
100
AcDbLine
 10
290.301250052127
 20
261.0559155621196
 30
0.0
 11
309.8499515327237
 21
261.0559155621196
 31
0.0
  0
LINE
  5
10C3
330
2
100
AcDbEntity
  8
0
100
AcDbLine
 10
293.6012500521271
 20
256.8059155621455
 30
0.0
 11
299.6012500521226
 21
256.8059155621455
 31
0.0
  0
LINE
  5
10C4
330
2
100
AcDbEntity
  8
0
100
AcDbLine
 10
293.6012500521271
 20
265.3059155621455
 30
0.0
 11
299.6012500521271
 21
265.3059155621455
 31
0.0
  0
LINE
  5
10C5
330
2
100
AcDbEntity
  8
0
100
AcDbLine
 10
298.3012500521269
 20
265.3059155621455
 30
0.0
 11
298.3012500521269
 21
256.8059155621455
 31
0.0
  0
LINE
  5
10C6
330
2
100
AcDbEntity
  8
0
100
AcDbLine
 10
293.6012500521271
 20
265.3059155621455
 30
0.0
 11
293.6012500521271
 21
256.8059155621455
 31
0.0
  0
LINE
  5
10C7
330
2
100
AcDbEntity
  8
0
100
AcDbLine
 10
293.6012500521271
 20
265.3059155621455
 30
0.0
 11
293.301250052127
 21
264.7863003198751
 31
0.0
  0
LINE
  5
10C8
330
2
100
AcDbEntity
  8
0
100
AcDbLine
 10
293.6012500521271
 20
256.8059155621455
 30
0.0
 11
293.301250052127
 21
257.3255308044164
 31
0.0
  0
LINE
  5
10C9
330
2
100
AcDbEntity
  8
0
100
AcDbLine
 10
293.301250052127
 20
264.7863003198751
 30
0.0
 11
293.301250052127
 21
257.3255308044164
 31
0.0
  0
LINE
  5
10CA
330
2
100
AcDbEntity
  8
HIDS
  6
SEKKEI_H
100
AcDbLine
 10
297.6012500521226
 20
265.3059155621455
 30
0.0
 11
297.6012500521226
 21
262.3843426868831
 31
0.0
  0
LINE
  5
10CB
330
2
100
AcDbEntity
  8
0
100
AcDbLine
 10
518.1352563383086
 20
521.781805039278
 30
0.0
 11
446.5128839958386
 21
521.781805039278
 31
0.0
  0
LINE
  5
10CC
330
2
100
AcDbEntity
  8
0
100
AcDbLine
 10
457.0085205619186
 20
530.2818050392784
 30
0.0
 11
457.5085205619187
 21
530.7818050392781
 31
0.0
  0
LINE
  5
10CD
330
2
100
AcDbEntity
  8
0
100
AcDbLine
 10
457.0085205619241
 20
530.2818050392834
 30
0.0
 11
455.7585205619268
 21
530.2818050392834
 31
0.0
  0
LINE
  5
10CE
330
2
100
AcDbEntity
  8
0
100
AcDbLine
 10
460.2085205619175
 20
536.0818050392786
 30
0.0
 11
460.2085205619175
 21
534.4818050392786
 31
0.0
  0
LINE
  5
10CF
330
2
100
AcDbEntity
  8
0
100
AcDbLine
 10
459.7085205619175
 20
534.2818050392786
 30
0.0
 11
459.5085205619177
 21
534.0818050392786
 31
0.0
  0
LINE
  5
10D0
330
2
100
AcDbEntity
  8
0
100
AcDbLine
 10
507.5085205619132
 20
530.7818050392838
 30
0.0
 11
457.5085205619187
 21
530.7818050392781
 31
0.0
  0
LINE
  5
10D1
330
2
100
AcDbEntity
  8
0
100
AcDbLine
 10
459.5085205619177
 20
534.0818050392786
 30
0.0
 11
459.5085205619186
 21
530.7818050392784
 31
0.0
  0
LINE
  5
10D2
330
2
100
AcDbEntity
  8
0
100
AcDbLine
 10
459.7085205619175
 20
534.2818050392786
 30
0.0
 11
505.3085205619188
 21
534.2818050392784
 31
0.0
  0
LINE
  5
10D3
330
2
100
AcDbEntity
  8
0
100
AcDbLine
 10
459.5085205619168
 20
537.7818050392784
 30
0.0
 11
460.0858708311068
 21
538.7818050392787
 31
0.0
  0
LINE
  5
10D4
330
2
100
AcDbEntity
  8
0
100
AcDbLine
 10
459.5085205619168
 20
537.7818050392786
 30
0.0
 11
459.5085205619177
 21
536.4818050392787
 31
0.0
  0
LINE
  5
10D5
330
2
100
AcDbEntity
  8
0
100
AcDbLine
 10
459.7085205619175
 20
536.2818050392788
 30
0.0
 11
505.3085205619188
 21
536.281805039227
 31
0.0
  0
LINE
  5
10D6
330
2
100
AcDbEntity
  8
0
100
AcDbLine
 10
502.4037768756405
 20
530.7818050392775
 30
0.0
 11
462.6132642481959
 21
530.7818050392775
 31
0.0
  0
LINE
  5
10D7
330
2
100
AcDbEntity
  8
0
100
AcDbLine
 10
504.9311702927305
 20
538.7818050392781
 30
0.0
 11
460.0858708311059
 21
538.7818050392771
 31
0.0
  0
LINE
  5
10D8
330
2
100
AcDbEntity
  8
0
100
AcDbLine
 10
504.8085205619188
 20
536.0818050392786
 30
0.0
 11
504.8085205619188
 21
534.4818050392786
 31
0.0
  0
LINE
  5
10D9
330
2
100
AcDbEntity
  8
0
100
AcDbLine
 10
505.3085205619188
 20
534.2818050392784
 30
0.0
 11
505.5085205619186
 21
534.0818050392786
 31
0.0
  0
LINE
  5
10DA
330
2
100
AcDbEntity
  8
0
100
AcDbLine
 10
505.5085205619186
 20
534.0818050392786
 30
0.0
 11
505.5085205619186
 21
530.7818050392784
 31
0.0
  0
LINE
  5
10DB
330
2
100
AcDbEntity
  8
0
100
AcDbLine
 10
505.5085205619186
 20
537.7818050392784
 30
0.0
 11
504.9311702927296
 21
538.7818050392787
 31
0.0
  0
LINE
  5
10DC
330
2
100
AcDbEntity
  8
0
100
AcDbLine
 10
505.5085205619186
 20
537.7818050392786
 30
0.0
 11
505.5085205619186
 21
536.4818050392787
 31
0.0
  0
LINE
  5
10DD
330
2
100
AcDbEntity
  8
HIDS
  6
SEKKEI_H
100
AcDbLine
 10
513.5943069995453
 20
529.6960186016565
 30
0.0
 11
514.422734124292
 21
528.8675914769103
 31
0.0
  0
LINE
  5
10DE
330
2
100
AcDbEntity
  8
0
100
AcDbLine
 10
518.135256338309
 20
521.781805039278
 30
0.0
 11
446.5085205619186
 21
521.781805039278
 31
0.0
  0
LINE
  5
10DF
330
2
100
AcDbEntity
  8
0
100
AcDbLine
 10
508.0085205619177
 20
530.2818050392784
 30
0.0
 11
507.5085205619132
 21
530.7818050392838
 31
0.0
  0
ARC
  5
10E0
330
2
100
AcDbEntity
  8
0
100
AcDbCircle
 10
517.5085205619186
 20
527.2818050392834
 30
0.0
 40
1.0
100
AcDbArc
 50
90.0
 51
90.0
  0
ARC
  5
10E1
330
2
100
AcDbEntity
  8
HIDS
  6
SEKKEI_H
100
AcDbCircle
 10
512.1800934371719
 20
528.2818050392834
 30
0.0
 40
2.0
100
AcDbArc
 50
44.99999999999309
 51
90.0
  0
ARC
  5
10E2
330
2
100
AcDbEntity
  8
HIDS
  6
SEKKEI_H
100
AcDbCircle
 10
515.8369476866644
 20
530.2818050392834
 30
0.0
 40
2.0
100
AcDbArc
 50
224.999999999993
 51
270.0
  0
ARC
  5
10E3
330
2
100
AcDbEntity
  8
0
100
AcDbCircle
 10
505.3085205619188
 20
536.4818050392787
 30
0.0
 40
0.2
100
AcDbArc
 50
269.9999999999478
 51
359.9999999999739
  0
ARC
  5
10E4
330
2
100
AcDbEntity
  8
0
100
AcDbCircle
 10
505.0085205619186
 20
536.0818050392784
 30
0.0
 40
0.2
100
AcDbArc
 50
90.00000000005213
 51
180.0
  0
ARC
  5
10E5
330
2
100
AcDbEntity
  8
0
100
AcDbCircle
 10
505.0085205619186
 20
534.4818050392786
 30
0.0
 40
0.2
100
AcDbArc
 50
180.0
 51
270.0
  0
ARC
  5
10E6
330
2
100
AcDbEntity
  8
0
100
AcDbCircle
 10
459.7085205619175
 20
536.4818050392787
 30
0.0
 40
0.2
100
AcDbArc
 50
180.0
 51
269.9999999999478
  0
ARC
  5
10E7
330
2
100
AcDbEntity
  8
0
100
AcDbCircle
 10
460.0085205619177
 20
536.0818050392784
 30
0.0
 40
0.2
100
AcDbArc
 50
0.0
 51
89.99999999994789
  0
ARC
  5
10E8
330
2
100
AcDbEntity
  8
0
100
AcDbCircle
 10
460.0085205619177
 20
534.4818050392786
 30
0.0
 40
0.2
100
AcDbArc
 50
270.0
 51
0.0
  0
LINE
  5
10E9
330
2
100
AcDbEntity
  8
HIDS
  6
SEKKEI_H
100
AcDbLine
 10
451.4227341242911
 20
529.696018601656
 30
0.0
 11
450.5943069995453
 21
528.8675914769099
 31
0.0
  0
LINE
  5
10EA
330
2
100
AcDbEntity
  8
0
100
AcDbLine
 10
446.5085205619186
 20
521.781805039278
 30
0.0
 11
446.5565944900888
 21
527.2905315747814
 31
0.0
  0
LINE
  5
10EB
330
2
100
AcDbEntity
  8
0
100
AcDbLine
 10
517.7585205619095
 20
528.2818050392827
 30
0.0
 11
447.2585205619277
 21
528.2818050392831
 31
0.0
  0
ARC
  5
10EC
330
2
100
AcDbEntity
  8
0
100
AcDbCircle
 10
447.5565564131527
 20
527.2818050392832
 30
0.0
 40
1.0
100
AcDbArc
 50
90.0
 51
179.4999999999987
  0
LINE
  5
10ED
330
2
100
AcDbEntity
  8
0
100
AcDbLine
 10
509.2585205619095
 20
530.2818050392829
 30
0.0
 11
455.7585205619268
 21
530.2818050392829
 31
0.0
  0
ARC
  5
10EE
330
2
100
AcDbEntity
  8
HIDS
  6
SEKKEI_H
100
AcDbCircle
 10
452.8369476866644
 20
528.281805039283
 30
0.0
 40
2.0
100
AcDbArc
 50
90.0
 51
135.0000000000069
  0
ARC
  5
10EF
330
2
100
AcDbEntity
  8
HIDS
  6
SEKKEI_H
100
AcDbCircle
 10
449.180093437172
 20
530.2818050392829
 30
0.0
 40
2.0
100
AcDbArc
 50
270.0
 51
315.0000000000069
  0
LINE
  5
10F0
330
2
100
AcDbEntity
  8
0
100
AcDbLine
 10
510.5085205619314
 20
521.781805039278
 30
0.0
 11
510.5085205619314
 21
527.2905315747814
 31
0.0
  0
LINE
  5
10F1
330
2
100
AcDbEntity
  8
0
100
AcDbLine
 10
499.0361160819145
 20
521.781805039278
 30
0.0
 11
499.0361160819145
 21
527.2905315747814
 31
0.0
  0
LINE
  5
10F2
330
2
100
AcDbEntity
  8
0
100
AcDbLine
 10
451.5085205619268
 20
521.781805039278
 30
0.0
 11
451.5085205619004
 21
527.2905315747814
 31
0.0
  0
LINE
  5
10F3
330
2
100
AcDbEntity
  8
0
100
AcDbLine
 10
454.508520561905
 20
521.781805039278
 30
0.0
 11
454.508520561905
 21
527.2905315747814
 31
0.0
  0
LINE
  5
10F4
330
2
100
AcDbEntity
  8
0
100
AcDbLine
 10
465.9809250419218
 20
521.781805039278
 30
0.0
 11
465.9809250419218
 21
527.2905315747814
 31
0.0
  0
LINE
  5
10F5
330
2
100
AcDbEntity
  8
CENTER
  6
CENS
100
AcDbLine
 10
513.5085205619359
 20
537.5818050392786
 30
0.0
 11
513.5085205619359
 21
518.0331035586818
 31
0.0
  0
LINE
  5
10F6
330
2
100
AcDbEntity
  8
0
100
AcDbLine
 10
517.7585205619095
 20
534.2818050392784
 30
0.0
 11
517.7585205619095
 21
528.2818050392827
 31
0.0
  0
LINE
  5
10F7
330
2
100
AcDbEntity
  8
0
100
AcDbLine
 10
509.2585205619095
 20
534.2818050392784
 30
0.0
 11
509.2585205619095
 21
528.2818050392786
 31
0.0
  0
LINE
  5
10F8
330
2
100
AcDbEntity
  8
0
100
AcDbLine
 10
509.2585205619095
 20
529.5818050392786
 30
0.0
 11
517.7585205619095
 21
529.5818050392786
 31
0.0
  0
LINE
  5
10F9
330
2
100
AcDbEntity
  8
0
100
AcDbLine
 10
509.2585205619095
 20
534.2818050392784
 30
0.0
 11
517.7585205619095
 21
534.2818050392784
 31
0.0
  0
LINE
  5
10FA
330
2
100
AcDbEntity
  8
0
100
AcDbLine
 10
509.2585205619095
 20
534.2818050392784
 30
0.0
 11
509.77813580418
 21
534.5818050392786
 31
0.0
  0
LINE
  5
10FB
330
2
100
AcDbEntity
  8
0
100
AcDbLine
 10
517.7585205619095
 20
534.2818050392784
 30
0.0
 11
517.2389053196391
 21
534.5818050392786
 31
0.0
  0
LINE
  5
10FC
330
2
100
AcDbEntity
  8
0
100
AcDbLine
 10
509.77813580418
 20
534.5818050392786
 30
0.0
 11
517.2389053196391
 21
534.5818050392786
 31
0.0
  0
LINE
  5
10FD
330
2
100
AcDbEntity
  8
HIDS
  6
SEKKEI_H
100
AcDbLine
 10
512.1800934371719
 20
530.2818050392834
 30
0.0
 11
509.2585205619095
 21
530.2818050392829
 31
0.0
  0
LINE
  5
10FE
330
2
100
AcDbEntity
  8
CENTER
  6
CENS
100
AcDbLine
 10
451.5085205619004
 20
537.5818050392786
 30
0.0
 11
451.5085205619004
 21
518.0331035586818
 31
0.0
  0
LINE
  5
10FF
330
2
100
AcDbEntity
  8
0
100
AcDbLine
 10
447.2585205619268
 20
534.2818050392784
 30
0.0
 11
447.2585205619277
 21
528.2818050392831
 31
0.0
  0
LINE
  5
1100
330
2
100
AcDbEntity
  8
0
100
AcDbLine
 10
455.7585205619268
 20
534.2818050392784
 30
0.0
 11
455.7585205619268
 21
528.2818050392786
 31
0.0
  0
LINE
  5
1101
330
2
100
AcDbEntity
  8
0
100
AcDbLine
 10
455.7585205619268
 20
529.5818050392786
 30
0.0
 11
447.2585205619268
 21
529.5818050392786
 31
0.0
  0
LINE
  5
1102
330
2
100
AcDbEntity
  8
0
100
AcDbLine
 10
455.7585205619268
 20
534.2818050392784
 30
0.0
 11
447.2585205619268
 21
534.2818050392784
 31
0.0
  0
LINE
  5
1103
330
2
100
AcDbEntity
  8
0
100
AcDbLine
 10
455.7585205619268
 20
534.2818050392784
 30
0.0
 11
455.2389053196564
 21
534.5818050392786
 31
0.0
  0
LINE
  5
1104
330
2
100
AcDbEntity
  8
0
100
AcDbLine
 10
447.2585205619268
 20
534.2818050392784
 30
0.0
 11
447.7781358041982
 21
534.5818050392786
 31
0.0
  0
LINE
  5
1105
330
2
100
AcDbEntity
  8
0
100
AcDbLine
 10
455.2389053196564
 20
534.5818050392786
 30
0.0
 11
447.7781358041982
 21
534.5818050392786
 31
0.0
  0
LINE
  5
1106
330
2
100
AcDbEntity
  8
HIDS
  6
SEKKEI_H
100
AcDbLine
 10
455.7585205619268
 20
530.2818050392829
 30
0.0
 11
452.8369476866644
 21
530.2818050392829
 31
0.0
  0
LINE
  5
1107
330
2
100
AcDbEntity
  8
0
100
AcDbLine
 10
513.5085205619096
 20
521.781805039278
 30
0.0
 11
513.5085205619359
 21
527.2905315747814
 31
0.0
  0
LINE
  5
1108
330
2
100
AcDbEntity
  8
0
100
AcDbLine
 10
518.0904466337477
 20
527.2905315747809
 30
0.0
 11
518.1385205619188
 21
521.7818050392771
 31
0.0
  0
ARC
  5
1109
330
2
100
AcDbEntity
  8
0
100
AcDbCircle
 10
517.0904847106838
 20
527.2818050392827
 30
0.0
 40
1.0
100
AcDbArc
 50
0.500000000001317
 51
90.0
  0
LINE
  5
110A
330
2
100
AcDbEntity
  8
0
100
AcDbLine
 10
518.3185205619186
 20
500.7818050391932
 30
0.0
 11
517.9868995858685
 21
462.7818050389829
 31
0.0
  0
ARC
  5
110B
330
2
100
AcDbEntity
  8
0
100
AcDbCircle
 10
521.0524653294562
 20
470.2818050389838
 30
0.0
 40
3.0
100
AcDbArc
 50
90.0
 51
179.5000000000019
  0
ARC
  5
110C
330
2
100
AcDbEntity
  8
0
100
AcDbCircle
 10
521.09609966841
 20
475.2818050389838
 30
0.0
 40
3.0
100
AcDbArc
 50
90.0
 51
179.5000000000019
  0
ARC
  5
110D
330
2
100
AcDbEntity
  8
0
100
AcDbCircle
 10
521.2706370242251
 20
495.2818050389838
 30
0.0
 40
3.0
100
AcDbArc
 50
90.0
 51
179.5000000000019
  0
LINE
  5
110E
330
2
100
AcDbEntity
  8
0
100
AcDbLine
 10
329.5303846404647
 20
132.9264728464454
 30
0.0
 11
389.5303846404647
 21
132.9264728464454
 31
0.0
  0
LINE
  5
110F
330
2
100
AcDbEntity
  8
0
100
AcDbLine
 10
308.5303846404647
 20
134.9764728464454
 30
0.0
 11
414.5303846404646
 21
134.9764728464451
 31
0.0
  0
LINE
  5
1110
330
2
100
AcDbEntity
  8
CENTER
100
AcDbLine
 10
421.5303846404642
 20
125.1765189514608
 30
0.0
 11
301.5303846404647
 21
125.176514587919
 31
0.0
  0
LINE
  5
1111
330
2
100
AcDbEntity
  8
0
100
AcDbLine
 10
386.5303846404647
 20
113.1764728464453
 30
0.0
 11
386.5303846404647
 21
112.6764728464453
 31
0.0
  0
LINE
  5
1112
330
2
100
AcDbEntity
  8
0
100
AcDbLine
 10
414.5303846404646
 20
137.1764728464453
 30
0.0
 11
414.5303846404646
 21
113.1764728464453
 31
0.0
  0
LINE
  5
1113
330
2
100
AcDbEntity
  8
0
100
AcDbLine
 10
414.5303846404646
 20
137.1764728464455
 30
0.0
 11
414.5303846404646
 21
113.1764728464456
 31
0.0
  0
LINE
  5
1114
330
2
100
AcDbEntity
  8
CENTER
100
AcDbLine
 10
408.0303846404647
 20
130.0209011763801
 30
0.0
 11
408.0303846404647
 21
141.4684525030486
 31
0.0
  0
LINE
  5
1115
330
2
100
AcDbEntity
  8
0
100
AcDbLine
 10
393.0552620975902
 20
113.1764728464453
 30
0.0
 11
414.5303846404646
 21
113.1764728464453
 31
0.0
  0
LINE
  5
1116
330
2
100
AcDbEntity
  8
0
100
AcDbLine
 10
399.6803846404643
 20
132.6764728464455
 30
0.0
 11
405.5303846404647
 21
132.6764728464455
 31
0.0
  0
LINE
  5
1117
330
2
100
AcDbEntity
  8
0
100
AcDbLine
 10
399.6803846404652
 20
117.6764728464452
 30
0.0
 11
405.5303846404647
 21
117.6764728464452
 31
0.0
  0
LINE
  5
1118
330
2
100
AcDbEntity
  8
0
100
AcDbLine
 10
393.0552017085963
 20
137.1764728464452
 30
0.0
 11
414.5303846404646
 21
137.1764728464453
 31
0.0
  0
LINE
  5
1119
330
2
100
AcDbEntity
  8
0
100
AcDbLine
 10
410.5303846404646
 20
117.1764728464452
 30
0.0
 11
410.5303846404646
 21
133.1764728464455
 31
0.0
  0
LINE
  5
111A
330
2
100
AcDbEntity
  8
0
100
AcDbLine
 10
405.5303846404647
 20
117.1764728464452
 30
0.0
 11
405.5303846404647
 21
133.1764728464455
 31
0.0
  0
LINE
  5
111B
330
2
100
AcDbEntity
  8
0
100
AcDbLine
 10
412.5303846404647
 20
132.6764728464455
 30
0.0
 11
412.5303846404647
 21
117.6764728464451
 31
0.0
  0
LINE
  5
111C
330
2
100
AcDbEntity
  8
0
100
AcDbLine
 10
410.5303846404646
 20
117.6764728464451
 30
0.0
 11
412.5303846404647
 21
117.6764728464452
 31
0.0
  0
LINE
  5
111D
330
2
100
AcDbEntity
  8
0
100
AcDbLine
 10
414.5303846404646
 20
116.5217723080657
 30
0.0
 11
412.5303846404647
 21
117.6764728464449
 31
0.0
  0
CIRCLE
  5
111E
330
2
100
AcDbEntity
  8
0
100
AcDbCircle
 10
386.6012500524254
 20
292.0558699480201
 30
0.0
 40
1.6
  0
CIRCLE
  5
111F
330
2
100
AcDbEntity
  8
HOJO
 48
0.5
100
AcDbCircle
 10
386.6012500524254
 20
292.0558699480201
 30
0.0
 40
2.0
  0
LINE
  5
1120
330
2
100
AcDbEntity
  8
0
100
AcDbLine
 10
405.5303846404647
 20
117.1764728464452
 30
0.0
 11
410.5303846404646
 21
117.1764728464452
 31
0.0
  0
LINE
  5
1121
330
2
100
AcDbEntity
  8
0
100
AcDbLine
 10
410.5303846404646
 20
132.6764728464455
 30
0.0
 11
412.5303846404647
 21
132.6764728464455
 31
0.0
  0
LINE
  5
1122
330
2
100
AcDbEntity
  8
0
100
AcDbLine
 10
414.5303846404646
 20
133.8311733848246
 30
0.0
 11
412.5303846404647
 21
132.6764728464455
 31
0.0
  0
LINE
  5
1123
330
2
100
AcDbEntity
  8
0
100
AcDbLine
 10
405.5303846404647
 20
133.1764728464455
 30
0.0
 11
410.5303846404646
 21
133.1764728464455
 31
0.0
  0
LINE
  5
1124
330
2
100
AcDbEntity
  8
HOJO
 48
0.5
100
AcDbLine
 10
406.0303846404647
 20
134.976472846445
 30
0.0
 11
406.0303846404647
 21
137.1764728464451
 31
0.0
  0
LINE
  5
1125
330
2
100
AcDbEntity
  8
0
100
AcDbLine
 10
409.6303846404651
 20
134.9764728464451
 30
0.0
 11
409.6303846404651
 21
137.1764728464452
 31
0.0
  0
LINE
  5
1126
330
2
100
AcDbEntity
  8
HOJO
 48
0.5
100
AcDbLine
 10
410.0303846404647
 20
134.9764728464451
 30
0.0
 11
410.0303846404647
 21
137.1764728464451
 31
0.0
  0
LINE
  5
1127
330
2
100
AcDbEntity
  8
0
100
AcDbLine
 10
406.4303846404643
 20
134.976472846445
 30
0.0
 11
406.4303846404643
 21
137.1764728464451
 31
0.0
  0
LINE
  5
1128
330
2
100
AcDbEntity
  8
0
100
AcDbLine
 10
389.5303846404647
 20
132.9264728464454
 30
0.0
 11
389.5303846404647
 21
117.4264728464453
 31
0.0
  0
LINE
  5
1129
330
2
100
AcDbEntity
  8
0
100
AcDbLine
 10
399.6803846404643
 20
133.0264728464455
 30
0.0
 11
399.6803846404652
 21
117.3264728464452
 31
0.0
  0
LINE
  5
112A
330
2
100
AcDbEntity
  8
0
100
AcDbLine
 10
398.5303846404647
 20
133.0264728464455
 30
0.0
 11
398.5303846404647
 21
117.3264728464452
 31
0.0
  0
LINE
  5
112B
330
2
100
AcDbEntity
  8
0
100
AcDbLine
 10
329.5303846404647
 20
117.4264728464453
 30
0.0
 11
389.5303846404647
 21
117.4264728464453
 31
0.0
  0
LINE
  5
112C
330
2
100
AcDbEntity
  8
0
100
AcDbLine
 10
389.5303846404647
 20
117.6764728464452
 30
0.0
 11
398.5303846404647
 21
117.6764728464452
 31
0.0
  0
LINE
  5
112D
330
2
100
AcDbEntity
  8
0
100
AcDbLine
 10
389.5303846404647
 20
132.6764728464453
 30
0.0
 11
398.5303846404647
 21
132.6764728464455
 31
0.0
  0
LINE
  5
112E
330
2
100
AcDbEntity
  8
0
100
AcDbLine
 10
386.5303846404647
 20
137.6764728464453
 30
0.0
 11
386.5303846404647
 21
137.1764728464452
 31
0.0
  0
LINE
  5
112F
330
2
100
AcDbEntity
  8
0
100
AcDbLine
 10
308.5303846404647
 20
137.1764728464446
 30
0.0
 11
308.5303846404647
 21
113.1764728464465
 31
0.0
  0
LINE
  5
1130
330
2
100
AcDbEntity
  8
0
100
AcDbLine
 10
321.1349324361533
 20
113.1764728464467
 30
0.0
 11
308.5303846404647
 21
113.1764728464467
 31
0.0
  0
LINE
  5
1131
330
2
100
AcDbEntity
  8
0
100
AcDbLine
 10
316.380384640465
 20
133.0264728464454
 30
0.0
 11
316.380384640465
 21
117.3264728464457
 31
0.0
  0
LINE
  5
1132
330
2
100
AcDbEntity
  8
0
100
AcDbLine
 10
317.5303846404647
 20
133.0264728464455
 30
0.0
 11
317.5303846404647
 21
117.3264728464454
 31
0.0
  0
LINE
  5
1133
330
2
100
AcDbEntity
  8
0
100
AcDbLine
 10
310.5303846404647
 20
132.6764728464455
 30
0.0
 11
310.5303846404647
 21
117.6764728464456
 31
0.0
  0
LINE
  5
1134
330
2
100
AcDbEntity
  8
0
100
AcDbLine
 10
329.5303846404647
 20
132.9264728464454
 30
0.0
 11
329.5303846404647
 21
117.4264728464453
 31
0.0
  0
LINE
  5
1135
330
2
100
AcDbEntity
  8
0
100
AcDbLine
 10
317.5303846404647
 20
117.6764728464455
 30
0.0
 11
329.5303846404647
 21
117.6764728464455
 31
0.0
  0
LINE
  5
1136
330
2
100
AcDbEntity
  8
0
100
AcDbLine
 10
310.5303846404647
 20
117.6764728464456
 30
0.0
 11
316.380384640465
 21
117.6764728464455
 31
0.0
  0
LINE
  5
1137
330
2
100
AcDbEntity
  8
0
100
AcDbLine
 10
310.5303846404647
 20
117.6764728464456
 30
0.0
 11
308.5303846404647
 21
116.5217723080663
 31
0.0
  0
LINE
  5
1138
330
2
100
AcDbEntity
  8
0
100
AcDbLine
 10
321.1349924318735
 20
137.1764728464453
 30
0.0
 11
308.5303846404647
 21
137.1764728464446
 31
0.0
  0
LINE
  5
1139
330
2
100
AcDbEntity
  8
0
100
AcDbLine
 10
317.5303846404647
 20
132.6764728464455
 30
0.0
 11
329.5303846404647
 21
132.6764728464453
 31
0.0
  0
LINE
  5
113A
330
2
100
AcDbEntity
  8
0
100
AcDbLine
 10
310.5303846404647
 20
132.6764728464455
 30
0.0
 11
316.380384640465
 21
132.6764728464455
 31
0.0
  0
LINE
  5
113B
330
2
100
AcDbEntity
  8
0
100
AcDbLine
 10
310.5303846404647
 20
132.6764728464456
 30
0.0
 11
308.5303846404647
 21
133.8311733848248
 31
0.0
  0
LINE
  5
113C
330
2
100
AcDbEntity
  8
0
100
AcDbLine
 10
316.380384640465
 20
133.0264728464454
 30
0.0
 11
317.5303846404647
 21
133.0264728464455
 31
0.0
  0
LINE
  5
113D
330
2
100
AcDbEntity
  8
0
100
AcDbLine
 10
316.380384640465
 20
117.3264728464457
 30
0.0
 11
317.5303846404647
 21
117.3264728464454
 31
0.0
  0
LINE
  5
113E
330
2
100
AcDbEntity
  8
0
100
AcDbLine
 10
398.5303846404647
 20
133.0264728464455
 30
0.0
 11
399.6803846404643
 21
133.0264728464455
 31
0.0
  0
LINE
  5
113F
330
2
100
AcDbEntity
  8
0
100
AcDbLine
 10
398.5303846404647
 20
117.3264728464452
 30
0.0
 11
399.6803846404652
 21
117.3264728464452
 31
0.0
  0
LINE
  5
1140
330
2
100
AcDbEntity
  8
CENTER
100
AcDbLine
 10
348.5303846404615
 20
82.35978292052056
 30
0.0
 11
348.5303846404615
 21
167.9932544733186
 31
0.0
  0
LINE
  5
1141
330
2
100
AcDbEntity
  8
0
100
AcDbLine
 10
386.530384640462
 20
89.69140389655336
 30
0.0
 11
386.530384640462
 21
114.0683307547569
 31
0.0
  0
LINE
  5
1142
330
2
100
AcDbEntity
  8
0
100
AcDbLine
 10
386.5303846404628
 20
136.2847046681359
 30
0.0
 11
386.5303846404628
 21
160.6616334972814
 31
0.0
  0
LINE
  5
1143
330
2
100
AcDbEntity
  8
0
100
AcDbLine
 10
391.5303846404611
 20
95.17651869692434
 30
0.0
 11
391.5303846404611
 21
114.1230922951186
 31
0.0
  0
LINE
  5
1144
330
2
100
AcDbEntity
  8
0
100
AcDbLine
 10
391.5303846404611
 20
136.2299435401251
 30
0.0
 11
391.5303846404611
 21
155.1765186969241
 31
0.0
  0
LINE
  5
1145
330
2
100
AcDbEntity
  8
0
100
AcDbLine
 10
386.530384640461
 20
95.17651869692434
 30
0.0
 11
391.5303846404611
 21
95.17651869692434
 31
0.0
  0
LINE
  5
1146
330
2
100
AcDbEntity
  8
0
100
AcDbLine
 10
386.530384640461
 20
155.1765186969241
 30
0.0
 11
391.5303846404611
 21
155.1765186969241
 31
0.0
  0
LINE
  5
1147
330
2
100
AcDbEntity
  8
0
100
AcDbLine
 10
404.5303846404647
 20
103.107896246527
 30
0.0
 11
404.5303846404647
 21
113.1764728464453
 31
0.0
  0
LINE
  5
1148
330
2
100
AcDbEntity
  8
0
100
AcDbLine
 10
404.5303846404647
 20
137.1764728464453
 30
0.0
 11
404.5303846404647
 21
147.2451411472993
 31
0.0
  0
LINE
  5
1149
330
2
100
AcDbEntity
  8
0
100
AcDbLine
 10
393.4605856470596
 20
100.7899527979442
 30
0.0
 11
402.6001836338698
 21
101.1091145924892
 31
0.0
  0
LINE
  5
114A
330
2
100
AcDbEntity
  8
0
100
AcDbLine
 10
393.4605856470596
 20
149.5630845958812
 30
0.0
 11
402.6001836338698
 21
149.2439228013371
 31
0.0
  0
ARC
  5
114B
330
2
100
AcDbEntity
  8
0
100
AcDbCircle
 10
402.5303846404646
 20
103.107896246527
 30
0.0
 40
2.0
100
AcDbArc
 50
272.0000000000036
 51
0.0
  0
ARC
  5
114C
330
2
100
AcDbEntity
  8
0
100
AcDbCircle
 10
402.5303846404646
 20
147.2451411472993
 30
0.0
 40
2.0
100
AcDbArc
 50
0.0
 51
87.99999999999636
  0
ARC
  5
114D
330
2
100
AcDbEntity
  8
0
100
AcDbCircle
 10
393.5303846404647
 20
151.561866249919
 30
0.0
 40
2.0
100
AcDbArc
 50
180.0
 51
267.9999999999963
  0
ARC
  5
114E
330
2
100
AcDbEntity
  8
0
100
AcDbCircle
 10
393.5303846404647
 20
98.79117114390641
 30
0.0
 40
2.0
100
AcDbArc
 50
92.00000000000365
 51
180.0
  0
LINE
  5
114F
330
2
100
AcDbEntity
  8
0
100
AcDbLine
 10
327.5303846401663
 20
161.1765186969207
 30
0.0
 11
386.5303846404628
 21
160.6616334972814
 31
0.0
  0
LINE
  5
1150
330
2
100
AcDbEntity
  8
0
100
AcDbLine
 10
327.5303846401663
 20
89.17651869692093
 30
0.0
 11
386.530384640462
 21
89.69140389655336
 31
0.0
  0
LINE
  5
1151
330
2
100
AcDbEntity
  8
0
100
AcDbLine
 10
327.5303846401663
 20
161.1721552630079
 30
0.0
 11
327.5303846401663
 21
136.3567107843197
 31
0.0
  0
LINE
  5
1152
330
2
100
AcDbEntity
  8
0
100
AcDbLine
 10
327.5303846401663
 20
113.9963204599456
 30
0.0
 11
327.5303846401663
 21
89.18088213084088
 31
0.0
  0
LINE
  5
1153
330
2
100
AcDbEntity
  8
0
100
AcDbLine
 10
319.0303846401663
 20
99.6765186969214
 30
0.0
 11
318.5303846401664
 21
100.1765186969209
 31
0.0
  0
LINE
  5
1154
330
2
100
AcDbEntity
  8
0
100
AcDbLine
 10
319.0303846401609
 20
99.67651869692639
 30
0.0
 11
319.0303846401609
 21
98.42651869692947
 31
0.0
  0
LINE
  5
1155
330
2
100
AcDbEntity
  8
0
100
AcDbLine
 10
318.5303846401673
 20
106.176518696922
 30
0.0
 11
311.5303846401664
 21
106.176518696922
 31
0.0
  0
LINE
  5
1156
330
2
100
AcDbEntity
  8
0
100
AcDbLine
 10
313.2303846401662
 20
102.8765186969202
 30
0.0
 11
314.8303846401656
 21
102.8765186969205
 31
0.0
  0
LINE
  5
1157
330
2
100
AcDbEntity
  8
0
100
AcDbLine
 10
315.0303846401663
 20
102.3765186969205
 30
0.0
 11
315.2303846401662
 21
102.1765186969204
 31
0.0
  0
LINE
  5
1158
330
2
100
AcDbEntity
  8
0
100
AcDbLine
 10
318.5303846401609
 20
150.1765186969154
 30
0.0
 11
318.5303846401618
 21
145.0811560175494
 31
0.0
  0
LINE
  5
1159
330
2
100
AcDbEntity
  8
0
100
AcDbLine
 10
318.5303846401664
 20
105.2718737560169
 30
0.0
 11
318.5303846401664
 21
100.1765186969209
 31
0.0
  0
LINE
  5
115A
330
2
100
AcDbEntity
  8
0
100
AcDbLine
 10
315.2303846401662
 20
102.1765186969204
 30
0.0
 11
318.5303846401664
 21
102.1765186969209
 31
0.0
  0
LINE
  5
115B
330
2
100
AcDbEntity
  8
0
100
AcDbLine
 10
315.0303846401663
 20
102.3765186969205
 30
0.0
 11
315.0303846401663
 21
105.0165037151447
 31
0.0
  0
LINE
  5
115C
330
2
100
AcDbEntity
  8
0
100
AcDbLine
 10
315.0303846401663
 20
145.3365265078365
 30
0.0
 11
315.0303846401663
 21
147.9765186969215
 31
0.0
  0
LINE
  5
115D
330
2
100
AcDbEntity
  8
0
100
AcDbLine
 10
311.5303846401664
 20
102.17651869692
 30
0.0
 11
310.5303846401664
 21
102.7538689661097
 31
0.0
  0
LINE
  5
115E
330
2
100
AcDbEntity
  8
0
100
AcDbLine
 10
311.5303846401664
 20
102.17651869692
 30
0.0
 11
312.8303846401657
 21
102.1765186969204
 31
0.0
  0
LINE
  5
115F
330
2
100
AcDbEntity
  8
0
100
AcDbLine
 10
313.0303846401663
 20
102.3765186969203
 30
0.0
 11
313.0303846401682
 21
104.75502310696
 31
0.0
  0
LINE
  5
1160
330
2
100
AcDbEntity
  8
0
100
AcDbLine
 10
313.0303846402155
 20
145.5980063572629
 30
0.0
 11
313.0303846402173
 21
147.9765186969215
 31
0.0
  0
LINE
  5
1161
330
2
100
AcDbEntity
  8
0
100
AcDbLine
 10
311.5303846401664
 20
106.176518696922
 30
0.0
 11
310.5303846401664
 21
105.5991684277323
 31
0.0
  0
LINE
  5
1162
330
2
100
AcDbEntity
  8
0
100
AcDbLine
 10
311.5303846401664
 20
144.1765186969222
 30
0.0
 11
311.5303846401664
 21
137.1764728464448
 31
0.0
  0
LINE
  5
1163
330
2
100
AcDbEntity
  8
0
100
AcDbLine
 10
311.5303846401664
 20
113.1764728464467
 30
0.0
 11
311.5303846401664
 21
106.176518696922
 31
0.0
  0
LINE
  5
1164
330
2
100
AcDbEntity
  8
0
100
AcDbLine
 10
310.5303846401664
 20
147.5991684277327
 30
0.0
 11
310.5303846401673
 21
137.1764728464447
 31
0.0
  0
LINE
  5
1165
330
2
100
AcDbEntity
  8
0
100
AcDbLine
 10
310.5303846401673
 20
125.1765149151847
 30
0.0
 11
310.5303846401682
 21
117.6764728464456
 31
0.0
  0
LINE
  5
1166
330
2
100
AcDbEntity
  8
0
100
AcDbLine
 10
310.5303846401673
 20
113.1764728464467
 30
0.0
 11
310.5303846401682
 21
102.7538689661088
 31
0.0
  0
LINE
  5
1167
330
2
100
AcDbEntity
  8
0
100
AcDbLine
 10
318.5303846401673
 20
144.1765186969209
 30
0.0
 11
311.5303846401646
 21
144.1765186969204
 31
0.0
  0
LINE
  5
1168
330
2
100
AcDbEntity
  8
0
100
AcDbLine
 10
313.2303846401662
 20
147.4765186969217
 30
0.0
 11
314.8303846401656
 21
147.4765186969215
 31
0.0
  0
LINE
  5
1169
330
2
100
AcDbEntity
  8
0
100
AcDbLine
 10
315.0303846401663
 20
147.9765186969215
 30
0.0
 11
315.2303846401662
 21
148.1765186969216
 31
0.0
  0
LINE
  5
116A
330
2
100
AcDbEntity
  8
0
100
AcDbLine
 10
315.2303846401662
 20
148.1765186969216
 30
0.0
 11
318.5303846401664
 21
148.1765186969211
 31
0.0
  0
LINE
  5
116B
330
2
100
AcDbEntity
  8
0
100
AcDbLine
 10
311.5303846401664
 20
144.1765186969195
 30
0.0
 11
310.5303846401664
 21
144.7538689661091
 31
0.0
  0
LINE
  5
116C
330
2
100
AcDbEntity
  8
0
100
AcDbLine
 10
311.5303846401664
 20
148.1765186969218
 30
0.0
 11
310.5303846401664
 21
147.5991684277323
 31
0.0
  0
LINE
  5
116D
330
2
100
AcDbEntity
  8
0
100
AcDbLine
 10
311.5303846401664
 20
148.1765186969218
 30
0.0
 11
312.8303846401657
 21
148.1765186969218
 31
0.0
  0
LINE
  5
116E
330
2
100
AcDbEntity
  8
HIDS
  6
SEKKEI_H
100
AcDbLine
 10
319.6161710777885
 20
156.262305134548
 30
0.0
 11
320.4445982025343
 21
157.0907322592942
 31
0.0
  0
LINE
  5
116F
330
2
100
AcDbEntity
  8
0
100
AcDbLine
 10
327.5303846401663
 20
161.1765186969209
 30
0.0
 11
322.0303846401618
 21
161.1765186969209
 31
0.0
  0
LINE
  5
1170
330
2
100
AcDbEntity
  8
0
100
AcDbLine
 10
327.5303846401663
 20
161.1765186969207
 30
0.0
 11
327.5303846401663
 21
136.3567107843197
 31
0.0
  0
LINE
  5
1171
330
2
100
AcDbEntity
  8
0
100
AcDbLine
 10
327.5303846401663
 20
113.9963204599458
 30
0.0
 11
327.5303846401663
 21
89.17651869692093
 31
0.0
  0
LINE
  5
1172
330
2
100
AcDbEntity
  8
0
100
AcDbLine
 10
319.0303846401663
 20
150.6765186969207
 30
0.0
 11
318.5303846401609
 21
150.1765186969154
 31
0.0
  0
ARC
  5
1173
330
2
100
AcDbEntity
  8
0
100
AcDbCircle
 10
322.0303846401609
 20
160.1765186969209
 30
0.0
 40
1.0
100
AcDbArc
 50
180.0
 51
180.0
  0
ARC
  5
1174
330
2
100
AcDbEntity
  8
HIDS
  6
SEKKEI_H
100
AcDbCircle
 10
321.0303846401609
 20
154.8480915721749
 30
0.0
 40
2.0
100
AcDbArc
 50
135.0000000000069
 51
180.0
  0
ARC
  5
1175
330
2
100
AcDbEntity
  8
HIDS
  6
SEKKEI_H
100
AcDbCircle
 10
319.0303846401609
 20
158.5049458216673
 30
0.0
 40
2.0
100
AcDbArc
 50
315.0000000000069
 51
0.0
  0
ARC
  5
1176
330
2
100
AcDbEntity
  8
0
100
AcDbCircle
 10
312.8303846401657
 20
147.9765186969215
 30
0.0
 40
0.2
100
AcDbArc
 50
359.9999999999348
 51
90.0
  0
ARC
  5
1177
330
2
100
AcDbEntity
  8
0
100
AcDbCircle
 10
313.2303846401662
 20
147.6765186969218
 30
0.0
 40
0.2
100
AcDbArc
 50
180.0000000000651
 51
270.0
  0
ARC
  5
1178
330
2
100
AcDbEntity
  8
0
100
AcDbCircle
 10
314.8303846401656
 20
147.6765186969216
 30
0.0
 40
0.2
100
AcDbArc
 50
270.0
 51
0.0
  0
ARC
  5
1179
330
2
100
AcDbEntity
  8
0
100
AcDbCircle
 10
312.8303846401657
 20
102.3765186969203
 30
0.0
 40
0.2
100
AcDbArc
 50
270.0
 51
359.9999999999348
  0
ARC
  5
117A
330
2
100
AcDbEntity
  8
0
100
AcDbCircle
 10
313.2303846401662
 20
102.6765186969202
 30
0.0
 40
0.2
100
AcDbArc
 50
90.0
 51
179.9999999999348
  0
ARC
  5
117B
330
2
100
AcDbEntity
  8
0
100
AcDbCircle
 10
314.8303846401656
 20
102.6765186969204
 30
0.0
 40
0.2
100
AcDbArc
 50
0.0
 51
90.0
  0
LINE
  5
117C
330
2
100
AcDbEntity
  8
HIDS
  6
SEKKEI_H
100
AcDbLine
 10
319.6161710777885
 20
94.09073225929381
 30
0.0
 11
320.4445982025351
 21
93.2623051345476
 31
0.0
  0
LINE
  5
117D
330
2
100
AcDbEntity
  8
0
100
AcDbLine
 10
327.5303846401663
 20
89.17651869692093
 30
0.0
 11
322.0303846401618
 21
89.17651869692093
 31
0.0
  0
LINE
  5
117E
330
2
100
AcDbEntity
  8
0
100
AcDbLine
 10
321.0303846401618
 20
160.4265186969122
 30
0.0
 11
321.0303846401618
 21
137.3294042443419
 31
0.0
  0
LINE
  5
117F
330
2
100
AcDbEntity
  8
0
100
AcDbLine
 10
321.0303846401618
 20
113.0236249954792
 30
0.0
 11
321.0303846401618
 21
89.92651869692947
 31
0.0
  0
ARC
  5
1180
330
2
100
AcDbEntity
  8
0
100
AcDbCircle
 10
322.0303846401618
 20
160.1765186969209
 30
0.0
 40
1.0
100
AcDbArc
 50
90.0
 51
180.0
  0
LINE
  5
1181
330
2
100
AcDbEntity
  8
0
100
AcDbLine
 10
319.0303846401618
 20
151.9265186969124
 30
0.0
 11
319.0303846401618
 21
144.7957074089208
 31
0.0
  0
LINE
  5
1182
330
2
100
AcDbEntity
  8
0
100
AcDbLine
 10
319.0303846401618
 20
105.557322002136
 30
0.0
 11
319.0303846401618
 21
98.42651869692947
 31
0.0
  0
ARC
  5
1183
330
2
100
AcDbEntity
  8
0
100
AcDbCircle
 10
322.0303846401618
 20
90.17651869692093
 30
0.0
 40
1.0
100
AcDbArc
 50
180.0
 51
270.0
  0
ARC
  5
1184
330
2
100
AcDbEntity
  8
HIDS
  6
SEKKEI_H
100
AcDbCircle
 10
321.0303846401618
 20
95.50494582166692
 30
0.0
 40
2.0
100
AcDbArc
 50
180.0
 51
224.999999999993
  0
ARC
  5
1185
330
2
100
AcDbEntity
  8
HIDS
  6
SEKKEI_H
100
AcDbCircle
 10
319.0303846401618
 20
91.84809157217449
 30
0.0
 40
2.0
100
AcDbArc
 50
0.0
 51
44.99999999999309
  0
LINE
  5
1186
330
2
100
AcDbEntity
  8
0
100
AcDbLine
 10
386.5303846404628
 20
153.1765186969343
 30
0.0
 11
327.5303846401663
 21
153.1765186969343
 31
0.0
  0
LINE
  5
1187
330
2
100
AcDbEntity
  8
0
100
AcDbLine
 10
386.5303846404628
 20
156.1765186969125
 30
0.0
 11
327.5303846401663
 21
156.1765186969125
 31
0.0
  0
LINE
  5
1188
330
2
100
AcDbEntity
  8
0
100
AcDbLine
 10
386.5303846404628
 20
141.7041142169172
 30
0.0
 11
327.5303846401663
 21
141.7041142169172
 31
0.0
  0
LINE
  5
1189
330
2
100
AcDbEntity
  8
0
100
AcDbLine
 10
327.5303846401663
 20
153.1765186969343
 30
0.0
 11
322.0303846401618
 21
153.1765186969342
 31
0.0
  0
LINE
  5
118A
330
2
100
AcDbEntity
  8
0
100
AcDbLine
 10
327.5303846401663
 20
141.7041142169172
 30
0.0
 11
322.0303846401618
 21
141.7041142169171
 31
0.0
  0
LINE
  5
118B
330
2
100
AcDbEntity
  8
0
100
AcDbLine
 10
327.5303846401663
 20
94.17651869692935
 30
0.0
 11
322.0303846401618
 21
94.17651869690343
 31
0.0
  0
LINE
  5
118C
330
2
100
AcDbEntity
  8
0
100
AcDbLine
 10
327.5303846401663
 20
97.17651869690753
 30
0.0
 11
322.0303846401618
 21
97.17651869690762
 31
0.0
  0
LINE
  5
118D
330
2
100
AcDbEntity
  8
0
100
AcDbLine
 10
327.5303846401663
 20
108.6489231769246
 30
0.0
 11
322.0303846401618
 21
108.6489231769246
 31
0.0
  0
LINE
  5
118E
330
2
100
AcDbEntity
  8
0
100
AcDbLine
 10
386.5303846404628
 20
97.17651869690753
 30
0.0
 11
327.5303846401663
 21
97.17651869690753
 31
0.0
  0
LINE
  5
118F
330
2
100
AcDbEntity
  8
0
100
AcDbLine
 10
386.5303846404628
 20
94.17651869692935
 30
0.0
 11
327.5303846401663
 21
94.17651869692935
 31
0.0
  0
LINE
  5
1190
330
2
100
AcDbEntity
  8
0
100
AcDbLine
 10
386.5303846404628
 20
108.6489231769246
 30
0.0
 11
327.5303846401663
 21
108.6489231769246
 31
0.0
  0
LINE
  5
1191
330
2
100
AcDbEntity
  8
CENTER
  6
CENS
100
AcDbLine
 10
311.7303846401662
 20
156.1765186969384
 30
0.0
 11
331.2790861207629
 21
156.1765186969384
 31
0.0
  0
LINE
  5
1192
330
2
100
AcDbEntity
  8
0
100
AcDbLine
 10
315.0303846401663
 20
160.4265186969124
 30
0.0
 11
321.0303846401618
 21
160.4265186969122
 31
0.0
  0
LINE
  5
1193
330
2
100
AcDbEntity
  8
0
100
AcDbLine
 10
315.0303846401663
 20
151.9265186969124
 30
0.0
 11
321.0303846401663
 21
151.9265186969124
 31
0.0
  0
LINE
  5
1194
330
2
100
AcDbEntity
  8
0
100
AcDbLine
 10
319.7303846401662
 20
151.9265186969124
 30
0.0
 11
319.7303846401662
 21
160.4265186969124
 31
0.0
  0
LINE
  5
1195
330
2
100
AcDbEntity
  8
0
100
AcDbLine
 10
315.0303846401663
 20
151.9265186969124
 30
0.0
 11
315.0303846401663
 21
160.4265186969124
 31
0.0
  0
LINE
  5
1196
330
2
100
AcDbEntity
  8
0
100
AcDbLine
 10
315.0303846401663
 20
151.9265186969124
 30
0.0
 11
314.7303846401662
 21
152.4461339391828
 31
0.0
  0
LINE
  5
1197
330
2
100
AcDbEntity
  8
0
100
AcDbLine
 10
315.0303846401663
 20
160.4265186969124
 30
0.0
 11
314.7303846401662
 21
159.9069034546415
 31
0.0
  0
LINE
  5
1198
330
2
100
AcDbEntity
  8
0
100
AcDbLine
 10
314.7303846401662
 20
152.4461339391828
 30
0.0
 11
314.7303846401662
 21
159.9069034546415
 31
0.0
  0
LINE
  5
1199
330
2
100
AcDbEntity
  8
HIDS
  6
SEKKEI_H
100
AcDbLine
 10
319.0303846401609
 20
154.8480915721749
 30
0.0
 11
319.0303846401618
 21
151.9265186969124
 31
0.0
  0
LINE
  5
119A
330
2
100
AcDbEntity
  8
CENTER
  6
CENS
100
AcDbLine
 10
311.7303846401662
 20
94.17651869690343
 30
0.0
 11
331.2790861207629
 21
94.17651869690343
 31
0.0
  0
LINE
  5
119B
330
2
100
AcDbEntity
  8
0
100
AcDbLine
 10
315.0303846401663
 20
89.92651869692947
 30
0.0
 11
321.0303846401618
 21
89.92651869692947
 31
0.0
  0
LINE
  5
119C
330
2
100
AcDbEntity
  8
0
100
AcDbLine
 10
315.0303846401663
 20
98.42651869692947
 30
0.0
 11
321.0303846401663
 21
98.42651869692947
 31
0.0
  0
LINE
  5
119D
330
2
100
AcDbEntity
  8
0
100
AcDbLine
 10
319.7303846401662
 20
98.42651869692947
 30
0.0
 11
319.7303846401662
 21
89.92651869692947
 31
0.0
  0
LINE
  5
119E
330
2
100
AcDbEntity
  8
0
100
AcDbLine
 10
315.0303846401663
 20
98.42651869692947
 30
0.0
 11
315.0303846401663
 21
89.92651869692947
 31
0.0
  0
LINE
  5
119F
330
2
100
AcDbEntity
  8
0
100
AcDbLine
 10
315.0303846401663
 20
98.42651869692947
 30
0.0
 11
314.7303846401662
 21
97.90690345465902
 31
0.0
  0
LINE
  5
11A0
330
2
100
AcDbEntity
  8
0
100
AcDbLine
 10
315.0303846401663
 20
89.92651869692947
 30
0.0
 11
314.7303846401662
 21
90.44613393920036
 31
0.0
  0
LINE
  5
11A1
330
2
100
AcDbEntity
  8
0
100
AcDbLine
 10
314.7303846401662
 20
97.90690345465902
 30
0.0
 11
314.7303846401662
 21
90.44613393920036
 31
0.0
  0
LINE
  5
11A2
330
2
100
AcDbEntity
  8
HIDS
  6
SEKKEI_H
100
AcDbLine
 10
319.0303846401618
 20
98.42651869692947
 30
0.0
 11
319.0303846401618
 21
95.50494582166692
 31
0.0
  0
LINE
  5
11A3
330
2
100
AcDbEntity
  8
0
100
AcDbLine
 10
394.7374427181228
 20
104.8914277124278
 30
0.0
 11
395.5303846404646
 21
104.9121916274152
 31
0.0
  0
LINE
  5
11A4
330
2
100
AcDbEntity
  8
0
100
AcDbLine
 10
403.5303846404647
 20
106.1765183332926
 30
0.0
 11
403.5303846404647
 21
113.1764728464453
 31
0.0
  0
LINE
  5
11A5
330
2
100
AcDbEntity
  8
0
100
AcDbLine
 10
396.5303846404647
 20
106.1765183332929
 30
0.0
 11
396.5303846404647
 21
113.1764728464456
 31
0.0
  0
LINE
  5
11A6
330
2
100
AcDbEntity
  8
0
100
AcDbLine
 10
403.5303846404647
 20
137.1764728464453
 30
0.0
 11
403.5303846404647
 21
144.1765183332983
 31
0.0
  0
LINE
  5
11A7
330
2
100
AcDbEntity
  8
0
100
AcDbLine
 10
396.5303846404647
 20
137.1764728464453
 30
0.0
 11
396.5303846404647
 21
144.1765183332983
 31
0.0
  0
LINE
  5
11A8
330
2
100
AcDbEntity
  8
0
100
AcDbLine
 10
403.5303846404647
 20
106.1765183332926
 30
0.0
 11
404.5303846404647
 21
105.5991680641031
 31
0.0
  0
LINE
  5
11A9
330
2
100
AcDbEntity
  8
0
100
AcDbLine
 10
403.5303846404647
 20
106.1765183332926
 30
0.0
 11
395.5303846404646
 21
106.1765183332926
 31
0.0
  0
LINE
  5
11AA
330
2
100
AcDbEntity
  8
0
100
AcDbLine
 10
394.7374420201665
 20
145.4616089724341
 30
0.0
 11
395.5303846404646
 21
145.4408450391701
 31
0.0
  0
LINE
  5
11AB
330
2
100
AcDbEntity
  8
0
100
AcDbLine
 10
403.5303846404611
 20
144.176518333294
 30
0.0
 11
404.530384640461
 21
144.7538686024838
 31
0.0
  0
LINE
  5
11AC
330
2
100
AcDbEntity
  8
0
100
AcDbLine
 10
403.5303846404647
 20
144.1765183332983
 30
0.0
 11
395.5303846404646
 21
144.1765183332983
 31
0.0
  0
LINE
  5
11AD
330
2
100
AcDbEntity
  8
0
100
AcDbLine
 10
395.5303846404646
 20
104.9121916274152
 30
0.0
 11
395.5303846404646
 21
113.1764728464453
 31
0.0
  0
LINE
  5
11AE
330
2
100
AcDbEntity
  8
0
100
AcDbLine
 10
395.5303846404646
 20
137.1764728464453
 30
0.0
 11
395.5303846404646
 21
145.4408450391701
 31
0.0
  0
SPLINE
  5
11AF
330
2
100
AcDbEntity
  8
HOJO
100
AcDbSpline
210
0.0
220
0.0
230
1.0
 70
     8
 71
     3
 72
    30
 73
    26
 74
     0
 42
0.0000000001
 43
0.0000000001
 40
0.5291151004632872
 40
0.5291151004632872
 40
0.5291151004632872
 40
0.5291151004632872
 40
1.956980023701299
 40
3.920474213777056
 40
6.804369916569926
 40
9.380599442303543
 40
11.64706261606478
 40
15.15450673012081
 40
18.33471389219206
 40
26.46123268957957
 40
33.84164654509357
 40
41.3139759608263
 40
50.08265962234144
 40
58.74767557572532
 40
65.64019968405365
 40
71.01864943212631
 40
79.37389829637055
 40
85.78834280733275
 40
89.35324359450742
 40
92.71679100073518
 40
95.51361072944564
 40
99.08107367810877
 40
102.5976528199299
 40
106.2025269131245
 40
108.7188069452504
 40
108.7188069452504
 40
108.7188069452504
 40
108.7188069452504
 10
310.5303846401664
 20
146.7352211278898
 30
0.0
 10
310.9619696876968
 20
146.5401142101679
 30
0.0
 10
311.9887303384036
 20
146.0703598399385
 30
0.0
 10
313.9161125758307
 20
145.0979108154892
 30
0.0
 10
316.4038325010394
 20
145.5667093202026
 30
0.0
 10
319.1585813899807
 20
145.1815343391911
 30
0.0
 10
320.73380615173
 20
142.4705595702129
 30
0.0
 10
319.8148419977058
 20
139.5060581016257
 30
0.0
 10
322.3804132553684
 20
134.3028149770945
 30
0.0
 10
329.9366868516724
 20
137.8922701330632
 30
0.0
 10
337.1520202235658
 20
135.4575653375273
 30
0.0
 10
345.1121139583071
 20
137.299050802815
 30
0.0
 10
353.3767199249603
 20
135.7654767645781
 30
0.0
 10
361.4963064921409
 20
137.6944009271866
 30
0.0
 10
368.4125943033511
 20
135.1286255154463
 30
0.0
 10
375.1404706568544
 20
137.6988222540816
 30
0.0
 10
381.9764303112731
 20
135.2789360712872
 30
0.0
 10
387.7215794418978
 20
136.7614983444118
 30
0.0
 10
392.8853230115535
 20
135.6923533525627
 30
0.0
 10
394.0600968531641
 20
139.6432919456214
 30
0.0
 10
393.0956798832601
 20
142.6291932024537
 30
0.0
 10
394.6262453319839
 20
146.3451707372077
 30
0.0
 10
398.5920948453101
 20
146.3916950501913
 30
0.0
 10
401.7446694576035
 20
146.0436439769438
 30
0.0
 10
403.7100135022044
 20
146.7357537385773
 30
0.0
 10
404.5303846404701
 20
146.9257923888246
 30
0.0
  0
LINE
  5
11B0
330
2
100
AcDbEntity
  8
0
100
AcDbLine
 10
318.5303846401673
 20
145.0717750106431
 30
0.0
 11
318.5303846401673
 21
137.1764728464451
 31
0.0
  0
SPLINE
  5
11B1
330
2
100
AcDbEntity
  8
HOJO
100
AcDbSpline
210
0.0
220
0.0
230
1.0
 70
     8
 71
     3
 72
    30
 73
    26
 74
     0
 42
0.0000000001
 43
0.0000000001
 40
0.5291151004632872
 40
0.5291151004632872
 40
0.5291151004632872
 40
0.5291151004632872
 40
1.956980023701299
 40
3.920474213777056
 40
6.804369916569926
 40
9.380599442303543
 40
11.64706261606478
 40
15.15450673012081
 40
18.33471389219206
 40
26.46123268957957
 40
33.84164654509357
 40
41.3139759608263
 40
50.08265962234144
 40
58.74767557572532
 40
65.64019968405365
 40
71.01864943212631
 40
79.37389829637055
 40
85.78834280733275
 40
89.35324359450742
 40
92.71679100073518
 40
95.51361072944564
 40
99.08107367810877
 40
102.5976528199299
 40
106.2025269131245
 40
108.7188069452504
 40
108.7188069452504
 40
108.7188069452504
 40
108.7188069452504
 10
310.5303862080379
 20
103.6178087024796
 30
0.0
 10
310.9619712413794
 20
103.8129156515887
 30
0.0
 10
311.9887318579228
 20
104.2826700964901
 30
0.0
 10
313.9161140246276
 20
105.2551192611096
 30
0.0
 10
316.4038339839305
 20
104.7863209373173
 30
0.0
 10
319.1585828448594
 20
105.1714961186698
 30
0.0
 10
320.7338074094511
 20
107.8824710022074
 30
0.0
 10
319.8148430398312
 20
110.8469724039623
 30
0.0
 10
322.3804139190849
 20
116.0502157150764
 30
0.0
 10
329.9366877764339
 20
112.460761108643
 30
0.0
 10
337.1520209712623
 20
114.895466428919
 30
0.0
 10
345.1121148399268
 20
113.0539815425346
 30
0.0
 10
353.3767206950494
 20
114.5875561818208
 30
0.0
 10
361.4963074025133
 20
112.6586326097148
 30
0.0
 10
368.4125950271252
 20
115.2244085244471
 30
0.0
 10
375.1404715675478
 20
112.6542122751013
 30
0.0
 10
381.9764310459784
 20
115.0740989550457
 30
0.0
 10
387.7215802844236
 20
113.591537099741
 30
0.0
 10
392.8853237763248
 20
114.6606824671269
 30
0.0
 10
394.0600979052694
 20
110.7097439595044
 30
0.0
 10
393.0956811525172
 20
107.7238426325342
 30
0.0
 10
394.6262468714883
 20
104.0078652090916
 30
0.0
 10
398.5920963881988
 20
103.9613411845273
 30
0.0
 10
401.74467097518
 20
104.3093924870478
 30
0.0
 10
403.7100150701141
 20
103.6172828683455
 30
0.0
 10
404.5303862222006
 20
103.4272442777602
 30
0.0
  0
LINE
  5
11B2
330
2
100
AcDbEntity
  8
0
100
AcDbLine
 10
318.5303846401673
 20
144.1765186969209
 30
0.0
 11
311.5303846401664
 21
137.1764728464448
 31
0.0
  0
LINE
  5
11B3
330
2
100
AcDbEntity
  8
0
100
AcDbLine
 10
311.5303846401646
 20
144.1765186969204
 30
0.0
 11
318.5303846401673
 21
137.1764728464451
 31
0.0
  0
LINE
  5
11B4
330
2
100
AcDbEntity
  8
0
100
AcDbLine
 10
318.5303846401673
 20
105.2812542530135
 30
0.0
 11
318.5303846401673
 21
113.1765564172114
 31
0.0
  0
LINE
  5
11B5
330
2
100
AcDbEntity
  8
0
100
AcDbLine
 10
311.5303846401664
 20
113.1764728464467
 30
0.0
 11
318.5303846401673
 21
106.176518696922
 31
0.0
  0
LINE
  5
11B6
330
2
100
AcDbEntity
  8
0
100
AcDbLine
 10
318.5303846401673
 20
113.1764728464467
 30
0.0
 11
311.5303846401664
 21
106.176518696922
 31
0.0
  0
LINE
  5
11B7
330
2
100
AcDbEntity
  8
0
100
AcDbLine
 10
396.5303846404647
 20
113.1764728464456
 30
0.0
 11
403.5303846404647
 21
106.1765183332926
 31
0.0
  0
LINE
  5
11B8
330
2
100
AcDbEntity
  8
0
100
AcDbLine
 10
396.5303846404647
 20
106.1765183332929
 30
0.0
 11
403.5303846404647
 21
113.1764728464453
 31
0.0
  0
LINE
  5
11B9
330
2
100
AcDbEntity
  8
0
100
AcDbLine
 10
396.5303846404647
 20
144.1765183332983
 30
0.0
 11
403.5303846404647
 21
137.1764728464453
 31
0.0
  0
LINE
  5
11BA
330
2
100
AcDbEntity
  8
0
100
AcDbLine
 10
396.5303846404647
 20
137.1764728464453
 30
0.0
 11
403.5303846404611
 21
144.176518333294
 31
0.0
  0
LINE
  5
11BB
330
2
100
AcDbEntity
  8
0
100
AcDbLine
 10
393.1012500524254
 20
304.0558721116096
 30
0.0
 11
393.1012500524254
 21
280.0558721116096
 31
0.0
  0
LINE
  5
11BC
330
2
100
AcDbEntity
  8
0
100
AcDbLine
 10
393.1012500524254
 20
304.0558721116096
 30
0.0
 11
393.1012500524254
 21
280.0558721116098
 31
0.0
  0
LINE
  5
11BD
330
2
100
AcDbEntity
  8
0
100
AcDbLine
 10
383.1012500524254
 20
280.0558721116096
 30
0.0
 11
393.1012500524254
 21
280.0558721116096
 31
0.0
  0
LINE
  5
11BE
330
2
100
AcDbEntity
  8
0
100
AcDbLine
 10
383.1012500524254
 20
280.0558721116096
 30
0.0
 11
393.1012500524254
 21
280.0558721116096
 31
0.0
  0
LINE
  5
11BF
330
2
100
AcDbEntity
  8
0
100
AcDbLine
 10
383.1012500524254
 20
304.0558721116096
 30
0.0
 11
393.1012500524254
 21
304.0558721116096
 31
0.0
  0
LINE
  5
11C0
330
2
100
AcDbEntity
  8
0
100
AcDbLine
 10
383.1012500524254
 20
304.0558721116096
 30
0.0
 11
393.1012500524254
 21
304.0558721116096
 31
0.0
  0
LINE
  5
11C1
330
2
100
AcDbEntity
  8
0
100
AcDbLine
 10
287.1012500524254
 20
304.0558721116087
 30
0.0
 11
287.1012500524254
 21
280.0558721116107
 31
0.0
  0
LINE
  5
11C2
330
2
100
AcDbEntity
  8
0
100
AcDbLine
 10
289.101250052129
 20
280.0558721116109
 30
0.0
 11
287.1012500524254
 21
280.0558721116109
 31
0.0
  0
LINE
  5
11C3
330
2
100
AcDbEntity
  8
0
100
AcDbLine
 10
289.1012500521271
 20
304.0558721116089
 30
0.0
 11
287.1012500524254
 21
304.0558721116087
 31
0.0
  0
LINE
  5
11C4
330
2
100
AcDbEntity
  8
CENTER
100
AcDbLine
 10
386.6012500524245
 20
297.0641228420524
 30
0.0
 11
386.6012500524245
 21
287.0477082822223
 31
0.0
  0
ARC
  5
11C5
330
2
100
AcDbEntity
  8
0
100
AcDbCircle
 10
482.5085205570792
 20
292.0559155621537
 30
0.0
 40
7.5
100
AcDbArc
 50
109.4684732313215
 51
70.52603191574333
  0
LINE
  5
11C6
330
2
100
AcDbEntity
  8
0
100
AcDbLine
 10
480.0088596263601
 20
301.8559155621534
 30
0.0
 11
485.0088596263601
 21
301.8559155621534
 31
0.0
  0
LINE
  5
11C7
330
2
100
AcDbEntity
  8
0
100
AcDbLine
 10
485.0088596263601
 20
299.1268634857794
 30
0.0
 11
485.0088596263601
 21
301.8559155621537
 31
0.0
  0
LINE
  5
11C8
330
2
100
AcDbEntity
  8
0
100
AcDbLine
 10
480.0088596263601
 20
299.1271032439673
 30
0.0
 11
480.0088596263601
 21
301.8559155621534
 31
0.0
  0
ARC
  5
11C9
330
2
100
AcDbEntity
  8
0
100
AcDbCircle
 10
482.5085205619187
 20
292.0559155621537
 30
0.0
 40
8.558018947192636
100
AcDbArc
 50
106.9827670368296
 51
73.01248583569116
  0
CIRCLE
  5
11CA
330
2
100
AcDbEntity
  8
0
100
AcDbCircle
 10
482.5085205619187
 20
292.0559155621537
 30
0.0
 40
11.99995654945598
  0
ARC
  5
11CB
330
2
100
AcDbEntity
  8
0
100
AcDbCircle
 10
183.7439131593925
 20
292.0559155621537
 30
0.0
 40
7.5
100
AcDbArc
 50
109.4684732313215
 51
70.52603191574333
  0
LINE
  5
11CC
330
2
100
AcDbEntity
  8
0
100
AcDbLine
 10
181.2442522286735
 20
301.8559155621539
 30
0.0
 11
186.2442522286735
 21
301.8559155621539
 31
0.0
  0
LINE
  5
11CD
330
2
100
AcDbEntity
  8
0
100
AcDbLine
 10
186.2442522286735
 20
299.1268634857796
 30
0.0
 11
186.2442522286735
 21
301.8559155621539
 31
0.0
  0
LINE
  5
11CE
330
2
100
AcDbEntity
  8
0
100
AcDbLine
 10
181.2442522286735
 20
299.1271032439678
 30
0.0
 11
181.2442522286735
 21
301.8559155621539
 31
0.0
  0
ARC
  5
11CF
330
2
100
AcDbEntity
  8
0
100
AcDbCircle
 10
183.743913164232
 20
292.0559155621537
 30
0.0
 40
8.558018947192636
100
AcDbArc
 50
106.9827670368296
 51
73.01248583569116
  0
CIRCLE
  5
11D0
330
2
100
AcDbEntity
  8
0
100
AcDbCircle
 10
183.743913164232
 20
292.0559155621537
 30
0.0
 40
11.99995654945598
  0
CIRCLE
  5
11D1
330
2
100
AcDbEntity
  8
0
100
AcDbCircle
 10
482.5084749478016
 20
441.2818050389809
 30
0.0
 40
1.6
  0
CIRCLE
  5
11D2
330
2
100
AcDbEntity
  8
HOJO
 48
0.5
100
AcDbCircle
 10
482.5084749478016
 20
441.2818050389809
 30
0.0
 40
2.0
  0
LINE
  5
11D3
330
2
100
AcDbEntity
  8
0
100
AcDbLine
 10
494.5084771113904
 20
434.7818050389809
 30
0.0
 11
470.5084771113904
 21
434.7818050389805
 31
0.0
  0
LINE
  5
11D4
330
2
100
AcDbEntity
  8
0
100
AcDbLine
 10
494.5084771113913
 20
434.7818050389809
 30
0.0
 11
470.5084771113913
 21
434.7818050389809
 31
0.0
  0
LINE
  5
11D5
330
2
100
AcDbEntity
  8
0
100
AcDbLine
 10
470.5084771113904
 20
444.7818050389812
 30
0.0
 11
470.5084771113904
 21
434.7818050389807
 31
0.0
  0
LINE
  5
11D6
330
2
100
AcDbEntity
  8
0
100
AcDbLine
 10
470.5084771113913
 20
444.7818050389805
 30
0.0
 11
470.5084771113913
 21
434.7818050389809
 31
0.0
  0
LINE
  5
11D7
330
2
100
AcDbEntity
  8
0
100
AcDbLine
 10
494.5084771113913
 20
444.7818050389807
 30
0.0
 11
494.5084771113904
 21
434.7818050389809
 31
0.0
  0
LINE
  5
11D8
330
2
100
AcDbEntity
  8
0
100
AcDbLine
 10
494.5084771113913
 20
444.7818050389809
 30
0.0
 11
494.5084771113913
 21
434.7818050389809
 31
0.0
  0
LINE
  5
11D9
330
2
100
AcDbEntity
  8
0
100
AcDbLine
 10
494.5084771113895
 20
540.7818050389813
 30
0.0
 11
470.5084771113913
 21
540.7818050389813
 31
0.0
  0
LINE
  5
11DA
330
2
100
AcDbEntity
  8
0
100
AcDbLine
 10
470.5084771113923
 20
538.7818050392779
 30
0.0
 11
470.5084771113923
 21
540.781805038981
 31
0.0
  0
LINE
  5
11DB
330
2
100
AcDbEntity
  8
0
100
AcDbLine
 10
494.5084771113895
 20
538.7818050392788
 30
0.0
 11
494.5084771113895
 21
540.7818050389813
 31
0.0
  0
LINE
  5
11DC
330
2
100
AcDbEntity
  8
CENTER
100
AcDbLine
 10
487.5167278418337
 20
441.2818050389819
 30
0.0
 11
477.5003132820036
 21
441.2818050389819
 31
0.0
  0
LINE
  5
11DD
330
2
100
AcDbEntity
  8
PHAS
  6
SEKKEI_P_S
100
AcDbLine
 10
271.1012500521271
 20
280.5198050176097
 30
0.0
 11
271.1012500521262
 21
303.5920111066645
 31
0.0
  0
LINE
  5
11DE
330
2
100
AcDbEntity
  8
PHAS
  6
SEKKEI_P_S
100
AcDbLine
 10
275.2329718086146
 20
275.5957728394204
 30
0.0
 11
285.9748460521266
 21
273.7016065621371
 31
0.0
  0
ARC
  5
11DF
330
2
100
AcDbEntity
  8
PHAS
  6
SEKKEI_P_S
100
AcDbCircle
 10
276.1012500521271
 20
280.5198050176097
 30
0.0
 40
5.0
100
AcDbArc
 50
180.0
 51
259.9995653374257
  0
LINE
  5
11E0
330
2
100
AcDbEntity
  8
PHAS
  6
SEKKEI_P_S
100
AcDbLine
 10
286.8012470521287
 20
313.9368055621372
 30
0.0
 11
286.8012470521268
 21
270.1750105621371
 31
0.0
  0
ARC
  5
11E1
330
2
100
AcDbEntity
  8
PHAS
  6
SEKKEI_P_S
100
AcDbCircle
 10
285.8012470521268
 20
272.7168045621371
 30
0.0
 40
1.0
100
AcDbArc
 50
0.0
 51
79.99999999999483
  0
LINE
  5
11E2
330
2
100
AcDbEntity
  8
PHAS
  6
SEKKEI_P_S
100
AcDbLine
 10
296.6012500521253
 20
266.0559155621371
 30
0.0
 11
296.6012500521262
 21
318.0559155621371
 31
0.0
  0
ARC
  5
11E3
330
2
100
AcDbEntity
  8
PHAS
  6
SEKKEI_P_S
100
AcDbCircle
 10
276.1012500521262
 20
303.5920111066645
 30
0.0
 40
5.0
100
AcDbArc
 50
100.0004346625742
 51
180.0
  0
LINE
  5
11E4
330
2
100
AcDbEntity
  8
PHAS
  6
SEKKEI_P_S
100
AcDbLine
 10
275.2329718086136
 20
308.5160432848537
 30
0.0
 11
285.9748460521266
 21
310.4102095621371
 31
0.0
  0
ARC
  5
11E5
330
2
100
AcDbEntity
  8
PHAS
  6
SEKKEI_P_S
100
AcDbCircle
 10
289.8012470521269
 20
313.9368055621372
 30
0.0
 40
3.0
100
AcDbArc
 50
103.0417940599507
 51
179.9999999999967
  0
ARC
  5
11E6
330
2
100
AcDbEntity
  8
PHAS
  6
SEKKEI_P_S
100
AcDbCircle
 10
285.8012470521268
 20
311.3950115621371
 30
0.0
 40
1.0
100
AcDbArc
 50
280.0000000000051
 51
0.0
  0
LINE
  5
11E7
330
2
100
AcDbEntity
  8
PHAS
  6
SEKKEI_P_S
100
AcDbLine
 10
294.1012500521271
 20
318.012275562137
 30
0.0
 11
289.1242618237672
 21
316.8594227113004
 31
0.0
  0
LINE
  5
11E8
330
2
100
AcDbEntity
  8
PHAS
  6
SEKKEI_P_S
100
AcDbLine
 10
294.1012500521271
 20
318.012275562137
 30
0.0
 11
296.6012500521262
 21
318.0559155621371
 31
0.0
  0
ARC
  5
11E9
330
2
100
AcDbEntity
  8
PHAS
  6
SEKKEI_P_S
100
AcDbCircle
 10
289.8012470521269
 20
270.175025562137
 30
0.0
 40
3.0
100
AcDbArc
 50
180.0
 51
256.9582059400491
  0
LINE
  5
11EA
330
2
100
AcDbEntity
  8
PHAS
  6
SEKKEI_P_S
100
AcDbLine
 10
294.1012500521271
 20
266.0995555621372
 30
0.0
 11
289.1242618237672
 21
267.2524084129737
 31
0.0
  0
LINE
  5
11EB
330
2
100
AcDbEntity
  8
PHAS
  6
SEKKEI_P_S
100
AcDbLine
 10
294.1012500521271
 20
266.0995555621372
 30
0.0
 11
296.6012500521253
 21
266.0559155621371
 31
0.0
  0
LINE
  5
11ED
330
2
100
AcDbEntity
  8
0
100
AcDbLine
 10
518.3185205619186
 20
500.7818050387749
 30
0.0
 11
518.1352563383086
 21
521.781805039278
 31
0.0
  0
LINE
  5
1226
330
2
100
AcDbEntity
  8
CENTER
100
AcDbLine
 10
780.7836867009375
 20
292.0559155621435
 30
0.0
 11
660.7836867009366
 21
292.0559155621435
 31
0.0
  0
LINE
  5
1227
330
2
100
AcDbEntity
  8
CENTER
100
AcDbLine
 10
733.7836867009466
 20
335.5559155621417
 30
0.0
 11
733.7836867009461
 21
248.5559155621453
 31
0.0
  0
LINE
  5
1228
330
2
100
AcDbEntity
  8
0
100
AcDbLine
 10
695.7836867009429
 20
327.5366669285912
 30
0.0
 11
695.7836867009421
 21
256.5751641956957
 31
0.0
  0
LINE
  5
1229
330
2
100
AcDbEntity
  8
0
100
AcDbLine
 10
690.7836867009438
 20
322.0559155621401
 30
0.0
 11
690.7836867009438
 21
262.0559155621403
 31
0.0
  0
LINE
  5
122A
330
2
100
AcDbEntity
  8
0
100
AcDbLine
 10
695.7836867009439
 20
322.0559155621401
 30
0.0
 11
690.7836867009438
 21
322.0559155621401
 31
0.0
  0
LINE
  5
122B
330
2
100
AcDbEntity
  8
0
100
AcDbLine
 10
695.7836867009439
 20
262.0559155621403
 30
0.0
 11
690.7836867009438
 21
262.0559155621403
 31
0.0
  0
LINE
  5
122C
330
2
100
AcDbEntity
  8
0
100
AcDbLine
 10
677.7836867009402
 20
314.1245380125373
 30
0.0
 11
677.7836867009402
 21
269.9872931117651
 31
0.0
  0
LINE
  5
122D
330
2
100
AcDbEntity
  8
0
100
AcDbLine
 10
688.8534856943453
 20
316.4424814611201
 30
0.0
 11
679.7138877075351
 21
316.1233196665752
 31
0.0
  0
LINE
  5
122E
330
2
100
AcDbEntity
  8
0
100
AcDbLine
 10
688.8534856943453
 20
267.6693496631832
 30
0.0
 11
679.7138877075351
 21
267.9885114577272
 31
0.0
  0
ARC
  5
122F
330
2
100
AcDbEntity
  8
0
100
AcDbCircle
 10
679.7836867009403
 20
314.1245380125373
 30
0.0
 40
2.0
100
AcDbArc
 50
92.00000000000365
 51
180.0
  0
ARC
  5
1230
330
2
100
AcDbEntity
  8
0
100
AcDbCircle
 10
679.7836867009403
 20
269.9872931117651
 30
0.0
 40
2.0
100
AcDbArc
 50
180.0
 51
267.9999999999963
  0
ARC
  5
1231
330
2
100
AcDbEntity
  8
0
100
AcDbCircle
 10
688.7836867009403
 20
265.6705680091453
 30
0.0
 40
2.0
100
AcDbArc
 50
0.0
 51
87.99999999999636
  0
ARC
  5
1232
330
2
100
AcDbEntity
  8
0
100
AcDbCircle
 10
688.7836867009403
 20
318.441263115158
 30
0.0
 40
2.0
100
AcDbArc
 50
272.0000000000036
 51
0.0
  0
LINE
  5
1233
330
2
100
AcDbEntity
  8
0
100
AcDbLine
 10
700.407942528311
 20
256.5348089264611
 30
0.0
 11
695.7836867009421
 21
256.5751641956957
 31
0.0
  0
LINE
  5
1234
330
2
100
AcDbEntity
  8
0
100
AcDbLine
 10
700.5098148674053
 20
327.5779112242602
 30
0.0
 11
695.7836867009429
 21
327.5366669285912
 31
0.0
  0
ARC
  5
1235
330
2
100
AcDbEntity
  8
0
100
AcDbCircle
 10
764.7836867009475
 20
323.1248777767563
 30
0.0
 40
5.0
100
AcDbArc
 50
44.4412008770672
 51
89.20427644728171
  0
LINE
  5
1236
330
2
100
AcDbEntity
  8
0
100
AcDbLine
 10
764.8531244484004
 20
328.1243955934291
 30
0.0
 11
733.7836867009476
 21
328.5559155621417
 31
0.0
  0
LINE
  5
1237
330
2
100
AcDbEntity
  8
0
100
AcDbLine
 10
702.7142489534992
 20
328.1243955934282
 30
0.0
 11
733.7836867009457
 21
328.5559155621417
 31
0.0
  0
ARC
  5
1238
330
2
100
AcDbEntity
  8
0
100
AcDbCircle
 10
702.783686700953
 20
323.1248777767554
 30
0.0
 40
5.0
100
AcDbArc
 50
90.79572355271826
 51
135.5587991191879
  0
ARC
  5
1239
330
2
100
AcDbEntity
  8
0
100
AcDbCircle
 10
764.7836867009475
 20
260.9869533475306
 30
0.0
 40
5.0
100
AcDbArc
 50
270.7957235527183
 51
315.558799121597
  0
LINE
  5
123A
330
2
100
AcDbEntity
  8
0
100
AcDbLine
 10
764.8531244484004
 20
255.9874355308579
 30
0.0
 11
733.7836867009476
 21
255.5559155621453
 31
0.0
  0
LINE
  5
123B
330
2
100
AcDbEntity
  8
0
100
AcDbLine
 10
702.7142489534992
 20
255.9874355308588
 30
0.0
 11
733.7836867009457
 21
255.5559155621453
 31
0.0
  0
ARC
  5
123C
330
2
100
AcDbEntity
  8
0
100
AcDbCircle
 10
702.783686700953
 20
260.9869533475316
 30
0.0
 40
5.0
100
AcDbArc
 50
224.4412008821477
 51
269.2042764472816
  0
LINE
  5
123D
330
2
100
AcDbEntity
  8
0
100
AcDbLine
 10
770.7836867012349
 20
315.0559155621444
 30
0.0
 11
771.7836867012358
 21
314.4785652929546
 31
0.0
  0
LINE
  5
123E
330
2
100
AcDbEntity
  8
0
100
AcDbLine
 10
770.7836867012359
 20
315.0559155621444
 30
0.0
 11
769.9642422565032
 21
315.055915562144
 31
0.0
  0
LINE
  5
123F
330
2
100
AcDbEntity
  8
0
100
AcDbLine
 10
771.783686701235
 20
269.6332658313317
 30
0.0
 11
771.783686701234
 21
314.4785652929555
 31
0.0
  0
LINE
  5
1240
330
2
100
AcDbEntity
  8
0
100
AcDbLine
 10
770.7836867012349
 20
269.0559155621426
 30
0.0
 11
771.7836867012358
 21
269.6332658313321
 31
0.0
  0
LINE
  5
1241
330
2
100
AcDbEntity
  8
0
100
AcDbLine
 10
770.7836867012359
 20
269.0559155621426
 30
0.0
 11
769.9642422565028
 21
269.0559155621426
 31
0.0
  0
LINE
  5
1242
330
2
100
AcDbEntity
  8
0
100
AcDbLine
 10
770.7836867012349
 20
315.0559155621444
 30
0.0
 11
770.7836867012359
 21
269.0559155621426
 31
0.0
  0
LINE
  5
1243
330
2
100
AcDbEntity
  8
0
100
AcDbLine
 10
667.7836867009366
 20
304.0558721116159
 30
0.0
 11
667.7836867009366
 21
280.055872111616
 31
0.0
  0
LINE
  5
1244
330
2
100
AcDbEntity
  8
0
100
AcDbLine
 10
667.7836867009366
 20
304.0558721116159
 30
0.0
 11
667.7836867009366
 21
280.0558721116162
 31
0.0
  0
LINE
  5
1245
330
2
100
AcDbEntity
  8
0
100
AcDbLine
 10
677.7836867009376
 20
280.055872111616
 30
0.0
 11
667.7836867009366
 21
280.055872111616
 31
0.0
  0
LINE
  5
1246
330
2
100
AcDbEntity
  8
0
100
AcDbLine
 10
677.7836867009366
 20
280.055872111616
 30
0.0
 11
667.7836867009366
 21
280.055872111616
 31
0.0
  0
LINE
  5
1247
330
2
100
AcDbEntity
  8
0
100
AcDbLine
 10
677.7836867009366
 20
304.0558721116159
 30
0.0
 11
667.7836867009366
 21
304.0558721116159
 31
0.0
  0
LINE
  5
1248
330
2
100
AcDbEntity
  8
0
100
AcDbLine
 10
677.7836867009366
 20
304.0558721116159
 30
0.0
 11
667.7836867009366
 21
304.0558721116159
 31
0.0
  0
LINE
  5
1249
330
2
100
AcDbEntity
  8
0
100
AcDbLine
 10
773.7836867009376
 20
304.0558721116151
 30
0.0
 11
773.7836867009376
 21
280.0558721116171
 31
0.0
  0
LINE
  5
124A
330
2
100
AcDbEntity
  8
0
100
AcDbLine
 10
771.783686701234
 20
280.0558721116173
 30
0.0
 11
773.7836867009366
 21
280.0558721116173
 31
0.0
  0
LINE
  5
124B
330
2
100
AcDbEntity
  8
0
100
AcDbLine
 10
771.783686701235
 20
304.0558721116153
 30
0.0
 11
773.7836867009376
 21
304.0558721116151
 31
0.0
  0
ARC
  5
124C
330
2
100
AcDbEntity
  8
0
100
AcDbCircle
 10
564.5085205575494
 20
534.7818050389841
 30
0.0
 40
2.0
100
AcDbArc
 50
40.04151653423844
 51
90.0
  0
ARC
  5
124D
330
2
100
AcDbEntity
  8
0
100
AcDbCircle
 10
564.5085205575494
 20
466.7818050389842
 30
0.0
 40
2.0
100
AcDbArc
 50
270.0
 51
319.9584834657615
  0
LINE
  5
124E
330
2
100
AcDbEntity
  8
0
100
AcDbLine
 10
573.5085205575494
 20
497.7818050389839
 30
0.0
 11
573.5085205575494
 21
483.2818050389838
 31
0.0
  0
LINE
  5
124F
330
2
100
AcDbEntity
  8
0
100
AcDbLine
 10
566.5085205575476
 20
527.6418050389843
 30
0.0
 11
566.5085205575494
 21
473.9218050389841
 31
0.0
  0
LINE
  5
1250
330
2
100
AcDbEntity
  8
CENTER
  6
CENS
100
AcDbLine
 10
583.5085205575494
 20
501.0318050389843
 30
0.0
 11
583.5085205575494
 21
479.5318050389843
 31
0.0
  0
LINE
  5
1251
330
2
100
AcDbEntity
  8
0
100
AcDbLine
 10
582.5085205575494
 20
527.7818050389842
 30
0.0
 11
582.5085205575494
 21
503.7818050389843
 31
0.0
  0
LINE
  5
1252
330
2
100
AcDbEntity
  8
0
100
AcDbLine
 10
572.0396775135766
 20
530.7818050389841
 30
0.0
 11
597.5085205575494
 21
530.7818050389841
 31
0.0
  0
ARC
  5
1253
330
2
100
AcDbEntity
  8
0
100
AcDbCircle
 10
585.5085205575494
 20
527.7818050389842
 30
0.0
 40
3.0
100
AcDbArc
 50
90.0
 51
180.0
  0
ARC
  5
1254
330
2
100
AcDbEntity
  8
0
100
AcDbCircle
 10
579.5085205575494
 20
503.7818050389843
 30
0.0
 40
3.0
100
AcDbArc
 50
270.0
 51
0.0
  0
ARC
  5
1255
330
2
100
AcDbEntity
  8
0
100
AcDbCircle
 10
576.5085205575494
 20
497.7818050389839
 30
0.0
 40
3.0
100
AcDbArc
 50
90.0
 51
180.0
  0
LINE
  5
1256
330
2
100
AcDbEntity
  8
0
100
AcDbLine
 10
576.5085205575494
 20
500.7818050389842
 30
0.0
 11
579.5085205575494
 21
500.7818050389842
 31
0.0
  0
LINE
  5
1257
330
2
100
AcDbEntity
  8
0
100
AcDbLine
 10
572.0396775135766
 20
470.7818050389843
 30
0.0
 11
597.5085205575494
 21
470.7818050389843
 31
0.0
  0
LINE
  5
1258
330
2
100
AcDbEntity
  8
CENTER
  6
CENS
100
AcDbLine
 10
572.7585205575494
 20
490.2818050389843
 30
0.0
 11
594.2585205575494
 21
490.2818050389843
 31
0.0
  0
ARC
  5
1259
330
2
100
AcDbEntity
  8
0
100
AcDbCircle
 10
576.5085205575494
 20
483.2818050389838
 30
0.0
 40
3.0
100
AcDbArc
 50
180.0
 51
270.0
  0
ARC
  5
125A
330
2
100
AcDbEntity
  8
0
100
AcDbCircle
 10
579.5085205575494
 20
477.2818050389843
 30
0.0
 40
3.0
100
AcDbArc
 50
0.0
 51
90.0
  0
LINE
  5
125B
330
2
100
AcDbEntity
  8
0
100
AcDbLine
 10
576.5085205575494
 20
480.2818050389843
 30
0.0
 11
579.5085205575494
 21
480.2818050389843
 31
0.0
  0
LINE
  5
125C
330
2
100
AcDbEntity
  8
0
100
AcDbLine
 10
582.5085205575494
 20
477.2818050389843
 30
0.0
 11
582.5085205575494
 21
473.7818050389843
 31
0.0
  0
ARC
  5
125D
330
2
100
AcDbEntity
  8
0
100
AcDbCircle
 10
585.5085205575494
 20
473.7818050389843
 30
0.0
 40
3.0
100
AcDbArc
 50
180.0
 51
270.0
  0
LINE
  5
125E
330
2
100
AcDbEntity
  8
0
100
AcDbLine
 10
554.5085205575494
 20
536.7818050389842
 30
0.0
 11
564.5085205575494
 21
536.7818050389842
 31
0.0
  0
LINE
  5
125F
330
2
100
AcDbEntity
  8
0
100
AcDbLine
 10
554.5085205575494
 20
464.7818050389843
 30
0.0
 11
564.5085205575494
 21
464.7818050389843
 31
0.0
  0
LINE
  5
1260
330
2
100
AcDbEntity
  8
0
100
AcDbLine
 10
597.5085205575494
 20
530.7818050389841
 30
0.0
 11
597.5085205575494
 21
470.7818050389843
 31
0.0
  0
LINE
  5
1261
330
2
100
AcDbEntity
  8
0
100
AcDbLine
 10
571.7396775135774
 20
473.9218050389841
 30
0.0
 11
567.0396775135766
 21
473.9218050389841
 31
0.0
  0
LINE
  5
1262
330
2
100
AcDbEntity
  8
0
100
AcDbLine
 10
567.0396775135766
 20
465.4218050389841
 30
0.0
 11
571.7396775135774
 21
465.4218050389841
 31
0.0
  0
LINE
  5
1263
330
2
100
AcDbEntity
  8
CENTER
  6
CENS
100
AcDbLine
 10
549.5085205575494
 20
469.6718050389842
 30
0.0
 11
576.9654934876314
 21
469.6718050389842
 31
0.0
  0
LINE
  5
1264
330
2
100
AcDbEntity
  8
0
100
AcDbLine
 10
572.0396775135766
 20
465.9414202812546
 30
0.0
 11
572.0396775135766
 21
473.4021897967137
 31
0.0
  0
LINE
  5
1265
330
2
100
AcDbEntity
  8
0
100
AcDbLine
 10
571.7396775135774
 20
473.9218050389841
 30
0.0
 11
571.7396775135774
 21
465.4218050389841
 31
0.0
  0
LINE
  5
1266
330
2
100
AcDbEntity
  8
0
100
AcDbLine
 10
571.7396775135774
 20
473.9218050389841
 30
0.0
 11
572.0396775135766
 21
473.4021897967137
 31
0.0
  0
LINE
  5
1267
330
2
100
AcDbEntity
  8
0
100
AcDbLine
 10
572.0396775135766
 20
465.9414202812546
 30
0.0
 11
571.7396775135774
 21
465.4218050389841
 31
0.0
  0
LINE
  5
1268
330
2
100
AcDbEntity
  8
0
100
AcDbLine
 10
567.0396775135766
 20
465.4218050389841
 30
0.0
 11
566.0396775135766
 21
465.4218050389841
 31
0.0
  0
LINE
  5
1269
330
2
100
AcDbEntity
  8
0
100
AcDbLine
 10
566.0396775135766
 20
465.4218050389841
 30
0.0
 11
566.0396775135766
 21
473.9218050389841
 31
0.0
  0
LINE
  5
126A
330
2
100
AcDbEntity
  8
0
100
AcDbLine
 10
566.0396775135766
 20
473.9218050389841
 30
0.0
 11
567.0396775135766
 21
473.9218050389841
 31
0.0
  0
LINE
  5
126B
330
2
100
AcDbEntity
  8
0
100
AcDbLine
 10
567.0396775135766
 20
473.9218050389841
 30
0.0
 11
567.0396775135766
 21
465.4218050389841
 31
0.0
  0
LINE
  5
126C
330
2
100
AcDbEntity
  8
0
100
AcDbLine
 10
567.0396775135766
 20
473.9218050389841
 30
0.0
 11
567.0396775135766
 21
465.4218050389841
 31
0.0
  0
LINE
  5
126D
330
2
100
AcDbEntity
  8
0
100
AcDbLine
 10
571.7396775135774
 20
527.6418050389843
 30
0.0
 11
567.0396775135766
 21
527.6418050389843
 31
0.0
  0
LINE
  5
126E
330
2
100
AcDbEntity
  8
0
100
AcDbLine
 10
567.0396775135766
 20
536.1418050389842
 30
0.0
 11
571.7396775135774
 21
536.1418050389842
 31
0.0
  0
LINE
  5
126F
330
2
100
AcDbEntity
  8
CENTER
  6
CENS
100
AcDbLine
 10
549.5085205575494
 20
531.8918050389843
 30
0.0
 11
576.9654934876314
 21
531.8918050389843
 31
0.0
  0
LINE
  5
1270
330
2
100
AcDbEntity
  8
0
100
AcDbLine
 10
572.0396775135766
 20
535.6221897967138
 30
0.0
 11
572.0396775135766
 21
528.1614202812547
 31
0.0
  0
LINE
  5
1271
330
2
100
AcDbEntity
  8
0
100
AcDbLine
 10
571.7396775135774
 20
527.6418050389843
 30
0.0
 11
571.7396775135774
 21
536.1418050389842
 31
0.0
  0
LINE
  5
1272
330
2
100
AcDbEntity
  8
0
100
AcDbLine
 10
571.7396775135774
 20
527.6418050389843
 30
0.0
 11
572.0396775135766
 21
528.1614202812547
 31
0.0
  0
LINE
  5
1273
330
2
100
AcDbEntity
  8
0
100
AcDbLine
 10
572.0396775135766
 20
535.6221897967138
 30
0.0
 11
571.7396775135774
 21
536.1418050389842
 31
0.0
  0
LINE
  5
1274
330
2
100
AcDbEntity
  8
0
100
AcDbLine
 10
567.0396775135766
 20
536.1418050389842
 30
0.0
 11
566.0396775135766
 21
536.1418050389842
 31
0.0
  0
LINE
  5
1275
330
2
100
AcDbEntity
  8
0
100
AcDbLine
 10
566.0396775135766
 20
536.1418050389842
 30
0.0
 11
566.0396775135766
 21
527.6418050389843
 31
0.0
  0
LINE
  5
1276
330
2
100
AcDbEntity
  8
0
100
AcDbLine
 10
566.0396775135766
 20
527.6418050389843
 30
0.0
 11
567.0396775135766
 21
527.6418050389843
 31
0.0
  0
LINE
  5
1277
330
2
100
AcDbEntity
  8
0
100
AcDbLine
 10
567.0396775135766
 20
527.6418050389843
 30
0.0
 11
567.0396775135766
 21
536.1418050389842
 31
0.0
  0
LINE
  5
1278
330
2
100
AcDbEntity
  8
0
100
AcDbLine
 10
567.0396775135766
 20
527.6418050389843
 30
0.0
 11
567.0396775135766
 21
536.1418050389842
 31
0.0
  0
CIRCLE
  5
1279
330
2
100
AcDbEntity
  8
0
100
AcDbCircle
 10
583.5085205575494
 20
490.2818050389843
 30
0.0
 40
9.000006171187123
  0
LINE
  5
127B
330
2
100
AcDbEntity
  8
0
100
AcDbLine
 10
94.51275620820775
 20
318.9159155621537
 30
0.0
 11
99.21275620820848
 21
318.9159155621537
 31
0.0
  0
LINE
  5
127C
330
2
100
AcDbEntity
  8
0
100
AcDbLine
 10
99.21275620820848
 20
327.4159155621537
 30
0.0
 11
94.51275620820775
 21
327.4159155621537
 31
0.0
  0
LINE
  5
127D
330
2
100
AcDbEntity
  8
CENTER
  6
CENS
100
AcDbLine
 10
116.7439131642356
 20
323.1659155621537
 30
0.0
 11
89.28694023415369
 21
323.1659155621537
 31
0.0
  0
LINE
  5
127E
330
2
100
AcDbEntity
  8
0
100
AcDbLine
 10
94.21275620820848
 20
326.8963003198833
 30
0.0
 11
94.21275620820848
 21
319.4355308044242
 31
0.0
  0
LINE
  5
127F
330
2
100
AcDbEntity
  8
0
100
AcDbLine
 10
94.51275620820775
 20
318.9159155621537
 30
0.0
 11
94.51275620820775
 21
327.4159155621537
 31
0.0
  0
LINE
  5
1280
330
2
100
AcDbEntity
  8
0
100
AcDbLine
 10
94.51275620820775
 20
318.9159155621537
 30
0.0
 11
94.21275620820848
 21
319.4355308044242
 31
0.0
  0
LINE
  5
1281
330
2
100
AcDbEntity
  8
0
100
AcDbLine
 10
94.21275620820848
 20
326.8963003198833
 30
0.0
 11
94.51275620820775
 21
327.4159155621537
 31
0.0
  0
LINE
  5
1282
330
2
100
AcDbEntity
  8
0
100
AcDbLine
 10
99.21275620820848
 20
327.4159155621537
 30
0.0
 11
100.2127562082084
 21
327.4159155621537
 31
0.0
  0
LINE
  5
1283
330
2
100
AcDbEntity
  8
0
100
AcDbLine
 10
100.2127562082084
 20
327.4159155621537
 30
0.0
 11
100.2127562082084
 21
318.9159155621537
 31
0.0
  0
LINE
  5
1284
330
2
100
AcDbEntity
  8
0
100
AcDbLine
 10
100.2127562082084
 20
318.9159155621537
 30
0.0
 11
99.21275620820848
 21
318.9159155621537
 31
0.0
  0
LINE
  5
1285
330
2
100
AcDbEntity
  8
0
100
AcDbLine
 10
99.21275620820848
 20
318.9159155621537
 30
0.0
 11
99.21275620820848
 21
327.4159155621537
 31
0.0
  0
LINE
  5
1286
330
2
100
AcDbEntity
  8
0
100
AcDbLine
 10
99.21275620820848
 20
318.9159155621537
 30
0.0
 11
99.21275620820848
 21
327.4159155621537
 31
0.0
  0
ARC
  5
1287
330
2
100
AcDbEntity
  8
0
100
AcDbCircle
 10
95.409486797608
 20
257.0559155621531
 30
0.0
 40
5.0
100
AcDbArc
 50
8.213210701735501
 51
16.12586214360434
  0
LINE
  5
1288
330
2
100
AcDbEntity
  8
0
100
AcDbLine
 10
100.3379946375705
 20
258.021010749279
 30
0.0
 11
99.74391316423567
 21
292.0559155621536
 31
0.0
  0
LINE
  5
1289
330
2
100
AcDbEntity
  8
0
100
AcDbLine
 10
111.7439131642356
 20
256.0559155621536
 30
0.0
 11
102.3376900278842
 21
256.0559155621536
 31
0.0
  0
ARC
  5
128A
330
2
100
AcDbEntity
  8
0
100
AcDbCircle
 10
102.3376900278842
 20
258.0559155621536
 30
0.0
 40
2.0
100
AcDbArc
 50
181.0000000000017
 51
270.0
  0
LINE
  5
128B
330
2
100
AcDbEntity
  8
CENTER
  6
CENS
100
AcDbLine
 10
82.74391316423566
 20
302.4559155621537
 30
0.0
 11
82.74391316423566
 21
329.8007451261656
 31
0.0
  0
LINE
  5
128C
330
2
100
AcDbEntity
  8
0
100
AcDbLine
 10
100.3379946375705
 20
326.0908203750278
 30
0.0
 11
99.74391316423657
 21
292.0559155621536
 31
0.0
  0
LINE
  5
128D
330
2
100
AcDbEntity
  8
0
100
AcDbLine
 10
83.27269819042953
 20
319.0518033313761
 30
0.0
 11
83.74391316423475
 21
292.0559155621536
 31
0.0
  0
LINE
  5
128E
330
2
100
AcDbEntity
  8
0
100
AcDbLine
 10
111.7439131642356
 20
292.0559155621536
 30
0.0
 11
68.74391316423566
 21
292.0559155621536
 31
0.0
  0
LINE
  5
128F
330
2
100
AcDbEntity
  8
0
100
AcDbLine
 10
94.21275620820848
 20
262.0559155621536
 30
0.0
 11
68.74391316423566
 21
262.0559155621536
 31
0.0
  0
LINE
  5
1290
330
2
100
AcDbEntity
  8
0
100
AcDbLine
 10
83.27269819042953
 20
265.0600277929311
 30
0.0
 11
83.74391316423567
 21
292.0559155621536
 31
0.0
  0
ARC
  5
1291
330
2
100
AcDbEntity
  8
0
100
AcDbCircle
 10
80.27216942704285
 20
265.0559155621536
 30
0.0
 40
3.0
100
AcDbArc
 50
270.0
 51
358.9999999999982
  0
ARC
  5
1292
330
2
100
AcDbEntity
  8
0
100
AcDbCircle
 10
95.8356982136272
 20
267.2880969166104
 30
0.0
 40
3.0
100
AcDbArc
 50
90.0
 51
178.9999999999721
  0
LINE
  5
1293
330
2
100
AcDbEntity
  8
0
100
AcDbLine
 10
86.36441146056382
 20
270.2880969166104
 30
0.0
 11
95.8356982136272
 21
270.2880969166099
 31
0.0
  0
LINE
  5
1294
330
2
100
AcDbEntity
  8
0
100
AcDbLine
 10
92.83615512815662
 20
267.3404541359223
 30
0.0
 11
92.77821402831865
 21
264.021010749279
 31
0.0
  0
ARC
  5
1295
330
2
100
AcDbEntity
  8
0
100
AcDbCircle
 10
90.77851863800493
 20
264.0559155621536
 30
0.0
 40
2.0
100
AcDbArc
 50
270.0
 51
358.9999999999721
  0
LINE
  5
1296
330
2
100
AcDbEntity
  8
0
100
AcDbLine
 10
94.21275620820848
 20
322.0559155621541
 30
0.0
 11
68.74391316423566
 21
322.0559155621536
 31
0.0
  0
ARC
  5
1297
330
2
100
AcDbEntity
  8
0
100
AcDbCircle
 10
80.27216942704285
 20
319.0559155621536
 30
0.0
 40
3.0
100
AcDbArc
 50
1.000000000001775
 51
90.0
  0
ARC
  5
1298
330
2
100
AcDbEntity
  8
0
100
AcDbCircle
 10
102.3376900278842
 20
326.0559155621536
 30
0.0
 40
2.0
100
AcDbArc
 50
90.0
 51
178.9999999999982
  0
LINE
  5
1299
330
2
100
AcDbEntity
  8
0
100
AcDbLine
 10
111.7439131642356
 20
328.0559155621536
 30
0.0
 11
102.3376900278842
 21
328.0559155621536
 31
0.0
  0
ARC
  5
129A
330
2
100
AcDbEntity
  8
0
100
AcDbCircle
 10
95.409486797608
 20
327.055915562154
 30
0.0
 40
5.0
100
AcDbArc
 50
343.8741378563956
 51
351.7867892982579
  0
LINE
  5
129B
330
2
100
AcDbEntity
  8
0
100
AcDbLine
 10
68.74391316423566
 20
262.0559155621536
 30
0.0
 11
68.74391316423566
 21
322.0559155621536
 31
0.0
  0
LINE
  5
129C
330
2
100
AcDbEntity
  8
0
100
AcDbLine
 10
94.51275620820775
 20
265.1959155621535
 30
0.0
 11
99.21275620820848
 21
265.1959155621535
 31
0.0
  0
LINE
  5
129D
330
2
100
AcDbEntity
  8
0
100
AcDbLine
 10
99.21275620820848
 20
256.6959155621535
 30
0.0
 11
94.51275620820775
 21
256.6959155621535
 31
0.0
  0
LINE
  5
129E
330
2
100
AcDbEntity
  8
CENTER
  6
CENS
100
AcDbLine
 10
116.7439131642356
 20
260.9459155621535
 30
0.0
 11
89.28694023415369
 21
260.9459155621535
 31
0.0
  0
LINE
  5
129F
330
2
100
AcDbEntity
  8
0
100
AcDbLine
 10
94.21275620820848
 20
257.2155308044239
 30
0.0
 11
94.21275620820848
 21
264.676300319883
 31
0.0
  0
LINE
  5
12A0
330
2
100
AcDbEntity
  8
0
100
AcDbLine
 10
94.51275620820775
 20
265.1959155621535
 30
0.0
 11
94.51275620820775
 21
256.6959155621535
 31
0.0
  0
LINE
  5
12A1
330
2
100
AcDbEntity
  8
0
100
AcDbLine
 10
94.51275620820775
 20
265.1959155621535
 30
0.0
 11
94.21275620820848
 21
264.676300319883
 31
0.0
  0
LINE
  5
12A2
330
2
100
AcDbEntity
  8
0
100
AcDbLine
 10
94.21275620820848
 20
257.2155308044239
 30
0.0
 11
94.51275620820775
 21
256.6959155621535
 31
0.0
  0
LINE
  5
12A3
330
2
100
AcDbEntity
  8
0
100
AcDbLine
 10
99.21275620820848
 20
256.6959155621535
 30
0.0
 11
100.2127562082084
 21
256.6959155621535
 31
0.0
  0
LINE
  5
12A4
330
2
100
AcDbEntity
  8
0
100
AcDbLine
 10
100.2127562082084
 20
256.6959155621535
 30
0.0
 11
100.2127562082084
 21
265.1959155621535
 31
0.0
  0
LINE
  5
12A5
330
2
100
AcDbEntity
  8
0
100
AcDbLine
 10
100.2127562082084
 20
265.1959155621535
 30
0.0
 11
99.21275620820848
 21
265.1959155621535
 31
0.0
  0
LINE
  5
12A6
330
2
100
AcDbEntity
  8
0
100
AcDbLine
 10
99.21275620820848
 20
265.1959155621535
 30
0.0
 11
99.21275620820848
 21
256.6959155621535
 31
0.0
  0
LINE
  5
12A7
330
2
100
AcDbEntity
  8
0
100
AcDbLine
 10
99.21275620820848
 20
265.1959155621535
 30
0.0
 11
99.21275620820848
 21
256.6959155621535
 31
0.0
  0
LINE
  5
12A8
330
2
100
AcDbEntity
  8
0
100
AcDbLine
 10
77.74390699304854
 20
326.0559155621536
 30
0.0
 11
87.74390699304854
 21
326.0559155621536
 31
0.0
  0
ARC
  5
12A9
330
2
100
AcDbEntity
  8
0
100
AcDbCircle
 10
87.74390699304854
 20
322.0559155621536
 30
0.0
 40
4.0
100
AcDbArc
 50
0.0
 51
90.0
  0
ARC
  5
12AA
330
2
100
AcDbEntity
  8
0
100
AcDbCircle
 10
77.74390699304854
 20
322.0559155621536
 30
0.0
 40
4.0
100
AcDbArc
 50
90.0
 51
180.0
  0
LINE
  5
12AB
330
2
100
AcDbEntity
  8
0
100
AcDbLine
 10
702.7147244863333
 20
256.0559155621421
 30
0.0
 11
764.852648915559
 21
256.0559155621421
 31
0.0
  0
LINE
  5
12AC
330
2
100
AcDbEntity
  8
0
100
AcDbLine
 10
702.7147244863333
 20
328.0559155621421
 30
0.0
 11
764.852648915559
 21
328.0559155621421
 31
0.0
  0
CIRCLE
  5
12AD
330
2
100
AcDbEntity
  8
HIDS
100
AcDbCircle
 10
733.7836867009461
 20
292.0559155621421
 30
0.0
 40
30.0
  0
ARC
  5
12AE
330
2
100
AcDbEntity
  8
0
100
AcDbCircle
 10
708.8564301122876
 20
267.0559155621426
 30
0.0
 40
5.0
100
AcDbArc
 50
180.1666666666621
 51
270.0
  0
LINE
  5
12AF
330
2
100
AcDbEntity
  8
CENTER
100
AcDbLine
 10
714.0336867009462
 20
316.8059155621421
 30
0.0
 11
704.0336867009462
 21
316.8059155621421
 31
0.0
  0
LINE
  5
12B0
330
2
100
AcDbEntity
  8
CENTER
100
AcDbLine
 10
714.0336867009462
 20
267.3059155621421
 30
0.0
 11
704.0336867009462
 21
267.3059155621421
 31
0.0
  0
ARC
  5
12B1
330
2
100
AcDbEntity
  8
0
100
AcDbCircle
 10
708.8564301122876
 20
317.0559155621416
 30
0.0
 40
5.0
100
AcDbArc
 50
90.0
 51
179.8333333333378
  0
LINE
  5
12B2
330
2
100
AcDbEntity
  8
0
100
AcDbLine
 10
697.7152066696614
 20
260.9864778146879
 30
0.0
 11
697.283686700948
 21
292.0559155621435
 31
0.0
  0
LINE
  5
12B3
330
2
100
AcDbEntity
  8
0
100
AcDbLine
 10
703.8564512662595
 20
267.0413711722212
 30
0.0
 11
703.7836867009461
 21
292.0559155621421
 31
0.0
  0
ARC
  5
12B4
330
2
100
AcDbEntity
  8
0
100
AcDbCircle
 10
702.7147244863333
 20
261.0559155621416
 30
0.0
 40
5.0
100
AcDbArc
 50
180.7957235527443
 51
270.0
  0
LINE
  5
12B5
330
2
100
AcDbEntity
  8
0
100
AcDbLine
 10
697.7152066696614
 20
323.1253533095959
 30
0.0
 11
697.2836867009471
 21
292.055915562143
 31
0.0
  0
LINE
  5
12B6
330
2
100
AcDbEntity
  8
0
100
AcDbLine
 10
703.8564512662595
 20
317.0704599520631
 30
0.0
 11
703.7836867009461
 21
292.0559155621421
 31
0.0
  0
LINE
  5
12B7
330
2
100
AcDbEntity
  8
0
100
AcDbLine
 10
703.7836867009461
 20
292.0559155621421
 30
0.0
 11
697.2836867009462
 21
292.0559155621416
 31
0.0
  0
ARC
  5
12B8
330
2
100
AcDbEntity
  8
0
100
AcDbCircle
 10
702.7147244863333
 20
323.0559155621421
 30
0.0
 40
5.0
100
AcDbArc
 50
90.0
 51
179.2042764472556
  0
LINE
  5
12B9
330
2
100
AcDbEntity
  8
0
100
AcDbLine
 10
769.8521667322327
 20
260.9864778146879
 30
0.0
 11
770.2836867009466
 21
292.0559155621435
 31
0.0
  0
LINE
  5
12BA
330
2
100
AcDbEntity
  8
0
100
AcDbLine
 10
763.7109221356329
 20
267.0413711722212
 30
0.0
 11
763.7836867009461
 21
292.0559155621421
 31
0.0
  0
LINE
  5
12BB
330
2
100
AcDbEntity
  8
0
100
AcDbLine
 10
758.7109432896047
 20
262.0559155621421
 30
0.0
 11
708.8564301122876
 21
262.0559155621421
 31
0.0
  0
LINE
  5
12BC
330
2
100
AcDbEntity
  8
CENTER
100
AcDbLine
 10
709.0336867009462
 20
272.3059155621421
 30
0.0
 11
709.0336867009462
 21
262.3059155621421
 31
0.0
  0
LINE
  5
12BD
330
2
100
AcDbEntity
  8
HIDS
100
AcDbLine
 10
754.3179875650273
 20
264.0210107492675
 30
0.0
 11
754.4060253147433
 21
269.0646900525056
 31
0.0
  0
ARC
  5
12BE
330
2
100
AcDbEntity
  8
0
100
AcDbCircle
 10
758.7109432896047
 20
267.0559155621426
 30
0.0
 40
5.0
100
AcDbArc
 50
270.0
 51
359.8333333333378
  0
LINE
  5
12BF
330
2
100
AcDbEntity
  8
CENTER
100
AcDbLine
 10
758.5336867009462
 20
272.3059155621421
 30
0.0
 11
758.5336867009462
 21
262.3059155621421
 31
0.0
  0
ARC
  5
12C0
330
2
100
AcDbEntity
  8
0
100
AcDbCircle
 10
764.852648915559
 20
261.0559155621416
 30
0.0
 40
4.999999999999999
100
AcDbArc
 50
270.0
 51
359.2042764472556
  0
ARC
  5
12C1
330
2
100
AcDbEntity
  8
HIDS
100
AcDbCircle
 10
752.3182921747154
 20
264.0559155621421
 30
0.0
 40
2.0
100
AcDbArc
 50
270.0
 51
358.9999999999982
  0
LINE
  5
12C2
330
2
100
AcDbEntity
  8
CENTER
100
AcDbLine
 10
763.5336867009462
 20
267.3059155621421
 30
0.0
 11
753.5336867009462
 21
267.3059155621421
 31
0.0
  0
ARC
  5
12C3
330
2
100
AcDbEntity
  8
HIDS
100
AcDbCircle
 10
757.4055684002121
 20
269.0123328331933
 30
0.0
 40
3.0
100
AcDbArc
 50
135.7099981688253
 51
178.9999999999982
  0
LINE
  5
12C4
330
2
100
AcDbEntity
  8
0
100
AcDbLine
 10
758.7109432896047
 20
322.0559155621421
 30
0.0
 11
708.8564301122876
 21
322.0559155621417
 31
0.0
  0
LINE
  5
12C5
330
2
100
AcDbEntity
  8
HIDS
100
AcDbLine
 10
717.5336867009462
 20
322.0559155621417
 30
0.0
 11
717.7812548196222
 21
307.8727475421432
 31
0.0
  0
LINE
  5
12C6
330
2
100
AcDbEntity
  8
CENTER
100
AcDbLine
 10
709.0336867009462
 20
321.8059155621421
 30
0.0
 11
709.0336867009462
 21
311.8059155621421
 31
0.0
  0
ARC
  5
12C7
330
2
100
AcDbEntity
  8
HIDS
100
AcDbCircle
 10
710.1618050016802
 20
315.099498291091
 30
0.0
 40
3.0
100
AcDbArc
 50
315.7099981688253
 51
358.9999999999982
  0
ARC
  5
12C8
330
2
100
AcDbEntity
  8
HIDS
100
AcDbCircle
 10
715.2490812271769
 20
320.0559155621417
 30
0.0
 40
2.0
100
AcDbArc
 50
90.0
 51
178.9999999999982
  0
LINE
  5
12C9
330
2
100
AcDbEntity
  8
HIDS
100
AcDbLine
 10
713.249385836865
 20
320.0908203750163
 30
0.0
 11
713.1613480871508
 21
315.0471410717786
 31
0.0
  0
LINE
  5
12CA
330
2
100
AcDbEntity
  8
HIDS
100
AcDbLine
 10
729.0336867009462
 20
322.0559155621421
 30
0.0
 11
728.8933850771006
 21
314.0180409152999
 31
0.0
  0
LINE
  5
12CB
330
2
100
AcDbEntity
  8
0
100
AcDbLine
 10
769.8521667322327
 20
323.1253533095959
 30
0.0
 11
770.283686700947
 21
292.055915562143
 31
0.0
  0
LINE
  5
12CC
330
2
100
AcDbEntity
  8
0
100
AcDbLine
 10
763.7109221356329
 20
317.0704599520631
 30
0.0
 11
763.7836867009461
 21
292.0559155621421
 31
0.0
  0
LINE
  5
12CD
330
2
100
AcDbEntity
  8
CENTER
100
AcDbLine
 10
758.5336867009462
 20
321.8059155621421
 30
0.0
 11
758.5336867009462
 21
311.8059155621421
 31
0.0
  0
LINE
  5
12CE
330
2
100
AcDbEntity
  8
0
100
AcDbLine
 10
763.7836867009461
 20
292.0559155621421
 30
0.0
 11
770.2836867009462
 21
292.0559155621421
 31
0.0
  0
ARC
  5
12CF
330
2
100
AcDbEntity
  8
0
100
AcDbCircle
 10
764.852648915559
 20
323.0559155621421
 30
0.0
 40
4.999999999999999
100
AcDbArc
 50
0.7957235527443399
 51
90.0
  0
ARC
  5
12D0
330
2
100
AcDbEntity
  8
0
100
AcDbCircle
 10
758.7109432896047
 20
317.0559155621416
 30
0.0
 40
5.0
100
AcDbArc
 50
0.1666666666621044
 51
90.0
  0
LINE
  5
12D1
330
2
100
AcDbEntity
  8
CENTER
100
AcDbLine
 10
763.5336867009462
 20
316.8059155621421
 30
0.0
 11
753.5336867009462
 21
316.8059155621421
 31
0.0
  0
CIRCLE
  5
12D2
330
2
100
AcDbEntity
  8
0
100
AcDbCircle
 10
733.7836867009461
 20
292.0559155621421
 30
0.0
 40
25.00000000022851
  0
CIRCLE
  5
12D3
330
2
100
AcDbEntity
  8
0
100
AcDbCircle
 10
702.6736867009474
 20
260.945915562142
 30
0.0
 40
2.75
  0
CIRCLE
  5
12D4
330
2
100
AcDbEntity
  8
0
100
AcDbCircle
 10
764.8936867009467
 20
323.1659155621422
 30
0.0
 40
2.75
  0
CIRCLE
  5
12D5
330
2
100
AcDbEntity
  8
0
100
AcDbCircle
 10
764.8936867009467
 20
260.9459155621424
 30
0.0
 40
2.75
  0
ARC
  5
12D6
330
2
100
AcDbEntity
  8
0
100
AcDbCircle
 10
702.6736867009455
 20
323.1659155621422
 30
0.0
 40
4.25000000000019
100
AcDbArc
 50
337.0991355555478
 51
293.5789623545194
  0
ARC
  5
12D7
330
2
100
AcDbEntity
  8
0
100
AcDbCircle
 10
702.6736867009455
 20
323.1659155621422
 30
0.0
 40
3.730384757729381
100
AcDbArc
 50
321.5287333511405
 51
309.1493645588724
  0
LWPOLYLINE
  5
12D8
330
2
100
AcDbEntity
  8
0
100
AcDbPolyline
 90
        6
 70
     1
 43
0.0
 10
704.6736867009456
 20
324.3206161005213
 10
702.6736867009455
 20
325.4753166389008
 10
700.6736867009456
 20
324.3206161005213
 10
700.6736867009456
 20
322.0112150237632
 10
702.6736867009455
 20
320.8565144853837
 10
704.6736867009456
 20
322.0112150237632
  0
CIRCLE
  5
12D9
330
2
100
AcDbEntity
  8
0
100
AcDbCircle
 10
702.6736867009455
 20
323.1659155621422
 30
0.0
 40
2.3094010767585
  0
LINE
  5
12DA
330
2
100
AcDbEntity
  8
CENTER
100
AcDbLine
 10
702.6736867009455
 20
329.1243458094363
 30
0.0
 11
702.6736867009455
 21
317.2074853148482
 31
0.0
  0
LINE
  5
12DB
330
2
100
AcDbEntity
  8
CENTER
100
AcDbLine
 10
696.7152564536515
 20
323.1659155621422
 30
0.0
 11
708.6321169482395
 21
323.1659155621422
 31
0.0
  0
ARC
  5
12DC
330
2
100
AcDbEntity
  8
0
100
AcDbCircle
 10
764.8936867009467
 20
323.1659155621422
 30
0.0
 40
4.25000000000019
100
AcDbArc
 50
246.4210376454805
 51
202.9008644444513
  0
ARC
  5
12DD
330
2
100
AcDbEntity
  8
0
100
AcDbCircle
 10
764.8936867009467
 20
323.1659155621422
 30
0.0
 40
3.730384757729381
100
AcDbArc
 50
230.8506354409951
 51
218.4712666488647
  0
LWPOLYLINE
  5
12DE
330
2
100
AcDbEntity
  8
0
100
AcDbPolyline
 90
        6
 70
     1
 43
0.0
 10
766.8936867009468
 20
324.3206161005213
 10
764.8936867009467
 20
325.4753166389008
 10
762.8936867009468
 20
324.3206161005213
 10
762.8936867009468
 20
322.0112150237632
 10
764.8936867009467
 20
320.8565144853837
 10
766.8936867009468
 20
322.0112150237632
  0
CIRCLE
  5
12DF
330
2
100
AcDbEntity
  8
0
100
AcDbCircle
 10
764.8936867009467
 20
323.1659155621422
 30
0.0
 40
2.3094010767585
  0
LINE
  5
12E0
330
2
100
AcDbEntity
  8
CENTER
100
AcDbLine
 10
764.8936867009467
 20
329.1243458094363
 30
0.0
 11
764.8936867009467
 21
317.2074853148482
 31
0.0
  0
LINE
  5
12E1
330
2
100
AcDbEntity
  8
CENTER
100
AcDbLine
 10
758.9352564536527
 20
323.1659155621422
 30
0.0
 11
770.8521169482407
 21
323.1659155621422
 31
0.0
  0
ARC
  5
12E2
330
2
100
AcDbEntity
  8
0
100
AcDbCircle
 10
764.8936867009467
 20
260.9459155621424
 30
0.0
 40
4.25000000000019
100
AcDbArc
 50
157.0991355555478
 51
113.5789623545196
  0
ARC
  5
12E3
330
2
100
AcDbEntity
  8
0
100
AcDbCircle
 10
764.8936867009467
 20
260.9459155621424
 30
0.0
 40
3.730384757729381
100
AcDbArc
 50
141.5287333511352
 51
129.1493645588748
  0
LWPOLYLINE
  5
12E4
330
2
100
AcDbEntity
  8
0
100
AcDbPolyline
 90
        6
 70
     1
 43
0.0
 10
766.8936867009468
 20
262.1006161005215
 10
764.8936867009467
 20
263.2553166389011
 10
762.8936867009468
 20
262.1006161005215
 10
762.8936867009468
 20
259.7912150237634
 10
764.8936867009467
 20
258.6365144853838
 10
766.8936867009468
 20
259.7912150237634
  0
CIRCLE
  5
12E5
330
2
100
AcDbEntity
  8
0
100
AcDbCircle
 10
764.8936867009467
 20
260.9459155621424
 30
0.0
 40
2.3094010767585
  0
LINE
  5
12E6
330
2
100
AcDbEntity
  8
CENTER
100
AcDbLine
 10
764.8936867009467
 20
266.9043458094364
 30
0.0
 11
764.8936867009467
 21
254.9874853148484
 31
0.0
  0
LINE
  5
12E7
330
2
100
AcDbEntity
  8
CENTER
100
AcDbLine
 10
758.9352564536527
 20
260.9459155621424
 30
0.0
 11
770.8521169482407
 21
260.9459155621424
 31
0.0
  0
ARC
  5
12E8
330
2
100
AcDbEntity
  8
0
100
AcDbCircle
 10
702.6736867009474
 20
260.945915562142
 30
0.0
 40
4.25000000000019
100
AcDbArc
 50
66.42103764559262
 51
22.90086444442292
  0
ARC
  5
12E9
330
2
100
AcDbEntity
  8
0
100
AcDbCircle
 10
702.6736867009474
 20
260.945915562142
 30
0.0
 40
3.730384757729381
100
AcDbArc
 50
50.85063544125946
 51
38.47126664869841
  0
LWPOLYLINE
  5
12EA
330
2
100
AcDbEntity
  8
0
100
AcDbPolyline
 90
        6
 70
     1
 43
0.0
 10
704.6736867009474
 20
262.1006161005215
 10
702.6736867009474
 20
263.2553166389006
 10
700.6736867009474
 20
262.1006161005215
 10
700.6736867009474
 20
259.7912150237629
 10
702.6736867009474
 20
258.6365144853838
 10
704.6736867009474
 20
259.7912150237629
  0
CIRCLE
  5
12EB
330
2
100
AcDbEntity
  8
0
100
AcDbCircle
 10
702.6736867009474
 20
260.945915562142
 30
0.0
 40
2.3094010767585
  0
LINE
  5
12EC
330
2
100
AcDbEntity
  8
CENTER
100
AcDbLine
 10
702.6736867009474
 20
266.904345809436
 30
0.0
 11
702.6736867009474
 21
254.987485314848
 31
0.0
  0
LINE
  5
12ED
330
2
100
AcDbEntity
  8
CENTER
100
AcDbLine
 10
696.7152564536534
 20
260.945915562142
 30
0.0
 11
708.6321169482414
 21
260.945915562142
 31
0.0
  0
LINE
  5
12EE
330
2
100
AcDbEntity
  8
HIDS
100
AcDbLine
 10
725.2836867009461
 20
291.3059155621421
 30
0.0
 11
725.2836867009461
 21
282.8559155621419
 31
0.0
  0
LINE
  5
12EF
330
2
100
AcDbEntity
  8
HIDS
100
AcDbLine
 10
724.9503533676122
 20
291.3059155621421
 30
0.0
 11
724.9503533676122
 21
282.5225822288088
 31
0.0
  0
LINE
  5
12F0
330
2
100
AcDbEntity
  8
HIDS
100
AcDbLine
 10
721.6170200342801
 20
291.3059155621421
 30
0.0
 11
721.6170200342801
 21
283.7171673214156
 31
0.0
  0
LINE
  5
12F1
330
2
100
AcDbEntity
  8
HIDS
100
AcDbLine
 10
721.2836867009461
 20
291.3059155621421
 30
0.0
 11
721.2836867009461
 21
284.2256856804592
 31
0.0
  0
ARC
  5
12F2
330
2
100
AcDbEntity
  8
0
100
AcDbCircle
 10
733.7836867009461
 20
292.0559155621421
 30
0.0
 40
14.75
100
AcDbArc
 50
218.5889464533626
 51
160.1850718514956
  0
LINE
  5
12F3
330
2
100
AcDbEntity
  8
CENTER
  6
CENS
100
AcDbLine
 10
723.2836867009462
 20
329.8007451261541
 30
0.0
 11
723.2836867009462
 21
280.6036652175852
 31
0.0
  0
LINE
  5
12F4
330
2
100
AcDbEntity
  8
HIDS
100
AcDbLine
 10
725.2836867009461
 20
291.3059155621421
 30
0.0
 11
725.2836867009461
 21
280.0013521109007
 31
0.0
  0
ARC
  5
12F5
330
2
100
AcDbEntity
  8
0
100
AcDbCircle
 10
733.7836867009461
 20
292.0559155621421
 30
0.0
 40
14.75
100
AcDbArc
 50
179.9999999999934
 51
218.5889464533626
  0
LINE
  5
12F6
330
2
100
AcDbEntity
  8
HIDS
100
AcDbLine
 10
722.2544846470316
 20
282.8559155621419
 30
0.0
 11
723.2836867009462
 21
282.8559155621419
 31
0.0
  0
LINE
  5
12F7
330
2
100
AcDbEntity
  8
0
100
AcDbLine
 10
722.0836867009473
 20
282.0559155621421
 30
0.0
 11
722.9410624798454
 21
282.0559155621421
 31
0.0
  0
LINE
  5
12F8
330
2
100
AcDbEntity
  8
0
100
AcDbLine
 10
721.2836867009461
 20
284.2256856804592
 30
0.0
 11
721.2836867009461
 21
282.8559155621419
 31
0.0
  0
LINE
  5
12F9
330
2
100
AcDbEntity
  8
HOJO
100
AcDbLine
 10
721.6170200342801
 20
283.7171673214156
 30
0.0
 11
721.6170200342801
 21
282.5225822288088
 31
0.0
  0
LINE
  5
12FA
330
2
100
AcDbEntity
  8
0
100
AcDbLine
 10
721.2836867009461
 20
282.8559155621419
 30
0.0
 11
722.2544846470316
 21
282.8559155621419
 31
0.0
  0
LINE
  5
12FB
330
2
100
AcDbEntity
  8
0
100
AcDbLine
 10
721.2836867009461
 20
282.8559155621419
 30
0.0
 11
722.0836867009473
 21
282.0559155621421
 31
0.0
  0
LINE
  5
12FC
330
2
100
AcDbEntity
  8
HIDS
100
AcDbLine
 10
722.9410624798454
 20
282.0559155621421
 30
0.0
 11
723.2836867009462
 21
282.0559155621421
 31
0.0
  0
LINE
  5
12FD
330
2
100
AcDbEntity
  8
HIDS
100
AcDbLine
 10
725.2836867009461
 20
282.8559155621419
 30
0.0
 11
724.4836867009468
 21
282.0559155621421
 31
0.0
  0
LINE
  5
12FE
330
2
100
AcDbEntity
  8
HIDS
100
AcDbLine
 10
724.4836867009468
 20
282.0559155621421
 30
0.0
 11
723.2836867009462
 21
282.0559155621421
 31
0.0
  0
LINE
  5
12FF
330
2
100
AcDbEntity
  8
HIDS
100
AcDbLine
 10
725.2836867009461
 20
282.8559155621419
 30
0.0
 11
723.2836867009462
 21
282.8559155621419
 31
0.0
  0
LINE
  5
1300
330
2
100
AcDbEntity
  8
HIDS
100
AcDbLine
 10
724.9503533676122
 20
282.5225822288088
 30
0.0
 11
724.9503533676122
 21
280.2434339337027
 31
0.0
  0
LINE
  5
1301
330
2
100
AcDbEntity
  8
HIDS
100
AcDbLine
 10
719.906997614569
 20
297.0559155621421
 30
0.0
 11
726.7836867009462
 21
297.0559155621421
 31
0.0
  0
LINE
  5
1302
330
2
100
AcDbEntity
  8
HIDS
100
AcDbLine
 10
721.8726623957061
 20
300.7559155621424
 30
0.0
 11
726.7836867009462
 21
300.7559155621424
 31
0.0
  0
LINE
  5
1303
330
2
100
AcDbEntity
  8
HIDS
100
AcDbLine
 10
726.2640714586757
 20
301.0559155621421
 30
0.0
 11
722.0976908084264
 21
301.0559155621421
 31
0.0
  0
LINE
  5
1304
330
2
100
AcDbEntity
  8
HIDS
100
AcDbLine
 10
725.2836867009461
 20
295.3892488954756
 30
0.0
 11
721.2836867009461
 21
295.3892488954756
 31
0.0
  0
LINE
  5
1305
330
2
100
AcDbEntity
  8
HIDS
100
AcDbLine
 10
719.9069976145672
 20
297.0559155621421
 30
0.0
 11
727.2836867009462
 21
297.0559155621421
 31
0.0
  0
LINE
  5
1306
330
2
100
AcDbEntity
  8
0
100
AcDbLine
 10
719.0527668382908
 20
292.8059155621421
 30
0.0
 11
723.2836867009462
 21
292.8059155621421
 31
0.0
  0
LINE
  5
1307
330
2
100
AcDbEntity
  8
0
100
AcDbLine
 10
719.0527668382908
 20
291.3059155621421
 30
0.0
 11
723.2836867009462
 21
291.3059155621421
 31
0.0
  0
LINE
  5
1308
330
2
100
AcDbEntity
  8
0
100
AcDbLine
 10
719.7836867009462
 20
300.7559155621424
 30
0.0
 11
719.7836867009462
 21
297.0559155621421
 31
0.0
  0
LINE
  5
1309
330
2
100
AcDbEntity
  8
0
100
AcDbLine
 10
721.2836867009461
 20
292.8059155621421
 30
0.0
 11
721.2836867009461
 21
291.3059155621421
 31
0.0
  0
LINE
  5
130A
330
2
100
AcDbEntity
  8
HOJO
100
AcDbLine
 10
721.6170200342801
 20
292.8059155621421
 30
0.0
 11
721.6170200342801
 21
291.3059155621421
 31
0.0
  0
ARC
  5
130B
330
2
100
AcDbEntity
  8
0
100
AcDbCircle
 10
733.7836867009461
 20
292.0559155621421
 30
0.0
 40
14.75
100
AcDbArc
 50
160.1850718514956
 51
179.9999999999934
  0
LINE
  5
130C
330
2
100
AcDbEntity
  8
HIDS
100
AcDbLine
 10
721.2836867009461
 20
297.0559155621421
 30
0.0
 11
721.6170200342801
 21
295.3892488954756
 31
0.0
  0
LINE
  5
130D
330
2
100
AcDbEntity
  8
0
100
AcDbLine
 10
719.7836867009462
 20
297.0559155621421
 30
0.0
 11
719.906997614569
 21
297.0559155621421
 31
0.0
  0
LINE
  5
130E
330
2
100
AcDbEntity
  8
HIDS
100
AcDbLine
 10
721.6170200342801
 20
295.3892488954756
 30
0.0
 11
721.6170200342801
 21
292.8059155621421
 31
0.0
  0
LINE
  5
130F
330
2
100
AcDbEntity
  8
HIDS
100
AcDbLine
 10
721.2836867009461
 20
297.0559155621421
 30
0.0
 11
721.2836867009461
 21
292.8059155621421
 31
0.0
  0
LINE
  5
1310
330
2
100
AcDbEntity
  8
HIDS
100
AcDbLine
 10
720.7836867009461
 20
297.0559155621421
 30
0.0
 11
720.7836867009461
 21
292.8059155621421
 31
0.0
  0
LINE
  5
1311
330
2
100
AcDbEntity
  8
0
100
AcDbLine
 10
722.0976908084264
 20
301.0559155621421
 30
0.0
 11
720.3033019432166
 21
301.0559155621421
 31
0.0
  0
LINE
  5
1312
330
2
100
AcDbEntity
  8
0
100
AcDbLine
 10
719.7836867009462
 20
300.7559155621424
 30
0.0
 11
720.3033019432166
 21
301.0559155621421
 31
0.0
  0
LINE
  5
1313
330
2
100
AcDbEntity
  8
0
100
AcDbLine
 10
719.7836867009462
 20
300.7559155621424
 30
0.0
 11
721.8726623957061
 21
300.7559155621424
 31
0.0
  0
LINE
  5
1314
330
2
100
AcDbEntity
  8
HIDS
100
AcDbLine
 10
726.7836867009462
 20
297.0559155621421
 30
0.0
 11
726.7836867009462
 21
300.7559155621424
 31
0.0
  0
LINE
  5
1315
330
2
100
AcDbEntity
  8
HIDS
100
AcDbLine
 10
727.2836867009462
 20
305.2964782390076
 30
0.0
 11
727.2836867009462
 21
297.0559155621421
 31
0.0
  0
LINE
  5
1316
330
2
100
AcDbEntity
  8
HOJO
100
AcDbLine
 10
724.9503533676122
 20
292.8059155621421
 30
0.0
 11
724.9503533676122
 21
291.3059155621421
 31
0.0
  0
LINE
  5
1317
330
2
100
AcDbEntity
  8
0
100
AcDbLine
 10
725.2836867009461
 20
292.8059155621421
 30
0.0
 11
725.2836867009461
 21
291.3059155621421
 31
0.0
  0
LINE
  5
1318
330
2
100
AcDbEntity
  8
0
100
AcDbLine
 10
723.2836867009462
 20
291.3059155621421
 30
0.0
 11
726.8239812474073
 21
291.3059155621421
 31
0.0
  0
LINE
  5
1319
330
2
100
AcDbEntity
  8
0
100
AcDbLine
 10
723.2836867009462
 20
292.8059155621421
 30
0.0
 11
726.8239812474073
 21
292.8059155621426
 31
0.0
  0
LINE
  5
131A
330
2
100
AcDbEntity
  8
HIDS
100
AcDbLine
 10
725.2836867009461
 20
297.0559155621421
 30
0.0
 11
724.9503533676122
 21
295.3892488954756
 31
0.0
  0
LINE
  5
131B
330
2
100
AcDbEntity
  8
HIDS
100
AcDbLine
 10
725.2836867009461
 20
297.0559155621421
 30
0.0
 11
725.2836867009461
 21
292.8059155621421
 31
0.0
  0
LINE
  5
131C
330
2
100
AcDbEntity
  8
HIDS
100
AcDbLine
 10
724.9503533676122
 20
295.3892488954756
 30
0.0
 11
724.9503533676122
 21
292.8059155621421
 31
0.0
  0
LINE
  5
131D
330
2
100
AcDbEntity
  8
HIDS
100
AcDbLine
 10
725.7836867009461
 20
297.0559155621421
 30
0.0
 11
725.7836867009461
 21
292.8059155621421
 31
0.0
  0
LINE
  5
131E
330
2
100
AcDbEntity
  8
HIDS
100
AcDbLine
 10
726.2640714586757
 20
301.0559155621421
 30
0.0
 11
726.7836867009462
 21
300.7559155621424
 31
0.0
  0
LINE
  5
131F
330
2
100
AcDbEntity
  8
0
100
AcDbLine
 10
747.7836867009462
 20
291.3059155621421
 30
0.0
 11
740.7433921544813
 21
291.3059155621421
 31
0.0
  0
LINE
  5
1320
330
2
100
AcDbEntity
  8
0
100
AcDbLine
 10
740.7433921544813
 20
292.8059155621421
 30
0.0
 11
747.7836867009462
 21
292.8059155621421
 31
0.0
  0
LINE
  5
1321
330
2
100
AcDbEntity
  8
0
100
AcDbLine
 10
747.7836867009462
 20
292.8059155621421
 30
0.0
 11
747.7836867009462
 21
291.3059155621421
 31
0.0
  0
LINE
  5
1322
330
2
100
AcDbEntity
  8
0
100
AcDbLine
 10
718.283680529759
 20
326.0559134265681
 30
0.0
 11
728.283680529759
 21
326.0559134265681
 31
0.0
  0
ARC
  5
1323
330
2
100
AcDbEntity
  8
0
100
AcDbCircle
 10
728.283680529759
 20
322.055913426568
 30
0.0
 40
4.0
100
AcDbArc
 50
0.0
 51
90.0
  0
LINE
  5
1324
330
2
100
AcDbEntity
  8
0
100
AcDbLine
 10
732.283680529759
 20
322.055913426568
 30
0.0
 11
732.283680529759
 21
322.055913426568
 31
0.0
  0
ARC
  5
1325
330
2
100
AcDbEntity
  8
0
100
AcDbCircle
 10
718.283680529759
 20
322.055913426568
 30
0.0
 40
4.0
100
AcDbArc
 50
90.0
 51
180.0
  0
CIRCLE
  5
1326
330
2
100
AcDbEntity
  8
0
100
AcDbCircle
 10
733.7836867009444
 20
292.0559155621435
 30
0.0
 40
6.999999999998635
  0
ARC
  5
1327
330
2
100
AcDbEntity
  8
0
100
AcDbCircle
 10
733.7836867009461
 20
292.0559155621435
 30
0.0
 40
8.154700538378165
100
AcDbArc
 50
5.277035934797972
 51
174.722964065202
  0
ARC
  5
1328
330
2
100
AcDbEntity
  8
0
100
AcDbCircle
 10
733.7836867009461
 20
292.0559155621435
 30
0.0
 40
8.154700538378165
100
AcDbArc
 50
185.2770359348103
 51
354.7229640651897
  0
CIRCLE
  5
1329
330
2
100
AcDbEntity
  8
CENTER
100
AcDbCircle
 10
733.7836867009461
 20
292.0559155621408
 30
0.0
 40
35.0017856687341
  0
CIRCLE
  5
132A
330
2
100
AcDbEntity
  8
HOJO
100
AcDbCircle
 10
709.0336867009479
 20
316.8059155621421
 30
0.0
 40
2.5
  0
CIRCLE
  5
132B
330
2
100
AcDbEntity
  8
0
100
AcDbCircle
 10
709.0336867009479
 20
316.8059155621421
 30
0.0
 40
2.0
  0
CIRCLE
  5
132C
330
2
100
AcDbEntity
  8
0
100
AcDbCircle
 10
709.0336867009479
 20
267.3059155621421
 30
0.0
 40
2.0
  0
CIRCLE
  5
132D
330
2
100
AcDbEntity
  8
HOJO
100
AcDbCircle
 10
709.0336867009479
 20
267.3059155621421
 30
0.0
 40
2.5
  0
CIRCLE
  5
132E
330
2
100
AcDbEntity
  8
0
100
AcDbCircle
 10
758.533686700948
 20
267.3059155621421
 30
0.0
 40
2.0
  0
CIRCLE
  5
132F
330
2
100
AcDbEntity
  8
HOJO
100
AcDbCircle
 10
758.533686700948
 20
267.3059155621421
 30
0.0
 40
2.5
  0
CIRCLE
  5
1330
330
2
100
AcDbEntity
  8
0
100
AcDbCircle
 10
758.533686700948
 20
316.8059155621421
 30
0.0
 40
2.0
  0
CIRCLE
  5
1331
330
2
100
AcDbEntity
  8
HOJO
100
AcDbCircle
 10
758.533686700948
 20
316.8059155621421
 30
0.0
 40
2.5
  0
CIRCLE
  5
1332
330
2
100
AcDbEntity
  8
0
100
AcDbCircle
 10
733.7836867009461
 20
292.0559155621421
 30
0.0
 40
22.5
  0
LINE
  5
1333
330
2
100
AcDbEntity
  8
0
100
AcDbLine
 10
571.7396775179465
 20
318.9159155621538
 30
0.0
 11
567.0396775179458
 21
318.9159155621538
 31
0.0
  0
LINE
  5
1334
330
2
100
AcDbEntity
  8
0
100
AcDbLine
 10
567.0396775179458
 20
327.4159155621538
 30
0.0
 11
571.7396775179465
 21
327.4159155621538
 31
0.0
  0
LINE
  5
1335
330
2
100
AcDbEntity
  8
CENTER
  6
CENS
100
AcDbLine
 10
549.5085205619187
 20
323.1659155621538
 30
0.0
 11
576.9654934920006
 21
323.1659155621538
 31
0.0
  0
LINE
  5
1336
330
2
100
AcDbEntity
  8
0
100
AcDbLine
 10
572.0396775179458
 20
326.8963003198834
 30
0.0
 11
572.0396775179458
 21
319.4355308044243
 31
0.0
  0
LINE
  5
1337
330
2
100
AcDbEntity
  8
0
100
AcDbLine
 10
571.7396775179465
 20
318.9159155621538
 30
0.0
 11
571.7396775179465
 21
327.4159155621538
 31
0.0
  0
LINE
  5
1338
330
2
100
AcDbEntity
  8
0
100
AcDbLine
 10
571.7396775179465
 20
318.9159155621538
 30
0.0
 11
572.0396775179458
 21
319.4355308044243
 31
0.0
  0
LINE
  5
1339
330
2
100
AcDbEntity
  8
0
100
AcDbLine
 10
572.0396775179458
 20
326.8963003198834
 30
0.0
 11
571.7396775179465
 21
327.4159155621538
 31
0.0
  0
LINE
  5
133A
330
2
100
AcDbEntity
  8
0
100
AcDbLine
 10
567.0396775179458
 20
327.4159155621538
 30
0.0
 11
566.0396775179458
 21
327.4159155621538
 31
0.0
  0
LINE
  5
133B
330
2
100
AcDbEntity
  8
0
100
AcDbLine
 10
566.0396775179458
 20
327.4159155621538
 30
0.0
 11
566.0396775179458
 21
318.9159155621538
 31
0.0
  0
LINE
  5
133C
330
2
100
AcDbEntity
  8
0
100
AcDbLine
 10
566.0396775179458
 20
318.9159155621538
 30
0.0
 11
567.0396775179458
 21
318.9159155621538
 31
0.0
  0
LINE
  5
133D
330
2
100
AcDbEntity
  8
0
100
AcDbLine
 10
567.0396775179458
 20
318.9159155621538
 30
0.0
 11
567.0396775179458
 21
327.4159155621538
 31
0.0
  0
LINE
  5
133E
330
2
100
AcDbEntity
  8
0
100
AcDbLine
 10
567.0396775179458
 20
318.9159155621538
 30
0.0
 11
567.0396775179458
 21
327.4159155621538
 31
0.0
  0
ARC
  5
133F
330
2
100
AcDbEntity
  8
0
100
AcDbCircle
 10
570.8429469285463
 20
257.0559155621533
 30
0.0
 40
5.0
100
AcDbArc
 50
163.8741378563956
 51
171.7867892982579
  0
LINE
  5
1340
330
2
100
AcDbEntity
  8
0
100
AcDbLine
 10
565.9144390885837
 20
258.0210107492791
 30
0.0
 11
566.5085205619186
 21
292.0559155621537
 31
0.0
  0
LINE
  5
1341
330
2
100
AcDbEntity
  8
0
100
AcDbLine
 10
554.5085205619186
 20
256.0559155621537
 30
0.0
 11
563.9147436982701
 21
256.0559155621537
 31
0.0
  0
ARC
  5
1342
330
2
100
AcDbEntity
  8
0
100
AcDbCircle
 10
563.9147436982701
 20
258.0559155621537
 30
0.0
 40
2.0
100
AcDbArc
 50
270.0
 51
358.9999999999982
  0
LINE
  5
1343
330
2
100
AcDbEntity
  8
CENTER
  6
CENS
100
AcDbLine
 10
583.5085205619186
 20
302.4559155621538
 30
0.0
 11
583.5085205619186
 21
329.8007451261657
 31
0.0
  0
LINE
  5
1344
330
2
100
AcDbEntity
  8
0
100
AcDbLine
 10
565.9144390885837
 20
326.0908203750279
 30
0.0
 11
566.3301901385027
 21
302.2724586771957
 31
0.0
  0
LINE
  5
1345
330
2
100
AcDbEntity
  8
0
100
AcDbLine
 10
582.9797355357247
 20
319.0518033313762
 30
0.0
 11
582.7621925251921
 21
306.588772604886
 31
0.0
  0
LINE
  5
1346
330
2
100
AcDbEntity
  8
0
100
AcDbLine
 10
554.5085205619186
 20
292.0559155621537
 30
0.0
 11
554.9685599151041
 21
292.0559155621538
 31
0.0
  0
LINE
  5
1347
330
2
100
AcDbEntity
  8
0
100
AcDbLine
 10
572.0396775179458
 20
262.0559155621537
 30
0.0
 11
597.5085205619186
 21
262.0559155621537
 31
0.0
  0
LINE
  5
1348
330
2
100
AcDbEntity
  8
0
100
AcDbLine
 10
582.9797355357247
 20
265.0600277929313
 30
0.0
 11
582.5085205619187
 21
292.0559155621537
 31
0.0
  0
ARC
  5
1349
330
2
100
AcDbEntity
  8
0
100
AcDbCircle
 10
585.9802642991114
 20
265.0559155621537
 30
0.0
 40
3.0
100
AcDbArc
 50
181.0000000000017
 51
270.0
  0
ARC
  5
134A
330
2
100
AcDbEntity
  8
0
100
AcDbCircle
 10
570.4167355125271
 20
316.8237342076969
 30
0.0
 40
3.0
100
AcDbArc
 50
270.0
 51
358.9999999999721
  0
LINE
  5
134B
330
2
100
AcDbEntity
  8
0
100
AcDbLine
 10
579.8880222655904
 20
313.823734207697
 30
0.0
 11
570.4167355125271
 21
313.8237342076974
 31
0.0
  0
LINE
  5
134C
330
2
100
AcDbEntity
  8
0
100
AcDbLine
 10
573.4162785979976
 20
316.771376988385
 30
0.0
 11
573.4742196978356
 21
320.0908203750283
 31
0.0
  0
ARC
  5
134D
330
2
100
AcDbEntity
  8
0
100
AcDbCircle
 10
575.4739150881493
 20
320.0559155621537
 30
0.0
 40
2.0
100
AcDbArc
 50
90.0
 51
178.9999999999721
  0
LINE
  5
134E
330
2
100
AcDbEntity
  8
0
100
AcDbLine
 10
572.0396775179458
 20
322.0559155621542
 30
0.0
 11
597.5085205619186
 21
322.0559155621537
 31
0.0
  0
ARC
  5
134F
330
2
100
AcDbEntity
  8
0
100
AcDbCircle
 10
585.9802642991114
 20
319.0559155621537
 30
0.0
 40
3.0
100
AcDbArc
 50
90.0
 51
178.9999999999982
  0
ARC
  5
1350
330
2
100
AcDbEntity
  8
0
100
AcDbCircle
 10
563.9147436982701
 20
326.0559155621537
 30
0.0
 40
2.0
100
AcDbArc
 50
1.000000000001775
 51
90.0
  0
LINE
  5
1351
330
2
100
AcDbEntity
  8
0
100
AcDbLine
 10
554.5085205619186
 20
328.0559155621537
 30
0.0
 11
563.9147436982701
 21
328.0559155621537
 31
0.0
  0
ARC
  5
1352
330
2
100
AcDbEntity
  8
0
100
AcDbCircle
 10
570.8429469285463
 20
327.0559155621542
 30
0.0
 40
5.0
100
AcDbArc
 50
188.213210701742
 51
196.1258621436043
  0
LINE
  5
1353
330
2
100
AcDbEntity
  8
0
100
AcDbLine
 10
597.5085205619186
 20
262.0559155621537
 30
0.0
 11
597.5085205619186
 21
322.0559155621537
 31
0.0
  0
LINE
  5
1354
330
2
100
AcDbEntity
  8
0
100
AcDbLine
 10
571.7396775179465
 20
265.1959155621536
 30
0.0
 11
567.0396775179458
 21
265.1959155621536
 31
0.0
  0
LINE
  5
1355
330
2
100
AcDbEntity
  8
0
100
AcDbLine
 10
567.0396775179458
 20
256.6959155621536
 30
0.0
 11
571.7396775179465
 21
256.6959155621536
 31
0.0
  0
LINE
  5
1356
330
2
100
AcDbEntity
  8
CENTER
  6
CENS
100
AcDbLine
 10
549.5085205619187
 20
260.9459155621536
 30
0.0
 11
576.9654934920006
 21
260.9459155621536
 31
0.0
  0
LINE
  5
1357
330
2
100
AcDbEntity
  8
0
100
AcDbLine
 10
572.0396775179458
 20
257.215530804424
 30
0.0
 11
572.0396775179458
 21
264.6763003198831
 31
0.0
  0
LINE
  5
1358
330
2
100
AcDbEntity
  8
0
100
AcDbLine
 10
571.7396775179465
 20
265.1959155621536
 30
0.0
 11
571.7396775179465
 21
256.6959155621536
 31
0.0
  0
LINE
  5
1359
330
2
100
AcDbEntity
  8
0
100
AcDbLine
 10
571.7396775179465
 20
265.1959155621536
 30
0.0
 11
572.0396775179458
 21
264.6763003198831
 31
0.0
  0
LINE
  5
135A
330
2
100
AcDbEntity
  8
0
100
AcDbLine
 10
572.0396775179458
 20
257.215530804424
 30
0.0
 11
571.7396775179465
 21
256.6959155621536
 31
0.0
  0
LINE
  5
135B
330
2
100
AcDbEntity
  8
0
100
AcDbLine
 10
567.0396775179458
 20
256.6959155621536
 30
0.0
 11
566.0396775179458
 21
256.6959155621536
 31
0.0
  0
LINE
  5
135C
330
2
100
AcDbEntity
  8
0
100
AcDbLine
 10
566.0396775179458
 20
256.6959155621536
 30
0.0
 11
566.0396775179458
 21
265.1959155621536
 31
0.0
  0
LINE
  5
135D
330
2
100
AcDbEntity
  8
0
100
AcDbLine
 10
566.0396775179458
 20
265.1959155621536
 30
0.0
 11
567.0396775179458
 21
265.1959155621536
 31
0.0
  0
LINE
  5
135E
330
2
100
AcDbEntity
  8
0
100
AcDbLine
 10
567.0396775179458
 20
265.1959155621536
 30
0.0
 11
567.0396775179458
 21
256.6959155621536
 31
0.0
  0
LINE
  5
135F
330
2
100
AcDbEntity
  8
0
100
AcDbLine
 10
567.0396775179458
 20
265.1959155621536
 30
0.0
 11
567.0396775179458
 21
256.6959155621536
 31
0.0
  0
LINE
  5
1360
330
2
100
AcDbEntity
  8
0
100
AcDbLine
 10
588.0085099528685
 20
299.0559155621541
 30
0.0
 11
578.0085099528666
 21
299.0559155621541
 31
0.0
  0
LINE
  5
1361
330
2
100
AcDbEntity
  8
0
100
AcDbLine
 10
588.0085099528667
 20
299.0559155621541
 30
0.0
 11
588.0085099528667
 21
292.0559155621537
 31
0.0
  0
LINE
  5
1362
330
2
100
AcDbEntity
  8
0
100
AcDbLine
 10
590.0085099528666
 20
300.2106161005333
 30
0.0
 11
588.0085099528667
 21
299.0559155621537
 31
0.0
  0
LINE
  5
1363
330
2
100
AcDbEntity
  8
0
100
AcDbLine
 10
561.0085099528685
 20
299.3059155621537
 30
0.0
 11
561.0085099528685
 21
292.0559155621537
 31
0.0
  0
LINE
  5
1364
330
2
100
AcDbEntity
  8
0
100
AcDbLine
 10
588.0085099528685
 20
299.0559155621541
 30
0.0
 11
578.0085099528666
 21
299.0559155621541
 31
0.0
  0
LINE
  5
1365
330
2
100
AcDbEntity
  8
0
100
AcDbLine
 10
582.9207241315405
 20
306.8059155621542
 30
0.0
 11
590.0085099528666
 21
306.8059155621542
 31
0.0
  0
LINE
  5
1366
330
2
100
AcDbEntity
  8
0
100
AcDbLine
 10
590.0085099528666
 20
306.8059155621542
 30
0.0
 11
590.0085099528666
 21
292.0559155621537
 31
0.0
  0
LINE
  5
1367
330
2
100
AcDbEntity
  8
0
100
AcDbLine
 10
576.0085099528667
 20
302.3405967488772
 30
0.0
 11
576.0085099528667
 21
292.0559155621537
 31
0.0
  0
LINE
  5
1368
330
2
100
AcDbEntity
  8
0
100
AcDbLine
 10
578.0085099528666
 20
302.8659968963085
 30
0.0
 11
578.0085099528666
 21
292.0559155621537
 31
0.0
  0
LINE
  5
1369
330
2
100
AcDbEntity
  8
0
100
AcDbLine
 10
569.0085099528685
 20
299.3059155621537
 30
0.0
 11
561.0085099528685
 21
299.3059155621537
 31
0.0
  0
LINE
  5
136A
330
2
100
AcDbEntity
  8
0
100
AcDbLine
 10
569.0085099528685
 20
292.0559155621537
 30
0.0
 11
569.0085099528685
 21
299.3059155621537
 31
0.0
  0
LINE
  5
136B
330
2
100
AcDbEntity
  8
0
100
AcDbLine
 10
576.0085099528667
 20
299.0559155621537
 30
0.0
 11
569.0085099528685
 21
299.0559155621537
 31
0.0
  0
LINE
  5
136C
330
2
100
AcDbEntity
  8
0
100
AcDbLine
 10
557.2557332031344
 20
292.0559155621532
 30
0.0
 11
561.0085099528685
 21
298.5559155621537
 31
0.0
  0
SPLINE
  5
136D
330
2
100
AcDbEntity
  8
HOJO
100
AcDbSpline
210
0.0
220
0.0
230
1.0
 70
     8
 71
     3
 72
    20
 73
    16
 74
     0
 42
0.0000000001
 43
0.0000000001
 40
0.0
 40
0.0
 40
0.0
 40
0.0
 40
5.311626210389601
 40
7.954639692924123
 40
10.24579206730457
 40
14.18281221953265
 40
18.83794314114633
 40
26.54246833222011
 40
31.19712602527561
 40
34.95638115537181
 40
42.12378530287149
 40
45.78553747213095
 40
50.20353689726185
 40
53.26513166942802
 40
54.23175360515262
 40
54.23175360515262
 40
54.23175360515262
 40
54.23175360515262
 10
597.5085205619168
 20
318.7433642841698
 30
0.0
 10
595.7955413960287
 20
318.6353222339436
 30
0.0
 10
593.2302004766177
 20
318.4735195115392
 30
0.0
 10
589.4584465895412
 20
318.221386839372
 30
0.0
 10
588.139305373407
 20
315.288945354405
 30
0.0
 10
585.7040960051169
 20
312.6344365311094
 30
0.0
 10
583.8660476619668
 20
307.4831410979456
 30
0.0
 10
579.7412112524896
 20
302.77339374632
 30
0.0
 10
574.2635637494829
 20
302.1360623119009
 30
0.0
 10
569.3501782399168
 20
301.7504906683599
 30
0.0
 10
564.5161788931589
 20
302.9140747778139
 30
0.0
 10
559.4784521285207
 20
300.2145445419493
 30
0.0
 10
556.4073015071506
 20
296.3403204128068
 30
0.0
 10
555.4073272124249
 20
293.6620798919172
 30
0.0
 10
555.0512876871932
 20
292.3670668618462
 30
0.0
 10
554.9685599151041
 20
292.0559155621537
 30
0.0
  0
LINE
  5
136E
330
2
100
AcDbEntity
  8
0
100
AcDbLine
 10
597.5085205619186
 20
317.0559155621542
 30
0.0
 11
590.5085205619186
 21
317.0559155621542
 31
0.0
  0
LINE
  5
136F
330
2
100
AcDbEntity
  8
0
100
AcDbLine
 10
590.5085205619186
 20
317.0559155621542
 30
0.0
 11
590.5085205619186
 21
292.0559155621537
 31
0.0
  0
LINE
  5
1370
330
2
100
AcDbEntity
  8
0
100
AcDbLine
 10
588.5085267331057
 20
326.0559155621537
 30
0.0
 11
578.5085267331058
 21
326.0559155621537
 31
0.0
  0
ARC
  5
1371
330
2
100
AcDbEntity
  8
0
100
AcDbCircle
 10
578.5085267331058
 20
322.0559155621537
 30
0.0
 40
4.0
100
AcDbArc
 50
90.0
 51
180.0
  0
ARC
  5
1372
330
2
100
AcDbEntity
  8
0
100
AcDbCircle
 10
588.5085267331057
 20
322.0559155621537
 30
0.0
 40
4.0
100
AcDbArc
 50
0.0
 51
90.0
  0
LINE
  5
1373
330
2
100
AcDbEntity
  8
0
100
AcDbLine
 10
587.4078538903015
 20
314.5559155621537
 30
0.0
 11
590.5085205619186
 21
314.5559155621537
 31
0.0
  0
LINE
  5
1A6E
330
2
100
AcDbEntity
  8
0
100
AcDbLine
 10
327.5303846401663
 20
156.1765186969125
 30
0.0
 11
322.0303846401618
 21
156.1765186969384
 31
0.0
  0
CIRCLE
  5
1B08
330
2
100
AcDbEntity
  8
0
100
AcDbCircle
 10
482.5085205667581
 20
292.0559155621539
 30
0.0
 40
19.5774
  0
ENDSEC
  0
SECTION
  2
OBJECTS
  0
DICTIONARY
  5
7
330
0
100
AcDbDictionary
  3
ACAD_COLOR
350
1A3B
  3
ACAD_GROUP
350
75
  3
ACAD_LAYOUT
350
61
  3
ACAD_MATERIAL
350
1A11
  3
ACAD_MLEADERSTYLE
350
1A60
  3
ACAD_MLINESTYLE
350
76
  3
ACAD_PLOTSETTINGS
350
77
  3
ACAD_PLOTSTYLENAME
350
6
  3
ACAD_SCALELIST
350
1A3E
  3
ACAD_TABLESTYLE
350
1A3C
  3
ACAD_VISUALSTYLE
350
1A2A
  3
ACADDIM
350
480
  3
ACDB_RECOMPOSE_DATA
350
1A83
  3
ACDBHEADERROUNDTRIPXREC
350
1B4C
  3
ACDBVARIABLEDICTIONARY
350
102
  3
DWGPROPS
350
1B18
  0
DICTIONARY
  5
1A8C
330
6E
100
AcDbDictionary
280
     1
  3
ACAD_XREC_ROUNDTRIP
360
1B1F
  0
DICTIONARY
  5
AE5
330
66
100
AcDbDictionary
280
     1
  3
ACAD_LAYERSTATES
360
AE6
  0
DICTIONARY
  5
1A6F
330
5E
100
AcDbDictionary
280
     1
  3
ACAD_XREC_ROUNDTRIP
360
1B1B
  3
ADSK_XREC_LAYER_RECONCILED
360
1A70
  0
DICTIONARY
  5
1A71
330
3E
100
AcDbDictionary
280
     1
  3
ACAD_XREC_ROUNDTRIP
360
1B1A
  3
ADSK_XREC_LAYER_RECONCILED
360
1A72
  0
DICTIONARY
  5
1A77
330
2B5
100
AcDbDictionary
280
     1
  3
ACAD_XREC_ROUNDTRIP
360
1B25
  3
ADSK_XREC_LAYER_RECONCILED
360
1A78
  0
DICTIONARY
  5
1A79
330
2BA
100
AcDbDictionary
280
     1
  3
ACAD_XREC_ROUNDTRIP
360
1B26
  3
ADSK_XREC_LAYER_RECONCILED
360
1A7A
  0
DICTIONARY
  5
1A7D
330
3FA
100
AcDbDictionary
280
     1
  3
ACAD_XREC_ROUNDTRIP
360
1B28
  3
ADSK_XREC_LAYER_RECONCILED
360
1A7E
  0
DICTIONARY
  5
1A7F
330
478
100
AcDbDictionary
280
     1
  3
ACAD_XREC_ROUNDTRIP
360
1B29
  3
ADSK_XREC_LAYER_RECONCILED
360
1A80
  0
DICTIONARY
  5
1B6D
330
2
100
AcDbDictionary
280
     1
  3
ACAD_LAYOUTSELFREF
360
1B6E
  0
DICTIONARY
  5
1B6F
330
1B46
100
AcDbDictionary
280
     1
  3
ACAD_LAYOUTSELFREF
360
1B70
  0
DICTIONARY
  5
1A3B
102
{ACAD_REACTORS
330
7
102
}
330
7
100
AcDbDictionary
  0
DICTIONARY
  5
75
102
{ACAD_REACTORS
330
7
102
}
330
7
100
AcDbDictionary
  0
DICTIONARY
  5
61
102
{ACAD_REACTORS
330
7
102
}
330
7
100
AcDbDictionary
  0
DICTIONARY
  5
1A11
102
{ACAD_REACTORS
330
7
102
}
330
7
100
AcDbDictionary
  3
BYBLOCK
350
1A1A
  3
BYLAYER
350
1A12
  3
GLOBAL
350
1A22
  0
DICTIONARY
  5
1A60
102
{ACAD_REACTORS
330
7
102
}
330
7
100
AcDbDictionary
  3
STANDARD
350
1A61
  0
DICTIONARY
  5
76
102
{ACAD_REACTORS
330
7
102
}
330
7
100
AcDbDictionary
  3
STANDARD
350
78
  0
DICTIONARY
  5
77
102
{ACAD_REACTORS
330
7
102
}
330
7
100
AcDbDictionary
  0
ACDBDICTIONARYWDFLT
  5
6
102
{ACAD_REACTORS
330
7
102
}
330
7
100
AcDbDictionary
281
     1
  3
Normal
350
5
100
AcDbDictionaryWithDefault
340
5
  0
DICTIONARY
  5
1A3E
102
{ACAD_REACTORS
330
7
102
}
330
7
100
AcDbDictionary
  3
A0
350
1A3F
  3
A1
350
1A40
  3
A2
350
1A41
  3
A3
350
1A42
  3
A4
350
1A43
  3
A5
350
1A44
  3
A6
350
1A45
  3
A7
350
1A46
  3
A8
350
1A47
  3
A9
350
1A48
  3
B0
350
1A49
  3
B1
350
1A4A
  3
B2
350
1A4B
  3
B3
350
1A4C
  3
B4
350
1A4D
  3
B5
350
1A4E
  3
B6
350
1A4F
  3
B7
350
1A50
  3
B8
350
1A51
  3
B9
350
1A52
  3
C0
350
1A53
  3
C1
350
1A54
  3
C2
350
1A55
  3
C3
350
1A56
  3
C4
350
1A57
  3
C5
350
1A58
  3
C6
350
1A59
  3
C7
350
1A5A
  3
C8
350
1A5B
  3
C9
350
1A5C
  3
D0
350
1A5D
  3
D1
350
1A5E
  3
D2
350
1A5F
  0
DICTIONARY
  5
1A3C
102
{ACAD_REACTORS
330
7
102
}
330
7
100
AcDbDictionary
  3
STANDARD
350
1A3D
  0
DICTIONARY
  5
1A2A
102
{ACAD_REACTORS
330
7
102
}
330
7
100
AcDbDictionary
  3
2DWIREFRAME
350
1A30
  3
3D_HIDDEN
350
1A32
  3
3DWIREFRAME
350
1A31
  3
BASIC
350
1A2F
  3
BRIGHTEN
350
1A36
  3
COLORCHANGE
350
1A3A
  3
CONCEPTUAL
350
1A33
  3
DIM
350
1A35
  3
FACEPATTERN
350
1A39
  3
FLAT
350
1A2B
  3
FLATWITHEDGES
350
1A2C
  3
GOURAUD
350
1A2D
  3
GOURAUDWITHEDGES
350
1A2E
  3
LINEPATTERN
350
1A38
  3
REALISTIC
350
1A34
  3
THICKEN
350
1A37
  0
XRECORD
  5
480
102
{ACAD_REACTORS
330
7
102
}
330
7
100
AcDbXrecord
 90
   990106
  3

 60
     0
 61
     0
 62
     1
 63
     3
 64
     1
 65
     0
 66
     0
 67
     3
 68
     1
 69
     0
 70
     0
 71
     0
 72
     0
 40
0.0
170
     2
340
0
  0
XRECORD
  5
1A83
102
{ACAD_REACTORS
330
7
102
}
330
7
100
AcDbXrecord
 90
        1
330
1A3D
  0
DICTIONARY
  5
1B4C
102
{ACAD_REACTORS
330
7
102
}
330
7
100
AcDbDictionary
  3
CEPSNTYPE
350
1B56
  3
DIMSTYLEDATA
350
1B5A
  3
FINGERPRINTGUID
350
1B57
  3
HYPERLINKBASE
350
1B4F
  3
INSUNITS
350
1B55
  3
LAYOUTDICT
350
1B51
  3
LWETCUNION
350
1B54
  3
PLOTSETDICT
350
1B52
  3
PLOTSTYLNAMDICT
350
1B53
  3
PSVPSCALE
350
1B59
  3
PUCSBASE
350
1B5D
  3
PUCSORGBACK
350
1B63
  3
PUCSORGBOTTOM
350
1B5F
  3
PUCSORGFRONT
350
1B62
  3
PUCSORGLEFT
350
1B60
  3
PUCSORGRIGHT
350
1B61
  3
PUCSORGTOP
350
1B5E
  3
PUCSORTHOREF
350
1B5B
  3
PUCSORTHOVIEW
350
1B5C
  3
STYLESHEET
350
1B50
  3
TSTACKALIGN
350
1B4D
  3
TSTACKSIZE
350
1B4E
  3
UCSBASE
350
1B66
  3
UCSORGBACK
350
1B6C
  3
UCSORGBOTTOM
350
1B68
  3
UCSORGFRONT
350
1B6B
  3
UCSORGLEFT
350
1B69
  3
UCSORGRIGHT
350
1B6A
  3
UCSORGTOP
350
1B67
  3
UCSORTHOREF
350
1B64
  3
UCSORTHOVIEW
350
1B65
  3
VERSIONGUID
350
1B58
  0
DICTIONARY
  5
102
102
{ACAD_REACTORS
330
7
102
}
330
7
100
AcDbDictionary
  3
CANNOSCALE
350
1AA4
  3
CMLEADERSTYLE
350
1AA3
  3
CTABLESTYLE
350
1AA2
  3
DIMASSOC
350
103
  3
INDEXCTL
350
1AA5
  3
SORTENTS
350
549
  0
XRECORD
  5
1B18
102
{ACAD_REACTORS
330
7
102
}
330
7
100
AcDbXrecord
  1
DWGPROPS COOKIE
  2

  3

  4

  6

  7

  8
ymorima
  9

300
=
301
=
302
=
303
=
304
=
305
=
306
=
307
=
308
=
309
=
 40
0.0133127430555556
 41
2454410.563830104
 42
2454425.675808553
  1

 90
        0
  0
XRECORD
  5
1B1F
102
{ACAD_REACTORS
330
1A8C
102
}
330
1A8C
100
AcDbXrecord
102
VTR_0.000_0.000_1.000_1.000_VISUALSTYLE
340
1A30
102
VTR_0.000_0.000_1.000_1.000_GRIDDISPLAY
 70
     3
102
VTR_0.000_0.000_1.000_1.000_GRIDMAJOR
 70
     5
102
VTR_0.000_0.000_1.000_1.000_DEFAULTLIGHTING
280
     1
102
VTR_0.000_0.000_1.000_1.000_DEFAULTLIGHTINGTYPE
 70
     1
102
VTR_0.000_0.000_1.000_1.000_BRIGHTNESS
141
0.0
102
VTR_0.000_0.000_1.000_1.000_CONTRAST
142
0.0
  0
DICTIONARY
  5
AE6
102
{ACAD_REACTORS
330
AE5
102
}
330
AE5
100
AcDbDictionary
  0
XRECORD
  5
1B1B
102
{ACAD_REACTORS
330
1A6F
102
}
330
1A6F
100
AcDbXrecord
102
MATERIAL
340
1A22
  0
XRECORD
  5
1A70
102
{ACAD_REACTORS
330
1A6F
102
}
330
1A6F
100
AcDbXrecord
290
     1
  0
XRECORD
  5
1B1A
102
{ACAD_REACTORS
330
1A71
102
}
330
1A71
100
AcDbXrecord
102
MATERIAL
340
1A22
  0
XRECORD
  5
1A72
102
{ACAD_REACTORS
330
1A71
102
}
330
1A71
100
AcDbXrecord
290
     1
  0
XRECORD
  5
1B25
102
{ACAD_REACTORS
330
1A77
102
}
330
1A77
100
AcDbXrecord
102
MATERIAL
340
1A22
  0
XRECORD
  5
1A78
102
{ACAD_REACTORS
330
1A77
102
}
330
1A77
100
AcDbXrecord
290
     1
  0
XRECORD
  5
1B26
102
{ACAD_REACTORS
330
1A79
102
}
330
1A79
100
AcDbXrecord
102
MATERIAL
340
1A22
  0
XRECORD
  5
1A7A
102
{ACAD_REACTORS
330
1A79
102
}
330
1A79
100
AcDbXrecord
290
     1
  0
XRECORD
  5
1B28
102
{ACAD_REACTORS
330
1A7D
102
}
330
1A7D
100
AcDbXrecord
102
MATERIAL
340
1A22
  0
XRECORD
  5
1A7E
102
{ACAD_REACTORS
330
1A7D
102
}
330
1A7D
100
AcDbXrecord
290
     1
  0
XRECORD
  5
1B29
102
{ACAD_REACTORS
330
1A7F
102
}
330
1A7F
100
AcDbXrecord
102
MATERIAL
340
1A22
  0
XRECORD
  5
1A80
102
{ACAD_REACTORS
330
1A7F
102
}
330
1A7F
100
AcDbXrecord
290
     1
  0
XRECORD
  5
1B6E
102
{ACAD_REACTORS
330
1B6D
102
}
330
1B6D
100
AcDbXrecord
340
2
  0
XRECORD
  5
1B70
102
{ACAD_REACTORS
330
1B6F
102
}
330
1B6F
100
AcDbXrecord
340
1B46
  0
ACAD_PROXY_OBJECT
  5
1A1A
102
{ACAD_XDICTIONARY
360
1A1B
102
}
102
{ACAD_REACTORS
330
1A11
102
}
330
1A11
100
AcDbProxyObject
 90
      499
 91
      510
 93
     1340
310
42109E509B1BD8DAC02004014080404555555555555953FAA155555555555654FEA9AA400014080404555555555555953FAA155555555555654FEA9AA400000000000000E03F4080404555555555555953FAA155555555555654FEA9AA4014080404555555555555953FAA155555555555654FEA9AA4010201011555555555
310
55654FEA8555555555555953FAA6A9005020101155555555555654FEA8555555555555953FAA6A9000
 94
        0
1001
ACAD
1000
AcadProxyRoundTripData
1071
      504
1071
   655383
1070
     0
  0
ACAD_PROXY_OBJECT
  5
1A12
102
{ACAD_XDICTIONARY
360
1A13
102
}
102
{ACAD_REACTORS
330
1A11
102
}
330
1A11
100
AcDbProxyObject
 90
      499
 91
      510
 93
     1340
310
42109E53185E595C802004014080404555555555555953FAA155555555555654FEA9AA400014080404555555555555953FAA155555555555654FEA9AA400000000000000E03F4080404555555555555953FAA155555555555654FEA9AA4014080404555555555555953FAA155555555555654FEA9AA4010201011555555555
310
55654FEA8555555555555953FAA6A9005020101155555555555654FEA8555555555555953FAA6A9000
 94
        0
1001
ACAD
1000
AcadProxyRoundTripData
1071
      504
1071
   655383
1070
     0
  0
ACAD_PROXY_OBJECT
  5
1A22
102
{ACAD_XDICTIONARY
360
1A23
102
}
102
{ACAD_REACTORS
330
1A11
102
}
330
1A11
100
AcDbProxyObject
 90
      499
 91
      510
 93
     1332
310
41D1DB1BD8985B002004014080404555555555555953FAA155555555555654FEA9AA400014080404555555555555953FAA155555555555654FEA9AA400000000000000E03F4080404555555555555953FAA155555555555654FEA9AA4014080404555555555555953FAA155555555555654FEA9AA401020101155555555555
310
654FEA8555555555555953FAA6A9005020101155555555555654FEA8555555555555953FAA6A9000
 94
        0
1001
ACAD
1000
AcadProxyRoundTripData
1071
      504
1071
   655383
1070
     0
  0
ACAD_PROXY_OBJECT
  5
1A61
102
{ACAD_REACTORS
330
1A60
102
}
330
1A60
100
AcDbProxyObject
 90
      499
 91
      510
 93
      618
310
40901902A4063FBFFFFFE056BD1B81E855B9FC0AD7A3703D0AD73F4254DD185B99185C990000AD7A3703D0AC73F90141901A02B5E8DC0F42B1CFC02B5E8DC0F42B1CFE5764000000000000300FC6
340
6A
340
0
340
16
340
0
 94
        0
1001
ACAD_MLEADERVER
1070
     2
1001
ACAD
1000
AcadProxyRoundTripData
1071
      508
1071
   655383
1070
     0
  0
MLINESTYLE
  5
78
102
{ACAD_REACTORS
330
76
102
}
330
76
100
AcDbMlineStyle
  2
STANDARD
 70
     0
  3

 62
     0
 51
90.0
 52
90.0
 71
     2
 49
0.5
 62
   256
  6
BYLAYER
 49
-0.5
 62
   256
  6
BYLAYER
  0
ACDBPLACEHOLDER
  5
5
102
{ACAD_REACTORS
330
6
102
}
330
6
100
AcDbPlaceHolder
280
     0
  0
ACAD_PROXY_OBJECT
  5
1A3F
102
{ACAD_REACTORS
330
1A3E
102
}
330
1A3E
100
AcDbProxyObject
 90
      499
 91
      510
 93
       49
310
904313A3100598
 94
        0
1001
ACAD
1000
AcadProxyRoundTripData
1071
      507
1071
   655383
1070
     0
  0
ACAD_PROXY_OBJECT
  5
1A40
102
{ACAD_REACTORS
330
1A3E
102
}
330
1A3E
100
AcDbProxyObject
 90
      499
 91
      510
 93
      113
310
904313A3200400000000000000406B
 94
        0
1001
ACAD
1000
AcadProxyRoundTripData
1071
      507
1071
   655383
1070
     0
  0
ACAD_PROXY_OBJECT
  5
1A41
102
{ACAD_REACTORS
330
1A3E
102
}
330
1A3E
100
AcDbProxyObject
 90
      499
 91
      510
 93
      113
310
904313A3400400000000000010406B
 94
        0
1001
ACAD
1000
AcadProxyRoundTripData
1071
      507
1071
   655383
1070
     0
  0
ACAD_PROXY_OBJECT
  5
1A42
102
{ACAD_REACTORS
330
1A3E
102
}
330
1A3E
100
AcDbProxyObject
 90
      499
 91
      510
 93
      113
310
904313A3500400000000000014406B
 94
        0
1001
ACAD
1000
AcadProxyRoundTripData
1071
      507
1071
   655383
1070
     0
  0
ACAD_PROXY_OBJECT
  5
1A43
102
{ACAD_REACTORS
330
1A3E
102
}
330
1A3E
100
AcDbProxyObject
 90
      499
 91
      510
 93
      113
310
904313A3800400000000000020406B
 94
        0
1001
ACAD
1000
AcadProxyRoundTripData
1071
      507
1071
   655383
1070
     0
  0
ACAD_PROXY_OBJECT
  5
1A44
102
{ACAD_REACTORS
330
1A3E
102
}
330
1A3E
100
AcDbProxyObject
 90
      499
 91
      510
 93
      121
310
905313A3130004000000000000244051
 94
        0
1001
ACAD
1000
AcadProxyRoundTripData
1071
      507
1071
   655383
1070
     0
  0
ACAD_PROXY_OBJECT
  5
1A45
102
{ACAD_REACTORS
330
1A3E
102
}
330
1A3E
100
AcDbProxyObject
 90
      499
 91
      510
 93
      121
310
905313A3136004000000000000304051
 94
        0
1001
ACAD
1000
AcadProxyRoundTripData
1071
      507
1071
   655383
1070
     0
  0
ACAD_PROXY_OBJECT
  5
1A46
102
{ACAD_REACTORS
330
1A3E
102
}
330
1A3E
100
AcDbProxyObject
 90
      499
 91
      510
 93
      121
310
905313A3230004000000000000344051
 94
        0
1001
ACAD
1000
AcadProxyRoundTripData
1071
      507
1071
   655383
1070
     0
  0
ACAD_PROXY_OBJECT
  5
1A47
102
{ACAD_REACTORS
330
1A3E
102
}
330
1A3E
100
AcDbProxyObject
 90
      499
 91
      510
 93
      121
310
905313A33300040000000000003E4051
 94
        0
1001
ACAD
1000
AcadProxyRoundTripData
1071
      507
1071
   655383
1070
     0
  0
ACAD_PROXY_OBJECT
  5
1A48
102
{ACAD_REACTORS
330
1A3E
102
}
330
1A3E
100
AcDbProxyObject
 90
      499
 91
      510
 93
      121
310
905313A3430004000000000000444051
 94
        0
1001
ACAD
1000
AcadProxyRoundTripData
1071
      507
1071
   655383
1070
     0
  0
ACAD_PROXY_OBJECT
  5
1A49
102
{ACAD_REACTORS
330
1A3E
102
}
330
1A3E
100
AcDbProxyObject
 90
      499
 91
      510
 93
      121
310
905313A3530004000000000000494051
 94
        0
1001
ACAD
1000
AcadProxyRoundTripData
1071
      507
1071
   655383
1070
     0
  0
ACAD_PROXY_OBJECT
  5
1A4A
102
{ACAD_REACTORS
330
1A3E
102
}
330
1A3E
100
AcDbProxyObject
 90
      499
 91
      510
 93
      129
310
906313A313030004000000000000594038
 94
        0
1001
ACAD
1000
AcadProxyRoundTripData
1071
      507
1071
   655383
1070
     0
  0
ACAD_PROXY_OBJECT
  5
1A4B
102
{ACAD_REACTORS
330
1A3E
102
}
330
1A3E
100
AcDbProxyObject
 90
      499
 91
      510
 93
      113
310
904323A31000000000000000010159
 94
        0
1001
ACAD
1000
AcadProxyRoundTripData
1071
      507
1071
   655383
1070
     0
  0
ACAD_PROXY_OBJECT
  5
1A4C
102
{ACAD_REACTORS
330
1A3E
102
}
330
1A3E
100
AcDbProxyObject
 90
      499
 91
      510
 93
      113
310
904343A31000000000000000410159
 94
        0
1001
ACAD
1000
AcadProxyRoundTripData
1071
      507
1071
   655383
1070
     0
  0
ACAD_PROXY_OBJECT
  5
1A4D
102
{ACAD_REACTORS
330
1A3E
102
}
330
1A3E
100
AcDbProxyObject
 90
      499
 91
      510
 93
      113
310
904383A31000000000000000810159
 94
        0
1001
ACAD
1000
AcadProxyRoundTripData
1071
      507
1071
   655383
1070
     0
  0
ACAD_PROXY_OBJECT
  5
1A4E
102
{ACAD_REACTORS
330
1A3E
102
}
330
1A3E
100
AcDbProxyObject
 90
      499
 91
      510
 93
      121
310
90531303A31000000000000000910140
 94
        0
1001
ACAD
1000
AcadProxyRoundTripData
1071
      507
1071
   655383
1070
     0
  0
ACAD_PROXY_OBJECT
  5
1A4F
102
{ACAD_REACTORS
330
1A3E
102
}
330
1A3E
100
AcDbProxyObject
 90
      499
 91
      510
 93
      129
310
9063130303A31000000000000001650138
 94
        0
1001
ACAD
1000
AcadProxyRoundTripData
1071
      507
1071
   655383
1070
     0
  0
ACAD_PROXY_OBJECT
  5
1A50
102
{ACAD_REACTORS
330
1A3E
102
}
330
1A3E
100
AcDbProxyObject
 90
      499
 91
      510
 93
      265
310
90F312F31323822203D2031272D302200000000000000200FC00000000000028402B
 94
        0
1001
ACAD
1000
AcadProxyRoundTripData
1071
      507
1071
   655383
1070
     0
  0
ACAD_PROXY_OBJECT
  5
1A51
102
{ACAD_REACTORS
330
1A3E
102
}
330
1A3E
100
AcDbProxyObject
 90
      499
 91
      510
 93
      257
310
90E312F363422203D2031272D302200000000000000240FC000000000000284040
 94
        0
1001
ACAD
1000
AcadProxyRoundTripData
1071
      507
1071
   655383
1070
     0
  0
ACAD_PROXY_OBJECT
  5
1A52
102
{ACAD_REACTORS
330
1A3E
102
}
330
1A3E
100
AcDbProxyObject
 90
      499
 91
      510
 93
      257
310
90E312F333222203D2031272D302200000000000000280FC000000000000284040
 94
        0
1001
ACAD
1000
AcadProxyRoundTripData
1071
      507
1071
   655383
1070
     0
  0
ACAD_PROXY_OBJECT
  5
1A53
102
{ACAD_REACTORS
330
1A3E
102
}
330
1A3E
100
AcDbProxyObject
 90
      499
 91
      510
 93
      257
310
90E312F313622203D2031272D3022000000000000002C0FC000000000000284040
 94
        0
1001
ACAD
1000
AcadProxyRoundTripData
1071
      507
1071
   655383
1070
     0
  0
ACAD_PROXY_OBJECT
  5
1A54
102
{ACAD_REACTORS
330
1A3E
102
}
330
1A3E
100
AcDbProxyObject
 90
      499
 91
      510
 93
      257
310
90E332F333222203D2031272D3022000000000000002E0FC000000000000284040
 94
        0
1001
ACAD
1000
AcadProxyRoundTripData
1071
      507
1071
   655383
1070
     0
  0
ACAD_PROXY_OBJECT
  5
1A55
102
{ACAD_REACTORS
330
1A3E
102
}
330
1A3E
100
AcDbProxyObject
 90
      499
 91
      510
 93
      249
310
90D312F3822203D2031272D302200000000000000300FC000000000000284040
 94
        0
1001
ACAD
1000
AcadProxyRoundTripData
1071
      507
1071
   655383
1070
     0
  0
ACAD_PROXY_OBJECT
  5
1A56
102
{ACAD_REACTORS
330
1A3E
102
}
330
1A3E
100
AcDbProxyObject
 90
      499
 91
      510
 93
      257
310
90E332F313622203D2031272D302200000000000000320FC000000000000284040
 94
        0
1001
ACAD
1000
AcadProxyRoundTripData
1071
      507
1071
   655383
1070
     0
  0
ACAD_PROXY_OBJECT
  5
1A57
102
{ACAD_REACTORS
330
1A3E
102
}
330
1A3E
100
AcDbProxyObject
 90
      499
 91
      510
 93
      249
310
90D312F3422203D2031272D302200000000000000340FC000000000000284040
 94
        0
1001
ACAD
1000
AcadProxyRoundTripData
1071
      507
1071
   655383
1070
     0
  0
ACAD_PROXY_OBJECT
  5
1A58
102
{ACAD_REACTORS
330
1A3E
102
}
330
1A3E
100
AcDbProxyObject
 90
      499
 91
      510
 93
      249
310
90D332F3822203D2031272D302200000000000000360FC000000000000284040
 94
        0
1001
ACAD
1000
AcadProxyRoundTripData
1071
      507
1071
   655383
1070
     0
  0
ACAD_PROXY_OBJECT
  5
1A59
102
{ACAD_REACTORS
330
1A3E
102
}
330
1A3E
100
AcDbProxyObject
 90
      499
 91
      510
 93
      249
310
90D312F3222203D2031272D302200000000000000380FC000000000000284040
 94
        0
1001
ACAD
1000
AcadProxyRoundTripData
1071
      507
1071
   655383
1070
     0
  0
ACAD_PROXY_OBJECT
  5
1A5A
102
{ACAD_REACTORS
330
1A3E
102
}
330
1A3E
100
AcDbProxyObject
 90
      499
 91
      510
 93
      249
310
90D332F3422203D2031272D3022000000000000003A0FC000000000000284040
 94
        0
1001
ACAD
1000
AcadProxyRoundTripData
1071
      507
1071
   655383
1070
     0
  0
ACAD_PROXY_OBJECT
  5
1A5B
102
{ACAD_REACTORS
330
1A3E
102
}
330
1A3E
100
AcDbProxyObject
 90
      499
 91
      510
 93
      169
310
90B3122203D2031272D3022004000000000000284020
 94
        0
1001
ACAD
1000
AcadProxyRoundTripData
1071
      507
1071
   655383
1070
     0
  0
ACAD_PROXY_OBJECT
  5
1A5C
102
{ACAD_REACTORS
330
1A3E
102
}
330
1A3E
100
AcDbProxyObject
 90
      499
 91
      510
 93
      265
310
90F312D312F3222203D2031272D3022000000000000003E0FC00000000000028402B
 94
        0
1001
ACAD
1000
AcadProxyRoundTripData
1071
      507
1071
   655383
1070
     0
  0
ACAD_PROXY_OBJECT
  5
1A5D
102
{ACAD_REACTORS
330
1A3E
102
}
330
1A3E
100
AcDbProxyObject
 90
      499
 91
      510
 93
      233
310
90B3322203D2031272D30220000000000000002100000000000000284000
 94
        0
1001
ACAD
1000
AcadProxyRoundTripData
1071
      507
1071
   655383
1070
     0
  0
ACAD_PROXY_OBJECT
  5
1A5E
102
{ACAD_REACTORS
330
1A3E
102
}
330
1A3E
100
AcDbProxyObject
 90
      499
 91
      510
 93
      233
310
90B3622203D2031272D30220000000000000006100000000000000284000
 94
        0
1001
ACAD
1000
AcadProxyRoundTripData
1071
      507
1071
   655383
1070
     0
  0
ACAD_PROXY_OBJECT
  5
1A5F
102
{ACAD_REACTORS
330
1A3E
102
}
330
1A3E
100
AcDbProxyObject
 90
      499
 91
      510
 93
      257
310
90E31272D3022203D2031272D3022000000000000000A100000000000000284040
 94
        0
1001
ACAD
1000
AcadProxyRoundTripData
1071
      507
1071
   655383
1070
     0
  0
ACAD_PROXY_OBJECT
  5
1A3D
102
{ACAD_XDICTIONARY
360
1A81
102
}
102
{ACAD_REACTORS
330
1A3C
102
}
330
1A3C
100
AcDbProxyObject
 90
      499
 91
      510
 93
     1849
310
4254DD185B99185C990028B81E85EB51B8AE3F2E07A17AD46E2B8FC02B5E8DC0F42B1CFD028000000C1008070000C3001FDFF8000000C1003FBFF000000182007F7FE00000030400FEFFC00000060801FDFF8000000C1003FBFF00000018200000000000000681FA0B0000001820100E000186003FBFF000000182007F7FE0
310
0000030400FEFFC00000060801FDFF8000000C1003FBFF000000182007F7FE000000304000AD7A3703D0AC73F4160000003040201C00030C007F7FE00000030400FEFFC00000060801FDFF8000000C1003FBFF000000182007F7FE00000030400FEFFC000000608000
340
16
340
16
340
16
 94
        0
1001
ACAD
1000
AcadProxyRoundTripData
1071
      506
1071
   655383
1070
     0
  0
ACAD_PROXY_OBJECT
  5
1A30
102
{ACAD_REACTORS
330
1A2A
102
}
330
1A2A
100
AcDbProxyObject
 90
      499
 91
      510
 93
      444
310
430C9915DA5C99599C985B59401049028333333333333E3BF0000000000000FB0107901411070040501600405405064090741402480A0340
 94
        0
1001
ACAD
1000
AcDbSavedByObjectVersion
1070
     0
1000
AcadProxyRoundTripData
1071
      505
1071
   655383
1070
     0
  0
ACAD_PROXY_OBJECT
  5
1A32
102
{ACAD_REACTORS
330
1A2A
102
}
330
1A2A
100
AcDbProxyObject
 90
      499
 91
      510
 93
      508
310
428CD108121A5919195B8010640502408333333333333E3BF0000000000000FB01079024090700405020000000000001110200405405064090740C02480A0340
 94
        0
1001
ACAD
1000
AcDbSavedByObjectVersion
1070
     0
1000
AcadProxyRoundTripData
1071
      505
1071
   655383
1070
     0
  0
ACAD_PROXY_OBJECT
  5
1A31
102
{ACAD_REACTORS
330
1A2A
102
}
330
1A2A
100
AcDbProxyObject
 90
      499
 91
      510
 93
      444
310
430CD915DA5C99599C985B59401059028333333333333E3BF0000000000000FB0107901411070040501600405405064090741402480A0340
 94
        0
1001
ACAD
1000
AcDbSavedByObjectVersion
1070
     0
1000
AcadProxyRoundTripData
1071
      505
1071
   655383
1070
     0
  0
ACAD_PROXY_OBJECT
  5
1A2F
102
{ACAD_REACTORS
330
1A2A
102
}
330
1A2A
100
AcDbProxyObject
 90
      499
 91
      510
 93
      396
310
4190985CDA58C0107406404333333333333E3BF0000000000000FB0107A41107004050150841D405064090741402480A0356
 94
        0
1001
ACAD
1000
AcDbSavedByObjectVersion
1070
     0
1000
AcadProxyRoundTripData
1071
      505
1071
   655383
1070
     0
  0
ACAD_PROXY_OBJECT
  5
1A36
102
{ACAD_REACTORS
330
1A2A
102
}
330
1A2A
100
AcDbProxyObject
 90
      499
 91
      510
 93
      436
310
42509C9A59DA1D195B8010C409028333333333333E3BF0000000000000FB010790141107004050150841D405064090741402480A029956
 94
        0
1001
ACAD
1000
AcDbSavedByObjectVersion
1070
     0
1000
AcadProxyRoundTripData
1071
      505
1071
   655383
1070
     0
  0
ACAD_PROXY_OBJECT
  5
1A3A
102
{ACAD_REACTORS
330
1A2A
102
}
330
1A2A
100
AcDbProxyObject
 90
      499
 91
      510
 93
      460
310
4310DBDB1BDC90DA185B99D9401104090240C333333333333E3BF0000000000000FB0108901411070040501508421405064090741402480A0354
 94
        0
1001
ACAD
1000
AcDbSavedByObjectVersion
1070
     0
1000
AcadProxyRoundTripData
1071
      505
1071
   655383
1070
     0
  0
ACAD_PROXY_OBJECT
  5
1A33
102
{ACAD_REACTORS
330
1A2A
102
}
330
1A2A
100
AcDbProxyObject
 90
      499
 91
      510
 93
      508
310
42D0DBDB98D95C1D1D585B0010940D028333333333333E3BF0000000000000FB0107902409070040501000000000000111010841D405064090740C02480A0340
 94
        0
1001
ACAD
1000
AcDbSavedByObjectVersion
1070
     0
1000
AcadProxyRoundTripData
1071
      505
1071
   655383
1070
     0
  0
ACAD_PROXY_OBJECT
  5
1A35
102
{ACAD_REACTORS
330
1A2A
102
}
330
1A2A
100
AcDbProxyObject
 90
      499
 91
      510
 93
      420
310
41111A5B4010B409028333333333333E3BF0000000000000FB010790141107004050150841D405064090741402480A02677FFFFFDB
 94
        0
1001
ACAD
1000
AcDbSavedByObjectVersion
1070
     0
1000
AcadProxyRoundTripData
1071
      505
1071
   655383
1070
     0
  0
ACAD_PROXY_OBJECT
  5
1A39
102
{ACAD_REACTORS
330
1A2A
102
}
330
1A2A
100
AcDbProxyObject
 90
      499
 91
      510
 93
      452
310
43119858D95C185D1D195C9B8010F409028333333333333E3BF0000000000000FB010790141107004050150841D405064090741402480A0350
 94
        0
1001
ACAD
1000
AcDbSavedByObjectVersion
1070
     0
1000
AcadProxyRoundTripData
1071
      505
1071
   655383
1070
     0
  0
ACAD_PROXY_OBJECT
  5
1A2B
102
{ACAD_REACTORS
330
1A2A
102
}
330
1A2A
100
AcDbProxyObject
 90
      499
 91
      510
 93
      396
310
41519B185D00240901404333333333333E3BF0000000000000F9010740A41107004050150841D405064090741402480A1B55
 94
        0
1001
ACAD
1000
AcDbSavedByObjectVersion
1070
     0
1000
AcadProxyRoundTripData
1071
      505
1071
   655383
1070
     0
  0
ACAD_PROXY_OBJECT
  5
1A2C
102
{ACAD_REACTORS
330
1A2A
102
}
330
1A2A
100
AcDbProxyObject
 90
      499
 91
      510
 93
      484
310
43919B185D15DA5D1A115919D95CC010140901404333333333333E3BF0000000000000F9010740901411070040501600405405064090741402480A1B50
 94
        0
1001
ACAD
1000
AcDbSavedByObjectVersion
1070
     0
1000
AcadProxyRoundTripData
1071
      505
1071
   655383
1070
     0
  0
ACAD_PROXY_OBJECT
  5
1A2D
102
{ACAD_REACTORS
330
1A2A
102
}
330
1A2A
100
AcDbProxyObject
 90
      499
 91
      510
 93
      420
310
4211DBDD5C985D590010240902404333333333333E3BF0000000000000F9010740A411070040501641D405064090741402480A1B50
 94
        0
1001
ACAD
1000
AcDbSavedByObjectVersion
1070
     0
1000
AcadProxyRoundTripData
1071
      505
1071
   655383
1070
     0
  0
ACAD_PROXY_OBJECT
  5
1A2E
102
{ACAD_REACTORS
330
1A2A
102
}
330
1A2A
100
AcDbProxyObject
 90
      499
 91
      510
 93
      508
310
4451DBDD5C985D5915DA5D1A115919D95CC010340902404333333333333E3BF0000000000000F9010740901411070040501600405405064090741402480A1B50
 94
        0
1001
ACAD
1000
AcDbSavedByObjectVersion
1070
     0
1000
AcadProxyRoundTripData
1071
      505
1071
   655383
1070
     0
  0
ACAD_PROXY_OBJECT
  5
1A38
102
{ACAD_REACTORS
330
1A2A
102
}
330
1A2A
100
AcDbProxyObject
 90
      499
 91
      510
 93
      452
310
43131A5B995C185D1D195C9B8010E409028333333333333E3BF0000000000000FB010790141107004050750841D405064090741402483A0350
 94
        0
1001
ACAD
1000
AcDbSavedByObjectVersion
1070
     0
1000
AcadProxyRoundTripData
1071
      505
1071
   655383
1070
     0
  0
ACAD_PROXY_OBJECT
  5
1A34
102
{ACAD_REACTORS
330
1A2A
102
}
330
1A2A
100
AcDbProxyObject
 90
      499
 91
      510
 93
      428
310
429499585B1A5CDD1A58C0108409028333333333333E3BF0000000000000FB01079019070040501508421405064090741402480A1B45
 94
        0
1001
ACAD
1000
AcDbSavedByObjectVersion
1070
     0
1000
AcadProxyRoundTripData
1071
      505
1071
   655383
1070
     0
  0
ACAD_PROXY_OBJECT
  5
1A37
102
{ACAD_REACTORS
330
1A2A
102
}
330
1A2A
100
AcDbProxyObject
 90
      499
 91
      510
 93
      420
310
42151A1A58DAD95B8010D409028333333333333E3BF0000000000000FB010790141107004050150C41D405064090741402480A0352
 94
        0
1001
ACAD
1000
AcDbSavedByObjectVersion
1070
     0
1000
AcadProxyRoundTripData
1071
      505
1071
   655383
1070
     0
  0
XRECORD
  5
1B56
102
{ACAD_REACTORS
330
1B4C
102
}
330
1B4C
100
AcDbXrecord
 90
        0
  0
XRECORD
  5
1B5A
102
{ACAD_REACTORS
330
1B4C
102
}
330
1B4C
100
AcDbXrecord
1000
DSTYLE
1002
{
1070
   179
 70
     2
1070
   277
 70
     6
1002
}
  0
XRECORD
  5
1B57
102
{ACAD_REACTORS
330
1B4C
102
}
330
1B4C
100
AcDbXrecord
  1
{6385560B-F4B1-4644-A7C2-A3E32AC3D232}
  0
XRECORD
  5
1B4F
102
{ACAD_REACTORS
330
1B4C
102
}
330
1B4C
100
AcDbXrecord
  1

  0
XRECORD
  5
1B55
102
{ACAD_REACTORS
330
1B4C
102
}
330
1B4C
100
AcDbXrecord
 90
        0
  0
XRECORD
  5
1B51
102
{ACAD_REACTORS
330
1B4C
102
}
330
1B4C
100
AcDbXrecord
340
61
  0
XRECORD
  5
1B54
102
{ACAD_REACTORS
330
1B4C
102
}
330
1B4C
100
AcDbXrecord
 90
    10781
  0
XRECORD
  5
1B52
102
{ACAD_REACTORS
330
1B4C
102
}
330
1B4C
100
AcDbXrecord
340
77
  0
XRECORD
  5
1B53
102
{ACAD_REACTORS
330
1B4C
102
}
330
1B4C
100
AcDbXrecord
340
6
  0
XRECORD
  5
1B59
102
{ACAD_REACTORS
330
1B4C
102
}
330
1B4C
100
AcDbXrecord
 40
0.0
  0
XRECORD
  5
1B5D
102
{ACAD_REACTORS
330
1B4C
102
}
330
1B4C
100
AcDbXrecord
340
0
  0
XRECORD
  5
1B63
102
{ACAD_REACTORS
330
1B4C
102
}
330
1B4C
100
AcDbXrecord
 10
0.0
 20
0.0
 30
0.0
  0
XRECORD
  5
1B5F
102
{ACAD_REACTORS
330
1B4C
102
}
330
1B4C
100
AcDbXrecord
 10
0.0
 20
0.0
 30
0.0
  0
XRECORD
  5
1B62
102
{ACAD_REACTORS
330
1B4C
102
}
330
1B4C
100
AcDbXrecord
 10
0.0
 20
0.0
 30
0.0
  0
XRECORD
  5
1B60
102
{ACAD_REACTORS
330
1B4C
102
}
330
1B4C
100
AcDbXrecord
 10
0.0
 20
0.0
 30
0.0
  0
XRECORD
  5
1B61
102
{ACAD_REACTORS
330
1B4C
102
}
330
1B4C
100
AcDbXrecord
 10
0.0
 20
0.0
 30
0.0
  0
XRECORD
  5
1B5E
102
{ACAD_REACTORS
330
1B4C
102
}
330
1B4C
100
AcDbXrecord
 10
0.0
 20
0.0
 30
0.0
  0
XRECORD
  5
1B5B
102
{ACAD_REACTORS
330
1B4C
102
}
330
1B4C
100
AcDbXrecord
340
0
  0
XRECORD
  5
1B5C
102
{ACAD_REACTORS
330
1B4C
102
}
330
1B4C
100
AcDbXrecord
 70
     0
  0
XRECORD
  5
1B50
102
{ACAD_REACTORS
330
1B4C
102
}
330
1B4C
100
AcDbXrecord
  1
Sekkei.ctb
  0
XRECORD
  5
1B4D
102
{ACAD_REACTORS
330
1B4C
102
}
330
1B4C
100
AcDbXrecord
 90
        1
  0
XRECORD
  5
1B4E
102
{ACAD_REACTORS
330
1B4C
102
}
330
1B4C
100
AcDbXrecord
 90
       70
  0
XRECORD
  5
1B66
102
{ACAD_REACTORS
330
1B4C
102
}
330
1B4C
100
AcDbXrecord
340
0
  0
XRECORD
  5
1B6C
102
{ACAD_REACTORS
330
1B4C
102
}
330
1B4C
100
AcDbXrecord
 10
0.0
 20
0.0
 30
0.0
  0
XRECORD
  5
1B68
102
{ACAD_REACTORS
330
1B4C
102
}
330
1B4C
100
AcDbXrecord
 10
0.0
 20
0.0
 30
0.0
  0
XRECORD
  5
1B6B
102
{ACAD_REACTORS
330
1B4C
102
}
330
1B4C
100
AcDbXrecord
 10
0.0
 20
0.0
 30
0.0
  0
XRECORD
  5
1B69
102
{ACAD_REACTORS
330
1B4C
102
}
330
1B4C
100
AcDbXrecord
 10
0.0
 20
0.0
 30
0.0
  0
XRECORD
  5
1B6A
102
{ACAD_REACTORS
330
1B4C
102
}
330
1B4C
100
AcDbXrecord
 10
0.0
 20
0.0
 30
0.0
  0
XRECORD
  5
1B67
102
{ACAD_REACTORS
330
1B4C
102
}
330
1B4C
100
AcDbXrecord
 10
0.0
 20
0.0
 30
0.0
  0
XRECORD
  5
1B64
102
{ACAD_REACTORS
330
1B4C
102
}
330
1B4C
100
AcDbXrecord
340
0
  0
XRECORD
  5
1B65
102
{ACAD_REACTORS
330
1B4C
102
}
330
1B4C
100
AcDbXrecord
 70
     0
  0
XRECORD
  5
1B58
102
{ACAD_REACTORS
330
1B4C
102
}
330
1B4C
100
AcDbXrecord
  1
{2731F342-25A2-4FED-8E3A-687AAE509364}
  0
DICTIONARYVAR
  5
1AA4
102
{ACAD_REACTORS
330
102
102
}
330
102
100
DictionaryVariables
280
     0
  1
1:1
  0
DICTIONARYVAR
  5
1AA3
102
{ACAD_REACTORS
330
102
102
}
330
102
100
DictionaryVariables
280
     0
  1
STANDARD
  0
DICTIONARYVAR
  5
1AA2
102
{ACAD_REACTORS
330
102
102
}
330
102
100
DictionaryVariables
280
     0
  1
STANDARD
  0
DICTIONARYVAR
  5
103
102
{ACAD_REACTORS
330
102
102
}
330
102
100
DictionaryVariables
280
     0
  1
1
  0
DICTIONARYVAR
  5
1AA5
102
{ACAD_REACTORS
330
102
102
}
330
102
100
DictionaryVariables
280
     0
  1
0
  0
DICTIONARYVAR
  5
549
102
{ACAD_REACTORS
330
102
102
}
330
102
100
DictionaryVariables
280
     0
  1
96
  0
DICTIONARY
  5
1A1B
330
1A1A
100
AcDbDictionary
280
     1
  3
ACAD_XREC_ROUNDTRIP
360
1B31
  3
BUMPTILE
360
1A1D
  3
DIFFUSETILE
360
1A1C
  3
OPACITYTILE
360
1A20
  3
REFLECTIONTILE
360
1A1F
  3
REFRACTIONTILE
360
1A21
  3
SPECULARTILE
360
1A1E
  0
DICTIONARY
  5
1A13
330
1A12
100
AcDbDictionary
280
     1
  3
ACAD_XREC_ROUNDTRIP
360
1B30
  3
BUMPTILE
360
1A15
  3
DIFFUSETILE
360
1A14
  3
OPACITYTILE
360
1A18
  3
REFLECTIONTILE
360
1A17
  3
REFRACTIONTILE
360
1A19
  3
SPECULARTILE
360
1A16
  0
DICTIONARY
  5
1A23
330
1A22
100
AcDbDictionary
280
     1
  3
ACAD_XREC_ROUNDTRIP
360
1B32
  3
BUMPTILE
360
1A25
  3
DIFFUSETILE
360
1A24
  3
OPACITYTILE
360
1A28
  3
REFLECTIONTILE
360
1A27
  3
REFRACTIONTILE
360
1A29
  3
SPECULARTILE
360
1A26
  0
DICTIONARY
  5
1A81
330
1A3D
100
AcDbDictionary
280
     1
  3
ACAD_ROUNDTRIP_2008_TABLES
360
1B17
  3
ACAD_XREC_ROUNDTRIP
360
1B33
  0
XRECORD
  5
1B31
102
{ACAD_REACTORS
330
1A1B
102
}
330
1A1B
100
AcDbXrecord
102
MATERIAL
148
0.0
149
0.0
149
0.0
 93
        0
 94
      127
282
     0
 72
     0
 77
     0
171
     0
175
     0
179
     0
273
     0
  0
XRECORD
  5
1A1D
102
{ACAD_REACTORS
330
1A1B
102
}
330
1A1B
100
AcDbXrecord
270
     1
271
     1
  0
XRECORD
  5
1A1C
102
{ACAD_REACTORS
330
1A1B
102
}
330
1A1B
100
AcDbXrecord
270
     1
271
     1
  0
XRECORD
  5
1A20
102
{ACAD_REACTORS
330
1A1B
102
}
330
1A1B
100
AcDbXrecord
270
     1
271
     1
  0
XRECORD
  5
1A1F
102
{ACAD_REACTORS
330
1A1B
102
}
330
1A1B
100
AcDbXrecord
270
     1
271
     1
  0
XRECORD
  5
1A21
102
{ACAD_REACTORS
330
1A1B
102
}
330
1A1B
100
AcDbXrecord
270
     1
271
     1
  0
XRECORD
  5
1A1E
102
{ACAD_REACTORS
330
1A1B
102
}
330
1A1B
100
AcDbXrecord
270
     1
271
     1
  0
XRECORD
  5
1B30
102
{ACAD_REACTORS
330
1A13
102
}
330
1A13
100
AcDbXrecord
102
MATERIAL
148
0.0
149
0.0
149
0.0
 93
        0
 94
      127
282
     0
 72
     0
 77
     0
171
     0
175
     0
179
     0
273
     0
  0
XRECORD
  5
1A15
102
{ACAD_REACTORS
330
1A13
102
}
330
1A13
100
AcDbXrecord
270
     1
271
     1
  0
XRECORD
  5
1A14
102
{ACAD_REACTORS
330
1A13
102
}
330
1A13
100
AcDbXrecord
270
     1
271
     1
  0
XRECORD
  5
1A18
102
{ACAD_REACTORS
330
1A13
102
}
330
1A13
100
AcDbXrecord
270
     1
271
     1
  0
XRECORD
  5
1A17
102
{ACAD_REACTORS
330
1A13
102
}
330
1A13
100
AcDbXrecord
270
     1
271
     1
  0
XRECORD
  5
1A19
102
{ACAD_REACTORS
330
1A13
102
}
330
1A13
100
AcDbXrecord
270
     1
271
     1
  0
XRECORD
  5
1A16
102
{ACAD_REACTORS
330
1A13
102
}
330
1A13
100
AcDbXrecord
270
     1
271
     1
  0
XRECORD
  5
1B32
102
{ACAD_REACTORS
330
1A23
102
}
330
1A23
100
AcDbXrecord
102
MATERIAL
148
0.0
149
0.0
149
0.0
 93
        0
 94
      127
282
     0
 72
     0
 77
     0
171
     0
175
     0
179
     0
273
     0
  0
XRECORD
  5
1A25
102
{ACAD_REACTORS
330
1A23
102
}
330
1A23
100
AcDbXrecord
270
     1
271
     1
  0
XRECORD
  5
1A24
102
{ACAD_REACTORS
330
1A23
102
}
330
1A23
100
AcDbXrecord
270
     1
271
     1
  0
XRECORD
  5
1A28
102
{ACAD_REACTORS
330
1A23
102
}
330
1A23
100
AcDbXrecord
270
     1
271
     1
  0
XRECORD
  5
1A27
102
{ACAD_REACTORS
330
1A23
102
}
330
1A23
100
AcDbXrecord
270
     1
271
     1
  0
XRECORD
  5
1A29
102
{ACAD_REACTORS
330
1A23
102
}
330
1A23
100
AcDbXrecord
270
     1
271
     1
  0
XRECORD
  5
1A26
102
{ACAD_REACTORS
330
1A23
102
}
330
1A23
100
AcDbXrecord
270
     1
271
     1
  0
ACAD_PROXY_OBJECT
  5
1B17
102
{ACAD_REACTORS
330
1A81
102
}
330
1A81
100
AcDbProxyObject
 90
      499
 91
      510
 93
     5304
310
40D054060020000020000003200101A000080002A5058000000C100000000000000340FD012E07A17AD46E2B8FCB81E85EB51B8AE3F2E07A17AD46E2B8FCB81E85EB51B8AE3F02B5E8DC0F42B1CFC0AD7A3703D0AC73F419019018000000C1003FBFFFFFE02B5E8DC0F42A9CFD029018000000C1003FBFFFFFE02B5E8DC0F4
310
2A9CFD049018000000C1003FBFFFFFE02B5E8DC0F42A9CFD089018000000C1003FBFFFFFE02B5E8DC0F42A9CFD109018000000C1003FBFFFFFE02B5E8DC0F42A9CFD209018000000C1003FBFFFFFE02B5E8DC0F42A9CFD01405075F5449544C450041501A8000000C800406800020000A9416000000304000AD7A3703D0AC7
310
3F404B81E85EB51B8AE3F2E07A17AD46E2B8FCB81E85EB51B8AE3F2E07A17AD46E2B8FC0AD7A3703D0AC73F02B5E8DC0F42B1CFD0640640600000030400FEFFFFFF80AD7A3703D0AA73F40A40600000030400FEFFFFFF80AD7A3703D0AA73F41240600000030400FEFFFFFF80AD7A3703D0AA73F42240600000030400FEFFF
310
FFF80AD7A3703D0AA73F44240600000030400FEFFFFFF80AD7A3703D0AA73F48240600000030400FEFFFFFF80AD7A3703D0AA73F409014217D2115051115480105406A0000003200101A000080002A5028000000C10002B5E8DC0F42B1CFD012E07A17AD46E2B8FCB81E85EB51B8AE3F2E07A17AD46E2B8FCB81E85EB51B8A
310
E3F02B5E8DC0F42B1CFC0AD7A3703D0AC73F419019018000000C1003FBFFFFFE02B5E8DC0F42A9CFD029018000000C1003FBFFFFFE02B5E8DC0F42A9CFD049018000000C1003FBFFFFFE02B5E8DC0F42A9CFD089018000000C1003FBFFFFFE02B5E8DC0F42A9CFD109018000000C1003FBFFFFFE02B5E8DC0F42A9CFD20901
310
8000000C1003FBFFFFFE02B5E8DC0F42A9CFD03409065F444154410000
340
16
340
0
340
0
340
0
340
0
340
0
340
0
340
16
340
0
340
0
340
0
340
0
340
0
340
0
340
16
340
0
340
0
340
0
340
0
340
0
340
0
 94
        0
1001
ACAD
1000
AcadProxyRoundTripData
1071
      509
1071
   655383
1070
     0
  0
XRECORD
  5
1B33
102
{ACAD_REACTORS
330
1A81
102
}
330
1A81
100
AcDbXrecord
102
ACAD_ROUNDTRIP_PRE2007_TABLESTYLE
 90
      512
 91
        0
  1

 92
      512
 93
        0
  2

 94
      512
 95
        0
  3

  0
ENDSEC
  0
EOF
