  0
SECTION
  2
HEADER
  9
$ACADVER
  1
AC1014
  9
$ACADMAINTVER
 70
     9
  9
$DWGCODEPAGE
  3
ANSI_932
  9
$INSBASE
 10
0.0
 20
0.0
 30
0.0
  9
$EXTMIN
 10
34.64009703866395
 20
50.42155619458629
 30
0.0
  9
$EXTMAX
 10
1009.616516226242
 20
433.0537322187878
 30
0.0
  9
$LIMMIN
 10
0.0
 20
0.0
  9
$LIMMAX
 10
297.0
 20
210.0
  9
$ORTHOMODE
 70
     1
  9
$REGENMODE
 70
     1
  9
$FILLMODE
 70
     1
  9
$QTEXTMODE
 70
     0
  9
$MIRRTEXT
 70
     0
  9
$DRAGMODE
 70
     2
  9
$LTSCALE
 40
3.0
  9
$OSMODE
 70
    37
  9
$ATTMODE
 70
     1
  9
$TEXTSIZE
 40
2.0
  9
$TRACEWID
 40
1.0
  9
$TEXTSTYLE
  7
STANDARD
  9
$CLAYER
  8
0
  9
$CELTYPE
  6
BYLAYER
  9
$CECOLOR
 62
   256
  9
$CELTSCALE
 40
1.0
  9
$DELOBJ
 70
     1
  9
$DISPSILH
 70
     0
  9
$DIMSCALE
 40
3.0
  9
$DIMASZ
 40
1.8
  9
$DIMEXO
 40
0.625
  9
$DIMDLI
 40
3.75
  9
$DIMRND
 40
0.0
  9
$DIMDLE
 40
0.0
  9
$DIMEXE
 40
0.8
  9
$DIMTP
 40
0.0
  9
$DIMTM
 40
0.0
  9
$DIMTXT
 40
1.8
  9
$DIMCEN
 40
2.5
  9
$DIMTSZ
 40
0.0
  9
$DIMTOL
 70
     0
  9
$DIMLIM
 70
     0
  9
$DIMTIH
 70
     0
  9
$DIMTOH
 70
     0
  9
$DIMSE1
 70
     0
  9
$DIMSE2
 70
     0
  9
$DIMTAD
 70
     1
  9
$DIMZIN
 70
     8
  9
$DIMBLK
  1

  9
$DIMASO
 70
     1
  9
$DIMSHO
 70
     1
  9
$DIMPOST
  1

  9
$DIMAPOST
  1

  9
$DIMALT
 70
     0
  9
$DIMALTD
 70
     4
  9
$DIMALTF
 40
0.0394
  9
$DIMLFAC
 40
1.0
  9
$DIMTOFL
 70
     1
  9
$DIMTVP
 40
0.0
  9
$DIMTIX
 70
     0
  9
$DIMSOXD
 70
     0
  9
$DIMSAH
 70
     0
  9
$DIMBLK1
  1

  9
$DIMBLK2
  1

  9
$DIMSTYLE
  2
STANDARD
  9
$DIMCLRD
 70
     0
  9
$DIMCLRE
 70
     0
  9
$DIMCLRT
 70
     0
  9
$DIMTFAC
 40
1.0
  9
$DIMGAP
 40
0.75
  9
$DIMJUST
 70
     0
  9
$DIMSD1
 70
     0
  9
$DIMSD2
 70
     0
  9
$DIMTOLJ
 70
     1
  9
$DIMTZIN
 70
     0
  9
$DIMALTZ
 70
     0
  9
$DIMALTTZ
 70
     0
  9
$DIMFIT
 70
     3
  9
$DIMUPT
 70
     0
  9
$DIMUNIT
 70
     8
  9
$DIMDEC
 70
     2
  9
$DIMTDEC
 70
     2
  9
$DIMALTU
 70
     8
  9
$DIMALTTD
 70
     4
  9
$DIMTXSTY
  7
STANDARD
  9
$DIMAUNIT
 70
     0
  9
$LUNITS
 70
     2
  9
$LUPREC
 70
     3
  9
$SKETCHINC
 40
1.0
  9
$FILLETRAD
 40
10.0
  9
$AUNITS
 70
     0
  9
$AUPREC
 70
     2
  9
$MENU
  1
.
  9
$ELEVATION
 40
0.0
  9
$PELEVATION
 40
0.0
  9
$THICKNESS
 40
0.0
  9
$LIMCHECK
 70
     0
  9
$BLIPMODE
 70
     0
  9
$CHAMFERA
 40
0.0
  9
$CHAMFERB
 40
0.0
  9
$CHAMFERC
 40
20.0
  9
$CHAMFERD
 40
0.0
  9
$SKPOLY
 70
     0
  9
$TDCREATE
 40
2454411.650650856
  9
$TDUPDATE
 40
2454424.568367326
  9
$TDINDWG
 40
0.0238977546
  9
$TDUSRTIMER
 40
0.0238977546
  9
$USRTIMER
 70
     1
  9
$ANGBASE
 50
0.0
  9
$ANGDIR
 70
     0
  9
$PDMODE
 70
     0
  9
$PDSIZE
 40
-10.0
  9
$PLINEWID
 40
0.0
  9
$COORDS
 70
     0
  9
$SPLFRAME
 70
     0
  9
$SPLINETYPE
 70
     6
  9
$SPLINESEGS
 70
     8
  9
$ATTDIA
 70
     0
  9
$ATTREQ
 70
     1
  9
$HANDLING
 70
-16383
  9
$HANDSEED
  5
240F
  9
$SURFTAB1
 70
     6
  9
$SURFTAB2
 70
     6
  9
$SURFTYPE
 70
     6
  9
$SURFU
 70
     6
  9
$SURFV
 70
     6
  9
$UCSNAME
  2

  9
$UCSORG
 10
0.0
 20
0.0
 30
0.0
  9
$UCSXDIR
 10
1.0
 20
0.0
 30
0.0
  9
$UCSYDIR
 10
0.0
 20
1.0
 30
0.0
  9
$PUCSNAME
  2

  9
$PUCSORG
 10
0.0
 20
0.0
 30
0.0
  9
$PUCSXDIR
 10
1.0
 20
0.0
 30
0.0
  9
$PUCSYDIR
 10
0.0
 20
1.0
 30
0.0
  9
$USERI1
 70
     0
  9
$USERI2
 70
     0
  9
$USERI3
 70
     0
  9
$USERI4
 70
     0
  9
$USERI5
 70
     0
  9
$USERR1
 40
0.0
  9
$USERR2
 40
0.0
  9
$USERR3
 40
0.0
  9
$USERR4
 40
0.0
  9
$USERR5
 40
0.0
  9
$WORLDVIEW
 70
     1
  9
$SHADEDGE
 70
     3
  9
$SHADEDIF
 70
    70
  9
$TILEMODE
 70
     1
  9
$MAXACTVP
 70
    48
  9
$PINSBASE
 10
0.0
 20
0.0
 30
0.0
  9
$PLIMCHECK
 70
     0
  9
$PEXTMIN
 10
0.0
 20
0.0
 30
0.0
  9
$PEXTMAX
 10
0.0
 20
0.0
 30
0.0
  9
$PLIMMIN
 10
0.0
 20
0.0
  9
$PLIMMAX
 10
12.0
 20
9.0
  9
$UNITMODE
 70
     0
  9
$VISRETAIN
 70
     1
  9
$PLINEGEN
 70
     0
  9
$PSLTSCALE
 70
     1
  9
$TREEDEPTH
 70
  3020
  9
$PICKSTYLE
 70
     1
  9
$CMLSTYLE
  2
STANDARD
  9
$CMLJUST
 70
     0
  9
$CMLSCALE
 40
1.0
  9
$PROXYGRAPHICS
 70
     1
  9
$MEASUREMENT
 70
     0
  0
ENDSEC
  0
SECTION
  2
CLASSES
  0
CLASS
  1
DICTIONARYVAR
  2
AcDbDictionaryVar
  3
AutoCAD 2000
 90
        0
280
     0
281
     0
  0
CLASS
  1
ACDBDICTIONARYWDFLT
  2
AcDbDictionaryWithDefault
  3
AutoCAD 2000
 90
        0
280
     0
281
     0
  0
CLASS
  1
ACDBPLACEHOLDER
  2
AcDbPlaceHolder
  3
AutoCAD 2000
 90
        0
280
     0
281
     0
  0
CLASS
  1
LAYOUT
  2
AcDbLayout
  3
AutoCAD 2000
 90
        0
280
     0
281
     0
  0
CLASS
  1
MATERIAL
  2
AcDbMaterial
  3
ObjectDBX Classes
 90
     1153
280
     0
281
     0
  0
CLASS
  1
VISUALSTYLE
  2
AcDbVisualStyle
  3
ObjectDBX Classes
 90
     4095
280
     0
281
     0
  0
CLASS
  1
TABLESTYLE
  2
AcDbTableStyle
  3
ObjectDBX Classes
 90
     4095
280
     0
281
     0
  0
CLASS
  1
SCALE
  2
AcDbScale
  3
ObjectDBX Classes
 90
     1153
280
     0
281
     0
  0
CLASS
  1
MLEADERSTYLE
  2
AcDbMLeaderStyle
  3
ACDB_MLEADERSTYLE_CLASS
 90
     4095
280
     0
281
     0
  0
CLASS
  1
CELLSTYLEMAP
  2
AcDbCellStyleMap
  3
ObjectDBX Classes
 90
     1152
280
     0
281
     0
  0
CLASS
  1
ACAD_PROXY_OBJECT_WRAPPER
  2
AcDbProxyObjectWrapper
  3
AutoCAD 2000
 90
        0
280
     0
281
     0
  0
CLASS
  1
LONG_TRANSACTION
  2
AcDbLongTransaction
  3
AutoCAD 2000
 90
        0
280
     0
281
     0
  0
CLASS
  1
LWPOLYLINE
  2
AcDbPolyline
  3
AutoCAD 2000
 90
        0
280
     0
281
     1
  0
CLASS
  1
HATCH
  2
AcDbHatch
  3
AutoCAD 2000
 90
        0
280
     0
281
     1
  0
CLASS
  1
XRECORD
  2
AcDbXrecord
  3
AutoCAD 2000
 90
        0
280
     0
281
     0
  0
ENDSEC
  0
SECTION
  2
TABLES
  0
TABLE
  2
VPORT
  5
6E
102
{ACAD_XDICTIONARY
360
1973
102
}
330
0
100
AcDbSymbolTable
 70
     2
  0
VPORT
  5
23E9
330
6E
100
AcDbSymbolTableRecord
100
AcDbViewportTableRecord
  2
*ACTIVE
 70
     0
 10
0.0
 20
0.0
 11
1.0
 21
1.0
 12
595.6550801248073
 22
233.6649157216049
 13
0.0
 23
0.0
 14
10.0
 24
10.0
 15
10.0
 25
10.0
 16
0.0
 26
0.0
 36
1.0
 17
0.0
 27
0.0
 37
0.0
 40
642.7505935953042
 41
1.753504672897196
 42
50.0
 43
0.0
 44
0.0
 50
0.0
 51
0.0
 71
     0
 72
   100
 73
     1
 74
     3
 75
     0
 76
     0
 77
     0
 78
     0
  0
ENDTAB
  0
TABLE
  2
LTYPE
  5
69
330
0
100
AcDbSymbolTable
 70
     5
  0
LTYPE
  5
6A
330
69
100
AcDbSymbolTableRecord
100
AcDbLinetypeTableRecord
  2
BYBLOCK
 70
     0
  3

 72
    65
 73
     0
 40
0.0
  0
LTYPE
  5
6B
330
69
100
AcDbSymbolTableRecord
100
AcDbLinetypeTableRecord
  2
BYLAYER
 70
     0
  3

 72
    65
 73
     0
 40
0.0
  0
LTYPE
  5
8
330
69
100
AcDbSymbolTableRecord
100
AcDbLinetypeTableRecord
  2
CONTINUOUS
 70
     0
  3
Solid line
 72
    65
 73
     0
 40
0.0
  0
LTYPE
  5
27C
330
69
100
AcDbSymbolTableRecord
100
AcDbLinetypeTableRecord
  2
SEKKEI_A2_
 70
     0
  3
center(A2)  ____ _ ____ _ ____ _ ____ _ ____ _ 
 72
    65
 73
     4
 40
14.28749999999999
 49
9.525
 74
     0
 49
-1.587499999999999
 74
     0
 49
1.587499999999999
 74
     0
 49
-1.587499999999999
 74
     0
  0
LTYPE
  5
7F0
330
69
100
AcDbSymbolTableRecord
100
AcDbLinetypeTableRecord
  2
HIDDEN3
 70
     0
  3
Hidden (.3x) _ _ _ _ _ _ _ _ _ _ _ _ _ _ _ _ _
 72
    65
 73
     2
 40
2.857499999999999
 49
1.905
 74
     0
 49
-0.9525
 74
     0
  0
LTYPE
  5
B12
330
69
100
AcDbSymbolTableRecord
100
AcDbLinetypeTableRecord
  2
CENS
 70
     0
  3
(一点鎖線１)---- - ---- - ---- - ---- - ---- - 
 72
    65
 73
     4
 40
7.0
 49
4.0
 74
     0
 49
-1.0
 74
     0
 49
1.0
 74
     0
 49
-1.0
 74
     0
  0
ENDTAB
  0
TABLE
  2
LAYER
  5
66
102
{ACAD_XDICTIONARY
360
B13
102
}
330
0
100
AcDbSymbolTable
 70
     9
  0
LAYER
  5
5E
102
{ACAD_XDICTIONARY
360
1956
102
}
330
66
100
AcDbSymbolTableRecord
100
AcDbLayerTableRecord
  2
0
 70
     0
 62
     7
  6
CONTINUOUS
  0
LAYER
  5
3E
102
{ACAD_XDICTIONARY
360
1958
102
}
330
66
100
AcDbSymbolTableRecord
100
AcDbLayerTableRecord
  2
CENTER
 70
     0
 62
     3
  6
SEKKEI_A2_
  0
LAYER
  5
2B5
102
{ACAD_XDICTIONARY
360
195E
102
}
330
66
100
AcDbSymbolTableRecord
100
AcDbLayerTableRecord
  2
HIDS
 70
     0
 62
     1
  6
HIDDEN3
  0
LAYER
  5
2BA
102
{ACAD_XDICTIONARY
360
1960
102
}
330
66
100
AcDbSymbolTableRecord
100
AcDbLayerTableRecord
  2
HOJO
 70
     0
 62
     4
  6
CONTINUOUS
  0
LAYER
  5
3FA
102
{ACAD_XDICTIONARY
360
1964
102
}
330
66
100
AcDbSymbolTableRecord
100
AcDbLayerTableRecord
  2
TITLE
 70
     0
 62
     4
  6
CONTINUOUS
  0
ENDTAB
  0
TABLE
  2
STYLE
  5
67
330
0
100
AcDbSymbolTable
 70
     2
  0
STYLE
  5
16
330
67
100
AcDbSymbolTableRecord
100
AcDbTextStyleTableRecord
  2
STANDARD
 70
     0
 40
0.0
 41
1.0
 50
0.0
 71
     0
 42
2.0
  3
simplex.shx
  4
extfont.shx
  0
ENDTAB
  0
TABLE
  2
VIEW
  5
6C
330
0
100
AcDbSymbolTable
 70
     0
  0
ENDTAB
  0
TABLE
  2
UCS
  5
6D
330
0
100
AcDbSymbolTable
 70
     0
  0
ENDTAB
  0
TABLE
  2
APPID
  5
70
330
0
100
AcDbSymbolTable
 70
     4
  0
APPID
  5
71
330
70
100
AcDbSymbolTableRecord
100
AcDbRegAppTableRecord
  2
ACAD
 70
     0
  0
APPID
  5
18AD
330
70
100
AcDbSymbolTableRecord
100
AcDbRegAppTableRecord
  2
ACAD_MLEADERVER
 70
     0
  0
APPID
  5
191F
330
70
100
AcDbSymbolTableRecord
100
AcDbRegAppTableRecord
  2
ACAD_DSTYLE_DIMRADIAL_EXTENSION
 70
     0
  0
APPID
  5
1993
330
70
100
AcDbSymbolTableRecord
100
AcDbRegAppTableRecord
  2
ACAD_EXEMPT_FROM_CAD_STANDARDS
 70
     0
  0
ENDTAB
  0
TABLE
  2
DIMSTYLE
  5
72
330
0
100
AcDbSymbolTable
 70
     1
  0
DIMSTYLE
105
73
330
72
100
AcDbSymbolTableRecord
100
AcDbDimStyleTableRecord
  2
STANDARD
 70
     0
  3

  4

  5

  6

  7

 40
3.0
 41
1.8
 42
0.625
 43
3.75
 44
0.8
 45
0.0
 46
0.0
 47
0.0
 48
0.0
140
1.8
141
2.5
142
0.0
143
0.0394
144
1.0
145
0.0
146
1.0
147
0.75
 71
     0
 72
     0
 73
     0
 74
     0
 75
     0
 76
     0
 77
     1
 78
     8
170
     0
171
     4
172
     1
173
     0
174
     0
175
     0
176
     0
177
     0
178
     0
270
     8
271
     2
272
     2
273
     8
274
     4
340
16
275
     0
280
     0
281
     0
282
     0
283
     1
284
     0
285
     0
286
     0
287
     3
288
     0
  0
ENDTAB
  0
TABLE
  2
BLOCK_RECORD
  5
1
330
0
100
AcDbSymbolTable
 70
    43
  0
BLOCK_RECORD
  5
2
102
{ACAD_XDICTIONARY
360
240B
102
}
330
1
100
AcDbSymbolTableRecord
100
AcDbBlockTableRecord
  2
*MODEL_SPACE
  0
BLOCK_RECORD
  5
23E4
102
{ACAD_XDICTIONARY
360
240D
102
}
330
1
100
AcDbSymbolTableRecord
100
AcDbBlockTableRecord
  2
*PAPER_SPACE
  0
ENDTAB
  0
ENDSEC
  0
SECTION
  2
BLOCKS
  0
BLOCK
  5
5D
330
2
100
AcDbEntity
  8
0
100
AcDbBlockBegin
  2
*MODEL_SPACE
 70
     0
 10
0.0
 20
0.0
 30
0.0
  3
*MODEL_SPACE
  1

  0
ENDBLK
  5
5F
330
2
100
AcDbEntity
  8
0
100
AcDbBlockEnd
  0
BLOCK
  5
23E6
330
23E4
100
AcDbEntity
 67
     1
  8
0
100
AcDbBlockBegin
  2
*PAPER_SPACE
 70
     0
 10
0.0
 20
0.0
 30
0.0
  3
*PAPER_SPACE
  1

  0
ENDBLK
  5
23E7
330
23E4
100
AcDbEntity
 67
     1
  8
0
100
AcDbBlockEnd
  0
ENDSEC
  0
SECTION
  2
ENTITIES
  0
TEXT
  5
FEF
330
2
100
AcDbEntity
  8
TITLE
100
AcDbText
 10
316.2452296555512
 20
374.7586725209182
 30
0.0
 40
7.5
  1
AFCZ18H-10~30M200S1
100
AcDbText
  0
TEXT
  5
FF0
330
2
100
AcDbEntity
  8
TITLE
100
AcDbText
 10
316.2452296555512
 20
363.7586725209182
 30
0.0
 40
7.5
  1
AFCZ18H-10~30L200S1
100
AcDbText
  0
LINE
  5
FF2
330
2
100
AcDbEntity
  8
CENTER
100
AcDbLine
 10
245.6400970386637
 20
109.4215561945901
 30
0.0
 11
34.64009703866395
 21
109.4215561945901
 31
0.0
  0
LINE
  5
FF5
330
2
100
AcDbEntity
  8
CENTER
100
AcDbLine
 10
546.984823767839
 20
109.4215561945862
 30
0.0
 11
765.9848237678373
 21
109.4215561945862
 31
0.0
  0
LINE
  5
FF6
330
2
100
AcDbEntity
  8
CENTER
100
AcDbLine
 10
555.2029954626108
 20
376.0537322187844
 30
0.0
 11
765.9848237678391
 21
376.0537322187841
 31
0.0
  0
LINE
  5
1019
330
2
100
AcDbEntity
  8
0
100
AcDbLine
 10
712.9848237678372
 20
140.9215561945862
 30
0.0
 11
712.9848237678372
 21
77.92155619458629
 31
0.0
  0
LINE
  5
1025
330
2
100
AcDbEntity
  8
0
100
AcDbLine
 10
712.984823764816
 20
407.0537322187844
 30
0.0
 11
712.984823764816
 21
345.0537322187826
 31
0.0
  0
LINE
  5
1026
330
2
100
AcDbEntity
  8
0
100
AcDbLine
 10
712.984823764816
 20
407.0537322187844
 30
0.0
 11
712.984823764816
 21
345.0537322187844
 31
0.0
  0
LINE
  5
102F
330
2
100
AcDbEntity
  8
0
100
AcDbLine
 10
87.64009703866372
 20
78.4215561945901
 30
0.0
 11
87.64009703866372
 21
140.42155619459
 31
0.0
  0
LINE
  5
1030
330
2
100
AcDbEntity
  8
0
100
AcDbLine
 10
87.64009703866419
 20
77.92155619459009
 30
0.0
 11
87.64009703866372
 21
140.9215561945901
 31
0.0
  0
LINE
  5
1338
330
2
100
AcDbEntity
  8
CENTER
100
AcDbLine
 10
952.6165162262371
 20
160.2033844998186
 30
0.0
 11
952.6165162262371
 21
58.63681899910625
 31
0.0
  0
LINE
  5
1339
330
2
100
AcDbEntity
  8
0
100
AcDbLine
 10
914.616516226239
 20
144.4215561945875
 30
0.0
 11
914.616516226239
 21
74.42155619458754
 31
0.0
  0
LINE
  5
133A
330
2
100
AcDbEntity
  8
0
100
AcDbLine
 10
919.6165162262381
 20
149.9153978627236
 30
0.0
 11
919.616516226239
 21
68.9248056362012
 31
0.0
  0
LINE
  5
133B
330
2
100
AcDbEntity
  8
0
100
AcDbLine
 10
919.6165162262373
 20
74.42155619458754
 30
0.0
 11
914.6165162262372
 21
74.42155619458754
 31
0.0
  0
LINE
  5
133C
330
2
100
AcDbEntity
  8
0
100
AcDbLine
 10
919.6165162262373
 20
144.4215561945875
 30
0.0
 11
914.6165162262372
 21
144.4215561945875
 31
0.0
  0
LINE
  5
133D
330
2
100
AcDbEntity
  8
0
100
AcDbLine
 10
977.616516226239
 20
150.4215561945875
 30
0.0
 11
977.616516226239
 21
140.5183303881367
 31
0.0
  0
LINE
  5
133E
330
2
100
AcDbEntity
  8
0
100
AcDbLine
 10
977.616516226239
 20
150.4215561945875
 30
0.0
 11
919.6165162262381
 21
149.9153978627236
 31
0.0
  0
LINE
  5
133F
330
2
100
AcDbEntity
  8
0
100
AcDbLine
 10
977.616516226239
 20
68.41864730433735
 30
0.0
 11
919.616516226239
 21
68.9248056362012
 31
0.0
  0
LINE
  5
1340
330
2
100
AcDbEntity
  8
0
100
AcDbLine
 10
977.616516226239
 20
78.32478200104015
 30
0.0
 11
977.616516226239
 21
68.41864730433735
 31
0.0
  0
LINE
  5
1341
330
2
100
AcDbEntity
  8
0
100
AcDbLine
 10
977.616516226239
 20
150.4215561945875
 30
0.0
 11
977.616516226239
 21
140.5183303881367
 31
0.0
  0
LINE
  5
1342
330
2
100
AcDbEntity
  8
0
100
AcDbLine
 10
977.616516226239
 20
78.32478200104015
 30
0.0
 11
977.616516226239
 21
68.41864730433735
 31
0.0
  0
ARC
  5
1343
330
2
100
AcDbEntity
  8
0
100
AcDbCircle
 10
912.616516226239
 20
79.03620864158074
 30
0.0
 40
2.0
100
AcDbArc
 50
0.0
 51
87.99999999999636
  0
ARC
  5
1344
330
2
100
AcDbEntity
  8
0
100
AcDbCircle
 10
903.6165162262381
 20
83.35293374420144
 30
0.0
 40
2.0
100
AcDbArc
 50
180.0
 51
267.9999999999963
  0
ARC
  5
1345
330
2
100
AcDbEntity
  8
0
100
AcDbCircle
 10
912.616516226239
 20
139.8069037475925
 30
0.0
 40
2.0
100
AcDbArc
 50
272.0000000000036
 51
0.0
  0
ARC
  5
1346
330
2
100
AcDbEntity
  8
0
100
AcDbCircle
 10
903.6165162262372
 20
135.4901786449718
 30
0.0
 40
2.0
100
AcDbArc
 50
92.00000000000365
 51
180.0
  0
LINE
  5
1347
330
2
100
AcDbEntity
  8
0
100
AcDbLine
 10
903.5467172328329
 20
81.35415209016356
 30
0.0
 11
912.6863152196442
 21
81.03499029561863
 31
0.0
  0
LINE
  5
1348
330
2
100
AcDbEntity
  8
0
100
AcDbLine
 10
903.5467172328321
 20
137.4889602990096
 30
0.0
 11
912.6863152196442
 21
137.8081220935546
 31
0.0
  0
LINE
  5
1349
330
2
100
AcDbEntity
  8
0
100
AcDbLine
 10
901.6165162262371
 20
135.4901786449718
 30
0.0
 11
901.6165162262391
 21
83.35293374420144
 31
0.0
  0
LINE
  5
134A
330
2
100
AcDbEntity
  8
0
100
AcDbLine
 10
977.616516226239
 20
77.42591962847837
 30
0.0
 11
923.5990631552416
 21
77.89732279982491
 31
0.0
  0
LINE
  5
134B
330
2
100
AcDbEntity
  8
0
100
AcDbLine
 10
977.616516226239
 20
141.4171927606948
 30
0.0
 11
950.7081100941789
 21
141.1823666579208
 31
0.0
  0
LINE
  5
134C
330
2
100
AcDbEntity
  8
0
100
AcDbLine
 10
952.6165162262371
 20
77.92155619458753
 30
0.0
 11
924.5681354220828
 21
78.37394943336585
 31
0.0
  0
LINE
  5
134D
330
2
100
AcDbEntity
  8
0
100
AcDbLine
 10
952.6165162262371
 20
140.9215561945875
 30
0.0
 11
980.6648970303925
 21
140.469162955811
 31
0.0
  0
LINE
  5
134E
330
2
100
AcDbEntity
  8
0
100
AcDbLine
 10
924.5681354220836
 20
140.469162955811
 30
0.0
 11
933.2971298113438
 21
140.6099531878958
 31
0.0
  0
LINE
  5
134F
330
2
100
AcDbEntity
  8
0
100
AcDbLine
 10
980.6648970303925
 20
78.37394943336585
 30
0.0
 11
952.6165162262371
 21
77.92155619458753
 31
0.0
  0
LINE
  5
1350
330
2
100
AcDbEntity
  8
0
100
AcDbLine
 10
921.6165162262372
 20
138.9458657432242
 30
0.0
 11
921.6165162262376
 21
137.9560444722849
 31
0.0
  0
ARC
  5
1351
330
2
100
AcDbEntity
  8
0
100
AcDbCircle
 10
980.6165162262372
 20
137.4695530982153
 30
0.0
 40
3.0
100
AcDbArc
 50
44.35180023891199
 51
89.07595464723311
  0
ARC
  5
1352
330
2
100
AcDbEntity
  8
0
100
AcDbCircle
 10
980.6165162262372
 20
81.37355929096157
 30
0.0
 40
3.0
100
AcDbArc
 50
270.9240453527669
 51
0.0
  0
ARC
  5
1353
330
2
100
AcDbEntity
  8
0
100
AcDbCircle
 10
924.6165162262371
 20
81.37355929096157
 30
0.0
 40
3.0
100
AcDbArc
 50
224.3518002433267
 51
269.075954647207
  0
ARC
  5
1354
330
2
100
AcDbEntity
  8
0
100
AcDbCircle
 10
924.6165162262371
 20
137.4695530982153
 30
0.0
 40
3.0
100
AcDbArc
 50
90.9240453527669
 51
135.6481997621661
  0
ARC
  5
1355
330
2
100
AcDbEntity
  8
0
100
AcDbCircle
 10
923.6165162262372
 20
138.9458657432242
 30
0.0
 40
2.0
100
AcDbArc
 50
90.49999999999155
 51
180.0
  0
ARC
  5
1356
330
2
100
AcDbEntity
  8
0
100
AcDbCircle
 10
923.6165162262372
 20
79.89724664595269
 30
0.0
 40
2.0
100
AcDbArc
 50
180.0
 51
269.5000000000084
  0
LINE
  5
1357
330
2
100
AcDbEntity
  8
0
100
AcDbLine
 10
920.6165162262372
 20
73.42155619458754
 30
0.0
 11
977.616516226239
 21
73.42155619458754
 31
0.0
  0
LINE
  5
1358
330
2
100
AcDbEntity
  8
0
100
AcDbLine
 10
920.6165162262381
 20
145.4215561945875
 30
0.0
 11
977.616516226239
 21
145.4215561945875
 31
0.0
  0
LINE
  5
1359
330
2
100
AcDbEntity
  8
0
100
AcDbLine
 10
994.9165162262383
 20
82.92155619458753
 30
0.0
 11
992.61651622624
 21
82.92155619458753
 31
0.0
  0
LINE
  5
135A
330
2
100
AcDbEntity
  8
0
100
AcDbLine
 10
998.6165162262372
 20
82.92155619458572
 30
0.0
 11
999.616516226238
 21
83.49890646377572
 31
0.0
  0
LINE
  5
135B
330
2
100
AcDbEntity
  8
0
100
AcDbLine
 10
996.9165162262383
 20
83.62155619458645
 30
0.0
 11
995.3165162262379
 21
83.62155619458645
 31
0.0
  0
LINE
  5
135C
330
2
100
AcDbEntity
  8
0
100
AcDbLine
 10
995.1165162262372
 20
83.12155619458645
 30
0.0
 11
994.9165162262383
 21
82.92155619458753
 31
0.0
  0
LINE
  5
135D
330
2
100
AcDbEntity
  8
0
100
AcDbLine
 10
997.1165162262371
 20
83.12155619458645
 30
0.0
 11
997.1165162262371
 21
135.7215561945868
 31
0.0
  0
LINE
  5
135E
330
2
100
AcDbEntity
  8
0
100
AcDbLine
 10
998.6165162262372
 20
82.92155619458572
 30
0.0
 11
997.3165162262379
 21
82.92155619458753
 31
0.0
  0
LINE
  5
135F
330
2
100
AcDbEntity
  8
0
100
AcDbLine
 10
994.9165162262401
 20
135.9215561945875
 30
0.0
 11
992.61651622624
 21
135.9215561945875
 31
0.0
  0
LINE
  5
1360
330
2
100
AcDbEntity
  8
0
100
AcDbLine
 10
991.6165162262389
 20
129.9215561945893
 30
0.0
 11
991.6165162262389
 21
88.92155619458572
 31
0.0
  0
LINE
  5
1361
330
2
100
AcDbEntity
  8
0
100
AcDbLine
 10
990.1165162262426
 20
69.52195325256616
 30
0.0
 11
990.1165162262426
 21
78.92155619458572
 31
0.0
  0
LINE
  5
1362
330
2
100
AcDbEntity
  8
0
100
AcDbLine
 10
990.1165162262426
 20
88.92155619458572
 30
0.0
 11
990.1165162262426
 21
129.9215561945893
 31
0.0
  0
LINE
  5
1363
330
2
100
AcDbEntity
  8
0
100
AcDbLine
 10
990.1165162262426
 20
139.9215561945893
 30
0.0
 11
990.1165162262426
 21
149.3211591366071
 31
0.0
  0
ARC
  5
1364
330
2
100
AcDbEntity
  8
0
100
AcDbCircle
 10
989.1165162262426
 20
69.52195325256616
 30
0.0
 40
1.0
100
AcDbArc
 50
270.5000000000175
 51
0.0
  0
LINE
  5
1365
330
2
100
AcDbEntity
  8
0
100
AcDbLine
 10
991.1165162262445
 20
88.92155619458572
 30
0.0
 11
991.1165162262445
 21
129.9215561945893
 31
0.0
  0
LINE
  5
1366
330
2
100
AcDbEntity
  8
0
100
AcDbLine
 10
999.6165162262418
 20
83.49890646377753
 30
0.0
 11
999.6165162262427
 21
135.3442059253957
 31
0.0
  0
LINE
  5
1367
330
2
100
AcDbEntity
  8
0
100
AcDbLine
 10
998.6165162262398
 20
135.9215561945875
 30
0.0
 11
997.3165162262397
 21
135.9215561945875
 31
0.0
  0
LINE
  5
1368
330
2
100
AcDbEntity
  8
0
100
AcDbLine
 10
995.1165162262389
 20
135.7215561945868
 30
0.0
 11
994.9165162262401
 21
135.9215561945875
 31
0.0
  0
LINE
  5
1369
330
2
100
AcDbEntity
  8
0
100
AcDbLine
 10
995.1165162262389
 20
135.7215561945868
 30
0.0
 11
995.1165162262791
 21
83.12155619462828
 31
0.0
  0
LINE
  5
136A
330
2
100
AcDbEntity
  8
0
100
AcDbLine
 10
996.9165162262401
 20
135.2215561945886
 30
0.0
 11
995.3165162262397
 21
135.2215561945868
 31
0.0
  0
LINE
  5
136B
330
2
100
AcDbEntity
  8
0
100
AcDbLine
 10
998.6165162262389
 20
135.9215561945875
 30
0.0
 11
999.6165162262398
 21
135.3442059253975
 31
0.0
  0
LINE
  5
136C
330
2
100
AcDbEntity
  8
0
100
AcDbLine
 10
977.6165162262408
 20
150.4215561945875
 30
0.0
 11
977.6165162262408
 21
140.5183303881367
 31
0.0
  0
LINE
  5
136D
330
2
100
AcDbEntity
  8
0
100
AcDbLine
 10
977.6165162262371
 20
78.32478200104015
 30
0.0
 11
977.6165162262353
 21
68.42155619458754
 31
0.0
  0
LINE
  5
136E
330
2
100
AcDbEntity
  8
0
100
AcDbLine
 10
985.1165162262407
 20
140.3647934755645
 30
0.0
 11
985.116516226239
 21
128.4433924032582
 31
0.0
  0
LINE
  5
136F
330
2
100
AcDbEntity
  8
0
100
AcDbLine
 10
988.1165162262409
 20
140.3386128721922
 30
0.0
 11
988.1165162262409
 21
139.9215561945893
 31
0.0
  0
LINE
  5
1370
330
2
100
AcDbEntity
  8
0
100
AcDbLine
 10
988.11651622624
 20
129.9215561945893
 30
0.0
 11
988.1165162262371
 21
88.92155619458572
 31
0.0
  0
LINE
  5
1371
330
2
100
AcDbEntity
  8
0
100
AcDbLine
 10
988.1165162262371
 20
78.92155619458572
 30
0.0
 11
988.1165162262371
 21
78.50449951698283
 31
0.0
  0
ARC
  5
1372
330
2
100
AcDbEntity
  8
0
100
AcDbCircle
 10
987.1165162262371
 20
78.50449951698283
 30
0.0
 40
1.0
100
AcDbArc
 50
270.4999999999915
 51
0.0
  0
LINE
  5
1373
330
2
100
AcDbEntity
  8
0
100
AcDbLine
 10
977.6165162262353
 20
68.42155619458754
 30
0.0
 11
989.1252427617413
 21
68.52199132950227
 31
0.0
  0
ARC
  5
1374
330
2
100
AcDbEntity
  8
0
100
AcDbCircle
 10
997.3165162262397
 20
135.7215561945868
 30
0.0
 40
0.2
100
AcDbArc
 50
90.0
 51
180.0
  0
ARC
  5
1375
330
2
100
AcDbEntity
  8
0
100
AcDbCircle
 10
996.9165162262401
 20
135.4215561945875
 30
0.0
 40
0.2
100
AcDbArc
 50
270.0
 51
0.0
  0
ARC
  5
1376
330
2
100
AcDbEntity
  8
0
100
AcDbCircle
 10
995.3165162262397
 20
135.4215561945875
 30
0.0
 40
0.2
100
AcDbArc
 50
180.0
 51
270.0
  0
ARC
  5
1377
330
2
100
AcDbEntity
  8
0
100
AcDbCircle
 10
997.3165162262379
 20
83.12155619458645
 30
0.0
 40
0.2
100
AcDbArc
 50
180.0
 51
269.9999999999739
  0
ARC
  5
1378
330
2
100
AcDbEntity
  8
0
100
AcDbCircle
 10
996.9165162262383
 20
83.42155619458571
 30
0.0
 40
0.2
100
AcDbArc
 50
0.0
 51
89.99999999997395
  0
ARC
  5
1379
330
2
100
AcDbEntity
  8
0
100
AcDbCircle
 10
995.3165162262379
 20
83.42155619458754
 30
0.0
 40
0.2
100
AcDbArc
 50
89.99999999997395
 51
180.0
  0
LINE
  5
137A
330
2
100
AcDbEntity
  8
0
100
AcDbLine
 10
998.6165162262372
 20
82.92155619458572
 30
0.0
 11
998.6165162262398
 21
135.9215561945875
 31
0.0
  0
LINE
  5
137B
330
2
100
AcDbEntity
  8
0
100
AcDbLine
 10
994.9165162262401
 20
135.9215561945875
 30
0.0
 11
994.9165162262383
 21
82.92155619458753
 31
0.0
  0
ARC
  5
137C
330
2
100
AcDbEntity
  8
0
100
AcDbCircle
 10
989.1165162262426
 20
149.3211591366071
 30
0.0
 40
1.0
100
AcDbArc
 50
0.0
 51
89.49999999998238
  0
LINE
  5
137D
330
2
100
AcDbEntity
  8
0
100
AcDbLine
 10
977.6165162262408
 20
150.4215561945875
 30
0.0
 11
989.1252427617413
 21
150.3211210596709
 31
0.0
  0
LINE
  5
137E
330
2
100
AcDbEntity
  8
0
100
AcDbLine
 10
977.6165162262408
 20
141.4215561945893
 30
0.0
 11
987.1252427617386
 21
141.3385747952561
 31
0.0
  0
ARC
  5
137F
330
2
100
AcDbEntity
  8
0
100
AcDbCircle
 10
984.1165162262408
 20
140.3647934755645
 30
0.0
 40
1.0
100
AcDbArc
 50
0.0
 51
89.50000000000846
  0
ARC
  5
1380
330
2
100
AcDbEntity
  8
0
100
AcDbCircle
 10
987.1165162262409
 20
140.3386128721922
 30
0.0
 40
1.0
100
AcDbArc
 50
0.0
 51
89.50000000000846
  0
LINE
  5
1381
330
2
100
AcDbEntity
  8
0
100
AcDbLine
 10
977.6165162262408
 20
77.42155619458571
 30
0.0
 11
987.1252427617349
 21
77.50453759391894
 31
0.0
  0
LINE
  5
1382
330
2
100
AcDbEntity
  8
0
100
AcDbLine
 10
985.612152958491
 20
127.9434114417272
 30
0.0
 11
987.1252427617386
 21
127.9302069070581
 31
0.0
  0
ARC
  5
1383
330
2
100
AcDbEntity
  8
0
100
AcDbCircle
 10
985.616516226239
 20
128.4433924032582
 30
0.0
 40
0.5
100
AcDbArc
 50
180.0
 51
269.4999999999824
  0
ARC
  5
1384
330
2
100
AcDbEntity
  8
0
100
AcDbCircle
 10
987.1165162262389
 20
126.9302449839942
 30
0.0
 40
1.0
100
AcDbArc
 50
0.0
 51
89.50000000000846
  0
LINE
  5
1385
330
2
100
AcDbEntity
  8
0
100
AcDbLine
 10
985.1165162262407
 20
78.47831891361057
 30
0.0
 11
985.116516226239
 21
90.399719985915
 31
0.0
  0
ARC
  5
1386
330
2
100
AcDbEntity
  8
0
100
AcDbCircle
 10
984.1165162262408
 20
78.47831891361057
 30
0.0
 40
1.0
100
AcDbArc
 50
270.4999999999915
 51
0.0
  0
LINE
  5
1387
330
2
100
AcDbEntity
  8
0
100
AcDbLine
 10
985.612152958491
 20
90.89970094744785
 30
0.0
 11
987.1252427617386
 21
90.91290548211691
 31
0.0
  0
ARC
  5
1388
330
2
100
AcDbEntity
  8
0
100
AcDbCircle
 10
985.616516226239
 20
90.399719985915
 30
0.0
 40
0.5
100
AcDbArc
 50
90.50000000001761
 51
180.0
  0
ARC
  5
1389
330
2
100
AcDbEntity
  8
0
100
AcDbCircle
 10
987.1165162262389
 20
91.9128674051808
 30
0.0
 40
1.0
100
AcDbArc
 50
270.4999999999915
 51
0.0
  0
LINE
  5
138A
330
2
100
AcDbEntity
  8
0
100
AcDbLine
 10
992.2165162262393
 20
129.9215561945893
 30
0.0
 11
992.61651622624
 21
130.6143765176166
 31
0.0
  0
LINE
  5
138B
330
2
100
AcDbEntity
  8
0
100
AcDbLine
 10
986.6165162262399
 20
129.9215561945893
 30
0.0
 11
986.6165162262399
 21
139.9215561945893
 31
0.0
  0
LINE
  5
138C
330
2
100
AcDbEntity
  8
0
100
AcDbLine
 10
992.2165162262393
 20
129.9215561945893
 30
0.0
 11
992.2165162262393
 21
139.9215561945893
 31
0.0
  0
LINE
  5
138D
330
2
100
AcDbEntity
  8
0
100
AcDbLine
 10
985.1165162262399
 20
129.9215561945893
 30
0.0
 11
992.2165162262393
 21
129.9215561945893
 31
0.0
  0
LINE
  5
138E
330
2
100
AcDbEntity
  8
0
100
AcDbLine
 10
985.1165162262399
 20
139.9215561945893
 30
0.0
 11
992.2165162262393
 21
139.9215561945893
 31
0.0
  0
LINE
  5
138F
330
2
100
AcDbEntity
  8
0
100
AcDbLine
 10
992.2165162262393
 20
139.9215561945893
 30
0.0
 11
992.61651622624
 21
139.2287358715621
 31
0.0
  0
LINE
  5
1390
330
2
100
AcDbEntity
  8
0
100
AcDbLine
 10
992.61651622624
 20
130.6143765176166
 30
0.0
 11
992.61651622624
 21
139.2287358715621
 31
0.0
  0
LINE
  5
1391
330
2
100
AcDbEntity
  8
0
100
AcDbLine
 10
985.1165162262399
 20
139.9215561945893
 30
0.0
 11
985.1165162262399
 21
129.9215561945893
 31
0.0
  0
LINE
  5
1392
330
2
100
AcDbEntity
  8
0
100
AcDbLine
 10
992.2165162262393
 20
88.92155619458572
 30
0.0
 11
992.61651622624
 21
88.22873587155845
 31
0.0
  0
LINE
  5
1393
330
2
100
AcDbEntity
  8
0
100
AcDbLine
 10
986.6165162262399
 20
88.92155619458572
 30
0.0
 11
986.6165162262399
 21
78.92155619458572
 31
0.0
  0
LINE
  5
1394
330
2
100
AcDbEntity
  8
0
100
AcDbLine
 10
992.2165162262393
 20
88.92155619458572
 30
0.0
 11
992.2165162262393
 21
78.92155619458572
 31
0.0
  0
LINE
  5
1395
330
2
100
AcDbEntity
  8
0
100
AcDbLine
 10
985.1165162262399
 20
88.92155619458572
 30
0.0
 11
992.2165162262393
 21
88.92155619458572
 31
0.0
  0
LINE
  5
1396
330
2
100
AcDbEntity
  8
0
100
AcDbLine
 10
985.1165162262399
 20
78.92155619458572
 30
0.0
 11
992.2165162262393
 21
78.92155619458572
 31
0.0
  0
LINE
  5
1397
330
2
100
AcDbEntity
  8
0
100
AcDbLine
 10
992.2165162262393
 20
78.92155619458572
 30
0.0
 11
992.61651622624
 21
79.61437651761298
 31
0.0
  0
LINE
  5
1398
330
2
100
AcDbEntity
  8
0
100
AcDbLine
 10
992.61651622624
 20
88.22873587155845
 30
0.0
 11
992.61651622624
 21
79.61437651761298
 31
0.0
  0
LINE
  5
1399
330
2
100
AcDbEntity
  8
CENTER
  6
CENS
100
AcDbLine
 10
995.6165162262408
 20
134.9215561945893
 30
0.0
 11
974.6165162262354
 21
134.9215561945893
 31
0.0
  0
LINE
  5
139A
330
2
100
AcDbEntity
  8
CENTER
  6
CENS
100
AcDbLine
 10
995.6165162262399
 20
83.92155619458572
 30
0.0
 11
974.6165162262345
 21
83.92155619458572
 31
0.0
  0
LINE
  5
139B
330
2
100
AcDbEntity
  8
CENTER
100
AcDbLine
 10
1009.616516226242
 20
109.4215561945875
 30
0.0
 11
859.6165162262533
 21
109.4215561945875
 31
0.0
  0
LINE
  5
13A2
330
2
100
AcDbEntity
  8
0
100
AcDbLine
 10
992.5051913608371
 20
139.4215561945857
 30
0.0
 11
992.6165162262444
 21
139.6143765176157
 31
0.0
  0
LINE
  5
13A3
330
2
100
AcDbEntity
  8
0
100
AcDbLine
 10
992.2165162262439
 20
138.9215561945884
 30
0.0
 11
992.2165162262439
 21
148.9215561945884
 31
0.0
  0
LINE
  5
13A4
330
2
100
AcDbEntity
  8
0
100
AcDbLine
 10
990.1165162262426
 20
148.9215561945884
 30
0.0
 11
992.2165162262439
 21
148.9215561945884
 31
0.0
  0
LINE
  5
13A5
330
2
100
AcDbEntity
  8
0
100
AcDbLine
 10
992.2165162262439
 20
148.9215561945884
 30
0.0
 11
992.6165162262444
 21
148.2287358715611
 31
0.0
  0
LINE
  5
13A6
330
2
100
AcDbEntity
  8
0
100
AcDbLine
 10
992.6165162262444
 20
139.6143765176157
 30
0.0
 11
992.6165162262444
 21
148.2287358715611
 31
0.0
  0
LINE
  5
13A7
330
2
100
AcDbEntity
  8
0
100
AcDbLine
 10
992.5051913608371
 20
79.42155619459118
 30
0.0
 11
992.6165162262444
 21
79.22873587156118
 31
0.0
  0
LINE
  5
13A8
330
2
100
AcDbEntity
  8
0
100
AcDbLine
 10
992.2165162262439
 20
79.92155619458845
 30
0.0
 11
992.2165162262439
 21
69.92155619458845
 31
0.0
  0
LINE
  5
13A9
330
2
100
AcDbEntity
  8
0
100
AcDbLine
 10
990.1165162262426
 20
69.92155619458845
 30
0.0
 11
992.2165162262439
 21
69.92155619458845
 31
0.0
  0
LINE
  5
13AA
330
2
100
AcDbEntity
  8
0
100
AcDbLine
 10
992.2165162262439
 20
69.92155619458845
 30
0.0
 11
992.6165162262444
 21
70.61437651761571
 31
0.0
  0
LINE
  5
13AB
330
2
100
AcDbEntity
  8
0
100
AcDbLine
 10
992.6165162262444
 20
79.22873587156118
 30
0.0
 11
992.6165162262444
 21
70.61437651761571
 31
0.0
  0
LINE
  5
13AC
330
2
100
AcDbEntity
  8
CENTER
  6
CENS
100
AcDbLine
 10
997.1951841363392
 20
143.9215561945884
 30
0.0
 11
972.6323304599576
 21
143.9215561945884
 31
0.0
  0
LINE
  5
13AD
330
2
100
AcDbEntity
  8
CENTER
  6
CENS
100
AcDbLine
 10
997.19518413634
 20
74.92155619458845
 30
0.0
 11
972.6323304599585
 21
74.92155619458845
 31
0.0
  0
LINE
  5
13AF
330
2
100
AcDbEntity
  8
0
100
AcDbLine
 10
922.6892807886432
 20
84.40701180524412
 30
0.0
 11
922.6165162262386
 21
109.4215561945839
 31
0.0
  0
LINE
  5
13B0
330
2
100
AcDbEntity
  8
0
100
AcDbLine
 10
982.5437516638338
 20
84.40701180524412
 30
0.0
 11
982.6165162262386
 21
109.4215561945839
 31
0.0
  0
LINE
  5
13B1
330
2
100
AcDbEntity
  8
0
100
AcDbLine
 10
983.6641229874615
 20
81.37317539042943
 30
0.0
 11
984.1165162262367
 21
109.4215561945875
 31
0.0
  0
LINE
  5
13B2
330
2
100
AcDbEntity
  8
0
100
AcDbLine
 10
921.5689094650146
 20
81.37317539042943
 30
0.0
 11
921.1165162262394
 21
109.4215561945875
 31
0.0
  0
CIRCLE
  5
13B3
330
2
100
AcDbEntity
  8
0
100
AcDbCircle
 10
952.6165162262381
 20
109.4215561945839
 30
0.0
 40
25.00000000345432
  0
LINE
  5
13B4
330
2
100
AcDbEntity
  8
0
100
AcDbLine
 10
927.6892596346723
 20
79.42155619458389
 30
0.0
 11
977.5437728178047
 21
79.42155619458389
 31
0.0
  0
LINE
  5
13B5
330
2
100
AcDbEntity
  8
0
100
AcDbLine
 10
924.5685193226112
 20
78.4215561945839
 30
0.0
 11
980.6645131298649
 21
78.4215561945839
 31
0.0
  0
ARC
  5
13B6
330
2
100
AcDbEntity
  8
0
100
AcDbCircle
 10
927.6892596346723
 20
84.42155619458389
 30
0.0
 40
5.0
100
AcDbArc
 50
180.166666660018
 51
270.0
  0
ARC
  5
13B7
330
2
100
AcDbEntity
  8
0
100
AcDbCircle
 10
924.5685193226112
 20
81.42155619458391
 30
0.0
 40
3.0
100
AcDbArc
 50
180.9240453527669
 51
270.0
  0
ARC
  5
13B8
330
2
100
AcDbEntity
  8
0
100
AcDbCircle
 10
977.5437728178047
 20
84.42155619458389
 30
0.0
 40
5.0
100
AcDbArc
 50
270.0
 51
359.833333340008
  0
ARC
  5
13B9
330
2
100
AcDbEntity
  8
0
100
AcDbCircle
 10
980.6645131298649
 20
81.42155619458391
 30
0.0
 40
3.0
100
AcDbArc
 50
270.0
 51
359.0759546472331
  0
LINE
  5
13BA
330
2
100
AcDbEntity
  8
HIDS
100
AcDbLine
 10
972.6508170903198
 20
81.38665138171019
 30
0.0
 11
972.7299456265054
 21
85.91992218366977
 31
0.0
  0
ARC
  5
13BB
330
2
100
AcDbEntity
  8
HIDS
100
AcDbCircle
 10
970.6511217000068
 20
81.42155619458391
 30
0.0
 40
2.0
100
AcDbArc
 50
270.0
 51
358.9999999999721
  0
ARC
  5
13BC
330
2
100
AcDbEntity
  8
HIDS
100
AcDbCircle
 10
975.7294887119746
 20
85.86756496435738
 30
0.0
 40
3.0
100
AcDbArc
 50
134.4585514346996
 51
178.9999999999982
  0
LINE
  5
13BD
330
2
100
AcDbEntity
  8
0
100
AcDbLine
 10
927.6892596346723
 20
139.4215561945838
 30
0.0
 11
977.5437728178047
 21
139.4215561945838
 31
0.0
  0
LINE
  5
13BE
330
2
100
AcDbEntity
  8
0
100
AcDbLine
 10
924.5685193226112
 20
140.4215561945838
 30
0.0
 11
933.2435328800318
 21
140.4215561945838
 31
0.0
  0
LINE
  5
13BF
330
2
100
AcDbEntity
  8
0
100
AcDbLine
 10
950.9894995724483
 20
140.4215561945838
 30
0.0
 11
980.6645131298649
 21
140.4215561945838
 31
0.0
  0
LINE
  5
13C0
330
2
100
AcDbEntity
  8
0
100
AcDbLine
 10
922.6892807886432
 20
134.4361005839237
 30
0.0
 11
922.6165162262386
 21
109.4215561945839
 31
0.0
  0
LINE
  5
13C1
330
2
100
AcDbEntity
  8
0
100
AcDbLine
 10
921.5689094650146
 20
137.4699369987392
 30
0.0
 11
921.1165162262394
 21
109.4215561945875
 31
0.0
  0
LINE
  5
13C2
330
2
100
AcDbEntity
  8
HIDS
100
AcDbLine
 10
936.3665162262391
 20
139.4215561945838
 30
0.0
 11
936.6140843449155
 21
125.2383881745881
 31
0.0
  0
LINE
  5
13C3
330
2
100
AcDbEntity
  8
0
100
AcDbLine
 10
921.116516226238
 20
109.4215561945839
 30
0.0
 11
922.6165162262381
 21
109.4215561945438
 31
0.0
  0
ARC
  5
13C4
330
2
100
AcDbEntity
  8
0
100
AcDbCircle
 10
927.6892596346723
 20
134.4215561945839
 30
0.0
 40
5.0
100
AcDbArc
 50
90.0
 51
179.8333333399819
  0
ARC
  5
13C5
330
2
100
AcDbEntity
  8
0
100
AcDbCircle
 10
924.5685193226112
 20
137.4215561945838
 30
0.0
 40
3.0
100
AcDbArc
 50
90.0
 51
179.075954647233
  0
LINE
  5
13C6
330
2
100
AcDbEntity
  8
HIDS
100
AcDbLine
 10
947.866516226238
 20
139.4215561945838
 30
0.0
 11
947.726214602393
 21
131.3836815477443
 31
0.0
  0
LINE
  5
13C7
330
2
100
AcDbEntity
  8
0
100
AcDbLine
 10
982.5437516638338
 20
134.4361005839246
 30
0.0
 11
982.6165162262386
 21
109.4215561945839
 31
0.0
  0
LINE
  5
13C8
330
2
100
AcDbEntity
  8
0
100
AcDbLine
 10
983.6641229874615
 20
137.4699369987392
 30
0.0
 11
984.1165162262367
 21
109.4215561945875
 31
0.0
  0
LINE
  5
13C9
330
2
100
AcDbEntity
  8
0
100
AcDbLine
 10
982.616516226238
 20
109.4215561945711
 30
0.0
 11
984.1165162262381
 21
109.4215561945839
 31
0.0
  0
ARC
  5
13CA
330
2
100
AcDbEntity
  8
0
100
AcDbCircle
 10
977.5437728178047
 20
134.4215561945839
 30
0.0
 40
5.0
100
AcDbArc
 50
0.1666666599919691
 51
90.0
  0
ARC
  5
13CB
330
2
100
AcDbEntity
  8
0
100
AcDbCircle
 10
980.6645131298649
 20
137.4215561945838
 30
0.0
 40
3.0
100
AcDbArc
 50
0.9240453527669025
 51
90.0
  0
LINE
  5
13CC
330
2
100
AcDbEntity
  8
CENTER
100
AcDbLine
 10
927.8677788847089
 20
137.6702935361135
 30
0.0
 11
927.8677788847089
 21
130.6702935361136
 31
0.0
  0
LINE
  5
13CD
330
2
100
AcDbEntity
  8
CENTER
100
AcDbLine
 10
931.3677788847089
 20
134.1702935361136
 30
0.0
 11
924.3677788847088
 21
134.1702935361136
 31
0.0
  0
LINE
  5
13CE
330
2
100
AcDbEntity
  8
CENTER
100
AcDbLine
 10
924.3677788847092
 20
84.6728188530551
 30
0.0
 11
931.3677788847092
 21
84.6728188530551
 31
0.0
  0
LINE
  5
13CF
330
2
100
AcDbEntity
  8
CENTER
100
AcDbLine
 10
927.8677788847092
 20
88.1728188530551
 30
0.0
 11
927.8677788847092
 21
81.1728188530551
 31
0.0
  0
LINE
  5
13D0
330
2
100
AcDbEntity
  8
CENTER
100
AcDbLine
 10
977.3652535677673
 20
81.17281885305601
 30
0.0
 11
977.3652535677673
 21
88.17281885305602
 31
0.0
  0
LINE
  5
13D1
330
2
100
AcDbEntity
  8
CENTER
100
AcDbLine
 10
973.8652535677672
 20
84.67281885305601
 30
0.0
 11
980.8652535677673
 21
84.67281885305601
 31
0.0
  0
LINE
  5
13D2
330
2
100
AcDbEntity
  8
CENTER
100
AcDbLine
 10
980.8652535677673
 20
134.1702935361136
 30
0.0
 11
973.8652535677672
 21
134.1702935361136
 31
0.0
  0
LINE
  5
13D3
330
2
100
AcDbEntity
  8
CENTER
100
AcDbLine
 10
977.3652535677673
 20
130.6702935361136
 30
0.0
 11
977.3652535677673
 21
137.6702935361135
 31
0.0
  0
LINE
  5
13D4
330
2
100
AcDbEntity
  8
0
100
AcDbLine
 10
720.9848237648169
 20
399.4237322187852
 30
0.0
 11
720.984823764816
 21
352.6837322187854
 31
0.0
  0
LINE
  5
13D5
330
2
100
AcDbEntity
  8
0
100
AcDbLine
 10
745.984823764816
 20
379.0537322187844
 30
0.0
 11
745.984823764816
 21
402.0537322187844
 31
0.0
  0
ARC
  5
13D6
330
2
100
AcDbEntity
  8
0
100
AcDbCircle
 10
749.984823764816
 20
402.0537322187844
 30
0.0
 40
4.0
100
AcDbArc
 50
90.0
 51
180.0
  0
LINE
  5
13D7
330
2
100
AcDbEntity
  8
0
100
AcDbLine
 10
755.984823764816
 20
406.0537322187844
 30
0.0
 11
725.4905184970442
 21
406.0537322187844
 31
0.0
  0
LINE
  5
13D8
330
2
100
AcDbEntity
  8
0
100
AcDbLine
 10
719.9848237648169
 20
407.0537322187844
 30
0.0
 11
712.984823764816
 21
407.0537322187844
 31
0.0
  0
ARC
  5
13D9
330
2
100
AcDbEntity
  8
0
100
AcDbCircle
 10
722.6305750758814
 20
409.0537322187844
 30
0.0
 40
3.0
100
AcDbArc
 50
228.5903778907302
 51
241.2428429585923
  0
ARC
  5
13DA
330
2
100
AcDbEntity
  8
0
100
AcDbCircle
 10
719.9848237648169
 20
406.0537322187844
 30
0.0
 40
1.0
100
AcDbArc
 50
21.71561728325768
 51
90.0
  0
ARC
  5
13DB
330
2
100
AcDbEntity
  8
0
100
AcDbCircle
 10
749.984823764816
 20
350.0537322187844
 30
0.0
 40
4.0
100
AcDbArc
 50
180.0
 51
270.0
  0
ARC
  5
13DC
330
2
100
AcDbEntity
  8
0
100
AcDbCircle
 10
742.984823764816
 20
353.0537322187844
 30
0.0
 40
3.0
100
AcDbArc
 50
0.0
 51
90.0
  0
ARC
  5
13DD
330
2
100
AcDbEntity
  8
0
100
AcDbCircle
 10
742.984823764816
 20
379.0537322187844
 30
0.0
 40
3.0
100
AcDbArc
 50
270.0
 51
0.0
  0
LINE
  5
13DE
330
2
100
AcDbEntity
  8
0
100
AcDbLine
 10
731.984823764816
 20
359.0537322187844
 30
0.0
 11
731.984823764816
 21
373.0537322187844
 31
0.0
  0
LINE
  5
13DF
330
2
100
AcDbEntity
  8
0
100
AcDbLine
 10
742.984823764816
 20
376.0537322187844
 30
0.0
 11
734.984823764816
 21
376.0537322187844
 31
0.0
  0
ARC
  5
13E0
330
2
100
AcDbEntity
  8
0
100
AcDbCircle
 10
734.984823764816
 20
373.0537322187844
 30
0.0
 40
3.0
100
AcDbArc
 50
90.0
 51
180.0
  0
LINE
  5
13E1
330
2
100
AcDbEntity
  8
0
100
AcDbLine
 10
742.984823764816
 20
356.0537322187844
 30
0.0
 11
734.984823764816
 21
356.0537322187844
 31
0.0
  0
LINE
  5
13E2
330
2
100
AcDbEntity
  8
0
100
AcDbLine
 10
745.984823764816
 20
350.0537322187844
 30
0.0
 11
745.984823764816
 21
353.0537322187844
 31
0.0
  0
ARC
  5
13E3
330
2
100
AcDbEntity
  8
0
100
AcDbCircle
 10
734.984823764816
 20
359.0537322187844
 30
0.0
 40
3.0
100
AcDbArc
 50
180.0
 51
270.0
  0
LINE
  5
13E4
330
2
100
AcDbEntity
  8
0
100
AcDbLine
 10
755.984823764816
 20
346.0537322187844
 30
0.0
 11
725.4905184970446
 21
346.0537322187844
 31
0.0
  0
LINE
  5
13E5
330
2
100
AcDbEntity
  8
0
100
AcDbLine
 10
719.984823764816
 20
345.0537322187844
 30
0.0
 11
712.984823764816
 21
345.0537322187844
 31
0.0
  0
ARC
  5
13E6
330
2
100
AcDbEntity
  8
0
100
AcDbCircle
 10
722.6305750758805
 20
343.0537322187844
 30
0.0
 40
3.0
100
AcDbArc
 50
118.7571570414074
 51
131.4096221092842
  0
ARC
  5
13E7
330
2
100
AcDbEntity
  8
0
100
AcDbCircle
 10
719.984823764816
 20
346.0537322187844
 30
0.0
 40
1.0
100
AcDbArc
 50
270.0
 51
338.2843827167423
  0
LINE
  5
13E8
330
2
100
AcDbEntity
  8
0
100
AcDbLine
 10
755.984823764816
 20
346.0537322187844
 30
0.0
 11
755.984823764816
 21
406.0537322187844
 31
0.0
  0
CIRCLE
  5
13E9
330
2
100
AcDbEntity
  8
CENTER
100
AcDbCircle
 10
952.6165162262381
 20
109.4215561945839
 30
0.0
 40
35.00000000000006
  0
LINE
  5
13EA
330
2
100
AcDbEntity
  8
0
100
AcDbLine
 10
746.389952713004
 20
132.6313779186972
 30
0.0
 11
746.4398739875211
 21
135.4913658203355
 31
0.0
  0
LINE
  5
13EB
330
2
100
AcDbEntity
  8
0
100
AcDbLine
 10
720.8561883894001
 20
116.7910720899314
 30
0.0
 11
720.4608671871021
 21
139.4390086010249
 31
0.0
  0
LINE
  5
13EC
330
2
100
AcDbEntity
  8
0
100
AcDbLine
 10
712.9848237678372
 20
109.4215561945862
 30
0.0
 11
713.4448631210236
 21
109.4215561945863
 31
0.0
  0
ARC
  5
13ED
330
2
100
AcDbEntity
  8
0
100
AcDbCircle
 10
728.9012591431394
 20
134.6603226553603
 30
0.0
 40
3.0
100
AcDbArc
 50
270.000000000013
 51
359.0000000000242
  0
LINE
  5
13EE
330
2
100
AcDbEntity
  8
0
100
AcDbLine
 10
743.3725458962019
 20
131.6603226553612
 30
0.0
 11
728.9012591431394
 21
131.6603226553612
 31
0.0
  0
LINE
  5
13EF
330
2
100
AcDbEntity
  8
0
100
AcDbLine
 10
725.4905185000654
 20
79.42155619458628
 30
0.0
 11
755.9848237678372
 21
79.42155619458628
 31
0.0
  0
LINE
  5
13F0
330
2
100
AcDbEntity
  8
0
100
AcDbLine
 10
745.9848237678373
 20
109.4215561945862
 30
0.0
 11
746.4398739875216
 21
83.35174656883703
 31
0.0
  0
ARC
  5
13F1
330
2
100
AcDbEntity
  8
0
100
AcDbCircle
 10
750.4392647681468
 20
83.42155619458628
 30
0.0
 40
4.0
100
AcDbArc
 50
181.0000000000017
 51
270.0
  0
ARC
  5
13F2
330
2
100
AcDbEntity
  8
0
100
AcDbCircle
 10
733.9502182940679
 20
137.4215561945862
 30
0.0
 40
2.0
100
AcDbArc
 50
90.0
 51
179.0000000000242
  0
LINE
  5
13F3
330
2
100
AcDbEntity
  8
0
100
AcDbLine
 10
731.9505229037556
 20
137.4564610074618
 30
0.0
 11
731.9008022286091
 21
134.6079654360497
 31
0.0
  0
LINE
  5
13F4
330
2
100
AcDbEntity
  8
0
100
AcDbLine
 10
720.9848237678454
 20
109.4215561945862
 30
0.0
 11
720.4608671871031
 21
79.40410378814942
 31
0.0
  0
ARC
  5
13F5
330
2
100
AcDbEntity
  8
0
100
AcDbCircle
 10
722.1067708030107
 20
76.42155619458629
 30
0.0
 40
3.0
100
AcDbArc
 50
118.7571570414074
 51
131.4096221092698
  0
ARC
  5
13F6
330
2
100
AcDbEntity
  8
0
100
AcDbCircle
 10
719.4610194919467
 20
79.42155619458628
 30
0.0
 40
1.0
100
AcDbArc
 50
270.0
 51
358.9999999999721
  0
LINE
  5
13F7
330
2
100
AcDbEntity
  8
0
100
AcDbLine
 10
712.9848237678372
 20
78.42155619458629
 30
0.0
 11
719.4610194919467
 21
78.42155619458629
 31
0.0
  0
LINE
  5
13F8
330
2
100
AcDbEntity
  8
0
100
AcDbLine
 10
725.4905185000654
 20
139.4215561945862
 30
0.0
 11
755.9848237678372
 21
139.4215561945862
 31
0.0
  0
LINE
  5
13F9
330
2
100
AcDbEntity
  8
CENTER
  6
CENS
100
AcDbLine
 10
741.9848237678372
 20
148.4215561945899
 30
0.0
 11
741.9848237678372
 21
125.9391464768401
 31
0.0
  0
ARC
  5
13FA
330
2
100
AcDbEntity
  8
0
100
AcDbCircle
 10
750.4392647681463
 20
135.4215561945862
 30
0.0
 40
4.0
100
AcDbArc
 50
90.0
 51
178.9999999999982
  0
ARC
  5
13FB
330
2
100
AcDbEntity
  8
0
100
AcDbCircle
 10
722.1067708030098
 20
142.4215561945862
 30
0.0
 40
3.0
100
AcDbArc
 50
228.5903778907442
 51
241.2428429585923
  0
ARC
  5
13FC
330
2
100
AcDbEntity
  8
0
100
AcDbCircle
 10
719.4610194919452
 20
139.4215561945862
 30
0.0
 40
1.0
100
AcDbArc
 50
1.000000000001775
 51
90.0
  0
LINE
  5
13FD
330
2
100
AcDbEntity
  8
0
100
AcDbLine
 10
712.9848237678372
 20
140.4215561945862
 30
0.0
 11
719.4610194919452
 21
140.4215561945862
 31
0.0
  0
LINE
  5
13FE
330
2
100
AcDbEntity
  8
0
100
AcDbLine
 10
755.9848237678372
 20
139.4215561945862
 30
0.0
 11
755.9848237678372
 21
79.42155619458628
 31
0.0
  0
LINE
  5
13FF
330
2
100
AcDbEntity
  8
0
100
AcDbLine
 10
721.5768989004657
 20
139.791556194587
 30
0.0
 11
720.5768989004657
 21
139.791556194587
 31
0.0
  0
LINE
  5
1400
330
2
100
AcDbEntity
  8
0
100
AcDbLine
 10
720.5768989004657
 20
139.791556194587
 30
0.0
 11
720.5768989004657
 21
132.791556194587
 31
0.0
  0
LINE
  5
1401
330
2
100
AcDbEntity
  8
0
100
AcDbLine
 10
720.5768989004657
 20
132.791556194587
 30
0.0
 11
721.5768989004657
 21
132.791556194587
 31
0.0
  0
LINE
  5
1402
330
2
100
AcDbEntity
  8
0
100
AcDbLine
 10
721.5768989004657
 20
132.791556194587
 30
0.0
 11
721.5768989004657
 21
139.791556194587
 31
0.0
  0
LINE
  5
1403
330
2
100
AcDbEntity
  8
0
100
AcDbLine
 10
725.5768989004657
 20
139.2719409523166
 30
0.0
 11
725.5768989004657
 21
133.3111714368575
 31
0.0
  0
LINE
  5
1404
330
2
100
AcDbEntity
  8
0
100
AcDbLine
 10
725.2768989004655
 20
132.791556194587
 30
0.0
 11
725.2768989004655
 21
139.791556194587
 31
0.0
  0
LINE
  5
1405
330
2
100
AcDbEntity
  8
0
100
AcDbLine
 10
725.2768989004655
 20
132.791556194587
 30
0.0
 11
721.5768989004657
 21
132.791556194587
 31
0.0
  0
LINE
  5
1406
330
2
100
AcDbEntity
  8
0
100
AcDbLine
 10
725.2768989004655
 20
132.791556194587
 30
0.0
 11
725.5768989004657
 21
133.3111714368575
 31
0.0
  0
LINE
  5
1407
330
2
100
AcDbEntity
  8
0
100
AcDbLine
 10
725.5768989004657
 20
139.2719409523166
 30
0.0
 11
725.2768989004655
 21
139.791556194587
 31
0.0
  0
LINE
  5
1408
330
2
100
AcDbEntity
  8
0
100
AcDbLine
 10
721.5768989004657
 20
139.791556194587
 30
0.0
 11
725.2768989004655
 21
139.791556194587
 31
0.0
  0
LINE
  5
1409
330
2
100
AcDbEntity
  8
CENTER
  6
CENS
100
AcDbLine
 10
730.5158061732156
 20
136.291556194587
 30
0.0
 11
707.5158490835931
 21
136.291556194587
 31
0.0
  0
LINE
  5
140A
330
2
100
AcDbEntity
  8
CENTER
  6
CENS
100
AcDbLine
 10
730.5158061732156
 20
82.55155619458639
 30
0.0
 11
707.5158490835931
 21
82.55155619458639
 31
0.0
  0
LINE
  5
140B
330
2
100
AcDbEntity
  8
CENTER
  6
CENS
100
AcDbLine
 10
730.5158061701944
 20
349.1837322187854
 30
0.0
 11
707.5158490805719
 21
349.1837322187854
 31
0.0
  0
LINE
  5
140C
330
2
100
AcDbEntity
  8
0
100
AcDbLine
 10
721.5768988974445
 20
345.6837322187854
 30
0.0
 11
720.5768988974445
 21
345.6837322187854
 31
0.0
  0
LINE
  5
140D
330
2
100
AcDbEntity
  8
0
100
AcDbLine
 10
720.5768988974445
 20
352.6837322187854
 30
0.0
 11
721.5768988974445
 21
352.6837322187854
 31
0.0
  0
LINE
  5
140E
330
2
100
AcDbEntity
  8
0
100
AcDbLine
 10
721.5768988974445
 20
352.6837322187854
 30
0.0
 11
721.5768988974445
 21
345.6837322187854
 31
0.0
  0
LINE
  5
140F
330
2
100
AcDbEntity
  8
0
100
AcDbLine
 10
725.5768988974445
 20
346.2033474610559
 30
0.0
 11
725.5768988974445
 21
352.164116976515
 31
0.0
  0
LINE
  5
1410
330
2
100
AcDbEntity
  8
0
100
AcDbLine
 10
725.2768988974443
 20
352.6837322187854
 30
0.0
 11
725.2768988974443
 21
345.6837322187854
 31
0.0
  0
LINE
  5
1411
330
2
100
AcDbEntity
  8
0
100
AcDbLine
 10
725.2768988974443
 20
352.6837322187854
 30
0.0
 11
721.5768988974445
 21
352.6837322187854
 31
0.0
  0
LINE
  5
1412
330
2
100
AcDbEntity
  8
0
100
AcDbLine
 10
725.2768988974443
 20
352.6837322187854
 30
0.0
 11
725.5768988974445
 21
352.164116976515
 31
0.0
  0
LINE
  5
1413
330
2
100
AcDbEntity
  8
0
100
AcDbLine
 10
725.5768988974445
 20
346.2033474610559
 30
0.0
 11
725.2768988974443
 21
345.6837322187854
 31
0.0
  0
LINE
  5
1414
330
2
100
AcDbEntity
  8
0
100
AcDbLine
 10
721.5768988974445
 20
345.6837322187854
 30
0.0
 11
725.2768988974443
 21
345.6837322187854
 31
0.0
  0
LINE
  5
1415
330
2
100
AcDbEntity
  8
0
100
AcDbLine
 10
720.5768988974445
 20
345.6837322187854
 30
0.0
 11
720.5768988974445
 21
352.6837322187854
 31
0.0
  0
LINE
  5
1416
330
2
100
AcDbEntity
  8
0
100
AcDbLine
 10
720.5768988974445
 20
352.6837322187854
 30
0.0
 11
720.5768988974445
 21
345.6837322187854
 31
0.0
  0
LINE
  5
1417
330
2
100
AcDbEntity
  8
CENTER
  6
CENS
100
AcDbLine
 10
730.5158061701944
 20
402.9237322187852
 30
0.0
 11
707.5158490805719
 21
402.9237322187852
 31
0.0
  0
LINE
  5
1418
330
2
100
AcDbEntity
  8
0
100
AcDbLine
 10
721.5768988974445
 20
406.4237322187852
 30
0.0
 11
720.5768988974445
 21
406.4237322187852
 31
0.0
  0
LINE
  5
1419
330
2
100
AcDbEntity
  8
0
100
AcDbLine
 10
720.5768988974445
 20
399.4237322187852
 30
0.0
 11
721.5768988974445
 21
399.4237322187852
 31
0.0
  0
LINE
  5
141A
330
2
100
AcDbEntity
  8
0
100
AcDbLine
 10
721.5768988974445
 20
399.4237322187852
 30
0.0
 11
721.5768988974445
 21
406.4237322187852
 31
0.0
  0
LINE
  5
141B
330
2
100
AcDbEntity
  8
0
100
AcDbLine
 10
725.5768988974445
 20
405.9041169765148
 30
0.0
 11
725.5768988974445
 21
399.9433474610556
 31
0.0
  0
LINE
  5
141C
330
2
100
AcDbEntity
  8
0
100
AcDbLine
 10
725.2768988974443
 20
399.4237322187852
 30
0.0
 11
725.2768988974443
 21
406.4237322187852
 31
0.0
  0
LINE
  5
141D
330
2
100
AcDbEntity
  8
0
100
AcDbLine
 10
725.2768988974443
 20
399.4237322187852
 30
0.0
 11
721.5768988974445
 21
399.4237322187852
 31
0.0
  0
LINE
  5
141E
330
2
100
AcDbEntity
  8
0
100
AcDbLine
 10
725.2768988974443
 20
399.4237322187852
 30
0.0
 11
725.5768988974445
 21
399.9433474610556
 31
0.0
  0
LINE
  5
141F
330
2
100
AcDbEntity
  8
0
100
AcDbLine
 10
725.5768988974445
 20
405.9041169765148
 30
0.0
 11
725.2768988974443
 21
406.4237322187852
 31
0.0
  0
LINE
  5
1420
330
2
100
AcDbEntity
  8
0
100
AcDbLine
 10
721.5768988974445
 20
406.4237322187852
 30
0.0
 11
725.2768988974443
 21
406.4237322187852
 31
0.0
  0
LINE
  5
1421
330
2
100
AcDbEntity
  8
0
100
AcDbLine
 10
720.5768988974445
 20
406.4237322187852
 30
0.0
 11
720.5768988974445
 21
399.4237322187852
 31
0.0
  0
LINE
  5
1422
330
2
100
AcDbEntity
  8
0
100
AcDbLine
 10
720.5768988974445
 20
399.4237322187852
 30
0.0
 11
720.5768988974445
 21
406.4237322187852
 31
0.0
  0
LINE
  5
1423
330
2
100
AcDbEntity
  8
0
100
AcDbLine
 10
721.5768989004657
 20
79.05155619458731
 30
0.0
 11
720.5768989004657
 21
79.05155619458731
 31
0.0
  0
LINE
  5
1424
330
2
100
AcDbEntity
  8
0
100
AcDbLine
 10
720.5768989004657
 20
79.05155619458731
 30
0.0
 11
720.5768989004657
 21
86.05155619458731
 31
0.0
  0
LINE
  5
1425
330
2
100
AcDbEntity
  8
0
100
AcDbLine
 10
720.5768989004657
 20
86.05155619458731
 30
0.0
 11
721.5768989004657
 21
86.05155619458731
 31
0.0
  0
LINE
  5
1426
330
2
100
AcDbEntity
  8
0
100
AcDbLine
 10
721.5768989004657
 20
86.05155619458731
 30
0.0
 11
721.5768989004657
 21
79.05155619458731
 31
0.0
  0
LINE
  5
1427
330
2
100
AcDbEntity
  8
0
100
AcDbLine
 10
725.5768989004657
 20
79.57117143685775
 30
0.0
 11
725.5768989004657
 21
85.53194095231686
 31
0.0
  0
LINE
  5
1428
330
2
100
AcDbEntity
  8
0
100
AcDbLine
 10
725.2768989004655
 20
86.05155619458731
 30
0.0
 11
725.2768989004655
 21
79.05155619458731
 31
0.0
  0
LINE
  5
1429
330
2
100
AcDbEntity
  8
0
100
AcDbLine
 10
725.2768989004655
 20
86.05155619458731
 30
0.0
 11
721.5768989004657
 21
86.05155619458731
 31
0.0
  0
LINE
  5
142A
330
2
100
AcDbEntity
  8
0
100
AcDbLine
 10
725.2768989004655
 20
86.05155619458731
 30
0.0
 11
725.5768989004657
 21
85.53194095231686
 31
0.0
  0
LINE
  5
142B
330
2
100
AcDbEntity
  8
0
100
AcDbLine
 10
725.5768989004657
 20
79.57117143685775
 30
0.0
 11
725.2768989004655
 21
79.05155619458731
 31
0.0
  0
LINE
  5
142C
330
2
100
AcDbEntity
  8
0
100
AcDbLine
 10
721.5768989004657
 20
79.05155619458731
 30
0.0
 11
725.2768989004655
 21
79.05155619458731
 31
0.0
  0
LINE
  5
142D
330
2
100
AcDbEntity
  8
0
100
AcDbLine
 10
746.4848131587871
 20
114.9215561945871
 30
0.0
 11
736.4848131587862
 21
114.9215561945871
 31
0.0
  0
LINE
  5
142E
330
2
100
AcDbEntity
  8
0
100
AcDbLine
 10
746.4848131587866
 20
114.9215561945862
 30
0.0
 11
746.4848131587866
 21
109.4215561945862
 31
0.0
  0
LINE
  5
142F
330
2
100
AcDbEntity
  8
0
100
AcDbLine
 10
748.4848131587867
 20
116.0762567329662
 30
0.0
 11
746.4848131587866
 21
114.9215561945862
 31
0.0
  0
LINE
  5
1430
330
2
100
AcDbEntity
  8
0
100
AcDbLine
 10
719.4848131587871
 20
115.1715561945862
 30
0.0
 11
719.4848131587871
 21
109.4215561945862
 31
0.0
  0
LINE
  5
1431
330
2
100
AcDbEntity
  8
0
100
AcDbLine
 10
746.4848131587866
 20
114.9215561945862
 30
0.0
 11
736.4848131587867
 21
114.9215561945862
 31
0.0
  0
LINE
  5
1432
330
2
100
AcDbEntity
  8
0
100
AcDbLine
 10
741.39702733746
 20
124.1715561945862
 30
0.0
 11
748.4848131587867
 21
124.1715561945862
 31
0.0
  0
LINE
  5
1433
330
2
100
AcDbEntity
  8
0
100
AcDbLine
 10
748.4848131587867
 20
124.1715561945862
 30
0.0
 11
748.4848131587867
 21
109.4215561945862
 31
0.0
  0
LINE
  5
1434
330
2
100
AcDbEntity
  8
0
100
AcDbLine
 10
734.4848131587866
 20
119.7062373813101
 30
0.0
 11
734.4848131587866
 21
109.4215561945862
 31
0.0
  0
LINE
  5
1435
330
2
100
AcDbEntity
  8
0
100
AcDbLine
 10
736.4848131587867
 20
120.2316375287415
 30
0.0
 11
736.4848131587867
 21
109.4215561945862
 31
0.0
  0
LINE
  5
1436
330
2
100
AcDbEntity
  8
0
100
AcDbLine
 10
727.4848131587871
 20
115.1715561945862
 30
0.0
 11
719.4848131587871
 21
115.1715561945862
 31
0.0
  0
LINE
  5
1437
330
2
100
AcDbEntity
  8
0
100
AcDbLine
 10
727.4848131587871
 20
109.4215561945862
 30
0.0
 11
727.4848131587871
 21
115.1715561945862
 31
0.0
  0
LINE
  5
1438
330
2
100
AcDbEntity
  8
0
100
AcDbLine
 10
734.4848131587866
 20
114.9215561945862
 30
0.0
 11
727.4848131587871
 21
114.9215561945862
 31
0.0
  0
LINE
  5
1439
330
2
100
AcDbEntity
  8
0
100
AcDbLine
 10
716.5980618128389
 20
109.4215561945862
 30
0.0
 11
719.4848131587871
 21
114.4215561945862
 31
0.0
  0
LINE
  5
143A
330
2
100
AcDbEntity
  8
0
100
AcDbLine
 10
748.9848237678373
 20
134.4215561945862
 30
0.0
 11
748.9848237678377
 21
109.4215561945862
 31
0.0
  0
LINE
  5
143B
330
2
100
AcDbEntity
  8
0
100
AcDbLine
 10
755.9848237678372
 20
134.4215561945862
 30
0.0
 11
748.9848237678373
 21
134.4215561945862
 31
0.0
  0
LINE
  5
143D
330
2
100
AcDbEntity
  8
0
100
AcDbLine
 10
937.8855963635841
 20
108.6715561945875
 30
0.0
 11
942.1165162262404
 21
108.6715561945875
 31
0.0
  0
LINE
  5
143E
330
2
100
AcDbEntity
  8
0
100
AcDbLine
 10
937.8855963635841
 20
110.1715561945875
 30
0.0
 11
942.1165162262404
 21
110.1715561945875
 31
0.0
  0
LINE
  5
143F
330
2
100
AcDbEntity
  8
0
100
AcDbLine
 10
966.6165162262403
 20
110.1715561945875
 30
0.0
 11
966.6165162262403
 21
108.6715561945875
 31
0.0
  0
LINE
  5
1440
330
2
100
AcDbEntity
  8
0
100
AcDbLine
 10
958.0651399056636
 20
110.1715561945875
 30
0.0
 11
966.6165162262403
 21
110.1715561945875
 31
0.0
  0
LINE
  5
1441
330
2
100
AcDbEntity
  8
0
100
AcDbLine
 10
966.6165162262403
 20
108.6715561945875
 30
0.0
 11
958.0651399056636
 21
108.6715561945875
 31
0.0
  0
LINE
  5
1442
330
2
100
AcDbEntity
  8
HIDS
100
AcDbLine
 10
946.11651622624
 20
122.6621188714525
 30
0.0
 11
946.11651622624
 21
114.4215561945875
 31
0.0
  0
LINE
  5
1443
330
2
100
AcDbEntity
  8
HIDS
100
AcDbLine
 10
943.7831828929068
 20
99.88822286125468
 30
0.0
 11
943.7831828929068
 21
97.60907456614768
 31
0.0
  0
LINE
  5
1444
330
2
100
AcDbEntity
  8
HIDS
100
AcDbLine
 10
944.1165162262398
 20
108.6715561945875
 30
0.0
 11
944.1165162262398
 21
97.36699274334569
 31
0.0
  0
LINE
  5
1445
330
2
100
AcDbEntity
  8
HIDS
100
AcDbLine
 10
939.6165162262398
 20
114.4215561945875
 30
0.0
 11
939.6165162262398
 21
110.1715561945875
 31
0.0
  0
LINE
  5
1446
330
2
100
AcDbEntity
  8
HIDS
100
AcDbLine
 10
944.6165162262399
 20
114.4215561945875
 30
0.0
 11
944.6165162262399
 21
110.1715561945875
 31
0.0
  0
LINE
  5
1447
330
2
100
AcDbEntity
  8
HIDS
100
AcDbLine
 10
938.7398271398623
 20
114.4215561945875
 30
0.0
 11
946.11651622624
 21
114.4215561945875
 31
0.0
  0
LINE
  5
1448
330
2
100
AcDbEntity
  8
CENTER
  6
CENS
100
AcDbLine
 10
942.1165162262404
 20
148.4215561945875
 30
0.0
 11
942.1165162262404
 21
94.26985355499164
 31
0.0
  0
LINE
  5
1449
330
2
100
AcDbEntity
  8
HIDS
100
AcDbLine
 10
940.1165162262403
 20
114.4215561945875
 30
0.0
 11
940.1165162262403
 21
110.1715561945875
 31
0.0
  0
LINE
  5
144A
330
2
100
AcDbEntity
  8
HIDS
100
AcDbLine
 10
940.4498495595738
 20
112.7548895279214
 30
0.0
 11
940.4498495595738
 21
110.1715561945875
 31
0.0
  0
LINE
  5
144B
330
2
100
AcDbEntity
  8
HIDS
100
AcDbLine
 10
943.7831828929068
 20
112.7548895279214
 30
0.0
 11
943.7831828929068
 21
110.1715561945875
 31
0.0
  0
LINE
  5
144C
330
2
100
AcDbEntity
  8
HIDS
100
AcDbLine
 10
944.1165162262404
 20
114.4215561945875
 30
0.0
 11
944.1165162262404
 21
110.1715561945875
 31
0.0
  0
LINE
  5
144D
330
2
100
AcDbEntity
  8
HIDS
100
AcDbLine
 10
944.1165162262404
 20
100.2215561945868
 30
0.0
 11
941.0873141723254
 21
100.2215561945868
 31
0.0
  0
LINE
  5
144E
330
2
100
AcDbEntity
  8
HIDS
100
AcDbLine
 10
943.3165162262406
 20
99.42155619458754
 30
0.0
 11
941.7738920051396
 21
99.42155619458754
 31
0.0
  0
LINE
  5
144F
330
2
100
AcDbEntity
  8
0
100
AcDbLine
 10
940.91651622624
 20
99.42155619458754
 30
0.0
 11
941.7738920051396
 21
99.42155619458754
 31
0.0
  0
LINE
  5
1450
330
2
100
AcDbEntity
  8
0
100
AcDbLine
 10
940.1165162262403
 20
100.2215561945868
 30
0.0
 11
940.91651622624
 21
99.42155619458754
 31
0.0
  0
LINE
  5
1451
330
2
100
AcDbEntity
  8
0
100
AcDbLine
 10
940.1165162262403
 20
100.2215561945868
 30
0.0
 11
941.0873141723254
 21
100.2215561945868
 31
0.0
  0
LINE
  5
1452
330
2
100
AcDbEntity
  8
HIDS
100
AcDbLine
 10
944.1165162262404
 20
100.2215561945868
 30
0.0
 11
943.3165162262406
 21
99.42155619458754
 31
0.0
  0
LINE
  5
1453
330
2
100
AcDbEntity
  8
0
100
AcDbLine
 10
938.6165162262404
 20
114.4215561945875
 30
0.0
 11
938.7398271398623
 21
114.4215561945875
 31
0.0
  0
LINE
  5
1454
330
2
100
AcDbEntity
  8
HIDS
100
AcDbLine
 10
944.1165162262404
 20
112.7548895279214
 30
0.0
 11
940.1165162262403
 21
112.7548895279214
 31
0.0
  0
LINE
  5
1455
330
2
100
AcDbEntity
  8
0
100
AcDbLine
 10
938.6165162262404
 20
118.1215561945882
 30
0.0
 11
940.7054919210008
 21
118.1215561945882
 31
0.0
  0
LINE
  5
1456
330
2
100
AcDbEntity
  8
HIDS
100
AcDbLine
 10
945.0969009839694
 20
118.4215561945875
 30
0.0
 11
940.9305203337202
 21
118.4215561945875
 31
0.0
  0
LINE
  5
1457
330
2
100
AcDbEntity
  8
0
100
AcDbLine
 10
938.6165162262404
 20
118.1215561945882
 30
0.0
 11
938.6165162262404
 21
114.4215561945875
 31
0.0
  0
LINE
  5
1458
330
2
100
AcDbEntity
  8
HIDS
100
AcDbLine
 10
940.1165162262403
 20
114.4215561945875
 30
0.0
 11
940.4498495595738
 21
112.7548895279214
 31
0.0
  0
LINE
  5
1459
330
2
100
AcDbEntity
  8
0
100
AcDbLine
 10
938.6165162262404
 20
118.1215561945882
 30
0.0
 11
939.1361314685113
 21
118.4215561945875
 31
0.0
  0
LINE
  5
145A
330
2
100
AcDbEntity
  8
HIDS
100
AcDbLine
 10
945.6165162262404
 20
114.4215561945875
 30
0.0
 11
945.6165162262404
 21
118.1215561945882
 31
0.0
  0
LINE
  5
145B
330
2
100
AcDbEntity
  8
HIDS
100
AcDbLine
 10
944.1165162262404
 20
114.4215561945875
 30
0.0
 11
943.7831828929068
 21
112.7548895279214
 31
0.0
  0
LINE
  5
145C
330
2
100
AcDbEntity
  8
HIDS
100
AcDbLine
 10
945.0969009839694
 20
118.4215561945875
 30
0.0
 11
945.6165162262404
 21
118.1215561945882
 31
0.0
  0
LINE
  5
145E
330
2
100
AcDbEntity
  8
0
100
AcDbLine
 10
942.1165162262404
 20
110.1715561945875
 30
0.0
 11
947.1678925468172
 21
110.1715561945875
 31
0.0
  0
LINE
  5
145F
330
2
100
AcDbEntity
  8
0
100
AcDbLine
 10
942.1165162262404
 20
108.6715561945875
 30
0.0
 11
947.1678925468172
 21
108.6715561945875
 31
0.0
  0
LINE
  5
1461
330
2
100
AcDbEntity
  8
HIDS
100
AcDbLine
 10
940.7054919210008
 20
118.1215561945882
 30
0.0
 11
945.6165162262404
 21
118.1215561945882
 31
0.0
  0
LINE
  5
1462
330
2
100
AcDbEntity
  8
0
100
AcDbLine
 10
940.9305203337202
 20
118.4215561945875
 30
0.0
 11
939.1361314685113
 21
118.4215561945875
 31
0.0
  0
LINE
  5
1463
330
2
100
AcDbEntity
  8
HIDS
100
AcDbLine
 10
938.7398271398623
 20
114.4215561945875
 30
0.0
 11
945.6165162262404
 21
114.4215561945875
 31
0.0
  0
LINE
  5
1464
330
2
100
AcDbEntity
  8
0
100
AcDbLine
 10
944.1165162262404
 20
110.1715561945875
 30
0.0
 11
944.1165162262404
 21
108.6715561945875
 31
0.0
  0
LINE
  5
1465
330
2
100
AcDbEntity
  8
HOJO
100
AcDbLine
 10
943.7831828929068
 20
110.1715561945875
 30
0.0
 11
943.7831828929068
 21
108.6715561945875
 31
0.0
  0
LINE
  5
1466
330
2
100
AcDbEntity
  8
HOJO
100
AcDbLine
 10
940.4498495595738
 20
110.1715561945875
 30
0.0
 11
940.4498495595738
 21
108.6715561945875
 31
0.0
  0
LINE
  5
1467
330
2
100
AcDbEntity
  8
0
100
AcDbLine
 10
940.1165162262403
 20
110.1715561945875
 30
0.0
 11
940.1165162262403
 21
108.6715561945875
 31
0.0
  0
LINE
  5
1468
330
2
100
AcDbEntity
  8
HIDS
100
AcDbLine
 10
940.1165162262403
 20
108.6715561945875
 30
0.0
 11
940.1165162262403
 21
101.5913263129041
 31
0.0
  0
LINE
  5
1469
330
2
100
AcDbEntity
  8
HIDS
100
AcDbLine
 10
940.4498495595738
 20
108.6715561945875
 30
0.0
 11
940.4498495595738
 21
101.0828079538605
 31
0.0
  0
LINE
  5
146A
330
2
100
AcDbEntity
  8
HIDS
100
AcDbLine
 10
943.7831828929068
 20
108.6715561945875
 30
0.0
 11
943.7831828929068
 21
99.88822286125468
 31
0.0
  0
LINE
  5
146B
330
2
100
AcDbEntity
  8
HIDS
100
AcDbLine
 10
944.1165162262404
 20
108.6715561945875
 30
0.0
 11
944.1165162262404
 21
100.2215561945868
 31
0.0
  0
LINE
  5
146C
330
2
100
AcDbEntity
  8
HOJO
100
AcDbLine
 10
940.4498495595738
 20
101.0828079538605
 30
0.0
 11
940.4498495595738
 21
99.88822286125468
 31
0.0
  0
LINE
  5
146D
330
2
100
AcDbEntity
  8
0
100
AcDbLine
 10
940.1165162262403
 20
101.5913263129041
 30
0.0
 11
940.1165162262403
 21
100.2215561945868
 31
0.0
  0
CIRCLE
  5
146E
330
2
100
AcDbEntity
  8
0
100
AcDbCircle
 10
952.6165162262403
 20
109.4215561945875
 30
0.0
 40
5.499999999997157
  0
ARC
  5
146F
330
2
100
AcDbEntity
  8
0
100
AcDbCircle
 10
952.6165162262403
 20
109.4215561945875
 30
0.0
 40
6.654700538376232
100
AcDbArc
 50
6.471114411194036
 51
173.5288855888059
  0
ARC
  5
1470
330
2
100
AcDbEntity
  8
0
100
AcDbCircle
 10
952.6165162262403
 20
109.4215561945875
 30
0.0
 40
6.654700538376232
100
AcDbArc
 50
186.471114411194
 51
353.5288855888059
  0
SPLINE
  5
1471
330
2
100
AcDbEntity
  8
HOJO
100
AcDbSpline
210
0.0
220
0.0
230
1.0
 70
     8
 71
     3
 72
    20
 73
    16
 74
     0
 42
0.0000000001
 43
0.0000000001
 40
0.0
 40
0.0
 40
0.0
 40
0.0
 40
5.311626210389601
 40
7.954639692924123
 40
10.24579206730457
 40
14.18281221953265
 40
18.83794314114633
 40
26.54246833222011
 40
31.19712602527561
 40
34.95638115537181
 40
42.12378530287149
 40
45.78553747213095
 40
50.20353689726185
 40
53.26513166942802
 40
54.23175360515262
 40
54.23175360515262
 40
54.23175360515262
 40
54.23175360515262
 10
755.9848237678372
 20
136.1090049166028
 30
0.0
 10
754.2718446019486
 20
136.0009628663761
 30
0.0
 10
751.7065036825377
 20
135.8391601439731
 30
0.0
 10
747.9347497954607
 20
135.5870274718041
 30
0.0
 10
746.6156085793265
 20
132.654585986838
 30
0.0
 10
744.180399211036
 20
130.0000771635428
 30
0.0
 10
742.3423508678864
 20
124.8487817303781
 30
0.0
 10
738.2175144584091
 20
120.139034378753
 30
0.0
 10
732.7398669554025
 20
119.5017029443339
 30
0.0
 10
727.8264814458368
 20
117.8153839976263
 30
0.0
 10
722.9924820990784
 20
117.1953969056518
 30
0.0
 10
717.9547553344398
 20
116.2401728879909
 30
0.0
 10
714.8836047130701
 20
113.7059610452403
 30
0.0
 10
713.8836304183444
 20
111.0277205243497
 30
0.0
 10
713.5275908931118
 20
109.7327074942792
 30
0.0
 10
713.4448631210236
 20
109.4215561945862
 30
0.0
  0
LINE
  5
1472
330
2
100
AcDbEntity
  8
0
100
AcDbLine
 10
746.9848237678372
 20
143.4215561945863
 30
0.0
 11
736.9848237678373
 21
143.4215561945863
 31
0.0
  0
ARC
  5
1473
330
2
100
AcDbEntity
  8
0
100
AcDbCircle
 10
736.9848237678373
 20
139.4215561945862
 30
0.0
 40
4.0
100
AcDbArc
 50
90.0
 51
180.0
  0
ARC
  5
1474
330
2
100
AcDbEntity
  8
0
100
AcDbCircle
 10
746.9848237678372
 20
139.4215561945862
 30
0.0
 40
4.000000000000028
100
AcDbArc
 50
0.0
 51
90.0
  0
LINE
  5
1475
330
2
100
AcDbEntity
  8
0
100
AcDbLine
 10
937.1165162262403
 20
143.4215561945875
 30
0.0
 11
947.1165162262403
 21
143.4215561945875
 31
0.0
  0
ARC
  5
1476
330
2
100
AcDbEntity
  8
0
100
AcDbCircle
 10
947.1165162262403
 20
139.4215561945875
 30
0.0
 40
3.999999999999971
100
AcDbArc
 50
359.9999999999478
 51
90.0
  0
ARC
  5
1477
330
2
100
AcDbEntity
  8
0
100
AcDbCircle
 10
937.1165162262403
 20
139.4215561945875
 30
0.0
 40
4.000000000000056
100
AcDbArc
 50
90.0
 51
180.0000000000521
  0
ARC
  5
1478
330
2
100
AcDbEntity
  8
0
100
AcDbCircle
 10
979.4640276011985
 20
136.3141503486185
 30
0.0
 40
3.499999999999717
100
AcDbArc
 50
331.4660973942784
 51
117.7026032046093
  0
ARC
  5
1479
330
2
100
AcDbEntity
  8
0
100
AcDbCircle
 10
979.4640276011985
 20
136.3141503486185
 30
0.0
 40
2.980384757729353
100
AcDbArc
 50
347.9891694961489
 51
101.1795311027486
  0
ARC
  5
147A
330
2
100
AcDbEntity
  8
0
100
AcDbCircle
 10
925.7239220722089
 20
136.2690675695457
 30
0.0
 40
3.499999999999717
100
AcDbArc
 50
61.46609739427881
 51
207.7026032046107
  0
ARC
  5
147B
330
2
100
AcDbEntity
  8
0
100
AcDbCircle
 10
925.7239220722089
 20
136.2690675695457
 30
0.0
 40
2.980384757729353
100
AcDbArc
 50
77.98916949613524
 51
191.1795311027489
  0
ARC
  5
147C
330
2
100
AcDbEntity
  8
0
100
AcDbCircle
 10
925.7690048512817
 20
82.5289620405565
 30
0.0
 40
3.499999999999717
100
AcDbArc
 50
151.4660973942784
 51
297.7026032046093
  0
ARC
  5
147D
330
2
100
AcDbEntity
  8
0
100
AcDbCircle
 10
925.7690048512817
 20
82.5289620405565
 30
0.0
 40
2.980384757729353
100
AcDbArc
 50
167.9891694961488
 51
281.1795311027486
  0
ARC
  5
147E
330
2
100
AcDbEntity
  8
0
100
AcDbCircle
 10
979.5091103802715
 20
82.57404481962931
 30
0.0
 40
3.499999999999717
100
AcDbArc
 50
241.4660973942788
 51
27.70260320461076
  0
ARC
  5
147F
330
2
100
AcDbEntity
  8
0
100
AcDbCircle
 10
979.5091103802715
 20
82.57404481962931
 30
0.0
 40
2.980384757729353
100
AcDbArc
 50
257.9891694961351
 51
11.17953110274902
  0
CIRCLE
  5
1480
330
2
100
AcDbEntity
  8
0
100
AcDbCircle
 10
741.984823764816
 20
365.5537322187844
 30
0.0
 40
9.0
  0
LINE
  5
1481
330
2
100
AcDbEntity
  8
CENTER
  6
CENS
100
AcDbLine
 10
741.984823764816
 20
354.0132213146613
 30
0.0
 11
741.984823764816
 21
377.0942431229093
 31
0.0
  0
LINE
  5
1482
330
2
100
AcDbEntity
  8
CENTER
  6
CENS
100
AcDbLine
 10
753.5253346689399
 20
365.5537322187853
 30
0.0
 11
730.444312860692
 21
365.5537322187853
 31
0.0
  0
LINE
  5
1484
330
2
100
AcDbEntity
  8
HIDS
100
AcDbLine
 10
932.582215362161
 20
137.4564610074648
 30
0.0
 11
932.5030868259753
 21
132.9231902055053
 31
0.0
  0
ARC
  5
1485
330
2
100
AcDbEntity
  8
HIDS
100
AcDbCircle
 10
934.5819107524738
 20
137.4215561945911
 30
0.0
 40
2.0
100
AcDbArc
 50
90.0
 51
178.9999999999721
  0
ARC
  5
1486
330
2
100
AcDbEntity
  8
HIDS
100
AcDbCircle
 10
929.5035437405061
 20
132.9755474248176
 30
0.0
 40
3.0
100
AcDbArc
 50
314.4585514346786
 51
359.0000000000242
  0
LINE
  5
1487
330
2
100
AcDbEntity
  8
0
100
AcDbLine
 10
54.64009703866486
 20
109.4215561945901
 30
0.0
 11
54.18504681898003
 21
135.4913658203393
 31
0.0
  0
LINE
  5
1488
330
2
100
AcDbEntity
  8
0
100
AcDbLine
 10
79.64009703865622
 20
109.4215561945901
 30
0.0
 11
80.16405361939906
 21
139.4390086010287
 31
0.0
  0
LINE
  5
1489
330
2
100
AcDbEntity
  8
0
100
AcDbLine
 10
87.64009703866395
 20
109.4215561945901
 30
0.0
 11
44.64009703866395
 21
109.4215561945901
 31
0.0
  0
ARC
  5
148A
330
2
100
AcDbEntity
  8
0
100
AcDbCircle
 10
71.72366166336178
 20
84.18278973381603
 30
0.0
 40
3.0
100
AcDbArc
 50
90.00000000001303
 51
179.0000000000242
  0
LINE
  5
148B
330
2
100
AcDbEntity
  8
0
100
AcDbLine
 10
57.25237491029929
 20
87.18278973381604
 30
0.0
 11
71.72366166336178
 21
87.18278973381604
 31
0.0
  0
LINE
  5
148C
330
2
100
AcDbEntity
  8
0
100
AcDbLine
 10
75.13440230643573
 20
79.42155619459009
 30
0.0
 11
44.64009703866395
 21
79.42155619459009
 31
0.0
  0
LINE
  5
148D
330
2
100
AcDbEntity
  8
0
100
AcDbLine
 10
54.64009703866395
 20
109.4215561945901
 30
0.0
 11
54.18504681897957
 21
83.35174656884083
 31
0.0
  0
ARC
  5
148E
330
2
100
AcDbEntity
  8
0
100
AcDbCircle
 10
50.1856560383544
 20
83.4215561945901
 30
0.0
 40
4.0
100
AcDbArc
 50
270.0
 51
358.9999999999982
  0
ARC
  5
148F
330
2
100
AcDbEntity
  8
0
100
AcDbCircle
 10
66.67470251243321
 20
81.42155619459009
 30
0.0
 40
2.0
100
AcDbArc
 50
270.0
 51
359.0000000000242
  0
LINE
  5
1490
330
2
100
AcDbEntity
  8
0
100
AcDbLine
 10
68.67439790274556
 20
81.38665138171637
 30
0.0
 11
68.72411857789211
 21
84.23514695312844
 31
0.0
  0
LINE
  5
1491
330
2
100
AcDbEntity
  8
0
100
AcDbLine
 10
79.64009703865577
 20
109.4215561945901
 30
0.0
 11
80.16405361939815
 21
79.40410378815323
 31
0.0
  0
ARC
  5
1492
330
2
100
AcDbEntity
  8
0
100
AcDbCircle
 10
78.51815000349052
 20
76.4215561945901
 30
0.0
 40
3.0
100
AcDbArc
 50
48.59037789073019
 51
61.24284295859256
  0
ARC
  5
1493
330
2
100
AcDbEntity
  8
0
100
AcDbCircle
 10
81.16390131455455
 20
79.42155619459009
 30
0.0
 40
1.0
100
AcDbArc
 50
181.0000000000017
 51
270.0
  0
LINE
  5
1494
330
2
100
AcDbEntity
  8
0
100
AcDbLine
 10
87.64009703866395
 20
78.4215561945901
 30
0.0
 11
81.16390131455455
 21
78.4215561945901
 31
0.0
  0
LINE
  5
1495
330
2
100
AcDbEntity
  8
0
100
AcDbLine
 10
75.13440230643573
 20
139.42155619459
 30
0.0
 11
44.64009703866395
 21
139.42155619459
 31
0.0
  0
LINE
  5
1496
330
2
100
AcDbEntity
  8
CENTER
  6
CENS
100
AcDbLine
 10
58.64009703866395
 20
148.4215561945937
 30
0.0
 11
58.64009703866395
 21
125.9391464768439
 31
0.0
  0
ARC
  5
1497
330
2
100
AcDbEntity
  8
0
100
AcDbCircle
 10
50.18565603835487
 20
135.4215561945901
 30
0.0
 40
4.0
100
AcDbArc
 50
1.000000000001775
 51
90.0
  0
ARC
  5
1498
330
2
100
AcDbEntity
  8
0
100
AcDbCircle
 10
78.51815000349143
 20
142.42155619459
 30
0.0
 40
3.0
100
AcDbArc
 50
298.7571570414076
 51
311.4096221092556
  0
ARC
  5
1499
330
2
100
AcDbEntity
  8
0
100
AcDbCircle
 10
81.16390131455592
 20
139.42155619459
 30
0.0
 40
1.0
100
AcDbArc
 50
90.0
 51
178.9999999999982
  0
LINE
  5
149A
330
2
100
AcDbEntity
  8
0
100
AcDbLine
 10
87.64009703866395
 20
140.42155619459
 30
0.0
 11
81.16390131455592
 21
140.42155619459
 31
0.0
  0
LINE
  5
149B
330
2
100
AcDbEntity
  8
0
100
AcDbLine
 10
44.64009703866395
 20
139.42155619459
 30
0.0
 11
44.64009703866395
 21
79.42155619459009
 31
0.0
  0
LINE
  5
149C
330
2
100
AcDbEntity
  8
0
100
AcDbLine
 10
79.0480219060355
 20
139.7915561945908
 30
0.0
 11
80.0480219060355
 21
139.7915561945908
 31
0.0
  0
LINE
  5
149D
330
2
100
AcDbEntity
  8
0
100
AcDbLine
 10
80.0480219060355
 20
139.7915561945908
 30
0.0
 11
80.0480219060355
 21
132.7915561945909
 31
0.0
  0
LINE
  5
149E
330
2
100
AcDbEntity
  8
0
100
AcDbLine
 10
80.0480219060355
 20
132.7915561945909
 30
0.0
 11
79.0480219060355
 21
132.7915561945909
 31
0.0
  0
LINE
  5
149F
330
2
100
AcDbEntity
  8
0
100
AcDbLine
 10
79.0480219060355
 20
132.7915561945909
 30
0.0
 11
79.0480219060355
 21
139.7915561945908
 31
0.0
  0
LINE
  5
14A0
330
2
100
AcDbEntity
  8
0
100
AcDbLine
 10
75.0480219060355
 20
139.2719409523204
 30
0.0
 11
75.0480219060355
 21
133.3111714368613
 31
0.0
  0
LINE
  5
14A1
330
2
100
AcDbEntity
  8
0
100
AcDbLine
 10
75.34802190603568
 20
132.7915561945909
 30
0.0
 11
75.34802190603568
 21
139.7915561945908
 31
0.0
  0
LINE
  5
14A2
330
2
100
AcDbEntity
  8
0
100
AcDbLine
 10
75.34802190603568
 20
132.7915561945909
 30
0.0
 11
79.0480219060355
 21
132.7915561945909
 31
0.0
  0
LINE
  5
14A3
330
2
100
AcDbEntity
  8
0
100
AcDbLine
 10
75.34802190603568
 20
132.7915561945909
 30
0.0
 11
75.0480219060355
 21
133.3111714368613
 31
0.0
  0
LINE
  5
14A4
330
2
100
AcDbEntity
  8
0
100
AcDbLine
 10
75.0480219060355
 20
139.2719409523204
 30
0.0
 11
75.34802190603568
 21
139.7915561945908
 31
0.0
  0
LINE
  5
14A5
330
2
100
AcDbEntity
  8
0
100
AcDbLine
 10
79.0480219060355
 20
139.7915561945908
 30
0.0
 11
75.34802190603568
 21
139.7915561945908
 31
0.0
  0
LINE
  5
14A6
330
2
100
AcDbEntity
  8
CENTER
  6
CENS
100
AcDbLine
 10
70.10911463328557
 20
136.2915561945909
 30
0.0
 11
93.10907172290809
 21
136.2915561945909
 31
0.0
  0
LINE
  5
14A7
330
2
100
AcDbEntity
  8
CENTER
  6
CENS
100
AcDbLine
 10
70.10911463328557
 20
82.55155619459021
 30
0.0
 11
93.10907172290809
 21
82.55155619459021
 31
0.0
  0
LINE
  5
14A8
330
2
100
AcDbEntity
  8
0
100
AcDbLine
 10
79.0480219060355
 20
79.05155619459112
 30
0.0
 11
80.0480219060355
 21
79.05155619459112
 31
0.0
  0
LINE
  5
14A9
330
2
100
AcDbEntity
  8
0
100
AcDbLine
 10
80.0480219060355
 20
79.05155619459112
 30
0.0
 11
80.0480219060355
 21
86.05155619459111
 31
0.0
  0
LINE
  5
14AA
330
2
100
AcDbEntity
  8
0
100
AcDbLine
 10
80.0480219060355
 20
86.05155619459111
 30
0.0
 11
79.0480219060355
 21
86.05155619459111
 31
0.0
  0
LINE
  5
14AB
330
2
100
AcDbEntity
  8
0
100
AcDbLine
 10
79.0480219060355
 20
86.05155619459111
 30
0.0
 11
79.0480219060355
 21
79.05155619459112
 31
0.0
  0
LINE
  5
14AC
330
2
100
AcDbEntity
  8
0
100
AcDbLine
 10
75.0480219060355
 20
79.57117143686156
 30
0.0
 11
75.0480219060355
 21
85.53194095232067
 31
0.0
  0
LINE
  5
14AD
330
2
100
AcDbEntity
  8
0
100
AcDbLine
 10
75.34802190603568
 20
86.05155619459111
 30
0.0
 11
75.34802190603568
 21
79.05155619459112
 31
0.0
  0
LINE
  5
14AE
330
2
100
AcDbEntity
  8
0
100
AcDbLine
 10
75.34802190603568
 20
86.05155619459111
 30
0.0
 11
79.0480219060355
 21
86.05155619459111
 31
0.0
  0
LINE
  5
14AF
330
2
100
AcDbEntity
  8
0
100
AcDbLine
 10
75.34802190603568
 20
86.05155619459111
 30
0.0
 11
75.0480219060355
 21
85.53194095232067
 31
0.0
  0
LINE
  5
14B0
330
2
100
AcDbEntity
  8
0
100
AcDbLine
 10
75.0480219060355
 20
79.57117143686156
 30
0.0
 11
75.34802190603568
 21
79.05155619459112
 31
0.0
  0
LINE
  5
14B1
330
2
100
AcDbEntity
  8
0
100
AcDbLine
 10
79.0480219060355
 20
79.05155619459112
 30
0.0
 11
75.34802190603568
 21
79.05155619459112
 31
0.0
  0
LINE
  5
14B2
330
2
100
AcDbEntity
  8
0
100
AcDbLine
 10
53.64009703866395
 20
143.42155619459
 30
0.0
 11
63.64009703866395
 21
143.42155619459
 31
0.0
  0
ARC
  5
14B3
330
2
100
AcDbEntity
  8
0
100
AcDbCircle
 10
63.64009703866395
 20
139.42155619459
 30
0.0
 40
4.0
100
AcDbArc
 50
0.0
 51
90.0
  0
ARC
  5
14B4
330
2
100
AcDbEntity
  8
0
100
AcDbCircle
 10
53.64009703866395
 20
139.42155619459
 30
0.0
 40
4.000000000000028
100
AcDbArc
 50
90.0
 51
180.0
  0
CIRCLE
  5
14B5
330
2
100
AcDbEntity
  8
0
100
AcDbCircle
 10
927.8677788847089
 20
134.1702935361136
 30
0.0
 40
2.0
  0
CIRCLE
  5
14B6
330
2
100
AcDbEntity
  8
HOJO
100
AcDbCircle
 10
927.8677788847089
 20
134.1702935361136
 30
0.0
 40
2.5
  0
CIRCLE
  5
14B7
330
2
100
AcDbEntity
  8
0
100
AcDbCircle
 10
927.8677788847092
 20
84.6728188530551
 30
0.0
 40
2.0
  0
CIRCLE
  5
14B8
330
2
100
AcDbEntity
  8
HOJO
100
AcDbCircle
 10
927.8677788847092
 20
84.6728188530551
 30
0.0
 40
2.5
  0
CIRCLE
  5
14B9
330
2
100
AcDbEntity
  8
0
100
AcDbCircle
 10
977.3652535677673
 20
84.6728188530551
 30
0.0
 40
2.0
  0
CIRCLE
  5
14BA
330
2
100
AcDbEntity
  8
HOJO
100
AcDbCircle
 10
977.3652535677673
 20
84.6728188530551
 30
0.0
 40
2.5
  0
CIRCLE
  5
14BB
330
2
100
AcDbEntity
  8
0
100
AcDbCircle
 10
977.3652535677673
 20
134.1702935361136
 30
0.0
 40
2.0
  0
CIRCLE
  5
14BC
330
2
100
AcDbEntity
  8
HOJO
100
AcDbCircle
 10
977.3652535677673
 20
134.1702935361136
 30
0.0
 40
2.5
  0
LINE
  5
14BD
330
2
100
AcDbEntity
  8
0
100
AcDbLine
 10
748.9848237678373
 20
131.9215561945862
 30
0.0
 11
745.8841570962197
 21
131.9215561945862
 31
0.0
  0
CIRCLE
  5
14BE
330
2
100
AcDbEntity
  8
0
100
AcDbCircle
 10
952.6165162262403
 20
109.4215561945875
 30
0.0
 40
22.5
  0
LINE
  5
14C0
330
2
100
AcDbEntity
  8
0
100
AcDbLine
 10
921.6165162262376
 20
80.88706791688286
 30
0.0
 11
921.6165162262372
 21
79.89724664595269
 31
0.0
  0
LINE
  5
14C2
330
2
100
AcDbEntity
  8
0
100
AcDbLine
 10
950.8361028171716
 20
140.8928398492801
 30
0.0
 11
952.6165162262371
 21
140.9215561945875
 31
0.0
  0
LINE
  5
14C3
330
2
100
AcDbEntity
  8
0
100
AcDbLine
 10
933.454943736713
 20
141.0318005561478
 30
0.0
 11
923.5990631552416
 21
140.9457895893519
 31
0.0
  0
CIRCLE
  5
19C1
330
2
100
AcDbEntity
  8
0
100
AcDbCircle
 10
952.6165162262527
 20
109.4215561945875
 30
0.0
 40
14.75
  0
ARC
  5
1E77
330
2
100
AcDbEntity
  8
0
100
AcDbCircle
 10
217.2361404788535
 20
189.2023475065514
 30
0.0
 40
40.0
100
AcDbArc
 50
263.823003595109
 51
283.367674202629
  0
ARC
  5
1E78
330
2
100
AcDbEntity
  8
0
100
AcDbCircle
 10
213.6400970386598
 20
128.4215561945901
 30
0.0
 40
12.0
100
AcDbArc
 50
0.0
 51
90.0
  0
ARC
  5
1E79
330
2
100
AcDbEntity
  8
0
100
AcDbCircle
 10
213.6400970386598
 20
128.4215561945901
 30
0.0
 40
13.0
100
AcDbArc
 50
0.0
 51
90.0
  0
ARC
  5
1E7A
330
2
100
AcDbEntity
  8
0
100
AcDbCircle
 10
229.1400970386634
 20
143.9215561945901
 30
0.0
 40
7.0
100
AcDbArc
 50
180.0
 51
270.0
  0
LINE
  5
1E7B
330
2
100
AcDbEntity
  8
CENTER
100
AcDbLine
 10
237.8900970386634
 20
143.9215561945901
 30
0.0
 11
220.3900970386635
 21
143.9215561945901
 31
0.0
  0
CIRCLE
  5
1E7C
330
2
100
AcDbEntity
  8
0
100
AcDbCircle
 10
229.1400970386703
 20
143.9215561945901
 30
0.0
 40
4.307179676972509
  0
LINE
  5
1E7D
330
2
100
AcDbEntity
  8
CENTER
100
AcDbLine
 10
225.3464888743528
 20
132.4215561945901
 30
0.0
 11
233.9337052029732
 21
132.4215561945901
 31
0.0
  0
LINE
  5
1E7E
330
2
100
AcDbEntity
  8
CENTER
100
AcDbLine
 10
237.8900970386634
 20
74.92155619459009
 30
0.0
 11
220.3900970386635
 21
74.92155619459009
 31
0.0
  0
ARC
  5
1E7F
330
2
100
AcDbEntity
  8
0
100
AcDbCircle
 10
213.6400970386639
 20
90.42155619459373
 30
0.0
 40
12.0
100
AcDbArc
 50
270.0
 51
0.0
  0
ARC
  5
1E80
330
2
100
AcDbEntity
  8
0
100
AcDbCircle
 10
213.6400970386639
 20
90.42155619459373
 30
0.0
 40
13.0
100
AcDbArc
 50
270.0
 51
0.0
  0
ARC
  5
1E81
330
2
100
AcDbEntity
  8
0
100
AcDbCircle
 10
229.1400970386634
 20
74.92155619459009
 30
0.0
 40
7.0
100
AcDbArc
 50
90.0
 51
180.0
  0
ARC
  5
1E82
330
2
100
AcDbEntity
  8
0
100
AcDbCircle
 10
217.236140478853
 20
29.64076488262691
 30
0.0
 40
40.0
100
AcDbArc
 50
76.63232579737094
 51
96.17699640489092
  0
CIRCLE
  5
1E83
330
2
100
AcDbEntity
  8
0
100
AcDbCircle
 10
229.1400970386703
 20
74.92155619459009
 30
0.0
 40
5.000000000000113
  0
CIRCLE
  5
1E84
330
2
100
AcDbEntity
  8
0
100
AcDbCircle
 10
229.1400970386703
 20
74.92155619459009
 30
0.0
 40
4.307179676972509
  0
LINE
  5
1E85
330
2
100
AcDbEntity
  8
CENTER
100
AcDbLine
 10
225.3464888743528
 20
86.42155619459009
 30
0.0
 11
233.9337052029732
 21
86.42155619459009
 31
0.0
  0
CIRCLE
  5
1E86
330
2
100
AcDbEntity
  8
0
100
AcDbCircle
 10
229.1400970386703
 20
143.9215561945901
 30
0.0
 40
5.000000000000113
  0
LINE
  5
1E88
330
2
100
AcDbEntity
  8
0
100
AcDbLine
 10
93.64009703866395
 20
140.42155619459
 30
0.0
 11
87.64009703866395
 21
140.42155619459
 31
0.0
  0
LINE
  5
1E89
330
2
100
AcDbEntity
  8
0
100
AcDbLine
 10
93.64009703866395
 20
140.9215561945901
 30
0.0
 11
87.64009703866395
 21
140.9215561945901
 31
0.0
  0
LINE
  5
1E8A
330
2
100
AcDbEntity
  8
0
100
AcDbLine
 10
87.64009703866349
 20
78.4215561945901
 30
0.0
 11
93.64009703866349
 21
78.4215561945901
 31
0.0
  0
LINE
  5
1E8B
330
2
100
AcDbEntity
  8
0
100
AcDbLine
 10
87.64009703866349
 20
77.92155619459009
 30
0.0
 11
93.64009703866349
 21
77.92155619459009
 31
0.0
  0
LINE
  5
1E8D
330
2
100
AcDbEntity
  8
0
100
AcDbLine
 10
153.6400970386639
 20
73.42155619458464
 30
0.0
 11
153.6400970386639
 21
145.42155619459
 31
0.0
  0
LINE
  5
1E8E
330
2
100
AcDbEntity
  8
0
100
AcDbLine
 10
163.6400970386639
 20
90.42155619459373
 30
0.0
 11
163.6400970386639
 21
128.4215561945864
 31
0.0
  0
LINE
  5
1E8F
330
2
100
AcDbEntity
  8
0
100
AcDbLine
 10
162.6400970386639
 20
90.42155619459373
 30
0.0
 11
162.6400970386639
 21
128.4215561945864
 31
0.0
  0
CIRCLE
  5
1E90
330
2
100
AcDbEntity
  8
0
100
AcDbCircle
 10
194.6400970386639
 20
109.4215561945901
 30
0.0
 40
28.99999999999986
  0
CIRCLE
  5
1E91
330
2
100
AcDbEntity
  8
0
100
AcDbCircle
 10
194.6400970386639
 20
109.4215561945901
 30
0.0
 40
28.49999999999985
  0
CIRCLE
  5
1E92
330
2
100
AcDbEntity
  8
0
100
AcDbCircle
 10
194.6400970386639
 20
109.4215561945901
 30
0.0
 40
25.92259999999985
  0
CIRCLE
  5
1E93
330
2
100
AcDbEntity
  8
0
100
AcDbCircle
 10
194.6400970386639
 20
109.4215561945901
 30
0.0
 40
23.5774
  0
CIRCLE
  5
1E94
330
2
100
AcDbEntity
  8
0
100
AcDbCircle
 10
194.6400970386639
 20
109.4215561945901
 30
0.0
 40
26.49999999999986
  0
CIRCLE
  5
1E95
330
2
100
AcDbEntity
  8
0
100
AcDbCircle
 10
194.6400970386639
 20
109.4215561945901
 30
0.0
 40
23.0
  0
LINE
  5
1E96
330
2
100
AcDbEntity
  8
CENTER
100
AcDbLine
 10
194.6400970386639
 20
58.4215561945901
 30
0.0
 11
194.6400970386639
 21
160.4215561945901
 31
0.0
  0
LINE
  5
1E97
330
2
100
AcDbEntity
  8
0
100
AcDbLine
 10
95.6400970386635
 20
79.92155619459009
 30
0.0
 11
95.64009703866394
 21
138.9215561945901
 31
0.0
  0
LINE
  5
1E98
330
2
100
AcDbEntity
  8
0
100
AcDbLine
 10
107.1270040759372
 20
87.4215561945992
 30
0.0
 11
107.1270040759372
 21
131.4215561945973
 31
0.0
  0
LINE
  5
1E99
330
2
100
AcDbEntity
  8
0
100
AcDbLine
 10
120.6400970386639
 20
135.4215561945919
 30
0.0
 11
120.6400970386639
 21
83.42155619458646
 31
0.0
  0
ARC
  5
1E9A
330
2
100
AcDbEntity
  8
0
100
AcDbCircle
 10
158.6400970386639
 20
73.4215561945901
 30
0.0
 40
5.0
100
AcDbArc
 50
180.0
 51
270.0
  0
ARC
  5
1E9B
330
2
100
AcDbEntity
  8
0
100
AcDbCircle
 10
122.6400970386639
 20
92.92155619458828
 30
0.0
 40
2.0
100
AcDbArc
 50
180.0
 51
270.0
  0
LINE
  5
1E9C
330
2
100
AcDbEntity
  8
CENTER
100
AcDbLine
 10
118.390097038663
 20
83.92155619458828
 30
0.0
 11
135.890097038663
 21
83.92155619458828
 31
0.0
  0
ARC
  5
1E9D
330
2
100
AcDbEntity
  8
0
100
AcDbCircle
 10
126.6400970386639
 20
83.42155619458646
 30
0.0
 40
6.0
100
AcDbArc
 50
180.0
 51
270.0
  0
CIRCLE
  5
1E9E
330
2
100
AcDbEntity
  8
0
100
AcDbCircle
 10
127.140097038663
 20
83.92155619458828
 30
0.0
 40
5.000000000000113
  0
ARC
  5
1E9F
330
2
100
AcDbEntity
  8
0
100
AcDbCircle
 10
93.64009703866349
 20
80.42155619459009
 30
0.0
 40
2.0
100
AcDbArc
 50
270.0
 51
0.0
  0
ARC
  5
1EA0
330
2
100
AcDbEntity
  8
0
100
AcDbCircle
 10
118.6400970386539
 20
84.42155619459919
 30
0.0
 40
2.0
100
AcDbArc
 50
0.0
 51
90.0
  0
LINE
  5
1EA1
330
2
100
AcDbEntity
  8
0
100
AcDbLine
 10
115.6400970386639
 20
90.42155619459919
 30
0.0
 11
111.8729707683523
 21
90.42155619459919
 31
0.0
  0
ARC
  5
1EA2
330
2
100
AcDbEntity
  8
0
100
AcDbCircle
 10
108.1270040759372
 20
84.42155619459919
 30
0.0
 40
2.0
100
AcDbArc
 50
90.0
 51
143.1301023541136
  0
LINE
  5
1EA3
330
2
100
AcDbEntity
  8
0
100
AcDbLine
 10
118.6400970386539
 20
86.42155619459918
 30
0.0
 11
108.1270040759372
 21
86.42155619459918
 31
0.0
  0
LINE
  5
1EA4
330
2
100
AcDbEntity
  8
0
100
AcDbLine
 10
104.1270040759372
 20
84.42155619459919
 30
0.0
 11
100.6222170605487
 21
84.42155619459919
 31
0.0
  0
ARC
  5
1EA5
330
2
100
AcDbEntity
  8
0
100
AcDbCircle
 10
104.1270040759372
 20
87.4215561945992
 30
0.0
 40
3.0
100
AcDbArc
 50
270.0
 51
0.0
  0
ARC
  5
1EA6
330
2
100
AcDbEntity
  8
0
100
AcDbCircle
 10
115.6400970386639
 20
85.42155619459919
 30
0.0
 40
5.0
100
AcDbArc
 50
0.0
 51
90.0
  0
ARC
  5
1EA7
330
2
100
AcDbEntity
  8
0
100
AcDbCircle
 10
111.8729707683523
 20
85.42155619459919
 30
0.0
 40
5.0
100
AcDbArc
 50
90.0
 51
165.5224878140697
  0
ARC
  5
1EA8
330
2
100
AcDbEntity
  8
0
100
AcDbCircle
 10
93.64009703866349
 20
79.92155619459009
 30
0.0
 40
2.0
100
AcDbArc
 50
270.0
 51
0.0
  0
ARC
  5
1EA9
330
2
100
AcDbEntity
  8
0
100
AcDbCircle
 10
100.6222170605487
 20
79.42155619459919
 30
0.0
 40
5.0
100
AcDbArc
 50
90.0
 51
175.9039562419072
  0
CIRCLE
  5
1EAA
330
2
100
AcDbEntity
  8
HOJO
100
AcDbCircle
 10
138.6400970386634
 20
81.92155619458828
 30
0.0
 40
2.0
  0
LINE
  5
1EAB
330
2
100
AcDbEntity
  8
CENTER
100
AcDbLine
 10
138.6400970386634
 20
75.95348310090668
 30
0.0
 11
138.6400970386634
 21
87.09476127534509
 31
0.0
  0
LINE
  5
1EAC
330
2
100
AcDbEntity
  8
CENTER
100
AcDbLine
 10
127.140097038663
 20
75.17155619458828
 30
0.0
 11
127.140097038663
 21
92.67155619458828
 31
0.0
  0
LINE
  5
1EAD
330
2
100
AcDbEntity
  8
CENTER
100
AcDbLine
 10
133.4668919579066
 20
81.92155619458828
 30
0.0
 11
143.8133021194207
 21
81.92155619458828
 31
0.0
  0
CIRCLE
  5
1EAE
330
2
100
AcDbEntity
  8
0
100
AcDbCircle
 10
138.6400970386634
 20
81.92155619458828
 30
0.0
 40
2.5
  0
CIRCLE
  5
1EAF
330
2
100
AcDbEntity
  8
0
100
AcDbCircle
 10
138.6400970386634
 20
81.92155619458828
 30
0.0
 40
1.6
  0
CIRCLE
  5
1EB0
330
2
100
AcDbEntity
  8
0
100
AcDbCircle
 10
138.6400970386634
 20
81.92155619458828
 30
0.0
 40
3.0
  0
LINE
  5
1EB1
330
2
100
AcDbEntity
  8
0
100
AcDbLine
 10
134.140097038663
 20
83.92155619458828
 30
0.0
 11
134.140097038663
 21
79.42155619458645
 31
0.0
  0
ARC
  5
1EB2
330
2
100
AcDbEntity
  8
0
100
AcDbCircle
 10
127.140097038663
 20
83.92155619458828
 30
0.0
 40
7.0
100
AcDbArc
 50
0.0
 51
90.0
  0
LINE
  5
1EB3
330
2
100
AcDbEntity
  8
0
100
AcDbLine
 10
126.640097038663
 20
77.42155619458646
 30
0.0
 11
149.6400970386639
 21
77.42155619458464
 31
0.0
  0
ARC
  5
1EB4
330
2
100
AcDbEntity
  8
0
100
AcDbCircle
 10
149.6400970386639
 20
73.42155619458464
 30
0.0
 40
4.0
100
AcDbArc
 50
0.0
 51
90.0
  0
ARC
  5
1EB5
330
2
100
AcDbEntity
  8
0
100
AcDbCircle
 10
136.140097038663
 20
79.42155619458645
 30
0.0
 40
2.0
100
AcDbArc
 50
180.0
 51
270.0
  0
LINE
  5
1EB6
330
2
100
AcDbEntity
  8
0
100
AcDbLine
 10
129.640097038663
 20
85.36493186756235
 30
0.0
 11
129.640097038663
 21
82.4781805216142
 31
0.0
  0
LINE
  5
1EB7
330
2
100
AcDbEntity
  8
0
100
AcDbLine
 10
127.140097038663
 20
81.03480484864013
 30
0.0
 11
129.640097038663
 21
82.4781805216142
 31
0.0
  0
LINE
  5
1EB8
330
2
100
AcDbEntity
  8
0
100
AcDbLine
 10
129.640097038663
 20
85.36493186756052
 30
0.0
 11
127.140097038663
 21
86.80830754053642
 31
0.0
  0
LINE
  5
1EB9
330
2
100
AcDbEntity
  8
0
100
AcDbLine
 10
124.640097038663
 20
85.36493186756052
 30
0.0
 11
124.640097038663
 21
82.4781805216142
 31
0.0
  0
LINE
  5
1EBA
330
2
100
AcDbEntity
  8
0
100
AcDbLine
 10
127.140097038663
 20
81.03480484864013
 30
0.0
 11
124.640097038663
 21
82.4781805216142
 31
0.0
  0
LINE
  5
1EBB
330
2
100
AcDbEntity
  8
0
100
AcDbLine
 10
124.640097038663
 20
85.36493186756052
 30
0.0
 11
127.140097038663
 21
86.80830754053459
 31
0.0
  0
LINE
  5
1EBC
330
2
100
AcDbEntity
  8
0
100
AcDbLine
 10
127.140097038663
 20
90.92155619458827
 30
0.0
 11
122.6400970386639
 21
90.92155619458827
 31
0.0
  0
CIRCLE
  5
1EBD
330
2
100
AcDbEntity
  8
0
100
AcDbCircle
 10
127.140097038663
 20
83.92155619458828
 30
0.0
 40
4.307179676972509
  0
LINE
  5
1EBE
330
2
100
AcDbEntity
  8
0
100
AcDbLine
 10
213.6400970386648
 20
78.42155619459373
 30
0.0
 11
175.6400970386689
 21
78.4215561945901
 31
0.0
  0
LINE
  5
1EBF
330
2
100
AcDbEntity
  8
0
100
AcDbLine
 10
213.6400970386648
 20
77.42155619459373
 30
0.0
 11
175.6400970386689
 21
77.42155619459009
 31
0.0
  0
ARC
  5
1EC0
330
2
100
AcDbEntity
  8
0
100
AcDbCircle
 10
194.6400970386639
 20
238.4215561945901
 30
0.0
 40
170.0
100
AcDbArc
 50
263.9172655502523
 51
276.1769964048909
  0
ARC
  5
1EC1
330
2
100
AcDbEntity
  8
0
100
AcDbCircle
 10
175.6400970386675
 20
90.42155619459009
 30
0.0
 40
12.0
100
AcDbArc
 50
180.0
 51
270.0
  0
ARC
  5
1EC2
330
2
100
AcDbEntity
  8
0
100
AcDbCircle
 10
175.6400970386675
 20
90.42155619459009
 30
0.0
 40
13.0
100
AcDbArc
 50
180.0
 51
270.0
  0
ARC
  5
1EC3
330
2
100
AcDbEntity
  8
0
100
AcDbCircle
 10
172.387566313509
 20
29.6038728525753
 30
0.0
 40
40.0
100
AcDbArc
 50
83.91726555025231
 51
103.1629662673646
  0
LINE
  5
1EC4
330
2
100
AcDbEntity
  8
0
100
AcDbLine
 10
162.1400970386639
 20
68.4215561945901
 30
0.0
 11
158.6400970386639
 21
68.4215561945901
 31
0.0
  0
ARC
  5
1EC5
330
2
100
AcDbEntity
  8
0
100
AcDbCircle
 10
162.1400970386639
 20
73.4215561945901
 30
0.0
 40
5.0
100
AcDbArc
 50
270.0
 51
283.1629662673646
  0
LINE
  5
1EC6
330
2
100
AcDbEntity
  8
0
100
AcDbLine
 10
167.1548156644294
 20
81.9362748203501
 30
0.0
 11
166.4477088832432
 21
81.22916803916343
 31
0.0
  0
ARC
  5
1EC7
330
2
100
AcDbEntity
  8
0
100
AcDbCircle
 10
220.1400970386635
 20
71.54025218615863
 30
0.0
 40
2.0
100
AcDbArc
 50
266.0353021397911
 51
0.0
  0
LINE
  5
1EC8
330
2
100
AcDbEntity
  8
0
100
AcDbLine
 10
222.1400970386635
 20
74.92155619459009
 30
0.0
 11
222.1400970386635
 21
71.54025218615863
 31
0.0
  0
LINE
  5
1EC9
330
2
100
AcDbEntity
  8
0
100
AcDbLine
 10
222.8324851940897
 20
81.22916803916888
 30
0.0
 11
222.125378412903
 21
81.93627482035555
 31
0.0
  0
ARC
  5
1ECA
330
2
100
AcDbEntity
  8
0
100
AcDbCircle
 10
158.6400970386639
 20
145.42155619459
 30
0.0
 40
5.0
100
AcDbArc
 50
90.0
 51
180.0
  0
ARC
  5
1ECB
330
2
100
AcDbEntity
  8
0
100
AcDbCircle
 10
149.6400970386639
 20
145.4215561945955
 30
0.0
 40
4.0
100
AcDbArc
 50
270.0
 51
0.0
  0
ARC
  5
1ECC
330
2
100
AcDbEntity
  8
0
100
AcDbCircle
 10
122.6400970386639
 20
125.9215561945919
 30
0.0
 40
2.0
100
AcDbArc
 50
90.0
 51
180.0
  0
LINE
  5
1ECD
330
2
100
AcDbEntity
  8
CENTER
100
AcDbLine
 10
118.390097038663
 20
134.9215561945919
 30
0.0
 11
135.890097038663
 21
134.9215561945919
 31
0.0
  0
ARC
  5
1ECE
330
2
100
AcDbEntity
  8
0
100
AcDbCircle
 10
126.6400970386639
 20
135.4215561945919
 30
0.0
 40
6.0
100
AcDbArc
 50
90.0
 51
180.0
  0
CIRCLE
  5
1ECF
330
2
100
AcDbEntity
  8
0
100
AcDbCircle
 10
127.140097038663
 20
134.9215561945919
 30
0.0
 40
5.000000000000113
  0
ARC
  5
1ED0
330
2
100
AcDbEntity
  8
0
100
AcDbCircle
 10
93.64009703866395
 20
138.42155619459
 30
0.0
 40
2.0
100
AcDbArc
 50
0.0
 51
89.99999999994789
  0
ARC
  5
1ED1
330
2
100
AcDbEntity
  8
0
100
AcDbCircle
 10
118.6400970386539
 20
134.4215561945991
 30
0.0
 40
2.0
100
AcDbArc
 50
270.0
 51
0.0
  0
LINE
  5
1ED2
330
2
100
AcDbEntity
  8
0
100
AcDbLine
 10
117.6400970386539
 20
111.9215561945992
 30
0.0
 11
110.1270040759372
 21
111.9215561945992
 31
0.0
  0
ARC
  5
1ED3
330
2
100
AcDbEntity
  8
0
100
AcDbCircle
 10
108.1270040759372
 20
134.4215561945991
 30
0.0
 40
2.0
100
AcDbArc
 50
216.8698976458538
 51
270.0
  0
LINE
  5
1ED4
330
2
100
AcDbEntity
  8
0
100
AcDbLine
 10
118.6924582434667
 20
132.4215561945991
 30
0.0
 11
108.1270040759372
 21
132.4215561945991
 31
0.0
  0
LINE
  5
1ED5
330
2
100
AcDbEntity
  8
0
100
AcDbLine
 10
104.1270040759372
 20
134.4215561945991
 30
0.0
 11
100.6222170605474
 21
134.4215561945991
 31
0.0
  0
ARC
  5
1ED6
330
2
100
AcDbEntity
  8
0
100
AcDbCircle
 10
104.1270040759372
 20
131.4215561945973
 30
0.0
 40
3.0
100
AcDbArc
 50
0.0
 51
90.0
  0
ARC
  5
1ED7
330
2
100
AcDbEntity
  8
0
100
AcDbCircle
 10
117.6400970386539
 20
114.9215561945991
 30
0.0
 40
3.0
100
AcDbArc
 50
270.0
 51
0.0
  0
ARC
  5
1ED8
330
2
100
AcDbEntity
  8
0
100
AcDbCircle
 10
110.1270040759372
 20
114.9215561945991
 30
0.0
 40
3.0
100
AcDbArc
 50
180.0
 51
270.0
  0
ARC
  5
1ED9
330
2
100
AcDbEntity
  8
0
100
AcDbCircle
 10
115.6400970386634
 20
133.421556194581
 30
0.0
 40
5.0
100
AcDbArc
 50
270.0
 51
0.0
  0
ARC
  5
1EDA
330
2
100
AcDbEntity
  8
0
100
AcDbCircle
 10
111.8729707683523
 20
133.421556194581
 30
0.0
 40
5.0
100
AcDbArc
 50
194.4775121859302
 51
270.0
  0
LINE
  5
1EDB
330
2
100
AcDbEntity
  8
0
100
AcDbLine
 10
115.6400970386634
 20
128.4215561945809
 30
0.0
 11
111.8729707683523
 21
128.4215561945809
 31
0.0
  0
ARC
  5
1EDC
330
2
100
AcDbEntity
  8
0
100
AcDbCircle
 10
93.64009703866395
 20
138.9215561945901
 30
0.0
 40
2.0
100
AcDbArc
 50
0.0
 51
89.99999999994789
  0
ARC
  5
1EDD
330
2
100
AcDbEntity
  8
0
100
AcDbCircle
 10
100.6222170605474
 20
139.4215561945991
 30
0.0
 40
5.0
100
AcDbArc
 50
184.0960437581971
 51
270.0
  0
LINE
  5
1EDE
330
2
100
AcDbEntity
  8
0
100
AcDbLine
 10
117.6400970386539
 20
106.9215561945991
 30
0.0
 11
110.1270040759372
 21
106.9215561945991
 31
0.0
  0
ARC
  5
1EDF
330
2
100
AcDbEntity
  8
0
100
AcDbCircle
 10
117.6400970386539
 20
103.9215561945991
 30
0.0
 40
3.0
100
AcDbArc
 50
0.0
 51
90.0
  0
ARC
  5
1EE0
330
2
100
AcDbEntity
  8
0
100
AcDbCircle
 10
110.1270040759372
 20
103.9215561945991
 30
0.0
 40
3.0
100
AcDbArc
 50
90.0
 51
180.0
  0
LINE
  5
1EE1
330
2
100
AcDbEntity
  8
CENTER
100
AcDbLine
 10
127.140097038663
 20
143.6715561945919
 30
0.0
 11
127.140097038663
 21
126.1715561945919
 31
0.0
  0
LINE
  5
1EE2
330
2
100
AcDbEntity
  8
CENTER
100
AcDbLine
 10
133.4668919579066
 20
136.9215561945919
 30
0.0
 11
143.8133021194207
 21
136.9215561945919
 31
0.0
  0
LINE
  5
1EE3
330
2
100
AcDbEntity
  8
CENTER
100
AcDbLine
 10
138.6400970386634
 20
142.0947612753487
 30
0.0
 11
138.6400970386634
 21
131.748351113835
 31
0.0
  0
CIRCLE
  5
1EE4
330
2
100
AcDbEntity
  8
HOJO
100
AcDbCircle
 10
138.6400970386634
 20
136.9215561945919
 30
0.0
 40
2.0
  0
ARC
  5
1EE5
330
2
100
AcDbEntity
  8
0
100
AcDbCircle
 10
127.140097038663
 20
134.9215561945919
 30
0.0
 40
7.0
100
AcDbArc
 50
270.0
 51
0.0
  0
LINE
  5
1EE6
330
2
100
AcDbEntity
  8
0
100
AcDbLine
 10
126.640097038663
 20
141.4215561945919
 30
0.0
 11
149.6400970386639
 21
141.4215561945955
 31
0.0
  0
CIRCLE
  5
1EE7
330
2
100
AcDbEntity
  8
0
100
AcDbCircle
 10
138.6400970386634
 20
136.9215561945919
 30
0.0
 40
3.0
  0
CIRCLE
  5
1EE8
330
2
100
AcDbEntity
  8
0
100
AcDbCircle
 10
138.6400970386634
 20
136.9215561945919
 30
0.0
 40
1.6
  0
CIRCLE
  5
1EE9
330
2
100
AcDbEntity
  8
0
100
AcDbCircle
 10
138.6400970386634
 20
136.9215561945919
 30
0.0
 40
2.5
  0
LINE
  5
1EEA
330
2
100
AcDbEntity
  8
0
100
AcDbLine
 10
134.140097038663
 20
134.9215561945919
 30
0.0
 11
134.140097038663
 21
139.4215561945937
 31
0.0
  0
ARC
  5
1EEB
330
2
100
AcDbEntity
  8
0
100
AcDbCircle
 10
136.140097038663
 20
139.4215561945937
 30
0.0
 40
2.0
100
AcDbArc
 50
90.0
 51
180.0
  0
LINE
  5
1EEC
330
2
100
AcDbEntity
  8
0
100
AcDbLine
 10
129.640097038663
 20
136.3649318675659
 30
0.0
 11
129.640097038663
 21
133.4781805216178
 31
0.0
  0
LINE
  5
1EED
330
2
100
AcDbEntity
  8
0
100
AcDbLine
 10
127.140097038663
 20
132.0348048486437
 30
0.0
 11
129.640097038663
 21
133.4781805216178
 31
0.0
  0
LINE
  5
1EEE
330
2
100
AcDbEntity
  8
0
100
AcDbLine
 10
129.640097038663
 20
136.3649318675659
 30
0.0
 11
127.140097038663
 21
137.80830754054
 31
0.0
  0
LINE
  5
1EEF
330
2
100
AcDbEntity
  8
0
100
AcDbLine
 10
124.640097038663
 20
136.3649318675659
 30
0.0
 11
124.640097038663
 21
133.4781805216178
 31
0.0
  0
LINE
  5
1EF0
330
2
100
AcDbEntity
  8
0
100
AcDbLine
 10
127.140097038663
 20
132.0348048486437
 30
0.0
 11
124.640097038663
 21
133.4781805216178
 31
0.0
  0
LINE
  5
1EF1
330
2
100
AcDbEntity
  8
0
100
AcDbLine
 10
124.640097038663
 20
136.3649318675659
 30
0.0
 11
127.140097038663
 21
137.80830754054
 31
0.0
  0
LINE
  5
1EF2
330
2
100
AcDbEntity
  8
0
100
AcDbLine
 10
127.140097038663
 20
127.9215561945919
 30
0.0
 11
122.6400970386639
 21
127.9215561945919
 31
0.0
  0
CIRCLE
  5
1EF3
330
2
100
AcDbEntity
  8
0
100
AcDbCircle
 10
127.140097038663
 20
134.9215561945919
 30
0.0
 40
4.307179676972509
  0
LINE
  5
1EF4
330
2
100
AcDbEntity
  8
0
100
AcDbLine
 10
222.1400970386635
 20
143.9215561945901
 30
0.0
 11
222.1400970386635
 21
147.3028602030215
 31
0.0
  0
LINE
  5
1EF5
330
2
100
AcDbEntity
  8
0
100
AcDbLine
 10
213.6400970386648
 20
140.4215561945864
 30
0.0
 11
175.6400970386648
 21
140.42155619459
 31
0.0
  0
LINE
  5
1EF6
330
2
100
AcDbEntity
  8
0
100
AcDbLine
 10
213.6400970386648
 20
141.4215561945864
 30
0.0
 11
175.6400970386648
 21
141.42155619459
 31
0.0
  0
ARC
  5
1EF7
330
2
100
AcDbEntity
  8
0
100
AcDbCircle
 10
175.6400970386639
 20
128.4215561945864
 30
0.0
 40
12.0
100
AcDbArc
 50
90.0
 51
180.0
  0
ARC
  5
1EF8
330
2
100
AcDbEntity
  8
0
100
AcDbCircle
 10
175.6400970386639
 20
128.4215561945864
 30
0.0
 40
13.0
100
AcDbArc
 50
90.0
 51
180.0
  0
LINE
  5
1EF9
330
2
100
AcDbEntity
  8
0
100
AcDbLine
 10
167.1548156644248
 20
136.9068375688246
 30
0.0
 11
166.4477088832381
 21
137.6139443500113
 31
0.0
  0
LINE
  5
1EFA
330
2
100
AcDbEntity
  8
0
100
AcDbLine
 10
222.8324851940842
 20
137.6139443500149
 30
0.0
 11
222.125378412898
 21
136.9068375688282
 31
0.0
  0
ARC
  5
1EFB
330
2
100
AcDbEntity
  8
0
100
AcDbCircle
 10
194.6400970386639
 20
-19.5784438054099
 30
0.0
 40
170.0
100
AcDbArc
 50
83.82300359510905
 51
96.17699640489092
  0
ARC
  5
1EFC
330
2
100
AcDbEntity
  8
0
100
AcDbCircle
 10
172.0440535984744
 20
189.2023475065514
 30
0.0
 40
40.0
100
AcDbArc
 50
256.6323257973709
 51
276.1769964048909
  0
LINE
  5
1EFD
330
2
100
AcDbEntity
  8
0
100
AcDbLine
 10
161.6400970386639
 20
150.42155619459
 30
0.0
 11
158.6400970386639
 21
150.42155619459
 31
0.0
  0
ARC
  5
1EFE
330
2
100
AcDbEntity
  8
0
100
AcDbCircle
 10
161.6400970386639
 20
145.42155619459
 30
0.0
 40
5.0
100
AcDbArc
 50
76.63232579737094
 51
90.0
  0
ARC
  5
1EFF
330
2
100
AcDbEntity
  8
0
100
AcDbCircle
 10
220.1400970386635
 20
147.3028602030215
 30
0.0
 40
2.0
100
AcDbArc
 50
0.0
 51
93.96469786020889
  0
LINE
  5
1F0A
330
2
100
AcDbEntity
  8
0
100
AcDbLine
 10
324.2808511358937
 20
150.4244650848391
 30
0.0
 11
382.2808511358942
 21
149.9183067529753
 31
0.0
  0
LINE
  5
1F0B
330
2
100
AcDbEntity
  8
0
100
AcDbLine
 10
324.2808511358941
 20
68.42155619458896
 30
0.0
 11
382.2808511358946
 21
68.92771452645281
 31
0.0
  0
LINE
  5
1F0C
330
2
100
AcDbEntity
  8
0
100
AcDbLine
 10
324.2808511358941
 20
73.42155619458714
 30
0.0
 11
381.2808511358946
 21
73.42155619458714
 31
0.0
  0
LINE
  5
1F0D
330
2
100
AcDbEntity
  8
0
100
AcDbLine
 10
324.2808511358941
 20
76.42155619458714
 30
0.0
 11
381.2808511358946
 21
76.42155619458714
 31
0.0
  0
LINE
  5
1F0E
330
2
100
AcDbEntity
  8
0
100
AcDbLine
 10
324.2808511358941
 20
91.12952102871856
 30
0.0
 11
381.2808511358946
 21
91.12952102871856
 31
0.0
  0
LINE
  5
1F0F
330
2
100
AcDbEntity
  8
0
100
AcDbLine
 10
324.2808511358946
 20
145.4215561945889
 30
0.0
 11
381.2808511358946
 21
145.4215561945889
 31
0.0
  0
LINE
  5
1F10
330
2
100
AcDbEntity
  8
0
100
AcDbLine
 10
324.2808511358946
 20
142.4215561945889
 30
0.0
 11
381.2808511358946
 21
142.4215561945889
 31
0.0
  0
LINE
  5
1F11
330
2
100
AcDbEntity
  8
0
100
AcDbLine
 10
324.2808511358946
 20
127.7135913604575
 30
0.0
 11
381.2808511358946
 21
127.7135913604575
 31
0.0
  0
LINE
  5
1F12
330
2
100
AcDbEntity
  8
CENTER
100
AcDbLine
 10
292.2808511358905
 20
109.4215561945894
 30
0.0
 11
442.2808511358946
 21
109.4215561945864
 31
0.0
  0
LINE
  5
1F14
330
2
100
AcDbEntity
  8
0
100
AcDbLine
 10
304.7808511358946
 20
83.12155619458787
 30
0.0
 11
304.7808511358946
 21
135.7215561945882
 31
0.0
  0
LINE
  5
1F15
330
2
100
AcDbEntity
  8
0
100
AcDbLine
 10
310.2808511358928
 20
137.9215561945889
 30
0.0
 11
310.2808511358928
 21
80.92155619459077
 31
0.0
  0
LINE
  5
1F16
330
2
100
AcDbEntity
  8
0
100
AcDbLine
 10
311.7808511358896
 20
79.92155619458896
 30
0.0
 11
311.7808511358896
 21
138.9215561945889
 31
0.0
  0
LINE
  5
1F17
330
2
100
AcDbEntity
  8
0
100
AcDbLine
 10
310.7808511358878
 20
79.92155619458896
 30
0.0
 11
310.7808511358878
 21
138.9215561945889
 31
0.0
  0
LINE
  5
1F18
330
2
100
AcDbEntity
  8
0
100
AcDbLine
 10
302.280851135891
 20
83.49890646377895
 30
0.0
 11
302.28085113589
 21
135.3442059253971
 31
0.0
  0
LINE
  5
1F19
330
2
100
AcDbEntity
  8
0
100
AcDbLine
 10
306.7808511358928
 20
135.7215561945882
 30
0.0
 11
306.7808511358532
 21
83.1215561946297
 31
0.0
  0
LINE
  5
1F1A
330
2
100
AcDbEntity
  8
0
100
AcDbLine
 10
303.2808511358946
 20
82.92155619458714
 30
0.0
 11
303.2808511358928
 21
135.9215561945889
 31
0.0
  0
LINE
  5
1F1B
330
2
100
AcDbEntity
  8
0
100
AcDbLine
 10
306.9808511358926
 20
135.9215561945889
 30
0.0
 11
306.9808511358944
 21
82.92155619458714
 31
0.0
  0
LINE
  5
1F1C
330
2
100
AcDbEntity
  8
0
100
AcDbLine
 10
324.2808511358919
 20
150.4215561945889
 30
0.0
 11
324.2808511358969
 21
68.42155619458896
 31
0.0
  0
ARC
  5
1F1D
330
2
100
AcDbEntity
  8
0
100
AcDbCircle
 10
65.6400970386635
 20
109.4215561945901
 30
0.0
 40
170.0
100
AcDbArc
 50
353.823003595109
 51
6.176996404890939
  0
LINE
  5
1F1E
330
2
100
AcDbEntity
  8
0
100
AcDbLine
 10
225.6400970386639
 20
90.42155619459373
 30
0.0
 11
225.6400970386639
 21
128.4215561945901
 31
0.0
  0
LINE
  5
1F1F
330
2
100
AcDbEntity
  8
0
100
AcDbLine
 10
226.6400970386639
 20
90.42155619459373
 30
0.0
 11
226.6400970386639
 21
128.4215561945901
 31
0.0
  0
CIRCLE
  5
1F20
330
2
100
AcDbEntity
  8
HOJO
100
AcDbCircle
 10
229.640097038663
 20
86.42155619459009
 30
0.0
 40
2.0
  0
ARC
  5
1F21
330
2
100
AcDbEntity
  8
0
100
AcDbCircle
 10
232.5214010470949
 20
83.92155619459009
 30
0.0
 40
2.0
100
AcDbArc
 50
270.0
 51
3.964697860208891
  0
ARC
  5
1F22
330
2
100
AcDbEntity
  8
0
100
AcDbCircle
 10
274.4208883506253
 20
86.82551275440056
 30
0.0
 40
40.0
100
AcDbArc
 50
173.823003595109
 51
193.367674202629
  0
ARC
  5
1F23
330
2
100
AcDbEntity
  8
0
100
AcDbCircle
 10
230.6400970386635
 20
73.4215561945901
 30
0.0
 40
5.0
100
AcDbArc
 50
270.0
 51
0.0
  0
ARC
  5
1F24
330
2
100
AcDbEntity
  8
0
100
AcDbCircle
 10
230.6400970386635
 20
76.4215561945901
 30
0.0
 40
5.0
100
AcDbArc
 50
0.0
 51
13.36767420262906
  0
LINE
  5
1F25
330
2
100
AcDbEntity
  8
0
100
AcDbLine
 10
235.6400970386639
 20
73.4215561945901
 30
0.0
 11
235.6400970386639
 21
76.4215561945901
 31
0.0
  0
CIRCLE
  5
1F26
330
2
100
AcDbEntity
  8
0
100
AcDbCircle
 10
229.640097038663
 20
86.42155619459009
 30
0.0
 40
3.0
  0
CIRCLE
  5
1F27
330
2
100
AcDbEntity
  8
0
100
AcDbCircle
 10
229.640097038663
 20
86.42155619459009
 30
0.0
 40
1.6
  0
CIRCLE
  5
1F28
330
2
100
AcDbEntity
  8
0
100
AcDbCircle
 10
229.640097038663
 20
86.42155619459009
 30
0.0
 40
2.5
  0
LINE
  5
1F29
330
2
100
AcDbEntity
  8
0
100
AcDbLine
 10
229.1400970386634
 20
81.92155619459009
 30
0.0
 11
232.5214010470949
 21
81.92155619459009
 31
0.0
  0
ARC
  5
1F2A
330
2
100
AcDbEntity
  8
0
100
AcDbCircle
 10
227.6400970386635
 20
73.4215561945901
 30
0.0
 40
5.0
100
AcDbArc
 50
256.6323257973709
 51
270.0
  0
LINE
  5
1F2B
330
2
100
AcDbEntity
  8
0
100
AcDbLine
 10
230.6400970386635
 20
68.4215561945901
 30
0.0
 11
227.6400970386635
 21
68.4215561945901
 31
0.0
  0
LINE
  5
1F2C
330
2
100
AcDbEntity
  8
0
100
AcDbLine
 10
231.6400970386703
 20
76.36493186756417
 30
0.0
 11
231.6400970386703
 21
73.47818052161603
 31
0.0
  0
LINE
  5
1F2D
330
2
100
AcDbEntity
  8
0
100
AcDbLine
 10
229.1400970386698
 20
72.03480484864195
 30
0.0
 11
231.6400970386703
 21
73.47818052161603
 31
0.0
  0
LINE
  5
1F2E
330
2
100
AcDbEntity
  8
0
100
AcDbLine
 10
231.6400970386703
 20
76.36493186756417
 30
0.0
 11
229.1400970386703
 21
77.80830754053823
 31
0.0
  0
LINE
  5
1F2F
330
2
100
AcDbEntity
  8
0
100
AcDbLine
 10
226.6400970386703
 20
76.36493186756417
 30
0.0
 11
226.6400970386703
 21
73.47818052161603
 31
0.0
  0
LINE
  5
1F30
330
2
100
AcDbEntity
  8
0
100
AcDbLine
 10
229.1400970386698
 20
72.03480484864195
 30
0.0
 11
226.6400970386703
 21
73.47818052161603
 31
0.0
  0
LINE
  5
1F31
330
2
100
AcDbEntity
  8
0
100
AcDbLine
 10
226.6400970386703
 20
76.36493186756417
 30
0.0
 11
229.1400970386703
 21
77.80830754053823
 31
0.0
  0
LINE
  5
1F32
330
2
100
AcDbEntity
  8
CENTER
100
AcDbLine
 10
229.640097038663
 20
90.71516435889936
 30
0.0
 11
229.640097038663
 21
82.12794803027902
 31
0.0
  0
LINE
  5
1F33
330
2
100
AcDbEntity
  8
CENTER
100
AcDbLine
 10
229.1400970386717
 20
66.17155619459555
 30
0.0
 11
229.1400970386685
 21
83.67155619459555
 31
0.0
  0
LINE
  5
1F34
330
2
100
AcDbEntity
  8
0
100
AcDbLine
 10
324.2808511358969
 20
68.42155619458896
 30
0.0
 11
312.7721246003914
 21
68.52199132950369
 31
0.0
  0
LINE
  5
1F35
330
2
100
AcDbEntity
  8
0
100
AcDbLine
 10
324.2808511358955
 20
91.12952102872037
 30
0.0
 11
312.78085113589
 21
91.12952102872037
 31
0.0
  0
LINE
  5
1F36
330
2
100
AcDbEntity
  8
0
100
AcDbLine
 10
312.7721246003909
 20
81.95653982107392
 30
0.0
 11
316.2852144036376
 21
81.92588155082336
 31
0.0
  0
LINE
  5
1F37
330
2
100
AcDbEntity
  8
0
100
AcDbLine
 10
316.7808511358882
 20
79.92155619458896
 30
0.0
 11
309.6808511358883
 21
79.92155619458896
 31
0.0
  0
LINE
  5
1F38
330
2
100
AcDbEntity
  8
0
100
AcDbLine
 10
316.7808511358882
 20
69.92155619458896
 30
0.0
 11
309.6808511358883
 21
69.92155619458896
 31
0.0
  0
LINE
  5
1F39
330
2
100
AcDbEntity
  8
CENTER
100
AcDbLine
 10
304.7021832257921
 20
74.92155619458896
 30
0.0
 11
329.2650369021737
 21
74.92155619458896
 31
0.0
  0
LINE
  5
1F3A
330
2
100
AcDbEntity
  8
HIDS
100
AcDbLine
 10
311.4879579170758
 20
77.71444941340047
 30
0.0
 11
311.0737443547034
 21
78.12866297577198
 31
0.0
  0
LINE
  5
1F3B
330
2
100
AcDbEntity
  8
0
100
AcDbLine
 10
310.2808511358928
 20
80.92155619459077
 30
0.0
 11
310.7808511358955
 21
80.42155619458895
 31
0.0
  0
LINE
  5
1F3C
330
2
100
AcDbEntity
  8
0
100
AcDbLine
 10
311.7808511358896
 20
69.52195325256758
 30
0.0
 11
311.7808511358896
 21
69.92155619458896
 31
0.0
  0
LINE
  5
1F3D
330
2
100
AcDbEntity
  8
HIDS
100
AcDbLine
 10
311.7808511358891
 20
69.92155619458896
 30
0.0
 11
311.7808511358896
 21
79.92155619458896
 31
0.0
  0
ARC
  5
1F3E
330
2
100
AcDbEntity
  8
0
100
AcDbCircle
 10
312.7808511358896
 20
69.52195325256758
 30
0.0
 40
1.0
100
AcDbArc
 50
180.0
 51
269.5000000000345
  0
LINE
  5
1F3F
330
2
100
AcDbEntity
  8
HIDS
100
AcDbLine
 10
310.7808511358878
 20
78.83576975695866
 30
0.0
 11
310.7808511358882
 21
79.92155619458896
 31
0.0
  0
ARC
  5
1F40
330
2
100
AcDbEntity
  8
HIDS
100
AcDbCircle
 10
311.7808511358901
 20
78.83576975695866
 30
0.0
 40
1.0
100
AcDbArc
 50
180.0
 51
224.9999999999908
  0
ARC
  5
1F41
330
2
100
AcDbEntity
  8
HIDS
100
AcDbCircle
 10
310.78085113589
 20
77.00734263221381
 30
0.0
 40
1.0
100
AcDbArc
 50
0.0
 51
44.99999999999078
  0
ARC
  5
1F42
330
2
100
AcDbEntity
  8
0
100
AcDbCircle
 10
312.7808511358892
 20
82.95650174414147
 30
0.0
 40
1.0
100
AcDbArc
 50
180.0
 51
269.5000000000345
  0
LINE
  5
1F43
330
2
100
AcDbEntity
  8
0
100
AcDbLine
 10
309.6808511358883
 20
79.92155619458896
 30
0.0
 11
309.2808511358882
 21
79.22873587156169
 31
0.0
  0
LINE
  5
1F44
330
2
100
AcDbEntity
  8
0
100
AcDbLine
 10
309.6808511358883
 20
79.92155619458896
 30
0.0
 11
309.6808511358883
 21
69.92155619458896
 31
0.0
  0
LINE
  5
1F45
330
2
100
AcDbEntity
  8
0
100
AcDbLine
 10
309.6808511358883
 20
69.92155619458896
 30
0.0
 11
309.2808511358882
 21
70.61437651761622
 31
0.0
  0
LINE
  5
1F46
330
2
100
AcDbEntity
  8
0
100
AcDbLine
 10
309.2808511358882
 20
79.22873587156169
 30
0.0
 11
309.2808511358882
 21
70.61437651761622
 31
0.0
  0
LINE
  5
1F47
330
2
100
AcDbEntity
  8
0
100
AcDbLine
 10
309.6808511358924
 20
82.92155619458805
 30
0.0
 11
309.6808511358883
 21
79.92155619458896
 31
0.0
  0
LINE
  5
1F48
330
2
100
AcDbEntity
  8
0
100
AcDbLine
 10
309.3921760012942
 20
79.42155619459078
 30
0.0
 11
309.2808511358923
 21
79.61437651761349
 31
0.0
  0
LINE
  5
1F49
330
2
100
AcDbEntity
  8
0
100
AcDbLine
 10
309.2808511358928
 20
82.92155619458805
 30
0.0
 11
309.2808511358923
 21
79.61437651761349
 31
0.0
  0
LINE
  5
1F4A
330
2
100
AcDbEntity
  8
0
100
AcDbLine
 10
303.2808511358946
 20
82.92155619458714
 30
0.0
 11
302.2808511358946
 21
83.49890646377714
 31
0.0
  0
LINE
  5
1F4B
330
2
100
AcDbEntity
  8
0
100
AcDbLine
 10
304.9808511358944
 20
83.62155619458787
 30
0.0
 11
306.5808511358948
 21
83.62155619458787
 31
0.0
  0
LINE
  5
1F4C
330
2
100
AcDbEntity
  8
0
100
AcDbLine
 10
306.7808511358946
 20
83.12155619458787
 30
0.0
 11
306.9808511358944
 21
82.92155619458714
 31
0.0
  0
LINE
  5
1F4D
330
2
100
AcDbEntity
  8
0
100
AcDbLine
 10
303.2808511358946
 20
82.92155619458714
 30
0.0
 11
304.5808511358948
 21
82.92155619458714
 31
0.0
  0
ARC
  5
1F4E
330
2
100
AcDbEntity
  8
0
100
AcDbCircle
 10
304.5808511358948
 20
83.12155619458787
 30
0.0
 40
0.2
100
AcDbArc
 50
270.0
 51
0.0
  0
ARC
  5
1F4F
330
2
100
AcDbEntity
  8
0
100
AcDbCircle
 10
304.9808511358944
 20
83.42155619458713
 30
0.0
 40
0.2
100
AcDbArc
 50
90.0
 51
180.0
  0
ARC
  5
1F50
330
2
100
AcDbEntity
  8
0
100
AcDbCircle
 10
306.5808511358948
 20
83.42155619458713
 30
0.0
 40
0.2
100
AcDbArc
 50
0.0
 51
90.0
  0
LINE
  5
1F51
330
2
100
AcDbEntity
  8
0
100
AcDbLine
 10
306.9808511358944
 20
82.92155619458714
 30
0.0
 11
310.2808511358946
 21
82.92155619458895
 31
0.0
  0
LINE
  5
1F52
330
2
100
AcDbEntity
  8
0
100
AcDbLine
 10
324.2808511358964
 20
73.42155619458896
 30
0.0
 11
317.77212460039
 21
73.42155619458896
 31
0.0
  0
LINE
  5
1F53
330
2
100
AcDbEntity
  8
0
100
AcDbLine
 10
324.2808511358964
 20
76.42155619458896
 30
0.0
 11
317.77212460039
 21
76.42155619458896
 31
0.0
  0
LINE
  5
1F54
330
2
100
AcDbEntity
  8
0
100
AcDbLine
 10
316.7808511358882
 20
81.4259005892905
 30
0.0
 11
316.7808511358882
 21
69.47831891361381
 31
0.0
  0
ARC
  5
1F55
330
2
100
AcDbEntity
  8
0
100
AcDbCircle
 10
316.2808511358887
 20
81.42590058929233
 30
0.0
 40
0.5
100
AcDbArc
 50
0.0
 51
89.5000000000345
  0
ARC
  5
1F56
330
2
100
AcDbEntity
  8
0
100
AcDbCircle
 10
317.7808511358882
 20
69.47831891361381
 30
0.0
 40
1.0
100
AcDbArc
 50
180.0
 51
269.5000000000345
  0
LINE
  5
1F57
330
2
100
AcDbEntity
  8
0
100
AcDbLine
 10
315.2808511358882
 20
79.92155619458896
 30
0.0
 11
315.2808511358882
 21
69.92155619458896
 31
0.0
  0
LINE
  5
1F58
330
2
100
AcDbEntity
  8
0
100
AcDbLine
 10
235.6400970386639
 20
142.42155619459
 30
0.0
 11
235.6400970386639
 21
145.42155619459
 31
0.0
  0
LINE
  5
1F59
330
2
100
AcDbEntity
  8
0
100
AcDbLine
 10
231.6400970386703
 20
145.3649318675641
 30
0.0
 11
231.6400970386703
 21
142.478180521616
 31
0.0
  0
LINE
  5
1F5A
330
2
100
AcDbEntity
  8
0
100
AcDbLine
 10
226.6400970386703
 20
145.3649318675641
 30
0.0
 11
226.6400970386703
 21
142.478180521616
 31
0.0
  0
LINE
  5
1F5B
330
2
100
AcDbEntity
  8
CENTER
100
AcDbLine
 10
229.1400970386717
 20
152.6715561945828
 30
0.0
 11
229.1400970386685
 21
135.1715561945828
 31
0.0
  0
CIRCLE
  5
1F5C
330
2
100
AcDbEntity
  8
HOJO
100
AcDbCircle
 10
229.640097038663
 20
132.4215561945901
 30
0.0
 40
2.0
  0
ARC
  5
1F5D
330
2
100
AcDbEntity
  8
0
100
AcDbCircle
 10
232.5214010470949
 20
134.92155619459
 30
0.0
 40
2.0
100
AcDbArc
 50
356.0353021397911
 51
90.0
  0
ARC
  5
1F5E
330
2
100
AcDbEntity
  8
0
100
AcDbCircle
 10
274.4208883506257
 20
132.0175996347796
 30
0.0
 40
40.0
100
AcDbArc
 50
166.6323257973709
 51
186.1769964048909
  0
ARC
  5
1F5F
330
2
100
AcDbEntity
  8
0
100
AcDbCircle
 10
230.6400970386635
 20
142.42155619459
 30
0.0
 40
5.0
100
AcDbArc
 50
346.6323257973709
 51
0.0
  0
CIRCLE
  5
1F60
330
2
100
AcDbEntity
  8
0
100
AcDbCircle
 10
229.640097038663
 20
132.4215561945901
 30
0.0
 40
1.6
  0
CIRCLE
  5
1F61
330
2
100
AcDbEntity
  8
0
100
AcDbCircle
 10
229.640097038663
 20
132.4215561945901
 30
0.0
 40
2.5
  0
CIRCLE
  5
1F62
330
2
100
AcDbEntity
  8
0
100
AcDbCircle
 10
229.640097038663
 20
132.4215561945901
 30
0.0
 40
3.0
  0
LINE
  5
1F63
330
2
100
AcDbEntity
  8
0
100
AcDbLine
 10
229.1400970386634
 20
136.92155619459
 30
0.0
 11
232.5214010470949
 21
136.92155619459
 31
0.0
  0
LINE
  5
1F64
330
2
100
AcDbEntity
  8
0
100
AcDbLine
 10
229.1400970386698
 20
141.0348048486419
 30
0.0
 11
231.6400970386703
 21
142.478180521616
 31
0.0
  0
LINE
  5
1F65
330
2
100
AcDbEntity
  8
0
100
AcDbLine
 10
229.1400970386698
 20
141.0348048486419
 30
0.0
 11
226.6400970386703
 21
142.478180521616
 31
0.0
  0
LINE
  5
1F66
330
2
100
AcDbEntity
  8
CENTER
100
AcDbLine
 10
229.640097038663
 20
128.127948030279
 30
0.0
 11
229.640097038663
 21
136.7151643588993
 31
0.0
  0
ARC
  5
1F67
330
2
100
AcDbEntity
  8
0
100
AcDbCircle
 10
227.6400970386635
 20
145.42155619459
 30
0.0
 40
5.0
100
AcDbArc
 50
90.0
 51
103.367674202629
  0
LINE
  5
1F68
330
2
100
AcDbEntity
  8
0
100
AcDbLine
 10
230.6400970386635
 20
150.42155619459
 30
0.0
 11
227.6400970386635
 21
150.42155619459
 31
0.0
  0
LINE
  5
1F69
330
2
100
AcDbEntity
  8
0
100
AcDbLine
 10
231.6400970386703
 20
145.3649318675641
 30
0.0
 11
229.1400970386703
 21
146.8083075405382
 31
0.0
  0
LINE
  5
1F6A
330
2
100
AcDbEntity
  8
0
100
AcDbLine
 10
226.6400970386703
 20
145.3649318675641
 30
0.0
 11
229.1400970386703
 21
146.8083075405382
 31
0.0
  0
ARC
  5
1F6B
330
2
100
AcDbEntity
  8
0
100
AcDbCircle
 10
230.6400970386635
 20
145.42155619459
 30
0.0
 40
5.0
100
AcDbArc
 50
0.0
 51
90.0
  0
LINE
  5
1F6C
330
2
100
AcDbEntity
  8
0
100
AcDbLine
 10
309.2808511358882
 20
139.6143765176162
 30
0.0
 11
309.2808511358882
 21
148.2287358715616
 31
0.0
  0
LINE
  5
1F6D
330
2
100
AcDbEntity
  8
0
100
AcDbLine
 10
324.2808511358937
 20
140.5183303881363
 30
0.0
 11
324.2808511358937
 21
150.4244650848391
 31
0.0
  0
LINE
  5
1F6E
330
2
100
AcDbEntity
  8
HIDS
100
AcDbLine
 10
311.7808511358896
 20
138.9215561945889
 30
0.0
 11
311.7808511358896
 21
148.9215561945889
 31
0.0
  0
LINE
  5
1F6F
330
2
100
AcDbEntity
  8
0
100
AcDbLine
 10
316.7808511358882
 20
137.4172117998855
 30
0.0
 11
316.7808511358882
 21
149.3647934755623
 31
0.0
  0
LINE
  5
1F70
330
2
100
AcDbEntity
  8
0
100
AcDbLine
 10
315.2808511358882
 20
138.9215561945889
 30
0.0
 11
315.2808511358882
 21
148.9215561945889
 31
0.0
  0
LINE
  5
1F71
330
2
100
AcDbEntity
  8
0
100
AcDbLine
 10
309.6808511358883
 20
138.9215561945889
 30
0.0
 11
309.6808511358883
 21
148.9215561945889
 31
0.0
  0
LINE
  5
1F72
330
2
100
AcDbEntity
  8
0
100
AcDbLine
 10
316.7808511358882
 20
148.9215561945889
 30
0.0
 11
316.7808511358882
 21
138.9215561945889
 31
0.0
  0
LINE
  5
1F73
330
2
100
AcDbEntity
  8
0
100
AcDbLine
 10
324.2808511358937
 20
127.7135913604575
 30
0.0
 11
312.78085113589
 21
127.7135913604575
 31
0.0
  0
LINE
  5
1F74
330
2
100
AcDbEntity
  8
0
100
AcDbLine
 10
312.7721246003909
 20
136.8865725681039
 30
0.0
 11
316.2852144036376
 21
136.9172308383527
 31
0.0
  0
LINE
  5
1F75
330
2
100
AcDbEntity
  8
0
100
AcDbLine
 10
316.7808511358882
 20
138.9215561945889
 30
0.0
 11
309.6808511358883
 21
138.9215561945889
 31
0.0
  0
LINE
  5
1F76
330
2
100
AcDbEntity
  8
CENTER
100
AcDbLine
 10
304.7021832257926
 20
143.9215561945889
 30
0.0
 11
329.2650369021742
 21
143.9215561945889
 31
0.0
  0
LINE
  5
1F77
330
2
100
AcDbEntity
  8
0
100
AcDbLine
 10
310.2808511358882
 20
135.9215561945889
 30
0.0
 11
310.2808511358882
 21
137.9215561945835
 31
0.0
  0
LINE
  5
1F78
330
2
100
AcDbEntity
  8
0
100
AcDbLine
 10
310.2808511358928
 20
137.9215561945889
 30
0.0
 11
310.7808511358928
 21
138.4215561945889
 31
0.0
  0
LINE
  5
1F79
330
2
100
AcDbEntity
  8
HIDS
100
AcDbLine
 10
311.4879579170758
 20
141.1286629757756
 30
0.0
 11
311.0737443547016
 21
140.7144494134023
 31
0.0
  0
LINE
  5
1F7A
330
2
100
AcDbEntity
  8
HIDS
100
AcDbLine
 10
310.7808511358878
 20
138.9215561945889
 30
0.0
 11
310.7808511358878
 21
140.0073426322156
 31
0.0
  0
ARC
  5
1F7B
330
2
100
AcDbEntity
  8
HIDS
100
AcDbCircle
 10
311.7808511358878
 20
140.0073426322156
 30
0.0
 40
1.0
100
AcDbArc
 50
135.0000000000092
 51
180.0
  0
ARC
  5
1F7C
330
2
100
AcDbEntity
  8
HIDS
100
AcDbCircle
 10
310.78085113589
 20
141.8357697569641
 30
0.0
 40
1.0
100
AcDbArc
 50
315.0000000000092
 51
0.0
  0
ARC
  5
1F7D
330
2
100
AcDbEntity
  8
0
100
AcDbCircle
 10
312.7808511358892
 20
135.8866106450346
 30
0.0
 40
1.0
100
AcDbArc
 50
90.49999999996549
 51
180.0
  0
LINE
  5
1F7E
330
2
100
AcDbEntity
  8
0
100
AcDbLine
 10
309.6808511358883
 20
138.9215561945889
 30
0.0
 11
309.2808511358882
 21
139.6143765176162
 31
0.0
  0
LINE
  5
1F7F
330
2
100
AcDbEntity
  8
0
100
AcDbLine
 10
309.6808511358924
 20
135.9215561945889
 30
0.0
 11
309.6808511358883
 21
138.9215561945889
 31
0.0
  0
LINE
  5
1F80
330
2
100
AcDbEntity
  8
0
100
AcDbLine
 10
309.3921760012947
 20
139.4215561945862
 30
0.0
 11
309.2808511358923
 21
139.2287358715626
 31
0.0
  0
LINE
  5
1F81
330
2
100
AcDbEntity
  8
0
100
AcDbLine
 10
309.2808511358928
 20
135.9215561945889
 30
0.0
 11
309.2808511358923
 21
139.2287358715626
 31
0.0
  0
LINE
  5
1F82
330
2
100
AcDbEntity
  8
0
100
AcDbLine
 10
303.2808511358928
 20
135.9215561945889
 30
0.0
 11
304.5808511358929
 21
135.9215561945889
 31
0.0
  0
LINE
  5
1F83
330
2
100
AcDbEntity
  8
0
100
AcDbLine
 10
306.7808511358928
 20
135.7215561945882
 30
0.0
 11
306.9808511358926
 21
135.9215561945889
 31
0.0
  0
LINE
  5
1F84
330
2
100
AcDbEntity
  8
0
100
AcDbLine
 10
304.9808511358926
 20
135.2215561945882
 30
0.0
 11
306.5808511358929
 21
135.2215561945882
 31
0.0
  0
LINE
  5
1F85
330
2
100
AcDbEntity
  8
0
100
AcDbLine
 10
303.2808511358928
 20
135.9215561945889
 30
0.0
 11
302.2808511358928
 21
135.3442059253989
 31
0.0
  0
ARC
  5
1F86
330
2
100
AcDbEntity
  8
0
100
AcDbCircle
 10
304.5808511358929
 20
135.7215561945882
 30
0.0
 40
0.2
100
AcDbArc
 50
0.0
 51
90.0
  0
ARC
  5
1F87
330
2
100
AcDbEntity
  8
0
100
AcDbCircle
 10
304.9808511358926
 20
135.4215561945889
 30
0.0
 40
0.2
100
AcDbArc
 50
180.0
 51
270.0
  0
ARC
  5
1F88
330
2
100
AcDbEntity
  8
0
100
AcDbCircle
 10
306.5808511358929
 20
135.4215561945889
 30
0.0
 40
0.2
100
AcDbArc
 50
270.0
 51
0.0
  0
LINE
  5
1F89
330
2
100
AcDbEntity
  8
0
100
AcDbLine
 10
306.9808511358926
 20
135.9215561945889
 30
0.0
 11
310.2808511358928
 21
135.9215561945889
 31
0.0
  0
LINE
  5
1F8A
330
2
100
AcDbEntity
  8
0
100
AcDbLine
 10
324.2808511358928
 20
142.4215561945889
 30
0.0
 11
317.7721246003905
 21
142.4215561945889
 31
0.0
  0
ARC
  5
1F8B
330
2
100
AcDbEntity
  8
0
100
AcDbCircle
 10
316.2808511358887
 20
137.4172117998855
 30
0.0
 40
0.5
100
AcDbArc
 50
270.4999999999654
 51
0.0
  0
LINE
  5
1F8C
330
2
100
AcDbEntity
  8
0
100
AcDbLine
 10
324.2808511358919
 20
150.4215561945889
 30
0.0
 11
312.7721246003914
 21
150.3211210596724
 31
0.0
  0
LINE
  5
1F8D
330
2
100
AcDbEntity
  8
0
100
AcDbLine
 10
316.7808511358882
 20
148.9215561945889
 30
0.0
 11
309.6808511358883
 21
148.9215561945889
 31
0.0
  0
LINE
  5
1F8E
330
2
100
AcDbEntity
  8
0
100
AcDbLine
 10
311.7808511358901
 20
148.9215561945889
 30
0.0
 11
311.7808511358901
 21
149.3211591366085
 31
0.0
  0
ARC
  5
1F8F
330
2
100
AcDbEntity
  8
0
100
AcDbCircle
 10
312.7808511358896
 20
149.3211591366085
 30
0.0
 40
1.0
100
AcDbArc
 50
90.49999999996549
 51
180.0
  0
LINE
  5
1F90
330
2
100
AcDbEntity
  8
0
100
AcDbLine
 10
309.6808511358883
 20
148.9215561945889
 30
0.0
 11
309.2808511358882
 21
148.2287358715616
 31
0.0
  0
ARC
  5
1F91
330
2
100
AcDbEntity
  8
0
100
AcDbCircle
 10
317.7808511358882
 20
149.3647934755623
 30
0.0
 40
1.0
100
AcDbArc
 50
90.49999999996549
 51
180.0
  0
LINE
  5
1F92
330
2
100
AcDbEntity
  8
0
100
AcDbLine
 10
324.2808511358919
 20
145.4215561945889
 30
0.0
 11
317.77212460039
 21
145.4215561945889
 31
0.0
  0
LINE
  5
1F95
330
2
100
AcDbEntity
  8
0
100
AcDbLine
 10
432.2808511358946
 20
100.9215561945869
 30
0.0
 11
432.2808511358946
 21
117.9215561945869
 31
0.0
  0
LINE
  5
1F96
330
2
100
AcDbEntity
  8
0
100
AcDbLine
 10
431.7808511358946
 20
118.4215561945869
 30
0.0
 11
431.7808511358946
 21
100.4215561945869
 31
0.0
  0
LINE
  5
1F97
330
2
100
AcDbEntity
  8
0
100
AcDbLine
 10
387.2808511358937
 20
74.42155619458896
 30
0.0
 11
387.2808511358937
 21
144.4215561945889
 31
0.0
  0
LINE
  5
1F98
330
2
100
AcDbEntity
  8
0
100
AcDbLine
 10
400.2808511358955
 20
83.35293374420468
 30
0.0
 11
400.2808511358937
 21
135.4901786449732
 31
0.0
  0
LINE
  5
1F99
330
2
100
AcDbEntity
  8
0
100
AcDbLine
 10
402.2808511358946
 20
119.4215561945869
 30
0.0
 11
402.2808511358946
 21
99.42155619458691
 31
0.0
  0
LINE
  5
1F9A
330
2
100
AcDbEntity
  8
0
100
AcDbLine
 10
401.2808511358946
 20
123.1328810599921
 30
0.0
 11
401.2808511358946
 21
95.71023132918169
 31
0.0
  0
LINE
  5
1F9B
330
2
100
AcDbEntity
  8
0
100
AcDbLine
 10
382.2808511358946
 20
68.92771452645281
 30
0.0
 11
382.2808511358942
 21
149.9183067529753
 31
0.0
  0
LINE
  5
1F9C
330
2
100
AcDbEntity
  8
CENTER
100
AcDbLine
 10
349.2808511358946
 20
58.63972788935786
 30
0.0
 11
349.280851135895
 21
160.2062933900702
 31
0.0
  0
LINE
  5
1F9D
330
2
100
AcDbEntity
  8
0
100
AcDbLine
 10
402.2808511358946
 20
100.4215561945869
 30
0.0
 11
431.7808511358946
 21
100.4215561945869
 31
0.0
  0
LINE
  5
1F9E
330
2
100
AcDbEntity
  8
0
100
AcDbLine
 10
382.2808511358946
 20
74.42155619458896
 30
0.0
 11
387.2808511358946
 21
74.42155619458896
 31
0.0
  0
ARC
  5
1F9F
330
2
100
AcDbEntity
  8
0
100
AcDbCircle
 10
389.2808511358937
 20
79.03620864158217
 30
0.0
 40
2.0
100
AcDbArc
 50
92.00000000000361
 51
180.0
  0
ARC
  5
1FA0
330
2
100
AcDbEntity
  8
0
100
AcDbCircle
 10
398.2808511358946
 20
83.35293374420468
 30
0.0
 40
2.0
100
AcDbArc
 50
272.0000000000035
 51
0.0
  0
LINE
  5
1FA1
330
2
100
AcDbEntity
  8
0
100
AcDbLine
 10
398.3506501292997
 20
81.35415209016679
 30
0.0
 11
389.2110521424886
 21
81.03499029562005
 31
0.0
  0
LINE
  5
1FA2
330
2
100
AcDbEntity
  8
0
100
AcDbLine
 10
402.2808511358946
 20
99.42155619458691
 30
0.0
 11
401.2808511358946
 21
98.84420592539715
 31
0.0
  0
ARC
  5
1FA3
330
2
100
AcDbEntity
  8
0
100
AcDbCircle
 10
399.8790070215852
 20
96.92160219458703
 30
0.0
 40
2.0
100
AcDbArc
 50
281.5908835966684
 51
299.999999999996
  0
ARC
  5
1FA4
330
2
100
AcDbEntity
  8
0
100
AcDbCircle
 10
400.7808511358946
 20
95.71023132918169
 30
0.0
 40
0.5
100
AcDbArc
 50
299.999999999996
 51
0.0
  0
LINE
  5
1FA5
330
2
100
AcDbEntity
  8
0
100
AcDbLine
 10
400.8790070215852
 20
95.18955138701796
 30
0.0
 11
401.0308511358946
 21
95.27721862728942
 31
0.0
  0
LINE
  5
1FA6
330
2
100
AcDbEntity
  8
0
100
AcDbLine
 10
432.2808511358946
 20
100.9215561945869
 30
0.0
 11
431.7808511358946
 21
100.4215561945869
 31
0.0
  0
LINE
  5
1FA8
330
2
100
AcDbEntity
  8
0
100
AcDbLine
 10
431.7808511358946
 20
118.4215561945869
 30
0.0
 11
402.2808511358946
 21
118.4215561945869
 31
0.0
  0
LINE
  5
1FA9
330
2
100
AcDbEntity
  8
0
100
AcDbLine
 10
382.2808511358946
 20
144.4215561945889
 30
0.0
 11
387.2808511358946
 21
144.4215561945889
 31
0.0
  0
ARC
  5
1FAA
330
2
100
AcDbEntity
  8
0
100
AcDbCircle
 10
389.2808511358937
 20
139.8069037475957
 30
0.0
 40
2.0
100
AcDbArc
 50
180.0
 51
267.9999999999963
  0
ARC
  5
1FAB
330
2
100
AcDbEntity
  8
0
100
AcDbCircle
 10
398.2808511358946
 20
135.4901786449732
 30
0.0
 40
2.0
100
AcDbArc
 50
0.0
 51
87.9999999999964
  0
LINE
  5
1FAC
330
2
100
AcDbEntity
  8
0
100
AcDbLine
 10
398.3506501292997
 20
137.4889602990129
 30
0.0
 11
389.2110521424886
 21
137.8081220935578
 31
0.0
  0
ARC
  5
1FAD
330
2
100
AcDbEntity
  8
0
100
AcDbCircle
 10
399.8790070215852
 20
121.9215101945868
 30
0.0
 40
2.0
100
AcDbArc
 50
60.00000000000391
 51
78.40911640337175
  0
ARC
  5
1FAE
330
2
100
AcDbEntity
  8
0
100
AcDbCircle
 10
400.7808511358946
 20
123.1328810599921
 30
0.0
 40
0.5
100
AcDbArc
 50
0.0
 51
60.00000000000391
  0
LINE
  5
1FAF
330
2
100
AcDbEntity
  8
0
100
AcDbLine
 10
402.2808511358946
 20
119.4215561945869
 30
0.0
 11
401.2808511358946
 21
119.9989064637766
 31
0.0
  0
LINE
  5
1FB0
330
2
100
AcDbEntity
  8
0
100
AcDbLine
 10
400.8790070215852
 20
123.6535610021558
 30
0.0
 11
401.0308511358946
 21
123.5658937618844
 31
0.0
  0
LINE
  5
1FB1
330
2
100
AcDbEntity
  8
0
100
AcDbLine
 10
431.7808511358946
 20
118.4215561945869
 30
0.0
 11
432.2808511358946
 21
117.9215561945869
 31
0.0
  0
CIRCLE
  5
1FB3
330
2
100
AcDbEntity
  8
0
100
AcDbCircle
 10
605.9848237678417
 20
109.4215561945862
 30
0.0
 40
28.0
  0
CIRCLE
  5
1FB4
330
2
100
AcDbEntity
  8
0
100
AcDbCircle
 10
605.9848237678409
 20
109.4215561945862
 30
0.0
 40
35.00000000000011
  0
ARC
  5
1FB5
330
2
100
AcDbEntity
  8
0
100
AcDbCircle
 10
628.5808672080295
 20
189.2023475065476
 30
0.0
 40
40.0
100
AcDbArc
 50
263.823003595109
 51
283.367674202629
  0
ARC
  5
1FB6
330
2
100
AcDbEntity
  8
0
100
AcDbCircle
 10
628.5808672080295
 20
29.64076488262492
 30
0.0
 40
40.0
100
AcDbArc
 50
76.63232579737094
 51
96.17699640489092
  0
CIRCLE
  5
1FB8
330
2
100
AcDbEntity
  8
CENTER
100
AcDbCircle
 10
605.98482376784
 20
109.4215561945862
 30
0.0
 40
49.0
  0
LINE
  5
1FB9
330
2
100
AcDbEntity
  8
CENTER
100
AcDbLine
 10
561.4995423936013
 20
153.9068375688247
 30
0.0
 11
650.4701051420795
 21
64.93627482034788
 31
0.0
  0
LINE
  5
1FBA
330
2
100
AcDbEntity
  8
CENTER
100
AcDbLine
 10
650.4701051420791
 20
153.9068375688244
 30
0.0
 11
561.4995423936018
 21
64.93627482034765
 31
0.0
  0
CIRCLE
  5
1FBB
330
2
100
AcDbEntity
  8
0
100
AcDbCircle
 10
605.9848237678404
 20
109.4215561945862
 30
0.0
 40
23.0
  0
ARC
  5
1FBC
330
2
100
AcDbEntity
  8
0
100
AcDbCircle
 10
734.98482376784
 20
109.4215561945844
 30
0.0
 40
170.0
100
AcDbArc
 50
173.823003595109
 51
186.1769964048909
  0
CIRCLE
  5
1FBD
330
2
100
AcDbEntity
  8
0
100
AcDbCircle
 10
605.9848237678404
 20
109.4215561945862
 30
0.0
 40
8.999999999997953
  0
CIRCLE
  5
1FBE
330
2
100
AcDbEntity
  8
0
100
AcDbCircle
 10
605.98482376784
 20
109.4215561945867
 30
0.0
 40
9.999999999997498
  0
CIRCLE
  5
1FBF
330
2
100
AcDbEntity
  8
0
100
AcDbCircle
 10
605.9848237678404
 20
109.4215561945862
 30
0.0
 40
10.57735026918771
  0
LINE
  5
1FC0
330
2
100
AcDbEntity
  8
CENTER
100
AcDbLine
 10
605.98482376784
 20
50.42155619458629
 30
0.0
 11
605.98482376784
 21
168.4215561945863
 31
0.0
  0
ARC
  5
1FC1
330
2
100
AcDbEntity
  8
0
100
AcDbCircle
 10
605.9848237678404
 20
238.4215561945862
 30
0.0
 40
170.0
100
AcDbArc
 50
263.823003595109
 51
276.1769964048909
  0
CIRCLE
  5
1FC2
330
2
100
AcDbEntity
  8
HOJO
100
AcDbCircle
 10
571.3365914896992
 20
74.77332391644506
 30
0.0
 40
3.0
  0
LINE
  5
1FC3
330
2
100
AcDbEntity
  8
CENTER
100
AcDbLine
 10
571.3365914896996
 20
67.77332391644506
 30
0.0
 11
571.3365914896996
 21
81.77332391644506
 31
0.0
  0
LINE
  5
1FC4
330
2
100
AcDbEntity
  8
CENTER
100
AcDbLine
 10
564.3365914896996
 20
74.77332391644506
 30
0.0
 11
578.3365914896997
 21
74.77332391644506
 31
0.0
  0
CIRCLE
  5
1FC5
330
2
100
AcDbEntity
  8
0
100
AcDbCircle
 10
571.3365914896996
 20
74.77332391644506
 30
0.0
 40
2.399999999999999
  0
CIRCLE
  5
1FC6
330
2
100
AcDbEntity
  8
HOJO
100
AcDbCircle
 10
571.3365914896996
 20
74.77332391644506
 30
0.0
 40
3.0
  0
ARC
  5
1FC7
330
2
100
AcDbEntity
  8
0
100
AcDbCircle
 10
526.2040324558772
 20
86.82551275439857
 30
0.0
 40
40.0
100
AcDbArc
 50
346.6323257973709
 51
6.176996404890939
  0
ARC
  5
1FC8
330
2
100
AcDbEntity
  8
0
100
AcDbCircle
 10
569.984823767839
 20
76.42155619458629
 30
0.0
 40
5.0
100
AcDbArc
 50
166.6323257973709
 51
180.0
  0
LINE
  5
1FC9
330
2
100
AcDbEntity
  8
0
100
AcDbLine
 10
564.9848237678391
 20
73.42155619458629
 30
0.0
 11
564.9848237678391
 21
76.42155619458629
 31
0.0
  0
ARC
  5
1FCA
330
2
100
AcDbEntity
  8
0
100
AcDbCircle
 10
569.9848237678399
 20
73.42155619458629
 30
0.0
 40
5.0
100
AcDbArc
 50
180.0
 51
270.0
  0
LINE
  5
1FCB
330
2
100
AcDbEntity
  8
0
100
AcDbLine
 10
569.9848237678399
 20
68.42155619458629
 30
0.0
 11
572.9848237678404
 21
68.42155619458629
 31
0.0
  0
ARC
  5
1FCC
330
2
100
AcDbEntity
  8
0
100
AcDbCircle
 10
583.3887803276509
 20
29.64076488262492
 30
0.0
 40
40.0
100
AcDbArc
 50
83.82300359510905
 51
103.367674202629
  0
ARC
  5
1FCD
330
2
100
AcDbEntity
  8
0
100
AcDbCircle
 10
572.9848237678404
 20
73.42155619458629
 30
0.0
 40
5.0
100
AcDbArc
 50
270.0
 51
283.367674202629
  0
LINE
  5
1FCE
330
2
100
AcDbEntity
  8
0
100
AcDbLine
 10
602.7823396833253
 20
75.2484298169826
 30
0.0
 11
604.0423402264016
 21
75.2484298169826
 31
0.0
  0
LINE
  5
1FCF
330
2
100
AcDbEntity
  8
0
100
AcDbLine
 10
604.5323396833193
 20
78.74842981697168
 30
0.0
 11
602.7823396833253
 21
75.2484298169826
 31
0.0
  0
ARC
  5
1FD0
330
2
100
AcDbEntity
  8
0
100
AcDbCircle
 10
607.437307850809
 20
77.5584298169748
 30
0.0
 40
1.189999999995825
100
AcDbArc
 50
307.5189678668174
 51
90.0
  0
LINE
  5
1FD1
330
2
100
AcDbEntity
  8
0
100
AcDbLine
 10
608.1620464544069
 20
76.61457921627391
 30
0.0
 11
609.0313890893387
 21
75.2484298169826
 31
0.0
  0
LINE
  5
1FD2
330
2
100
AcDbEntity
  8
0
100
AcDbLine
 10
607.7713885462624
 20
75.2484298169826
 30
0.0
 11
609.0313890893387
 21
75.2484298169826
 31
0.0
  0
LINE
  5
1FD3
330
2
100
AcDbEntity
  8
0
100
AcDbLine
 10
605.1973396833166
 20
75.2484298169826
 30
0.0
 11
606.247307850813
 21
75.2484298169826
 31
0.0
  0
LINE
  5
1FD4
330
2
100
AcDbEntity
  8
0
100
AcDbLine
 10
604.304840226401
 20
75.77342981698041
 30
0.0
 11
604.0423402264016
 21
75.2484298169826
 31
0.0
  0
LINE
  5
1FD5
330
2
100
AcDbEntity
  8
0
100
AcDbLine
 10
604.304840226401
 20
75.77342981698041
 30
0.0
 11
605.1973396833166
 21
75.77342981698041
 31
0.0
  0
LINE
  5
1FD6
330
2
100
AcDbEntity
  8
0
100
AcDbLine
 10
605.1973396833166
 20
75.77342981698041
 30
0.0
 11
605.1973396833166
 21
75.2484298169826
 31
0.0
  0
LINE
  5
1FD7
330
2
100
AcDbEntity
  8
0
100
AcDbLine
 10
604.8648402263991
 20
76.89342981697757
 30
0.0
 11
605.1973396833166
 21
76.89342981697757
 31
0.0
  0
LINE
  5
1FD8
330
2
100
AcDbEntity
  8
0
100
AcDbLine
 10
605.1973396833166
 20
77.55842873081258
 30
0.0
 11
605.1973396833166
 21
76.89342981697757
 31
0.0
  0
LINE
  5
1FD9
330
2
100
AcDbEntity
  8
0
100
AcDbLine
 10
605.1973396833166
 20
77.55842873081258
 30
0.0
 11
604.8648402263991
 21
76.89342981697757
 31
0.0
  0
LINE
  5
1FDA
330
2
100
AcDbEntity
  8
0
100
AcDbLine
 10
606.3960896833125
 20
77.40967981697633
 30
0.0
 11
607.7713885462624
 21
75.2484298169826
 31
0.0
  0
LINE
  5
1FDB
330
2
100
AcDbEntity
  8
0
100
AcDbLine
 10
606.247307850813
 20
77.5584298169748
 30
0.0
 11
606.247307850813
 21
75.2484298169826
 31
0.0
  0
LINE
  5
1FDC
330
2
100
AcDbEntity
  8
0
100
AcDbLine
 10
606.247307850813
 20
77.5584298169748
 30
0.0
 11
607.3629646833089
 21
77.5584298169748
 31
0.0
  0
LINE
  5
1FDD
330
2
100
AcDbEntity
  8
0
100
AcDbLine
 10
606.3960896833125
 20
77.40967981697633
 30
0.0
 11
607.3629646833089
 21
77.40967981697633
 31
0.0
  0
ARC
  5
1FDE
330
2
100
AcDbEntity
  8
0
100
AcDbCircle
 10
607.3629646833089
 20
77.48405481697466
 30
0.0
 40
0.0743749999997391
100
AcDbArc
 50
270.0
 51
90.0
  0
LINE
  5
1FDF
330
2
100
AcDbEntity
  8
0
100
AcDbLine
 10
604.5323396833193
 20
78.74842981697168
 30
0.0
 11
607.437307850809
 21
78.74842981697168
 31
0.0
  0
CIRCLE
  5
1FE0
330
2
100
AcDbEntity
  8
HOJO
100
AcDbCircle
 10
571.3365914896996
 20
144.0697884727275
 30
0.0
 40
3.0
  0
CIRCLE
  5
1FE1
330
2
100
AcDbEntity
  8
0
100
AcDbCircle
 10
571.3365914896996
 20
144.0697884727256
 30
0.0
 40
2.399999999999999
  0
CIRCLE
  5
1FE2
330
2
100
AcDbEntity
  8
HOJO
100
AcDbCircle
 10
571.3365914896996
 20
144.0697884727256
 30
0.0
 40
3.0
  0
LINE
  5
1FE3
330
2
100
AcDbEntity
  8
0
100
AcDbLine
 10
564.9848237678404
 20
145.4215561945862
 30
0.0
 11
564.9848237678404
 21
142.4215561945862
 31
0.0
  0
LINE
  5
1FE4
330
2
100
AcDbEntity
  8
CENTER
100
AcDbLine
 10
571.3365914896996
 20
151.0697884727275
 30
0.0
 11
571.3365914896992
 21
137.0697884727275
 31
0.0
  0
LINE
  5
1FE5
330
2
100
AcDbEntity
  8
CENTER
100
AcDbLine
 10
564.3365914896996
 20
144.0697884727275
 30
0.0
 11
578.3365914896997
 21
144.0697884727275
 31
0.0
  0
ARC
  5
1FE6
330
2
100
AcDbEntity
  8
0
100
AcDbCircle
 10
526.2040324558786
 20
132.0175996347758
 30
0.0
 40
40.0
100
AcDbArc
 50
353.823003595109
 51
13.36767420262906
  0
ARC
  5
1FE7
330
2
100
AcDbEntity
  8
0
100
AcDbCircle
 10
569.9848237678404
 20
142.4215561945862
 30
0.0
 40
5.0
100
AcDbArc
 50
180.0
 51
193.367674202629
  0
ARC
  5
1FE8
330
2
100
AcDbEntity
  8
0
100
AcDbCircle
 10
605.9848237678404
 20
-19.57844380541371
 30
0.0
 40
170.0
100
AcDbArc
 50
83.82300359510905
 51
96.17699640489092
  0
ARC
  5
1FE9
330
2
100
AcDbEntity
  8
0
100
AcDbCircle
 10
583.3887803276509
 20
189.2023475065476
 30
0.0
 40
40.0
100
AcDbArc
 50
256.6323257973709
 51
276.1769964048909
  0
ARC
  5
1FEA
330
2
100
AcDbEntity
  8
0
100
AcDbCircle
 10
572.9848237678404
 20
145.4215561945862
 30
0.0
 40
5.0
100
AcDbArc
 50
76.63232579737094
 51
90.0
  0
LINE
  5
1FEB
330
2
100
AcDbEntity
  8
0
100
AcDbLine
 10
569.9848237678399
 20
150.4215561945862
 30
0.0
 11
572.9848237678404
 21
150.4215561945862
 31
0.0
  0
ARC
  5
1FEC
330
2
100
AcDbEntity
  8
0
100
AcDbCircle
 10
569.9848237678399
 20
145.4215561945862
 30
0.0
 40
5.0
100
AcDbArc
 50
90.0
 51
180.0
  0
LINE
  5
1FED
330
2
100
AcDbEntity
  8
0
100
AcDbLine
 10
704.9848237678372
 20
79.92155619458628
 30
0.0
 11
704.9848237678372
 21
138.9215561945862
 31
0.0
  0
LINE
  5
1FEF
330
2
100
AcDbEntity
  8
0
100
AcDbLine
 10
646.9848237678409
 20
73.42155619458083
 30
0.0
 11
646.9848237678409
 21
145.4215561945862
 31
0.0
  0
LINE
  5
1FF0
330
2
100
AcDbEntity
  8
0
100
AcDbLine
 10
679.9848237678404
 20
135.4215561945881
 30
0.0
 11
679.9848237678409
 21
83.42155619458266
 31
0.0
  0
LINE
  5
1FF1
330
2
100
AcDbEntity
  8
0
100
AcDbLine
 10
693.4979167305566
 20
131.4215561945862
 30
0.0
 11
693.4979167305566
 21
87.42155619458628
 31
0.0
  0
LINE
  5
1FF2
330
2
100
AcDbEntity
  8
0
100
AcDbLine
 10
696.4979167305566
 20
84.42155619458629
 30
0.0
 11
700.0027037459529
 21
84.42155619458629
 31
0.0
  0
LINE
  5
1FF3
330
2
100
AcDbEntity
  8
0
100
AcDbLine
 10
673.9848237678414
 20
77.42155619458265
 30
0.0
 11
650.9848237678404
 21
77.42155619458083
 31
0.0
  0
CIRCLE
  5
1FF4
330
2
100
AcDbEntity
  8
HOJO
100
AcDbCircle
 10
640.6330560459812
 20
74.77332391644506
 30
0.0
 40
3.0
  0
LINE
  5
1FF5
330
2
100
AcDbEntity
  8
CENTER
100
AcDbLine
 10
647.6330560459812
 20
74.77332391644506
 30
0.0
 11
633.6330560459812
 21
74.77332391644506
 31
0.0
  0
LINE
  5
1FF6
330
2
100
AcDbEntity
  8
CENTER
100
AcDbLine
 10
640.6330560459812
 20
67.77332391644506
 30
0.0
 11
640.6330560459812
 21
81.77332391644506
 31
0.0
  0
CIRCLE
  5
1FF7
330
2
100
AcDbEntity
  8
0
100
AcDbCircle
 10
640.6330560459812
 20
74.77332391644506
 30
0.0
 40
2.399999999999999
  0
CIRCLE
  5
1FF8
330
2
100
AcDbEntity
  8
HOJO
100
AcDbCircle
 10
640.6330560459812
 20
74.77332391644506
 30
0.0
 40
3.0
  0
ARC
  5
1FF9
330
2
100
AcDbEntity
  8
0
100
AcDbCircle
 10
641.9848237678409
 20
73.42155619458629
 30
0.0
 40
5.0
100
AcDbArc
 50
270.0
 51
0.0
  0
ARC
  5
1FFA
330
2
100
AcDbEntity
  8
0
100
AcDbCircle
 10
638.9848237678404
 20
73.42155619458629
 30
0.0
 40
5.0
100
AcDbArc
 50
256.6323257973709
 51
270.0
  0
LINE
  5
1FFB
330
2
100
AcDbEntity
  8
0
100
AcDbLine
 10
641.9848237678404
 20
68.42155619458629
 30
0.0
 11
638.9848237678404
 21
68.42155619458629
 31
0.0
  0
ARC
  5
1FFC
330
2
100
AcDbEntity
  8
0
100
AcDbCircle
 10
650.9848237678409
 20
73.42155619458083
 30
0.0
 40
4.0
100
AcDbArc
 50
90.0
 51
180.0
  0
ARC
  5
1FFD
330
2
100
AcDbEntity
  8
0
100
AcDbCircle
 10
673.9848237678408
 20
83.42155619458266
 30
0.0
 40
6.0
100
AcDbArc
 50
270.0
 51
0.0
  0
ARC
  5
1FFE
330
2
100
AcDbEntity
  8
0
100
AcDbCircle
 10
684.9848237678308
 20
85.42155619460448
 30
0.0
 40
5.0
100
AcDbArc
 50
90.0
 51
180.0
  0
LINE
  5
1FFF
330
2
100
AcDbEntity
  8
0
100
AcDbLine
 10
684.9848237678308
 20
90.42155619460448
 30
0.0
 11
688.7519500381424
 21
90.42155619460448
 31
0.0
  0
ARC
  5
2000
330
2
100
AcDbEntity
  8
0
100
AcDbCircle
 10
688.7519500381424
 20
85.42155619460448
 30
0.0
 40
5.0
100
AcDbArc
 50
14.47751218593027
 51
90.0
  0
LINE
  5
2001
330
2
100
AcDbEntity
  8
0
100
AcDbLine
 10
681.9324625630272
 20
86.42155619458629
 30
0.0
 11
692.4979167305566
 21
86.42155619458629
 31
0.0
  0
ARC
  5
2002
330
2
100
AcDbEntity
  8
0
100
AcDbCircle
 10
692.4979167305566
 20
84.42155619458629
 30
0.0
 40
2.0
100
AcDbArc
 50
36.86989764585379
 51
90.0
  0
ARC
  5
2003
330
2
100
AcDbEntity
  8
0
100
AcDbCircle
 10
696.4979167305566
 20
87.42155619458628
 30
0.0
 40
3.0
100
AcDbArc
 50
180.0
 51
270.0
  0
ARC
  5
2004
330
2
100
AcDbEntity
  8
0
100
AcDbCircle
 10
681.9848237678399
 20
84.42155619458629
 30
0.0
 40
2.0
100
AcDbArc
 50
90.0
 51
180.0
  0
LINE
  5
2005
330
2
100
AcDbEntity
  8
0
100
AcDbLine
 10
712.9848237678372
 20
78.42155619458629
 30
0.0
 11
706.9848237678372
 21
78.42155619458629
 31
0.0
  0
ARC
  5
2006
330
2
100
AcDbEntity
  8
0
100
AcDbCircle
 10
706.9848237678372
 20
80.42155619458629
 30
0.0
 40
2.0
100
AcDbArc
 50
180.0
 51
270.0
  0
ARC
  5
2007
330
2
100
AcDbEntity
  8
0
100
AcDbCircle
 10
706.9848237678372
 20
79.92155619458628
 30
0.0
 40
2.0
100
AcDbArc
 50
180.0
 51
270.0
  0
LINE
  5
2008
330
2
100
AcDbEntity
  8
0
100
AcDbLine
 10
712.9848237678372
 20
77.92155619458629
 30
0.0
 11
706.9848237678372
 21
77.92155619458629
 31
0.0
  0
ARC
  5
2009
330
2
100
AcDbEntity
  8
0
100
AcDbCircle
 10
700.0027037459529
 20
79.42155619458628
 30
0.0
 40
5.0
100
AcDbArc
 50
4.096043758197134
 51
90.0
  0
LINE
  5
200A
330
2
100
AcDbEntity
  8
0
100
AcDbLine
 10
696.4979167305566
 20
134.4215561945862
 30
0.0
 11
700.0027037459529
 21
134.4215561945862
 31
0.0
  0
CIRCLE
  5
200B
330
2
100
AcDbEntity
  8
HOJO
100
AcDbCircle
 10
640.6330560459812
 20
144.0697884727275
 30
0.0
 40
3.0
  0
CIRCLE
  5
200C
330
2
100
AcDbEntity
  8
0
100
AcDbCircle
 10
640.6330560459812
 20
144.0697884727256
 30
0.0
 40
2.399999999999999
  0
CIRCLE
  5
200D
330
2
100
AcDbEntity
  8
HOJO
100
AcDbCircle
 10
640.6330560459812
 20
144.0697884727256
 30
0.0
 40
3.0
  0
ARC
  5
200E
330
2
100
AcDbEntity
  8
0
100
AcDbCircle
 10
650.9848237678409
 20
145.4215561945899
 30
0.0
 40
4.0
100
AcDbArc
 50
180.0
 51
270.0
  0
LINE
  5
200F
330
2
100
AcDbEntity
  8
CENTER
100
AcDbLine
 10
640.6330560459812
 20
151.0697884727275
 30
0.0
 11
640.6330560459812
 21
137.0697884727275
 31
0.0
  0
LINE
  5
2010
330
2
100
AcDbEntity
  8
0
100
AcDbLine
 10
673.9848237678408
 20
141.4215561945881
 30
0.0
 11
650.98482376784
 21
141.4215561945899
 31
0.0
  0
LINE
  5
2011
330
2
100
AcDbEntity
  8
CENTER
100
AcDbLine
 10
647.6330560459812
 20
144.0697884727275
 30
0.0
 11
633.6330560459812
 21
144.0697884727275
 31
0.0
  0
ARC
  5
2012
330
2
100
AcDbEntity
  8
0
100
AcDbCircle
 10
673.9848237678404
 20
135.4215561945881
 30
0.0
 40
6.0
100
AcDbArc
 50
0.0
 51
89.99999999994789
  0
LINE
  5
2013
330
2
100
AcDbEntity
  8
0
100
AcDbLine
 10
681.9848237678399
 20
132.4215561945862
 30
0.0
 11
692.4979167305566
 21
132.4215561945862
 31
0.0
  0
ARC
  5
2014
330
2
100
AcDbEntity
  8
0
100
AcDbCircle
 10
696.4979167305566
 20
131.4215561945862
 30
0.0
 40
3.0
100
AcDbArc
 50
90.0
 51
180.0
  0
ARC
  5
2015
330
2
100
AcDbEntity
  8
0
100
AcDbCircle
 10
692.4979167305566
 20
134.4215561945862
 30
0.0
 40
2.0
100
AcDbArc
 50
270.0
 51
323.1301023541462
  0
ARC
  5
2016
330
2
100
AcDbEntity
  8
0
100
AcDbCircle
 10
684.9848237678308
 20
133.4215561945862
 30
0.0
 40
5.0
100
AcDbArc
 50
180.0
 51
270.0
  0
ARC
  5
2017
330
2
100
AcDbEntity
  8
0
100
AcDbCircle
 10
688.751950038142
 20
133.4215561945862
 30
0.0
 40
5.0
100
AcDbArc
 50
270.0
 51
345.5224878140697
  0
LINE
  5
2018
330
2
100
AcDbEntity
  8
0
100
AcDbLine
 10
684.9848237678308
 20
128.4215561945862
 30
0.0
 11
688.751950038142
 21
128.4215561945862
 31
0.0
  0
ARC
  5
2019
330
2
100
AcDbEntity
  8
0
100
AcDbCircle
 10
681.9848237678399
 20
134.4215561945862
 30
0.0
 40
2.0
100
AcDbArc
 50
180.0
 51
270.0
  0
LINE
  5
201A
330
2
100
AcDbEntity
  8
0
100
AcDbLine
 10
682.9848237678399
 20
111.9215561945862
 30
0.0
 11
690.4979167305566
 21
111.9215561945862
 31
0.0
  0
ARC
  5
201B
330
2
100
AcDbEntity
  8
0
100
AcDbCircle
 10
682.9848237678399
 20
114.9215561945862
 30
0.0
 40
3.0
100
AcDbArc
 50
180.0
 51
270.0
  0
ARC
  5
201C
330
2
100
AcDbEntity
  8
0
100
AcDbCircle
 10
690.4979167305566
 20
114.9215561945862
 30
0.0
 40
3.0
100
AcDbArc
 50
270.0
 51
0.0
  0
LINE
  5
201D
330
2
100
AcDbEntity
  8
0
100
AcDbLine
 10
682.9848237678399
 20
106.9215561945862
 30
0.0
 11
690.4979167305566
 21
106.9215561945862
 31
0.0
  0
ARC
  5
201E
330
2
100
AcDbEntity
  8
0
100
AcDbCircle
 10
682.9848237678399
 20
103.9215561945862
 30
0.0
 40
3.0
100
AcDbArc
 50
90.0
 51
180.0
  0
ARC
  5
201F
330
2
100
AcDbEntity
  8
0
100
AcDbCircle
 10
690.4979167305566
 20
103.9215561945862
 30
0.0
 40
3.0
100
AcDbArc
 50
0.0
 51
90.0
  0
LINE
  5
2020
330
2
100
AcDbEntity
  8
0
100
AcDbLine
 10
641.9848237678404
 20
150.4215561945862
 30
0.0
 11
638.98482376784
 21
150.4215561945862
 31
0.0
  0
ARC
  5
2021
330
2
100
AcDbEntity
  8
0
100
AcDbCircle
 10
638.98482376784
 20
145.4215561945862
 30
0.0
 40
5.0
100
AcDbArc
 50
90.0
 51
103.367674202629
  0
ARC
  5
2022
330
2
100
AcDbEntity
  8
0
100
AcDbCircle
 10
641.9848237678404
 20
145.4215561945862
 30
0.0
 40
5.0
100
AcDbArc
 50
0.0
 51
90.0
  0
LINE
  5
2023
330
2
100
AcDbEntity
  8
0
100
AcDbLine
 10
706.9848237678372
 20
140.4215561945862
 30
0.0
 11
712.9848237678372
 21
140.4215561945862
 31
0.0
  0
ARC
  5
2024
330
2
100
AcDbEntity
  8
0
100
AcDbCircle
 10
706.9848237678372
 20
138.4215561945862
 30
0.0
 40
2.0
100
AcDbArc
 50
90.0
 51
180.0
  0
LINE
  5
2025
330
2
100
AcDbEntity
  8
0
100
AcDbLine
 10
706.9848237678372
 20
140.9215561945862
 30
0.0
 11
712.9848237678372
 21
140.9215561945862
 31
0.0
  0
ARC
  5
2026
330
2
100
AcDbEntity
  8
0
100
AcDbCircle
 10
706.9848237678372
 20
138.9215561945862
 30
0.0
 40
2.0
100
AcDbArc
 50
90.0
 51
180.0
  0
ARC
  5
2027
330
2
100
AcDbEntity
  8
0
100
AcDbCircle
 10
700.0027037459529
 20
139.4215561945862
 30
0.0
 40
5.0
100
AcDbArc
 50
270.0
 51
355.9039562418028
  0
LINE
  5
2028
330
2
100
AcDbEntity
  8
0
100
AcDbLine
 10
596.984823767841
 20
323.053732218784
 30
0.0
 11
596.984823767841
 21
293.553732218784
 31
0.0
  0
LINE
  5
2029
330
2
100
AcDbEntity
  8
0
100
AcDbLine
 10
614.984823767841
 20
293.553732218784
 30
0.0
 11
614.984823767841
 21
323.053732218784
 31
0.0
  0
LINE
  5
202A
330
2
100
AcDbEntity
  8
0
100
AcDbLine
 10
597.484823767841
 20
293.053732218784
 30
0.0
 11
614.4848237678409
 21
293.053732218784
 31
0.0
  0
LINE
  5
202B
330
2
100
AcDbEntity
  8
0
100
AcDbLine
 10
614.984823767841
 20
293.553732218784
 30
0.0
 11
614.4848237678409
 21
293.053732218784
 31
0.0
  0
LINE
  5
202C
330
2
100
AcDbEntity
  8
0
100
AcDbLine
 10
597.484823767841
 20
293.053732218784
 30
0.0
 11
596.984823767841
 21
293.553732218784
 31
0.0
  0
LINE
  5
202D
330
2
100
AcDbEntity
  8
0
100
AcDbLine
 10
614.984823767841
 20
293.553732218784
 30
0.0
 11
596.984823767841
 21
293.553732218784
 31
0.0
  0
LINE
  5
202E
330
2
100
AcDbEntity
  8
0
100
AcDbLine
 10
619.696148633246
 20
324.053732218784
 30
0.0
 11
592.2734989024355
 21
324.053732218784
 31
0.0
  0
LINE
  5
202F
330
2
100
AcDbEntity
  8
0
100
AcDbLine
 10
595.984823767841
 20
323.053732218784
 30
0.0
 11
595.407473498651
 21
324.053732218784
 31
0.0
  0
LINE
  5
2030
330
2
100
AcDbEntity
  8
0
100
AcDbLine
 10
615.984823767841
 20
323.053732218784
 30
0.0
 11
595.984823767841
 21
323.053732218784
 31
0.0
  0
LINE
  5
2031
330
2
100
AcDbEntity
  8
0
100
AcDbLine
 10
615.984823767841
 20
323.053732218784
 30
0.0
 11
616.5621740370305
 21
324.053732218784
 31
0.0
  0
LINE
  5
2041
330
2
100
AcDbEntity
  8
0
100
AcDbLine
 10
869.6165162262532
 20
117.9215561945877
 30
0.0
 11
869.6165162262532
 21
100.9215561945877
 31
0.0
  0
LINE
  5
2042
330
2
100
AcDbEntity
  8
0
100
AcDbLine
 10
899.6165162262531
 20
99.42155619458777
 30
0.0
 11
899.6165162262531
 21
119.4215561945877
 31
0.0
  0
LINE
  5
2043
330
2
100
AcDbEntity
  8
0
100
AcDbLine
 10
900.6165162262531
 20
95.71023132918254
 30
0.0
 11
900.6165162262531
 21
123.132881059993
 31
0.0
  0
LINE
  5
2044
330
2
100
AcDbEntity
  8
0
100
AcDbLine
 10
870.1165162262531
 20
100.4215561945877
 30
0.0
 11
870.1165162262531
 21
118.4215561945877
 31
0.0
  0
LINE
  5
204C
330
2
100
AcDbEntity
  8
0
100
AcDbLine
 10
870.1165162262531
 20
100.4215561945877
 30
0.0
 11
899.6165162262531
 21
100.4215561945877
 31
0.0
  0
LINE
  5
204D
330
2
100
AcDbEntity
  8
0
100
AcDbLine
 10
870.1165162262531
 20
100.4215561945877
 30
0.0
 11
869.6165162262532
 21
100.9215561945877
 31
0.0
  0
ARC
  5
2057
330
2
100
AcDbEntity
  8
0
100
AcDbCircle
 10
902.0183603405625
 20
96.92160219458788
 30
0.0
 40
2.0
100
AcDbArc
 50
240.0000000000038
 51
258.4091164033851
  0
ARC
  5
2058
330
2
100
AcDbEntity
  8
0
100
AcDbCircle
 10
901.1165162262532
 20
95.71023132918254
 30
0.0
 40
0.5
100
AcDbArc
 50
180.0
 51
240.0000000000038
  0
LINE
  5
2059
330
2
100
AcDbEntity
  8
0
100
AcDbLine
 10
899.6165162262531
 20
99.42155619458777
 30
0.0
 11
900.6165162262531
 21
98.844205925398
 31
0.0
  0
LINE
  5
205A
330
2
100
AcDbEntity
  8
0
100
AcDbLine
 10
901.0183603405625
 20
95.18955138701882
 30
0.0
 11
900.8665162262532
 21
95.27721862729027
 31
0.0
  0
LINE
  5
2084
330
2
100
AcDbEntity
  8
0
100
AcDbLine
 10
899.6165162262531
 20
118.4215561945877
 30
0.0
 11
870.1165162262531
 21
118.4215561945877
 31
0.0
  0
LINE
  5
2085
330
2
100
AcDbEntity
  8
0
100
AcDbLine
 10
869.6165162262532
 20
117.9215561945877
 30
0.0
 11
870.1165162262531
 21
118.4215561945877
 31
0.0
  0
LINE
  5
208F
330
2
100
AcDbEntity
  8
0
100
AcDbLine
 10
899.6165162262531
 20
119.4215561945877
 30
0.0
 11
900.6165162262531
 21
119.9989064637775
 31
0.0
  0
ARC
  5
2090
330
2
100
AcDbEntity
  8
0
100
AcDbCircle
 10
902.0183603405625
 20
121.9215101945876
 30
0.0
 40
2.0
100
AcDbArc
 50
101.5908835966684
 51
119.999999999996
  0
ARC
  5
2091
330
2
100
AcDbEntity
  8
0
100
AcDbCircle
 10
901.1165162262532
 20
123.132881059993
 30
0.0
 40
0.5
100
AcDbArc
 50
119.999999999996
 51
180.0
  0
LINE
  5
2092
330
2
100
AcDbEntity
  8
0
100
AcDbLine
 10
901.0183603405625
 20
123.6535610021567
 30
0.0
 11
900.8665162262532
 21
123.5658937618852
 31
0.0
  0
LINE
  5
20C5
330
2
100
AcDbEntity
  8
0
100
AcDbLine
 10
693.408322405682
 20
398.1322630633326
 30
0.0
 11
692.8301757286275
 21
376.0537322187842
 31
0.0
  0
LINE
  5
20C6
330
2
100
AcDbEntity
  8
0
100
AcDbLine
 10
704.9338228597347
 20
405.1060861153996
 30
0.0
 11
704.1730601991925
 21
376.0537322187842
 31
0.0
  0
LINE
  5
20C7
330
2
100
AcDbEntity
  8
0
100
AcDbLine
 10
673.9979167286268
 20
401.0537322187842
 30
0.0
 11
674.627064313803
 21
377.0275552704765
 31
0.0
  0
LINE
  5
20C8
330
2
100
AcDbEntity
  8
0
100
AcDbLine
 10
641.9848237678433
 20
401.0537322187842
 30
0.0
 11
641.9848237678433
 21
344.5537322187842
 31
0.0
  0
LINE
  5
20C9
330
2
100
AcDbEntity
  8
0
100
AcDbLine
 10
638.9848237678424
 20
401.0537322187842
 30
0.0
 11
638.9848237678424
 21
344.5537322187842
 31
0.0
  0
LINE
  5
20CA
330
2
100
AcDbEntity
  8
0
100
AcDbLine
 10
646.9804603339456
 20
401.0537322187842
 30
0.0
 11
646.4743020020822
 21
343.0537322187842
 31
0.0
  0
LINE
  5
20CB
330
2
100
AcDbEntity
  8
0
100
AcDbLine
 10
679.9848237678424
 20
401.0537322187842
 30
0.0
 11
680.2029954625912
 21
376.0537322187842
 31
0.0
  0
LINE
  5
20CC
330
2
100
AcDbEntity
  8
0
100
AcDbLine
 10
564.9848237678424
 20
401.0537322187842
 30
0.0
 11
565.4909820997066
 21
343.0537322187842
 31
0.0
  0
LINE
  5
20CD
330
2
100
AcDbEntity
  8
0
100
AcDbLine
 10
624.2768589337109
 20
401.0537322187842
 30
0.0
 11
624.2768589337109
 21
344.5537322187842
 31
0.0
  0
LINE
  5
20CE
330
2
100
AcDbEntity
  8
0
100
AcDbLine
 10
587.6927886019783
 20
401.0537322187842
 30
0.0
 11
587.6927886019783
 21
344.5537322187842
 31
0.0
  0
LINE
  5
20CF
330
2
100
AcDbEntity
  8
0
100
AcDbLine
 10
572.9848237678432
 20
401.0537322187842
 30
0.0
 11
572.9848237678441
 21
344.5537322187842
 31
0.0
  0
LINE
  5
20D0
330
2
100
AcDbEntity
  8
0
100
AcDbLine
 10
569.9848237678432
 20
401.0537322187842
 30
0.0
 11
569.9848237678432
 21
344.5537322187842
 31
0.0
  0
LINE
  5
20D1
330
2
100
AcDbEntity
  8
CENTER
100
AcDbLine
 10
605.9848237678428
 20
433.0537322187878
 30
0.0
 11
605.9848237678424
 21
283.053732218784
 31
0.0
  0
LINE
  5
20D3
330
2
100
AcDbEntity
  8
0
100
AcDbLine
 10
570.9848237678423
 20
338.0537322187842
 30
0.0
 11
640.9848237678423
 21
338.0537322187842
 31
0.0
  0
LINE
  5
20D4
330
2
100
AcDbEntity
  8
0
100
AcDbLine
 10
565.4909820997066
 20
343.0537322187842
 30
0.0
 11
646.4743020020822
 21
343.0537322187842
 31
0.0
  0
LINE
  5
20D5
330
2
100
AcDbEntity
  8
0
100
AcDbLine
 10
579.9162013174576
 20
325.0537322187824
 30
0.0
 11
632.0534462182271
 21
325.0537322187842
 31
0.0
  0
LINE
  5
20D6
330
2
100
AcDbEntity
  8
0
100
AcDbLine
 10
570.9848237678428
 20
338.053732218786
 30
0.0
 11
575.6960930456005
 21
338.053732218786
 31
0.0
  0
LINE
  5
20D7
330
2
100
AcDbEntity
  8
0
100
AcDbLine
 10
570.9848237678423
 20
343.0537322187842
 30
0.0
 11
570.9848237678423
 21
338.0537322187842
 31
0.0
  0
ARC
  5
20D8
330
2
100
AcDbEntity
  8
0
100
AcDbCircle
 10
575.599476214836
 20
336.0537322187842
 30
0.0
 40
2.0
100
AcDbArc
 50
2.000000000003612
 51
90.0
  0
ARC
  5
20D9
330
2
100
AcDbEntity
  8
0
100
AcDbCircle
 10
579.9162013174576
 20
327.0537322187842
 30
0.0
 40
2.0
100
AcDbArc
 50
182.0000000000036
 51
270.0
  0
LINE
  5
20DA
330
2
100
AcDbEntity
  8
0
100
AcDbLine
 10
577.9174196634198
 20
326.9839332253791
 30
0.0
 11
577.5982578688739
 21
336.1235312121893
 31
0.0
  0
ARC
  5
20DB
330
2
100
AcDbEntity
  8
0
100
AcDbCircle
 10
593.4848697678411
 20
325.4555763330934
 30
0.0
 40
2.0
100
AcDbArc
 50
191.5908835966685
 51
209.9999999999961
  0
ARC
  5
20DC
330
2
100
AcDbEntity
  8
0
100
AcDbCircle
 10
592.2734989024355
 20
324.553732218784
 30
0.0
 40
0.5
100
AcDbArc
 50
209.9999999999961
 51
270.0
  0
LINE
  5
20DD
330
2
100
AcDbEntity
  8
0
100
AcDbLine
 10
591.752818960272
 20
324.4555763330934
 30
0.0
 11
591.840486200543
 21
324.303732218784
 31
0.0
  0
ARC
  5
20DE
330
2
100
AcDbEntity
  8
0
100
AcDbCircle
 10
618.4847777678409
 20
325.4555763330934
 30
0.0
 40
2.0
100
AcDbArc
 50
330.0000000000039
 51
348.4091164033852
  0
ARC
  5
20DF
330
2
100
AcDbEntity
  8
0
100
AcDbCircle
 10
619.696148633246
 20
324.553732218784
 30
0.0
 40
0.5
100
AcDbArc
 50
270.0
 51
330.0000000000039
  0
LINE
  5
20E0
330
2
100
AcDbEntity
  8
0
100
AcDbLine
 10
620.2168285754099
 20
324.4555763330934
 30
0.0
 11
620.129161335138
 21
324.303732218784
 31
0.0
  0
LINE
  5
20E1
330
2
100
AcDbEntity
  8
0
100
AcDbLine
 10
696.4072943806075
 20
351.0537322191589
 30
0.0
 11
700.0049342793562
 21
351.0537322191589
 31
0.0
  0
LINE
  5
20E2
330
2
100
AcDbEntity
  8
0
100
AcDbLine
 10
679.9497639860359
 20
347.036279147785
 30
0.0
 11
680.2029954626113
 21
376.0537322187842
 31
0.0
  0
LINE
  5
20E3
330
2
100
AcDbEntity
  8
0
100
AcDbLine
 10
677.9498401399081
 20
345.0537322187824
 30
0.0
 11
647.9787225535559
 21
345.0537322187788
 31
0.0
  0
LINE
  5
20E4
330
2
100
AcDbEntity
  8
0
100
AcDbLine
 10
640.9848237678428
 20
338.053732218786
 30
0.0
 11
636.273554490085
 21
338.053732218786
 31
0.0
  0
LINE
  5
20E5
330
2
100
AcDbEntity
  8
0
100
AcDbLine
 10
640.9848237678423
 20
343.0537322187842
 30
0.0
 11
640.9848237678423
 21
338.0537322187842
 31
0.0
  0
ARC
  5
20E6
330
2
100
AcDbEntity
  8
0
100
AcDbCircle
 10
636.3701713208487
 20
336.0537322187842
 30
0.0
 40
2.0
100
AcDbArc
 50
90.0
 51
177.9999999999963
  0
ARC
  5
20E7
330
2
100
AcDbEntity
  8
0
100
AcDbCircle
 10
632.0534462182271
 20
327.0537322187842
 30
0.0
 40
2.0
100
AcDbArc
 50
270.0
 51
357.9999999999964
  0
LINE
  5
20E8
330
2
100
AcDbEntity
  8
0
100
AcDbLine
 10
634.0522278722659
 20
326.9839332253791
 30
0.0
 11
634.3713896668108
 21
336.1235312121893
 31
0.0
  0
ARC
  5
20E9
330
2
100
AcDbEntity
  8
0
100
AcDbCircle
 10
647.9787225535564
 20
343.5537322187788
 30
0.0
 40
1.5
100
AcDbArc
 50
90.0
 51
179.5000000000344
  0
ARC
  5
20EA
330
2
100
AcDbEntity
  8
0
100
AcDbCircle
 10
677.9498401399081
 20
347.0537322187824
 30
0.0
 40
2.0
100
AcDbArc
 50
270.0
 51
359.5000000000345
  0
ARC
  5
20EB
330
2
100
AcDbEntity
  8
0
100
AcDbCircle
 10
681.9848237678423
 20
351.0537322187824
 30
0.0
 40
2.0
100
AcDbArc
 50
90.0
 51
180.0
  0
LINE
  5
20EC
330
2
100
AcDbEntity
  8
0
100
AcDbLine
 10
692.4072943808895
 20
353.0537322187824
 30
0.0
 11
681.9848999246122
 21
353.0537322187824
 31
0.0
  0
ARC
  5
20ED
330
2
100
AcDbEntity
  8
0
100
AcDbCircle
 10
684.9848237678424
 20
352.0537322187824
 30
0.0
 40
5.0
100
AcDbArc
 50
90.0
 51
180.0
  0
LINE
  5
20EE
330
2
100
AcDbEntity
  8
0
100
AcDbLine
 10
688.6613276882898
 20
357.0537322187824
 30
0.0
 11
684.9848237678428
 21
357.0537322187824
 31
0.0
  0
ARC
  5
20EF
330
2
100
AcDbEntity
  8
0
100
AcDbCircle
 10
688.6613276882898
 20
352.0537322187824
 30
0.0
 40
5.0
100
AcDbArc
 50
14.4775121887282
 51
90.0
  0
ARC
  5
20F0
330
2
100
AcDbEntity
  8
0
100
AcDbCircle
 10
692.4072943808895
 20
351.0537322187824
 30
0.0
 40
2.0
100
AcDbArc
 50
36.86989765121137
 51
90.0
  0
ARC
  5
20F1
330
2
100
AcDbEntity
  8
0
100
AcDbCircle
 10
696.4072943806075
 20
354.0537322191589
 30
0.0
 40
3.0
100
AcDbArc
 50
181.4999999999897
 51
270.0
  0
LINE
  5
20F2
330
2
100
AcDbEntity
  8
0
100
AcDbLine
 10
693.408322405682
 20
353.9752013742358
 30
0.0
 11
692.8301757286275
 21
376.0537322187842
 31
0.0
  0
ARC
  5
20F3
330
2
100
AcDbEntity
  8
0
100
AcDbCircle
 10
689.9731699197844
 20
370.5537322187842
 30
0.0
 40
3.0
100
AcDbArc
 50
1.499999999989714
 51
90.0
  0
ARC
  5
20F4
330
2
100
AcDbEntity
  8
0
100
AcDbCircle
 10
689.9731699197844
 20
381.5537322187842
 30
0.0
 40
3.0
100
AcDbArc
 50
270.0
 51
358.5000000000102
  0
LINE
  5
20F5
330
2
100
AcDbEntity
  8
0
100
AcDbLine
 10
683.1551119249192
 20
373.5537322187842
 30
0.0
 11
689.9731699197844
 21
373.5537322187842
 31
0.0
  0
LINE
  5
20F6
330
2
100
AcDbEntity
  8
0
100
AcDbLine
 10
683.1551119249037
 20
378.5537322187842
 30
0.0
 11
689.9731699197849
 21
378.5537322187842
 31
0.0
  0
ARC
  5
20F7
330
2
100
AcDbEntity
  8
0
100
AcDbCircle
 10
675.6267216387786
 20
377.0537322187842
 30
0.0
 40
1.0
100
AcDbArc
 50
181.4999999999897
 51
270.0
  0
LINE
  5
20F8
330
2
100
AcDbEntity
  8
0
100
AcDbLine
 10
675.6267216387786
 20
376.0537322187842
 30
0.0
 11
679.9848237678424
 21
376.0537322187842
 31
0.0
  0
ARC
  5
20F9
330
2
100
AcDbEntity
  8
0
100
AcDbCircle
 10
683.1551119249192
 20
370.5537322187842
 30
0.0
 40
3.0
100
AcDbArc
 50
90.0
 51
179.5000000000344
  0
ARC
  5
20FA
330
2
100
AcDbEntity
  8
0
100
AcDbCircle
 10
683.1551119249037
 20
381.5537322187842
 30
0.0
 40
3.0
100
AcDbArc
 50
180.4999999999655
 51
270.0
  0
ARC
  5
20FB
330
2
100
AcDbEntity
  8
0
100
AcDbCircle
 10
700.0049342793562
 20
346.0537322191589
 30
0.0
 40
5.0
100
AcDbArc
 50
8.213210698669559
 51
90.0
  0
LINE
  5
20FC
330
2
100
AcDbEntity
  8
0
100
AcDbLine
 10
704.9338228597347
 20
347.001378322167
 30
0.0
 11
704.1730601991925
 21
376.0537322187842
 31
0.0
  0
ARC
  5
20FD
330
2
100
AcDbEntity
  8
0
100
AcDbCircle
 10
706.9331375096862
 20
347.0537322187842
 30
0.0
 40
2.0
100
AcDbArc
 50
181.4999999999897
 51
270.0
  0
LINE
  5
20FE
330
2
100
AcDbEntity
  8
0
100
AcDbLine
 10
712.9848237678428
 20
345.0537322187842
 30
0.0
 11
706.9331375096862
 21
345.0537322187842
 31
0.0
  0
LINE
  5
20FF
330
2
100
AcDbEntity
  8
0
100
AcDbLine
 10
704.1730601991925
 20
376.0537322187842
 30
0.0
 11
712.984823764816
 21
376.0537322187842
 31
0.0
  0
LINE
  5
2100
330
2
100
AcDbEntity
  8
0
100
AcDbLine
 10
579.6848237678417
 20
420.5537322187842
 30
0.0
 11
632.2848237678425
 21
420.5537322187842
 31
0.0
  0
LINE
  5
2101
330
2
100
AcDbEntity
  8
0
100
AcDbLine
 10
634.4848237678424
 20
415.0537322187861
 30
0.0
 11
577.4848237678447
 21
415.0537322187861
 31
0.0
  0
LINE
  5
2102
330
2
100
AcDbEntity
  8
0
100
AcDbLine
 10
576.4848237678342
 20
413.5537322187879
 30
0.0
 11
645.9848237678423
 21
413.5537322187879
 31
0.0
  0
LINE
  5
2103
330
2
100
AcDbEntity
  8
0
100
AcDbLine
 10
576.4848237678342
 20
414.5537322187896
 30
0.0
 11
636.5706102054694
 21
414.5537322187896
 31
0.0
  0
LINE
  5
2104
330
2
100
AcDbEntity
  8
0
100
AcDbLine
 10
580.0621740370332
 20
423.0537322187879
 30
0.0
 11
631.9074734986519
 21
423.0537322187879
 31
0.0
  0
LINE
  5
2105
330
2
100
AcDbEntity
  8
0
100
AcDbLine
 10
632.2848237678425
 20
418.553732218786
 30
0.0
 11
579.6848237678836
 21
418.5537322188243
 31
0.0
  0
LINE
  5
2106
330
2
100
AcDbEntity
  8
0
100
AcDbLine
 10
679.9848237678424
 20
401.0537322187897
 30
0.0
 11
564.9848237678424
 21
401.0537322187806
 31
0.0
  0
LINE
  5
2107
330
2
100
AcDbEntity
  8
0
100
AcDbLine
 10
579.4848237678414
 20
422.0537322187842
 30
0.0
 11
632.4848237678428
 21
422.053732218786
 31
0.0
  0
LINE
  5
2108
330
2
100
AcDbEntity
  8
0
100
AcDbLine
 10
632.4848237678428
 20
418.3537322187853
 30
0.0
 11
579.4848237678419
 21
418.3537322187835
 31
0.0
  0
LINE
  5
2109
330
2
100
AcDbEntity
  8
0
100
AcDbLine
 10
579.4848237678419
 20
418.3537322187835
 30
0.0
 11
579.4848237678423
 21
415.0537322187842
 31
0.0
  0
LINE
  5
210A
330
2
100
AcDbEntity
  8
HIDS
100
AcDbLine
 10
574.2777169866543
 20
413.846625437603
 30
0.0
 11
574.6919305490263
 21
414.2608389999745
 31
0.0
  0
LINE
  5
210B
330
2
100
AcDbEntity
  8
0
100
AcDbLine
 10
577.4848237678447
 20
415.0537322187861
 30
0.0
 11
576.9848237678428
 21
414.5537322187824
 31
0.0
  0
LINE
  5
210C
330
2
100
AcDbEntity
  8
0
100
AcDbLine
 10
579.4848237678414
 20
422.0537322187842
 30
0.0
 11
580.062174037031
 21
423.0537322187842
 31
0.0
  0
LINE
  5
210D
330
2
100
AcDbEntity
  8
0
100
AcDbLine
 10
580.1848237678417
 20
420.3537322187835
 30
0.0
 11
580.1848237678417
 21
418.7537322187831
 31
0.0
  0
LINE
  5
210E
330
2
100
AcDbEntity
  8
0
100
AcDbLine
 10
579.6848237678422
 20
418.5537322187842
 30
0.0
 11
579.4848237678419
 21
418.3537322187835
 31
0.0
  0
LINE
  5
210F
330
2
100
AcDbEntity
  8
0
100
AcDbLine
 10
579.4848237678414
 20
422.0537322187842
 30
0.0
 11
579.4848237678419
 21
420.7537322187831
 31
0.0
  0
LINE
  5
2110
330
2
100
AcDbEntity
  8
0
100
AcDbLine
 10
566.0852208258218
 20
413.5537322187879
 30
0.0
 11
566.4848237678342
 21
413.5537322187879
 31
0.0
  0
LINE
  5
2111
330
2
100
AcDbEntity
  8
HIDS
100
AcDbLine
 10
566.4848237678342
 20
413.5537322187879
 30
0.0
 11
576.4848237678342
 21
413.5537322187879
 31
0.0
  0
ARC
  5
2112
330
2
100
AcDbEntity
  8
0
100
AcDbCircle
 10
566.0852208258218
 20
412.5537322187879
 30
0.0
 40
1.0
100
AcDbArc
 50
90.0
 51
179.5000000000344
  0
LINE
  5
2113
330
2
100
AcDbEntity
  8
HIDS
100
AcDbLine
 10
575.3990373302129
 20
414.5537322187896
 30
0.0
 11
576.4848237678342
 21
414.5537322187896
 31
0.0
  0
LINE
  5
2114
330
2
100
AcDbEntity
  8
0
100
AcDbLine
 10
564.9848237678424
 20
401.0537322187806
 30
0.0
 11
565.085258902758
 21
412.5624587542874
 31
0.0
  0
ARC
  5
2115
330
2
100
AcDbEntity
  8
HIDS
100
AcDbCircle
 10
575.3990373302129
 20
413.5537322187879
 30
0.0
 40
1.0
100
AcDbArc
 50
90.0
 51
135.0000000000092
  0
ARC
  5
2116
330
2
100
AcDbEntity
  8
HIDS
100
AcDbCircle
 10
573.5706102054672
 20
414.5537322187879
 30
0.0
 40
1.0
100
AcDbArc
 50
270.0
 51
315.0000000000092
  0
ARC
  5
2117
330
2
100
AcDbEntity
  8
0
100
AcDbCircle
 10
579.6848237678417
 20
420.7537322187831
 30
0.0
 40
0.2
100
AcDbArc
 50
180.0
 51
270.0
  0
ARC
  5
2118
330
2
100
AcDbEntity
  8
0
100
AcDbCircle
 10
579.9848237678419
 20
420.3537322187835
 30
0.0
 40
0.2
100
AcDbArc
 50
0.0
 51
90.0
  0
ARC
  5
2119
330
2
100
AcDbEntity
  8
0
100
AcDbCircle
 10
579.9848237678419
 20
418.7537322187831
 30
0.0
 40
0.2
100
AcDbArc
 50
270.0
 51
0.0
  0
LINE
  5
211A
330
2
100
AcDbEntity
  8
0
100
AcDbLine
 10
569.9848237678428
 20
401.0537322187824
 30
0.0
 11
569.9848237678428
 21
407.5624587542875
 31
0.0
  0
LINE
  5
211B
330
2
100
AcDbEntity
  8
0
100
AcDbLine
 10
572.9848237678428
 20
401.0537322187824
 30
0.0
 11
572.9848237678428
 21
407.5624587542875
 31
0.0
  0
LINE
  5
211C
330
2
100
AcDbEntity
  8
0
100
AcDbLine
 10
587.6927886019752
 20
401.0537322187824
 30
0.0
 11
587.6927886019752
 21
412.5537322187879
 31
0.0
  0
LINE
  5
211D
330
2
100
AcDbEntity
  8
0
100
AcDbLine
 10
578.5198073943274
 20
412.5624587542874
 30
0.0
 11
578.4891491240772
 21
409.0493689510399
 31
0.0
  0
LINE
  5
211E
330
2
100
AcDbEntity
  8
0
100
AcDbLine
 10
577.9891681625453
 20
408.5537322187897
 30
0.0
 11
566.0415864868681
 21
408.5537322187897
 31
0.0
  0
ARC
  5
211F
330
2
100
AcDbEntity
  8
0
100
AcDbCircle
 10
579.5197693173953
 20
412.5537322187897
 30
0.0
 40
1.0
100
AcDbArc
 50
90.0
 51
179.5000000000344
  0
ARC
  5
2120
330
2
100
AcDbEntity
  8
0
100
AcDbCircle
 10
577.9891681625457
 20
409.0537322187897
 30
0.0
 40
0.5
100
AcDbArc
 50
269.9999999999478
 51
359.5000000000345
  0
ARC
  5
2121
330
2
100
AcDbEntity
  8
0
100
AcDbCircle
 10
566.0415864868681
 20
407.5537322187897
 30
0.0
 40
1.0
100
AcDbArc
 50
90.0
 51
179.5000000000344
  0
LINE
  5
2122
330
2
100
AcDbEntity
  8
CENTER
100
AcDbLine
 10
571.4848237678346
 20
398.0537322187842
 30
0.0
 11
571.4848237678341
 21
419.0537322187897
 31
0.0
  0
LINE
  5
2123
330
2
100
AcDbEntity
  8
0
100
AcDbLine
 10
576.4848237678342
 20
415.65373221879
 30
0.0
 11
575.7920034448065
 21
416.0537322187897
 31
0.0
  0
LINE
  5
2124
330
2
100
AcDbEntity
  8
0
100
AcDbLine
 10
576.4848237678342
 20
410.0537322187896
 30
0.0
 11
566.4848237678342
 21
410.0537322187896
 31
0.0
  0
LINE
  5
2125
330
2
100
AcDbEntity
  8
0
100
AcDbLine
 10
576.4848237678342
 20
415.65373221879
 30
0.0
 11
566.4848237678342
 21
415.65373221879
 31
0.0
  0
LINE
  5
2126
330
2
100
AcDbEntity
  8
0
100
AcDbLine
 10
576.4848237678342
 20
408.5537322187897
 30
0.0
 11
576.4848237678342
 21
415.65373221879
 31
0.0
  0
LINE
  5
2127
330
2
100
AcDbEntity
  8
0
100
AcDbLine
 10
566.4848237678342
 20
408.5537322187897
 30
0.0
 11
566.4848237678342
 21
415.65373221879
 31
0.0
  0
LINE
  5
2128
330
2
100
AcDbEntity
  8
0
100
AcDbLine
 10
566.4848237678342
 20
415.65373221879
 30
0.0
 11
567.1776440908619
 21
416.0537322187897
 31
0.0
  0
LINE
  5
2129
330
2
100
AcDbEntity
  8
0
100
AcDbLine
 10
575.7920034448065
 20
416.0537322187897
 30
0.0
 11
567.1776440908614
 21
416.0537322187897
 31
0.0
  0
LINE
  5
212A
330
2
100
AcDbEntity
  8
0
100
AcDbLine
 10
566.4848237678342
 20
408.5537322187897
 30
0.0
 11
576.4848237678342
 21
408.5537322187897
 31
0.0
  0
LINE
  5
212B
330
2
100
AcDbEntity
  8
0
100
AcDbLine
 10
624.2768589337096
 20
401.0537322187824
 30
0.0
 11
624.2768589337096
 21
412.5537322187879
 31
0.0
  0
LINE
  5
212C
330
2
100
AcDbEntity
  8
0
100
AcDbLine
 10
696.4072943806075
 20
401.0537322184095
 30
0.0
 11
700.0049342793562
 21
401.0537322184095
 31
0.0
  0
LINE
  5
212D
330
2
100
AcDbEntity
  8
0
100
AcDbLine
 10
647.9848237678424
 20
411.5537322187897
 30
0.0
 11
668.4848237678428
 21
411.5537322187897
 31
0.0
  0
LINE
  5
212E
330
2
100
AcDbEntity
  8
0
100
AcDbLine
 10
632.4848237678428
 20
418.3537322187853
 30
0.0
 11
632.4848237678423
 21
415.0537322187861
 31
0.0
  0
LINE
  5
212F
330
2
100
AcDbEntity
  8
0
100
AcDbLine
 10
632.4848237678428
 20
415.0537322187897
 30
0.0
 11
634.4848237678369
 21
415.0537322187897
 31
0.0
  0
LINE
  5
2130
330
2
100
AcDbEntity
  8
0
100
AcDbLine
 10
634.4848237678424
 20
415.0537322187861
 30
0.0
 11
634.9848237678424
 21
414.5537322187861
 31
0.0
  0
LINE
  5
2131
330
2
100
AcDbEntity
  8
0
100
AcDbLine
 10
637.6919305490304
 20
413.846625437603
 30
0.0
 11
637.2777169866566
 21
414.2608389999764
 31
0.0
  0
ARC
  5
2132
330
2
100
AcDbEntity
  8
0
100
AcDbCircle
 10
647.9848237678424
 20
412.5537322187897
 30
0.0
 40
1.0
100
AcDbArc
 50
180.0
 51
270.0
  0
ARC
  5
2133
330
2
100
AcDbEntity
  8
0
100
AcDbCircle
 10
645.9848237678423
 20
412.5537322187879
 30
0.0
 40
1.0
100
AcDbArc
 50
0.0
 51
90.0
  0
LINE
  5
2134
330
2
100
AcDbEntity
  8
0
100
AcDbLine
 10
646.9848237678424
 20
412.5537322187897
 30
0.0
 11
646.9848237678424
 21
412.5537322187879
 31
0.0
  0
LINE
  5
2135
330
2
100
AcDbEntity
  8
0
100
AcDbLine
 10
632.4848237678428
 20
422.053732218786
 30
0.0
 11
632.4848237678428
 21
420.753732218785
 31
0.0
  0
LINE
  5
2136
330
2
100
AcDbEntity
  8
0
100
AcDbLine
 10
632.2848237678425
 20
418.553732218786
 30
0.0
 11
632.4848237678428
 21
418.3537322187853
 31
0.0
  0
LINE
  5
2137
330
2
100
AcDbEntity
  8
0
100
AcDbLine
 10
631.784823767843
 20
420.3537322187854
 30
0.0
 11
631.7848237678425
 21
418.7537322187849
 31
0.0
  0
LINE
  5
2138
330
2
100
AcDbEntity
  8
0
100
AcDbLine
 10
632.4848237678428
 20
422.053732218786
 30
0.0
 11
631.9074734986533
 21
423.0537322187861
 31
0.0
  0
ARC
  5
2139
330
2
100
AcDbEntity
  8
0
100
AcDbCircle
 10
636.5706102054694
 20
413.5537322187897
 30
0.0
 40
1.0
100
AcDbArc
 50
44.99999999999078
 51
90.0
  0
ARC
  5
213A
330
2
100
AcDbEntity
  8
0
100
AcDbCircle
 10
638.3990373302175
 20
414.5537322187879
 30
0.0
 40
1.0
100
AcDbArc
 50
224.9999999999908
 51
270.0
  0
ARC
  5
213B
330
2
100
AcDbEntity
  8
0
100
AcDbCircle
 10
632.2848237678425
 20
420.753732218785
 30
0.0
 40
0.2
100
AcDbArc
 50
270.0
 51
0.0
  0
ARC
  5
213C
330
2
100
AcDbEntity
  8
0
100
AcDbCircle
 10
631.9848237678428
 20
420.3537322187854
 30
0.0
 40
0.2
100
AcDbArc
 50
90.0
 51
180.0
  0
ARC
  5
213D
330
2
100
AcDbEntity
  8
0
100
AcDbCircle
 10
631.9848237678428
 20
418.7537322187849
 30
0.0
 40
0.2
100
AcDbArc
 50
180.0
 51
270.0
  0
LINE
  5
213E
330
2
100
AcDbEntity
  8
0
100
AcDbLine
 10
646.9848237678424
 20
412.5537322187879
 30
0.0
 11
646.9848237678424
 21
401.053732218786
 31
0.0
  0
LINE
  5
213F
330
2
100
AcDbEntity
  8
0
100
AcDbLine
 10
641.9848237678428
 20
401.0537322187824
 30
0.0
 11
641.9848237678428
 21
412.5537322187879
 31
0.0
  0
LINE
  5
2140
330
2
100
AcDbEntity
  8
0
100
AcDbLine
 10
638.9848237678428
 20
401.0537322187824
 30
0.0
 11
638.9848237678428
 21
412.5537322187879
 31
0.0
  0
ARC
  5
2141
330
2
100
AcDbEntity
  8
0
100
AcDbCircle
 10
696.4072943806075
 20
398.0537322184095
 30
0.0
 40
3.0
100
AcDbArc
 50
90.0
 51
178.5000000000102
  0
ARC
  5
2142
330
2
100
AcDbEntity
  8
0
100
AcDbCircle
 10
692.4072943808895
 20
401.0537322187842
 30
0.0
 40
2.0
100
AcDbArc
 50
270.0
 51
323.1301023487886
  0
LINE
  5
2143
330
2
100
AcDbEntity
  8
0
100
AcDbLine
 10
692.4072943808895
 20
399.0537322187842
 30
0.0
 11
681.9848999246122
 21
399.0537322187842
 31
0.0
  0
ARC
  5
2144
330
2
100
AcDbEntity
  8
0
100
AcDbCircle
 10
681.9848237678423
 20
401.0537322187842
 30
0.0
 40
2.0
100
AcDbArc
 50
180.0
 51
270.0
  0
ARC
  5
2145
330
2
100
AcDbEntity
  8
0
100
AcDbCircle
 10
684.9848237678424
 20
400.0537322187843
 30
0.0
 40
5.0
100
AcDbArc
 50
180.0
 51
270.0
  0
LINE
  5
2146
330
2
100
AcDbEntity
  8
0
100
AcDbLine
 10
688.6613276882898
 20
395.0537322187842
 30
0.0
 11
684.9848237678428
 21
395.0537322187842
 31
0.0
  0
ARC
  5
2147
330
2
100
AcDbEntity
  8
0
100
AcDbCircle
 10
688.6613276882898
 20
400.0537322187843
 30
0.0
 40
5.0
100
AcDbArc
 50
270.0
 51
345.5224878112717
  0
LINE
  5
2148
330
2
100
AcDbEntity
  8
0
100
AcDbLine
 10
678.4848237678428
 20
411.5537322187897
 30
0.0
 11
678.9018804454439
 21
411.5537322187897
 31
0.0
  0
LINE
  5
2149
330
2
100
AcDbEntity
  8
0
100
AcDbLine
 10
666.9848237678428
 20
408.5537322187897
 30
0.0
 11
678.9280610488166
 21
408.5537322187897
 31
0.0
  0
LINE
  5
214A
330
2
100
AcDbEntity
  8
0
100
AcDbLine
 10
679.9848237678428
 20
401.0537322187879
 30
0.0
 11
679.9018423685082
 21
410.5624587542875
 31
0.0
  0
ARC
  5
214B
330
2
100
AcDbEntity
  8
0
100
AcDbCircle
 10
678.9280610488166
 20
407.5537322187897
 30
0.0
 40
1.0
100
AcDbArc
 50
0.4999999999654926
 51
90.0
  0
ARC
  5
214C
330
2
100
AcDbEntity
  8
0
100
AcDbCircle
 10
678.9018804454439
 20
410.5537322187897
 30
0.0
 40
1.0
100
AcDbArc
 50
0.4999999999654926
 51
90.0
  0
LINE
  5
214D
330
2
100
AcDbEntity
  8
0
100
AcDbLine
 10
679.9848237678424
 20
401.0537322187897
 30
0.0
 11
676.4848237678424
 21
401.0537322187879
 31
0.0
  0
LINE
  5
214E
330
2
100
AcDbEntity
  8
0
100
AcDbLine
 10
666.4848237678428
 20
410.5537322187897
 30
0.0
 11
666.4848237678428
 21
409.0537322187897
 31
0.0
  0
ARC
  5
214F
330
2
100
AcDbEntity
  8
0
100
AcDbCircle
 10
665.4848237678428
 20
410.5537322187897
 30
0.0
 40
1.0
100
AcDbArc
 50
0.0
 51
90.0
  0
ARC
  5
2150
330
2
100
AcDbEntity
  8
0
100
AcDbCircle
 10
666.9848237678428
 20
409.0537322187897
 30
0.0
 40
0.5
100
AcDbArc
 50
180.0
 51
270.0
  0
LINE
  5
2151
330
2
100
AcDbEntity
  8
CENTER
100
AcDbLine
 10
673.4848237678437
 20
398.0537322187842
 30
0.0
 11
673.4848237678428
 21
419.0537322187897
 31
0.0
  0
LINE
  5
2152
330
2
100
AcDbEntity
  8
0
100
AcDbLine
 10
678.4848237678428
 20
415.65373221879
 30
0.0
 11
677.7920034448156
 21
416.0537322187897
 31
0.0
  0
LINE
  5
2153
330
2
100
AcDbEntity
  8
0
100
AcDbLine
 10
678.4848237678428
 20
410.0537322187896
 30
0.0
 11
668.4848237678428
 21
410.0537322187896
 31
0.0
  0
LINE
  5
2154
330
2
100
AcDbEntity
  8
0
100
AcDbLine
 10
678.4848237678428
 20
415.65373221879
 30
0.0
 11
668.4848237678428
 21
415.65373221879
 31
0.0
  0
LINE
  5
2155
330
2
100
AcDbEntity
  8
0
100
AcDbLine
 10
678.4848237678428
 20
408.5537322187897
 30
0.0
 11
678.4848237678428
 21
415.65373221879
 31
0.0
  0
LINE
  5
2156
330
2
100
AcDbEntity
  8
0
100
AcDbLine
 10
668.4848237678428
 20
408.5537322187897
 30
0.0
 11
668.4848237678428
 21
415.65373221879
 31
0.0
  0
LINE
  5
2157
330
2
100
AcDbEntity
  8
0
100
AcDbLine
 10
668.4848237678428
 20
415.65373221879
 30
0.0
 11
669.1776440908705
 21
416.0537322187897
 31
0.0
  0
LINE
  5
2158
330
2
100
AcDbEntity
  8
0
100
AcDbLine
 10
677.7920034448156
 20
416.0537322187897
 30
0.0
 11
669.1776440908701
 21
416.0537322187897
 31
0.0
  0
LINE
  5
2159
330
2
100
AcDbEntity
  8
0
100
AcDbLine
 10
668.4848237678428
 20
408.5537322187897
 30
0.0
 11
678.4848237678428
 21
408.5537322187897
 31
0.0
  0
LINE
  5
215A
330
2
100
AcDbEntity
  8
HIDS
100
AcDbLine
 10
668.4848237678428
 20
411.5537322187897
 30
0.0
 11
678.4848237678428
 21
411.5537322187897
 31
0.0
  0
ARC
  5
215B
330
2
100
AcDbEntity
  8
0
100
AcDbCircle
 10
700.0049342793562
 20
406.0537322184095
 30
0.0
 40
5.0
100
AcDbArc
 50
270.0
 51
351.7867893013304
  0
ARC
  5
215C
330
2
100
AcDbEntity
  8
0
100
AcDbCircle
 10
706.9331375096862
 20
405.0537322187842
 30
0.0
 40
2.0
100
AcDbArc
 50
90.0
 51
178.5000000000102
  0
LINE
  5
215D
330
2
100
AcDbEntity
  8
0
100
AcDbLine
 10
712.9848237678428
 20
407.0537322187842
 30
0.0
 11
706.9331375096862
 21
407.0537322187842
 31
0.0
  0
CIRCLE
  5
23C6
330
2
100
AcDbEntity
  8
0
100
AcDbCircle
 10
605.9848237678563
 20
109.4215561946008
 30
0.0
 40
14.49995060603862
  0
CIRCLE
  5
23D0
330
2
100
AcDbEntity
  8
0
100
AcDbCircle
 10
605.9848237678563
 20
109.4215561946008
 30
0.0
 40
23.5774
  0
ENDSEC
  0
SECTION
  2
OBJECTS
  0
DICTIONARY
  5
7
330
0
100
AcDbDictionary
  3
ACAD_COLOR
350
18F6
  3
ACAD_GROUP
350
75
  3
ACAD_LAYOUT
350
61
  3
ACAD_MATERIAL
350
18CC
  3
ACAD_MLEADERSTYLE
350
191B
  3
ACAD_MLINESTYLE
350
76
  3
ACAD_PLOTSETTINGS
350
77
  3
ACAD_PLOTSTYLENAME
350
6
  3
ACAD_SCALELIST
350
18F9
  3
ACAD_TABLESTYLE
350
18F7
  3
ACAD_VISUALSTYLE
350
18E5
  3
ACADDIM
350
480
  3
ACDB_RECOMPOSE_DATA
350
196A
  3
ACDBHEADERROUNDTRIPXREC
350
23EA
  3
ACDBVARIABLEDICTIONARY
350
102
  3
DWGPROPS
350
19C3
  0
DICTIONARY
  5
1973
330
6E
100
AcDbDictionary
280
     1
  3
ACAD_XREC_ROUNDTRIP
360
19CB
  0
DICTIONARY
  5
B13
330
66
100
AcDbDictionary
280
     1
  3
ACAD_LAYERSTATES
360
B14
  0
DICTIONARY
  5
1956
330
5E
100
AcDbDictionary
280
     1
  3
ACAD_XREC_ROUNDTRIP
360
19C6
  3
ADSK_XREC_LAYER_RECONCILED
360
1957
  0
DICTIONARY
  5
1958
330
3E
100
AcDbDictionary
280
     1
  3
ACAD_XREC_ROUNDTRIP
360
19C5
  3
ADSK_XREC_LAYER_RECONCILED
360
1959
  0
DICTIONARY
  5
195E
330
2B5
100
AcDbDictionary
280
     1
  3
ACAD_XREC_ROUNDTRIP
360
19D1
  3
ADSK_XREC_LAYER_RECONCILED
360
195F
  0
DICTIONARY
  5
1960
330
2BA
100
AcDbDictionary
280
     1
  3
ACAD_XREC_ROUNDTRIP
360
19D2
  3
ADSK_XREC_LAYER_RECONCILED
360
1961
  0
DICTIONARY
  5
1964
330
3FA
100
AcDbDictionary
280
     1
  3
ACAD_XREC_ROUNDTRIP
360
19D4
  3
ADSK_XREC_LAYER_RECONCILED
360
1965
  0
DICTIONARY
  5
240B
330
2
100
AcDbDictionary
280
     1
  3
ACAD_LAYOUTSELFREF
360
240C
  0
DICTIONARY
  5
240D
330
23E4
100
AcDbDictionary
280
     1
  3
ACAD_LAYOUTSELFREF
360
240E
  0
DICTIONARY
  5
18F6
102
{ACAD_REACTORS
330
7
102
}
330
7
100
AcDbDictionary
  0
DICTIONARY
  5
75
102
{ACAD_REACTORS
330
7
102
}
330
7
100
AcDbDictionary
  0
DICTIONARY
  5
61
102
{ACAD_REACTORS
330
7
102
}
330
7
100
AcDbDictionary
  0
DICTIONARY
  5
18CC
102
{ACAD_REACTORS
330
7
102
}
330
7
100
AcDbDictionary
  3
BYBLOCK
350
18D5
  3
BYLAYER
350
18CD
  3
GLOBAL
350
18DD
  0
DICTIONARY
  5
191B
102
{ACAD_REACTORS
330
7
102
}
330
7
100
AcDbDictionary
  3
STANDARD
350
191C
  0
DICTIONARY
  5
76
102
{ACAD_REACTORS
330
7
102
}
330
7
100
AcDbDictionary
  3
STANDARD
350
78
  0
DICTIONARY
  5
77
102
{ACAD_REACTORS
330
7
102
}
330
7
100
AcDbDictionary
  0
ACDBDICTIONARYWDFLT
  5
6
102
{ACAD_REACTORS
330
7
102
}
330
7
100
AcDbDictionary
281
     1
  3
Normal
350
5
100
AcDbDictionaryWithDefault
340
5
  0
DICTIONARY
  5
18F9
102
{ACAD_REACTORS
330
7
102
}
330
7
100
AcDbDictionary
  3
A0
350
18FA
  3
A1
350
18FB
  3
A2
350
18FC
  3
A3
350
18FD
  3
A4
350
18FE
  3
A5
350
18FF
  3
A6
350
1900
  3
A7
350
1901
  3
A8
350
1902
  3
A9
350
1903
  3
B0
350
1904
  3
B1
350
1905
  3
B2
350
1906
  3
B3
350
1907
  3
B4
350
1908
  3
B5
350
1909
  3
B6
350
190A
  3
B7
350
190B
  3
B8
350
190C
  3
B9
350
190D
  3
C0
350
190E
  3
C1
350
190F
  3
C2
350
1910
  3
C3
350
1911
  3
C4
350
1912
  3
C5
350
1913
  3
C6
350
1914
  3
C7
350
1915
  3
C8
350
1916
  3
C9
350
1917
  3
D0
350
1918
  3
D1
350
1919
  3
D2
350
191A
  0
DICTIONARY
  5
18F7
102
{ACAD_REACTORS
330
7
102
}
330
7
100
AcDbDictionary
  3
STANDARD
350
18F8
  0
DICTIONARY
  5
18E5
102
{ACAD_REACTORS
330
7
102
}
330
7
100
AcDbDictionary
  3
2DWIREFRAME
350
18EB
  3
3D_HIDDEN
350
18ED
  3
3DWIREFRAME
350
18EC
  3
BASIC
350
18EA
  3
BRIGHTEN
350
18F1
  3
COLORCHANGE
350
18F5
  3
CONCEPTUAL
350
18EE
  3
DIM
350
18F0
  3
FACEPATTERN
350
18F4
  3
FLAT
350
18E6
  3
FLATWITHEDGES
350
18E7
  3
GOURAUD
350
18E8
  3
GOURAUDWITHEDGES
350
18E9
  3
LINEPATTERN
350
18F3
  3
REALISTIC
350
18EF
  3
THICKEN
350
18F2
  0
XRECORD
  5
480
102
{ACAD_REACTORS
330
7
102
}
330
7
100
AcDbXrecord
 90
   990106
  3

 60
     0
 61
     0
 62
     1
 63
     3
 64
     1
 65
     0
 66
     0
 67
     3
 68
     1
 69
     0
 70
     0
 71
     0
 72
     0
 40
0.0
170
     2
340
0
  0
XRECORD
  5
196A
102
{ACAD_REACTORS
330
7
102
}
330
7
100
AcDbXrecord
 90
        1
330
18F8
  0
DICTIONARY
  5
23EA
102
{ACAD_REACTORS
330
7
102
}
330
7
100
AcDbDictionary
  3
CEPSNTYPE
350
23F4
  3
DIMSTYLEDATA
350
23F8
  3
FINGERPRINTGUID
350
23F5
  3
HYPERLINKBASE
350
23ED
  3
INSUNITS
350
23F3
  3
LAYOUTDICT
350
23EF
  3
LWETCUNION
350
23F2
  3
PLOTSETDICT
350
23F0
  3
PLOTSTYLNAMDICT
350
23F1
  3
PSVPSCALE
350
23F7
  3
PUCSBASE
350
23FB
  3
PUCSORGBACK
350
2401
  3
PUCSORGBOTTOM
350
23FD
  3
PUCSORGFRONT
350
2400
  3
PUCSORGLEFT
350
23FE
  3
PUCSORGRIGHT
350
23FF
  3
PUCSORGTOP
350
23FC
  3
PUCSORTHOREF
350
23F9
  3
PUCSORTHOVIEW
350
23FA
  3
STYLESHEET
350
23EE
  3
TSTACKALIGN
350
23EB
  3
TSTACKSIZE
350
23EC
  3
UCSBASE
350
2404
  3
UCSORGBACK
350
240A
  3
UCSORGBOTTOM
350
2406
  3
UCSORGFRONT
350
2409
  3
UCSORGLEFT
350
2407
  3
UCSORGRIGHT
350
2408
  3
UCSORGTOP
350
2405
  3
UCSORTHOREF
350
2402
  3
UCSORTHOVIEW
350
2403
  3
VERSIONGUID
350
23F6
  0
DICTIONARY
  5
102
102
{ACAD_REACTORS
330
7
102
}
330
7
100
AcDbDictionary
  3
CANNOSCALE
350
198D
  3
CMLEADERSTYLE
350
198C
  3
CTABLESTYLE
350
198B
  3
DIMASSOC
350
103
  3
INDEXCTL
350
198E
  3
SORTENTS
350
549
  0
XRECORD
  5
19C3
102
{ACAD_REACTORS
330
7
102
}
330
7
100
AcDbXrecord
  1
DWGPROPS COOKIE
  2

  3

  4

  6

  7

  8
ymorima
  9

300
=
301
=
302
=
303
=
304
=
305
=
306
=
307
=
308
=
309
=
 40
0.0049054166666667
 41
2454411.650650856
 42
2454412.447824977
  1

 90
        0
  0
XRECORD
  5
19CB
102
{ACAD_REACTORS
330
1973
102
}
330
1973
100
AcDbXrecord
102
VTR_0.000_0.000_1.000_1.000_VISUALSTYLE
340
18EB
102
VTR_0.000_0.000_1.000_1.000_GRIDDISPLAY
 70
     3
102
VTR_0.000_0.000_1.000_1.000_GRIDMAJOR
 70
     5
102
VTR_0.000_0.000_1.000_1.000_DEFAULTLIGHTING
280
     1
102
VTR_0.000_0.000_1.000_1.000_DEFAULTLIGHTINGTYPE
 70
     1
102
VTR_0.000_0.000_1.000_1.000_BRIGHTNESS
141
0.0
102
VTR_0.000_0.000_1.000_1.000_CONTRAST
142
0.0
  0
DICTIONARY
  5
B14
102
{ACAD_REACTORS
330
B13
102
}
330
B13
100
AcDbDictionary
  0
XRECORD
  5
19C6
102
{ACAD_REACTORS
330
1956
102
}
330
1956
100
AcDbXrecord
102
MATERIAL
340
18DD
  0
XRECORD
  5
1957
102
{ACAD_REACTORS
330
1956
102
}
330
1956
100
AcDbXrecord
290
     1
  0
XRECORD
  5
19C5
102
{ACAD_REACTORS
330
1958
102
}
330
1958
100
AcDbXrecord
102
MATERIAL
340
18DD
  0
XRECORD
  5
1959
102
{ACAD_REACTORS
330
1958
102
}
330
1958
100
AcDbXrecord
290
     1
  0
XRECORD
  5
19D1
102
{ACAD_REACTORS
330
195E
102
}
330
195E
100
AcDbXrecord
102
MATERIAL
340
18DD
  0
XRECORD
  5
195F
102
{ACAD_REACTORS
330
195E
102
}
330
195E
100
AcDbXrecord
290
     1
  0
XRECORD
  5
19D2
102
{ACAD_REACTORS
330
1960
102
}
330
1960
100
AcDbXrecord
102
MATERIAL
340
18DD
  0
XRECORD
  5
1961
102
{ACAD_REACTORS
330
1960
102
}
330
1960
100
AcDbXrecord
290
     1
  0
XRECORD
  5
19D4
102
{ACAD_REACTORS
330
1964
102
}
330
1964
100
AcDbXrecord
102
MATERIAL
340
18DD
  0
XRECORD
  5
1965
102
{ACAD_REACTORS
330
1964
102
}
330
1964
100
AcDbXrecord
290
     1
  0
XRECORD
  5
240C
102
{ACAD_REACTORS
330
240B
102
}
330
240B
100
AcDbXrecord
340
2
  0
XRECORD
  5
240E
102
{ACAD_REACTORS
330
240D
102
}
330
240D
100
AcDbXrecord
340
23E4
  0
ACAD_PROXY_OBJECT
  5
18D5
102
{ACAD_XDICTIONARY
360
18D6
102
}
102
{ACAD_REACTORS
330
18CC
102
}
330
18CC
100
AcDbProxyObject
 90
      499
 91
      510
 93
     1340
310
42109E509B1BD8DAC02004014080404555555555555953FAA155555555555654FEA9AA400014080404555555555555953FAA155555555555654FEA9AA400000000000000E03F4080404555555555555953FAA155555555555654FEA9AA4014080404555555555555953FAA155555555555654FEA9AA4010201011555555555
310
55654FEA8555555555555953FAA6A9005020101155555555555654FEA8555555555555953FAA6A9000
 94
        0
1001
ACAD
1000
AcadProxyRoundTripData
1071
      504
1071
   655383
1070
     0
  0
ACAD_PROXY_OBJECT
  5
18CD
102
{ACAD_XDICTIONARY
360
18CE
102
}
102
{ACAD_REACTORS
330
18CC
102
}
330
18CC
100
AcDbProxyObject
 90
      499
 91
      510
 93
     1340
310
42109E53185E595C802004014080404555555555555953FAA155555555555654FEA9AA400014080404555555555555953FAA155555555555654FEA9AA400000000000000E03F4080404555555555555953FAA155555555555654FEA9AA4014080404555555555555953FAA155555555555654FEA9AA4010201011555555555
310
55654FEA8555555555555953FAA6A9005020101155555555555654FEA8555555555555953FAA6A9000
 94
        0
1001
ACAD
1000
AcadProxyRoundTripData
1071
      504
1071
   655383
1070
     0
  0
ACAD_PROXY_OBJECT
  5
18DD
102
{ACAD_XDICTIONARY
360
18DE
102
}
102
{ACAD_REACTORS
330
18CC
102
}
330
18CC
100
AcDbProxyObject
 90
      499
 91
      510
 93
     1332
310
41D1DB1BD8985B002004014080404555555555555953FAA155555555555654FEA9AA400014080404555555555555953FAA155555555555654FEA9AA400000000000000E03F4080404555555555555953FAA155555555555654FEA9AA4014080404555555555555953FAA155555555555654FEA9AA401020101155555555555
310
654FEA8555555555555953FAA6A9005020101155555555555654FEA8555555555555953FAA6A9000
 94
        0
1001
ACAD
1000
AcadProxyRoundTripData
1071
      504
1071
   655383
1070
     0
  0
ACAD_PROXY_OBJECT
  5
191C
102
{ACAD_REACTORS
330
191B
102
}
330
191B
100
AcDbProxyObject
 90
      499
 91
      510
 93
      618
310
40901902A4063FBFFFFFE056BD1B81E855B9FC0AD7A3703D0AD73F4254DD185B99185C990000AD7A3703D0AC73F90141901A02B5E8DC0F42B1CFC02B5E8DC0F42B1CFE5764000000000000300FC6
340
6A
340
0
340
16
340
0
 94
        0
1001
ACAD_MLEADERVER
1070
     2
1001
ACAD
1000
AcadProxyRoundTripData
1071
      508
1071
   655383
1070
     0
  0
MLINESTYLE
  5
78
102
{ACAD_REACTORS
330
76
102
}
330
76
100
AcDbMlineStyle
  2
STANDARD
 70
     0
  3

 62
     0
 51
90.0
 52
90.0
 71
     2
 49
0.5
 62
   256
  6
BYLAYER
 49
-0.5
 62
   256
  6
BYLAYER
  0
ACDBPLACEHOLDER
  5
5
102
{ACAD_REACTORS
330
6
102
}
330
6
100
AcDbPlaceHolder
280
     0
  0
ACAD_PROXY_OBJECT
  5
18FA
102
{ACAD_REACTORS
330
18F9
102
}
330
18F9
100
AcDbProxyObject
 90
      499
 91
      510
 93
       49
310
904313A3100598
 94
        0
1001
ACAD
1000
AcadProxyRoundTripData
1071
      507
1071
   655383
1070
     0
  0
ACAD_PROXY_OBJECT
  5
18FB
102
{ACAD_REACTORS
330
18F9
102
}
330
18F9
100
AcDbProxyObject
 90
      499
 91
      510
 93
      113
310
904313A3200400000000000000406B
 94
        0
1001
ACAD
1000
AcadProxyRoundTripData
1071
      507
1071
   655383
1070
     0
  0
ACAD_PROXY_OBJECT
  5
18FC
102
{ACAD_REACTORS
330
18F9
102
}
330
18F9
100
AcDbProxyObject
 90
      499
 91
      510
 93
      113
310
904313A3400400000000000010406B
 94
        0
1001
ACAD
1000
AcadProxyRoundTripData
1071
      507
1071
   655383
1070
     0
  0
ACAD_PROXY_OBJECT
  5
18FD
102
{ACAD_REACTORS
330
18F9
102
}
330
18F9
100
AcDbProxyObject
 90
      499
 91
      510
 93
      113
310
904313A3500400000000000014406B
 94
        0
1001
ACAD
1000
AcadProxyRoundTripData
1071
      507
1071
   655383
1070
     0
  0
ACAD_PROXY_OBJECT
  5
18FE
102
{ACAD_REACTORS
330
18F9
102
}
330
18F9
100
AcDbProxyObject
 90
      499
 91
      510
 93
      113
310
904313A3800400000000000020406B
 94
        0
1001
ACAD
1000
AcadProxyRoundTripData
1071
      507
1071
   655383
1070
     0
  0
ACAD_PROXY_OBJECT
  5
18FF
102
{ACAD_REACTORS
330
18F9
102
}
330
18F9
100
AcDbProxyObject
 90
      499
 91
      510
 93
      121
310
905313A3130004000000000000244051
 94
        0
1001
ACAD
1000
AcadProxyRoundTripData
1071
      507
1071
   655383
1070
     0
  0
ACAD_PROXY_OBJECT
  5
1900
102
{ACAD_REACTORS
330
18F9
102
}
330
18F9
100
AcDbProxyObject
 90
      499
 91
      510
 93
      121
310
905313A3136004000000000000304051
 94
        0
1001
ACAD
1000
AcadProxyRoundTripData
1071
      507
1071
   655383
1070
     0
  0
ACAD_PROXY_OBJECT
  5
1901
102
{ACAD_REACTORS
330
18F9
102
}
330
18F9
100
AcDbProxyObject
 90
      499
 91
      510
 93
      121
310
905313A3230004000000000000344051
 94
        0
1001
ACAD
1000
AcadProxyRoundTripData
1071
      507
1071
   655383
1070
     0
  0
ACAD_PROXY_OBJECT
  5
1902
102
{ACAD_REACTORS
330
18F9
102
}
330
18F9
100
AcDbProxyObject
 90
      499
 91
      510
 93
      121
310
905313A33300040000000000003E4051
 94
        0
1001
ACAD
1000
AcadProxyRoundTripData
1071
      507
1071
   655383
1070
     0
  0
ACAD_PROXY_OBJECT
  5
1903
102
{ACAD_REACTORS
330
18F9
102
}
330
18F9
100
AcDbProxyObject
 90
      499
 91
      510
 93
      121
310
905313A3430004000000000000444051
 94
        0
1001
ACAD
1000
AcadProxyRoundTripData
1071
      507
1071
   655383
1070
     0
  0
ACAD_PROXY_OBJECT
  5
1904
102
{ACAD_REACTORS
330
18F9
102
}
330
18F9
100
AcDbProxyObject
 90
      499
 91
      510
 93
      121
310
905313A3530004000000000000494051
 94
        0
1001
ACAD
1000
AcadProxyRoundTripData
1071
      507
1071
   655383
1070
     0
  0
ACAD_PROXY_OBJECT
  5
1905
102
{ACAD_REACTORS
330
18F9
102
}
330
18F9
100
AcDbProxyObject
 90
      499
 91
      510
 93
      129
310
906313A313030004000000000000594038
 94
        0
1001
ACAD
1000
AcadProxyRoundTripData
1071
      507
1071
   655383
1070
     0
  0
ACAD_PROXY_OBJECT
  5
1906
102
{ACAD_REACTORS
330
18F9
102
}
330
18F9
100
AcDbProxyObject
 90
      499
 91
      510
 93
      113
310
904323A31000000000000000010159
 94
        0
1001
ACAD
1000
AcadProxyRoundTripData
1071
      507
1071
   655383
1070
     0
  0
ACAD_PROXY_OBJECT
  5
1907
102
{ACAD_REACTORS
330
18F9
102
}
330
18F9
100
AcDbProxyObject
 90
      499
 91
      510
 93
      113
310
904343A31000000000000000410159
 94
        0
1001
ACAD
1000
AcadProxyRoundTripData
1071
      507
1071
   655383
1070
     0
  0
ACAD_PROXY_OBJECT
  5
1908
102
{ACAD_REACTORS
330
18F9
102
}
330
18F9
100
AcDbProxyObject
 90
      499
 91
      510
 93
      113
310
904383A31000000000000000810159
 94
        0
1001
ACAD
1000
AcadProxyRoundTripData
1071
      507
1071
   655383
1070
     0
  0
ACAD_PROXY_OBJECT
  5
1909
102
{ACAD_REACTORS
330
18F9
102
}
330
18F9
100
AcDbProxyObject
 90
      499
 91
      510
 93
      121
310
90531303A31000000000000000910140
 94
        0
1001
ACAD
1000
AcadProxyRoundTripData
1071
      507
1071
   655383
1070
     0
  0
ACAD_PROXY_OBJECT
  5
190A
102
{ACAD_REACTORS
330
18F9
102
}
330
18F9
100
AcDbProxyObject
 90
      499
 91
      510
 93
      129
310
9063130303A31000000000000001650138
 94
        0
1001
ACAD
1000
AcadProxyRoundTripData
1071
      507
1071
   655383
1070
     0
  0
ACAD_PROXY_OBJECT
  5
190B
102
{ACAD_REACTORS
330
18F9
102
}
330
18F9
100
AcDbProxyObject
 90
      499
 91
      510
 93
      265
310
90F312F31323822203D2031272D302200000000000000200FC00000000000028402B
 94
        0
1001
ACAD
1000
AcadProxyRoundTripData
1071
      507
1071
   655383
1070
     0
  0
ACAD_PROXY_OBJECT
  5
190C
102
{ACAD_REACTORS
330
18F9
102
}
330
18F9
100
AcDbProxyObject
 90
      499
 91
      510
 93
      257
310
90E312F363422203D2031272D302200000000000000240FC000000000000284040
 94
        0
1001
ACAD
1000
AcadProxyRoundTripData
1071
      507
1071
   655383
1070
     0
  0
ACAD_PROXY_OBJECT
  5
190D
102
{ACAD_REACTORS
330
18F9
102
}
330
18F9
100
AcDbProxyObject
 90
      499
 91
      510
 93
      257
310
90E312F333222203D2031272D302200000000000000280FC000000000000284040
 94
        0
1001
ACAD
1000
AcadProxyRoundTripData
1071
      507
1071
   655383
1070
     0
  0
ACAD_PROXY_OBJECT
  5
190E
102
{ACAD_REACTORS
330
18F9
102
}
330
18F9
100
AcDbProxyObject
 90
      499
 91
      510
 93
      257
310
90E312F313622203D2031272D3022000000000000002C0FC000000000000284040
 94
        0
1001
ACAD
1000
AcadProxyRoundTripData
1071
      507
1071
   655383
1070
     0
  0
ACAD_PROXY_OBJECT
  5
190F
102
{ACAD_REACTORS
330
18F9
102
}
330
18F9
100
AcDbProxyObject
 90
      499
 91
      510
 93
      257
310
90E332F333222203D2031272D3022000000000000002E0FC000000000000284040
 94
        0
1001
ACAD
1000
AcadProxyRoundTripData
1071
      507
1071
   655383
1070
     0
  0
ACAD_PROXY_OBJECT
  5
1910
102
{ACAD_REACTORS
330
18F9
102
}
330
18F9
100
AcDbProxyObject
 90
      499
 91
      510
 93
      249
310
90D312F3822203D2031272D302200000000000000300FC000000000000284040
 94
        0
1001
ACAD
1000
AcadProxyRoundTripData
1071
      507
1071
   655383
1070
     0
  0
ACAD_PROXY_OBJECT
  5
1911
102
{ACAD_REACTORS
330
18F9
102
}
330
18F9
100
AcDbProxyObject
 90
      499
 91
      510
 93
      257
310
90E332F313622203D2031272D302200000000000000320FC000000000000284040
 94
        0
1001
ACAD
1000
AcadProxyRoundTripData
1071
      507
1071
   655383
1070
     0
  0
ACAD_PROXY_OBJECT
  5
1912
102
{ACAD_REACTORS
330
18F9
102
}
330
18F9
100
AcDbProxyObject
 90
      499
 91
      510
 93
      249
310
90D312F3422203D2031272D302200000000000000340FC000000000000284040
 94
        0
1001
ACAD
1000
AcadProxyRoundTripData
1071
      507
1071
   655383
1070
     0
  0
ACAD_PROXY_OBJECT
  5
1913
102
{ACAD_REACTORS
330
18F9
102
}
330
18F9
100
AcDbProxyObject
 90
      499
 91
      510
 93
      249
310
90D332F3822203D2031272D302200000000000000360FC000000000000284040
 94
        0
1001
ACAD
1000
AcadProxyRoundTripData
1071
      507
1071
   655383
1070
     0
  0
ACAD_PROXY_OBJECT
  5
1914
102
{ACAD_REACTORS
330
18F9
102
}
330
18F9
100
AcDbProxyObject
 90
      499
 91
      510
 93
      249
310
90D312F3222203D2031272D302200000000000000380FC000000000000284040
 94
        0
1001
ACAD
1000
AcadProxyRoundTripData
1071
      507
1071
   655383
1070
     0
  0
ACAD_PROXY_OBJECT
  5
1915
102
{ACAD_REACTORS
330
18F9
102
}
330
18F9
100
AcDbProxyObject
 90
      499
 91
      510
 93
      249
310
90D332F3422203D2031272D3022000000000000003A0FC000000000000284040
 94
        0
1001
ACAD
1000
AcadProxyRoundTripData
1071
      507
1071
   655383
1070
     0
  0
ACAD_PROXY_OBJECT
  5
1916
102
{ACAD_REACTORS
330
18F9
102
}
330
18F9
100
AcDbProxyObject
 90
      499
 91
      510
 93
      169
310
90B3122203D2031272D3022004000000000000284020
 94
        0
1001
ACAD
1000
AcadProxyRoundTripData
1071
      507
1071
   655383
1070
     0
  0
ACAD_PROXY_OBJECT
  5
1917
102
{ACAD_REACTORS
330
18F9
102
}
330
18F9
100
AcDbProxyObject
 90
      499
 91
      510
 93
      265
310
90F312D312F3222203D2031272D3022000000000000003E0FC00000000000028402B
 94
        0
1001
ACAD
1000
AcadProxyRoundTripData
1071
      507
1071
   655383
1070
     0
  0
ACAD_PROXY_OBJECT
  5
1918
102
{ACAD_REACTORS
330
18F9
102
}
330
18F9
100
AcDbProxyObject
 90
      499
 91
      510
 93
      233
310
90B3322203D2031272D30220000000000000002100000000000000284000
 94
        0
1001
ACAD
1000
AcadProxyRoundTripData
1071
      507
1071
   655383
1070
     0
  0
ACAD_PROXY_OBJECT
  5
1919
102
{ACAD_REACTORS
330
18F9
102
}
330
18F9
100
AcDbProxyObject
 90
      499
 91
      510
 93
      233
310
90B3622203D2031272D30220000000000000006100000000000000284000
 94
        0
1001
ACAD
1000
AcadProxyRoundTripData
1071
      507
1071
   655383
1070
     0
  0
ACAD_PROXY_OBJECT
  5
191A
102
{ACAD_REACTORS
330
18F9
102
}
330
18F9
100
AcDbProxyObject
 90
      499
 91
      510
 93
      257
310
90E31272D3022203D2031272D3022000000000000000A100000000000000284040
 94
        0
1001
ACAD
1000
AcadProxyRoundTripData
1071
      507
1071
   655383
1070
     0
  0
ACAD_PROXY_OBJECT
  5
18F8
102
{ACAD_XDICTIONARY
360
1968
102
}
102
{ACAD_REACTORS
330
18F7
102
}
330
18F7
100
AcDbProxyObject
 90
      499
 91
      510
 93
     1849
310
4254DD185B99185C990028B81E85EB51B8AE3F2E07A17AD46E2B8FC02B5E8DC0F42B1CFD028000000C1008070000C3001FDFF8000000C1003FBFF000000182007F7FE00000030400FEFFC00000060801FDFF8000000C1003FBFF00000018200000000000000681FA0B0000001820100E000186003FBFF000000182007F7FE0
310
0000030400FEFFC00000060801FDFF8000000C1003FBFF000000182007F7FE000000304000AD7A3703D0AC73F4160000003040201C00030C007F7FE00000030400FEFFC00000060801FDFF8000000C1003FBFF000000182007F7FE00000030400FEFFC000000608000
340
16
340
16
340
16
 94
        0
1001
ACAD
1000
AcadProxyRoundTripData
1071
      506
1071
   655383
1070
     0
  0
ACAD_PROXY_OBJECT
  5
18EB
102
{ACAD_REACTORS
330
18E5
102
}
330
18E5
100
AcDbProxyObject
 90
      499
 91
      510
 93
      444
310
430C9915DA5C99599C985B59401049028333333333333E3BF0000000000000FB0107901411070040501600405405064090741402480A0340
 94
        0
1001
ACAD
1000
AcDbSavedByObjectVersion
1070
     0
1000
AcadProxyRoundTripData
1071
      505
1071
   655383
1070
     0
  0
ACAD_PROXY_OBJECT
  5
18ED
102
{ACAD_REACTORS
330
18E5
102
}
330
18E5
100
AcDbProxyObject
 90
      499
 91
      510
 93
      508
310
428CD108121A5919195B8010640502408333333333333E3BF0000000000000FB01079024090700405020000000000001110200405405064090740C02480A0340
 94
        0
1001
ACAD
1000
AcDbSavedByObjectVersion
1070
     0
1000
AcadProxyRoundTripData
1071
      505
1071
   655383
1070
     0
  0
ACAD_PROXY_OBJECT
  5
18EC
102
{ACAD_REACTORS
330
18E5
102
}
330
18E5
100
AcDbProxyObject
 90
      499
 91
      510
 93
      444
310
430CD915DA5C99599C985B59401059028333333333333E3BF0000000000000FB0107901411070040501600405405064090741402480A0340
 94
        0
1001
ACAD
1000
AcDbSavedByObjectVersion
1070
     0
1000
AcadProxyRoundTripData
1071
      505
1071
   655383
1070
     0
  0
ACAD_PROXY_OBJECT
  5
18EA
102
{ACAD_REACTORS
330
18E5
102
}
330
18E5
100
AcDbProxyObject
 90
      499
 91
      510
 93
      396
310
4190985CDA58C0107406404333333333333E3BF0000000000000FB0107A41107004050150841D405064090741402480A0356
 94
        0
1001
ACAD
1000
AcDbSavedByObjectVersion
1070
     0
1000
AcadProxyRoundTripData
1071
      505
1071
   655383
1070
     0
  0
ACAD_PROXY_OBJECT
  5
18F1
102
{ACAD_REACTORS
330
18E5
102
}
330
18E5
100
AcDbProxyObject
 90
      499
 91
      510
 93
      436
310
42509C9A59DA1D195B8010C409028333333333333E3BF0000000000000FB010790141107004050150841D405064090741402480A029956
 94
        0
1001
ACAD
1000
AcDbSavedByObjectVersion
1070
     0
1000
AcadProxyRoundTripData
1071
      505
1071
   655383
1070
     0
  0
ACAD_PROXY_OBJECT
  5
18F5
102
{ACAD_REACTORS
330
18E5
102
}
330
18E5
100
AcDbProxyObject
 90
      499
 91
      510
 93
      460
310
4310DBDB1BDC90DA185B99D9401104090240C333333333333E3BF0000000000000FB0108901411070040501508421405064090741402480A0354
 94
        0
1001
ACAD
1000
AcDbSavedByObjectVersion
1070
     0
1000
AcadProxyRoundTripData
1071
      505
1071
   655383
1070
     0
  0
ACAD_PROXY_OBJECT
  5
18EE
102
{ACAD_REACTORS
330
18E5
102
}
330
18E5
100
AcDbProxyObject
 90
      499
 91
      510
 93
      508
310
42D0DBDB98D95C1D1D585B0010940D028333333333333E3BF0000000000000FB0107902409070040501000000000000111010841D405064090740C02480A0340
 94
        0
1001
ACAD
1000
AcDbSavedByObjectVersion
1070
     0
1000
AcadProxyRoundTripData
1071
      505
1071
   655383
1070
     0
  0
ACAD_PROXY_OBJECT
  5
18F0
102
{ACAD_REACTORS
330
18E5
102
}
330
18E5
100
AcDbProxyObject
 90
      499
 91
      510
 93
      420
310
41111A5B4010B409028333333333333E3BF0000000000000FB010790141107004050150841D405064090741402480A02677FFFFFDB
 94
        0
1001
ACAD
1000
AcDbSavedByObjectVersion
1070
     0
1000
AcadProxyRoundTripData
1071
      505
1071
   655383
1070
     0
  0
ACAD_PROXY_OBJECT
  5
18F4
102
{ACAD_REACTORS
330
18E5
102
}
330
18E5
100
AcDbProxyObject
 90
      499
 91
      510
 93
      452
310
43119858D95C185D1D195C9B8010F409028333333333333E3BF0000000000000FB010790141107004050150841D405064090741402480A0350
 94
        0
1001
ACAD
1000
AcDbSavedByObjectVersion
1070
     0
1000
AcadProxyRoundTripData
1071
      505
1071
   655383
1070
     0
  0
ACAD_PROXY_OBJECT
  5
18E6
102
{ACAD_REACTORS
330
18E5
102
}
330
18E5
100
AcDbProxyObject
 90
      499
 91
      510
 93
      396
310
41519B185D00240901404333333333333E3BF0000000000000F9010740A41107004050150841D405064090741402480A1B55
 94
        0
1001
ACAD
1000
AcDbSavedByObjectVersion
1070
     0
1000
AcadProxyRoundTripData
1071
      505
1071
   655383
1070
     0
  0
ACAD_PROXY_OBJECT
  5
18E7
102
{ACAD_REACTORS
330
18E5
102
}
330
18E5
100
AcDbProxyObject
 90
      499
 91
      510
 93
      484
310
43919B185D15DA5D1A115919D95CC010140901404333333333333E3BF0000000000000F9010740901411070040501600405405064090741402480A1B50
 94
        0
1001
ACAD
1000
AcDbSavedByObjectVersion
1070
     0
1000
AcadProxyRoundTripData
1071
      505
1071
   655383
1070
     0
  0
ACAD_PROXY_OBJECT
  5
18E8
102
{ACAD_REACTORS
330
18E5
102
}
330
18E5
100
AcDbProxyObject
 90
      499
 91
      510
 93
      420
310
4211DBDD5C985D590010240902404333333333333E3BF0000000000000F9010740A411070040501641D405064090741402480A1B50
 94
        0
1001
ACAD
1000
AcDbSavedByObjectVersion
1070
     0
1000
AcadProxyRoundTripData
1071
      505
1071
   655383
1070
     0
  0
ACAD_PROXY_OBJECT
  5
18E9
102
{ACAD_REACTORS
330
18E5
102
}
330
18E5
100
AcDbProxyObject
 90
      499
 91
      510
 93
      508
310
4451DBDD5C985D5915DA5D1A115919D95CC010340902404333333333333E3BF0000000000000F9010740901411070040501600405405064090741402480A1B50
 94
        0
1001
ACAD
1000
AcDbSavedByObjectVersion
1070
     0
1000
AcadProxyRoundTripData
1071
      505
1071
   655383
1070
     0
  0
ACAD_PROXY_OBJECT
  5
18F3
102
{ACAD_REACTORS
330
18E5
102
}
330
18E5
100
AcDbProxyObject
 90
      499
 91
      510
 93
      452
310
43131A5B995C185D1D195C9B8010E409028333333333333E3BF0000000000000FB010790141107004050750841D405064090741402483A0350
 94
        0
1001
ACAD
1000
AcDbSavedByObjectVersion
1070
     0
1000
AcadProxyRoundTripData
1071
      505
1071
   655383
1070
     0
  0
ACAD_PROXY_OBJECT
  5
18EF
102
{ACAD_REACTORS
330
18E5
102
}
330
18E5
100
AcDbProxyObject
 90
      499
 91
      510
 93
      428
310
429499585B1A5CDD1A58C0108409028333333333333E3BF0000000000000FB01079019070040501508421405064090741402480A1B45
 94
        0
1001
ACAD
1000
AcDbSavedByObjectVersion
1070
     0
1000
AcadProxyRoundTripData
1071
      505
1071
   655383
1070
     0
  0
ACAD_PROXY_OBJECT
  5
18F2
102
{ACAD_REACTORS
330
18E5
102
}
330
18E5
100
AcDbProxyObject
 90
      499
 91
      510
 93
      420
310
42151A1A58DAD95B8010D409028333333333333E3BF0000000000000FB010790141107004050150C41D405064090741402480A0352
 94
        0
1001
ACAD
1000
AcDbSavedByObjectVersion
1070
     0
1000
AcadProxyRoundTripData
1071
      505
1071
   655383
1070
     0
  0
XRECORD
  5
23F4
102
{ACAD_REACTORS
330
23EA
102
}
330
23EA
100
AcDbXrecord
 90
        0
  0
XRECORD
  5
23F8
102
{ACAD_REACTORS
330
23EA
102
}
330
23EA
100
AcDbXrecord
1000
DSTYLE
1002
{
1070
   179
 70
     2
1070
   277
 70
     6
1002
}
  0
XRECORD
  5
23F5
102
{ACAD_REACTORS
330
23EA
102
}
330
23EA
100
AcDbXrecord
  1
{6385560B-F4B1-4644-A7C2-A3E32AC3D232}
  0
XRECORD
  5
23ED
102
{ACAD_REACTORS
330
23EA
102
}
330
23EA
100
AcDbXrecord
  1

  0
XRECORD
  5
23F3
102
{ACAD_REACTORS
330
23EA
102
}
330
23EA
100
AcDbXrecord
 90
        0
  0
XRECORD
  5
23EF
102
{ACAD_REACTORS
330
23EA
102
}
330
23EA
100
AcDbXrecord
340
61
  0
XRECORD
  5
23F2
102
{ACAD_REACTORS
330
23EA
102
}
330
23EA
100
AcDbXrecord
 90
    10781
  0
XRECORD
  5
23F0
102
{ACAD_REACTORS
330
23EA
102
}
330
23EA
100
AcDbXrecord
340
77
  0
XRECORD
  5
23F1
102
{ACAD_REACTORS
330
23EA
102
}
330
23EA
100
AcDbXrecord
340
6
  0
XRECORD
  5
23F7
102
{ACAD_REACTORS
330
23EA
102
}
330
23EA
100
AcDbXrecord
 40
0.0
  0
XRECORD
  5
23FB
102
{ACAD_REACTORS
330
23EA
102
}
330
23EA
100
AcDbXrecord
340
0
  0
XRECORD
  5
2401
102
{ACAD_REACTORS
330
23EA
102
}
330
23EA
100
AcDbXrecord
 10
0.0
 20
0.0
 30
0.0
  0
XRECORD
  5
23FD
102
{ACAD_REACTORS
330
23EA
102
}
330
23EA
100
AcDbXrecord
 10
0.0
 20
0.0
 30
0.0
  0
XRECORD
  5
2400
102
{ACAD_REACTORS
330
23EA
102
}
330
23EA
100
AcDbXrecord
 10
0.0
 20
0.0
 30
0.0
  0
XRECORD
  5
23FE
102
{ACAD_REACTORS
330
23EA
102
}
330
23EA
100
AcDbXrecord
 10
0.0
 20
0.0
 30
0.0
  0
XRECORD
  5
23FF
102
{ACAD_REACTORS
330
23EA
102
}
330
23EA
100
AcDbXrecord
 10
0.0
 20
0.0
 30
0.0
  0
XRECORD
  5
23FC
102
{ACAD_REACTORS
330
23EA
102
}
330
23EA
100
AcDbXrecord
 10
0.0
 20
0.0
 30
0.0
  0
XRECORD
  5
23F9
102
{ACAD_REACTORS
330
23EA
102
}
330
23EA
100
AcDbXrecord
340
0
  0
XRECORD
  5
23FA
102
{ACAD_REACTORS
330
23EA
102
}
330
23EA
100
AcDbXrecord
 70
     0
  0
XRECORD
  5
23EE
102
{ACAD_REACTORS
330
23EA
102
}
330
23EA
100
AcDbXrecord
  1
Sekkei.ctb
  0
XRECORD
  5
23EB
102
{ACAD_REACTORS
330
23EA
102
}
330
23EA
100
AcDbXrecord
 90
        1
  0
XRECORD
  5
23EC
102
{ACAD_REACTORS
330
23EA
102
}
330
23EA
100
AcDbXrecord
 90
       70
  0
XRECORD
  5
2404
102
{ACAD_REACTORS
330
23EA
102
}
330
23EA
100
AcDbXrecord
340
0
  0
XRECORD
  5
240A
102
{ACAD_REACTORS
330
23EA
102
}
330
23EA
100
AcDbXrecord
 10
0.0
 20
0.0
 30
0.0
  0
XRECORD
  5
2406
102
{ACAD_REACTORS
330
23EA
102
}
330
23EA
100
AcDbXrecord
 10
0.0
 20
0.0
 30
0.0
  0
XRECORD
  5
2409
102
{ACAD_REACTORS
330
23EA
102
}
330
23EA
100
AcDbXrecord
 10
0.0
 20
0.0
 30
0.0
  0
XRECORD
  5
2407
102
{ACAD_REACTORS
330
23EA
102
}
330
23EA
100
AcDbXrecord
 10
0.0
 20
0.0
 30
0.0
  0
XRECORD
  5
2408
102
{ACAD_REACTORS
330
23EA
102
}
330
23EA
100
AcDbXrecord
 10
0.0
 20
0.0
 30
0.0
  0
XRECORD
  5
2405
102
{ACAD_REACTORS
330
23EA
102
}
330
23EA
100
AcDbXrecord
 10
0.0
 20
0.0
 30
0.0
  0
XRECORD
  5
2402
102
{ACAD_REACTORS
330
23EA
102
}
330
23EA
100
AcDbXrecord
340
0
  0
XRECORD
  5
2403
102
{ACAD_REACTORS
330
23EA
102
}
330
23EA
100
AcDbXrecord
 70
     0
  0
XRECORD
  5
23F6
102
{ACAD_REACTORS
330
23EA
102
}
330
23EA
100
AcDbXrecord
  1
{B945FFE5-16A2-4521-9589-648B49325EFA}
  0
DICTIONARYVAR
  5
198D
102
{ACAD_REACTORS
330
102
102
}
330
102
100
DictionaryVariables
280
     0
  1
1:1
  0
DICTIONARYVAR
  5
198C
102
{ACAD_REACTORS
330
102
102
}
330
102
100
DictionaryVariables
280
     0
  1
STANDARD
  0
DICTIONARYVAR
  5
198B
102
{ACAD_REACTORS
330
102
102
}
330
102
100
DictionaryVariables
280
     0
  1
STANDARD
  0
DICTIONARYVAR
  5
103
102
{ACAD_REACTORS
330
102
102
}
330
102
100
DictionaryVariables
280
     0
  1
1
  0
DICTIONARYVAR
  5
198E
102
{ACAD_REACTORS
330
102
102
}
330
102
100
DictionaryVariables
280
     0
  1
0
  0
DICTIONARYVAR
  5
549
102
{ACAD_REACTORS
330
102
102
}
330
102
100
DictionaryVariables
280
     0
  1
96
  0
DICTIONARY
  5
18D6
330
18D5
100
AcDbDictionary
280
     1
  3
ACAD_XREC_ROUNDTRIP
360
19DD
  3
BUMPTILE
360
18D8
  3
DIFFUSETILE
360
18D7
  3
OPACITYTILE
360
18DB
  3
REFLECTIONTILE
360
18DA
  3
REFRACTIONTILE
360
18DC
  3
SPECULARTILE
360
18D9
  0
DICTIONARY
  5
18CE
330
18CD
100
AcDbDictionary
280
     1
  3
ACAD_XREC_ROUNDTRIP
360
19DC
  3
BUMPTILE
360
18D0
  3
DIFFUSETILE
360
18CF
  3
OPACITYTILE
360
18D3
  3
REFLECTIONTILE
360
18D2
  3
REFRACTIONTILE
360
18D4
  3
SPECULARTILE
360
18D1
  0
DICTIONARY
  5
18DE
330
18DD
100
AcDbDictionary
280
     1
  3
ACAD_XREC_ROUNDTRIP
360
19DE
  3
BUMPTILE
360
18E0
  3
DIFFUSETILE
360
18DF
  3
OPACITYTILE
360
18E3
  3
REFLECTIONTILE
360
18E2
  3
REFRACTIONTILE
360
18E4
  3
SPECULARTILE
360
18E1
  0
DICTIONARY
  5
1968
330
18F8
100
AcDbDictionary
280
     1
  3
ACAD_ROUNDTRIP_2008_TABLES
360
19C2
  3
ACAD_XREC_ROUNDTRIP
360
19DF
  0
XRECORD
  5
19DD
102
{ACAD_REACTORS
330
18D6
102
}
330
18D6
100
AcDbXrecord
102
MATERIAL
148
0.0
149
0.0
149
0.0
 93
        0
 94
      127
282
     0
 72
     0
 77
     0
171
     0
175
     0
179
     0
273
     0
  0
XRECORD
  5
18D8
102
{ACAD_REACTORS
330
18D6
102
}
330
18D6
100
AcDbXrecord
270
     1
271
     1
  0
XRECORD
  5
18D7
102
{ACAD_REACTORS
330
18D6
102
}
330
18D6
100
AcDbXrecord
270
     1
271
     1
  0
XRECORD
  5
18DB
102
{ACAD_REACTORS
330
18D6
102
}
330
18D6
100
AcDbXrecord
270
     1
271
     1
  0
XRECORD
  5
18DA
102
{ACAD_REACTORS
330
18D6
102
}
330
18D6
100
AcDbXrecord
270
     1
271
     1
  0
XRECORD
  5
18DC
102
{ACAD_REACTORS
330
18D6
102
}
330
18D6
100
AcDbXrecord
270
     1
271
     1
  0
XRECORD
  5
18D9
102
{ACAD_REACTORS
330
18D6
102
}
330
18D6
100
AcDbXrecord
270
     1
271
     1
  0
XRECORD
  5
19DC
102
{ACAD_REACTORS
330
18CE
102
}
330
18CE
100
AcDbXrecord
102
MATERIAL
148
0.0
149
0.0
149
0.0
 93
        0
 94
      127
282
     0
 72
     0
 77
     0
171
     0
175
     0
179
     0
273
     0
  0
XRECORD
  5
18D0
102
{ACAD_REACTORS
330
18CE
102
}
330
18CE
100
AcDbXrecord
270
     1
271
     1
  0
XRECORD
  5
18CF
102
{ACAD_REACTORS
330
18CE
102
}
330
18CE
100
AcDbXrecord
270
     1
271
     1
  0
XRECORD
  5
18D3
102
{ACAD_REACTORS
330
18CE
102
}
330
18CE
100
AcDbXrecord
270
     1
271
     1
  0
XRECORD
  5
18D2
102
{ACAD_REACTORS
330
18CE
102
}
330
18CE
100
AcDbXrecord
270
     1
271
     1
  0
XRECORD
  5
18D4
102
{ACAD_REACTORS
330
18CE
102
}
330
18CE
100
AcDbXrecord
270
     1
271
     1
  0
XRECORD
  5
18D1
102
{ACAD_REACTORS
330
18CE
102
}
330
18CE
100
AcDbXrecord
270
     1
271
     1
  0
XRECORD
  5
19DE
102
{ACAD_REACTORS
330
18DE
102
}
330
18DE
100
AcDbXrecord
102
MATERIAL
148
0.0
149
0.0
149
0.0
 93
        0
 94
      127
282
     0
 72
     0
 77
     0
171
     0
175
     0
179
     0
273
     0
  0
XRECORD
  5
18E0
102
{ACAD_REACTORS
330
18DE
102
}
330
18DE
100
AcDbXrecord
270
     1
271
     1
  0
XRECORD
  5
18DF
102
{ACAD_REACTORS
330
18DE
102
}
330
18DE
100
AcDbXrecord
270
     1
271
     1
  0
XRECORD
  5
18E3
102
{ACAD_REACTORS
330
18DE
102
}
330
18DE
100
AcDbXrecord
270
     1
271
     1
  0
XRECORD
  5
18E2
102
{ACAD_REACTORS
330
18DE
102
}
330
18DE
100
AcDbXrecord
270
     1
271
     1
  0
XRECORD
  5
18E4
102
{ACAD_REACTORS
330
18DE
102
}
330
18DE
100
AcDbXrecord
270
     1
271
     1
  0
XRECORD
  5
18E1
102
{ACAD_REACTORS
330
18DE
102
}
330
18DE
100
AcDbXrecord
270
     1
271
     1
  0
ACAD_PROXY_OBJECT
  5
19C2
102
{ACAD_REACTORS
330
1968
102
}
330
1968
100
AcDbProxyObject
 90
      499
 91
      510
 93
     1044
310
40D054060020000020000003200101A000080002A5058000000C100000000000000340FE901405075F5449544C450041501A8000000C800406800020000A9416000000304000AD7A3703D0AC73FA409014217D2115051115480105406A0000003200101A000080002A5028000000C10002B5E8DC0F42B1CFE903409065F444
310
15441004
340
16
340
16
340
16
 94
        0
1001
ACAD
1000
AcadProxyRoundTripData
1071
      509
1071
   655383
1070
     0
  0
XRECORD
  5
19DF
102
{ACAD_REACTORS
330
1968
102
}
330
1968
100
AcDbXrecord
102
ACAD_ROUNDTRIP_PRE2007_TABLESTYLE
 90
      512
 91
        0
  1

 92
      512
 93
        0
  2

 94
      512
 95
        0
  3

  0
ENDSEC
  0
EOF
