  0
SECTION
  2
HEADER
  9
$ACADVER
  1
AC1014
  9
$ACADMAINTVER
 70
     9
  9
$DWGCODEPAGE
  3
ANSI_932
  9
$INSBASE
 10
0.0
 20
0.0
 30
0.0
  9
$EXTMIN
 10
29.86246554552994
 20
57.58037930480788
 30
0.0
  9
$EXTMAX
 10
1010.980485618874
 20
464.4776468282847
 30
0.0
  9
$LIMMIN
 10
0.0
 20
0.0
  9
$LIMMAX
 10
297.0
 20
210.0
  9
$ORTHOMODE
 70
     1
  9
$REGENMODE
 70
     1
  9
$FILLMODE
 70
     1
  9
$QTEXTMODE
 70
     0
  9
$MIRRTEXT
 70
     0
  9
$DRAGMODE
 70
     2
  9
$LTSCALE
 40
3.0
  9
$OSMODE
 70
    37
  9
$ATTMODE
 70
     1
  9
$TEXTSIZE
 40
2.0
  9
$TRACEWID
 40
1.0
  9
$TEXTSTYLE
  7
STANDARD
  9
$CLAYER
  8
0
  9
$CELTYPE
  6
BYLAYER
  9
$CECOLOR
 62
   256
  9
$CELTSCALE
 40
1.0
  9
$DELOBJ
 70
     1
  9
$DISPSILH
 70
     0
  9
$DIMSCALE
 40
3.0
  9
$DIMASZ
 40
1.8
  9
$DIMEXO
 40
0.625
  9
$DIMDLI
 40
3.75
  9
$DIMRND
 40
0.0
  9
$DIMDLE
 40
0.0
  9
$DIMEXE
 40
0.8
  9
$DIMTP
 40
0.0
  9
$DIMTM
 40
0.0
  9
$DIMTXT
 40
1.8
  9
$DIMCEN
 40
2.5
  9
$DIMTSZ
 40
0.0
  9
$DIMTOL
 70
     0
  9
$DIMLIM
 70
     0
  9
$DIMTIH
 70
     0
  9
$DIMTOH
 70
     0
  9
$DIMSE1
 70
     0
  9
$DIMSE2
 70
     0
  9
$DIMTAD
 70
     1
  9
$DIMZIN
 70
     8
  9
$DIMBLK
  1

  9
$DIMASO
 70
     1
  9
$DIMSHO
 70
     1
  9
$DIMPOST
  1

  9
$DIMAPOST
  1

  9
$DIMALT
 70
     0
  9
$DIMALTD
 70
     4
  9
$DIMALTF
 40
0.0394
  9
$DIMLFAC
 40
1.0
  9
$DIMTOFL
 70
     1
  9
$DIMTVP
 40
0.0
  9
$DIMTIX
 70
     0
  9
$DIMSOXD
 70
     0
  9
$DIMSAH
 70
     0
  9
$DIMBLK1
  1

  9
$DIMBLK2
  1

  9
$DIMSTYLE
  2
STANDARD
  9
$DIMCLRD
 70
     0
  9
$DIMCLRE
 70
     0
  9
$DIMCLRT
 70
     0
  9
$DIMTFAC
 40
1.0
  9
$DIMGAP
 40
0.75
  9
$DIMJUST
 70
     0
  9
$DIMSD1
 70
     0
  9
$DIMSD2
 70
     0
  9
$DIMTOLJ
 70
     1
  9
$DIMTZIN
 70
     0
  9
$DIMALTZ
 70
     0
  9
$DIMALTTZ
 70
     0
  9
$DIMFIT
 70
     3
  9
$DIMUPT
 70
     0
  9
$DIMUNIT
 70
     8
  9
$DIMDEC
 70
     2
  9
$DIMTDEC
 70
     2
  9
$DIMALTU
 70
     8
  9
$DIMALTTD
 70
     4
  9
$DIMTXSTY
  7
STANDARD
  9
$DIMAUNIT
 70
     0
  9
$LUNITS
 70
     2
  9
$LUPREC
 70
     3
  9
$SKETCHINC
 40
1.0
  9
$FILLETRAD
 40
2.0
  9
$AUNITS
 70
     0
  9
$AUPREC
 70
     2
  9
$MENU
  1
.
  9
$ELEVATION
 40
0.0
  9
$PELEVATION
 40
0.0
  9
$THICKNESS
 40
0.0
  9
$LIMCHECK
 70
     0
  9
$BLIPMODE
 70
     0
  9
$CHAMFERA
 40
0.0
  9
$CHAMFERB
 40
0.0
  9
$CHAMFERC
 40
20.0
  9
$CHAMFERD
 40
0.0
  9
$SKPOLY
 70
     0
  9
$TDCREATE
 40
2454410.724518044
  9
$TDUPDATE
 40
2454425.733810034
  9
$TDINDWG
 40
0.0496688773
  9
$TDUSRTIMER
 40
0.0496688773
  9
$USRTIMER
 70
     1
  9
$ANGBASE
 50
0.0
  9
$ANGDIR
 70
     0
  9
$PDMODE
 70
     0
  9
$PDSIZE
 40
-10.0
  9
$PLINEWID
 40
0.0
  9
$COORDS
 70
     0
  9
$SPLFRAME
 70
     0
  9
$SPLINETYPE
 70
     6
  9
$SPLINESEGS
 70
     8
  9
$ATTDIA
 70
     0
  9
$ATTREQ
 70
     1
  9
$HANDLING
 70
-16383
  9
$HANDSEED
  5
2781
  9
$SURFTAB1
 70
     6
  9
$SURFTAB2
 70
     6
  9
$SURFTYPE
 70
     6
  9
$SURFU
 70
     6
  9
$SURFV
 70
     6
  9
$UCSNAME
  2

  9
$UCSORG
 10
0.0
 20
0.0
 30
0.0
  9
$UCSXDIR
 10
1.0
 20
0.0
 30
0.0
  9
$UCSYDIR
 10
0.0
 20
1.0
 30
0.0
  9
$PUCSNAME
  2

  9
$PUCSORG
 10
0.0
 20
0.0
 30
0.0
  9
$PUCSXDIR
 10
1.0
 20
0.0
 30
0.0
  9
$PUCSYDIR
 10
0.0
 20
1.0
 30
0.0
  9
$USERI1
 70
     0
  9
$USERI2
 70
     0
  9
$USERI3
 70
     0
  9
$USERI4
 70
     0
  9
$USERI5
 70
     0
  9
$USERR1
 40
0.0
  9
$USERR2
 40
0.0
  9
$USERR3
 40
0.0
  9
$USERR4
 40
0.0
  9
$USERR5
 40
0.0
  9
$WORLDVIEW
 70
     1
  9
$SHADEDGE
 70
     3
  9
$SHADEDIF
 70
    70
  9
$TILEMODE
 70
     1
  9
$MAXACTVP
 70
    48
  9
$PINSBASE
 10
0.0
 20
0.0
 30
0.0
  9
$PLIMCHECK
 70
     0
  9
$PEXTMIN
 10
0.0
 20
0.0
 30
0.0
  9
$PEXTMAX
 10
0.0
 20
0.0
 30
0.0
  9
$PLIMMIN
 10
0.0
 20
0.0
  9
$PLIMMAX
 10
12.0
 20
9.0
  9
$UNITMODE
 70
     0
  9
$VISRETAIN
 70
     1
  9
$PLINEGEN
 70
     0
  9
$PSLTSCALE
 70
     1
  9
$TREEDEPTH
 70
  3020
  9
$PICKSTYLE
 70
     1
  9
$CMLSTYLE
  2
STANDARD
  9
$CMLJUST
 70
     0
  9
$CMLSCALE
 40
1.0
  9
$PROXYGRAPHICS
 70
     1
  9
$MEASUREMENT
 70
     0
  0
ENDSEC
  0
SECTION
  2
CLASSES
  0
CLASS
  1
DICTIONARYVAR
  2
AcDbDictionaryVar
  3
AutoCAD 2000
 90
        0
280
     0
281
     0
  0
CLASS
  1
ACDBDICTIONARYWDFLT
  2
AcDbDictionaryWithDefault
  3
AutoCAD 2000
 90
        0
280
     0
281
     0
  0
CLASS
  1
ACDBPLACEHOLDER
  2
AcDbPlaceHolder
  3
AutoCAD 2000
 90
        0
280
     0
281
     0
  0
CLASS
  1
LAYOUT
  2
AcDbLayout
  3
AutoCAD 2000
 90
        0
280
     0
281
     0
  0
CLASS
  1
MATERIAL
  2
AcDbMaterial
  3
ObjectDBX Classes
 90
     1153
280
     0
281
     0
  0
CLASS
  1
VISUALSTYLE
  2
AcDbVisualStyle
  3
ObjectDBX Classes
 90
     4095
280
     0
281
     0
  0
CLASS
  1
TABLESTYLE
  2
AcDbTableStyle
  3
ObjectDBX Classes
 90
     4095
280
     0
281
     0
  0
CLASS
  1
SCALE
  2
AcDbScale
  3
ObjectDBX Classes
 90
     1153
280
     0
281
     0
  0
CLASS
  1
MLEADERSTYLE
  2
AcDbMLeaderStyle
  3
ACDB_MLEADERSTYLE_CLASS
 90
     4095
280
     0
281
     0
  0
CLASS
  1
SORTENTSTABLE
  2
AcDbSortentsTable
  3
AutoCAD 2000
 90
        0
280
     0
281
     0
  0
CLASS
  1
CELLSTYLEMAP
  2
AcDbCellStyleMap
  3
ObjectDBX Classes
 90
     1152
280
     0
281
     0
  0
CLASS
  1
ACAD_PROXY_OBJECT_WRAPPER
  2
AcDbProxyObjectWrapper
  3
AutoCAD 2000
 90
        0
280
     0
281
     0
  0
CLASS
  1
LONG_TRANSACTION
  2
AcDbLongTransaction
  3
AutoCAD 2000
 90
        0
280
     0
281
     0
  0
CLASS
  1
LWPOLYLINE
  2
AcDbPolyline
  3
AutoCAD 2000
 90
        0
280
     0
281
     1
  0
CLASS
  1
HATCH
  2
AcDbHatch
  3
AutoCAD 2000
 90
        0
280
     0
281
     1
  0
CLASS
  1
XRECORD
  2
AcDbXrecord
  3
AutoCAD 2000
 90
        0
280
     0
281
     0
  0
ENDSEC
  0
SECTION
  2
TABLES
  0
TABLE
  2
VPORT
  5
6E
102
{ACAD_XDICTIONARY
360
2703
102
}
330
0
100
AcDbSymbolTable
 70
     2
  0
VPORT
  5
275C
330
6E
100
AcDbSymbolTableRecord
100
AcDbViewportTableRecord
  2
*ACTIVE
 70
     0
 10
0.0
 20
0.0
 11
1.0
 21
1.0
 12
527.4657996521527
 22
251.8785166236446
 13
0.0
 23
0.0
 14
10.0
 24
10.0
 15
10.0
 25
10.0
 16
0.0
 26
0.0
 36
1.0
 17
0.0
 27
0.0
 37
0.0
 40
569.8154871683648
 41
1.753504672897196
 42
50.0
 43
0.0
 44
0.0
 50
0.0
 51
0.0
 71
     0
 72
   100
 73
     1
 74
     3
 75
     0
 76
     0
 77
     0
 78
     0
  0
ENDTAB
  0
TABLE
  2
LTYPE
  5
69
330
0
100
AcDbSymbolTable
 70
     5
  0
LTYPE
  5
6A
330
69
100
AcDbSymbolTableRecord
100
AcDbLinetypeTableRecord
  2
BYBLOCK
 70
     0
  3

 72
    65
 73
     0
 40
0.0
  0
LTYPE
  5
6B
330
69
100
AcDbSymbolTableRecord
100
AcDbLinetypeTableRecord
  2
BYLAYER
 70
     0
  3

 72
    65
 73
     0
 40
0.0
  0
LTYPE
  5
8
330
69
100
AcDbSymbolTableRecord
100
AcDbLinetypeTableRecord
  2
CONTINUOUS
 70
     0
  3
Solid line
 72
    65
 73
     0
 40
0.0
  0
LTYPE
  5
27C
330
69
100
AcDbSymbolTableRecord
100
AcDbLinetypeTableRecord
  2
SEKKEI_A2_
 70
     0
  3
center(A2)  ____ _ ____ _ ____ _ ____ _ ____ _ 
 72
    65
 73
     4
 40
14.28749999999999
 49
9.525
 74
     0
 49
-1.587499999999999
 74
     0
 49
1.587499999999999
 74
     0
 49
-1.587499999999999
 74
     0
  0
LTYPE
  5
7F0
330
69
100
AcDbSymbolTableRecord
100
AcDbLinetypeTableRecord
  2
HIDDEN3
 70
     0
  3
Hidden (.3x) _ _ _ _ _ _ _ _ _ _ _ _ _ _ _ _ _
 72
    65
 73
     2
 40
2.857499999999999
 49
1.905
 74
     0
 49
-0.9525
 74
     0
  0
LTYPE
  5
AE1
330
69
100
AcDbSymbolTableRecord
100
AcDbLinetypeTableRecord
  2
CENS
 70
     0
  3
(一点鎖線１)---- - ---- - ---- - ---- - ---- - 
 72
    65
 73
     4
 40
7.0
 49
4.0
 74
     0
 49
-1.0
 74
     0
 49
1.0
 74
     0
 49
-1.0
 74
     0
  0
ENDTAB
  0
TABLE
  2
LAYER
  5
66
102
{ACAD_XDICTIONARY
360
AE2
102
}
330
0
100
AcDbSymbolTable
 70
     9
  0
LAYER
  5
5E
102
{ACAD_XDICTIONARY
360
26E8
102
}
330
66
100
AcDbSymbolTableRecord
100
AcDbLayerTableRecord
  2
0
 70
     0
 62
     7
  6
CONTINUOUS
  0
LAYER
  5
3E
102
{ACAD_XDICTIONARY
360
26EA
102
}
330
66
100
AcDbSymbolTableRecord
100
AcDbLayerTableRecord
  2
CENTER
 70
     0
 62
     3
  6
SEKKEI_A2_
  0
LAYER
  5
2B5
102
{ACAD_XDICTIONARY
360
26F0
102
}
330
66
100
AcDbSymbolTableRecord
100
AcDbLayerTableRecord
  2
HIDS
 70
     0
 62
     1
  6
HIDDEN3
  0
LAYER
  5
2BA
102
{ACAD_XDICTIONARY
360
26F2
102
}
330
66
100
AcDbSymbolTableRecord
100
AcDbLayerTableRecord
  2
HOJO
 70
     0
 62
     4
  6
CONTINUOUS
  0
LAYER
  5
3FA
102
{ACAD_XDICTIONARY
360
26F6
102
}
330
66
100
AcDbSymbolTableRecord
100
AcDbLayerTableRecord
  2
TITLE
 70
     0
 62
     4
  6
CONTINUOUS
  0
ENDTAB
  0
TABLE
  2
STYLE
  5
67
330
0
100
AcDbSymbolTable
 70
     2
  0
STYLE
  5
16
330
67
100
AcDbSymbolTableRecord
100
AcDbTextStyleTableRecord
  2
STANDARD
 70
     0
 40
0.0
 41
1.0
 50
0.0
 71
     0
 42
2.0
  3
simplex.shx
  4
extfont.shx
  0
ENDTAB
  0
TABLE
  2
VIEW
  5
6C
330
0
100
AcDbSymbolTable
 70
     0
  0
ENDTAB
  0
TABLE
  2
UCS
  5
6D
330
0
100
AcDbSymbolTable
 70
     0
  0
ENDTAB
  0
TABLE
  2
APPID
  5
70
330
0
100
AcDbSymbolTable
 70
     2
  0
APPID
  5
71
330
70
100
AcDbSymbolTableRecord
100
AcDbRegAppTableRecord
  2
ACAD
 70
     0
  0
APPID
  5
264E
330
70
100
AcDbSymbolTableRecord
100
AcDbRegAppTableRecord
  2
ACAD_MLEADERVER
 70
     0
  0
ENDTAB
  0
TABLE
  2
DIMSTYLE
  5
72
330
0
100
AcDbSymbolTable
 70
     1
  0
DIMSTYLE
105
73
330
72
100
AcDbSymbolTableRecord
100
AcDbDimStyleTableRecord
  2
STANDARD
 70
     0
  3

  4

  5

  6

  7

 40
3.0
 41
1.8
 42
0.625
 43
3.75
 44
0.8
 45
0.0
 46
0.0
 47
0.0
 48
0.0
140
1.8
141
2.5
142
0.0
143
0.0394
144
1.0
145
0.0
146
1.0
147
0.75
 71
     0
 72
     0
 73
     0
 74
     0
 75
     0
 76
     0
 77
     1
 78
     8
170
     0
171
     4
172
     1
173
     0
174
     0
175
     0
176
     0
177
     0
178
     0
270
     8
271
     2
272
     2
273
     8
274
     4
340
16
275
     0
280
     0
281
     0
282
     0
283
     1
284
     0
285
     0
286
     0
287
     3
288
     0
  0
ENDTAB
  0
TABLE
  2
BLOCK_RECORD
  5
1
330
0
100
AcDbSymbolTable
 70
    44
  0
BLOCK_RECORD
  5
2
102
{ACAD_XDICTIONARY
360
26C9
102
}
330
1
100
AcDbSymbolTableRecord
100
AcDbBlockTableRecord
  2
*MODEL_SPACE
  0
BLOCK_RECORD
  5
2757
102
{ACAD_XDICTIONARY
360
277F
102
}
330
1
100
AcDbSymbolTableRecord
100
AcDbBlockTableRecord
  2
*PAPER_SPACE
  0
BLOCK_RECORD
  5
8DB
330
1
100
AcDbSymbolTableRecord
100
AcDbBlockTableRecord
  2
A$C79D50562
  0
ENDTAB
  0
ENDSEC
  0
SECTION
  2
BLOCKS
  0
BLOCK
  5
5D
330
2
100
AcDbEntity
  8
0
100
AcDbBlockBegin
  2
*MODEL_SPACE
 70
     0
 10
0.0
 20
0.0
 30
0.0
  3
*MODEL_SPACE
  1

  0
ENDBLK
  5
5F
330
2
100
AcDbEntity
  8
0
100
AcDbBlockEnd
  0
BLOCK
  5
2759
330
2757
100
AcDbEntity
 67
     1
  8
0
100
AcDbBlockBegin
  2
*PAPER_SPACE
 70
     0
 10
0.0
 20
0.0
 30
0.0
  3
*PAPER_SPACE
  1

  0
ENDBLK
  5
275A
330
2757
100
AcDbEntity
 67
     1
  8
0
100
AcDbBlockEnd
  0
BLOCK
  5
8DE
330
8DB
100
AcDbEntity
  8
0
100
AcDbBlockBegin
  2
A$C79D50562
 70
     0
 10
0.0
 20
0.0
 30
0.0
  3
A$C79D50562
  1

  0
LINE
  5
8DC
330
8DB
100
AcDbEntity
  8
CENTER
100
AcDbLine
 10
0.0
 20
7.659444835277668
 30
0.0
 11
0.0
 21
-7.659444835277668
 31
0.0
  0
LINE
  5
8DD
330
8DB
100
AcDbEntity
  8
CENTER
100
AcDbLine
 10
-7.659444835277668
 20
0.0
 30
0.0
 11
7.659444835277668
 21
0.0
 31
0.0
  0
ENDBLK
  5
8DF
330
8DB
100
AcDbEntity
  8
0
100
AcDbBlockEnd
  0
ENDSEC
  0
SECTION
  2
ENTITIES
  0
TEXT
  5
F06
330
2
100
AcDbEntity
  8
TITLE
100
AcDbText
 10
283.876176646099
 20
415.3972862889061
 30
0.0
 40
7.5
  1
AFCZ18H-7~10M400S3
100
AcDbText
  0
TEXT
  5
F07
330
2
100
AcDbEntity
  8
TITLE
100
AcDbText
 10
283.876176646099
 20
403.897286288906
 30
0.0
 40
7.5
  1
AFCZ18H-7~10L400S3
100
AcDbText
  0
LINE
  5
F0A
330
2
100
AcDbEntity
  8
CENTER
100
AcDbLine
 10
218.8624655455299
 20
116.5803793048209
 30
0.0
 11
29.86246554552994
 21
116.5803793048209
 31
0.0
  0
LINE
  5
F0E
330
2
100
AcDbEntity
  8
CENTER
100
AcDbLine
 10
541.7034988437579
 20
411.4776468309496
 30
0.0
 11
730.4984174506988
 21
411.4776468309505
 31
0.0
  0
LINE
  5
F27
330
2
100
AcDbEntity
  8
0
100
AcDbLine
 10
677.498417450699
 20
158.0803793048064
 30
0.0
 11
677.498417450699
 21
75.08037930480634
 31
0.0
  0
LINE
  5
F32
330
2
100
AcDbEntity
  8
0
100
AcDbLine
 10
82.86246554552993
 20
75.08037930482044
 30
0.0
 11
82.86246554552993
 21
158.0803793048205
 31
0.0
  0
LINE
  5
F47
330
2
100
AcDbEntity
  8
0
100
AcDbLine
 10
677.4984174463297
 20
452.4776468309501
 30
0.0
 11
677.4984174463297
 21
370.4776468309501
 31
0.0
  0
LINE
  5
FE2
330
2
100
AcDbEntity
  8
CENTER
100
AcDbLine
 10
533.4984174507017
 20
116.5803793048027
 30
0.0
 11
730.498417450699
 21
116.5803793048032
 31
0.0
  0
LINE
  5
11F5
330
2
100
AcDbEntity
  8
CENTER
100
AcDbLine
 10
1010.980485618874
 20
116.5803793048024
 30
0.0
 11
855.4804856188702
 21
116.5803793048023
 31
0.0
  0
LINE
  5
11F6
330
2
100
AcDbEntity
  8
CENTER
100
AcDbLine
 10
957.9804856188786
 20
168.0803793048173
 30
0.0
 11
957.9804856188786
 21
65.08037930481822
 31
0.0
  0
LINE
  5
11F7
330
2
100
AcDbEntity
  8
0
100
AcDbLine
 10
914.9804856188749
 20
156.9956791628362
 30
0.0
 11
914.9804856188731
 21
76.16507944677159
 31
0.0
  0
LINE
  5
11F8
330
2
100
AcDbEntity
  8
0
100
AcDbLine
 10
909.9804856188759
 20
151.5803793047973
 30
0.0
 11
909.9804856188759
 21
81.5803793047973
 31
0.0
  0
LINE
  5
11F9
330
2
100
AcDbEntity
  8
0
100
AcDbLine
 10
908.050284612281
 20
144.9669452037653
 30
0.0
 11
898.9106866254717
 21
144.6477834092213
 31
0.0
  0
ARC
  5
11FA
330
2
100
AcDbEntity
  8
0
100
AcDbCircle
 10
907.980485618876
 20
146.9657268578032
 30
0.0
 40
2.0
100
AcDbArc
 50
272.000000000004
 51
0.0
  0
LINE
  5
11FB
330
2
100
AcDbEntity
  8
0
100
AcDbLine
 10
896.9804856188778
 20
142.6490017551825
 30
0.0
 11
896.9804856188758
 21
90.51175685441211
 31
0.0
  0
ARC
  5
11FC
330
2
100
AcDbEntity
  8
0
100
AcDbCircle
 10
898.980485618876
 20
142.6490017551825
 30
0.0
 40
2.0
100
AcDbArc
 50
92.00000000000406
 51
180.0
  0
ARC
  5
11FD
330
2
100
AcDbEntity
  8
0
100
AcDbCircle
 10
898.980485618876
 20
90.51175685441211
 30
0.0
 40
2.0
100
AcDbArc
 50
180.0
 51
267.9999999999959
  0
LINE
  5
11FE
330
2
100
AcDbEntity
  8
0
100
AcDbLine
 10
908.050284612281
 20
88.1938134058284
 30
0.0
 11
898.9106866254708
 21
88.51297520037332
 31
0.0
  0
ARC
  5
11FF
330
2
100
AcDbEntity
  8
0
100
AcDbCircle
 10
907.980485618876
 20
86.19503175178961
 30
0.0
 40
2.0
100
AcDbArc
 50
0.0
 51
87.99999999999595
  0
LINE
  5
1200
330
2
100
AcDbEntity
  8
0
100
AcDbLine
 10
998.9804856188778
 20
152.6409831258981
 30
0.0
 11
998.9804856188778
 21
80.51977548373832
 31
0.0
  0
LINE
  5
1201
330
2
100
AcDbEntity
  8
0
100
AcDbLine
 10
916.9804856188777
 20
152.6409831258963
 30
0.0
 11
916.9804856188777
 21
80.51977548374015
 31
0.0
  0
LINE
  5
1202
330
2
100
AcDbEntity
  8
0
100
AcDbLine
 10
994.0414566949623
 20
75.52014724477084
 30
0.0
 11
957.9804856188777
 21
75.08037930481822
 31
0.0
  0
LINE
  5
1203
330
2
100
AcDbEntity
  8
0
100
AcDbLine
 10
921.9195145427923
 20
75.52014724477266
 30
0.0
 11
957.9804856188768
 21
75.08037930481822
 31
0.0
  0
LINE
  5
1204
330
2
100
AcDbEntity
  8
0
100
AcDbLine
 10
921.9195145427923
 20
157.6406113648638
 30
0.0
 11
957.9804856188768
 21
158.0803793048173
 31
0.0
  0
ARC
  5
1205
330
2
100
AcDbEntity
  8
0
100
AcDbCircle
 10
993.9804856188777
 20
152.6409831258981
 30
0.0
 40
5.0
100
AcDbArc
 50
0.0
 51
89.30130561700025
  0
ARC
  5
1206
330
2
100
AcDbEntity
  8
0
100
AcDbCircle
 10
921.9804856188778
 20
152.6409831258963
 30
0.0
 40
5.0
100
AcDbArc
 50
90.69869438299972
 51
180.0
  0
ARC
  5
1207
330
2
100
AcDbEntity
  8
0
100
AcDbCircle
 10
921.9804856188778
 20
80.51977548374015
 30
0.0
 40
5.0
100
AcDbArc
 50
180.0
 51
269.3013056170002
  0
ARC
  5
1208
330
2
100
AcDbEntity
  8
0
100
AcDbCircle
 10
993.9804856188777
 20
80.51977548373832
 30
0.0
 40
5.0
100
AcDbArc
 50
270.6986943829997
 51
0.0
  0
LINE
  5
1209
330
2
100
AcDbEntity
  8
0
100
AcDbLine
 10
994.0414566949623
 20
157.6406113648656
 30
0.0
 11
957.9804856188777
 21
158.0803793048173
 31
0.0
  0
LINE
  5
120A
330
2
100
AcDbEntity
  8
0
100
AcDbLine
 10
919.5963361305304
 20
76.12479752961843
 30
0.0
 11
914.9804856188731
 21
76.16507944677159
 31
0.0
  0
LINE
  5
120B
330
2
100
AcDbEntity
  8
0
100
AcDbLine
 10
919.5963361304849
 20
157.0359610799926
 30
0.0
 11
914.9804856188749
 21
156.9956791628362
 31
0.0
  0
LINE
  5
120C
330
2
100
AcDbEntity
  8
0
100
AcDbLine
 10
914.980485618876
 20
151.5803793047973
 30
0.0
 11
909.9804856188759
 21
151.5803793047973
 31
0.0
  0
LINE
  5
120D
330
2
100
AcDbEntity
  8
0
100
AcDbLine
 10
914.980485618876
 20
81.5803793047973
 30
0.0
 11
909.9804856188759
 21
81.5803793047973
 31
0.0
  0
LINE
  5
120E
330
2
100
AcDbEntity
  8
0
100
AcDbLine
 10
999.9804856188704
 20
143.0803793048005
 30
0.0
 11
998.9804856188778
 21
143.0803793048005
 31
0.0
  0
LINE
  5
120F
330
2
100
AcDbEntity
  8
0
100
AcDbLine
 10
999.9804856188696
 20
143.0803793048005
 30
0.0
 11
1000.98048561887
 21
142.503029035611
 31
0.0
  0
LINE
  5
1210
330
2
100
AcDbEntity
  8
0
100
AcDbLine
 10
1000.980485618874
 20
90.65772957399047
 30
0.0
 11
1000.980485618874
 21
142.5030290356082
 31
0.0
  0
LINE
  5
1211
330
2
100
AcDbEntity
  8
0
100
AcDbLine
 10
999.9804856188696
 20
90.08037930479867
 30
0.0
 11
1000.98048561887
 21
90.65772957398866
 31
0.0
  0
LINE
  5
1212
330
2
100
AcDbEntity
  8
0
100
AcDbLine
 10
999.9804856188704
 20
90.08037930479867
 30
0.0
 11
998.9804856188778
 21
90.08037930479913
 31
0.0
  0
LINE
  5
1213
330
2
100
AcDbEntity
  8
0
100
AcDbLine
 10
999.9804856188704
 20
90.08037930479867
 30
0.0
 11
999.9804856188696
 21
143.0803793048005
 31
0.0
  0
LINE
  5
121A
330
2
100
AcDbEntity
  8
0
100
AcDbLine
 10
689.4984174506991
 20
155.4930344701246
 30
0.0
 11
689.498417450699
 21
125.6195411982559
 31
0.0
  0
LINE
  5
121B
330
2
100
AcDbEntity
  8
0
100
AcDbLine
 10
689.498417450699
 20
116.5803793048032
 30
0.0
 11
689.4984174506988
 21
76.93214702666239
 31
0.0
  0
LINE
  5
121D
330
2
100
AcDbEntity
  8
0
100
AcDbLine
 10
677.498417450699
 20
75.58037930480316
 30
0.0
 11
687.5158705216956
 21
75.6678002933542
 31
0.0
  0
LINE
  5
121E
330
2
100
AcDbEntity
  8
0
100
AcDbLine
 10
696.4984174506989
 20
84.74000553870258
 30
0.0
 11
715.2110745084964
 21
85.06663618262622
 31
0.0
  0
LINE
  5
121F
330
2
100
AcDbEntity
  8
0
100
AcDbLine
 10
717.4984174506989
 20
86.52801411001803
 30
0.0
 11
720.4984174506989
 21
86.58037930480317
 31
0.0
  0
LINE
  5
1220
330
2
100
AcDbEntity
  8
0
100
AcDbLine
 10
677.498417450699
 20
157.5803793048032
 30
0.0
 11
687.5158705216957
 21
157.4929583162529
 31
0.0
  0
LINE
  5
1221
330
2
100
AcDbEntity
  8
0
100
AcDbLine
 10
710.3977507790805
 20
139.0803793048032
 30
0.0
 11
713.4984174506989
 21
139.0803793048032
 31
0.0
  0
LINE
  5
1224
330
2
100
AcDbEntity
  8
0
100
AcDbLine
 10
717.4984174506989
 20
86.52801411001803
 30
0.0
 11
716.5650403851151
 21
85.62722135899894
 31
0.0
  0
LINE
  5
1225
330
2
100
AcDbEntity
  8
0
100
AcDbLine
 10
696.4984174506989
 20
148.4207530709033
 30
0.0
 11
715.4970360980549
 21
148.0891309488674
 31
0.0
  0
LINE
  5
1226
330
2
100
AcDbEntity
  8
0
100
AcDbLine
 10
717.4984174506989
 20
146.6327444995883
 30
0.0
 11
720.4984174506989
 21
146.5803793048032
 31
0.0
  0
LINE
  5
1227
330
2
100
AcDbEntity
  8
0
100
AcDbLine
 10
717.4984174506989
 20
146.6327444995883
 30
0.0
 11
716.5650403851151
 21
147.5335372506074
 31
0.0
  0
LINE
  5
1228
330
2
100
AcDbEntity
  8
0
100
AcDbLine
 10
720.4984174506989
 20
86.58037930480317
 30
0.0
 11
720.4984174506989
 21
146.5803793048032
 31
0.0
  0
LINE
  5
1229
330
2
100
AcDbEntity
  8
0
100
AcDbLine
 10
717.4984174506989
 20
146.6327444995883
 30
0.0
 11
717.4984174506989
 21
143.0776599068869
 31
0.0
  0
LINE
  5
122A
330
2
100
AcDbEntity
  8
0
100
AcDbLine
 10
689.4984174463296
 20
371.8294145528088
 30
0.0
 11
689.4984174463296
 21
451.1258791090904
 31
0.0
  0
LINE
  5
122C
330
2
100
AcDbEntity
  8
0
100
AcDbLine
 10
677.4984174463297
 20
452.4776468309501
 30
0.0
 11
687.5158705173264
 21
452.3902258423991
 31
0.0
  0
LINE
  5
122D
330
2
100
AcDbEntity
  8
0
100
AcDbLine
 10
696.4984174463296
 20
443.3180205970502
 30
0.0
 11
715.2110745041267
 21
442.9913899531269
 31
0.0
  0
LINE
  5
122E
330
2
100
AcDbEntity
  8
0
100
AcDbLine
 10
717.4984174463296
 20
441.5300120257348
 30
0.0
 11
720.4984174463296
 21
441.4776468309501
 31
0.0
  0
LINE
  5
122F
330
2
100
AcDbEntity
  8
0
100
AcDbLine
 10
677.4984174463297
 20
370.4776468309501
 30
0.0
 11
687.5158705173263
 21
370.5650678195003
 31
0.0
  0
LINE
  5
1232
330
2
100
AcDbEntity
  8
0
100
AcDbLine
 10
717.4984174463296
 20
441.5300120257348
 30
0.0
 11
716.5650403807457
 21
442.430804776754
 31
0.0
  0
LINE
  5
1233
330
2
100
AcDbEntity
  8
0
100
AcDbLine
 10
696.4984174463296
 20
379.6372730648495
 30
0.0
 11
715.2110745041267
 21
379.9639037087727
 31
0.0
  0
LINE
  5
1234
330
2
100
AcDbEntity
  8
0
100
AcDbLine
 10
717.4984174463296
 20
381.425281636165
 30
0.0
 11
720.4984174463296
 21
381.4776468309501
 31
0.0
  0
LINE
  5
1235
330
2
100
AcDbEntity
  8
0
100
AcDbLine
 10
717.4984174463296
 20
381.425281636165
 30
0.0
 11
716.5650403807457
 21
380.5244888851456
 31
0.0
  0
LINE
  5
1236
330
2
100
AcDbEntity
  8
0
100
AcDbLine
 10
720.4984174463296
 20
441.4776468309501
 30
0.0
 11
720.4984174463296
 21
381.4776468309501
 31
0.0
  0
LINE
  5
1237
330
2
100
AcDbEntity
  8
0
100
AcDbLine
 10
717.4984174463296
 20
381.425281636165
 30
0.0
 11
717.4984174463296
 21
441.5300120257348
 31
0.0
  0
LINE
  5
1238
330
2
100
AcDbEntity
  8
CENTER
  6
CENS
100
AcDbLine
 10
674.4984174506989
 20
151.2286115829439
 30
0.0
 11
701.498417450699
 21
151.2286115829439
 31
0.0
  0
LINE
  5
1239
330
2
100
AcDbEntity
  8
0
100
AcDbLine
 10
696.0984174506993
 20
146.2286115829439
 30
0.0
 11
696.0984174506993
 21
156.2286115829439
 31
0.0
  0
LINE
  5
123A
330
2
100
AcDbEntity
  8
0
100
AcDbLine
 10
696.4984174506989
 20
155.5357912599162
 30
0.0
 11
696.4984174506989
 21
146.9214319059717
 31
0.0
  0
LINE
  5
123B
330
2
100
AcDbEntity
  8
0
100
AcDbLine
 10
690.4984174506989
 20
146.2286115829439
 30
0.0
 11
690.4984174506989
 21
156.2286115829439
 31
0.0
  0
LINE
  5
123C
330
2
100
AcDbEntity
  8
0
100
AcDbLine
 10
690.4984174506989
 20
156.2286115829439
 30
0.0
 11
689.498417450699
 21
156.2286115829439
 31
0.0
  0
LINE
  5
123D
330
2
100
AcDbEntity
  8
0
100
AcDbLine
 10
689.498417450699
 20
156.2286115829439
 30
0.0
 11
689.498417450699
 21
146.2286115829439
 31
0.0
  0
LINE
  5
123E
330
2
100
AcDbEntity
  8
0
100
AcDbLine
 10
689.498417450699
 20
146.2286115829439
 30
0.0
 11
690.4984174506989
 21
146.2286115829439
 31
0.0
  0
LINE
  5
123F
330
2
100
AcDbEntity
  8
0
100
AcDbLine
 10
690.4984174506989
 20
146.2286115829439
 30
0.0
 11
690.4984174506989
 21
156.2286115829439
 31
0.0
  0
LINE
  5
1240
330
2
100
AcDbEntity
  8
0
100
AcDbLine
 10
696.0984174506993
 20
146.2286115829439
 30
0.0
 11
690.4984174506989
 21
146.2286115829439
 31
0.0
  0
LINE
  5
1241
330
2
100
AcDbEntity
  8
0
100
AcDbLine
 10
690.4984174506989
 20
156.2286115829439
 30
0.0
 11
696.0984174506993
 21
156.2286115829439
 31
0.0
  0
LINE
  5
1242
330
2
100
AcDbEntity
  8
0
100
AcDbLine
 10
696.0984174506993
 20
156.2286115829439
 30
0.0
 11
696.4984174506989
 21
155.5357912599162
 31
0.0
  0
LINE
  5
1243
330
2
100
AcDbEntity
  8
0
100
AcDbLine
 10
696.0984174506993
 20
146.2286115829439
 30
0.0
 11
696.4984174506989
 21
146.9214319059717
 31
0.0
  0
LINE
  5
1244
330
2
100
AcDbEntity
  8
CENTER
  6
CENS
100
AcDbLine
 10
674.4984174506989
 20
81.93214702666239
 30
0.0
 11
701.498417450699
 21
81.93214702666239
 31
0.0
  0
LINE
  5
1245
330
2
100
AcDbEntity
  8
0
100
AcDbLine
 10
696.0984174506993
 20
86.93214702666239
 30
0.0
 11
696.0984174506993
 21
76.93214702666239
 31
0.0
  0
LINE
  5
1246
330
2
100
AcDbEntity
  8
0
100
AcDbLine
 10
696.4984174506989
 20
77.62496734968966
 30
0.0
 11
696.4984174506989
 21
86.23932670363467
 31
0.0
  0
LINE
  5
1247
330
2
100
AcDbEntity
  8
0
100
AcDbLine
 10
690.4984174506989
 20
86.93214702666239
 30
0.0
 11
690.4984174506989
 21
76.93214702666239
 31
0.0
  0
LINE
  5
1248
330
2
100
AcDbEntity
  8
0
100
AcDbLine
 10
690.4984174506989
 20
76.93214702666239
 30
0.0
 11
689.4984174506988
 21
76.93214702666239
 31
0.0
  0
LINE
  5
1249
330
2
100
AcDbEntity
  8
0
100
AcDbLine
 10
689.498417450699
 20
86.93214702666239
 30
0.0
 11
690.4984174506989
 21
86.93214702666239
 31
0.0
  0
LINE
  5
124A
330
2
100
AcDbEntity
  8
0
100
AcDbLine
 10
690.4984174506989
 20
86.93214702666239
 30
0.0
 11
690.4984174506989
 21
76.93214702666239
 31
0.0
  0
LINE
  5
124B
330
2
100
AcDbEntity
  8
0
100
AcDbLine
 10
696.0984174506993
 20
86.93214702666239
 30
0.0
 11
690.4984174506989
 21
86.93214702666239
 31
0.0
  0
LINE
  5
124C
330
2
100
AcDbEntity
  8
0
100
AcDbLine
 10
690.4984174506989
 20
76.93214702666239
 30
0.0
 11
696.0984174506993
 21
76.93214702666239
 31
0.0
  0
LINE
  5
124D
330
2
100
AcDbEntity
  8
0
100
AcDbLine
 10
696.0984174506993
 20
76.93214702666193
 30
0.0
 11
696.4984174506989
 21
77.62496734968966
 31
0.0
  0
LINE
  5
124E
330
2
100
AcDbEntity
  8
0
100
AcDbLine
 10
696.0984174506993
 20
86.93214702666239
 30
0.0
 11
696.4984174506989
 21
86.23932670363467
 31
0.0
  0
LINE
  5
124F
330
2
100
AcDbEntity
  8
CENTER
  6
CENS
100
AcDbLine
 10
674.4984174463296
 20
376.8294145528088
 30
0.0
 11
701.4984174463296
 21
376.8294145528088
 31
0.0
  0
LINE
  5
1250
330
2
100
AcDbEntity
  8
0
100
AcDbLine
 10
696.09841744633
 20
381.8294145528088
 30
0.0
 11
696.09841744633
 21
371.8294145528088
 31
0.0
  0
LINE
  5
1251
330
2
100
AcDbEntity
  8
0
100
AcDbLine
 10
696.4984174463296
 20
372.5222348758366
 30
0.0
 11
696.4984174463296
 21
381.1365942297816
 31
0.0
  0
LINE
  5
1252
330
2
100
AcDbEntity
  8
0
100
AcDbLine
 10
690.4984174463296
 20
381.8294145528088
 30
0.0
 11
690.4984174463296
 21
371.8294145528088
 31
0.0
  0
LINE
  5
1253
330
2
100
AcDbEntity
  8
0
100
AcDbLine
 10
690.4984174463296
 20
371.8294145528088
 30
0.0
 11
689.4984174463296
 21
371.8294145528088
 31
0.0
  0
LINE
  5
1254
330
2
100
AcDbEntity
  8
0
100
AcDbLine
 10
689.4984174463296
 20
381.8294145528088
 30
0.0
 11
690.4984174463296
 21
381.8294145528088
 31
0.0
  0
LINE
  5
1255
330
2
100
AcDbEntity
  8
0
100
AcDbLine
 10
690.4984174463296
 20
381.8294145528088
 30
0.0
 11
690.4984174463296
 21
371.8294145528088
 31
0.0
  0
LINE
  5
1256
330
2
100
AcDbEntity
  8
0
100
AcDbLine
 10
696.09841744633
 20
381.8294145528088
 30
0.0
 11
690.4984174463296
 21
381.8294145528088
 31
0.0
  0
LINE
  5
1257
330
2
100
AcDbEntity
  8
0
100
AcDbLine
 10
690.4984174463296
 20
371.8294145528088
 30
0.0
 11
696.09841744633
 21
371.8294145528088
 31
0.0
  0
LINE
  5
1258
330
2
100
AcDbEntity
  8
0
100
AcDbLine
 10
696.09841744633
 20
371.8294145528088
 30
0.0
 11
696.4984174463296
 21
372.5222348758366
 31
0.0
  0
LINE
  5
1259
330
2
100
AcDbEntity
  8
CENTER
  6
CENS
100
AcDbLine
 10
674.4984174463296
 20
446.1258791090904
 30
0.0
 11
701.4984174463296
 21
446.1258791090904
 31
0.0
  0
LINE
  5
125A
330
2
100
AcDbEntity
  8
0
100
AcDbLine
 10
696.09841744633
 20
441.1258791090904
 30
0.0
 11
696.09841744633
 21
451.1258791090904
 31
0.0
  0
LINE
  5
125B
330
2
100
AcDbEntity
  8
0
100
AcDbLine
 10
696.4984174463296
 20
450.4330587860631
 30
0.0
 11
696.4984174463296
 21
441.8186994321185
 31
0.0
  0
LINE
  5
125C
330
2
100
AcDbEntity
  8
0
100
AcDbLine
 10
690.4984174463296
 20
441.1258791090904
 30
0.0
 11
690.4984174463296
 21
451.1258791090904
 31
0.0
  0
LINE
  5
125D
330
2
100
AcDbEntity
  8
0
100
AcDbLine
 10
690.4984174463296
 20
451.1258791090904
 30
0.0
 11
689.4984174463296
 21
451.1258791090904
 31
0.0
  0
LINE
  5
125E
330
2
100
AcDbEntity
  8
0
100
AcDbLine
 10
689.4984174463296
 20
441.1258791090904
 30
0.0
 11
690.4984174463296
 21
441.1258791090904
 31
0.0
  0
LINE
  5
125F
330
2
100
AcDbEntity
  8
0
100
AcDbLine
 10
690.4984174463296
 20
441.1258791090904
 30
0.0
 11
690.4984174463296
 21
451.1258791090904
 31
0.0
  0
LINE
  5
1260
330
2
100
AcDbEntity
  8
0
100
AcDbLine
 10
696.09841744633
 20
441.1258791090904
 30
0.0
 11
690.4984174463296
 21
441.1258791090904
 31
0.0
  0
LINE
  5
1261
330
2
100
AcDbEntity
  8
0
100
AcDbLine
 10
690.4984174463296
 20
451.1258791090904
 30
0.0
 11
696.09841744633
 21
451.1258791090904
 31
0.0
  0
LINE
  5
1262
330
2
100
AcDbEntity
  8
0
100
AcDbLine
 10
696.09841744633
 20
451.1258791090908
 30
0.0
 11
696.4984174463296
 21
450.4330587860631
 31
0.0
  0
LINE
  5
1263
330
2
100
AcDbEntity
  8
0
100
AcDbLine
 10
696.09841744633
 20
441.1258791090904
 30
0.0
 11
696.4984174463296
 21
441.8186994321181
 31
0.0
  0
LINE
  5
1264
330
2
100
AcDbEntity
  8
0
100
AcDbLine
 10
696.4984174463296
 20
381.1365942297816
 30
0.0
 11
696.09841744633
 21
381.8294145528088
 31
0.0
  0
LINE
  5
1265
330
2
100
AcDbEntity
  8
0
100
AcDbLine
 10
710.998406841647
 20
123.5803793048036
 30
0.0
 11
700.998406841647
 21
123.5803793048036
 31
0.0
  0
LINE
  5
1266
330
2
100
AcDbEntity
  8
0
100
AcDbLine
 10
710.998406841647
 20
123.5803793048032
 30
0.0
 11
710.998406841647
 21
116.5803793048032
 31
0.0
  0
LINE
  5
1267
330
2
100
AcDbEntity
  8
0
100
AcDbLine
 10
712.998406841647
 20
124.7350798431827
 30
0.0
 11
710.998406841647
 21
123.5803793048032
 31
0.0
  0
LINE
  5
1268
330
2
100
AcDbEntity
  8
0
100
AcDbLine
 10
683.998406841647
 20
123.8303793048032
 30
0.0
 11
683.998406841647
 21
116.5803793048032
 31
0.0
  0
LINE
  5
1269
330
2
100
AcDbEntity
  8
0
100
AcDbLine
 10
710.998406841647
 20
123.5803793048032
 30
0.0
 11
700.998406841647
 21
123.5803793048032
 31
0.0
  0
LINE
  5
126A
330
2
100
AcDbEntity
  8
0
100
AcDbLine
 10
705.9106210203208
 20
131.3303793048032
 30
0.0
 11
712.998406841647
 21
131.3303793048032
 31
0.0
  0
LINE
  5
126B
330
2
100
AcDbEntity
  8
0
100
AcDbLine
 10
712.998406841647
 20
131.3303793048032
 30
0.0
 11
712.998406841647
 21
116.5803793048032
 31
0.0
  0
LINE
  5
126C
330
2
100
AcDbEntity
  8
0
100
AcDbLine
 10
698.998406841647
 20
126.8650604915262
 30
0.0
 11
698.998406841647
 21
116.5803793048032
 31
0.0
  0
LINE
  5
126D
330
2
100
AcDbEntity
  8
0
100
AcDbLine
 10
700.998406841647
 20
127.3904606389584
 30
0.0
 11
700.998406841647
 21
116.5803793048032
 31
0.0
  0
LINE
  5
126E
330
2
100
AcDbEntity
  8
0
100
AcDbLine
 10
691.998406841647
 20
123.8303793048032
 30
0.0
 11
683.998406841647
 21
123.8303793048032
 31
0.0
  0
LINE
  5
126F
330
2
100
AcDbEntity
  8
0
100
AcDbLine
 10
691.998406841647
 20
116.5803793048032
 30
0.0
 11
691.998406841647
 21
123.8303793048032
 31
0.0
  0
LINE
  5
1270
330
2
100
AcDbEntity
  8
0
100
AcDbLine
 10
698.998406841647
 20
123.5803793048032
 30
0.0
 11
691.998406841647
 21
123.5803793048032
 31
0.0
  0
LINE
  5
1271
330
2
100
AcDbEntity
  8
0
100
AcDbLine
 10
680.2456300919147
 20
116.5803793048032
 30
0.0
 11
683.998406841647
 21
123.0803793048032
 31
0.0
  0
LINE
  5
1272
330
2
100
AcDbEntity
  8
0
100
AcDbLine
 10
713.4984174506989
 20
141.5803793048032
 30
0.0
 11
720.4984174506989
 21
141.5803793048032
 31
0.0
  0
LINE
  5
1273
330
2
100
AcDbEntity
  8
0
100
AcDbLine
 10
713.4984174506989
 20
141.5803793048032
 30
0.0
 11
713.4984174506989
 21
116.5803793048032
 31
0.0
  0
SPLINE
  5
1274
330
2
100
AcDbEntity
  8
HOJO
100
AcDbSpline
210
0.0
220
0.0
230
1.0
 70
     8
 71
     3
 72
    20
 73
    16
 74
     0
 42
0.0000000001
 43
0.0000000001
 40
0.0
 40
0.0
 40
0.0
 40
0.0
 40
5.311626210389601
 40
7.954639692924123
 40
10.24579206730457
 40
14.18281221953265
 40
18.83794314114633
 40
26.54246833222011
 40
31.19712602527561
 40
34.95638115537181
 40
42.12378530287149
 40
45.78553747213095
 40
50.20353689726185
 40
53.26513166942802
 40
54.23175360515262
 40
54.23175360515262
 40
54.23175360515262
 40
54.23175360515262
 10
720.4984174506989
 20
143.2678280268192
 30
0.0
 10
718.785438284809
 20
143.159785976593
 30
0.0
 10
716.220097365398
 20
142.997983254189
 30
0.0
 10
712.4483434783215
 20
142.745850582021
 30
0.0
 10
711.1292022621873
 20
139.8134090970544
 30
0.0
 10
708.6939928938972
 20
137.1589002737588
 30
0.0
 10
706.8559445507471
 20
132.007604840595
 30
0.0
 10
702.7311081412699
 20
127.2978574889694
 30
0.0
 10
697.2534606382632
 20
126.6605260545499
 30
0.0
 10
692.3400751286972
 20
125.8065024229919
 30
0.0
 10
687.5060757819392
 20
125.4703619012208
 30
0.0
 10
682.4683490172993
 20
125.066987152316
 30
0.0
 10
679.3971983959309
 20
120.8647841554562
 30
0.0
 10
678.3972241012052
 20
118.1865436345666
 30
0.0
 10
678.0411845759718
 20
116.8915306044956
 30
0.0
 10
677.9584568038845
 20
116.5803793048031
 30
0.0
  0
CIRCLE
  5
1276
330
2
100
AcDbEntity
  8
0
100
AcDbCircle
 10
706.4984068372795
 20
400.97764683095
 30
0.0
 40
9.0
  0
LINE
  5
1277
330
2
100
AcDbEntity
  8
CENTER
  6
CENS
100
AcDbLine
 10
706.4984068372776
 20
389.3914809855737
 30
0.0
 11
706.4984068372776
 21
412.5638126763256
 31
0.0
  0
LINE
  5
1278
330
2
100
AcDbEntity
  8
CENTER
  6
CENS
100
AcDbLine
 10
718.0845726826536
 20
400.9776468309496
 30
0.0
 11
694.9122409919017
 21
400.9776468309496
 31
0.0
  0
LINE
  5
1279
330
2
100
AcDbEntity
  8
0
100
AcDbLine
 10
711.5674549431806
 20
152.1583313552425
 30
0.0
 11
701.5689779916156
 21
152.3328554196152
 31
0.0
  0
ARC
  5
127A
330
2
100
AcDbEntity
  8
0
100
AcDbCircle
 10
701.4991683658664
 20
148.3334646389895
 30
0.0
 40
4.000000000000023
100
AcDbArc
 50
89.0000000000243
 51
178.9999999999974
  0
ARC
  5
127B
330
2
100
AcDbEntity
  8
0
100
AcDbCircle
 10
711.4976453174294
 20
148.1589405746169
 30
0.0
 40
4.000000000000023
100
AcDbArc
 50
358.999999999995
 51
89.0000000000243
  0
LINE
  5
127C
330
2
100
AcDbEntity
  8
CENTER
  6
CENS
100
AcDbLine
 10
706.4984068416488
 20
155.5073132023669
 30
0.0
 11
706.4984068416488
 21
134.3215674586223
 31
0.0
  0
LINE
  5
127E
330
2
100
AcDbEntity
  8
0
100
AcDbLine
 10
717.4984174506989
 20
86.52801411001803
 30
0.0
 11
717.4984174506989
 21
116.5803793048032
 31
0.0
  0
LINE
  5
127F
330
2
100
AcDbEntity
  8
0
100
AcDbLine
 10
70.86246554552994
 20
155.4930344701424
 30
0.0
 11
70.86246554552994
 21
76.93214702668012
 31
0.0
  0
LINE
  5
1280
330
2
100
AcDbEntity
  8
0
100
AcDbLine
 10
82.86246554552993
 20
75.5803793048209
 30
0.0
 11
72.84501247453313
 21
75.66780029337191
 31
0.0
  0
LINE
  5
1281
330
2
100
AcDbEntity
  8
0
100
AcDbLine
 10
63.86246554552994
 20
84.74000553872031
 30
0.0
 11
45.14980848773249
 21
85.06663618264395
 31
0.0
  0
LINE
  5
1282
330
2
100
AcDbEntity
  8
0
100
AcDbLine
 10
42.86246554552994
 20
86.52801411003578
 30
0.0
 11
39.86246554552994
 21
86.58037930482089
 31
0.0
  0
LINE
  5
1283
330
2
100
AcDbEntity
  8
0
100
AcDbLine
 10
82.86246554552993
 20
157.5803793048209
 30
0.0
 11
72.84501247453329
 21
157.4929583162707
 31
0.0
  0
LINE
  5
1286
330
2
100
AcDbEntity
  8
0
100
AcDbLine
 10
42.86246554552994
 20
86.52801411003578
 30
0.0
 11
43.79584261111386
 21
85.62722135901669
 31
0.0
  0
LINE
  5
1287
330
2
100
AcDbEntity
  8
0
100
AcDbLine
 10
63.86246554552994
 20
148.420753070921
 30
0.0
 11
44.86384689817387
 21
148.089130948885
 31
0.0
  0
LINE
  5
1288
330
2
100
AcDbEntity
  8
0
100
AcDbLine
 10
42.86246554552994
 20
146.632744499606
 30
0.0
 11
39.86246554552994
 21
146.5803793048209
 31
0.0
  0
LINE
  5
1289
330
2
100
AcDbEntity
  8
0
100
AcDbLine
 10
42.86246554552994
 20
146.632744499606
 30
0.0
 11
43.79584261111386
 21
147.5335372506251
 31
0.0
  0
LINE
  5
128A
330
2
100
AcDbEntity
  8
0
100
AcDbLine
 10
39.86246554552994
 20
86.58037930482089
 30
0.0
 11
39.86246554552994
 21
146.5803793048209
 31
0.0
  0
LINE
  5
128B
330
2
100
AcDbEntity
  8
CENTER
  6
CENS
100
AcDbLine
 10
85.86246554552994
 20
151.2286115829617
 30
0.0
 11
58.86246554552994
 21
151.2286115829617
 31
0.0
  0
LINE
  5
128C
330
2
100
AcDbEntity
  8
0
100
AcDbLine
 10
64.26246554552958
 20
146.2286115829617
 30
0.0
 11
64.26246554552958
 21
156.2286115829617
 31
0.0
  0
LINE
  5
128D
330
2
100
AcDbEntity
  8
0
100
AcDbLine
 10
63.86246554552994
 20
155.5357912599339
 30
0.0
 11
63.86246554552994
 21
146.9214319059894
 31
0.0
  0
LINE
  5
128E
330
2
100
AcDbEntity
  8
0
100
AcDbLine
 10
69.86246554552995
 20
146.2286115829617
 30
0.0
 11
69.86246554552995
 21
156.2286115829617
 31
0.0
  0
LINE
  5
128F
330
2
100
AcDbEntity
  8
0
100
AcDbLine
 10
69.86246554552995
 20
156.2286115829617
 30
0.0
 11
70.86246554552994
 21
156.2286115829617
 31
0.0
  0
LINE
  5
1290
330
2
100
AcDbEntity
  8
0
100
AcDbLine
 10
70.86246554552994
 20
156.2286115829617
 30
0.0
 11
70.86246554552994
 21
146.2286115829617
 31
0.0
  0
LINE
  5
1291
330
2
100
AcDbEntity
  8
0
100
AcDbLine
 10
70.86246554552994
 20
146.2286115829617
 30
0.0
 11
69.86246554552995
 21
146.2286115829617
 31
0.0
  0
LINE
  5
1292
330
2
100
AcDbEntity
  8
0
100
AcDbLine
 10
69.86246554552995
 20
146.2286115829617
 30
0.0
 11
69.86246554552995
 21
156.2286115829617
 31
0.0
  0
LINE
  5
1293
330
2
100
AcDbEntity
  8
0
100
AcDbLine
 10
64.26246554552958
 20
146.2286115829617
 30
0.0
 11
69.86246554552995
 21
146.2286115829617
 31
0.0
  0
LINE
  5
1294
330
2
100
AcDbEntity
  8
0
100
AcDbLine
 10
69.86246554552995
 20
156.2286115829617
 30
0.0
 11
64.26246554552958
 21
156.2286115829617
 31
0.0
  0
LINE
  5
1295
330
2
100
AcDbEntity
  8
0
100
AcDbLine
 10
64.26246554552958
 20
156.2286115829617
 30
0.0
 11
63.86246554552994
 21
155.5357912599339
 31
0.0
  0
LINE
  5
1296
330
2
100
AcDbEntity
  8
0
100
AcDbLine
 10
64.26246554552958
 20
146.2286115829617
 30
0.0
 11
63.86246554552994
 21
146.9214319059894
 31
0.0
  0
LINE
  5
1297
330
2
100
AcDbEntity
  8
CENTER
  6
CENS
100
AcDbLine
 10
85.86246554552994
 20
81.93214702668013
 30
0.0
 11
58.86246554552994
 21
81.93214702668013
 31
0.0
  0
LINE
  5
1298
330
2
100
AcDbEntity
  8
0
100
AcDbLine
 10
64.26246554552958
 20
86.93214702668013
 30
0.0
 11
64.26246554552958
 21
76.93214702668012
 31
0.0
  0
LINE
  5
1299
330
2
100
AcDbEntity
  8
0
100
AcDbLine
 10
63.86246554552994
 20
77.62496734970738
 30
0.0
 11
63.86246554552994
 21
86.2393267036524
 31
0.0
  0
LINE
  5
129A
330
2
100
AcDbEntity
  8
0
100
AcDbLine
 10
69.86246554552995
 20
86.93214702668013
 30
0.0
 11
69.86246554552995
 21
76.93214702668012
 31
0.0
  0
LINE
  5
129B
330
2
100
AcDbEntity
  8
0
100
AcDbLine
 10
69.86246554552995
 20
76.93214702668012
 30
0.0
 11
70.86246554552994
 21
76.93214702668012
 31
0.0
  0
LINE
  5
129C
330
2
100
AcDbEntity
  8
0
100
AcDbLine
 10
70.86246554552994
 20
86.93214702668013
 30
0.0
 11
69.86246554552995
 21
86.93214702668013
 31
0.0
  0
LINE
  5
129D
330
2
100
AcDbEntity
  8
0
100
AcDbLine
 10
69.86246554552995
 20
86.93214702668013
 30
0.0
 11
69.86246554552995
 21
76.93214702668012
 31
0.0
  0
LINE
  5
129E
330
2
100
AcDbEntity
  8
0
100
AcDbLine
 10
64.26246554552958
 20
86.93214702668013
 30
0.0
 11
69.86246554552995
 21
86.93214702668013
 31
0.0
  0
LINE
  5
129F
330
2
100
AcDbEntity
  8
0
100
AcDbLine
 10
69.86246554552995
 20
76.93214702668012
 30
0.0
 11
64.26246554552958
 21
76.93214702668012
 31
0.0
  0
LINE
  5
12A0
330
2
100
AcDbEntity
  8
0
100
AcDbLine
 10
64.26246554552958
 20
76.93214702667967
 30
0.0
 11
63.86246554552994
 21
77.62496734970738
 31
0.0
  0
LINE
  5
12A1
330
2
100
AcDbEntity
  8
0
100
AcDbLine
 10
64.26246554552958
 20
86.93214702668013
 30
0.0
 11
63.86246554552994
 21
86.2393267036524
 31
0.0
  0
LINE
  5
12A2
330
2
100
AcDbEntity
  8
0
100
AcDbLine
 10
48.79342805304836
 20
152.1583313552602
 30
0.0
 11
58.79190500461331
 21
152.3328554196329
 31
0.0
  0
ARC
  5
12A3
330
2
100
AcDbEntity
  8
0
100
AcDbCircle
 10
58.86171463036257
 20
148.3334646390073
 30
0.0
 40
4.000000000000023
100
AcDbArc
 50
1.000000000002589
 51
90.99999999997569
  0
ARC
  5
12A4
330
2
100
AcDbEntity
  8
0
100
AcDbCircle
 10
48.86323767879943
 20
148.1589405746346
 30
0.0
 40
4.000000000000023
100
AcDbArc
 50
90.99999999997569
 51
181.0000000000058
  0
LINE
  5
12A5
330
2
100
AcDbEntity
  8
CENTER
  6
CENS
100
AcDbLine
 10
53.86247615458009
 20
155.5073132023846
 30
0.0
 11
53.86247615458009
 21
134.3215674586401
 31
0.0
  0
LINE
  5
12A7
330
2
100
AcDbEntity
  8
0
100
AcDbLine
 10
42.86246554552994
 20
86.52801411003578
 30
0.0
 11
42.86246554552994
 21
146.6327444996065
 31
0.0
  0
LINE
  5
12A8
330
2
100
AcDbEntity
  8
CENTER
100
AcDbLine
 10
992.6287178970198
 20
89.59159186193909
 30
0.0
 11
992.6287178970198
 21
74.27270219138399
 31
0.0
  0
INSERT
  5
12A9
330
2
100
AcDbEntity
  8
0
100
AcDbBlockReference
  2
A$C79D50562
 10
923.3322533407374
 20
81.93214702666153
 30
0.0
  0
ARC
  5
12AA
330
2
100
AcDbEntity
  8
0
100
AcDbCircle
 10
921.9804856188787
 20
80.5803793048023
 30
0.0
 40
5.0
100
AcDbArc
 50
180.0
 51
270.0
  0
ARC
  5
12AB
330
2
100
AcDbEntity
  8
0
100
AcDbCircle
 10
993.9804856188786
 20
80.5803793048023
 30
0.0
 40
5.0
100
AcDbArc
 50
270.0
 51
0.0
  0
LINE
  5
12AC
330
2
100
AcDbEntity
  8
CENTER
100
AcDbLine
 10
984.9692730617428
 20
151.2286115829431
 30
0.0
 11
1000.288162732297
 21
151.2286115829431
 31
0.0
  0
LINE
  5
12AD
330
2
100
AcDbEntity
  8
0
100
AcDbLine
 10
921.9804856188787
 20
157.5803793048023
 30
0.0
 11
993.9804856188786
 21
157.5803793048023
 31
0.0
  0
ARC
  5
12AE
330
2
100
AcDbEntity
  8
0
100
AcDbCircle
 10
982.9804856188786
 20
141.5803793048023
 30
0.0
 40
5.0
100
AcDbArc
 50
0.0
 51
90.0
  0
ARC
  5
12AF
330
2
100
AcDbEntity
  8
0
100
AcDbCircle
 10
982.9804856188786
 20
141.5803793048023
 30
0.0
 40
6.499999999999829
100
AcDbArc
 50
0.0
 51
90.0
  0
LINE
  5
12B0
330
2
100
AcDbEntity
  8
CENTER
100
AcDbLine
 10
984.9692730617428
 20
81.93214702666153
 30
0.0
 11
1000.288162732297
 21
81.93214702666153
 31
0.0
  0
ARC
  5
12B1
330
2
100
AcDbEntity
  8
0
100
AcDbCircle
 10
982.9804856188786
 20
91.58037930480231
 30
0.0
 40
5.0
100
AcDbArc
 50
270.0
 51
0.0
  0
ARC
  5
12B2
330
2
100
AcDbEntity
  8
0
100
AcDbCircle
 10
982.9804856188786
 20
91.58037930480231
 30
0.0
 40
6.499999999999829
100
AcDbArc
 50
270.0
 51
0.0
  0
LINE
  5
12B3
330
2
100
AcDbEntity
  8
0
100
AcDbLine
 10
987.9804856188787
 20
141.5803793048023
 30
0.0
 11
987.9804856188787
 21
91.58037930480231
 31
0.0
  0
LINE
  5
12B4
330
2
100
AcDbEntity
  8
0
100
AcDbLine
 10
927.9804856188787
 20
141.5803793048023
 30
0.0
 11
927.9804856188787
 21
91.58037930480231
 31
0.0
  0
LINE
  5
12B5
330
2
100
AcDbEntity
  8
0
100
AcDbLine
 10
926.4804856188787
 20
141.5803793048023
 30
0.0
 11
926.4804856188787
 21
91.58037930480231
 31
0.0
  0
CIRCLE
  5
12B6
330
2
100
AcDbEntity
  8
0
100
AcDbCircle
 10
957.9804856188786
 20
116.5803793048023
 30
0.0
 40
25.00000000482703
  0
LINE
  5
12B7
330
2
100
AcDbEntity
  8
0
100
AcDbLine
 10
982.9804856188786
 20
86.58037930480231
 30
0.0
 11
932.9804856188786
 21
86.58037930480231
 31
0.0
  0
LINE
  5
12B8
330
2
100
AcDbEntity
  8
0
100
AcDbLine
 10
982.9804856188786
 20
85.08037930480231
 30
0.0
 11
932.9804856188786
 21
85.08037930480231
 31
0.0
  0
ARC
  5
12B9
330
2
100
AcDbEntity
  8
0
100
AcDbCircle
 10
932.9804856188786
 20
91.58037930480231
 30
0.0
 40
5.0
100
AcDbArc
 50
180.0
 51
270.0
  0
ARC
  5
12BA
330
2
100
AcDbEntity
  8
0
100
AcDbCircle
 10
932.9804856188786
 20
91.58037930480231
 30
0.0
 40
6.499999999999829
100
AcDbArc
 50
180.0
 51
270.0
  0
LINE
  5
12BB
330
2
100
AcDbEntity
  8
CENTER
100
AcDbLine
 10
933.2317482773508
 20
95.28792468577439
 30
0.0
 11
933.2317482773508
 21
88.37535924077219
 31
0.0
  0
LINE
  5
12BC
330
2
100
AcDbEntity
  8
CENTER
100
AcDbLine
 10
929.7754655548489
 20
91.83164196327306
 30
0.0
 11
936.6880309998506
 21
91.83164196327306
 31
0.0
  0
LINE
  5
12BD
330
2
100
AcDbEntity
  8
CENTER
100
AcDbLine
 10
979.2729402379084
 20
91.83164196327306
 30
0.0
 11
986.1855056829083
 21
91.83164196327306
 31
0.0
  0
LINE
  5
12BE
330
2
100
AcDbEntity
  8
CENTER
100
AcDbLine
 10
982.7292229604083
 20
95.28792468577393
 30
0.0
 11
982.7292229604083
 21
88.37535924077219
 31
0.0
  0
LINE
  5
12BF
330
2
100
AcDbEntity
  8
0
100
AcDbLine
 10
932.9804856188786
 20
146.5803793048023
 30
0.0
 11
982.9804856188786
 21
146.5803793048023
 31
0.0
  0
LINE
  5
12C0
330
2
100
AcDbEntity
  8
0
100
AcDbLine
 10
932.9804856188786
 20
148.0803793048023
 30
0.0
 11
982.9804856188786
 21
148.0803793048023
 31
0.0
  0
ARC
  5
12C1
330
2
100
AcDbEntity
  8
0
100
AcDbCircle
 10
921.9804856188787
 20
152.5803793048023
 30
0.0
 40
5.0
100
AcDbArc
 50
180.0
 51
180.0
  0
LINE
  5
12C2
330
2
100
AcDbEntity
  8
CENTER
100
AcDbLine
 10
915.6728085054604
 20
151.2286115829431
 30
0.0
 11
930.9916981760164
 21
151.2286115829431
 31
0.0
  0
LINE
  5
12C3
330
2
100
AcDbEntity
  8
CENTER
100
AcDbLine
 10
923.3322533407374
 20
158.8880564182206
 30
0.0
 11
923.3322533407374
 21
143.5691667476655
 31
0.0
  0
ARC
  5
12C4
330
2
100
AcDbEntity
  8
0
100
AcDbCircle
 10
932.9804856188786
 20
141.5803793048023
 30
0.0
 40
5.0
100
AcDbArc
 50
90.0
 51
180.0
  0
ARC
  5
12C5
330
2
100
AcDbEntity
  8
0
100
AcDbCircle
 10
932.9804856188786
 20
141.5803793048023
 30
0.0
 40
6.499999999999829
100
AcDbArc
 50
90.0
 51
180.0
  0
LINE
  5
12C6
330
2
100
AcDbEntity
  8
CENTER
100
AcDbLine
 10
933.2317482773508
 20
144.7853993688324
 30
0.0
 11
933.2317482773508
 21
137.8728339238302
 31
0.0
  0
LINE
  5
12C7
330
2
100
AcDbEntity
  8
CENTER
100
AcDbLine
 10
929.7754655548489
 20
141.3291166463311
 30
0.0
 11
936.6880309998506
 21
141.3291166463311
 31
0.0
  0
LINE
  5
12C8
330
2
100
AcDbEntity
  8
CENTER
100
AcDbLine
 10
982.7292229604083
 20
144.7853993688324
 30
0.0
 11
982.7292229604083
 21
137.8728339238302
 31
0.0
  0
LINE
  5
12C9
330
2
100
AcDbEntity
  8
CENTER
100
AcDbLine
 10
979.2729402379084
 20
141.3291166463316
 30
0.0
 11
986.1855056829083
 21
141.3291166463316
 31
0.0
  0
LINE
  5
12CA
330
2
100
AcDbEntity
  8
0
100
AcDbLine
 10
989.4804856188786
 20
141.5803793048023
 30
0.0
 11
989.4804856188786
 21
91.58037930480231
 31
0.0
  0
LINE
  5
12CB
330
2
100
AcDbEntity
  8
CENTER
100
AcDbLine
 10
992.6287178970198
 20
158.8880564182206
 30
0.0
 11
992.6287178970198
 21
143.5691667476655
 31
0.0
  0
ARC
  5
12CC
330
2
100
AcDbEntity
  8
0
100
AcDbCircle
 10
993.9804856188786
 20
152.5803793048023
 30
0.0
 40
5.0
100
AcDbArc
 50
0.0
 51
90.0
  0
CIRCLE
  5
12CD
330
2
100
AcDbEntity
  8
CENTER
100
AcDbCircle
 10
957.9804856188786
 20
116.5803793048023
 30
0.0
 40
35.00000000000003
  0
LINE
  5
12CE
330
2
100
AcDbEntity
  8
HIDS
100
AcDbLine
 10
941.7304856188787
 20
148.0803793048023
 30
0.0
 11
941.7304856188787
 21
132.1427538022887
 31
0.0
  0
LINE
  5
12CF
330
2
100
AcDbEntity
  8
HIDS
100
AcDbLine
 10
953.2304856188787
 20
148.0803793048023
 30
0.0
 11
953.2304856188787
 21
138.5732758852893
 31
0.0
  0
LINE
  5
12D0
330
2
100
AcDbEntity
  8
0
100
AcDbLine
 10
993.9804856188786
 20
75.58037930480231
 30
0.0
 11
921.9804856188787
 21
75.58037930480231
 31
0.0
  0
CIRCLE
  5
12D1
330
2
100
AcDbEntity
  8
0
100
AcDbCircle
 10
992.8318999727563
 20
151.2286115829431
 30
0.0
 40
5.0
  0
CIRCLE
  5
12D2
330
2
100
AcDbEntity
  8
0
100
AcDbCircle
 10
992.8318999727563
 20
151.2286115829431
 30
0.0
 40
4.307179676972423
  0
CIRCLE
  5
12D3
330
2
100
AcDbEntity
  8
0
100
AcDbCircle
 10
992.8318999727563
 20
151.2286115829431
 30
0.0
 40
2.886751345948113
  0
LWPOLYLINE
  5
12D4
330
2
100
AcDbEntity
  8
0
100
AcDbPolyline
 90
        6
 70
     1
 43
0.0
 10
995.3318999727564
 20
152.6719872559171
 10
992.8318999727563
 20
154.1153629288912
 10
990.3318999727565
 20
152.6719872559171
 10
990.3318999727565
 20
149.785235909969
 10
992.8318999727563
 20
148.3418602369949
 10
995.3318999727564
 20
149.785235909969
  0
CIRCLE
  5
12D5
330
2
100
AcDbEntity
  8
0
100
AcDbCircle
 10
992.8318999727563
 20
81.93214702666153
 30
0.0
 40
5.0
  0
CIRCLE
  5
12D6
330
2
100
AcDbEntity
  8
0
100
AcDbCircle
 10
992.8318999727563
 20
81.93214702666153
 30
0.0
 40
4.307179676972423
  0
CIRCLE
  5
12D7
330
2
100
AcDbEntity
  8
0
100
AcDbCircle
 10
992.8318999727563
 20
81.93214702666153
 30
0.0
 40
2.886751345948113
  0
LWPOLYLINE
  5
12D8
330
2
100
AcDbEntity
  8
0
100
AcDbPolyline
 90
        6
 70
     1
 43
0.0
 10
995.3318999727564
 20
83.37552269963561
 10
992.8318999727563
 20
84.81889837260968
 10
990.3318999727565
 20
83.37552269963561
 10
990.3318999727565
 20
80.48877135368746
 10
992.8318999727563
 20
79.04539568071339
 10
995.3318999727564
 20
80.48877135368746
  0
CIRCLE
  5
12D9
330
2
100
AcDbEntity
  8
0
100
AcDbCircle
 10
923.3322533407374
 20
81.93214702666153
 30
0.0
 40
5.0
  0
CIRCLE
  5
12DA
330
2
100
AcDbEntity
  8
0
100
AcDbCircle
 10
923.3322533407374
 20
81.93214702666153
 30
0.0
 40
4.307179676972423
  0
CIRCLE
  5
12DB
330
2
100
AcDbEntity
  8
0
100
AcDbCircle
 10
923.3322533407374
 20
81.93214702666153
 30
0.0
 40
2.886751345948113
  0
LWPOLYLINE
  5
12DC
330
2
100
AcDbEntity
  8
0
100
AcDbPolyline
 90
        6
 70
     1
 43
0.0
 10
925.8322533407374
 20
83.37552269963561
 10
923.3322533407374
 20
84.81889837260968
 10
920.8322533407374
 20
83.37552269963561
 10
920.8322533407374
 20
80.48877135368746
 10
923.3322533407374
 20
79.04539568071339
 10
925.8322533407374
 20
80.48877135368746
  0
CIRCLE
  5
12DD
330
2
100
AcDbEntity
  8
0
100
AcDbCircle
 10
923.3322533407374
 20
151.2286115829431
 30
0.0
 40
5.0
  0
CIRCLE
  5
12DE
330
2
100
AcDbEntity
  8
0
100
AcDbCircle
 10
923.3322533407374
 20
151.2286115829431
 30
0.0
 40
4.307179676972423
  0
CIRCLE
  5
12DF
330
2
100
AcDbEntity
  8
0
100
AcDbCircle
 10
923.3322533407374
 20
151.2286115829431
 30
0.0
 40
2.886751345948113
  0
LWPOLYLINE
  5
12E0
330
2
100
AcDbEntity
  8
0
100
AcDbPolyline
 90
        6
 70
     1
 43
0.0
 10
925.8322533407374
 20
152.6719872559171
 10
923.3322533407374
 20
154.1153629288912
 10
920.8322533407374
 20
152.6719872559171
 10
920.8322533407374
 20
149.785235909969
 10
923.3322533407374
 20
148.3418602369949
 10
925.8322533407374
 20
149.785235909969
  0
LINE
  5
12E1
330
2
100
AcDbEntity
  8
HIDS
100
AcDbLine
 10
949.4804856188787
 20
115.8303793048023
 30
0.0
 11
949.4804856188787
 21
107.3803793048024
 31
0.0
  0
LINE
  5
12E2
330
2
100
AcDbEntity
  8
HIDS
100
AcDbLine
 10
949.1471522855466
 20
115.8303793048023
 30
0.0
 11
949.1471522855466
 21
107.047045971469
 31
0.0
  0
LINE
  5
12E3
330
2
100
AcDbEntity
  8
HIDS
100
AcDbLine
 10
945.8138189522125
 20
115.8303793048023
 30
0.0
 11
945.8138189522125
 21
108.2416310640753
 31
0.0
  0
LINE
  5
12E4
330
2
100
AcDbEntity
  8
HIDS
100
AcDbLine
 10
945.4804856188786
 20
115.8303793048023
 30
0.0
 11
945.4804856188786
 21
108.7501494231193
 31
0.0
  0
LINE
  5
12E5
330
2
100
AcDbEntity
  8
CENTER
  6
CENS
100
AcDbLine
 10
947.4804856188786
 20
155.507313202366
 30
0.0
 11
947.4804856188786
 21
105.1281289602454
 31
0.0
  0
LINE
  5
12E6
330
2
100
AcDbEntity
  8
HIDS
100
AcDbLine
 10
949.4804856188787
 20
115.8303793048023
 30
0.0
 11
949.4804856188787
 21
104.5258158535613
 31
0.0
  0
LINE
  5
12E7
330
2
100
AcDbEntity
  8
HIDS
100
AcDbLine
 10
946.4512835649641
 20
107.3803793048024
 30
0.0
 11
947.4804856188786
 21
107.3803793048024
 31
0.0
  0
LINE
  5
12E8
330
2
100
AcDbEntity
  8
0
100
AcDbLine
 10
946.280485618878
 20
106.5803793048023
 30
0.0
 11
947.1378613977778
 21
106.5803793048023
 31
0.0
  0
LINE
  5
12E9
330
2
100
AcDbEntity
  8
0
100
AcDbLine
 10
945.4804856188786
 20
108.7501494231193
 30
0.0
 11
945.4804856188786
 21
107.3803793048024
 31
0.0
  0
LINE
  5
12EA
330
2
100
AcDbEntity
  8
HOJO
100
AcDbLine
 10
945.8138189522125
 20
108.2416310640753
 30
0.0
 11
945.8138189522125
 21
107.047045971469
 31
0.0
  0
LINE
  5
12EB
330
2
100
AcDbEntity
  8
0
100
AcDbLine
 10
945.4804856188786
 20
107.3803793048024
 30
0.0
 11
946.4512835649641
 21
107.3803793048024
 31
0.0
  0
LINE
  5
12EC
330
2
100
AcDbEntity
  8
0
100
AcDbLine
 10
945.4804856188786
 20
107.3803793048024
 30
0.0
 11
946.280485618878
 21
106.5803793048023
 31
0.0
  0
LINE
  5
12ED
330
2
100
AcDbEntity
  8
HIDS
100
AcDbLine
 10
947.1378613977778
 20
106.5803793048023
 30
0.0
 11
947.4804856188786
 21
106.5803793048023
 31
0.0
  0
LINE
  5
12EE
330
2
100
AcDbEntity
  8
HIDS
100
AcDbLine
 10
949.4804856188787
 20
107.3803793048024
 30
0.0
 11
948.6804856188793
 21
106.5803793048023
 31
0.0
  0
LINE
  5
12EF
330
2
100
AcDbEntity
  8
HIDS
100
AcDbLine
 10
948.6804856188793
 20
106.5803793048023
 30
0.0
 11
947.4804856188786
 21
106.5803793048023
 31
0.0
  0
LINE
  5
12F0
330
2
100
AcDbEntity
  8
HIDS
100
AcDbLine
 10
949.4804856188787
 20
107.3803793048024
 30
0.0
 11
947.4804856188786
 21
107.3803793048024
 31
0.0
  0
LINE
  5
12F1
330
2
100
AcDbEntity
  8
HIDS
100
AcDbLine
 10
949.1471522855466
 20
107.047045971469
 30
0.0
 11
949.1471522855466
 21
104.7678976763628
 31
0.0
  0
LINE
  5
12F2
330
2
100
AcDbEntity
  8
HIDS
100
AcDbLine
 10
944.1037965325016
 20
121.5803793048023
 30
0.0
 11
950.9804856188786
 21
121.5803793048023
 31
0.0
  0
LINE
  5
12F3
330
2
100
AcDbEntity
  8
HIDS
100
AcDbLine
 10
946.0694613136404
 20
125.2803793048021
 30
0.0
 11
950.9804856188786
 21
125.2803793048021
 31
0.0
  0
LINE
  5
12F4
330
2
100
AcDbEntity
  8
HIDS
100
AcDbLine
 10
950.4608703766082
 20
125.5803793048023
 30
0.0
 11
946.2944897263589
 21
125.5803793048023
 31
0.0
  0
LINE
  5
12F5
330
2
100
AcDbEntity
  8
HIDS
100
AcDbLine
 10
949.4804856188787
 20
119.9137126381353
 30
0.0
 11
945.4804856188786
 21
119.9137126381353
 31
0.0
  0
LINE
  5
12F6
330
2
100
AcDbEntity
  8
HIDS
100
AcDbLine
 10
944.1037965325016
 20
121.5803793048023
 30
0.0
 11
951.4804856188787
 21
121.5803793048023
 31
0.0
  0
LINE
  5
12F7
330
2
100
AcDbEntity
  8
0
100
AcDbLine
 10
943.2495657562215
 20
117.3303793048023
 30
0.0
 11
947.4804856188786
 21
117.3303793048023
 31
0.0
  0
LINE
  5
12F8
330
2
100
AcDbEntity
  8
0
100
AcDbLine
 10
943.2495657562215
 20
115.8303793048023
 30
0.0
 11
947.4804856188786
 21
115.8303793048023
 31
0.0
  0
LINE
  5
12F9
330
2
100
AcDbEntity
  8
0
100
AcDbLine
 10
943.9804856188786
 20
125.2803793048021
 30
0.0
 11
943.9804856188786
 21
121.5803793048023
 31
0.0
  0
LINE
  5
12FA
330
2
100
AcDbEntity
  8
0
100
AcDbLine
 10
945.4804856188786
 20
117.3303793048023
 30
0.0
 11
945.4804856188786
 21
115.8303793048023
 31
0.0
  0
LINE
  5
12FB
330
2
100
AcDbEntity
  8
HOJO
100
AcDbLine
 10
945.8138189522125
 20
117.3303793048023
 30
0.0
 11
945.8138189522125
 21
115.8303793048023
 31
0.0
  0
LINE
  5
12FC
330
2
100
AcDbEntity
  8
HIDS
100
AcDbLine
 10
945.4804856188786
 20
121.5803793048023
 30
0.0
 11
945.8138189522125
 21
119.9137126381353
 31
0.0
  0
LINE
  5
12FD
330
2
100
AcDbEntity
  8
0
100
AcDbLine
 10
943.9804856188786
 20
121.5803793048023
 30
0.0
 11
944.1037965325016
 21
121.5803793048023
 31
0.0
  0
LINE
  5
12FE
330
2
100
AcDbEntity
  8
HIDS
100
AcDbLine
 10
945.8138189522125
 20
119.9137126381353
 30
0.0
 11
945.8138189522125
 21
117.3303793048023
 31
0.0
  0
LINE
  5
12FF
330
2
100
AcDbEntity
  8
HIDS
100
AcDbLine
 10
945.4804856188786
 20
121.5803793048023
 30
0.0
 11
945.4804856188786
 21
117.3303793048023
 31
0.0
  0
LINE
  5
1300
330
2
100
AcDbEntity
  8
HIDS
100
AcDbLine
 10
944.9804856188787
 20
121.5803793048023
 30
0.0
 11
944.9804856188787
 21
117.3303793048023
 31
0.0
  0
LINE
  5
1301
330
2
100
AcDbEntity
  8
0
100
AcDbLine
 10
946.2944897263589
 20
125.5803793048023
 30
0.0
 11
944.5001008611491
 21
125.5803793048023
 31
0.0
  0
LINE
  5
1302
330
2
100
AcDbEntity
  8
0
100
AcDbLine
 10
943.9804856188786
 20
125.2803793048021
 30
0.0
 11
944.5001008611491
 21
125.5803793048023
 31
0.0
  0
LINE
  5
1303
330
2
100
AcDbEntity
  8
0
100
AcDbLine
 10
943.9804856188786
 20
125.2803793048021
 30
0.0
 11
946.0694613136404
 21
125.2803793048021
 31
0.0
  0
LINE
  5
1304
330
2
100
AcDbEntity
  8
HIDS
100
AcDbLine
 10
950.9804856188786
 20
121.5803793048023
 30
0.0
 11
950.9804856188786
 21
125.2803793048021
 31
0.0
  0
LINE
  5
1305
330
2
100
AcDbEntity
  8
HIDS
100
AcDbLine
 10
951.4804856188787
 20
129.8209419816678
 30
0.0
 11
951.4804856188787
 21
121.5803793048023
 31
0.0
  0
LINE
  5
1306
330
2
100
AcDbEntity
  8
HOJO
100
AcDbLine
 10
949.1471522855466
 20
117.3303793048023
 30
0.0
 11
949.1471522855466
 21
115.8303793048023
 31
0.0
  0
LINE
  5
1307
330
2
100
AcDbEntity
  8
0
100
AcDbLine
 10
949.4804856188787
 20
117.3303793048023
 30
0.0
 11
949.4804856188787
 21
115.8303793048023
 31
0.0
  0
LINE
  5
1308
330
2
100
AcDbEntity
  8
0
100
AcDbLine
 10
947.4804856188786
 20
115.8303793048023
 30
0.0
 11
951.0207801653416
 21
115.8303793048023
 31
0.0
  0
LINE
  5
1309
330
2
100
AcDbEntity
  8
0
100
AcDbLine
 10
947.4804856188786
 20
117.3303793048023
 30
0.0
 11
951.0207801653416
 21
117.3303793048023
 31
0.0
  0
LINE
  5
130A
330
2
100
AcDbEntity
  8
HIDS
100
AcDbLine
 10
949.4804856188787
 20
121.5803793048023
 30
0.0
 11
949.1471522855466
 21
119.9137126381353
 31
0.0
  0
LINE
  5
130B
330
2
100
AcDbEntity
  8
HIDS
100
AcDbLine
 10
949.4804856188787
 20
121.5803793048023
 30
0.0
 11
949.4804856188787
 21
117.3303793048023
 31
0.0
  0
LINE
  5
130C
330
2
100
AcDbEntity
  8
HIDS
100
AcDbLine
 10
949.1471522855466
 20
119.9137126381353
 30
0.0
 11
949.1471522855466
 21
117.3303793048023
 31
0.0
  0
LINE
  5
130D
330
2
100
AcDbEntity
  8
HIDS
100
AcDbLine
 10
949.9804856188786
 20
121.5803793048023
 30
0.0
 11
949.9804856188786
 21
117.3303793048023
 31
0.0
  0
LINE
  5
130E
330
2
100
AcDbEntity
  8
HIDS
100
AcDbLine
 10
950.4608703766082
 20
125.5803793048023
 30
0.0
 11
950.9804856188786
 21
125.2803793048021
 31
0.0
  0
LINE
  5
130F
330
2
100
AcDbEntity
  8
0
100
AcDbLine
 10
971.9804856188787
 20
115.8303793048023
 30
0.0
 11
964.9401910724156
 21
115.8303793048023
 31
0.0
  0
LINE
  5
1310
330
2
100
AcDbEntity
  8
0
100
AcDbLine
 10
964.9401910724156
 20
117.3303793048023
 30
0.0
 11
971.9804856188787
 21
117.3303793048023
 31
0.0
  0
LINE
  5
1311
330
2
100
AcDbEntity
  8
0
100
AcDbLine
 10
971.9804856188787
 20
117.3303793048023
 30
0.0
 11
971.9804856188787
 21
115.8303793048023
 31
0.0
  0
ARC
  5
1312
330
2
100
AcDbEntity
  8
0
100
AcDbCircle
 10
957.9804856188768
 20
116.5803793048037
 30
0.0
 40
8.154700538378051
100
AcDbArc
 50
185.2770359348315
 51
354.7229640651684
  0
ARC
  5
1313
330
2
100
AcDbEntity
  8
0
100
AcDbCircle
 10
957.9804856188768
 20
116.5803793048037
 30
0.0
 40
8.154700538378051
100
AcDbArc
 50
5.277035934805344
 51
174.7229640651946
  0
CIRCLE
  5
1314
330
2
100
AcDbEntity
  8
0
100
AcDbCircle
 10
957.9804856188786
 20
116.5803793048023
 30
0.0
 40
7.000000000000113
  0
CIRCLE
  5
1315
330
2
100
AcDbEntity
  8
HOJO
100
AcDbCircle
 10
933.2317482773508
 20
141.3291166463311
 30
0.0
 40
2.0
  0
CIRCLE
  5
1316
330
2
100
AcDbEntity
  8
0
100
AcDbCircle
 10
933.2317482773508
 20
141.3291166463311
 30
0.0
 40
1.6
  0
CIRCLE
  5
1317
330
2
100
AcDbEntity
  8
HOJO
100
AcDbCircle
 10
982.7292229604083
 20
141.3291166463316
 30
0.0
 40
2.0
  0
CIRCLE
  5
1318
330
2
100
AcDbEntity
  8
0
100
AcDbCircle
 10
982.7292229604083
 20
141.3291166463316
 30
0.0
 40
1.6
  0
CIRCLE
  5
1319
330
2
100
AcDbEntity
  8
HOJO
100
AcDbCircle
 10
982.7292229604083
 20
91.83164196327306
 30
0.0
 40
2.0
  0
CIRCLE
  5
131A
330
2
100
AcDbEntity
  8
0
100
AcDbCircle
 10
982.7292229604083
 20
91.83164196327306
 30
0.0
 40
1.6
  0
CIRCLE
  5
131B
330
2
100
AcDbEntity
  8
HOJO
100
AcDbCircle
 10
933.2317482773508
 20
91.83164196327306
 30
0.0
 40
2.0
  0
CIRCLE
  5
131C
330
2
100
AcDbEntity
  8
0
100
AcDbCircle
 10
933.2317482773508
 20
91.83164196327306
 30
0.0
 40
1.6
  0
CIRCLE
  5
131D
330
2
100
AcDbEntity
  8
0
100
AcDbCircle
 10
957.9804856188804
 20
116.5803793048023
 30
0.0
 40
14.75000000000022
  0
LINE
  5
131E
330
2
100
AcDbEntity
  8
0
100
AcDbLine
 10
942.6054856188786
 20
152.3328554196143
 30
0.0
 11
952.3554856188786
 21
152.3328554196143
 31
0.0
  0
ARC
  5
131F
330
2
100
AcDbEntity
  8
0
100
AcDbCircle
 10
942.6054856188786
 20
148.0828554196143
 30
0.0
 40
4.25
100
AcDbArc
 50
90.0
 51
179.9485848525427
  0
ARC
  5
1320
330
2
100
AcDbEntity
  8
0
100
AcDbCircle
 10
952.1054856188786
 20
148.0828554196143
 30
0.0
 40
4.25
100
AcDbArc
 50
0.0
 51
90.0
  0
ARC
  5
1321
330
2
100
AcDbEntity
  8
0
100
AcDbCircle
 10
921.980485618875
 20
152.5803793048023
 30
0.0
 40
5.0
100
AcDbArc
 50
90.0
 51
180.0
  0
CIRCLE
  5
1322
330
2
100
AcDbEntity
  8
0
100
AcDbCircle
 10
957.9804856188786
 20
116.5803793048023
 30
0.0
 40
22.5
  0
ARC
  5
2137
330
2
100
AcDbEntity
  8
0
100
AcDbCircle
 10
185.3244063226587
 20
88.08037930482369
 30
0.0
 40
5.0
100
AcDbArc
 50
270.0
 51
315.0000000000138
  0
ARC
  5
2138
330
2
100
AcDbEntity
  8
0
100
AcDbCircle
 10
185.3244063226587
 20
88.08037930482369
 30
0.0
 40
8.5
100
AcDbArc
 50
270.0
 51
315.0000000000138
  0
ARC
  5
2139
330
2
100
AcDbEntity
  8
0
100
AcDbCircle
 10
185.3244063226587
 20
145.0803793048182
 30
0.0
 40
8.5
100
AcDbArc
 50
44.99999999998617
 51
90.0
  0
ARC
  5
213A
330
2
100
AcDbEntity
  8
0
100
AcDbCircle
 10
185.3244063226587
 20
145.0803793048182
 30
0.0
 40
5.0
100
AcDbArc
 50
44.99999999998617
 51
90.0
  0
ARC
  5
213B
330
2
100
AcDbEntity
  8
0
100
AcDbCircle
 10
190.4585089857203
 20
196.3611706167855
 30
0.0
 40
40.0
100
AcDbArc
 50
263.823003595109
 51
283.367674202629
  0
CIRCLE
  5
213C
330
2
100
AcDbEntity
  8
0
100
AcDbCircle
 10
167.8624655455299
 20
116.5803793048209
 30
0.0
 40
23.0
  0
CIRCLE
  5
213D
330
2
100
AcDbEntity
  8
0
100
AcDbCircle
 10
167.8624655455299
 20
116.5803793048209
 30
0.0
 40
29.0
  0
CIRCLE
  5
213E
330
2
100
AcDbEntity
  8
0
100
AcDbCircle
 10
167.8624655455299
 20
116.5803793048209
 30
0.0
 40
26.5
  0
CIRCLE
  5
213F
330
2
100
AcDbEntity
  8
0
100
AcDbCircle
 10
167.8624655455299
 20
116.5803793048209
 30
0.0
 40
28.5
  0
CIRCLE
  5
2140
330
2
100
AcDbEntity
  8
0
100
AcDbCircle
 10
167.8624655455299
 20
116.5803793048209
 30
0.0
 40
23.5774
  0
CIRCLE
  5
2141
330
2
100
AcDbEntity
  8
0
100
AcDbCircle
 10
167.8624655455299
 20
116.5803793048209
 30
0.0
 40
25.9226
  0
LINE
  5
2142
330
2
100
AcDbEntity
  8
CENTER
100
AcDbLine
 10
212.3477469197679
 20
161.0656606790593
 30
0.0
 11
123.3771841712913
 21
72.0950979305822
 31
0.0
  0
LINE
  5
2143
330
2
100
AcDbEntity
  8
CENTER
100
AcDbLine
 10
123.3771841712917
 20
161.0656606790591
 30
0.0
 11
212.3477469197685
 21
72.09509793058209
 31
0.0
  0
ARC
  5
2144
330
2
100
AcDbEntity
  8
0
100
AcDbCircle
 10
190.4585089857194
 20
36.79958799286225
 30
0.0
 40
40.0
100
AcDbArc
 50
76.63232579737094
 51
96.17699640483843
  0
LINE
  5
2146
330
2
100
AcDbEntity
  8
CENTER
100
AcDbLine
 10
167.8624655455299
 20
65.58037930482413
 30
0.0
 11
167.8624655455299
 21
167.580379304824
 31
0.0
  0
ARC
  5
2147
330
2
100
AcDbEntity
  8
0
100
AcDbCircle
 10
167.8624655455299
 20
245.5803793048241
 30
0.0
 40
170.0
100
AcDbArc
 50
263.823003595109
 51
276.1769964048909
  0
ARC
  5
2148
330
2
100
AcDbEntity
  8
0
100
AcDbCircle
 10
131.8624655455299
 20
80.58037930482049
 30
0.0
 40
5.0
100
AcDbArc
 50
180.0
 51
270.0
  0
ARC
  5
2149
330
2
100
AcDbEntity
  8
0
100
AcDbCircle
 10
132.2724655455298
 20
80.58037930482141
 30
0.0
 40
5.0
100
AcDbArc
 50
180.0
 51
270.0
  0
LINE
  5
214A
330
2
100
AcDbEntity
  8
CENTER
100
AcDbLine
 10
133.3624655455299
 20
76.87108376994018
 30
0.0
 11
133.3624655455299
 21
73.47442162756323
 31
0.0
  0
ARC
  5
214B
330
2
100
AcDbEntity
  8
0
100
AcDbCircle
 10
145.2664221053395
 20
36.79958799286248
 30
0.0
 40
40.0
100
AcDbArc
 50
83.82300359510905
 51
103.367674202629
  0
ARC
  5
214D
330
2
100
AcDbEntity
  8
0
100
AcDbCircle
 10
92.86246554553176
 20
77.5803793048205
 30
0.0
 40
2.0
100
AcDbArc
 50
270.0
 51
0.0
  0
ARC
  5
214E
330
2
100
AcDbEntity
  8
0
100
AcDbCircle
 10
92.86246554553176
 20
77.08037930482049
 30
0.0
 40
2.0
100
AcDbArc
 50
270.0
 51
0.0
  0
LINE
  5
214F
330
2
100
AcDbEntity
  8
0
100
AcDbLine
 10
92.86246554553176
 20
75.5803793048205
 30
0.0
 11
82.86246554552993
 21
75.5803793048205
 31
0.0
  0
LINE
  5
2150
330
2
100
AcDbEntity
  8
0
100
AcDbLine
 10
92.86246554553176
 20
75.0803793048205
 30
0.0
 11
82.86246554552993
 21
75.0803793048205
 31
0.0
  0
ARC
  5
2151
330
2
100
AcDbEntity
  8
0
100
AcDbCircle
 10
134.8624655455299
 20
80.58037930482482
 30
0.0
 40
5.0
100
AcDbArc
 50
270.0
 51
283.367674202629
  0
LINE
  5
2152
330
2
100
AcDbEntity
  8
0
100
AcDbLine
 10
134.8624655455299
 20
75.58037930482436
 30
0.0
 11
131.8624655455299
 21
75.58037930482436
 31
0.0
  0
LINE
  5
2153
330
2
100
AcDbEntity
  8
0
100
AcDbLine
 10
134.8624655455299
 20
75.5803793048214
 30
0.0
 11
132.2724655455298
 21
75.5803793048214
 31
0.0
  0
LINE
  5
2154
330
2
100
AcDbEntity
  8
CENTER
100
AcDbLine
 10
133.3624655455299
 20
159.8303793048209
 30
0.0
 11
133.3624655455299
 21
142.3303793048209
 31
0.0
  0
ARC
  5
2155
330
2
100
AcDbEntity
  8
0
100
AcDbCircle
 10
131.8624655455299
 20
152.5803793048202
 30
0.0
 40
5.0
100
AcDbArc
 50
90.0
 51
180.0
  0
ARC
  5
2156
330
2
100
AcDbEntity
  8
0
100
AcDbCircle
 10
132.2724655455298
 20
152.5803793048209
 30
0.0
 40
5.0
100
AcDbArc
 50
90.0
 51
180.0
  0
ARC
  5
2157
330
2
100
AcDbEntity
  8
0
100
AcDbCircle
 10
92.86246554552993
 20
156.0803793048202
 30
0.0
 40
2.0
100
AcDbArc
 50
0.0
 51
90.0
  0
LINE
  5
2158
330
2
100
AcDbEntity
  8
0
100
AcDbLine
 10
112.3624655455281
 20
142.5803793047031
 30
0.0
 11
121.8624655455299
 21
142.5803793047031
 31
0.0
  0
LINE
  5
2159
330
2
100
AcDbEntity
  8
0
100
AcDbLine
 10
107.3624655455281
 20
128.704734957803
 30
0.0
 11
126.8624655455299
 21
128.704734957803
 31
0.0
  0
LINE
  5
215A
330
2
100
AcDbEntity
  8
0
100
AcDbLine
 10
123.8624655455299
 20
148.5803793048257
 30
0.0
 11
108.3624655455308
 21
148.5803793048257
 31
0.0
  0
LINE
  5
215B
330
2
100
AcDbEntity
  8
0
100
AcDbLine
 10
112.3624655455244
 20
90.58037930493805
 30
0.0
 11
121.8624655455299
 21
90.58037930493759
 31
0.0
  0
LINE
  5
215C
330
2
100
AcDbEntity
  8
0
100
AcDbLine
 10
107.3624655455253
 20
104.4560236518388
 30
0.0
 11
126.8624655455308
 21
104.4560236518388
 31
0.0
  0
LINE
  5
215D
330
2
100
AcDbEntity
  8
0
100
AcDbLine
 10
123.8624655455299
 20
84.58037930481594
 30
0.0
 11
108.3624655455308
 21
84.58037930481594
 31
0.0
  0
LINE
  5
215E
330
2
100
AcDbEntity
  8
0
100
AcDbLine
 10
94.86246554553449
 20
77.08037930482049
 30
0.0
 11
94.86246554553449
 21
156.0803793048202
 31
0.0
  0
LINE
  5
215F
330
2
100
AcDbEntity
  8
0
100
AcDbLine
 10
107.3624655455235
 20
85.58037930493737
 30
0.0
 11
107.3624655455281
 21
147.5803793047031
 31
0.0
  0
ARC
  5
2160
330
2
100
AcDbEntity
  8
0
100
AcDbCircle
 10
112.3624655455244
 20
85.58037930493805
 30
0.0
 40
5.0
100
AcDbArc
 50
90.0
 51
180.0
  0
ARC
  5
2161
330
2
100
AcDbEntity
  8
0
100
AcDbCircle
 10
105.3624655455299
 20
85.58037930493737
 30
0.0
 40
2.0
100
AcDbArc
 50
270.0
 51
0.0
  0
ARC
  5
2162
330
2
100
AcDbEntity
  8
0
100
AcDbCircle
 10
108.3624655455308
 20
81.58037930481595
 30
0.0
 40
3.0
100
AcDbArc
 50
90.0
 51
126.86989764587
  0
LINE
  5
2163
330
2
100
AcDbEntity
  8
0
100
AcDbLine
 10
99.86246554553449
 20
83.58037930493736
 30
0.0
 11
105.3624655455299
 21
83.58037930493736
 31
0.0
  0
ARC
  5
2164
330
2
100
AcDbEntity
  8
0
100
AcDbCircle
 10
99.86246554553449
 20
78.58037930493736
 30
0.0
 40
5.0
100
AcDbArc
 50
90.0
 51
180.0
  0
LINE
  5
2165
330
2
100
AcDbEntity
  8
0
100
AcDbLine
 10
82.86246554552993
 20
157.5803793048202
 30
0.0
 11
92.86246554552993
 21
157.5803793048202
 31
0.0
  0
LINE
  5
2166
330
2
100
AcDbEntity
  8
0
100
AcDbLine
 10
82.86246554552993
 20
158.0803793048202
 30
0.0
 11
92.86246554552993
 21
158.0803793048202
 31
0.0
  0
ARC
  5
2167
330
2
100
AcDbEntity
  8
0
100
AcDbCircle
 10
92.86246554552993
 20
155.5803793048202
 30
0.0
 40
2.0
100
AcDbArc
 50
0.0
 51
90.0
  0
ARC
  5
2168
330
2
100
AcDbEntity
  8
0
100
AcDbCircle
 10
105.3624655455299
 20
147.5803793047031
 30
0.0
 40
2.0
100
AcDbArc
 50
0.0
 51
90.0
  0
ARC
  5
2169
330
2
100
AcDbEntity
  8
0
100
AcDbCircle
 10
108.3624655455308
 20
151.5803793048259
 30
0.0
 40
3.0
100
AcDbArc
 50
233.1301023541299
 51
270.0
  0
ARC
  5
216A
330
2
100
AcDbEntity
  8
0
100
AcDbCircle
 10
112.3624655455281
 20
147.5803793047031
 30
0.0
 40
5.0
100
AcDbArc
 50
180.0
 51
270.0
  0
LINE
  5
216B
330
2
100
AcDbEntity
  8
0
100
AcDbLine
 10
99.86246554552995
 20
149.5803793047031
 30
0.0
 11
105.3624655455299
 21
149.5803793047031
 31
0.0
  0
ARC
  5
216C
330
2
100
AcDbEntity
  8
0
100
AcDbCircle
 10
99.86246554552995
 20
154.5803793047031
 30
0.0
 40
5.0
100
AcDbArc
 50
180.0
 51
270.0
  0
LINE
  5
216D
330
2
100
AcDbEntity
  8
0
100
AcDbLine
 10
126.8624655455299
 20
80.58037930482049
 30
0.0
 11
126.8624655455299
 21
152.5803793048202
 31
0.0
  0
LINE
  5
216E
330
2
100
AcDbEntity
  8
0
100
AcDbLine
 10
127.2724655455298
 20
80.58037930482141
 30
0.0
 11
127.2724655455298
 21
152.5803793048209
 31
0.0
  0
LINE
  5
216F
330
2
100
AcDbEntity
  8
0
100
AcDbLine
 10
126.3624655455308
 20
104.4560236518388
 30
0.0
 11
126.3624655455299
 21
128.704734957803
 31
0.0
  0
LINE
  5
2170
330
2
100
AcDbEntity
  8
0
100
AcDbLine
 10
134.3624655455326
 20
134.0423200819497
 30
0.0
 11
134.3624655455326
 21
99.1184385276926
 31
0.0
  0
LINE
  5
2171
330
2
100
AcDbEntity
  8
0
100
AcDbLine
 10
130.8624655455326
 20
134.0423200819497
 30
0.0
 11
130.8624655455326
 21
99.1184385276926
 31
0.0
  0
LINE
  5
2172
330
2
100
AcDbEntity
  8
0
100
AcDbLine
 10
150.400524768402
 20
79.58037930482368
 30
0.0
 11
185.3244063226587
 21
79.58037930482368
 31
0.0
  0
LINE
  5
2173
330
2
100
AcDbEntity
  8
0
100
AcDbLine
 10
150.400524768402
 20
83.08037930482369
 30
0.0
 11
185.3244063226587
 21
83.08037930482369
 31
0.0
  0
LINE
  5
2174
330
2
100
AcDbEntity
  8
CENTER
100
AcDbLine
 10
133.3624655455299
 20
77.89613656065438
 30
0.0
 11
133.3624655455299
 21
90.83037930482095
 31
0.0
  0
LINE
  5
2175
330
2
100
AcDbEntity
  8
0
100
AcDbLine
 10
133.3520579054469
 20
93.1080308876073
 30
0.0
 11
144.3901171283162
 21
82.06997166473792
 31
0.0
  0
LINE
  5
2176
330
2
100
AcDbEntity
  8
0
100
AcDbLine
 10
135.8269316396002
 20
95.58290462176017
 30
0.0
 11
146.8649908624687
 21
84.54484539889126
 31
0.0
  0
ARC
  5
2177
330
2
100
AcDbEntity
  8
0
100
AcDbCircle
 10
121.8624655455299
 20
85.58037930493759
 30
0.0
 40
5.0
100
AcDbArc
 50
0.0
 51
90.0
  0
CIRCLE
  5
2178
330
2
100
AcDbEntity
  8
0
100
AcDbCircle
 10
133.3624655455299
 20
82.0803793048214
 30
0.0
 40
5.000000000000113
  0
CIRCLE
  5
2179
330
2
100
AcDbEntity
  8
0
100
AcDbCircle
 10
133.3624655455299
 20
82.0803793048214
 30
0.0
 40
4.307179676972509
  0
ARC
  5
217A
330
2
100
AcDbEntity
  8
0
100
AcDbCircle
 10
150.400524768402
 20
88.08037930482369
 30
0.0
 40
8.5
100
AcDbArc
 50
224.9999999999861
 51
270.0
  0
ARC
  5
217B
330
2
100
AcDbEntity
  8
0
100
AcDbCircle
 10
150.400524768402
 20
88.08037930482369
 30
0.0
 40
5.0
100
AcDbArc
 50
224.9999999999861
 51
270.0
  0
LINE
  5
217C
330
2
100
AcDbEntity
  8
0
100
AcDbLine
 10
147.1477155932983
 20
80.22740327847776
 30
0.0
 11
148.4871076065759
 21
83.46098164226731
 31
0.0
  0
LINE
  5
217D
330
2
100
AcDbEntity
  8
0
100
AcDbLine
 10
135.8624655455299
 20
80.63700363184734
 30
0.0
 11
135.8624655455299
 21
83.52375497779503
 31
0.0
  0
LINE
  5
217E
330
2
100
AcDbEntity
  8
0
100
AcDbLine
 10
130.8624655455308
 20
80.63700363184734
 30
0.0
 11
130.8624655455308
 21
83.52375497779547
 31
0.0
  0
LINE
  5
217F
330
2
100
AcDbEntity
  8
0
100
AcDbLine
 10
130.8624655455308
 20
80.63700363184734
 30
0.0
 11
133.3624655455308
 21
79.19362795887327
 31
0.0
  0
LINE
  5
2180
330
2
100
AcDbEntity
  8
0
100
AcDbLine
 10
135.8624655455299
 20
80.63700363184734
 30
0.0
 11
133.3624655455308
 21
79.19362795887327
 31
0.0
  0
LINE
  5
2181
330
2
100
AcDbEntity
  8
0
100
AcDbLine
 10
133.3624655455299
 20
84.96713065076955
 30
0.0
 11
130.8624655455308
 21
83.52375497779547
 31
0.0
  0
LINE
  5
2182
330
2
100
AcDbEntity
  8
0
100
AcDbLine
 10
133.3624655455299
 20
84.96713065076955
 30
0.0
 11
135.8624655455299
 21
83.52375497779503
 31
0.0
  0
ARC
  5
2183
330
2
100
AcDbEntity
  8
0
100
AcDbCircle
 10
123.8624655455299
 20
81.58037930481595
 30
0.0
 40
3.0
100
AcDbArc
 50
0.0
 51
90.0
  0
LINE
  5
2184
330
2
100
AcDbEntity
  8
CENTER
100
AcDbLine
 10
124.6124655455299
 20
82.0803793048214
 30
0.0
 11
142.1124655455299
 21
82.0803793048214
 31
0.0
  0
LINE
  5
2185
330
2
100
AcDbEntity
  8
0
100
AcDbLine
 10
131.5094895191872
 20
95.86562935258934
 30
0.0
 11
134.7430678829762
 21
97.20502136586738
 31
0.0
  0
ARC
  5
2186
330
2
100
AcDbEntity
  8
0
100
AcDbCircle
 10
139.3624655455326
 20
99.1184385276926
 30
0.0
 40
5.0
100
AcDbArc
 50
180.0
 51
224.9999999999861
  0
ARC
  5
2187
330
2
100
AcDbEntity
  8
0
100
AcDbCircle
 10
139.3624655455326
 20
99.1184385276926
 30
0.0
 40
8.5
100
AcDbArc
 50
180.0
 51
224.9999999999861
  0
ARC
  5
2188
330
2
100
AcDbEntity
  8
0
100
AcDbCircle
 10
167.8624655455299
 20
-12.41962069517592
 30
0.0
 40
170.0
100
AcDbArc
 50
83.82300359510905
 51
96.17699640483843
  0
LINE
  5
2189
330
2
100
AcDbEntity
  8
0
100
AcDbLine
 10
185.3244063226587
 20
153.5803793048182
 30
0.0
 11
150.400524768402
 21
153.5803793048182
 31
0.0
  0
LINE
  5
218A
330
2
100
AcDbEntity
  8
0
100
AcDbLine
 10
185.3244063226587
 20
150.0803793048182
 30
0.0
 11
150.400524768402
 21
150.0803793048182
 31
0.0
  0
ARC
  5
218B
330
2
100
AcDbEntity
  8
0
100
AcDbCircle
 10
134.8624655455299
 20
152.5803793048239
 30
0.0
 40
5.0
100
AcDbArc
 50
76.63232579737094
 51
90.0
  0
LINE
  5
218C
330
2
100
AcDbEntity
  8
0
100
AcDbLine
 10
134.8624655455299
 20
157.5803793048241
 30
0.0
 11
131.8624655455299
 21
157.5803793048241
 31
0.0
  0
LINE
  5
218D
330
2
100
AcDbEntity
  8
0
100
AcDbLine
 10
134.8624655455299
 20
157.5803793048209
 30
0.0
 11
132.2724655455298
 21
157.5803793048209
 31
0.0
  0
ARC
  5
218E
330
2
100
AcDbEntity
  8
0
100
AcDbCircle
 10
145.2664221053404
 20
196.3611706167859
 30
0.0
 40
40.0
100
AcDbArc
 50
256.6323257973709
 51
276.1769964048909
  0
ARC
  5
218F
330
2
100
AcDbEntity
  8
0
100
AcDbCircle
 10
150.400524768402
 20
145.0803793048182
 30
0.0
 40
5.0
100
AcDbArc
 50
90.0
 51
135.0000000000138
  0
LINE
  5
2190
330
2
100
AcDbEntity
  8
0
100
AcDbLine
 10
130.8624655455299
 20
149.6370036318468
 30
0.0
 11
133.3624655455299
 21
148.1936279588728
 31
0.0
  0
LINE
  5
2191
330
2
100
AcDbEntity
  8
0
100
AcDbLine
 10
135.8624655455299
 20
149.6370036318468
 30
0.0
 11
133.3624655455299
 21
148.1936279588728
 31
0.0
  0
LINE
  5
2192
330
2
100
AcDbEntity
  8
0
100
AcDbLine
 10
133.3520579054469
 20
140.0527277220355
 30
0.0
 11
144.3901171283162
 21
151.0907869449039
 31
0.0
  0
ARC
  5
2193
330
2
100
AcDbEntity
  8
0
100
AcDbCircle
 10
123.8624655455299
 20
151.5803793048259
 30
0.0
 40
3.0
100
AcDbArc
 50
270.0
 51
0.0
  0
CIRCLE
  5
2194
330
2
100
AcDbEntity
  8
HOJO
100
AcDbCircle
 10
131.8624655455326
 20
143.0803793048209
 30
0.0
 40
2.0
  0
LINE
  5
2195
330
2
100
AcDbEntity
  8
CENTER
100
AcDbLine
 10
131.8624655455326
 20
148.2535843855782
 30
0.0
 11
131.8624655455326
 21
137.9071742240641
 31
0.0
  0
ARC
  5
2196
330
2
100
AcDbEntity
  8
0
100
AcDbCircle
 10
139.3624655455326
 20
134.0423200819497
 30
0.0
 40
5.0
100
AcDbArc
 50
135.0000000000138
 51
180.0
  0
ARC
  5
2197
330
2
100
AcDbEntity
  8
0
100
AcDbCircle
 10
139.3624655455326
 20
134.0423200819497
 30
0.0
 40
8.5
100
AcDbArc
 50
135.0000000000138
 51
180.0
  0
LINE
  5
2198
330
2
100
AcDbEntity
  8
0
100
AcDbLine
 10
131.5094895191872
 20
137.295129257053
 30
0.0
 11
134.7430678829762
 21
135.9557372437749
 31
0.0
  0
CIRCLE
  5
2199
330
2
100
AcDbEntity
  8
0
100
AcDbCircle
 10
131.8624655455326
 20
143.0803793048209
 30
0.0
 40
1.6
  0
LINE
  5
219A
330
2
100
AcDbEntity
  8
0
100
AcDbLine
 10
135.8269316396002
 20
137.5778539878821
 30
0.0
 11
146.8649908624687
 21
148.6159132107511
 31
0.0
  0
ARC
  5
219B
330
2
100
AcDbEntity
  8
0
100
AcDbCircle
 10
121.8624655455299
 20
147.5803793047031
 30
0.0
 40
5.0
100
AcDbArc
 50
270.0
 51
0.0
  0
LINE
  5
219C
330
2
100
AcDbEntity
  8
CENTER
100
AcDbLine
 10
126.6892604647758
 20
143.0803793048209
 30
0.0
 11
137.0356706262904
 21
143.0803793048209
 31
0.0
  0
LINE
  5
219D
330
2
100
AcDbEntity
  8
0
100
AcDbLine
 10
147.1477155932983
 20
152.9333553311641
 30
0.0
 11
148.4871076065759
 21
149.6997769673745
 31
0.0
  0
LINE
  5
219E
330
2
100
AcDbEntity
  8
0
100
AcDbLine
 10
135.8624655455299
 20
149.6370036318468
 30
0.0
 11
135.8624655455299
 21
152.523754977795
 31
0.0
  0
LINE
  5
219F
330
2
100
AcDbEntity
  8
0
100
AcDbLine
 10
130.8624655455299
 20
149.6370036318468
 30
0.0
 11
130.8624655455299
 21
152.523754977795
 31
0.0
  0
LINE
  5
21A0
330
2
100
AcDbEntity
  8
CENTER
100
AcDbLine
 10
124.6124655455299
 20
151.0803793048209
 30
0.0
 11
142.1124655455299
 21
151.0803793048209
 31
0.0
  0
CIRCLE
  5
21A1
330
2
100
AcDbEntity
  8
0
100
AcDbCircle
 10
133.3624655455299
 20
151.0803793048209
 30
0.0
 40
5.000000000000113
  0
CIRCLE
  5
21A2
330
2
100
AcDbEntity
  8
0
100
AcDbCircle
 10
133.3624655455299
 20
151.0803793048209
 30
0.0
 40
4.307179676972509
  0
ARC
  5
21A3
330
2
100
AcDbEntity
  8
0
100
AcDbCircle
 10
150.400524768402
 20
145.0803793048182
 30
0.0
 40
8.5
100
AcDbArc
 50
90.0
 51
135.0000000000138
  0
LINE
  5
21A4
330
2
100
AcDbEntity
  8
0
100
AcDbLine
 10
133.3624655455299
 20
153.9671306507691
 30
0.0
 11
130.8624655455299
 21
152.523754977795
 31
0.0
  0
LINE
  5
21A5
330
2
100
AcDbEntity
  8
0
100
AcDbLine
 10
133.3624655455299
 20
153.9671306507691
 30
0.0
 11
135.8624655455299
 21
152.523754977795
 31
0.0
  0
LINE
  5
21AE
330
2
100
AcDbEntity
  8
CENTER
100
AcDbLine
 10
322.1027274601265
 20
168.0803793047861
 30
0.0
 11
322.1027274601265
 21
65.08037930478718
 31
0.0
  0
LINE
  5
21AF
330
2
100
AcDbEntity
  8
0
100
AcDbLine
 10
365.1027274601347
 20
76.16507944676868
 30
0.0
 11
365.1027274601365
 21
156.9956791628328
 31
0.0
  0
LINE
  5
21B0
330
2
100
AcDbEntity
  8
0
100
AcDbLine
 10
298.6027274601301
 20
75.58474273868546
 30
0.0
 11
298.6027274601301
 21
157.5760158708608
 31
0.0
  0
LINE
  5
21B1
330
2
100
AcDbEntity
  8
CENTER
100
AcDbLine
 10
202.3624655455299
 20
76.87108376994018
 30
0.0
 11
202.3624655455299
 21
73.47442162756323
 31
0.0
  0
ARC
  5
21B2
330
2
100
AcDbEntity
  8
0
100
AcDbCircle
 10
203.8624655455299
 20
80.58037930482049
 30
0.0
 40
5.0
100
AcDbArc
 50
270.0
 51
0.0
  0
ARC
  5
21B3
330
2
100
AcDbEntity
  8
0
100
AcDbCircle
 10
286.1027274601319
 20
80.51977548370633
 30
0.0
 40
5.0
100
AcDbArc
 50
180.0
 51
269.3013056170002
  0
ARC
  5
21B4
330
2
100
AcDbEntity
  8
0
100
AcDbCircle
 10
292.1027274601338
 20
76.58037930480213
 30
0.0
 40
1.0
100
AcDbArc
 50
180.0
 51
270.0
  0
LINE
  5
21B5
330
2
100
AcDbEntity
  8
0
100
AcDbLine
 10
358.1636985362174
 20
75.52014724474066
 30
0.0
 11
322.1027274601329
 21
75.08037930478713
 31
0.0
  0
LINE
  5
21B6
330
2
100
AcDbEntity
  8
0
100
AcDbLine
 10
298.6027274601301
 20
75.58474273868546
 30
0.0
 11
365.1027274601347
 21
76.16507944676868
 31
0.0
  0
ARC
  5
21B7
330
2
100
AcDbEntity
  8
0
100
AcDbCircle
 10
200.8624655455299
 20
80.58037930482436
 30
0.0
 40
5.0
100
AcDbArc
 50
256.6323257973709
 51
270.0
  0
LINE
  5
21B8
330
2
100
AcDbEntity
  8
0
100
AcDbLine
 10
203.8624655455299
 20
75.58037930482436
 30
0.0
 11
200.8624655455299
 21
75.58037930482436
 31
0.0
  0
LINE
  5
21B9
330
2
100
AcDbEntity
  8
0
100
AcDbLine
 10
286.0417563840474
 20
75.52014724473884
 30
0.0
 11
322.1027274601319
 21
75.08037930478713
 31
0.0
  0
LINE
  5
21BA
330
2
100
AcDbEntity
  8
0
100
AcDbLine
 10
298.6027274601301
 20
75.58037930480214
 30
0.0
 11
292.1027274601338
 21
75.58037930480214
 31
0.0
  0
ARC
  5
21BB
330
2
100
AcDbEntity
  8
0
100
AcDbCircle
 10
358.1027274601319
 20
80.51977548370814
 30
0.0
 40
5.0
100
AcDbArc
 50
270.6986943829997
 51
298.4785614955827
  0
LINE
  5
21BC
330
2
100
AcDbEntity
  8
0
100
AcDbLine
 10
365.1027274601365
 20
80.58037930478212
 30
0.0
 11
298.6027274601301
 21
80.58037930478212
 31
0.0
  0
LINE
  5
21BD
330
2
100
AcDbEntity
  8
0
100
AcDbLine
 10
365.1027274601365
 20
83.58037930478189
 30
0.0
 11
298.6027274601301
 21
83.58037930478189
 31
0.0
  0
LINE
  5
21BE
330
2
100
AcDbEntity
  8
0
100
AcDbLine
 10
358.1636985362174
 20
157.6406113648317
 30
0.0
 11
322.1027274601329
 21
158.0803793047862
 31
0.0
  0
LINE
  5
21BF
330
2
100
AcDbEntity
  8
0
100
AcDbLine
 10
298.6027274601301
 20
157.5760158708608
 30
0.0
 11
365.1027274601365
 21
156.9956791628328
 31
0.0
  0
LINE
  5
21C0
330
2
100
AcDbEntity
  8
0
100
AcDbLine
 10
365.1027274601365
 20
152.5803793048221
 30
0.0
 11
298.6027274601301
 21
152.5803793048221
 31
0.0
  0
LINE
  5
21C1
330
2
100
AcDbEntity
  8
0
100
AcDbLine
 10
365.1027274601365
 20
149.5803793048223
 30
0.0
 11
298.6027274601301
 21
149.5803793048223
 31
0.0
  0
LINE
  5
21C2
330
2
100
AcDbEntity
  8
0
100
AcDbLine
 10
365.1027274601356
 20
134.8724144706864
 30
0.0
 11
298.6027274601301
 21
134.8724144706864
 31
0.0
  0
LINE
  5
21C3
330
2
100
AcDbEntity
  8
0
100
AcDbLine
 10
365.1027274601356
 20
98.28834413891787
 30
0.0
 11
298.6027274601301
 21
98.28834413891787
 31
0.0
  0
LINE
  5
21C5
330
2
100
AcDbEntity
  8
CENTER
100
AcDbLine
 10
269.1027274601301
 20
116.5803793048021
 30
0.0
 11
425.1027274601346
 21
116.5803793048021
 31
0.0
  0
ARC
  5
21C6
330
2
100
AcDbEntity
  8
0
100
AcDbCircle
 10
286.1027274601319
 20
152.6409831258661
 30
0.0
 40
5.0
100
AcDbArc
 50
90.69869438299972
 51
180.0
  0
LINE
  5
21C9
330
2
100
AcDbEntity
  8
CENTER
100
AcDbLine
 10
202.3624655455299
 20
159.8303793048209
 30
0.0
 11
202.3624655455299
 21
142.3303793048209
 31
0.0
  0
ARC
  5
21CA
330
2
100
AcDbEntity
  8
0
100
AcDbCircle
 10
203.8624655455299
 20
152.5803793048202
 30
0.0
 40
5.0
100
AcDbArc
 50
0.0
 51
90.0
  0
ARC
  5
21CC
330
2
100
AcDbEntity
  8
0
100
AcDbCircle
 10
38.86246554552994
 20
116.5803793048241
 30
0.0
 40
170.0
100
AcDbArc
 50
353.8230035951337
 51
6.176996404866303
  0
LINE
  5
21CD
330
2
100
AcDbEntity
  8
0
100
AcDbLine
 10
204.8624655455272
 20
99.1184385276926
 30
0.0
 11
204.8624655455272
 21
134.0423200819492
 31
0.0
  0
LINE
  5
21CE
330
2
100
AcDbEntity
  8
0
100
AcDbLine
 10
201.3624655455272
 20
99.1184385276926
 30
0.0
 11
201.3624655455272
 21
134.0423200819497
 31
0.0
  0
LINE
  5
21CF
330
2
100
AcDbEntity
  8
CENTER
100
AcDbLine
 10
203.8624655455272
 20
84.90717422406413
 30
0.0
 11
203.8624655455272
 21
95.25358438557821
 31
0.0
  0
LINE
  5
21D0
330
2
100
AcDbEntity
  8
CENTER
100
AcDbLine
 10
202.3624655455299
 20
77.89613656065438
 30
0.0
 11
202.3624655455299
 21
90.83037930482095
 31
0.0
  0
ARC
  5
21D1
330
2
100
AcDbEntity
  8
0
100
AcDbCircle
 10
247.6432568574913
 20
93.98433586463369
 30
0.0
 40
40.0
100
AcDbArc
 50
173.8230035951337
 51
193.3676742026266
  0
LINE
  5
21D2
330
2
100
AcDbEntity
  8
0
100
AcDbLine
 10
202.3728731856129
 20
93.10803088760684
 30
0.0
 11
191.3348139627444
 21
82.06997166473838
 31
0.0
  0
LINE
  5
21D3
330
2
100
AcDbEntity
  8
0
100
AcDbLine
 10
199.8979994514596
 20
95.58290462175973
 30
0.0
 11
188.8599402285911
 21
84.54484539889079
 31
0.0
  0
CIRCLE
  5
21D4
330
2
100
AcDbEntity
  8
0
100
AcDbCircle
 10
202.3624655455299
 20
82.08037930482095
 30
0.0
 40
5.000000000000113
  0
CIRCLE
  5
21D5
330
2
100
AcDbEntity
  8
0
100
AcDbCircle
 10
202.3624655455299
 20
82.08037930482095
 30
0.0
 40
4.307179676972509
  0
LINE
  5
21D6
330
2
100
AcDbEntity
  8
0
100
AcDbLine
 10
208.8624655455299
 20
80.58037930482436
 30
0.0
 11
208.8624655455299
 21
83.58037930482414
 31
0.0
  0
ARC
  5
21D7
330
2
100
AcDbEntity
  8
0
100
AcDbCircle
 10
203.862465545529
 20
83.58037930482414
 30
0.0
 40
5.0
100
AcDbArc
 50
0.0
 51
13.36767420262665
  0
LINE
  5
21D8
330
2
100
AcDbEntity
  8
0
100
AcDbLine
 10
204.8624655455299
 20
80.63700363184688
 30
0.0
 11
204.8624655455299
 21
83.52375497779503
 31
0.0
  0
LINE
  5
21D9
330
2
100
AcDbEntity
  8
0
100
AcDbLine
 10
199.8624655455299
 20
80.63700363184688
 30
0.0
 11
199.8624655455299
 21
83.52375497779503
 31
0.0
  0
LINE
  5
21DA
330
2
100
AcDbEntity
  8
0
100
AcDbLine
 10
199.8624655455299
 20
80.63700363184688
 30
0.0
 11
202.3624655455299
 21
79.1936279588728
 31
0.0
  0
LINE
  5
21DB
330
2
100
AcDbEntity
  8
0
100
AcDbLine
 10
204.8624655455299
 20
80.63700363184688
 30
0.0
 11
202.3624655455299
 21
79.1936279588728
 31
0.0
  0
LINE
  5
21DC
330
2
100
AcDbEntity
  8
0
100
AcDbLine
 10
202.3624655455299
 20
84.96713065076908
 30
0.0
 11
199.8624655455299
 21
83.52375497779503
 31
0.0
  0
LINE
  5
21DD
330
2
100
AcDbEntity
  8
0
100
AcDbLine
 10
202.3624655455299
 20
84.96713065076908
 30
0.0
 11
204.8624655455299
 21
83.52375497779503
 31
0.0
  0
LINE
  5
21DE
330
2
100
AcDbEntity
  8
CENTER
100
AcDbLine
 10
211.1124655455299
 20
82.08037930482095
 30
0.0
 11
193.6124655455299
 21
82.08037930482095
 31
0.0
  0
CIRCLE
  5
21DF
330
2
100
AcDbEntity
  8
HOJO
100
AcDbCircle
 10
203.8624655455272
 20
90.08037930482094
 30
0.0
 40
2.0
  0
CIRCLE
  5
21E0
330
2
100
AcDbEntity
  8
0
100
AcDbCircle
 10
203.8624655455272
 20
90.08037930482094
 30
0.0
 40
1.6
  0
ARC
  5
21E1
330
2
100
AcDbEntity
  8
0
100
AcDbCircle
 10
196.3624655455272
 20
99.1184385276926
 30
0.0
 40
8.5
100
AcDbArc
 50
315.0000000000138
 51
0.0
  0
LINE
  5
21E2
330
2
100
AcDbEntity
  8
0
100
AcDbLine
 10
204.2154415718726
 20
95.86562935258934
 30
0.0
 11
200.9818632080835
 21
97.20502136586691
 31
0.0
  0
ARC
  5
21E3
330
2
100
AcDbEntity
  8
0
100
AcDbCircle
 10
196.3624655455272
 20
99.1184385276926
 30
0.0
 40
5.0
100
AcDbArc
 50
315.0000000000138
 51
0.0
  0
LINE
  5
21E4
330
2
100
AcDbEntity
  8
CENTER
100
AcDbLine
 10
209.0356706262849
 20
90.08037930482094
 30
0.0
 11
198.6892604647703
 21
90.08037930482094
 31
0.0
  0
LINE
  5
21E5
330
2
100
AcDbEntity
  8
0
100
AcDbLine
 10
188.5772154977624
 20
80.22740327847776
 30
0.0
 11
187.2378234844839
 21
83.46098164226731
 31
0.0
  0
LINE
  5
21E6
330
2
100
AcDbEntity
  8
0
100
AcDbLine
 10
203.8624655455299
 20
157.5803793048241
 30
0.0
 11
200.8624655455299
 21
157.5803793048241
 31
0.0
  0
ARC
  5
21E7
330
2
100
AcDbEntity
  8
0
100
AcDbCircle
 10
200.8624655455299
 20
152.5803793048232
 30
0.0
 40
5.0
100
AcDbArc
 50
90.0
 51
103.367674202629
  0
ARC
  5
21E8
330
2
100
AcDbEntity
  8
0
100
AcDbCircle
 10
203.8624655455299
 20
149.5803793048241
 30
0.0
 40
5.0
100
AcDbArc
 50
346.6323257973733
 51
0.0
  0
LINE
  5
21E9
330
2
100
AcDbEntity
  8
0
100
AcDbLine
 10
199.8624655455299
 20
149.6370036318468
 30
0.0
 11
202.3624655455299
 21
148.1936279588728
 31
0.0
  0
LINE
  5
21EA
330
2
100
AcDbEntity
  8
0
100
AcDbLine
 10
204.8624655455299
 20
149.6370036318468
 30
0.0
 11
202.3624655455299
 21
148.1936279588728
 31
0.0
  0
LINE
  5
21EB
330
2
100
AcDbEntity
  8
0
100
AcDbLine
 10
202.3728731856129
 20
140.052727722035
 30
0.0
 11
191.3348139627444
 21
151.0907869449039
 31
0.0
  0
ARC
  5
21EC
330
2
100
AcDbEntity
  8
0
100
AcDbCircle
 10
196.3624655455272
 20
134.0423200819497
 30
0.0
 40
5.0
100
AcDbArc
 50
0.0
 51
44.99999999998617
  0
ARC
  5
21ED
330
2
100
AcDbEntity
  8
0
100
AcDbCircle
 10
196.3624655455272
 20
134.0423200819492
 30
0.0
 40
8.5
100
AcDbArc
 50
0.0
 51
44.99999999998617
  0
LINE
  5
21EE
330
2
100
AcDbEntity
  8
0
100
AcDbLine
 10
204.2154415718726
 20
137.2951292570525
 30
0.0
 11
200.9818632080845
 21
135.9557372437749
 31
0.0
  0
ARC
  5
21EF
330
2
100
AcDbEntity
  8
0
100
AcDbCircle
 10
247.6432568574922
 20
139.1764227450134
 30
0.0
 40
40.0
100
AcDbArc
 50
166.6323257973733
 51
186.1769964048663
  0
LINE
  5
21F0
330
2
100
AcDbEntity
  8
0
100
AcDbLine
 10
199.8979994514596
 20
137.5778539878821
 30
0.0
 11
188.8599402285911
 21
148.6159132107511
 31
0.0
  0
LINE
  5
21F1
330
2
100
AcDbEntity
  8
0
100
AcDbLine
 10
208.8624655455299
 20
149.5803793048241
 30
0.0
 11
208.8624655455299
 21
152.5803793048241
 31
0.0
  0
LINE
  5
21F2
330
2
100
AcDbEntity
  8
0
100
AcDbLine
 10
204.8624655455299
 20
149.6370036318468
 30
0.0
 11
204.8624655455299
 21
152.523754977795
 31
0.0
  0
LINE
  5
21F3
330
2
100
AcDbEntity
  8
0
100
AcDbLine
 10
199.8624655455299
 20
149.6370036318468
 30
0.0
 11
199.8624655455299
 21
152.523754977795
 31
0.0
  0
LINE
  5
21F4
330
2
100
AcDbEntity
  8
CENTER
100
AcDbLine
 10
211.1124655455299
 20
151.0803793048209
 30
0.0
 11
193.6124655455299
 21
151.0803793048209
 31
0.0
  0
CIRCLE
  5
21F5
330
2
100
AcDbEntity
  8
0
100
AcDbCircle
 10
202.3624655455299
 20
151.0803793048209
 30
0.0
 40
5.000000000000113
  0
CIRCLE
  5
21F6
330
2
100
AcDbEntity
  8
0
100
AcDbCircle
 10
202.3624655455299
 20
151.0803793048209
 30
0.0
 40
4.307179676972509
  0
LINE
  5
21F7
330
2
100
AcDbEntity
  8
0
100
AcDbLine
 10
202.3624655455299
 20
153.9671306507691
 30
0.0
 11
199.8624655455299
 21
152.523754977795
 31
0.0
  0
LINE
  5
21F8
330
2
100
AcDbEntity
  8
0
100
AcDbLine
 10
202.3624655455299
 20
153.9671306507691
 30
0.0
 11
204.8624655455299
 21
152.523754977795
 31
0.0
  0
LINE
  5
21F9
330
2
100
AcDbEntity
  8
0
100
AcDbLine
 10
188.5772154977624
 20
152.9333553311641
 30
0.0
 11
187.2378234844839
 21
149.6997769673745
 31
0.0
  0
LINE
  5
21FA
330
2
100
AcDbEntity
  8
0
100
AcDbLine
 10
291.1027274601329
 20
76.58037930480213
 30
0.0
 11
291.1027274601329
 21
156.5803793048021
 31
0.0
  0
LINE
  5
21FB
330
2
100
AcDbEntity
  8
0
100
AcDbLine
 10
287.6027274601301
 20
146.0803793048207
 30
0.0
 11
287.6027274601301
 21
87.08037930478349
 31
0.0
  0
LINE
  5
21FC
330
2
100
AcDbEntity
  8
0
100
AcDbLine
 10
279.1027274601301
 20
142.503029035611
 30
0.0
 11
279.1027274601301
 21
90.65772957399349
 31
0.0
  0
LINE
  5
21FD
330
2
100
AcDbEntity
  8
0
100
AcDbLine
 10
283.6027274601356
 20
142.8803793048025
 30
0.0
 11
283.6027274601356
 21
90.28037930480172
 31
0.0
  0
LINE
  5
21FE
330
2
100
AcDbEntity
  8
0
100
AcDbLine
 10
281.6027274601356
 20
142.880379304803
 30
0.0
 11
281.6027274602147
 21
90.28037930480172
 31
0.0
  0
LINE
  5
21FF
330
2
100
AcDbEntity
  8
0
100
AcDbLine
 10
287.102727460131
 20
88.08037930480736
 30
0.0
 11
287.1027274601301
 21
145.0803793047964
 31
0.0
  0
LINE
  5
2200
330
2
100
AcDbEntity
  8
0
100
AcDbLine
 10
280.1027274601356
 20
143.0803793048028
 30
0.0
 11
280.1027274601356
 21
90.08037930480123
 31
0.0
  0
LINE
  5
2201
330
2
100
AcDbEntity
  8
0
100
AcDbLine
 10
283.8027274601354
 20
90.08037930480169
 30
0.0
 11
283.8027274601354
 21
143.0803793048023
 31
0.0
  0
LINE
  5
2202
330
2
100
AcDbEntity
  8
HIDS
100
AcDbLine
 10
290.5169410225052
 20
80.16616574242949
 30
0.0
 11
288.1885138977586
 21
82.49459286717479
 31
0.0
  0
LINE
  5
2203
330
2
100
AcDbEntity
  8
0
100
AcDbLine
 10
289.6027274601337
 20
77.08037930478349
 30
0.0
 11
284.0027274601334
 21
77.08037930478349
 31
0.0
  0
LINE
  5
2204
330
2
100
AcDbEntity
  8
CENTER
100
AcDbLine
 10
278.6027274601329
 20
82.08037930478349
 30
0.0
 11
303.6654742042792
 21
82.08037930478349
 31
0.0
  0
LINE
  5
2205
330
2
100
AcDbEntity
  8
0
100
AcDbLine
 10
289.6027274601337
 20
87.08037930478349
 30
0.0
 11
284.0027274601334
 21
87.08037930478349
 31
0.0
  0
LINE
  5
2206
330
2
100
AcDbEntity
  8
0
100
AcDbLine
 10
281.1027274601319
 20
80.51977548370633
 30
0.0
 11
281.1027274601319
 21
90.08037930480123
 31
0.0
  0
LINE
  5
2207
330
2
100
AcDbEntity
  8
0
100
AcDbLine
 10
283.6027274601338
 20
77.7731996278112
 30
0.0
 11
283.6027274601328
 21
86.38755898175578
 31
0.0
  0
LINE
  5
2208
330
2
100
AcDbEntity
  8
0
100
AcDbLine
 10
284.0027274601334
 20
77.08037930478349
 30
0.0
 11
284.0027274601334
 21
87.08037930478349
 31
0.0
  0
LINE
  5
2209
330
2
100
AcDbEntity
  8
HIDS
100
AcDbLine
 10
287.6027274601301
 20
87.08037930478349
 30
0.0
 11
287.6027274601301
 21
83.90880642954858
 31
0.0
  0
ARC
  5
220A
330
2
100
AcDbEntity
  8
HIDS
100
AcDbCircle
 10
289.6027274601301
 20
83.90880642954858
 30
0.0
 40
2.0
100
AcDbArc
 50
180.0
 51
225.0000000000598
  0
LINE
  5
220B
330
2
100
AcDbEntity
  8
0
100
AcDbLine
 10
284.0027274601334
 20
77.08037930478349
 30
0.0
 11
283.6027274601338
 21
77.7731996278112
 31
0.0
  0
LINE
  5
220C
330
2
100
AcDbEntity
  8
0
100
AcDbLine
 10
280.1027274601356
 20
90.08037930480123
 30
0.0
 11
281.4027274601349
 21
90.08037930480146
 31
0.0
  0
LINE
  5
220D
330
2
100
AcDbEntity
  8
0
100
AcDbLine
 10
283.6027274601356
 20
90.28037930480172
 30
0.0
 11
283.8027274601354
 21
90.08037930480169
 31
0.0
  0
LINE
  5
220E
330
2
100
AcDbEntity
  8
0
100
AcDbLine
 10
281.8027274601354
 20
90.78037930480126
 30
0.0
 11
283.4027274601348
 21
90.78037930480173
 31
0.0
  0
LINE
  5
220F
330
2
100
AcDbEntity
  8
0
100
AcDbLine
 10
280.1027274601356
 20
90.08037930480123
 30
0.0
 11
279.1027274601356
 21
90.65772957399076
 31
0.0
  0
LINE
  5
2210
330
2
100
AcDbEntity
  8
0
100
AcDbLine
 10
287.102727460131
 20
88.08037930480736
 30
0.0
 11
287.6027274601355
 21
87.58037930480236
 31
0.0
  0
LINE
  5
2211
330
2
100
AcDbEntity
  8
0
100
AcDbLine
 10
283.8027274601354
 20
90.08037930480169
 30
0.0
 11
287.1027274601356
 21
90.08037930480213
 31
0.0
  0
ARC
  5
2212
330
2
100
AcDbEntity
  8
0
100
AcDbCircle
 10
281.4027274601349
 20
90.28037930480127
 30
0.0
 40
0.2
100
AcDbArc
 50
270.0
 51
0.0000000001042204
  0
ARC
  5
2213
330
2
100
AcDbEntity
  8
0
100
AcDbCircle
 10
281.8027274601363
 20
90.58037930480145
 30
0.0
 40
0.2
100
AcDbArc
 50
90.0
 51
179.9999999998697
  0
ARC
  5
2214
330
2
100
AcDbEntity
  8
0
100
AcDbCircle
 10
283.4027274601348
 20
90.58037930480145
 30
0.0
 40
0.2
100
AcDbArc
 50
0.0
 51
90.0
  0
LINE
  5
2215
330
2
100
AcDbEntity
  8
0
100
AcDbLine
 10
284.0027274601334
 20
87.08037930478349
 30
0.0
 11
283.6027274601338
 21
86.38755898175578
 31
0.0
  0
LINE
  5
2216
330
2
100
AcDbEntity
  8
0
100
AcDbLine
 10
289.6027274601337
 20
77.08037930478349
 30
0.0
 11
289.6027274601337
 21
87.08037930478326
 31
0.0
  0
ARC
  5
2217
330
2
100
AcDbEntity
  8
HIDS
100
AcDbCircle
 10
289.1027274601329
 20
78.75195218005592
 30
0.0
 40
2.0
100
AcDbArc
 50
0.0
 51
45.00000000005988
  0
LINE
  5
2218
330
2
100
AcDbEntity
  8
0
100
AcDbLine
 10
298.6027274601301
 20
80.58037930478212
 30
0.0
 11
292.1027274601328
 21
80.58037930478212
 31
0.0
  0
LINE
  5
2219
330
2
100
AcDbEntity
  8
0
100
AcDbLine
 10
298.6027274601301
 20
83.58037930478189
 30
0.0
 11
292.1027274601328
 21
83.58037930478189
 31
0.0
  0
LINE
  5
221A
330
2
100
AcDbEntity
  8
0
100
AcDbLine
 10
289.6027274601328
 20
77.08037930478349
 30
0.0
 11
291.1027274601329
 21
77.08037930478349
 31
0.0
  0
LINE
  5
221B
330
2
100
AcDbEntity
  8
0
100
AcDbLine
 10
298.6027274601301
 20
98.28834413891787
 30
0.0
 11
292.1027274601328
 21
98.28834413891787
 31
0.0
  0
LINE
  5
221C
330
2
100
AcDbEntity
  8
0
100
AcDbLine
 10
289.6027274601328
 20
87.08037930478349
 30
0.0
 11
291.1027274601329
 21
87.08037930478349
 31
0.0
  0
LINE
  5
221D
330
2
100
AcDbEntity
  8
0
100
AcDbLine
 10
289.6027274601337
 20
156.0803793048207
 30
0.0
 11
284.0027274601334
 21
156.0803793048207
 31
0.0
  0
LINE
  5
221E
330
2
100
AcDbEntity
  8
0
100
AcDbLine
 10
286.0417563840474
 20
157.6406113648336
 30
0.0
 11
322.1027274601319
 21
158.0803793047862
 31
0.0
  0
LINE
  5
221F
330
2
100
AcDbEntity
  8
0
100
AcDbLine
 10
289.6027274601337
 20
146.0803793048207
 30
0.0
 11
284.0027274601334
 21
146.0803793048207
 31
0.0
  0
LINE
  5
2220
330
2
100
AcDbEntity
  8
HIDS
100
AcDbLine
 10
290.5169410225052
 20
152.9945928671745
 30
0.0
 11
288.1885138977577
 21
150.6661657424294
 31
0.0
  0
LINE
  5
2221
330
2
100
AcDbEntity
  8
CENTER
100
AcDbLine
 10
278.6027274601329
 20
151.0803793048207
 30
0.0
 11
303.6654742042792
 21
151.0803793048207
 31
0.0
  0
LINE
  5
2222
330
2
100
AcDbEntity
  8
0
100
AcDbLine
 10
284.0027274601334
 20
156.0803793048207
 30
0.0
 11
283.6027274601338
 21
155.387558981793
 31
0.0
  0
LINE
  5
2223
330
2
100
AcDbEntity
  8
0
100
AcDbLine
 10
281.1027274601319
 20
143.0803793048025
 30
0.0
 11
281.1027274601319
 21
152.6409831258661
 31
0.0
  0
LINE
  5
2224
330
2
100
AcDbEntity
  8
HIDS
100
AcDbLine
 10
287.6027274601301
 20
146.0803793048207
 30
0.0
 11
287.6027274601301
 21
149.2519521800556
 31
0.0
  0
LINE
  5
2225
330
2
100
AcDbEntity
  8
0
100
AcDbLine
 10
280.1027274601356
 20
143.0803793048028
 30
0.0
 11
279.1027274601356
 21
142.5030290356132
 31
0.0
  0
LINE
  5
2226
330
2
100
AcDbEntity
  8
0
100
AcDbLine
 10
281.8027274601354
 20
142.3803793048027
 30
0.0
 11
283.4027274601348
 21
142.3803793048025
 31
0.0
  0
LINE
  5
2227
330
2
100
AcDbEntity
  8
0
100
AcDbLine
 10
283.6027274601356
 20
142.8803793048025
 30
0.0
 11
283.8027274601354
 21
143.0803793048023
 31
0.0
  0
LINE
  5
2228
330
2
100
AcDbEntity
  8
0
100
AcDbLine
 10
280.1027274601356
 20
143.0803793048028
 30
0.0
 11
281.4027274601349
 21
143.0803793048025
 31
0.0
  0
LINE
  5
2229
330
2
100
AcDbEntity
  8
0
100
AcDbLine
 10
287.1027274601356
 20
145.0803793048019
 30
0.0
 11
287.1027274601356
 21
143.0803793048019
 31
0.0
  0
LINE
  5
222A
330
2
100
AcDbEntity
  8
0
100
AcDbLine
 10
287.1027274601356
 20
145.0803793048019
 30
0.0
 11
287.6027274601355
 21
145.5803793048019
 31
0.0
  0
LINE
  5
222B
330
2
100
AcDbEntity
  8
0
100
AcDbLine
 10
283.8027274601354
 20
143.0803793048023
 30
0.0
 11
287.1027274601356
 21
143.0803793048019
 31
0.0
  0
ARC
  5
222C
330
2
100
AcDbEntity
  8
0
100
AcDbCircle
 10
281.4027274601349
 20
142.8803793048025
 30
0.0
 40
0.2
100
AcDbArc
 50
0.0000000001302755
 51
90.0
  0
ARC
  5
222D
330
2
100
AcDbEntity
  8
0
100
AcDbCircle
 10
281.8027274601354
 20
142.5803793048028
 30
0.0
 40
0.2
100
AcDbArc
 50
180.0000000001302
 51
270.0
  0
ARC
  5
222E
330
2
100
AcDbEntity
  8
0
100
AcDbCircle
 10
283.4027274601348
 20
142.5803793048023
 30
0.0
 40
0.2
100
AcDbArc
 50
270.0
 51
0.0
  0
LINE
  5
222F
330
2
100
AcDbEntity
  8
0
100
AcDbLine
 10
284.0027274601334
 20
146.0803793048207
 30
0.0
 11
283.6027274601338
 21
146.7731996278484
 31
0.0
  0
ARC
  5
2230
330
2
100
AcDbEntity
  8
HIDS
100
AcDbCircle
 10
289.6027274601301
 20
149.2519521800556
 30
0.0
 40
2.0
100
AcDbArc
 50
134.9999999999401
 51
180.0
  0
LINE
  5
2231
330
2
100
AcDbEntity
  8
0
100
AcDbLine
 10
283.6027274601338
 20
155.387558981793
 30
0.0
 11
283.6027274601328
 21
146.7731996278484
 31
0.0
  0
LINE
  5
2232
330
2
100
AcDbEntity
  8
0
100
AcDbLine
 10
284.0027274601334
 20
156.0803793048207
 30
0.0
 11
284.0027274601334
 21
146.0803793048207
 31
0.0
  0
LINE
  5
2233
330
2
100
AcDbEntity
  8
0
100
AcDbLine
 10
298.602727460131
 20
157.5803793048019
 30
0.0
 11
292.1027274601328
 21
157.5803793048019
 31
0.0
  0
ARC
  5
2234
330
2
100
AcDbEntity
  8
0
100
AcDbCircle
 10
292.1027274601328
 20
156.5803793048019
 30
0.0
 40
1.0
100
AcDbArc
 50
90.0
 51
180.0
  0
LINE
  5
2235
330
2
100
AcDbEntity
  8
0
100
AcDbLine
 10
289.6027274601328
 20
156.0803793048207
 30
0.0
 11
291.1027274601329
 21
156.0803793048207
 31
0.0
  0
LINE
  5
2236
330
2
100
AcDbEntity
  8
0
100
AcDbLine
 10
298.6027274601301
 20
134.8724144706864
 30
0.0
 11
292.1027274601328
 21
134.8724144706864
 31
0.0
  0
LINE
  5
2237
330
2
100
AcDbEntity
  8
0
100
AcDbLine
 10
289.6027274601328
 20
146.0803793048207
 30
0.0
 11
291.1027274601329
 21
146.0803793048207
 31
0.0
  0
LINE
  5
2238
330
2
100
AcDbEntity
  8
0
100
AcDbLine
 10
298.6027274601301
 20
152.5803793048221
 30
0.0
 11
292.1027274601328
 21
152.5803793048221
 31
0.0
  0
LINE
  5
2239
330
2
100
AcDbEntity
  8
0
100
AcDbLine
 10
298.6027274601301
 20
149.5803793048223
 30
0.0
 11
292.1027274601328
 21
149.5803793048223
 31
0.0
  0
LINE
  5
223A
330
2
100
AcDbEntity
  8
0
100
AcDbLine
 10
289.6027274601337
 20
156.0803793048207
 30
0.0
 11
289.6027274601337
 21
146.080379304821
 31
0.0
  0
ARC
  5
223B
330
2
100
AcDbEntity
  8
HIDS
100
AcDbCircle
 10
289.1027274601329
 20
154.4088064295483
 30
0.0
 40
2.0
100
AcDbArc
 50
314.99999999994
 51
0.0
  0
LINE
  5
2241
330
2
100
AcDbEntity
  8
0
100
AcDbLine
 10
385.1027274601356
 20
125.5804253048022
 30
0.0
 11
414.6027274601347
 21
125.5804253048022
 31
0.0
  0
LINE
  5
2242
330
2
100
AcDbEntity
  8
0
100
AcDbLine
 10
414.6027274601347
 20
107.5804253048022
 30
0.0
 11
385.1027274601356
 21
107.5804253048022
 31
0.0
  0
LINE
  5
2243
330
2
100
AcDbEntity
  8
0
100
AcDbLine
 10
370.1027274601337
 20
81.58037930480714
 30
0.0
 11
370.1027274601337
 21
151.5803793048071
 31
0.0
  0
LINE
  5
2244
330
2
100
AcDbEntity
  8
0
100
AcDbLine
 10
383.1027274601319
 20
90.51175685442194
 30
0.0
 11
383.1027274601337
 21
142.6490017551923
 31
0.0
  0
LINE
  5
2245
330
2
100
AcDbEntity
  8
0
100
AcDbLine
 10
384.1027274601356
 20
130.2917041702073
 30
0.0
 11
384.1027274601356
 21
102.8690544393969
 31
0.0
  0
LINE
  5
2246
330
2
100
AcDbEntity
  8
0
100
AcDbLine
 10
385.1027274601356
 20
126.5804250160888
 30
0.0
 11
385.1027274601356
 21
106.5804250160867
 31
0.0
  0
LINE
  5
2247
330
2
100
AcDbEntity
  8
0
100
AcDbLine
 10
365.1027274601338
 20
81.58037930480714
 30
0.0
 11
370.1027274601337
 21
81.58037930480714
 31
0.0
  0
ARC
  5
2248
330
2
100
AcDbEntity
  8
0
100
AcDbCircle
 10
381.1027274601337
 20
90.51175685442194
 30
0.0
 40
2.0
100
AcDbArc
 50
272.0000000000036
 51
0.0
  0
LINE
  5
2249
330
2
100
AcDbEntity
  8
0
100
AcDbLine
 10
385.1027274601356
 20
106.5803335935151
 30
0.0
 11
384.1027274601356
 21
106.0029833243256
 31
0.0
  0
ARC
  5
224A
330
2
100
AcDbEntity
  8
0
100
AcDbCircle
 10
383.6027274601356
 20
102.8690544393969
 30
0.0
 40
0.5
100
AcDbArc
 50
299.9999999999997
 51
0.0
  0
LINE
  5
224B
330
2
100
AcDbEntity
  8
0
100
AcDbLine
 10
383.8527274601356
 20
102.4360417375046
 30
0.0
 11
383.7008892242847
 21
102.3483778911629
 31
0.0
  0
ARC
  5
224C
330
2
100
AcDbEntity
  8
0
100
AcDbCircle
 10
382.7008892242847
 20
104.0804286987317
 30
0.0
 40
2.0
100
AcDbArc
 50
281.5907116854249
 51
299.9999999999997
  0
LINE
  5
224D
330
2
100
AcDbEntity
  8
0
100
AcDbLine
 10
372.0329284667286
 20
88.19381340583914
 30
0.0
 11
381.172526453538
 21
88.51297520038315
 31
0.0
  0
ARC
  5
224E
330
2
100
AcDbEntity
  8
0
100
AcDbCircle
 10
372.1027274601337
 20
86.19503175180126
 30
0.0
 40
2.0
100
AcDbArc
 50
92.00000000000366
 51
180.0
  0
LINE
  5
224F
330
2
100
AcDbEntity
  8
0
100
AcDbLine
 10
385.1027274601356
 20
126.5804250160888
 30
0.0
 11
384.1027274601356
 21
127.1577752852786
 31
0.0
  0
ARC
  5
2250
330
2
100
AcDbEntity
  8
0
100
AcDbCircle
 10
358.1027274601319
 20
152.6409831258642
 30
0.0
 40
5.0
100
AcDbArc
 50
61.52143850501043
 51
89.30130561700027
  0
ARC
  5
2251
330
2
100
AcDbEntity
  8
0
100
AcDbCircle
 10
381.1027274601337
 20
142.6490017551923
 30
0.0
 40
2.0
100
AcDbArc
 50
0.0
 51
87.99999999999633
  0
ARC
  5
2252
330
2
100
AcDbEntity
  8
0
100
AcDbCircle
 10
383.6027274601356
 20
130.2917041702073
 30
0.0
 40
0.5
100
AcDbArc
 50
0.0
 51
60.00000000000028
  0
LINE
  5
2253
330
2
100
AcDbEntity
  8
0
100
AcDbLine
 10
383.8527274601356
 20
130.7247168720994
 30
0.0
 11
383.7008892242847
 21
130.8123807184413
 31
0.0
  0
ARC
  5
2254
330
2
100
AcDbEntity
  8
0
100
AcDbCircle
 10
382.7008892242847
 20
129.0803299108722
 30
0.0
 40
2.0
100
AcDbArc
 50
60.00000000000028
 51
78.40928831454857
  0
LINE
  5
2255
330
2
100
AcDbEntity
  8
0
100
AcDbLine
 10
372.0329284667286
 20
144.966945203776
 30
0.0
 11
381.1725264535389
 21
144.6477834092311
 31
0.0
  0
ARC
  5
2256
330
2
100
AcDbEntity
  8
0
100
AcDbCircle
 10
372.1027274601337
 20
146.9657268578148
 30
0.0
 40
2.0
100
AcDbArc
 50
180.0
 51
267.9999999999963
  0
LINE
  5
2257
330
2
100
AcDbEntity
  8
0
100
AcDbLine
 10
365.1027274601338
 20
151.5803793048071
 30
0.0
 11
370.1027274601337
 21
151.5803793048071
 31
0.0
  0
LINE
  5
2258
330
2
100
AcDbEntity
  8
0
100
AcDbLine
 10
414.6027274601347
 20
125.5804253048022
 30
0.0
 11
414.6027274601347
 21
107.5804253048022
 31
0.0
  0
LINE
  5
2259
330
2
100
AcDbEntity
  8
0
100
AcDbLine
 10
415.1027274601347
 20
125.0804253048022
 30
0.0
 11
415.1027274601347
 21
108.0804253048022
 31
0.0
  0
LINE
  5
225A
330
2
100
AcDbEntity
  8
0
100
AcDbLine
 10
415.1027274601347
 20
108.0804253048022
 30
0.0
 11
414.6027274601347
 21
107.5804253048022
 31
0.0
  0
LINE
  5
225B
330
2
100
AcDbEntity
  8
0
100
AcDbLine
 10
414.6027274601347
 20
125.5804253048022
 30
0.0
 11
415.1027274601347
 21
125.0804253048022
 31
0.0
  0
ARC
  5
225C
330
2
100
AcDbEntity
  8
0
100
AcDbCircle
 10
667.4984174507017
 20
77.08037930480674
 30
0.0
 40
2.0
100
AcDbArc
 50
180.0
 51
270.0
  0
ARC
  5
225D
330
2
100
AcDbEntity
  8
0
100
AcDbCircle
 10
667.4984174507017
 20
77.58037930480674
 30
0.0
 40
2.0
100
AcDbArc
 50
180.0
 51
270.0
  0
ARC
  5
225E
330
2
100
AcDbEntity
  8
0
100
AcDbCircle
 10
628.4984174507017
 20
80.58037930480674
 30
0.0
 40
5.0
100
AcDbArc
 50
270.0
 51
0.0
  0
ARC
  5
225F
330
2
100
AcDbEntity
  8
0
100
AcDbCircle
 10
569.9023740105076
 20
36.79958799284714
 30
0.0
 40
40.0
100
AcDbArc
 50
83.82300359510905
 51
103.367674202629
  0
ARC
  5
2260
330
2
100
AcDbEntity
  8
0
100
AcDbCircle
 10
592.4984174506971
 20
245.580379304809
 30
0.0
 40
170.0
100
AcDbArc
 50
263.823003595109
 51
276.1769964048909
  0
ARC
  5
2261
330
2
100
AcDbEntity
  8
0
100
AcDbCircle
 10
556.4984174507007
 20
80.58037930480674
 30
0.0
 40
5.0
100
AcDbArc
 50
180.0
 51
270.0
  0
ARC
  5
2262
330
2
100
AcDbEntity
  8
0
100
AcDbCircle
 10
615.0944608908867
 20
36.7995879928469
 30
0.0
 40
40.0
100
AcDbArc
 50
76.63232579737094
 51
96.17699640483843
  0
LINE
  5
2264
330
2
100
AcDbEntity
  8
CENTER
100
AcDbLine
 10
592.4984174507065
 20
175.5803793048065
 30
0.0
 11
592.4984174507062
 21
57.58037930480788
 31
0.0
  0
CIRCLE
  5
2265
330
2
100
AcDbEntity
  8
CENTER
100
AcDbCircle
 10
592.4984174507008
 20
116.5803793048072
 30
0.0
 40
48.99999999999932
  0
LINE
  5
2266
330
2
100
AcDbEntity
  8
CENTER
100
AcDbLine
 10
547.2723379841245
 20
161.8064587713824
 30
0.0
 11
637.7244969172752
 21
71.35429983823105
 31
0.0
  0
LINE
  5
2267
330
2
100
AcDbEntity
  8
CENTER
100
AcDbLine
 10
637.0461446654526
 20
161.1281065195604
 30
0.0
 11
547.9506902359471
 21
72.03265209005554
 31
0.0
  0
LINE
  5
2268
330
2
100
AcDbEntity
  8
CENTER
100
AcDbLine
 10
557.8501851725595
 20
88.93214702666597
 30
0.0
 11
557.8501851725595
 21
74.93214702666597
 31
0.0
  0
LINE
  5
2269
330
2
100
AcDbEntity
  8
CENTER
100
AcDbLine
 10
627.146649728842
 20
88.93214702666597
 30
0.0
 11
627.146649728842
 21
74.93214702666597
 31
0.0
  0
ARC
  5
226B
330
2
100
AcDbEntity
  8
0
100
AcDbCircle
 10
559.4984174506971
 20
80.58037930480947
 30
0.0
 40
5.0
100
AcDbArc
 50
270.0
 51
283.367674202629
  0
LINE
  5
226C
330
2
100
AcDbEntity
  8
0
100
AcDbLine
 10
556.4984174506971
 20
75.58037930480878
 30
0.0
 11
559.4984174506971
 21
75.58037930480878
 31
0.0
  0
LINE
  5
226D
330
2
100
AcDbEntity
  8
0
100
AcDbLine
 10
625.4984174506971
 20
75.58037930480878
 30
0.0
 11
628.498417450698
 21
75.58037930480878
 31
0.0
  0
ARC
  5
226E
330
2
100
AcDbEntity
  8
0
100
AcDbCircle
 10
625.4984174506971
 20
80.58037930480901
 30
0.0
 40
5.0
100
AcDbArc
 50
256.6323257973709
 51
270.0
  0
LINE
  5
226F
330
2
100
AcDbEntity
  8
0
100
AcDbLine
 10
677.498417450699
 20
75.08037930480674
 30
0.0
 11
667.4984174507017
 21
75.08037930480674
 31
0.0
  0
LINE
  5
2270
330
2
100
AcDbEntity
  8
0
100
AcDbLine
 10
677.498417450699
 20
75.58037930480674
 30
0.0
 11
667.4984174507017
 21
75.58037930480674
 31
0.0
  0
ARC
  5
2271
330
2
100
AcDbEntity
  8
0
100
AcDbCircle
 10
615.0944608908885
 20
196.3611706167703
 30
0.0
 40
40.0
100
AcDbArc
 50
263.823003595109
 51
283.367674202629
  0
LINE
  5
2272
330
2
100
AcDbEntity
  8
CENTER
100
AcDbLine
 10
634.146649728842
 20
151.2286115829484
 30
0.0
 11
620.146649728842
 21
151.2286115829484
 31
0.0
  0
LINE
  5
2274
330
2
100
AcDbEntity
  8
CENTER
100
AcDbLine
 10
634.146649728842
 20
81.93214702667097
 30
0.0
 11
620.146649728842
 21
81.93214702667097
 31
0.0
  0
CIRCLE
  5
2275
330
2
100
AcDbEntity
  8
0
100
AcDbCircle
 10
592.4984174507008
 20
116.5803793048067
 30
0.0
 40
35.00000000000011
  0
LINE
  5
2276
330
2
100
AcDbEntity
  8
CENTER
100
AcDbLine
 10
557.8501851725595
 20
158.2286115829475
 30
0.0
 11
557.8501851725595
 21
144.2286115829475
 31
0.0
  0
ARC
  5
2277
330
2
100
AcDbEntity
  8
0
100
AcDbCircle
 10
556.4984174507007
 20
152.5803793048067
 30
0.0
 40
5.0
100
AcDbArc
 50
90.0
 51
180.0
  0
ARC
  5
2278
330
2
100
AcDbEntity
  8
0
100
AcDbCircle
 10
512.7176261387358
 20
139.1764227449989
 30
0.0
 40
40.0
100
AcDbArc
 50
353.8230035951337
 51
13.36767420262665
  0
LINE
  5
2279
330
2
100
AcDbEntity
  8
CENTER
100
AcDbLine
 10
564.8501851725605
 20
151.228611582947
 30
0.0
 11
550.8501851725604
 21
151.228611582947
 31
0.0
  0
LINE
  5
227A
330
2
100
AcDbEntity
  8
CENTER
100
AcDbLine
 10
564.8501851725605
 20
81.93214702666756
 30
0.0
 11
550.8501851725604
 21
81.93214702666756
 31
0.0
  0
ARC
  5
227B
330
2
100
AcDbEntity
  8
0
100
AcDbCircle
 10
512.7176261387358
 20
93.98433586461948
 30
0.0
 40
40.0
100
AcDbArc
 50
346.6323257973733
 51
6.176996404866303
  0
ARC
  5
227C
330
2
100
AcDbEntity
  8
0
100
AcDbCircle
 10
721.498417450698
 20
116.5803793048087
 30
0.0
 40
170.0
100
AcDbArc
 50
173.8230035951337
 51
186.1769964048663
  0
ARC
  5
227D
330
2
100
AcDbEntity
  8
0
100
AcDbCircle
 10
556.4984174506981
 20
83.58037930480879
 30
0.0
 40
5.0
100
AcDbArc
 50
166.6323257973733
 51
180.0
  0
LINE
  5
227E
330
2
100
AcDbEntity
  8
0
100
AcDbLine
 10
551.4984174506971
 20
83.58037930480879
 30
0.0
 11
551.4984174506971
 21
80.58037930480878
 31
0.0
  0
LINE
  5
227F
330
2
100
AcDbEntity
  8
0
100
AcDbLine
 10
551.4984174506971
 20
152.5803793048085
 30
0.0
 11
551.4984174506971
 21
149.5803793048087
 31
0.0
  0
ARC
  5
2280
330
2
100
AcDbEntity
  8
0
100
AcDbCircle
 10
556.4984174506981
 20
149.5803793048087
 30
0.0
 40
5.0
100
AcDbArc
 50
180.0
 51
193.3676742026266
  0
CIRCLE
  5
2281
330
2
100
AcDbEntity
  8
0
100
AcDbCircle
 10
592.4984174507062
 20
116.5803793048003
 30
0.0
 40
10.00004571127499
  0
CIRCLE
  5
2282
330
2
100
AcDbEntity
  8
0
100
AcDbCircle
 10
592.4984174506944
 20
116.580379304803
 30
0.0
 40
9.000045999985673
  0
CIRCLE
  5
2283
330
2
100
AcDbEntity
  8
0
100
AcDbCircle
 10
592.4984174507062
 20
116.5803793048142
 30
0.0
 40
14.49995060603862
  0
CIRCLE
  5
2284
330
2
100
AcDbEntity
  8
0
100
AcDbCircle
 10
592.4984174507062
 20
116.5803793048003
 30
0.0
 40
10.57739598046464
  0
CIRCLE
  5
2285
330
2
100
AcDbEntity
  8
0
100
AcDbCircle
 10
592.4984174507008
 20
116.5803793048067
 30
0.0
 40
27.99999999999875
  0
CIRCLE
  5
2286
330
2
100
AcDbEntity
  8
0
100
AcDbCircle
 10
592.4984174507008
 20
116.5803793048067
 30
0.0
 40
23.0
  0
CIRCLE
  5
2287
330
2
100
AcDbEntity
  8
0
100
AcDbCircle
 10
557.8501851725604
 20
81.93214702666598
 30
0.0
 40
2.399999999999999
  0
CIRCLE
  5
2288
330
2
100
AcDbEntity
  8
HOJO
100
AcDbCircle
 10
557.8501851725604
 20
81.93214702666598
 30
0.0
 40
3.0
  0
LINE
  5
2289
330
2
100
AcDbEntity
  8
0
100
AcDbLine
 10
591.0459333661775
 20
85.9072529271944
 30
0.0
 11
593.950901533667
 21
85.9072529271944
 31
0.0
  0
ARC
  5
228A
330
2
100
AcDbEntity
  8
0
100
AcDbCircle
 10
593.876558366167
 20
84.64287792719876
 30
0.0
 40
0.0743749999997391
100
AcDbArc
 50
270.0
 51
90.0
  0
LINE
  5
228B
330
2
100
AcDbEntity
  8
0
100
AcDbLine
 10
592.9096833661706
 20
84.56850292719906
 30
0.0
 11
593.876558366167
 21
84.56850292719906
 31
0.0
  0
LINE
  5
228C
330
2
100
AcDbEntity
  8
0
100
AcDbLine
 10
592.7609015336711
 20
84.71725292719867
 30
0.0
 11
593.876558366167
 21
84.71725292719867
 31
0.0
  0
LINE
  5
228D
330
2
100
AcDbEntity
  8
0
100
AcDbLine
 10
592.7609015336711
 20
84.71725292719867
 30
0.0
 11
592.7609015336711
 21
82.40725292720668
 31
0.0
  0
LINE
  5
228E
330
2
100
AcDbEntity
  8
0
100
AcDbLine
 10
592.9096833661706
 20
84.56850292719906
 30
0.0
 11
594.2849822291209
 21
82.40725292720668
 31
0.0
  0
LINE
  5
228F
330
2
100
AcDbEntity
  8
0
100
AcDbLine
 10
591.7109333661747
 20
84.71725184103645
 30
0.0
 11
591.3784339092571
 21
84.05225292720098
 31
0.0
  0
LINE
  5
2290
330
2
100
AcDbEntity
  8
0
100
AcDbLine
 10
591.7109333661747
 20
84.71725184103645
 30
0.0
 11
591.7109333661747
 21
84.05225292720098
 31
0.0
  0
LINE
  5
2291
330
2
100
AcDbEntity
  8
0
100
AcDbLine
 10
591.3784339092571
 20
84.05225292720098
 30
0.0
 11
591.7109333661747
 21
84.05225292720098
 31
0.0
  0
LINE
  5
2292
330
2
100
AcDbEntity
  8
0
100
AcDbLine
 10
591.7109333661747
 20
82.93225292720496
 30
0.0
 11
591.7109333661747
 21
82.40725292720668
 31
0.0
  0
LINE
  5
2293
330
2
100
AcDbEntity
  8
0
100
AcDbLine
 10
590.8184339092586
 20
82.93225292720496
 30
0.0
 11
591.7109333661747
 21
82.93225292720496
 31
0.0
  0
LINE
  5
2294
330
2
100
AcDbEntity
  8
0
100
AcDbLine
 10
590.8184339092586
 20
82.93225292720496
 30
0.0
 11
590.5559339092596
 21
82.40725292720668
 31
0.0
  0
LINE
  5
2295
330
2
100
AcDbEntity
  8
0
100
AcDbLine
 10
591.7109333661747
 20
82.40725292720668
 30
0.0
 11
592.7609015336711
 21
82.40725292720668
 31
0.0
  0
LINE
  5
2296
330
2
100
AcDbEntity
  8
0
100
AcDbLine
 10
594.2849822291209
 20
82.40725292720668
 30
0.0
 11
595.5449827721968
 21
82.40725292720668
 31
0.0
  0
LINE
  5
2297
330
2
100
AcDbEntity
  8
0
100
AcDbLine
 10
594.6756401372649
 20
83.77340232649663
 30
0.0
 11
595.5449827721968
 21
82.40725292720668
 31
0.0
  0
LINE
  5
2298
330
2
100
AcDbEntity
  8
0
100
AcDbLine
 10
589.2959333661837
 20
82.40725292720668
 30
0.0
 11
590.5559339092596
 21
82.40725292720668
 31
0.0
  0
ARC
  5
2299
330
2
100
AcDbEntity
  8
0
100
AcDbCircle
 10
593.950901533667
 20
84.71725292719867
 30
0.0
 40
1.189999999995825
100
AcDbArc
 50
307.5189678668038
 51
90.0
  0
LINE
  5
229A
330
2
100
AcDbEntity
  8
0
100
AcDbLine
 10
591.0459333661775
 20
85.9072529271944
 30
0.0
 11
589.2959333661837
 21
82.40725292720668
 31
0.0
  0
ARC
  5
229B
330
2
100
AcDbEntity
  8
0
100
AcDbCircle
 10
592.4984174506971
 20
-12.41962069519149
 30
0.0
 40
170.0
100
AcDbArc
 50
83.82300359510905
 51
96.17699640483843
  0
CIRCLE
  5
229C
330
2
100
AcDbEntity
  8
HOJO
100
AcDbCircle
 10
557.8501851725604
 20
151.2286115829475
 30
0.0
 40
3.0
  0
CIRCLE
  5
229D
330
2
100
AcDbEntity
  8
0
100
AcDbCircle
 10
557.8501851725604
 20
151.2286115829475
 30
0.0
 40
2.399999999999999
  0
ARC
  5
229E
330
2
100
AcDbEntity
  8
0
100
AcDbCircle
 10
569.9023740105076
 20
196.3611706167708
 30
0.0
 40
40.0
100
AcDbArc
 50
256.6323257973709
 51
276.1769964048909
  0
LINE
  5
229F
330
2
100
AcDbEntity
  8
0
100
AcDbLine
 10
556.4984174506971
 20
157.5803793048085
 30
0.0
 11
559.4984174506971
 21
157.5803793048085
 31
0.0
  0
ARC
  5
22A0
330
2
100
AcDbEntity
  8
0
100
AcDbCircle
 10
559.4984174506971
 20
152.5803793048085
 30
0.0
 40
5.0
100
AcDbArc
 50
76.63232579737094
 51
90.0
  0
ARC
  5
22A1
330
2
100
AcDbEntity
  8
0
100
AcDbCircle
 10
667.4984174506989
 20
156.0803793048067
 30
0.0
 40
2.0
100
AcDbArc
 50
90.0
 51
180.0
  0
ARC
  5
22A2
330
2
100
AcDbEntity
  8
0
100
AcDbCircle
 10
628.4984174507008
 20
152.5803793048067
 30
0.0
 40
5.0
100
AcDbArc
 50
0.0
 51
90.0
  0
LINE
  5
22A3
330
2
100
AcDbEntity
  8
CENTER
100
AcDbLine
 10
627.1466497288401
 20
158.2286115829475
 30
0.0
 11
627.1466497288401
 21
144.2286115829475
 31
0.0
  0
LINE
  5
22A4
330
2
100
AcDbEntity
  8
0
100
AcDbLine
 10
633.4984174507008
 20
152.5803793048067
 30
0.0
 11
633.4984174507008
 21
80.58037930480674
 31
0.0
  0
LINE
  5
22A5
330
2
100
AcDbEntity
  8
0
100
AcDbLine
 10
652.998417450709
 20
147.5803793046907
 30
0.0
 11
652.998417450708
 21
85.58037930492497
 31
0.0
  0
LINE
  5
22A6
330
2
100
AcDbEntity
  8
0
100
AcDbLine
 10
665.4984174506989
 20
156.0803793048067
 30
0.0
 11
665.4984174507017
 21
77.08037930480674
 31
0.0
  0
LINE
  5
22A7
330
2
100
AcDbEntity
  8
0
100
AcDbLine
 10
660.498417450699
 20
83.58037930492384
 30
0.0
 11
654.9984174507044
 21
83.58037930492384
 31
0.0
  0
ARC
  5
22A8
330
2
100
AcDbEntity
  8
0
100
AcDbCircle
 10
636.4984174507007
 20
111.0803793048076
 30
0.0
 40
3.0
100
AcDbArc
 50
90.0
 51
180.0
  0
ARC
  5
22A9
330
2
100
AcDbEntity
  8
0
100
AcDbCircle
 10
649.9984174507081
 20
111.0803793048072
 30
0.0
 40
3.0
100
AcDbArc
 50
0.0
 51
90.0
  0
LINE
  5
22AA
330
2
100
AcDbEntity
  8
0
100
AcDbLine
 10
647.9984174507089
 20
90.58037930492497
 30
0.0
 11
638.4984174507008
 21
90.58037930492497
 31
0.0
  0
LINE
  5
22AB
330
2
100
AcDbEntity
  8
0
100
AcDbLine
 10
636.4984174507007
 20
114.0803793048076
 30
0.0
 11
649.9984174507081
 21
114.0803793048071
 31
0.0
  0
ARC
  5
22AC
330
2
100
AcDbEntity
  8
0
100
AcDbCircle
 10
636.4984174507007
 20
81.58037930480537
 30
0.0
 40
3.0
100
AcDbArc
 50
90.0
 51
180.0
  0
CIRCLE
  5
22AD
330
2
100
AcDbEntity
  8
0
100
AcDbCircle
 10
627.146649728842
 20
81.93214702666598
 30
0.0
 40
2.399999999999999
  0
CIRCLE
  5
22AE
330
2
100
AcDbEntity
  8
HOJO
100
AcDbCircle
 10
627.146649728842
 20
81.93214702666598
 30
0.0
 40
3.0
  0
LINE
  5
22AF
330
2
100
AcDbEntity
  8
0
100
AcDbLine
 10
636.4984174507007
 20
84.58037930480537
 30
0.0
 11
651.9984174506999
 21
84.58037930480537
 31
0.0
  0
ARC
  5
22B0
330
2
100
AcDbEntity
  8
0
100
AcDbCircle
 10
651.9984174506999
 20
81.58037930480537
 30
0.0
 40
3.0
100
AcDbArc
 50
53.13010235412992
 51
90.0
  0
ARC
  5
22B1
330
2
100
AcDbEntity
  8
0
100
AcDbCircle
 10
654.9984174507044
 20
85.58037930492497
 30
0.0
 40
2.0
100
AcDbArc
 50
180.0
 51
270.0
  0
ARC
  5
22B2
330
2
100
AcDbEntity
  8
0
100
AcDbCircle
 10
638.4984174507008
 20
85.58037930492497
 30
0.0
 40
5.0
100
AcDbArc
 50
90.0
 51
180.0
  0
ARC
  5
22B3
330
2
100
AcDbEntity
  8
0
100
AcDbCircle
 10
647.9984174507089
 20
85.58037930492497
 30
0.0
 40
5.0
100
AcDbArc
 50
0.0
 51
90.0
  0
ARC
  5
22B4
330
2
100
AcDbEntity
  8
0
100
AcDbCircle
 10
660.498417450699
 20
78.58037930492383
 30
0.0
 40
5.0
100
AcDbArc
 50
0.0
 51
90.0
  0
LINE
  5
22B5
330
2
100
AcDbEntity
  8
0
100
AcDbLine
 10
660.498417450699
 20
149.5803793046894
 30
0.0
 11
654.9984174507044
 21
149.5803793046896
 31
0.0
  0
CIRCLE
  5
22B6
330
2
100
AcDbEntity
  8
HOJO
100
AcDbCircle
 10
627.146649728842
 20
151.2286115829475
 30
0.0
 40
3.0
  0
ARC
  5
22B7
330
2
100
AcDbEntity
  8
0
100
AcDbCircle
 10
638.4984174507008
 20
147.5803793046905
 30
0.0
 40
5.0
100
AcDbArc
 50
180.0
 51
270.0
  0
LINE
  5
22B8
330
2
100
AcDbEntity
  8
0
100
AcDbLine
 10
636.4984174507007
 20
148.5803793048151
 30
0.0
 11
651.9984174506999
 21
148.5803793048151
 31
0.0
  0
LINE
  5
22B9
330
2
100
AcDbEntity
  8
0
100
AcDbLine
 10
647.9984174507108
 20
142.5803793046898
 30
0.0
 11
638.4984174507008
 21
142.5803793046905
 31
0.0
  0
ARC
  5
22BA
330
2
100
AcDbEntity
  8
0
100
AcDbCircle
 10
647.9984174507108
 20
147.5803793046898
 30
0.0
 40
5.0
100
AcDbArc
 50
270.0
 51
0.0
  0
ARC
  5
22BB
330
2
100
AcDbEntity
  8
0
100
AcDbCircle
 10
636.4984174507007
 20
151.5803793048153
 30
0.0
 40
3.0
100
AcDbArc
 50
180.0
 51
270.0
  0
CIRCLE
  5
22BC
330
2
100
AcDbEntity
  8
0
100
AcDbCircle
 10
627.146649728842
 20
151.2286115829475
 30
0.0
 40
2.399999999999999
  0
ARC
  5
22BD
330
2
100
AcDbEntity
  8
0
100
AcDbCircle
 10
651.9984174506999
 20
151.5803793048153
 30
0.0
 40
3.0
100
AcDbArc
 50
270.0
 51
306.86989764587
  0
ARC
  5
22BE
330
2
100
AcDbEntity
  8
0
100
AcDbCircle
 10
654.9984174507044
 20
147.5803793046905
 30
0.0
 40
2.0
100
AcDbArc
 50
90.0
 51
180.0
  0
LINE
  5
22BF
330
2
100
AcDbEntity
  8
0
100
AcDbLine
 10
625.4984174506971
 20
157.5803793048085
 30
0.0
 11
628.4984174506972
 21
157.5803793048085
 31
0.0
  0
ARC
  5
22C0
330
2
100
AcDbEntity
  8
0
100
AcDbCircle
 10
625.4984174506971
 20
152.5803793048081
 30
0.0
 40
5.0
100
AcDbArc
 50
90.0
 51
103.367674202629
  0
ARC
  5
22C1
330
2
100
AcDbEntity
  8
0
100
AcDbCircle
 10
636.4984174507007
 20
122.0803793048071
 30
0.0
 40
3.0
100
AcDbArc
 50
180.0
 51
270.0
  0
LINE
  5
22C2
330
2
100
AcDbEntity
  8
0
100
AcDbLine
 10
636.4984174507007
 20
119.0803793048071
 30
0.0
 11
649.998417450709
 21
119.0803793048071
 31
0.0
  0
ARC
  5
22C3
330
2
100
AcDbEntity
  8
0
100
AcDbCircle
 10
649.998417450709
 20
122.0803793048071
 30
0.0
 40
3.0
100
AcDbArc
 50
270.0
 51
0.0
  0
ARC
  5
22C4
330
2
100
AcDbEntity
  8
0
100
AcDbCircle
 10
660.498417450699
 20
154.5803793046894
 30
0.0
 40
5.0
100
AcDbArc
 50
270.0
 51
0.0
  0
LINE
  5
22C5
330
2
100
AcDbEntity
  8
0
100
AcDbLine
 10
667.4984174506989
 20
158.0803793048067
 30
0.0
 11
677.498417450699
 21
158.0803793048067
 31
0.0
  0
LINE
  5
22C6
330
2
100
AcDbEntity
  8
0
100
AcDbLine
 10
667.4984174506989
 20
157.5803793048067
 30
0.0
 11
677.498417450699
 21
157.5803793048067
 31
0.0
  0
ARC
  5
22C7
330
2
100
AcDbEntity
  8
0
100
AcDbCircle
 10
667.4984174506989
 20
155.5803793048067
 30
0.0
 40
2.0
100
AcDbArc
 50
90.0
 51
180.0
  0
LINE
  5
22C8
330
2
100
AcDbEntity
  8
0
100
AcDbLine
 10
894.9804856188693
 20
106.5803335935154
 30
0.0
 11
894.9804856188693
 21
126.5803335935177
 31
0.0
  0
LINE
  5
22C9
330
2
100
AcDbEntity
  8
0
100
AcDbLine
 10
864.9804856188703
 20
108.0803333048018
 30
0.0
 11
864.9804856188703
 21
125.0803333048017
 31
0.0
  0
LINE
  5
22CA
330
2
100
AcDbEntity
  8
0
100
AcDbLine
 10
865.4804856188702
 20
107.5803333048017
 30
0.0
 11
865.4804856188702
 21
125.5803333048018
 31
0.0
  0
LINE
  5
22CB
330
2
100
AcDbEntity
  8
0
100
AcDbLine
 10
895.9804856188693
 20
102.8690544393969
 30
0.0
 11
895.9804856188693
 21
130.2917041702073
 31
0.0
  0
LINE
  5
22CD
330
2
100
AcDbEntity
  8
0
100
AcDbLine
 10
894.9804856188693
 20
107.5803333048017
 30
0.0
 11
865.4804856188702
 21
107.5803333048017
 31
0.0
  0
LINE
  5
22CE
330
2
100
AcDbEntity
  8
0
100
AcDbLine
 10
865.4804856188702
 20
107.5803333048017
 30
0.0
 11
864.9804856188703
 21
108.0803333048018
 31
0.0
  0
ARC
  5
22D0
330
2
100
AcDbEntity
  8
0
100
AcDbCircle
 10
897.3823238547202
 20
104.080428698732
 30
0.0
 40
2.0
100
AcDbArc
 50
239.9999999999994
 51
258.4092883145486
  0
LINE
  5
22D1
330
2
100
AcDbEntity
  8
0
100
AcDbLine
 10
896.2304856188692
 20
102.4360417375048
 30
0.0
 11
896.3823238547202
 21
102.3483778911629
 31
0.0
  0
LINE
  5
22D2
330
2
100
AcDbEntity
  8
0
100
AcDbLine
 10
894.9804856188693
 20
106.5803335935154
 30
0.0
 11
895.9804856188693
 21
106.0029833243258
 31
0.0
  0
ARC
  5
22D3
330
2
100
AcDbEntity
  8
0
100
AcDbCircle
 10
896.4804856188694
 20
102.8690544393969
 30
0.0
 40
0.5
100
AcDbArc
 50
180.0
 51
239.9999999999994
  0
LINE
  5
22D5
330
2
100
AcDbEntity
  8
0
100
AcDbLine
 10
865.4804856188702
 20
125.5803333048018
 30
0.0
 11
894.9804856188693
 21
125.5803333048018
 31
0.0
  0
LINE
  5
22D6
330
2
100
AcDbEntity
  8
0
100
AcDbLine
 10
864.9804856188703
 20
125.0803333048017
 30
0.0
 11
865.4804856188702
 21
125.5803333048018
 31
0.0
  0
ARC
  5
22D8
330
2
100
AcDbEntity
  8
0
100
AcDbCircle
 10
897.3823238547202
 20
129.0803299108722
 30
0.0
 40
2.0
100
AcDbArc
 50
101.5907116854514
 51
120.0000000000005
  0
LINE
  5
22D9
330
2
100
AcDbEntity
  8
0
100
AcDbLine
 10
896.2304856188692
 20
130.7247168720994
 30
0.0
 11
896.3823238547202
 21
130.8123807184413
 31
0.0
  0
ARC
  5
22DA
330
2
100
AcDbEntity
  8
0
100
AcDbCircle
 10
896.4804856188694
 20
130.2917041702073
 30
0.0
 40
0.5
100
AcDbArc
 50
120.0000000000005
 51
180.0
  0
LINE
  5
22DC
330
2
100
AcDbEntity
  8
0
100
AcDbLine
 10
894.9804856188693
 20
126.5804250160888
 30
0.0
 11
895.9804856188693
 21
127.1577752852788
 31
0.0
  0
LINE
  5
2304
330
2
100
AcDbEntity
  8
0
100
AcDbLine
 10
600.998463450699
 20
318.4776468309416
 30
0.0
 11
583.9984634506989
 21
318.4776468309416
 31
0.0
  0
LINE
  5
2305
330
2
100
AcDbEntity
  8
0
100
AcDbLine
 10
601.498463450699
 20
318.9776468309417
 30
0.0
 11
583.4984634506989
 21
318.9776468309417
 31
0.0
  0
LINE
  5
2306
330
2
100
AcDbEntity
  8
0
100
AcDbLine
 10
583.9984634506989
 20
318.4776468309416
 30
0.0
 11
583.4984634506989
 21
318.9776468309417
 31
0.0
  0
LINE
  5
2307
330
2
100
AcDbEntity
  8
0
100
AcDbLine
 10
601.498463450699
 20
318.9776468309417
 30
0.0
 11
600.998463450699
 21
318.4776468309416
 31
0.0
  0
LINE
  5
2308
330
2
100
AcDbEntity
  8
CENTER
100
AcDbLine
 10
592.4984174506991
 20
464.4776468282847
 30
0.0
 11
592.4984174506995
 21
308.4776468309417
 31
0.0
  0
LINE
  5
230A
330
2
100
AcDbEntity
  8
0
100
AcDbLine
 10
620.9984174506988
 20
446.4776468282797
 30
0.0
 11
621.4984174506988
 21
445.9776468282792
 31
0.0
  0
ARC
  5
230B
330
2
100
AcDbEntity
  8
0
100
AcDbCircle
 10
622.8837650037065
 20
361.47764683095
 30
0.0
 40
2.0
100
AcDbArc
 50
90.0
 51
177.9999999999965
  0
LINE
  5
230C
330
2
100
AcDbEntity
  8
0
100
AcDbLine
 10
551.4984174506988
 20
434.9776468282835
 30
0.0
 11
633.0833360576388
 21
434.977646828286
 31
0.0
  0
LINE
  5
230D
330
2
100
AcDbEntity
  8
0
100
AcDbLine
 10
621.998417450717
 20
445.9776468282846
 30
0.0
 11
562.9984174506806
 21
445.9776468282846
 31
0.0
  0
LINE
  5
230E
330
2
100
AcDbEntity
  8
0
100
AcDbLine
 10
552.5551801697255
 20
442.4776468282824
 30
0.0
 11
632.0316547316742
 21
442.4776468282827
 31
0.0
  0
LINE
  5
230F
330
2
100
AcDbEntity
  8
0
100
AcDbLine
 10
557.4984174506989
 20
363.477646830951
 30
0.0
 11
627.4984174506989
 21
363.477646830951
 31
0.0
  0
LINE
  5
2310
330
2
100
AcDbEntity
  8
0
100
AcDbLine
 10
552.0787541587614
 20
368.4776468309503
 30
0.0
 11
632.9131621356954
 21
368.4776468309489
 31
0.0
  0
LINE
  5
2311
330
2
100
AcDbEntity
  8
0
100
AcDbLine
 10
610.7904526166393
 20
434.4776468309502
 30
0.0
 11
610.7904526166393
 21
369.9776277924822
 31
0.0
  0
LINE
  5
2312
330
2
100
AcDbEntity
  8
0
100
AcDbLine
 10
551.4984174506988
 20
434.9776468282835
 30
0.0
 11
552.0787541587614
 21
368.4776468309503
 31
0.0
  0
LINE
  5
2313
330
2
100
AcDbEntity
  8
0
100
AcDbLine
 10
574.2063822847584
 20
434.4776468309502
 30
0.0
 11
574.2063822847584
 21
369.9776277924822
 31
0.0
  0
LINE
  5
2314
330
2
100
AcDbEntity
  8
0
100
AcDbLine
 10
559.4984174506997
 20
434.4776468309502
 30
0.0
 11
559.4984174506997
 21
369.9776277924822
 31
0.0
  0
LINE
  5
2315
330
2
100
AcDbEntity
  8
0
100
AcDbLine
 10
556.4984174506979
 20
434.4776468309502
 30
0.0
 11
556.4984174506979
 21
369.9776277924822
 31
0.0
  0
LINE
  5
2316
330
2
100
AcDbEntity
  8
0
100
AcDbLine
 10
601.498463450699
 20
348.4776468309412
 30
0.0
 11
601.498463450699
 21
318.9776468309417
 31
0.0
  0
LINE
  5
2317
330
2
100
AcDbEntity
  8
0
100
AcDbLine
 10
583.4984634506989
 20
318.9776468309417
 30
0.0
 11
583.4984634506989
 21
348.4776468309412
 31
0.0
  0
LINE
  5
2318
330
2
100
AcDbEntity
  8
0
100
AcDbLine
 10
602.4984631619853
 20
348.4776468309412
 30
0.0
 11
582.4984631619835
 21
348.4776468309412
 31
0.0
  0
LINE
  5
2319
330
2
100
AcDbEntity
  8
0
100
AcDbLine
 10
606.2097423161039
 20
349.4776468309412
 30
0.0
 11
578.7870925852939
 21
349.4776468309412
 31
0.0
  0
LINE
  5
231A
330
2
100
AcDbEntity
  8
0
100
AcDbLine
 10
566.4297950003136
 20
350.4776468309523
 30
0.0
 11
618.567039901084
 21
350.4776468309501
 31
0.0
  0
LINE
  5
231B
330
2
100
AcDbEntity
  8
0
100
AcDbLine
 10
564.1118515517308
 20
361.5474458243552
 30
0.0
 11
564.4310133462749
 21
352.4078478375456
 31
0.0
  0
ARC
  5
231C
330
2
100
AcDbEntity
  8
0
100
AcDbCircle
 10
562.1130698976929
 20
361.47764683095
 30
0.0
 40
2.0
100
AcDbArc
 50
2.000000000003498
 51
90.0
  0
LINE
  5
231D
330
2
100
AcDbEntity
  8
0
100
AcDbLine
 10
557.4984174506989
 20
368.4776468309503
 30
0.0
 11
557.4984174506989
 21
363.4776468309503
 31
0.0
  0
LINE
  5
231E
330
2
100
AcDbEntity
  8
0
100
AcDbLine
 10
582.4983717394124
 20
348.4776468309412
 30
0.0
 11
581.9210214702223
 21
349.4776468309412
 31
0.0
  0
ARC
  5
231F
330
2
100
AcDbEntity
  8
0
100
AcDbCircle
 10
578.7870925852939
 20
349.9776468309412
 30
0.0
 40
0.5
100
AcDbArc
 50
209.9999999999916
 51
270.0
  0
LINE
  5
2320
330
2
100
AcDbEntity
  8
0
100
AcDbLine
 10
578.3540798834017
 20
349.7276468309412
 30
0.0
 11
578.2664160370594
 21
349.879485066792
 31
0.0
  0
ARC
  5
2321
330
2
100
AcDbEntity
  8
0
100
AcDbCircle
 10
579.9984668446294
 20
350.879485066792
 30
0.0
 40
2.0
100
AcDbArc
 50
191.5907116854492
 51
209.9999999999916
  0
ARC
  5
2322
330
2
100
AcDbEntity
  8
0
100
AcDbCircle
 10
566.4297950003136
 20
352.4776468309503
 30
0.0
 40
2.0
100
AcDbArc
 50
182.0000000000034
 51
270.0
  0
LINE
  5
2323
330
2
100
AcDbEntity
  8
0
100
AcDbLine
 10
620.8849833496677
 20
361.5474458243552
 30
0.0
 11
620.5658215551228
 21
352.4078478375451
 31
0.0
  0
ARC
  5
2324
330
2
100
AcDbEntity
  8
0
100
AcDbCircle
 10
606.2097423161039
 20
349.9776468309412
 30
0.0
 40
0.5
100
AcDbArc
 50
270.0
 51
330.0000000000083
  0
LINE
  5
2325
330
2
100
AcDbEntity
  8
0
100
AcDbLine
 10
602.4984631619853
 20
348.4776468309412
 30
0.0
 11
603.0758134311753
 21
349.4776468309412
 31
0.0
  0
LINE
  5
2326
330
2
100
AcDbEntity
  8
0
100
AcDbLine
 10
606.6427550179968
 20
349.7276468309412
 30
0.0
 11
606.7304188643382
 21
349.879485066792
 31
0.0
  0
ARC
  5
2327
330
2
100
AcDbEntity
  8
0
100
AcDbCircle
 10
604.9983680567692
 20
350.879485066792
 30
0.0
 40
2.0
100
AcDbArc
 50
330.0000000000083
 51
348.4092883145507
  0
ARC
  5
2328
330
2
100
AcDbEntity
  8
0
100
AcDbCircle
 10
618.567039901084
 20
352.4776468309501
 30
0.0
 40
2.0
100
AcDbArc
 50
270.0
 51
357.9999999999965
  0
ARC
  5
2329
330
2
100
AcDbEntity
  8
0
100
AcDbCircle
 10
552.5551801697255
 20
441.4776468282824
 30
0.0
 40
1.0
100
AcDbArc
 50
90.0
 51
179.5000000000084
  0
LINE
  5
232A
330
2
100
AcDbEntity
  8
0
100
AcDbLine
 10
551.4984174506988
 20
434.9776468282847
 30
0.0
 11
551.5552182466607
 21
441.4863733637808
 31
0.0
  0
LINE
  5
232B
330
2
100
AcDbEntity
  8
0
100
AcDbLine
 10
618.421067181507
 20
454.4776468282846
 30
0.0
 11
566.5757677198906
 21
454.4776468282846
 31
0.0
  0
LINE
  5
232C
330
2
100
AcDbEntity
  8
0
100
AcDbLine
 10
618.7984174507
 20
449.9776468282801
 30
0.0
 11
566.1984174506978
 21
449.9776468282801
 31
0.0
  0
LINE
  5
232D
330
2
100
AcDbEntity
  8
0
100
AcDbLine
 10
618.7984174507
 20
451.9776468282802
 30
0.0
 11
566.1984174506978
 21
451.9776468282006
 31
0.0
  0
LINE
  5
232E
330
2
100
AcDbEntity
  8
0
100
AcDbLine
 10
563.9984174507043
 20
446.4776468282842
 30
0.0
 11
620.9984174506934
 21
446.4776468282847
 31
0.0
  0
LINE
  5
232F
330
2
100
AcDbEntity
  8
0
100
AcDbLine
 10
618.9984174506989
 20
453.4776468282801
 30
0.0
 11
565.998417450698
 21
453.4776468282797
 31
0.0
  0
LINE
  5
2330
330
2
100
AcDbEntity
  8
0
100
AcDbLine
 10
565.9984174506988
 20
449.7776468282799
 30
0.0
 11
618.9984174506989
 21
449.7776468282799
 31
0.0
  0
LINE
  5
2331
330
2
100
AcDbEntity
  8
0
100
AcDbLine
 10
566.6984174506978
 20
451.7776468282798
 30
0.0
 11
566.6984174506978
 21
450.1776468282799
 31
0.0
  0
LINE
  5
2332
330
2
100
AcDbEntity
  8
0
100
AcDbLine
 10
565.998417450698
 20
453.4776468282801
 30
0.0
 11
565.9984174506988
 21
452.1776468282804
 31
0.0
  0
LINE
  5
2333
330
2
100
AcDbEntity
  8
0
100
AcDbLine
 10
566.1984174506978
 20
449.9776468282801
 30
0.0
 11
565.9984174506988
 21
449.7776468282799
 31
0.0
  0
LINE
  5
2334
330
2
100
AcDbEntity
  8
0
100
AcDbLine
 10
563.9984174507043
 20
446.4776468282842
 30
0.0
 11
563.4984174506988
 21
445.9776468282792
 31
0.0
  0
LINE
  5
2335
330
2
100
AcDbEntity
  8
0
100
AcDbLine
 10
565.9984174506988
 20
449.7776468282799
 30
0.0
 11
565.9984174506988
 21
446.4776468282797
 31
0.0
  0
LINE
  5
2336
330
2
100
AcDbEntity
  8
HIDS
100
AcDbLine
 10
556.0842038883255
 20
443.06343326591
 30
0.0
 11
558.4126310130722
 21
445.3918603906571
 31
0.0
  0
ARC
  5
2337
330
2
100
AcDbEntity
  8
HIDS
100
AcDbCircle
 10
554.6699903259521
 20
444.4776468282824
 30
0.0
 40
2.0
100
AcDbArc
 50
270.0
 51
315.0000000000138
  0
ARC
  5
2338
330
2
100
AcDbEntity
  8
HIDS
100
AcDbCircle
 10
559.8268445754455
 20
443.9776468282847
 30
0.0
 40
2.0
100
AcDbArc
 50
90.0
 51
135.0000000000138
  0
ARC
  5
2339
330
2
100
AcDbEntity
  8
0
100
AcDbCircle
 10
566.1984174506978
 20
452.17764682828
 30
0.0
 40
0.2
100
AcDbArc
 50
180.0
 51
270.0000000001042
  0
LINE
  5
233A
330
2
100
AcDbEntity
  8
0
100
AcDbLine
 10
562.9984174506806
 20
443.9776468282819
 30
0.0
 11
562.9984174506806
 21
449.5776468282818
 31
0.0
  0
LINE
  5
233B
330
2
100
AcDbEntity
  8
0
100
AcDbLine
 10
552.9984174506807
 20
443.9776468282819
 30
0.0
 11
552.9984174506807
 21
449.5776468282818
 31
0.0
  0
LINE
  5
233C
330
2
100
AcDbEntity
  8
0
100
AcDbLine
 10
552.9984174506807
 20
443.9776468282819
 30
0.0
 11
562.9984174506806
 21
443.9776468282819
 31
0.0
  0
LINE
  5
233D
330
2
100
AcDbEntity
  8
0
100
AcDbLine
 10
553.6912377737079
 20
449.977646828282
 30
0.0
 11
562.3055971276524
 21
449.9776468282824
 31
0.0
  0
LINE
  5
233E
330
2
100
AcDbEntity
  8
0
100
AcDbLine
 10
552.9984174506807
 20
449.5776468282823
 30
0.0
 11
562.9984174506806
 21
449.5776468282818
 31
0.0
  0
LINE
  5
233F
330
2
100
AcDbEntity
  8
0
100
AcDbLine
 10
552.9984174506807
 20
449.5776468282818
 30
0.0
 11
553.6912377737079
 21
449.977646828282
 31
0.0
  0
LINE
  5
2340
330
2
100
AcDbEntity
  8
0
100
AcDbLine
 10
562.9984174506806
 20
449.5776468282818
 30
0.0
 11
562.3055971276524
 21
449.977646828282
 31
0.0
  0
LINE
  5
2341
330
2
100
AcDbEntity
  8
0
100
AcDbLine
 10
552.9984174506807
 20
443.9776468282824
 30
0.0
 11
552.9984174506807
 21
442.4776468282824
 31
0.0
  0
LINE
  5
2342
330
2
100
AcDbEntity
  8
0
100
AcDbLine
 10
562.9984174506806
 20
443.9776468282824
 30
0.0
 11
562.9984174506806
 21
442.4776468282824
 31
0.0
  0
LINE
  5
2343
330
2
100
AcDbEntity
  8
HIDS
100
AcDbLine
 10
562.9984174506806
 20
445.9776468282846
 30
0.0
 11
559.8268445754455
 21
445.9776468282846
 31
0.0
  0
LINE
  5
2344
330
2
100
AcDbEntity
  8
0
100
AcDbLine
 10
565.998417450698
 20
453.4776468282797
 30
0.0
 11
566.575767719887
 21
454.4776468282801
 31
0.0
  0
ARC
  5
2345
330
2
100
AcDbEntity
  8
0
100
AcDbCircle
 10
566.4984174506988
 20
451.7776468282794
 30
0.0
 40
0.2
100
AcDbArc
 50
0.0
 51
89.99999999984366
  0
ARC
  5
2346
330
2
100
AcDbEntity
  8
0
100
AcDbCircle
 10
566.4984174506988
 20
450.1776468282799
 30
0.0
 40
0.2
100
AcDbArc
 50
270.0
 51
0.0
  0
LINE
  5
2347
330
2
100
AcDbEntity
  8
0
100
AcDbLine
 10
556.4984174506788
 20
434.9776468282847
 30
0.0
 11
556.4984174506788
 21
442.4776468282824
 31
0.0
  0
LINE
  5
2348
330
2
100
AcDbEntity
  8
0
100
AcDbLine
 10
559.4984174506788
 20
434.9776468282847
 30
0.0
 11
559.4984174506788
 21
442.4776468282824
 31
0.0
  0
LINE
  5
2349
330
2
100
AcDbEntity
  8
0
100
AcDbLine
 10
574.2063822848138
 20
434.9776468282847
 30
0.0
 11
574.2063822848138
 21
442.4776468282824
 31
0.0
  0
LINE
  5
234A
330
2
100
AcDbEntity
  8
CENTER
100
AcDbLine
 10
557.9984174506806
 20
454.9776468282824
 30
0.0
 11
557.9984174506806
 21
429.914900084136
 31
0.0
  0
LINE
  5
234B
330
2
100
AcDbEntity
  8
0
100
AcDbLine
 10
618.9984174506989
 20
453.4776468282797
 30
0.0
 11
618.4210671815106
 21
454.4776468282801
 31
0.0
  0
LINE
  5
234C
330
2
100
AcDbEntity
  8
0
100
AcDbLine
 10
618.2984174506999
 20
451.7776468282798
 30
0.0
 11
618.2984174506999
 21
450.1776468282799
 31
0.0
  0
LINE
  5
234D
330
2
100
AcDbEntity
  8
0
100
AcDbLine
 10
618.7984174507
 20
449.9776468282801
 30
0.0
 11
618.9984174506989
 21
449.7776468282799
 31
0.0
  0
LINE
  5
234E
330
2
100
AcDbEntity
  8
0
100
AcDbLine
 10
618.9984174506989
 20
453.4776468282801
 30
0.0
 11
618.9984174506989
 21
452.1776468282804
 31
0.0
  0
LINE
  5
234F
330
2
100
AcDbEntity
  8
0
100
AcDbLine
 10
620.9984174506988
 20
446.4776468282797
 30
0.0
 11
618.9984174506989
 21
446.4776468282797
 31
0.0
  0
LINE
  5
2350
330
2
100
AcDbEntity
  8
0
100
AcDbLine
 10
618.9984174506989
 20
449.7776468282799
 30
0.0
 11
618.9984174506989
 21
446.4776468282797
 31
0.0
  0
ARC
  5
2351
330
2
100
AcDbEntity
  8
0
100
AcDbCircle
 10
618.7984174507
 20
452.1776468282804
 30
0.0
 40
0.2
100
AcDbArc
 50
270.0000000001042
 51
359.9999999999739
  0
ARC
  5
2352
330
2
100
AcDbEntity
  8
0
100
AcDbCircle
 10
618.4984174506988
 20
451.7776468282798
 30
0.0
 40
0.2
100
AcDbArc
 50
90.00000000010421
 51
179.9999999999739
  0
ARC
  5
2353
330
2
100
AcDbEntity
  8
0
100
AcDbCircle
 10
618.4984174506988
 20
450.1776468282799
 30
0.0
 40
0.2
100
AcDbArc
 50
179.9999999999739
 51
270.0
  0
LINE
  5
2354
330
2
100
AcDbEntity
  8
0
100
AcDbLine
 10
610.7904526165838
 20
434.9776468282847
 30
0.0
 11
610.7904526165838
 21
442.4776468282824
 31
0.0
  0
ARC
  5
2355
330
2
100
AcDbEntity
  8
0
100
AcDbCircle
 10
660.418145723538
 20
373.4776468309503
 30
0.0
 40
5.0
100
AcDbArc
 50
1.4999999999898
 51
90.0
  0
ARC
  5
2356
330
2
100
AcDbEntity
  8
0
100
AcDbCircle
 10
635.983091313179
 20
376.4776468309503
 30
0.0
 40
3.0
100
AcDbArc
 50
90.0
 51
179.5000000000084
  0
LINE
  5
2358
330
2
100
AcDbEntity
  8
0
100
AcDbLine
 10
665.4474165425908
 20
372.4252929343349
 30
0.0
 11
664.4247946663953
 21
411.4776468309503
 31
0.0
  0
LINE
  5
2359
330
2
100
AcDbEntity
  8
0
100
AcDbLine
 10
632.9131621356954
 20
368.4776468309489
 30
0.0
 11
633.2884174506988
 21
411.4776468309503
 31
0.0
  0
LINE
  5
235A
330
2
100
AcDbEntity
  8
0
100
AcDbLine
 10
625.4984174506979
 20
411.4776468309503
 30
0.0
 11
625.4984174506979
 21
369.9776277924822
 31
0.0
  0
LINE
  5
235B
330
2
100
AcDbEntity
  8
0
100
AcDbLine
 10
628.2889727898727
 20
434.9776468309502
 30
0.0
 11
628.2889727898727
 21
369.9776277924822
 31
0.0
  0
LINE
  5
235C
330
2
100
AcDbEntity
  8
0
100
AcDbLine
 10
627.4984174506989
 20
368.4776468309503
 30
0.0
 11
627.4984174506989
 21
363.4776468309503
 31
0.0
  0
ARC
  5
235D
330
2
100
AcDbEntity
  8
0
100
AcDbCircle
 10
667.4467311925408
 20
372.4776468309503
 30
0.0
 40
2.0
100
AcDbArc
 50
181.4999999999898
 51
270.0
  0
LINE
  5
235E
330
2
100
AcDbEntity
  8
0
100
AcDbLine
 10
667.4467311925408
 20
370.4776468309503
 30
0.0
 11
677.4984174463297
 21
370.4776468309503
 31
0.0
  0
LINE
  5
235F
330
2
100
AcDbEntity
  8
0
100
AcDbLine
 10
625.5115104115528
 20
434.9776468282856
 30
0.0
 11
626.101379114304
 21
412.4514698826426
 31
0.0
  0
LINE
  5
2360
330
2
100
AcDbEntity
  8
0
100
AcDbLine
 10
633.0833360576388
 20
434.9776468282859
 30
0.0
 11
633.2884174506988
 21
411.4776468309503
 31
0.0
  0
LINE
  5
2361
330
2
100
AcDbEntity
  8
0
100
AcDbLine
 10
665.4474165425908
 20
450.5300007275656
 30
0.0
 11
664.4247946663962
 21
411.4776468309503
 31
0.0
  0
LINE
  5
2362
330
2
100
AcDbEntity
  8
0
100
AcDbLine
 10
652.9474165425898
 20
442.5300007275658
 30
0.0
 11
652.1342820389216
 21
411.4776468309503
 31
0.0
  0
LINE
  5
2363
330
2
100
AcDbEntity
  8
0
100
AcDbLine
 10
654.9467311925408
 20
378.4776468309503
 30
0.0
 11
660.418145723538
 21
378.4776468309503
 31
0.0
  0
ARC
  5
2364
330
2
100
AcDbEntity
  8
0
100
AcDbCircle
 10
649.2772762300782
 20
416.9776468309501
 30
0.0
 40
3.0
100
AcDbArc
 50
270.0
 51
358.5000000000102
  0
ARC
  5
2365
330
2
100
AcDbEntity
  8
0
100
AcDbCircle
 10
649.2772762301773
 20
405.9776468309503
 30
0.0
 40
3.0
100
AcDbArc
 50
1.499999999781089
 51
90.0
  0
LINE
  5
2366
330
2
100
AcDbEntity
  8
0
100
AcDbLine
 10
636.2405339130072
 20
413.97764683095
 30
0.0
 11
649.2772762300782
 21
413.9776468309503
 31
0.0
  0
LINE
  5
2367
330
2
100
AcDbEntity
  8
0
100
AcDbLine
 10
636.2405339130072
 20
408.9776468309503
 30
0.0
 11
649.2772762301773
 21
408.9776468309503
 31
0.0
  0
ARC
  5
2368
330
2
100
AcDbEntity
  8
0
100
AcDbCircle
 10
627.1010364392794
 20
412.4776468309503
 30
0.0
 40
1.0
100
AcDbArc
 50
181.4999999999898
 51
270.0
  0
LINE
  5
2369
330
2
100
AcDbEntity
  8
0
100
AcDbLine
 10
627.1010364392794
 20
411.4776468309503
 30
0.0
 11
633.2884174506988
 21
411.4776468309503
 31
0.0
  0
ARC
  5
236A
330
2
100
AcDbEntity
  8
0
100
AcDbCircle
 10
636.2405339130072
 20
405.9776468309503
 30
0.0
 40
3.0
100
AcDbArc
 50
90.0
 51
179.5000000000084
  0
ARC
  5
236B
330
2
100
AcDbEntity
  8
0
100
AcDbCircle
 10
636.2405339130072
 20
416.97764683095
 30
0.0
 40
3.0
100
AcDbArc
 50
180.4999999999915
 51
270.0
  0
ARC
  5
236C
330
2
100
AcDbEntity
  8
0
100
AcDbCircle
 10
654.9467311925408
 20
380.4776468309503
 30
0.0
 40
2.0
100
AcDbArc
 50
181.5000000000418
 51
270.0
  0
ARC
  5
236D
330
2
100
AcDbEntity
  8
0
100
AcDbCircle
 10
647.944331645105
 20
380.4776468309503
 30
0.0
 40
5.0
100
AcDbArc
 50
1.500000000015846
 51
90.0
  0
ARC
  5
236E
330
2
100
AcDbEntity
  8
0
100
AcDbCircle
 10
651.9467311925408
 20
376.4776468309503
 30
0.0
 40
3.0
100
AcDbArc
 50
53.13010235412992
 51
90.0
  0
LINE
  5
236F
330
2
100
AcDbEntity
  8
0
100
AcDbLine
 10
636.0354525199235
 20
385.4776468309503
 30
0.0
 11
647.944331645105
 21
385.4776468309503
 31
0.0
  0
LINE
  5
2370
330
2
100
AcDbEntity
  8
0
100
AcDbLine
 10
635.983091313179
 20
379.4776468309503
 30
0.0
 11
651.9467311925408
 21
379.4776468309503
 31
0.0
  0
ARC
  5
2371
330
2
100
AcDbEntity
  8
0
100
AcDbCircle
 10
636.0354525199235
 20
382.4776468309503
 30
0.0
 40
3.0
100
AcDbArc
 50
90.0
 51
179.5000000000084
  0
LINE
  5
2372
330
2
100
AcDbEntity
  8
0
100
AcDbLine
 10
652.9474165425898
 20
380.4252929343345
 30
0.0
 11
652.1342820390426
 21
411.4776468309503
 31
0.0
  0
LINE
  5
2373
330
2
100
AcDbEntity
  8
0
100
AcDbLine
 10
664.4247946663962
 20
411.4776468309503
 30
0.0
 11
677.4984174463297
 21
411.4776468309503
 31
0.0
  0
LINE
  5
2374
330
2
100
AcDbEntity
  8
0
100
AcDbLine
 10
654.9467311925408
 20
444.4776468309502
 30
0.0
 11
660.418145723537
 21
444.4776468309502
 31
0.0
  0
ARC
  5
2375
330
2
100
AcDbEntity
  8
0
100
AcDbCircle
 10
654.9467311925408
 20
442.4776468309501
 30
0.0
 40
2.0
100
AcDbArc
 50
90.0
 51
178.4999999999841
  0
LINE
  5
2376
330
2
100
AcDbEntity
  8
HIDS
100
AcDbLine
 10
628.9126310130712
 20
443.06343326591
 30
0.0
 11
626.5842038883255
 21
445.3918603906576
 31
0.0
  0
ARC
  5
2377
330
2
100
AcDbEntity
  8
HIDS
100
AcDbCircle
 10
630.3268445754455
 20
444.4776468282824
 30
0.0
 40
2.0
100
AcDbArc
 50
224.9999999999861
 51
270.0
  0
ARC
  5
2378
330
2
100
AcDbEntity
  8
HIDS
100
AcDbCircle
 10
625.1699903259521
 20
443.9776468282851
 30
0.0
 40
2.0
100
AcDbArc
 50
44.99999999998617
 51
90.0
  0
LINE
  5
2379
330
2
100
AcDbEntity
  8
0
100
AcDbLine
 10
621.998417450717
 20
443.9776468282819
 30
0.0
 11
621.998417450717
 21
449.5776468282818
 31
0.0
  0
LINE
  5
237A
330
2
100
AcDbEntity
  8
0
100
AcDbLine
 10
631.998417450717
 20
443.9776468282819
 30
0.0
 11
631.998417450717
 21
449.5776468282818
 31
0.0
  0
LINE
  5
237B
330
2
100
AcDbEntity
  8
0
100
AcDbLine
 10
631.998417450717
 20
443.9776468282819
 30
0.0
 11
621.998417450717
 21
443.9776468282819
 31
0.0
  0
LINE
  5
237C
330
2
100
AcDbEntity
  8
0
100
AcDbLine
 10
631.3055971276898
 20
449.977646828282
 30
0.0
 11
622.6912377737452
 21
449.9776468282824
 31
0.0
  0
LINE
  5
237D
330
2
100
AcDbEntity
  8
0
100
AcDbLine
 10
631.998417450717
 20
449.5776468282823
 30
0.0
 11
621.998417450717
 21
449.5776468282818
 31
0.0
  0
LINE
  5
237E
330
2
100
AcDbEntity
  8
0
100
AcDbLine
 10
631.998417450717
 20
449.5776468282818
 30
0.0
 11
631.3055971276898
 21
449.977646828282
 31
0.0
  0
LINE
  5
237F
330
2
100
AcDbEntity
  8
0
100
AcDbLine
 10
621.998417450717
 20
449.5776468282818
 30
0.0
 11
622.6912377737452
 21
449.977646828282
 31
0.0
  0
LINE
  5
2380
330
2
100
AcDbEntity
  8
0
100
AcDbLine
 10
631.998417450717
 20
443.9776468282824
 30
0.0
 11
631.998417450717
 21
442.4776468282824
 31
0.0
  0
LINE
  5
2381
330
2
100
AcDbEntity
  8
0
100
AcDbLine
 10
621.998417450717
 20
443.9776468282824
 30
0.0
 11
621.998417450717
 21
442.4776468282824
 31
0.0
  0
LINE
  5
2382
330
2
100
AcDbEntity
  8
HIDS
100
AcDbLine
 10
621.998417450717
 20
445.9776468282846
 30
0.0
 11
625.1699903259521
 21
445.9776468282852
 31
0.0
  0
ARC
  5
2383
330
2
100
AcDbEntity
  8
0
100
AcDbCircle
 10
632.0316547316742
 20
441.4776468282826
 30
0.0
 40
1.0
100
AcDbArc
 50
0.4999999999915751
 51
90.0
  0
LINE
  5
2384
330
2
100
AcDbEntity
  8
0
100
AcDbLine
 10
633.0833360576388
 20
434.9776468282859
 30
0.0
 11
633.5833360576388
 21
434.4776468282858
 31
0.0
  0
LINE
  5
2385
330
2
100
AcDbEntity
  8
0
100
AcDbLine
 10
647.8657738759555
 20
434.4776468282831
 30
0.0
 11
633.5833360576406
 21
434.4776468282831
 31
0.0
  0
ARC
  5
2386
330
2
100
AcDbEntity
  8
0
100
AcDbCircle
 10
647.8657738803975
 20
439.4776468309502
 30
0.0
 40
5.0
100
AcDbArc
 50
270.0
 51
358.4999999999841
  0
LINE
  5
2387
330
2
100
AcDbEntity
  8
0
100
AcDbLine
 10
628.4984174507188
 20
434.9776468282847
 30
0.0
 11
628.4984174507188
 21
442.4776468282824
 31
0.0
  0
LINE
  5
2388
330
2
100
AcDbEntity
  8
0
100
AcDbLine
 10
625.4984174507188
 20
434.9776468282847
 30
0.0
 11
625.4984174507188
 21
442.4776468282824
 31
0.0
  0
LINE
  5
2389
330
2
100
AcDbEntity
  8
CENTER
100
AcDbLine
 10
626.998417450717
 20
454.9776468282824
 30
0.0
 11
626.998417450717
 21
429.914900084136
 31
0.0
  0
LINE
  5
238A
330
2
100
AcDbEntity
  8
0
100
AcDbLine
 10
633.0316166547381
 20
441.4863733637808
 30
0.0
 11
633.088417450699
 21
434.9776468282859
 31
0.0
  0
ARC
  5
238B
330
2
100
AcDbEntity
  8
0
100
AcDbCircle
 10
667.4467311925408
 20
450.4776468309501
 30
0.0
 40
2.0
100
AcDbArc
 50
90.0
 51
178.5000000000102
  0
ARC
  5
238C
330
2
100
AcDbEntity
  8
0
100
AcDbCircle
 10
660.418145723537
 20
449.4776468309502
 30
0.0
 40
5.0
100
AcDbArc
 50
270.0
 51
358.5000000000102
  0
LINE
  5
238D
330
2
100
AcDbEntity
  8
0
100
AcDbLine
 10
667.4467311925408
 20
452.4776468309502
 30
0.0
 11
677.4984174463297
 21
452.4776468309502
 31
0.0
  0
CIRCLE
  5
2672
330
2
100
AcDbEntity
  8
0
100
AcDbCircle
 10
592.4984174507062
 20
116.5803793048141
 30
0.0
 40
23.5774
  0
ARC
  5
26C8
330
2
100
AcDbEntity
  8
0
100
AcDbCircle
 10
687.4984174463296
 20
450.3903019962707
 30
0.0
 40
2.0
100
AcDbArc
 50
0.0
 51
89.49999999999816
  0
ARC
  5
26CB
330
2
100
AcDbEntity
  8
0
100
AcDbCircle
 10
687.4984174463296
 20
372.5649916656286
 30
0.0
 40
2.0
100
AcDbArc
 50
270.4999999999971
 51
0.0
  0
ARC
  5
26CC
330
2
100
AcDbEntity
  8
0
100
AcDbCircle
 10
687.4984174506991
 20
155.4930344701246
 30
0.0
 40
2.0
100
AcDbArc
 50
0.0
 51
89.50000000000288
  0
ARC
  5
26CD
330
2
100
AcDbEntity
  8
0
100
AcDbCircle
 10
687.4984174506988
 20
77.66772413948254
 30
0.0
 40
2.0
100
AcDbArc
 50
270.5000000000018
 51
0.0
  0
ARC
  5
26CE
330
2
100
AcDbEntity
  8
0
100
AcDbCircle
 10
72.86246554552994
 20
155.4930344701424
 30
0.0
 40
2.0
100
AcDbArc
 50
90.49999999999711
 51
180.0
  0
ARC
  5
26CF
330
2
100
AcDbEntity
  8
0
100
AcDbCircle
 10
72.86246554552994
 20
77.66772413950025
 30
0.0
 40
2.0
100
AcDbArc
 50
180.0
 51
269.4999999999981
  0
ARC
  5
26D0
330
2
100
AcDbEntity
  8
0
100
AcDbCircle
 10
45.18471330060709
 20
146.094427036685
 30
0.0
 40
2.0
100
AcDbArc
 50
90.99999999999965
 51
133.9822385472697
  0
ARC
  5
26D1
330
2
100
AcDbEntity
  8
0
100
AcDbCircle
 10
45.18471330060709
 20
87.06633157295675
 30
0.0
 40
2.0
100
AcDbArc
 50
226.0177614527302
 51
268.9999999999989
  0
ARC
  5
26D2
330
2
100
AcDbEntity
  8
0
100
AcDbCircle
 10
715.1761696956218
 20
146.0944270366673
 30
0.0
 40
2.0
100
AcDbArc
 50
46.0177614527303
 51
89.00000000000034
  0
ARC
  5
26DC
330
2
100
AcDbEntity
  8
0
100
AcDbCircle
 10
715.1761696956218
 20
87.066331572939
 30
0.0
 40
2.0
100
AcDbArc
 50
271.000000000001
 51
313.9822385472697
  0
ARC
  5
26E6
330
2
100
AcDbEntity
  8
0
100
AcDbCircle
 10
715.1761696912521
 20
440.9916945628141
 30
0.0
 40
2.0
100
AcDbArc
 50
46.01776145272124
 51
89.00000000000034
  0
ARC
  5
26E7
330
2
100
AcDbEntity
  8
0
100
AcDbCircle
 10
715.1761696912521
 20
381.9635990990855
 30
0.0
 40
2.0
100
AcDbArc
 50
270.9999999999996
 51
313.9822385472787
  0
ENDSEC
  0
SECTION
  2
OBJECTS
  0
DICTIONARY
  5
7
330
0
100
AcDbDictionary
  3
ACAD_COLOR
350
269F
  3
ACAD_GROUP
350
75
  3
ACAD_LAYOUT
350
61
  3
ACAD_MATERIAL
350
2675
  3
ACAD_MLEADERSTYLE
350
26C4
  3
ACAD_MLINESTYLE
350
76
  3
ACAD_PLOTSETTINGS
350
77
  3
ACAD_PLOTSTYLENAME
350
6
  3
ACAD_SCALELIST
350
26A2
  3
ACAD_TABLESTYLE
350
26A0
  3
ACAD_VISUALSTYLE
350
268E
  3
ACADDIM
350
480
  3
ACDB_RECOMPOSE_DATA
350
26FA
  3
ACDBHEADERROUNDTRIPXREC
350
275D
  3
ACDBVARIABLEDICTIONARY
350
102
  3
DWGPROPS
350
272A
  0
DICTIONARY
  5
2703
330
6E
100
AcDbDictionary
280
     1
  3
ACAD_XREC_ROUNDTRIP
360
2731
  0
DICTIONARY
  5
AE2
330
66
100
AcDbDictionary
280
     1
  3
ACAD_LAYERSTATES
360
AE3
  0
DICTIONARY
  5
26E8
330
5E
100
AcDbDictionary
280
     1
  3
ACAD_XREC_ROUNDTRIP
360
272D
  3
ADSK_XREC_LAYER_RECONCILED
360
26E9
  0
DICTIONARY
  5
26EA
330
3E
100
AcDbDictionary
280
     1
  3
ACAD_XREC_ROUNDTRIP
360
272C
  3
ADSK_XREC_LAYER_RECONCILED
360
26EB
  0
DICTIONARY
  5
26F0
330
2B5
100
AcDbDictionary
280
     1
  3
ACAD_XREC_ROUNDTRIP
360
2737
  3
ADSK_XREC_LAYER_RECONCILED
360
26F1
  0
DICTIONARY
  5
26F2
330
2BA
100
AcDbDictionary
280
     1
  3
ACAD_XREC_ROUNDTRIP
360
2738
  3
ADSK_XREC_LAYER_RECONCILED
360
26F3
  0
DICTIONARY
  5
26F6
330
3FA
100
AcDbDictionary
280
     1
  3
ACAD_XREC_ROUNDTRIP
360
273A
  3
ADSK_XREC_LAYER_RECONCILED
360
26F7
  0
DICTIONARY
  5
26C9
330
2
100
AcDbDictionary
280
     1
  3
ACAD_LAYOUTSELFREF
360
277E
  3
ACAD_SORTENTS
360
26CA
  0
DICTIONARY
  5
277F
330
2757
100
AcDbDictionary
280
     1
  3
ACAD_LAYOUTSELFREF
360
2780
  0
DICTIONARY
  5
269F
102
{ACAD_REACTORS
330
7
102
}
330
7
100
AcDbDictionary
  0
DICTIONARY
  5
75
102
{ACAD_REACTORS
330
7
102
}
330
7
100
AcDbDictionary
  0
DICTIONARY
  5
61
102
{ACAD_REACTORS
330
7
102
}
330
7
100
AcDbDictionary
  0
DICTIONARY
  5
2675
102
{ACAD_REACTORS
330
7
102
}
330
7
100
AcDbDictionary
  3
BYBLOCK
350
267E
  3
BYLAYER
350
2676
  3
GLOBAL
350
2686
  0
DICTIONARY
  5
26C4
102
{ACAD_REACTORS
330
7
102
}
330
7
100
AcDbDictionary
  3
STANDARD
350
26C5
  0
DICTIONARY
  5
76
102
{ACAD_REACTORS
330
7
102
}
330
7
100
AcDbDictionary
  3
STANDARD
350
78
  0
DICTIONARY
  5
77
102
{ACAD_REACTORS
330
7
102
}
330
7
100
AcDbDictionary
  0
ACDBDICTIONARYWDFLT
  5
6
102
{ACAD_REACTORS
330
7
102
}
330
7
100
AcDbDictionary
281
     1
  3
Normal
350
5
100
AcDbDictionaryWithDefault
340
5
  0
DICTIONARY
  5
26A2
102
{ACAD_REACTORS
330
7
102
}
330
7
100
AcDbDictionary
  3
A0
350
26A3
  3
A1
350
26A4
  3
A2
350
26A5
  3
A3
350
26A6
  3
A4
350
26A7
  3
A5
350
26A8
  3
A6
350
26A9
  3
A7
350
26AA
  3
A8
350
26AB
  3
A9
350
26AC
  3
B0
350
26AD
  3
B1
350
26AE
  3
B2
350
26AF
  3
B3
350
26B0
  3
B4
350
26B1
  3
B5
350
26B2
  3
B6
350
26B3
  3
B7
350
26B4
  3
B8
350
26B5
  3
B9
350
26B6
  3
C0
350
26B7
  3
C1
350
26B8
  3
C2
350
26B9
  3
C3
350
26BA
  3
C4
350
26BB
  3
C5
350
26BC
  3
C6
350
26BD
  3
C7
350
26BE
  3
C8
350
26BF
  3
C9
350
26C0
  3
D0
350
26C1
  3
D1
350
26C2
  3
D2
350
26C3
  0
DICTIONARY
  5
26A0
102
{ACAD_REACTORS
330
7
102
}
330
7
100
AcDbDictionary
  3
STANDARD
350
26A1
  0
DICTIONARY
  5
268E
102
{ACAD_REACTORS
330
7
102
}
330
7
100
AcDbDictionary
  3
2DWIREFRAME
350
2694
  3
3D_HIDDEN
350
2696
  3
3DWIREFRAME
350
2695
  3
BASIC
350
2693
  3
BRIGHTEN
350
269A
  3
COLORCHANGE
350
269E
  3
CONCEPTUAL
350
2697
  3
DIM
350
2699
  3
FACEPATTERN
350
269D
  3
FLAT
350
268F
  3
FLATWITHEDGES
350
2690
  3
GOURAUD
350
2691
  3
GOURAUDWITHEDGES
350
2692
  3
LINEPATTERN
350
269C
  3
REALISTIC
350
2698
  3
THICKEN
350
269B
  0
XRECORD
  5
480
102
{ACAD_REACTORS
330
7
102
}
330
7
100
AcDbXrecord
 90
   990106
  3

 60
     0
 61
     0
 62
     1
 63
     3
 64
     1
 65
     0
 66
     0
 67
     3
 68
     1
 69
     0
 70
     0
 71
     0
 72
     0
 40
0.0
170
     2
340
0
  0
XRECORD
  5
26FA
102
{ACAD_REACTORS
330
7
102
}
330
7
100
AcDbXrecord
 90
        1
330
26A1
  0
DICTIONARY
  5
275D
102
{ACAD_REACTORS
330
7
102
}
330
7
100
AcDbDictionary
  3
CEPSNTYPE
350
2767
  3
DIMSTYLEDATA
350
276B
  3
FINGERPRINTGUID
350
2768
  3
HYPERLINKBASE
350
2760
  3
INSUNITS
350
2766
  3
LAYOUTDICT
350
2762
  3
LWETCUNION
350
2765
  3
PLOTSETDICT
350
2763
  3
PLOTSTYLNAMDICT
350
2764
  3
PSVPSCALE
350
276A
  3
PUCSBASE
350
276E
  3
PUCSORGBACK
350
2774
  3
PUCSORGBOTTOM
350
2770
  3
PUCSORGFRONT
350
2773
  3
PUCSORGLEFT
350
2771
  3
PUCSORGRIGHT
350
2772
  3
PUCSORGTOP
350
276F
  3
PUCSORTHOREF
350
276C
  3
PUCSORTHOVIEW
350
276D
  3
STYLESHEET
350
2761
  3
TSTACKALIGN
350
275E
  3
TSTACKSIZE
350
275F
  3
UCSBASE
350
2777
  3
UCSORGBACK
350
277D
  3
UCSORGBOTTOM
350
2779
  3
UCSORGFRONT
350
277C
  3
UCSORGLEFT
350
277A
  3
UCSORGRIGHT
350
277B
  3
UCSORGTOP
350
2778
  3
UCSORTHOREF
350
2775
  3
UCSORTHOVIEW
350
2776
  3
VERSIONGUID
350
2769
  0
DICTIONARY
  5
102
102
{ACAD_REACTORS
330
7
102
}
330
7
100
AcDbDictionary
  3
CANNOSCALE
350
271A
  3
CMLEADERSTYLE
350
2719
  3
CTABLESTYLE
350
2718
  3
DIMASSOC
350
103
  3
INDEXCTL
350
271B
  3
SORTENTS
350
549
  0
XRECORD
  5
272A
102
{ACAD_REACTORS
330
7
102
}
330
7
100
AcDbXrecord
  1
DWGPROPS COOKIE
  2

  3

  4

  6

  7

  8
ymorima
  9

300
=
301
=
302
=
303
=
304
=
305
=
306
=
307
=
308
=
309
=
 40
0.0494847800925926
 41
2454410.724518044
 42
2454425.725746157
  1

 90
        0
  0
XRECORD
  5
2731
102
{ACAD_REACTORS
330
2703
102
}
330
2703
100
AcDbXrecord
102
VTR_0.000_0.000_1.000_1.000_VISUALSTYLE
340
2694
102
VTR_0.000_0.000_1.000_1.000_GRIDDISPLAY
 70
     3
102
VTR_0.000_0.000_1.000_1.000_GRIDMAJOR
 70
     5
102
VTR_0.000_0.000_1.000_1.000_DEFAULTLIGHTING
280
     1
102
VTR_0.000_0.000_1.000_1.000_DEFAULTLIGHTINGTYPE
 70
     1
102
VTR_0.000_0.000_1.000_1.000_BRIGHTNESS
141
0.0
102
VTR_0.000_0.000_1.000_1.000_CONTRAST
142
0.0
  0
DICTIONARY
  5
AE3
102
{ACAD_REACTORS
330
AE2
102
}
330
AE2
100
AcDbDictionary
  0
XRECORD
  5
272D
102
{ACAD_REACTORS
330
26E8
102
}
330
26E8
100
AcDbXrecord
102
MATERIAL
340
2686
  0
XRECORD
  5
26E9
102
{ACAD_REACTORS
330
26E8
102
}
330
26E8
100
AcDbXrecord
290
     1
  0
XRECORD
  5
272C
102
{ACAD_REACTORS
330
26EA
102
}
330
26EA
100
AcDbXrecord
102
MATERIAL
340
2686
  0
XRECORD
  5
26EB
102
{ACAD_REACTORS
330
26EA
102
}
330
26EA
100
AcDbXrecord
290
     1
  0
XRECORD
  5
2737
102
{ACAD_REACTORS
330
26F0
102
}
330
26F0
100
AcDbXrecord
102
MATERIAL
340
2686
  0
XRECORD
  5
26F1
102
{ACAD_REACTORS
330
26F0
102
}
330
26F0
100
AcDbXrecord
290
     1
  0
XRECORD
  5
2738
102
{ACAD_REACTORS
330
26F2
102
}
330
26F2
100
AcDbXrecord
102
MATERIAL
340
2686
  0
XRECORD
  5
26F3
102
{ACAD_REACTORS
330
26F2
102
}
330
26F2
100
AcDbXrecord
290
     1
  0
XRECORD
  5
273A
102
{ACAD_REACTORS
330
26F6
102
}
330
26F6
100
AcDbXrecord
102
MATERIAL
340
2686
  0
XRECORD
  5
26F7
102
{ACAD_REACTORS
330
26F6
102
}
330
26F6
100
AcDbXrecord
290
     1
  0
XRECORD
  5
277E
102
{ACAD_REACTORS
330
26C9
102
}
330
26C9
100
AcDbXrecord
340
2
  0
SORTENTSTABLE
  5
26CA
102
{ACAD_REACTORS
330
26C9
102
}
330
26C9
100
AcDbSortentsTable
330
2
331
1299
  5
12A5
331
229D
  5
22A9
331
2319
  5
2325
331
11CA
  5
11CA
331
2375
  5
2381
331
2239
  5
2245
331
21CE
  5
21DA
331
128A
  5
1296
331
12E0
  5
12EC
331
2177
  5
2183
331
2232
  5
223E
331
122E
  5
1236
331
230A
  5
2316
331
2366
  5
2372
331
121F
  5
1221
331
228E
  5
229A
331
11D8
  5
11D8
331
1244
  5
124C
331
21E4
  5
21F0
331
12A0
  5
12AC
331
12F6
  5
1302
331
218D
  5
2199
331
22A4
  5
22B0
331
2320
  5
232C
331
11D1
  5
11D1
331
1235
  5
123D
331
21D5
  5
21E1
331
2295
  5
22A1
331
1291
  5
129D
331
12E7
  5
12F3
331
217E
  5
218A
331
237C
  5
2388
331
2240
  5
224C
331
238B
  5
26D2
331
22B2
  5
22BE
331
124B
  5
1253
331
2138
  5
2144
331
21EB
  5
21F7
331
2336
  5
2342
331
12A7
  5
12B3
331
12FD
  5
1309
331
2194
  5
21A0
331
22AB
  5
22B7
331
2327
  5
2333
331
123C
  5
1244
331
21DC
  5
21E8
331
12EE
  5
12FA
331
2185
  5
2191
331
2383
  5
26C8
331
2247
  5
2253
331
1259
  5
1261
331
225D
  5
226B
331
22B9
  5
22C5
331
12BD
  5
12C9
331
11EE
  5
11EE
331
1252
  5
125A
331
213F
  5
214D
331
233D
  5
2349
331
219B
  5
21A7
331
224E
  5
225A
331
12AE
  5
12BA
331
232E
  5
233A
331
1304
  5
1310
331
21F2
  5
21FE
331
1313
  5
131F
331
2201
  5
220D
331
1204
  5
1204
331
26DC
  5
1227
331
1260
  5
1268
331
214D
  5
2159
331
21B1
  5
21BD
331
2264
  5
2271
331
22C0
  5
22CD
331
12C4
  5
12D0
331
11F5
  5
11F5
331
26CD
  5
121D
331
2146
  5
2153
331
21A2
  5
21B1
331
2255
  5
2261
331
12B5
  5
12C1
331
130B
  5
1317
331
21F9
  5
2205
331
2344
  5
2350
331
131A
  5
2137
331
2208
  5
2214
331
234B
  5
2358
331
227A
  5
2286
331
2352
  5
235F
331
2154
  5
2160
331
120B
  5
120B
331
220F
  5
221B
331
1321
  5
213E
331
21B8
  5
21C4
331
1267
  5
126F
331
22D6
  5
230C
331
226B
  5
2278
331
11FC
  5
11FC
331
22C7
  5
22D6
331
12CB
  5
12D7
331
2368
  5
2374
331
1221
  5
1224
331
216A
  5
2176
331
2225
  5
2231
331
2359
  5
2365
331
215B
  5
2167
331
1212
  5
1212
331
2281
  5
228D
331
2216
  5
2222
331
21BF
  5
21CB
331
2272
  5
227F
331
126E
  5
1277
331
F27
  5
F27
331
22CE
  5
2305
331
12D3
  5
12DF
331
21C1
  5
21CD
331
2313
  5
231F
331
11C4
  5
11C4
331
236F
  5
237B
331
21C8
  5
21D4
331
12DA
  5
12E6
331
2171
  5
217D
331
222C
  5
2238
331
1228
  5
122C
331
2288
  5
2294
331
2162
  5
216E
331
221D
  5
2229
331
2360
  5
236C
331
2304
  5
2311
331
129A
  5
12A6
331
12F0
  5
12FC
331
223A
  5
2246
331
231A
  5
2326
331
11CB
  5
11CB
331
2376
  5
2382
331
21CF
  5
21DB
331
128B
  5
1297
331
12E1
  5
12ED
331
2178
  5
2184
331
2233
  5
223F
331
122F
  5
1237
331
230B
  5
2317
331
2367
  5
2373
331
228F
  5
229B
331
229E
  5
22AA
331
2330
  5
233C
331
238C
  5
26DC
331
21E5
  5
21F1
331
12A1
  5
12AE
331
12F7
  5
1303
331
218E
  5
219A
331
2241
  5
224D
331
1245
  5
124D
331
2321
  5
232D
331
11D2
  5
11D2
331
237D
  5
2389
331
21D6
  5
21E2
331
1292
  5
129E
331
12E8
  5
12F4
331
217F
  5
218B
331
1236
  5
123E
331
2296
  5
22A2
331
22A5
  5
22B1
331
22B3
  5
22BF
331
124C
  5
1254
331
2139
  5
2146
331
21EC
  5
21F8
331
2337
  5
2343
331
12A8
  5
12B4
331
12FE
  5
130A
331
2195
  5
21A1
331
22AC
  5
22B8
331
2328
  5
2334
331
123D
  5
1245
331
21DD
  5
21E9
331
12EF
  5
12FB
331
2186
  5
2192
331
2384
  5
26CB
331
2248
  5
2254
331
125A
  5
1262
331
225E
  5
226C
331
22BA
  5
22C6
331
12BE
  5
12CA
331
233E
  5
234A
331
1314
  5
1320
331
2202
  5
220E
331
1253
  5
125B
331
2140
  5
214E
331
21F3
  5
21FF
331
11EF
  5
11EF
331
12AF
  5
12BB
331
1305
  5
1311
331
219C
  5
21A8
331
232F
  5
233B
331
224F
  5
225B
331
22D0
  5
2306
331
1205
  5
1205
331
1261
  5
1269
331
214E
  5
215A
331
21B2
  5
21BE
331
2265
  5
2272
331
22C1
  5
22CE
331
F0A
  5
F0A
331
12C5
  5
12D1
331
11F6
  5
11F6
331
26CE
  5
1288
331
2147
  5
2154
331
21A3
  5
21B2
331
2256
  5
2262
331
12B6
  5
12C2
331
130C
  5
1318
331
21FA
  5
2206
331
2345
  5
2351
331
131B
  5
2138
331
2209
  5
2215
331
234C
  5
2359
331
227B
  5
2287
331
120C
  5
120C
331
1268
  5
1270
331
2155
  5
2161
331
21B9
  5
21C5
331
226C
  5
2279
331
11FD
  5
11FD
331
22C8
  5
22D8
331
12CC
  5
12D8
331
1322
  5
213F
331
2210
  5
221C
331
2353
  5
2360
331
2369
  5
2375
331
216B
  5
2177
331
2226
  5
2232
331
F47
  5
F47
331
235A
  5
2366
331
215C
  5
2168
331
1213
  5
1213
331
2282
  5
228E
331
2217
  5
2223
331
126F
  5
1278
331
127E
  5
1286
331
12D4
  5
12E0
331
21C2
  5
21CE
331
2298
  5
22A4
331
11C5
  5
11C5
331
2370
  5
237C
331
1229
  5
122D
331
2172
  5
217E
331
222D
  5
2239
331
2289
  5
2295
331
2361
  5
236D
331
2163
  5
216F
331
121A
  5
121A
331
221E
  5
222A
331
1276
  5
127E
331
2305
  5
2312
331
12DB
  5
12E7
331
21C9
  5
21D5
331
2314
  5
2320
331
129B
  5
12A7
331
12F1
  5
12FD
331
2188
  5
2194
331
223B
  5
2247
331
231B
  5
2327
331
11CC
  5
11CC
331
21D0
  5
21DC
331
12E2
  5
12EE
331
2179
  5
2185
331
2377
  5
2383
331
229F
  5
22AB
331
2234
  5
2240
331
2290
  5
229C
331
128C
  5
1298
331
230C
  5
2318
331
2331
  5
233D
331
238D
  5
26E6
331
21E6
  5
21F2
331
12A2
  5
12AF
331
12F8
  5
1304
331
218F
  5
219B
331
2242
  5
224E
331
1246
  5
124E
331
2322
  5
232E
331
11D3
  5
11D3
331
237E
  5
238A
331
21D7
  5
21E3
331
1293
  5
129F
331
12E9
  5
12F5
331
2180
  5
218C
331
1237
  5
123F
331
2297
  5
22A3
331
22A6
  5
22B2
331
12B8
  5
12C4
331
22B4
  5
22C0
331
213A
  5
2147
331
2338
  5
2344
331
2258
  5
2265
331
21ED
  5
21F9
331
12A9
  5
12B5
331
12FF
  5
130B
331
2196
  5
21A2
331
2249
  5
2255
331
124D
  5
1255
331
2329
  5
2335
331
2385
  5
26CC
331
21DE
  5
21EA
331
2187
  5
2193
331
123E
  5
1246
331
22AD
  5
22B9
331
125B
  5
1263
331
2148
  5
2155
331
2203
  5
220F
331
12BF
  5
12CB
331
1315
  5
1321
331
21AC
  5
21B8
331
22BB
  5
22C7
331
233F
  5
234B
331
225F
  5
226D
331
1254
  5
125C
331
2141
  5
214F
331
21F4
  5
2200
331
12B0
  5
12BC
331
1306
  5
1312
331
219D
  5
21AC
331
2250
  5
225C
331
26C8
  5
1230
331
22D1
  5
2307
331
F32
  5
F32
331
234D
  5
235A
331
1262
  5
126A
331
214F
  5
215B
331
220A
  5
2216
331
1206
  5
1206
331
12C6
  5
12D2
331
131C
  5
2139
331
21B3
  5
21BF
331
22C2
  5
22D0
331
2346
  5
2352
331
26CF
  5
128C
331
21FB
  5
2207
331
11F7
  5
11F7
331
12B7
  5
12C3
331
130D
  5
1319
331
21A4
  5
21B3
331
2257
  5
2264
331
2266
  5
2274
331
1278
  5
1280
331
227C
  5
2288
331
22D8
  5
230D
331
120D
  5
120D
331
1269
  5
1271
331
2156
  5
2162
331
21BA
  5
21C6
331
226D
  5
227A
331
11FE
  5
11FE
331
22C9
  5
22D9
331
12CD
  5
12D9
331
1323
  5
2140
331
2211
  5
221D
331
2354
  5
2361
331
2220
  5
222C
331
236A
  5
2376
331
21C3
  5
21CF
331
2227
  5
2233
331
2283
  5
228F
331
127F
  5
1287
331
12D5
  5
12E1
331
1270
  5
1279
331
215D
  5
2169
331
235B
  5
2367
331
2274
  5
2280
331
2218
  5
2224
331
216C
  5
2178
331
2299
  5
22A5
331
11C6
  5
11C6
331
2371
  5
237D
331
122A
  5
122E
331
2173
  5
217F
331
222E
  5
223A
331
228A
  5
2296
331
1286
  5
1291
331
2362
  5
236E
331
2164
  5
2170
331
121B
  5
121C
331
221F
  5
222B
331
1277
  5
127F
331
2306
  5
2313
331
12DC
  5
12E8
331
21CA
  5
21D6
331
2315
  5
2321
331
21E0
  5
21EC
331
12F2
  5
12FE
331
2189
  5
2195
331
1240
  5
1248
331
223C
  5
2248
331
22A0
  5
22AC
331
129C
  5
12A8
331
11CD
  5
11CD
331
2378
  5
2384
331
217A
  5
2186
331
2235
  5
2241
331
2291
  5
229D
331
128D
  5
1299
331
230D
  5
2319
331
12E3
  5
12EF
331
21D1
  5
21DD
331
231C
  5
2328
331
2332
  5
233E
331
21E7
  5
21F3
331
12A3
  5
12B0
331
12F9
  5
1305
331
2190
  5
219C
331
2243
  5
224F
331
1247
  5
124F
331
2323
  5
232F
331
11D4
  5
11D4
331
237F
  5
238B
331
21D8
  5
21E4
331
12EA
  5
12F6
331
2181
  5
218D
331
1238
  5
1240
331
22A7
  5
22B3
331
1294
  5
12A0
331
12B9
  5
12C5
331
2259
  5
2266
331
213B
  5
2148
331
2339
  5
2345
331
21EE
  5
21FA
331
12AA
  5
12B6
331
1300
  5
130C
331
2197
  5
21A3
331
224A
  5
2256
331
124E
  5
1256
331
232A
  5
2336
331
2386
  5
26CD
331
21DF
  5
21EB
331
123F
  5
1247
331
22AE
  5
22BA
331
22B5
  5
22C1
331
125C
  5
1264
331
2149
  5
2156
331
2204
  5
2210
331
1200
  5
1200
331
12C0
  5
12CC
331
1316
  5
1322
331
21AD
  5
21B9
331
22BC
  5
22C8
331
2142
  5
2150
331
2340
  5
234C
331
2260
  5
226E
331
21F5
  5
2201
331
12B1
  5
12BD
331
1307
  5
1313
331
219E
  5
21AD
331
2251
  5
225D
331
1255
  5
125D
331
22D2
  5
2308
331
234E
  5
235B
331
1263
  5
126B
331
2150
  5
215C
331
220B
  5
2217
331
1207
  5
1207
331
12C7
  5
12D3
331
131D
  5
213A
331
21B4
  5
21C0
331
22C3
  5
22D1
331
2347
  5
2353
331
11F8
  5
11F8
331
2267
  5
2275
331
21FC
  5
2208
331
130E
  5
131A
331
21A5
  5
21B4
331
26D0
  5
1293
331
1279
  5
1281
331
227D
  5
2289
331
22D9
  5
230E
331
2355
  5
2362
331
2221
  5
222D
331
26E6
  5
1239
331
126A
  5
1272
331
2157
  5
2163
331
2212
  5
221E
331
120E
  5
120E
331
12CE
  5
12DA
331
21BB
  5
21C7
331
22CA
  5
22DA
331
11FF
  5
11FF
331
226E
  5
227B
331
11C0
  5
11C0
331
1224
  5
1226
331
21C4
  5
21D0
331
1280
  5
128A
331
12D6
  5
12E2
331
216D
  5
2179
331
2284
  5
2290
331
1271
  5
127A
331
215E
  5
216A
331
2275
  5
2281
331
2219
  5
2225
331
235C
  5
2368
331
2228
  5
2234
331
236B
  5
2377
331
229A
  5
22A6
331
2316
  5
2322
331
21CB
  5
21D7
331
1287
  5
1292
331
12DD
  5
12E9
331
2174
  5
2180
331
228B
  5
2297
331
2307
  5
2314
331
2165
  5
2171
331
2363
  5
236F
331
222F
  5
223B
331
2372
  5
237E
331
2388
  5
26CF
331
1241
  5
1249
331
218A
  5
2196
331
223D
  5
2249
331
22A1
  5
22AD
331
129D
  5
12A9
331
11CE
  5
11CE
331
2379
  5
2385
331
1232
  5
1238
331
231D
  5
2329
331
217B
  5
2187
331
2236
  5
2242
331
2292
  5
229E
331
128E
  5
129A
331
11BF
  5
11BF
331
230E
  5
231A
331
12E4
  5
12F0
331
21D2
  5
21DE
331
12F3
  5
12FF
331
21E1
  5
21ED
331
2333
  5
233F
331
21E8
  5
21F4
331
2191
  5
219D
331
1248
  5
1250
331
2244
  5
2250
331
22A8
  5
22B4
331
12A4
  5
12B1
331
11D5
  5
11D5
331
2380
  5
238C
331
1239
  5
1241
331
17D6
  5
2142
331
2182
  5
218E
331
1295
  5
12A1
331
12EB
  5
12F7
331
21D9
  5
21E5
331
2324
  5
2330
331
12FA
  5
1306
331
12BA
  5
12C6
331
1310
  5
131C
331
225A
  5
2267
331
213C
  5
2149
331
233A
  5
2346
331
21EF
  5
21FB
331
12AB
  5
12B7
331
1301
  5
130D
331
2198
  5
21A4
331
224B
  5
2257
331
124F
  5
1257
331
232B
  5
2337
331
2387
  5
26CE
331
22AF
  5
22BB
331
22B6
  5
22C2
331
2348
  5
2354
331
214A
  5
2157
331
1201
  5
1201
331
2205
  5
2211
331
12C1
  5
12CD
331
1317
  5
1323
331
21AE
  5
21BA
331
2261
  5
226F
331
125D
  5
1265
331
F06
  5
F06
331
2143
  5
2151
331
2341
  5
234D
331
21F6
  5
2202
331
12B2
  5
12BE
331
1308
  5
1314
331
219F
  5
21AE
331
2252
  5
225E
331
1256
  5
125E
331
22BD
  5
22C9
331
22D3
  5
230A
331
234F
  5
235C
331
1264
  5
126C
331
2151
  5
215D
331
220C
  5
2218
331
1208
  5
1208
331
12C8
  5
12D4
331
131E
  5
213B
331
21B5
  5
21C1
331
22C4
  5
22D2
331
11F9
  5
11F9
331
2268
  5
2276
331
21FD
  5
2209
331
130F
  5
131B
331
21A6
  5
21B5
331
26D1
  5
128E
331
127A
  5
1282
331
12D0
  5
12DC
331
2222
  5
222E
331
22DA
  5
230F
331
2356
  5
2363
331
120F
  5
120F
331
227E
  5
228A
331
126B
  5
1273
331
2158
  5
2164
331
2213
  5
221F
331
12CF
  5
12DB
331
21BC
  5
21C8
331
22CB
  5
22DC
331
226F
  5
227C
331
26E7
  5
123B
331
2310
  5
231C
331
16E2
  5
2141
331
11C1
  5
11C1
331
1225
  5
1228
331
21C5
  5
21D1
331
1281
  5
128D
331
12D7
  5
12E3
331
216E
  5
217A
331
236C
  5
2378
331
2285
  5
2291
331
FE2
  5
FE2
331
1272
  5
127B
331
215F
  5
216B
331
221A
  5
2226
331
235D
  5
2369
331
2229
  5
2235
331
2276
  5
2282
331
229B
  5
22A7
331
2317
  5
2323
331
11C8
  5
11C8
331
122C
  5
1234
331
21CC
  5
21D8
331
1288
  5
1294
331
12DE
  5
12EA
331
2175
  5
2181
331
2373
  5
237F
331
228C
  5
2298
331
2308
  5
2315
331
121D
  5
121F
331
2166
  5
2172
331
2364
  5
2370
331
2230
  5
223C
331
2389
  5
26D0
331
1242
  5
124A
331
218B
  5
2197
331
223E
  5
224A
331
22A2
  5
22AE
331
129E
  5
12AA
331
231E
  5
232A
331
12F4
  5
1300
331
21E2
  5
21EE
331
11CF
  5
11CF
331
1233
  5
123A
331
21D3
  5
21DF
331
128F
  5
129B
331
12E5
  5
12F1
331
217C
  5
2188
331
2293
  5
229F
331
230F
  5
231B
331
2237
  5
2243
331
237A
  5
2386
331
22B0
  5
22BC
331
1249
  5
1251
331
2192
  5
219E
331
2245
  5
2251
331
22A9
  5
22B5
331
12A5
  5
12B2
331
11D6
  5
11D6
331
2381
  5
238D
331
123A
  5
1242
331
2183
  5
218F
331
1296
  5
12A2
331
12EC
  5
12F8
331
21DA
  5
21E6
331
2325
  5
2331
331
12FB
  5
1307
331
21E9
  5
21F5
331
2334
  5
2340
331
1311
  5
131D
331
21A8
  5
21B7
331
225B
  5
2268
331
22B7
  5
22C3
331
12BB
  5
12C7
331
1250
  5
1258
331
213D
  5
214A
331
233B
  5
2347
331
2199
  5
21A5
331
224C
  5
2258
331
12AC
  5
12B8
331
232C
  5
2338
331
1302
  5
130E
331
21F0
  5
21FC
331
2349
  5
2355
331
214B
  5
2158
331
1202
  5
1202
331
2206
  5
2212
331
12C2
  5
12CE
331
1318
  5
16E2
331
21AF
  5
21BB
331
2262
  5
2270
331
125E
  5
1266
331
F07
  5
F07
331
2342
  5
234E
331
2144
  5
2152
331
26CB
  5
122F
331
21F7
  5
2203
331
12B3
  5
12BF
331
1309
  5
1315
331
21A0
  5
21AF
331
2253
  5
225F
331
1257
  5
125F
331
22BE
  5
22CA
331
2350
  5
235D
331
2152
  5
215E
331
1209
  5
1209
331
2278
  5
2284
331
220D
  5
2219
331
12C9
  5
12D5
331
131F
  5
213C
331
21B6
  5
21C2
331
2269
  5
2277
331
1265
  5
126D
331
F0E
  5
F0E
331
11FA
  5
11FA
331
21FE
  5
220A
331
21A7
  5
21B6
331
26D2
  5
122B
331
22C5
  5
22D3
331
127B
  5
1284
331
12D1
  5
12DD
331
2168
  5
2174
331
2223
  5
222F
331
126C
  5
1274
331
2672
  5
26E7
331
2159
  5
2165
331
2214
  5
2220
331
1210
  5
1210
331
21BD
  5
21C9
331
2270
  5
227D
331
227F
  5
228B
331
2311
  5
231D
331
11C2
  5
11C2
331
236D
  5
2379
331
21C6
  5
21D2
331
1282
  5
128F
331
12D8
  5
12E4
331
216F
  5
217B
331
222A
  5
2236
331
1226
  5
1229
331
1273
  5
127C
331
2160
  5
216C
331
221B
  5
2227
331
235E
  5
236A
331
2277
  5
2283
331
2286
  5
2292
331
1298
  5
12A4
331
229C
  5
22A8
331
2318
  5
2324
331
122D
  5
1235
331
21CD
  5
21D9
331
1289
  5
1295
331
12DF
  5
12EB
331
2176
  5
2182
331
228D
  5
2299
331
2365
  5
2371
331
2231
  5
223D
331
2374
  5
2380
331
2238
  5
2244
331
2167
  5
2173
331
121E
  5
1220
331
1243
  5
124B
331
21E3
  5
21EF
331
129F
  5
12AB
331
12F5
  5
1301
331
218C
  5
2198
331
238A
  5
26D1
331
22A3
  5
22AF
331
231F
  5
232B
331
11D0
  5
11D0
331
1234
  5
123C
331
21D4
  5
21E0
331
2294
  5
22A0
331
1290
  5
129C
331
12E6
  5
12F2
331
217D
  5
2189
331
237B
  5
2387
331
223F
  5
224B
331
22B1
  5
22BD
331
124A
  5
1252
331
2137
  5
2143
331
2193
  5
219F
331
2246
  5
2252
331
22AA
  5
22B6
331
2326
  5
2332
331
12FC
  5
1308
331
21EA
  5
21F6
331
2335
  5
2341
331
11D7
  5
11D7
331
123B
  5
1243
331
21DB
  5
21E7
331
1297
  5
12A3
331
12ED
  5
12F9
331
2184
  5
2190
331
2382
  5
2672
331
1258
  5
1260
331
225C
  5
2269
331
22B8
  5
22C4
331
12BC
  5
12C8
331
1251
  5
1259
331
213E
  5
214B
331
219A
  5
21A6
331
224D
  5
2259
331
12AD
  5
12B9
331
232D
  5
2339
331
1303
  5
130F
331
21F1
  5
21FD
331
233C
  5
2348
331
1312
  5
131E
331
2200
  5
220C
331
234A
  5
2356
331
1203
  5
1203
331
2207
  5
2213
331
1319
  5
17D6
331
21B0
  5
21BC
331
125F
  5
1267
331
22BF
  5
22CB
331
12C3
  5
12CF
331
26CC
  5
121B
331
21A1
  5
21B0
331
2254
  5
2260
331
12B4
  5
12C0
331
130A
  5
1316
331
21F8
  5
2204
331
2343
  5
234F
331
2279
  5
2285
331
2351
  5
235E
331
2153
  5
215F
331
120A
  5
120A
331
220E
  5
221A
331
12CA
  5
12D6
331
1320
  5
213D
331
21B7
  5
21C3
331
1266
  5
126E
331
21FF
  5
220B
331
11FB
  5
11FB
331
22C6
  5
22D5
331
22D5
  5
230B
331
21C0
  5
21CC
331
12D2
  5
12DE
331
2169
  5
2175
331
1220
  5
1222
331
2224
  5
2230
331
2280
  5
228C
331
127C
  5
1285
331
2358
  5
2364
331
215A
  5
2166
331
1211
  5
1211
331
2215
  5
2221
331
21BE
  5
21CA
331
2271
  5
227E
331
126D
  5
1276
331
22CD
  5
2304
331
22DC
  5
2310
331
2312
  5
231E
331
11C3
  5
11C3
331
236E
  5
237A
331
21C7
  5
21D3
331
1283
  5
1290
331
12D9
  5
12E5
331
2170
  5
217C
331
222B
  5
2237
331
1227
  5
122A
331
1274
  5
127D
331
2161
  5
216D
331
221C
  5
2228
331
235F
  5
236B
331
2287
  5
2293
  0
XRECORD
  5
2780
102
{ACAD_REACTORS
330
277F
102
}
330
277F
100
AcDbXrecord
340
2757
  0
ACAD_PROXY_OBJECT
  5
267E
102
{ACAD_XDICTIONARY
360
267F
102
}
102
{ACAD_REACTORS
330
2675
102
}
330
2675
100
AcDbProxyObject
 90
      499
 91
      511
 93
     1340
310
42109E509B1BD8DAC02004014080404555555555555953FAA155555555555654FEA9AA400014080404555555555555953FAA155555555555654FEA9AA400000000000000E03F4080404555555555555953FAA155555555555654FEA9AA4014080404555555555555953FAA155555555555654FEA9AA4010201011555555555
310
55654FEA8555555555555953FAA6A9005020101155555555555654FEA8555555555555953FAA6A900C
 94
        0
1001
ACAD
1000
AcadProxyRoundTripData
1071
      504
1071
   655383
1070
     0
  0
ACAD_PROXY_OBJECT
  5
2676
102
{ACAD_XDICTIONARY
360
2677
102
}
102
{ACAD_REACTORS
330
2675
102
}
330
2675
100
AcDbProxyObject
 90
      499
 91
      511
 93
     1340
310
42109E53185E595C802004014080404555555555555953FAA155555555555654FEA9AA400014080404555555555555953FAA155555555555654FEA9AA400000000000000E03F4080404555555555555953FAA155555555555654FEA9AA4014080404555555555555953FAA155555555555654FEA9AA4010201011555555555
310
55654FEA8555555555555953FAA6A9005020101155555555555654FEA8555555555555953FAA6A900C
 94
        0
1001
ACAD
1000
AcadProxyRoundTripData
1071
      504
1071
   655383
1070
     0
  0
ACAD_PROXY_OBJECT
  5
2686
102
{ACAD_XDICTIONARY
360
2687
102
}
102
{ACAD_REACTORS
330
2675
102
}
330
2675
100
AcDbProxyObject
 90
      499
 91
      511
 93
     1332
310
41D1DB1BD8985B002004014080404555555555555953FAA155555555555654FEA9AA400014080404555555555555953FAA155555555555654FEA9AA400000000000000E03F4080404555555555555953FAA155555555555654FEA9AA4014080404555555555555953FAA155555555555654FEA9AA401020101155555555555
310
654FEA8555555555555953FAA6A9005020101155555555555654FEA8555555555555953FAA6A9000
 94
        0
1001
ACAD
1000
AcadProxyRoundTripData
1071
      504
1071
   655383
1070
     0
  0
ACAD_PROXY_OBJECT
  5
26C5
102
{ACAD_REACTORS
330
26C4
102
}
330
26C4
100
AcDbProxyObject
 90
      499
 91
      511
 93
      618
310
40901902A4063FBFFFFFE056BD1B81E855B9FC0AD7A3703D0AD73F4254DD185B99185C990000AD7A3703D0AC73F90141901A02B5E8DC0F42B1CFC02B5E8DC0F42B1CFE5764000000000000300FC6
340
6A
340
0
340
16
340
0
 94
        0
1001
ACAD_MLEADERVER
1070
     2
1001
ACAD
1000
AcadProxyRoundTripData
1071
      508
1071
   655383
1070
     0
  0
MLINESTYLE
  5
78
102
{ACAD_REACTORS
330
76
102
}
330
76
100
AcDbMlineStyle
  2
STANDARD
 70
     0
  3

 62
     0
 51
90.0
 52
90.0
 71
     2
 49
0.5
 62
   256
  6
BYLAYER
 49
-0.5
 62
   256
  6
BYLAYER
  0
ACDBPLACEHOLDER
  5
5
102
{ACAD_REACTORS
330
6
102
}
330
6
100
AcDbPlaceHolder
280
     0
  0
ACAD_PROXY_OBJECT
  5
26A3
102
{ACAD_REACTORS
330
26A2
102
}
330
26A2
100
AcDbProxyObject
 90
      499
 91
      511
 93
       49
310
904313A3100598
 94
        0
1001
ACAD
1000
AcadProxyRoundTripData
1071
      507
1071
   655383
1070
     0
  0
ACAD_PROXY_OBJECT
  5
26A4
102
{ACAD_REACTORS
330
26A2
102
}
330
26A2
100
AcDbProxyObject
 90
      499
 91
      511
 93
      113
310
904313A3200400000000000000406B
 94
        0
1001
ACAD
1000
AcadProxyRoundTripData
1071
      507
1071
   655383
1070
     0
  0
ACAD_PROXY_OBJECT
  5
26A5
102
{ACAD_REACTORS
330
26A2
102
}
330
26A2
100
AcDbProxyObject
 90
      499
 91
      511
 93
      113
310
904313A3400400000000000010406B
 94
        0
1001
ACAD
1000
AcadProxyRoundTripData
1071
      507
1071
   655383
1070
     0
  0
ACAD_PROXY_OBJECT
  5
26A6
102
{ACAD_REACTORS
330
26A2
102
}
330
26A2
100
AcDbProxyObject
 90
      499
 91
      511
 93
      113
310
904313A3500400000000000014406B
 94
        0
1001
ACAD
1000
AcadProxyRoundTripData
1071
      507
1071
   655383
1070
     0
  0
ACAD_PROXY_OBJECT
  5
26A7
102
{ACAD_REACTORS
330
26A2
102
}
330
26A2
100
AcDbProxyObject
 90
      499
 91
      511
 93
      113
310
904313A3800400000000000020406B
 94
        0
1001
ACAD
1000
AcadProxyRoundTripData
1071
      507
1071
   655383
1070
     0
  0
ACAD_PROXY_OBJECT
  5
26A8
102
{ACAD_REACTORS
330
26A2
102
}
330
26A2
100
AcDbProxyObject
 90
      499
 91
      511
 93
      121
310
905313A3130004000000000000244051
 94
        0
1001
ACAD
1000
AcadProxyRoundTripData
1071
      507
1071
   655383
1070
     0
  0
ACAD_PROXY_OBJECT
  5
26A9
102
{ACAD_REACTORS
330
26A2
102
}
330
26A2
100
AcDbProxyObject
 90
      499
 91
      511
 93
      121
310
905313A3136004000000000000304051
 94
        0
1001
ACAD
1000
AcadProxyRoundTripData
1071
      507
1071
   655383
1070
     0
  0
ACAD_PROXY_OBJECT
  5
26AA
102
{ACAD_REACTORS
330
26A2
102
}
330
26A2
100
AcDbProxyObject
 90
      499
 91
      511
 93
      121
310
905313A3230004000000000000344051
 94
        0
1001
ACAD
1000
AcadProxyRoundTripData
1071
      507
1071
   655383
1070
     0
  0
ACAD_PROXY_OBJECT
  5
26AB
102
{ACAD_REACTORS
330
26A2
102
}
330
26A2
100
AcDbProxyObject
 90
      499
 91
      511
 93
      121
310
905313A33300040000000000003E4051
 94
        0
1001
ACAD
1000
AcadProxyRoundTripData
1071
      507
1071
   655383
1070
     0
  0
ACAD_PROXY_OBJECT
  5
26AC
102
{ACAD_REACTORS
330
26A2
102
}
330
26A2
100
AcDbProxyObject
 90
      499
 91
      511
 93
      121
310
905313A3430004000000000000444051
 94
        0
1001
ACAD
1000
AcadProxyRoundTripData
1071
      507
1071
   655383
1070
     0
  0
ACAD_PROXY_OBJECT
  5
26AD
102
{ACAD_REACTORS
330
26A2
102
}
330
26A2
100
AcDbProxyObject
 90
      499
 91
      511
 93
      121
310
905313A3530004000000000000494051
 94
        0
1001
ACAD
1000
AcadProxyRoundTripData
1071
      507
1071
   655383
1070
     0
  0
ACAD_PROXY_OBJECT
  5
26AE
102
{ACAD_REACTORS
330
26A2
102
}
330
26A2
100
AcDbProxyObject
 90
      499
 91
      511
 93
      129
310
906313A313030004000000000000594038
 94
        0
1001
ACAD
1000
AcadProxyRoundTripData
1071
      507
1071
   655383
1070
     0
  0
ACAD_PROXY_OBJECT
  5
26AF
102
{ACAD_REACTORS
330
26A2
102
}
330
26A2
100
AcDbProxyObject
 90
      499
 91
      511
 93
      113
310
904323A31000000000000000010159
 94
        0
1001
ACAD
1000
AcadProxyRoundTripData
1071
      507
1071
   655383
1070
     0
  0
ACAD_PROXY_OBJECT
  5
26B0
102
{ACAD_REACTORS
330
26A2
102
}
330
26A2
100
AcDbProxyObject
 90
      499
 91
      511
 93
      113
310
904343A31000000000000000410159
 94
        0
1001
ACAD
1000
AcadProxyRoundTripData
1071
      507
1071
   655383
1070
     0
  0
ACAD_PROXY_OBJECT
  5
26B1
102
{ACAD_REACTORS
330
26A2
102
}
330
26A2
100
AcDbProxyObject
 90
      499
 91
      511
 93
      113
310
904383A31000000000000000810159
 94
        0
1001
ACAD
1000
AcadProxyRoundTripData
1071
      507
1071
   655383
1070
     0
  0
ACAD_PROXY_OBJECT
  5
26B2
102
{ACAD_REACTORS
330
26A2
102
}
330
26A2
100
AcDbProxyObject
 90
      499
 91
      511
 93
      121
310
90531303A31000000000000000910140
 94
        0
1001
ACAD
1000
AcadProxyRoundTripData
1071
      507
1071
   655383
1070
     0
  0
ACAD_PROXY_OBJECT
  5
26B3
102
{ACAD_REACTORS
330
26A2
102
}
330
26A2
100
AcDbProxyObject
 90
      499
 91
      511
 93
      129
310
9063130303A31000000000000001650138
 94
        0
1001
ACAD
1000
AcadProxyRoundTripData
1071
      507
1071
   655383
1070
     0
  0
ACAD_PROXY_OBJECT
  5
26B4
102
{ACAD_REACTORS
330
26A2
102
}
330
26A2
100
AcDbProxyObject
 90
      499
 91
      511
 93
      265
310
90F312F31323822203D2031272D302200000000000000200FC00000000000028402B
 94
        0
1001
ACAD
1000
AcadProxyRoundTripData
1071
      507
1071
   655383
1070
     0
  0
ACAD_PROXY_OBJECT
  5
26B5
102
{ACAD_REACTORS
330
26A2
102
}
330
26A2
100
AcDbProxyObject
 90
      499
 91
      511
 93
      257
310
90E312F363422203D2031272D302200000000000000240FC000000000000284040
 94
        0
1001
ACAD
1000
AcadProxyRoundTripData
1071
      507
1071
   655383
1070
     0
  0
ACAD_PROXY_OBJECT
  5
26B6
102
{ACAD_REACTORS
330
26A2
102
}
330
26A2
100
AcDbProxyObject
 90
      499
 91
      511
 93
      257
310
90E312F333222203D2031272D302200000000000000280FC000000000000284040
 94
        0
1001
ACAD
1000
AcadProxyRoundTripData
1071
      507
1071
   655383
1070
     0
  0
ACAD_PROXY_OBJECT
  5
26B7
102
{ACAD_REACTORS
330
26A2
102
}
330
26A2
100
AcDbProxyObject
 90
      499
 91
      511
 93
      257
310
90E312F313622203D2031272D3022000000000000002C0FC000000000000284040
 94
        0
1001
ACAD
1000
AcadProxyRoundTripData
1071
      507
1071
   655383
1070
     0
  0
ACAD_PROXY_OBJECT
  5
26B8
102
{ACAD_REACTORS
330
26A2
102
}
330
26A2
100
AcDbProxyObject
 90
      499
 91
      511
 93
      257
310
90E332F333222203D2031272D3022000000000000002E0FC000000000000284040
 94
        0
1001
ACAD
1000
AcadProxyRoundTripData
1071
      507
1071
   655383
1070
     0
  0
ACAD_PROXY_OBJECT
  5
26B9
102
{ACAD_REACTORS
330
26A2
102
}
330
26A2
100
AcDbProxyObject
 90
      499
 91
      511
 93
      249
310
90D312F3822203D2031272D302200000000000000300FC000000000000284040
 94
        0
1001
ACAD
1000
AcadProxyRoundTripData
1071
      507
1071
   655383
1070
     0
  0
ACAD_PROXY_OBJECT
  5
26BA
102
{ACAD_REACTORS
330
26A2
102
}
330
26A2
100
AcDbProxyObject
 90
      499
 91
      511
 93
      257
310
90E332F313622203D2031272D302200000000000000320FC000000000000284040
 94
        0
1001
ACAD
1000
AcadProxyRoundTripData
1071
      507
1071
   655383
1070
     0
  0
ACAD_PROXY_OBJECT
  5
26BB
102
{ACAD_REACTORS
330
26A2
102
}
330
26A2
100
AcDbProxyObject
 90
      499
 91
      511
 93
      249
310
90D312F3422203D2031272D302200000000000000340FC000000000000284040
 94
        0
1001
ACAD
1000
AcadProxyRoundTripData
1071
      507
1071
   655383
1070
     0
  0
ACAD_PROXY_OBJECT
  5
26BC
102
{ACAD_REACTORS
330
26A2
102
}
330
26A2
100
AcDbProxyObject
 90
      499
 91
      511
 93
      249
310
90D332F3822203D2031272D302200000000000000360FC000000000000284040
 94
        0
1001
ACAD
1000
AcadProxyRoundTripData
1071
      507
1071
   655383
1070
     0
  0
ACAD_PROXY_OBJECT
  5
26BD
102
{ACAD_REACTORS
330
26A2
102
}
330
26A2
100
AcDbProxyObject
 90
      499
 91
      511
 93
      249
310
90D312F3222203D2031272D302200000000000000380FC000000000000284040
 94
        0
1001
ACAD
1000
AcadProxyRoundTripData
1071
      507
1071
   655383
1070
     0
  0
ACAD_PROXY_OBJECT
  5
26BE
102
{ACAD_REACTORS
330
26A2
102
}
330
26A2
100
AcDbProxyObject
 90
      499
 91
      511
 93
      249
310
90D332F3422203D2031272D3022000000000000003A0FC000000000000284040
 94
        0
1001
ACAD
1000
AcadProxyRoundTripData
1071
      507
1071
   655383
1070
     0
  0
ACAD_PROXY_OBJECT
  5
26BF
102
{ACAD_REACTORS
330
26A2
102
}
330
26A2
100
AcDbProxyObject
 90
      499
 91
      511
 93
      169
310
90B3122203D2031272D3022004000000000000284020
 94
        0
1001
ACAD
1000
AcadProxyRoundTripData
1071
      507
1071
   655383
1070
     0
  0
ACAD_PROXY_OBJECT
  5
26C0
102
{ACAD_REACTORS
330
26A2
102
}
330
26A2
100
AcDbProxyObject
 90
      499
 91
      511
 93
      265
310
90F312D312F3222203D2031272D3022000000000000003E0FC00000000000028402B
 94
        0
1001
ACAD
1000
AcadProxyRoundTripData
1071
      507
1071
   655383
1070
     0
  0
ACAD_PROXY_OBJECT
  5
26C1
102
{ACAD_REACTORS
330
26A2
102
}
330
26A2
100
AcDbProxyObject
 90
      499
 91
      511
 93
      233
310
90B3322203D2031272D30220000000000000002100000000000000284000
 94
        0
1001
ACAD
1000
AcadProxyRoundTripData
1071
      507
1071
   655383
1070
     0
  0
ACAD_PROXY_OBJECT
  5
26C2
102
{ACAD_REACTORS
330
26A2
102
}
330
26A2
100
AcDbProxyObject
 90
      499
 91
      511
 93
      233
310
90B3622203D2031272D30220000000000000006100000000000000284000
 94
        0
1001
ACAD
1000
AcadProxyRoundTripData
1071
      507
1071
   655383
1070
     0
  0
ACAD_PROXY_OBJECT
  5
26C3
102
{ACAD_REACTORS
330
26A2
102
}
330
26A2
100
AcDbProxyObject
 90
      499
 91
      511
 93
      257
310
90E31272D3022203D2031272D3022000000000000000A100000000000000284040
 94
        0
1001
ACAD
1000
AcadProxyRoundTripData
1071
      507
1071
   655383
1070
     0
  0
ACAD_PROXY_OBJECT
  5
26A1
102
{ACAD_XDICTIONARY
360
26F8
102
}
102
{ACAD_REACTORS
330
26A0
102
}
330
26A0
100
AcDbProxyObject
 90
      499
 91
      511
 93
     1849
310
4254DD185B99185C990028B81E85EB51B8AE3F2E07A17AD46E2B8FC02B5E8DC0F42B1CFD028000000C1008070000C3001FDFF8000000C1003FBFF000000182007F7FE00000030400FEFFC00000060801FDFF8000000C1003FBFF00000018200000000000000681FA0B0000001820100E000186003FBFF000000182007F7FE0
310
0000030400FEFFC00000060801FDFF8000000C1003FBFF000000182007F7FE000000304000AD7A3703D0AC73F4160000003040201C00030C007F7FE00000030400FEFFC00000060801FDFF8000000C1003FBFF000000182007F7FE00000030400FEFFC000000608041
340
16
340
16
340
16
 94
        0
1001
ACAD
1000
AcadProxyRoundTripData
1071
      506
1071
   655383
1070
     0
  0
ACAD_PROXY_OBJECT
  5
2694
102
{ACAD_REACTORS
330
268E
102
}
330
268E
100
AcDbProxyObject
 90
      499
 91
      511
 93
      444
310
430C9915DA5C99599C985B59401049028333333333333E3BF0000000000000FB0107901411070040501600405405064090741402480A0340
 94
        0
1001
ACAD
1000
AcDbSavedByObjectVersion
1070
     0
1000
AcadProxyRoundTripData
1071
      505
1071
   655383
1070
     0
  0
ACAD_PROXY_OBJECT
  5
2696
102
{ACAD_REACTORS
330
268E
102
}
330
268E
100
AcDbProxyObject
 90
      499
 91
      511
 93
      508
310
428CD108121A5919195B8010640502408333333333333E3BF0000000000000FB01079024090700405020000000000001110200405405064090740C02480A0340
 94
        0
1001
ACAD
1000
AcDbSavedByObjectVersion
1070
     0
1000
AcadProxyRoundTripData
1071
      505
1071
   655383
1070
     0
  0
ACAD_PROXY_OBJECT
  5
2695
102
{ACAD_REACTORS
330
268E
102
}
330
268E
100
AcDbProxyObject
 90
      499
 91
      511
 93
      444
310
430CD915DA5C99599C985B59401059028333333333333E3BF0000000000000FB0107901411070040501600405405064090741402480A0340
 94
        0
1001
ACAD
1000
AcDbSavedByObjectVersion
1070
     0
1000
AcadProxyRoundTripData
1071
      505
1071
   655383
1070
     0
  0
ACAD_PROXY_OBJECT
  5
2693
102
{ACAD_REACTORS
330
268E
102
}
330
268E
100
AcDbProxyObject
 90
      499
 91
      511
 93
      396
310
4190985CDA58C0107406404333333333333E3BF0000000000000FB0107A41107004050150841D405064090741402480A0356
 94
        0
1001
ACAD
1000
AcDbSavedByObjectVersion
1070
     0
1000
AcadProxyRoundTripData
1071
      505
1071
   655383
1070
     0
  0
ACAD_PROXY_OBJECT
  5
269A
102
{ACAD_REACTORS
330
268E
102
}
330
268E
100
AcDbProxyObject
 90
      499
 91
      511
 93
      436
310
42509C9A59DA1D195B8010C409028333333333333E3BF0000000000000FB010790141107004050150841D405064090741402480A029956
 94
        0
1001
ACAD
1000
AcDbSavedByObjectVersion
1070
     0
1000
AcadProxyRoundTripData
1071
      505
1071
   655383
1070
     0
  0
ACAD_PROXY_OBJECT
  5
269E
102
{ACAD_REACTORS
330
268E
102
}
330
268E
100
AcDbProxyObject
 90
      499
 91
      511
 93
      460
310
4310DBDB1BDC90DA185B99D9401104090240C333333333333E3BF0000000000000FB0108901411070040501508421405064090741402480A0354
 94
        0
1001
ACAD
1000
AcDbSavedByObjectVersion
1070
     0
1000
AcadProxyRoundTripData
1071
      505
1071
   655383
1070
     0
  0
ACAD_PROXY_OBJECT
  5
2697
102
{ACAD_REACTORS
330
268E
102
}
330
268E
100
AcDbProxyObject
 90
      499
 91
      511
 93
      508
310
42D0DBDB98D95C1D1D585B0010940D028333333333333E3BF0000000000000FB0107902409070040501000000000000111010841D405064090740C02480A0340
 94
        0
1001
ACAD
1000
AcDbSavedByObjectVersion
1070
     0
1000
AcadProxyRoundTripData
1071
      505
1071
   655383
1070
     0
  0
ACAD_PROXY_OBJECT
  5
2699
102
{ACAD_REACTORS
330
268E
102
}
330
268E
100
AcDbProxyObject
 90
      499
 91
      511
 93
      420
310
41111A5B4010B409028333333333333E3BF0000000000000FB010790141107004050150841D405064090741402480A02677FFFFFDB
 94
        0
1001
ACAD
1000
AcDbSavedByObjectVersion
1070
     0
1000
AcadProxyRoundTripData
1071
      505
1071
   655383
1070
     0
  0
ACAD_PROXY_OBJECT
  5
269D
102
{ACAD_REACTORS
330
268E
102
}
330
268E
100
AcDbProxyObject
 90
      499
 91
      511
 93
      452
310
43119858D95C185D1D195C9B8010F409028333333333333E3BF0000000000000FB010790141107004050150841D405064090741402480A0350
 94
        0
1001
ACAD
1000
AcDbSavedByObjectVersion
1070
     0
1000
AcadProxyRoundTripData
1071
      505
1071
   655383
1070
     0
  0
ACAD_PROXY_OBJECT
  5
268F
102
{ACAD_REACTORS
330
268E
102
}
330
268E
100
AcDbProxyObject
 90
      499
 91
      511
 93
      396
310
41519B185D00240901404333333333333E3BF0000000000000F9010740A41107004050150841D405064090741402480A1B55
 94
        0
1001
ACAD
1000
AcDbSavedByObjectVersion
1070
     0
1000
AcadProxyRoundTripData
1071
      505
1071
   655383
1070
     0
  0
ACAD_PROXY_OBJECT
  5
2690
102
{ACAD_REACTORS
330
268E
102
}
330
268E
100
AcDbProxyObject
 90
      499
 91
      511
 93
      484
310
43919B185D15DA5D1A115919D95CC010140901404333333333333E3BF0000000000000F9010740901411070040501600405405064090741402480A1B50
 94
        0
1001
ACAD
1000
AcDbSavedByObjectVersion
1070
     0
1000
AcadProxyRoundTripData
1071
      505
1071
   655383
1070
     0
  0
ACAD_PROXY_OBJECT
  5
2691
102
{ACAD_REACTORS
330
268E
102
}
330
268E
100
AcDbProxyObject
 90
      499
 91
      511
 93
      420
310
4211DBDD5C985D590010240902404333333333333E3BF0000000000000F9010740A411070040501641D405064090741402480A1B50
 94
        0
1001
ACAD
1000
AcDbSavedByObjectVersion
1070
     0
1000
AcadProxyRoundTripData
1071
      505
1071
   655383
1070
     0
  0
ACAD_PROXY_OBJECT
  5
2692
102
{ACAD_REACTORS
330
268E
102
}
330
268E
100
AcDbProxyObject
 90
      499
 91
      511
 93
      508
310
4451DBDD5C985D5915DA5D1A115919D95CC010340902404333333333333E3BF0000000000000F9010740901411070040501600405405064090741402480A1B50
 94
        0
1001
ACAD
1000
AcDbSavedByObjectVersion
1070
     0
1000
AcadProxyRoundTripData
1071
      505
1071
   655383
1070
     0
  0
ACAD_PROXY_OBJECT
  5
269C
102
{ACAD_REACTORS
330
268E
102
}
330
268E
100
AcDbProxyObject
 90
      499
 91
      511
 93
      452
310
43131A5B995C185D1D195C9B8010E409028333333333333E3BF0000000000000FB010790141107004050750841D405064090741402483A0350
 94
        0
1001
ACAD
1000
AcDbSavedByObjectVersion
1070
     0
1000
AcadProxyRoundTripData
1071
      505
1071
   655383
1070
     0
  0
ACAD_PROXY_OBJECT
  5
2698
102
{ACAD_REACTORS
330
268E
102
}
330
268E
100
AcDbProxyObject
 90
      499
 91
      511
 93
      428
310
429499585B1A5CDD1A58C0108409028333333333333E3BF0000000000000FB01079019070040501508421405064090741402480A1B45
 94
        0
1001
ACAD
1000
AcDbSavedByObjectVersion
1070
     0
1000
AcadProxyRoundTripData
1071
      505
1071
   655383
1070
     0
  0
ACAD_PROXY_OBJECT
  5
269B
102
{ACAD_REACTORS
330
268E
102
}
330
268E
100
AcDbProxyObject
 90
      499
 91
      511
 93
      420
310
42151A1A58DAD95B8010D409028333333333333E3BF0000000000000FB010790141107004050150C41D405064090741402480A0352
 94
        0
1001
ACAD
1000
AcDbSavedByObjectVersion
1070
     0
1000
AcadProxyRoundTripData
1071
      505
1071
   655383
1070
     0
  0
XRECORD
  5
2767
102
{ACAD_REACTORS
330
275D
102
}
330
275D
100
AcDbXrecord
 90
        0
  0
XRECORD
  5
276B
102
{ACAD_REACTORS
330
275D
102
}
330
275D
100
AcDbXrecord
1000
DSTYLE
1002
{
1070
   179
 70
     2
1070
   277
 70
     6
1002
}
  0
XRECORD
  5
2768
102
{ACAD_REACTORS
330
275D
102
}
330
275D
100
AcDbXrecord
  1
{6385560B-F4B1-4644-A7C2-A3E32AC3D232}
  0
XRECORD
  5
2760
102
{ACAD_REACTORS
330
275D
102
}
330
275D
100
AcDbXrecord
  1

  0
XRECORD
  5
2766
102
{ACAD_REACTORS
330
275D
102
}
330
275D
100
AcDbXrecord
 90
        0
  0
XRECORD
  5
2762
102
{ACAD_REACTORS
330
275D
102
}
330
275D
100
AcDbXrecord
340
61
  0
XRECORD
  5
2765
102
{ACAD_REACTORS
330
275D
102
}
330
275D
100
AcDbXrecord
 90
    10781
  0
XRECORD
  5
2763
102
{ACAD_REACTORS
330
275D
102
}
330
275D
100
AcDbXrecord
340
77
  0
XRECORD
  5
2764
102
{ACAD_REACTORS
330
275D
102
}
330
275D
100
AcDbXrecord
340
6
  0
XRECORD
  5
276A
102
{ACAD_REACTORS
330
275D
102
}
330
275D
100
AcDbXrecord
 40
0.0
  0
XRECORD
  5
276E
102
{ACAD_REACTORS
330
275D
102
}
330
275D
100
AcDbXrecord
340
0
  0
XRECORD
  5
2774
102
{ACAD_REACTORS
330
275D
102
}
330
275D
100
AcDbXrecord
 10
0.0
 20
0.0
 30
0.0
  0
XRECORD
  5
2770
102
{ACAD_REACTORS
330
275D
102
}
330
275D
100
AcDbXrecord
 10
0.0
 20
0.0
 30
0.0
  0
XRECORD
  5
2773
102
{ACAD_REACTORS
330
275D
102
}
330
275D
100
AcDbXrecord
 10
0.0
 20
0.0
 30
0.0
  0
XRECORD
  5
2771
102
{ACAD_REACTORS
330
275D
102
}
330
275D
100
AcDbXrecord
 10
0.0
 20
0.0
 30
0.0
  0
XRECORD
  5
2772
102
{ACAD_REACTORS
330
275D
102
}
330
275D
100
AcDbXrecord
 10
0.0
 20
0.0
 30
0.0
  0
XRECORD
  5
276F
102
{ACAD_REACTORS
330
275D
102
}
330
275D
100
AcDbXrecord
 10
0.0
 20
0.0
 30
0.0
  0
XRECORD
  5
276C
102
{ACAD_REACTORS
330
275D
102
}
330
275D
100
AcDbXrecord
340
0
  0
XRECORD
  5
276D
102
{ACAD_REACTORS
330
275D
102
}
330
275D
100
AcDbXrecord
 70
     0
  0
XRECORD
  5
2761
102
{ACAD_REACTORS
330
275D
102
}
330
275D
100
AcDbXrecord
  1
Sekkei.ctb
  0
XRECORD
  5
275E
102
{ACAD_REACTORS
330
275D
102
}
330
275D
100
AcDbXrecord
 90
        1
  0
XRECORD
  5
275F
102
{ACAD_REACTORS
330
275D
102
}
330
275D
100
AcDbXrecord
 90
       70
  0
XRECORD
  5
2777
102
{ACAD_REACTORS
330
275D
102
}
330
275D
100
AcDbXrecord
340
0
  0
XRECORD
  5
277D
102
{ACAD_REACTORS
330
275D
102
}
330
275D
100
AcDbXrecord
 10
0.0
 20
0.0
 30
0.0
  0
XRECORD
  5
2779
102
{ACAD_REACTORS
330
275D
102
}
330
275D
100
AcDbXrecord
 10
0.0
 20
0.0
 30
0.0
  0
XRECORD
  5
277C
102
{ACAD_REACTORS
330
275D
102
}
330
275D
100
AcDbXrecord
 10
0.0
 20
0.0
 30
0.0
  0
XRECORD
  5
277A
102
{ACAD_REACTORS
330
275D
102
}
330
275D
100
AcDbXrecord
 10
0.0
 20
0.0
 30
0.0
  0
XRECORD
  5
277B
102
{ACAD_REACTORS
330
275D
102
}
330
275D
100
AcDbXrecord
 10
0.0
 20
0.0
 30
0.0
  0
XRECORD
  5
2778
102
{ACAD_REACTORS
330
275D
102
}
330
275D
100
AcDbXrecord
 10
0.0
 20
0.0
 30
0.0
  0
XRECORD
  5
2775
102
{ACAD_REACTORS
330
275D
102
}
330
275D
100
AcDbXrecord
340
0
  0
XRECORD
  5
2776
102
{ACAD_REACTORS
330
275D
102
}
330
275D
100
AcDbXrecord
 70
     0
  0
XRECORD
  5
2769
102
{ACAD_REACTORS
330
275D
102
}
330
275D
100
AcDbXrecord
  1
{60CEE87F-2E48-459B-AAB4-FD12F51DF093}
  0
DICTIONARYVAR
  5
271A
102
{ACAD_REACTORS
330
102
102
}
330
102
100
DictionaryVariables
280
     0
  1
1:1
  0
DICTIONARYVAR
  5
2719
102
{ACAD_REACTORS
330
102
102
}
330
102
100
DictionaryVariables
280
     0
  1
STANDARD
  0
DICTIONARYVAR
  5
2718
102
{ACAD_REACTORS
330
102
102
}
330
102
100
DictionaryVariables
280
     0
  1
STANDARD
  0
DICTIONARYVAR
  5
103
102
{ACAD_REACTORS
330
102
102
}
330
102
100
DictionaryVariables
280
     0
  1
1
  0
DICTIONARYVAR
  5
271B
102
{ACAD_REACTORS
330
102
102
}
330
102
100
DictionaryVariables
280
     0
  1
0
  0
DICTIONARYVAR
  5
549
102
{ACAD_REACTORS
330
102
102
}
330
102
100
DictionaryVariables
280
     0
  1
96
  0
DICTIONARY
  5
267F
330
267E
100
AcDbDictionary
280
     1
  3
ACAD_XREC_ROUNDTRIP
360
2742
  3
BUMPTILE
360
2681
  3
DIFFUSETILE
360
2680
  3
OPACITYTILE
360
2684
  3
REFLECTIONTILE
360
2683
  3
REFRACTIONTILE
360
2685
  3
SPECULARTILE
360
2682
  0
DICTIONARY
  5
2677
330
2676
100
AcDbDictionary
280
     1
  3
ACAD_XREC_ROUNDTRIP
360
2741
  3
BUMPTILE
360
2679
  3
DIFFUSETILE
360
2678
  3
OPACITYTILE
360
267C
  3
REFLECTIONTILE
360
267B
  3
REFRACTIONTILE
360
267D
  3
SPECULARTILE
360
267A
  0
DICTIONARY
  5
2687
330
2686
100
AcDbDictionary
280
     1
  3
ACAD_XREC_ROUNDTRIP
360
2743
  3
BUMPTILE
360
2689
  3
DIFFUSETILE
360
2688
  3
OPACITYTILE
360
268C
  3
REFLECTIONTILE
360
268B
  3
REFRACTIONTILE
360
268D
  3
SPECULARTILE
360
268A
  0
DICTIONARY
  5
26F8
330
26A1
100
AcDbDictionary
280
     1
  3
ACAD_ROUNDTRIP_2008_TABLES
360
2729
  3
ACAD_XREC_ROUNDTRIP
360
2744
  0
XRECORD
  5
2742
102
{ACAD_REACTORS
330
267F
102
}
330
267F
100
AcDbXrecord
102
MATERIAL
148
0.0
149
0.0
149
0.0
 93
        0
 94
      127
282
     0
 72
     0
 77
     0
171
     0
175
     0
179
     0
273
     0
  0
XRECORD
  5
2681
102
{ACAD_REACTORS
330
267F
102
}
330
267F
100
AcDbXrecord
270
     1
271
     1
  0
XRECORD
  5
2680
102
{ACAD_REACTORS
330
267F
102
}
330
267F
100
AcDbXrecord
270
     1
271
     1
  0
XRECORD
  5
2684
102
{ACAD_REACTORS
330
267F
102
}
330
267F
100
AcDbXrecord
270
     1
271
     1
  0
XRECORD
  5
2683
102
{ACAD_REACTORS
330
267F
102
}
330
267F
100
AcDbXrecord
270
     1
271
     1
  0
XRECORD
  5
2685
102
{ACAD_REACTORS
330
267F
102
}
330
267F
100
AcDbXrecord
270
     1
271
     1
  0
XRECORD
  5
2682
102
{ACAD_REACTORS
330
267F
102
}
330
267F
100
AcDbXrecord
270
     1
271
     1
  0
XRECORD
  5
2741
102
{ACAD_REACTORS
330
2677
102
}
330
2677
100
AcDbXrecord
102
MATERIAL
148
0.0
149
0.0
149
0.0
 93
        0
 94
      127
282
     0
 72
     0
 77
     0
171
     0
175
     0
179
     0
273
     0
  0
XRECORD
  5
2679
102
{ACAD_REACTORS
330
2677
102
}
330
2677
100
AcDbXrecord
270
     1
271
     1
  0
XRECORD
  5
2678
102
{ACAD_REACTORS
330
2677
102
}
330
2677
100
AcDbXrecord
270
     1
271
     1
  0
XRECORD
  5
267C
102
{ACAD_REACTORS
330
2677
102
}
330
2677
100
AcDbXrecord
270
     1
271
     1
  0
XRECORD
  5
267B
102
{ACAD_REACTORS
330
2677
102
}
330
2677
100
AcDbXrecord
270
     1
271
     1
  0
XRECORD
  5
267D
102
{ACAD_REACTORS
330
2677
102
}
330
2677
100
AcDbXrecord
270
     1
271
     1
  0
XRECORD
  5
267A
102
{ACAD_REACTORS
330
2677
102
}
330
2677
100
AcDbXrecord
270
     1
271
     1
  0
XRECORD
  5
2743
102
{ACAD_REACTORS
330
2687
102
}
330
2687
100
AcDbXrecord
102
MATERIAL
148
0.0
149
0.0
149
0.0
 93
        0
 94
      127
282
     0
 72
     0
 77
     0
171
     0
175
     0
179
     0
273
     0
  0
XRECORD
  5
2689
102
{ACAD_REACTORS
330
2687
102
}
330
2687
100
AcDbXrecord
270
     1
271
     1
  0
XRECORD
  5
2688
102
{ACAD_REACTORS
330
2687
102
}
330
2687
100
AcDbXrecord
270
     1
271
     1
  0
XRECORD
  5
268C
102
{ACAD_REACTORS
330
2687
102
}
330
2687
100
AcDbXrecord
270
     1
271
     1
  0
XRECORD
  5
268B
102
{ACAD_REACTORS
330
2687
102
}
330
2687
100
AcDbXrecord
270
     1
271
     1
  0
XRECORD
  5
268D
102
{ACAD_REACTORS
330
2687
102
}
330
2687
100
AcDbXrecord
270
     1
271
     1
  0
XRECORD
  5
268A
102
{ACAD_REACTORS
330
2687
102
}
330
2687
100
AcDbXrecord
270
     1
271
     1
  0
ACAD_PROXY_OBJECT
  5
2729
102
{ACAD_REACTORS
330
26F8
102
}
330
26F8
100
AcDbProxyObject
 90
      499
 91
      511
 93
     1044
310
40D054060020000020000003200101A000080002A5058000000C100000000000000340FE901405075F5449544C450041501A8000000C800406800020000A9416000000304000AD7A3703D0AC73FA409014217D2115051115480105406A0000003200101A000080002A5028000000C10002B5E8DC0F42B1CFE903409065F444
310
15441003
340
16
340
16
340
16
 94
        0
1001
ACAD
1000
AcadProxyRoundTripData
1071
      510
1071
   655383
1070
     0
  0
XRECORD
  5
2744
102
{ACAD_REACTORS
330
26F8
102
}
330
26F8
100
AcDbXrecord
102
ACAD_ROUNDTRIP_PRE2007_TABLESTYLE
 90
      512
 91
        0
  1

 92
      512
 93
        0
  2

 94
      512
 95
        0
  3

  0
ENDSEC
  0
EOF
