  0
SECTION
  2
HEADER
  9
$ACADVER
  1
AC1014
  9
$ACADMAINTVER
 70
     9
  9
$DWGCODEPAGE
  3
ANSI_932
  9
$INSBASE
 10
0.0
 20
0.0
 30
0.0
  9
$EXTMIN
 10
17.86246554554099
 20
57.58037930482567
 30
0.0
  9
$EXTMAX
 10
997.9807611735923
 20
464.4776468282848
 30
0.0
  9
$LIMMIN
 10
0.0
 20
0.0
  9
$LIMMAX
 10
297.0
 20
210.0
  9
$ORTHOMODE
 70
     1
  9
$REGENMODE
 70
     1
  9
$FILLMODE
 70
     1
  9
$QTEXTMODE
 70
     0
  9
$MIRRTEXT
 70
     0
  9
$DRAGMODE
 70
     2
  9
$LTSCALE
 40
3.0
  9
$OSMODE
 70
    37
  9
$ATTMODE
 70
     1
  9
$TEXTSIZE
 40
2.0
  9
$TRACEWID
 40
1.0
  9
$TEXTSTYLE
  7
STANDARD
  9
$CLAYER
  8
0
  9
$CELTYPE
  6
BYLAYER
  9
$CECOLOR
 62
   256
  9
$CELTSCALE
 40
1.0
  9
$DELOBJ
 70
     1
  9
$DISPSILH
 70
     0
  9
$DIMSCALE
 40
3.0
  9
$DIMASZ
 40
1.8
  9
$DIMEXO
 40
0.625
  9
$DIMDLI
 40
3.75
  9
$DIMRND
 40
0.0
  9
$DIMDLE
 40
0.0
  9
$DIMEXE
 40
0.8
  9
$DIMTP
 40
0.0
  9
$DIMTM
 40
0.0
  9
$DIMTXT
 40
1.8
  9
$DIMCEN
 40
2.5
  9
$DIMTSZ
 40
0.0
  9
$DIMTOL
 70
     0
  9
$DIMLIM
 70
     0
  9
$DIMTIH
 70
     0
  9
$DIMTOH
 70
     0
  9
$DIMSE1
 70
     0
  9
$DIMSE2
 70
     0
  9
$DIMTAD
 70
     1
  9
$DIMZIN
 70
     8
  9
$DIMBLK
  1

  9
$DIMASO
 70
     1
  9
$DIMSHO
 70
     1
  9
$DIMPOST
  1

  9
$DIMAPOST
  1

  9
$DIMALT
 70
     0
  9
$DIMALTD
 70
     4
  9
$DIMALTF
 40
0.0394
  9
$DIMLFAC
 40
1.0
  9
$DIMTOFL
 70
     1
  9
$DIMTVP
 40
0.0
  9
$DIMTIX
 70
     0
  9
$DIMSOXD
 70
     0
  9
$DIMSAH
 70
     0
  9
$DIMBLK1
  1

  9
$DIMBLK2
  1

  9
$DIMSTYLE
  2
STANDARD
  9
$DIMCLRD
 70
     0
  9
$DIMCLRE
 70
     0
  9
$DIMCLRT
 70
     0
  9
$DIMTFAC
 40
1.0
  9
$DIMGAP
 40
0.75
  9
$DIMJUST
 70
     0
  9
$DIMSD1
 70
     0
  9
$DIMSD2
 70
     0
  9
$DIMTOLJ
 70
     1
  9
$DIMTZIN
 70
     0
  9
$DIMALTZ
 70
     0
  9
$DIMALTTZ
 70
     0
  9
$DIMFIT
 70
     3
  9
$DIMUPT
 70
     0
  9
$DIMUNIT
 70
     8
  9
$DIMDEC
 70
     2
  9
$DIMTDEC
 70
     2
  9
$DIMALTU
 70
     8
  9
$DIMALTTD
 70
     4
  9
$DIMTXSTY
  7
STANDARD
  9
$DIMAUNIT
 70
     0
  9
$LUNITS
 70
     2
  9
$LUPREC
 70
     3
  9
$SKETCHINC
 40
1.0
  9
$FILLETRAD
 40
10.0
  9
$AUNITS
 70
     0
  9
$AUPREC
 70
     2
  9
$MENU
  1
.
  9
$ELEVATION
 40
0.0
  9
$PELEVATION
 40
0.0
  9
$THICKNESS
 40
0.0
  9
$LIMCHECK
 70
     0
  9
$BLIPMODE
 70
     0
  9
$CHAMFERA
 40
0.0
  9
$CHAMFERB
 40
0.0
  9
$CHAMFERC
 40
20.0
  9
$CHAMFERD
 40
0.0
  9
$SKPOLY
 70
     0
  9
$TDCREATE
 40
2454410.727105034
  9
$TDUPDATE
 40
2454425.734009328
  9
$TDINDWG
 40
0.0460205093
  9
$TDUSRTIMER
 40
0.0460205093
  9
$USRTIMER
 70
     1
  9
$ANGBASE
 50
0.0
  9
$ANGDIR
 70
     0
  9
$PDMODE
 70
     0
  9
$PDSIZE
 40
-10.0
  9
$PLINEWID
 40
0.0
  9
$COORDS
 70
     0
  9
$SPLFRAME
 70
     0
  9
$SPLINETYPE
 70
     6
  9
$SPLINESEGS
 70
     8
  9
$ATTDIA
 70
     0
  9
$ATTREQ
 70
     1
  9
$HANDLING
 70
-16383
  9
$HANDSEED
  5
279A
  9
$SURFTAB1
 70
     6
  9
$SURFTAB2
 70
     6
  9
$SURFTYPE
 70
     6
  9
$SURFU
 70
     6
  9
$SURFV
 70
     6
  9
$UCSNAME
  2

  9
$UCSORG
 10
0.0
 20
0.0
 30
0.0
  9
$UCSXDIR
 10
1.0
 20
0.0
 30
0.0
  9
$UCSYDIR
 10
0.0
 20
1.0
 30
0.0
  9
$PUCSNAME
  2

  9
$PUCSORG
 10
0.0
 20
0.0
 30
0.0
  9
$PUCSXDIR
 10
1.0
 20
0.0
 30
0.0
  9
$PUCSYDIR
 10
0.0
 20
1.0
 30
0.0
  9
$USERI1
 70
     0
  9
$USERI2
 70
     0
  9
$USERI3
 70
     0
  9
$USERI4
 70
     0
  9
$USERI5
 70
     0
  9
$USERR1
 40
0.0
  9
$USERR2
 40
0.0
  9
$USERR3
 40
0.0
  9
$USERR4
 40
0.0
  9
$USERR5
 40
0.0
  9
$WORLDVIEW
 70
     1
  9
$SHADEDGE
 70
     3
  9
$SHADEDIF
 70
    70
  9
$TILEMODE
 70
     1
  9
$MAXACTVP
 70
    48
  9
$PINSBASE
 10
0.0
 20
0.0
 30
0.0
  9
$PLIMCHECK
 70
     0
  9
$PEXTMIN
 10
0.0
 20
0.0
 30
0.0
  9
$PEXTMAX
 10
0.0
 20
0.0
 30
0.0
  9
$PLIMMIN
 10
0.0
 20
0.0
  9
$PLIMMAX
 10
12.0
 20
9.0
  9
$UNITMODE
 70
     0
  9
$VISRETAIN
 70
     1
  9
$PLINEGEN
 70
     0
  9
$PSLTSCALE
 70
     1
  9
$TREEDEPTH
 70
  3020
  9
$PICKSTYLE
 70
     1
  9
$CMLSTYLE
  2
STANDARD
  9
$CMLJUST
 70
     0
  9
$CMLSCALE
 40
1.0
  9
$PROXYGRAPHICS
 70
     1
  9
$MEASUREMENT
 70
     0
  0
ENDSEC
  0
SECTION
  2
CLASSES
  0
CLASS
  1
DICTIONARYVAR
  2
AcDbDictionaryVar
  3
AutoCAD 2000
 90
        0
280
     0
281
     0
  0
CLASS
  1
ACDBDICTIONARYWDFLT
  2
AcDbDictionaryWithDefault
  3
AutoCAD 2000
 90
        0
280
     0
281
     0
  0
CLASS
  1
ACDBPLACEHOLDER
  2
AcDbPlaceHolder
  3
AutoCAD 2000
 90
        0
280
     0
281
     0
  0
CLASS
  1
LAYOUT
  2
AcDbLayout
  3
AutoCAD 2000
 90
        0
280
     0
281
     0
  0
CLASS
  1
MATERIAL
  2
AcDbMaterial
  3
ObjectDBX Classes
 90
     1153
280
     0
281
     0
  0
CLASS
  1
VISUALSTYLE
  2
AcDbVisualStyle
  3
ObjectDBX Classes
 90
     4095
280
     0
281
     0
  0
CLASS
  1
TABLESTYLE
  2
AcDbTableStyle
  3
ObjectDBX Classes
 90
     4095
280
     0
281
     0
  0
CLASS
  1
SCALE
  2
AcDbScale
  3
ObjectDBX Classes
 90
     1153
280
     0
281
     0
  0
CLASS
  1
MLEADERSTYLE
  2
AcDbMLeaderStyle
  3
ACDB_MLEADERSTYLE_CLASS
 90
     4095
280
     0
281
     0
  0
CLASS
  1
CELLSTYLEMAP
  2
AcDbCellStyleMap
  3
ObjectDBX Classes
 90
     1152
280
     0
281
     0
  0
CLASS
  1
ACAD_PROXY_OBJECT_WRAPPER
  2
AcDbProxyObjectWrapper
  3
AutoCAD 2000
 90
        0
280
     0
281
     0
  0
CLASS
  1
LONG_TRANSACTION
  2
AcDbLongTransaction
  3
AutoCAD 2000
 90
        0
280
     0
281
     0
  0
CLASS
  1
LWPOLYLINE
  2
AcDbPolyline
  3
AutoCAD 2000
 90
        0
280
     0
281
     1
  0
CLASS
  1
HATCH
  2
AcDbHatch
  3
AutoCAD 2000
 90
        0
280
     0
281
     1
  0
CLASS
  1
XRECORD
  2
AcDbXrecord
  3
AutoCAD 2000
 90
        0
280
     0
281
     0
  0
ENDSEC
  0
SECTION
  2
TABLES
  0
TABLE
  2
VPORT
  5
6E
102
{ACAD_XDICTIONARY
360
1C43
102
}
330
0
100
AcDbSymbolTable
 70
     2
  0
VPORT
  5
2774
330
6E
100
AcDbSymbolTableRecord
100
AcDbViewportTableRecord
  2
*ACTIVE
 70
     0
 10
0.0
 20
0.0
 11
1.0
 21
1.0
 12
577.7691844563214
 22
251.8708295494849
 13
0.0
 23
0.0
 14
10.0
 24
10.0
 15
10.0
 25
10.0
 16
0.0
 26
0.0
 36
1.0
 17
0.0
 27
0.0
 37
0.0
 40
641.522322137683
 41
1.753504672897196
 42
50.0
 43
0.0
 44
0.0
 50
0.0
 51
0.0
 71
     0
 72
   100
 73
     1
 74
     3
 75
     0
 76
     0
 77
     0
 78
     0
  0
ENDTAB
  0
TABLE
  2
LTYPE
  5
69
330
0
100
AcDbSymbolTable
 70
     5
  0
LTYPE
  5
6A
330
69
100
AcDbSymbolTableRecord
100
AcDbLinetypeTableRecord
  2
BYBLOCK
 70
     0
  3

 72
    65
 73
     0
 40
0.0
  0
LTYPE
  5
6B
330
69
100
AcDbSymbolTableRecord
100
AcDbLinetypeTableRecord
  2
BYLAYER
 70
     0
  3

 72
    65
 73
     0
 40
0.0
  0
LTYPE
  5
8
330
69
100
AcDbSymbolTableRecord
100
AcDbLinetypeTableRecord
  2
CONTINUOUS
 70
     0
  3
Solid line
 72
    65
 73
     0
 40
0.0
  0
LTYPE
  5
27C
330
69
100
AcDbSymbolTableRecord
100
AcDbLinetypeTableRecord
  2
SEKKEI_A2_
 70
     0
  3
center(A2)  ____ _ ____ _ ____ _ ____ _ ____ _ 
 72
    65
 73
     4
 40
14.28749999999999
 49
9.525
 74
     0
 49
-1.587499999999999
 74
     0
 49
1.587499999999999
 74
     0
 49
-1.587499999999999
 74
     0
  0
LTYPE
  5
7F0
330
69
100
AcDbSymbolTableRecord
100
AcDbLinetypeTableRecord
  2
HIDDEN3
 70
     0
  3
Hidden (.3x) _ _ _ _ _ _ _ _ _ _ _ _ _ _ _ _ _
 72
    65
 73
     2
 40
2.857499999999999
 49
1.905
 74
     0
 49
-0.9525
 74
     0
  0
LTYPE
  5
ADA
330
69
100
AcDbSymbolTableRecord
100
AcDbLinetypeTableRecord
  2
CENS
 70
     0
  3
(一点鎖線１)---- - ---- - ---- - ---- - ---- - 
 72
    65
 73
     4
 40
7.0
 49
4.0
 74
     0
 49
-1.0
 74
     0
 49
1.0
 74
     0
 49
-1.0
 74
     0
  0
ENDTAB
  0
TABLE
  2
LAYER
  5
66
102
{ACAD_XDICTIONARY
360
ADB
102
}
330
0
100
AcDbSymbolTable
 70
     9
  0
LAYER
  5
5E
102
{ACAD_XDICTIONARY
360
1C02
102
}
330
66
100
AcDbSymbolTableRecord
100
AcDbLayerTableRecord
  2
0
 70
     0
 62
     7
  6
CONTINUOUS
  0
LAYER
  5
3E
102
{ACAD_XDICTIONARY
360
1C04
102
}
330
66
100
AcDbSymbolTableRecord
100
AcDbLayerTableRecord
  2
CENTER
 70
     0
 62
     3
  6
SEKKEI_A2_
  0
LAYER
  5
2B5
102
{ACAD_XDICTIONARY
360
1C0A
102
}
330
66
100
AcDbSymbolTableRecord
100
AcDbLayerTableRecord
  2
HIDS
 70
     0
 62
     1
  6
HIDDEN3
  0
LAYER
  5
2BA
102
{ACAD_XDICTIONARY
360
1C0C
102
}
330
66
100
AcDbSymbolTableRecord
100
AcDbLayerTableRecord
  2
HOJO
 70
     0
 62
     4
  6
CONTINUOUS
  0
LAYER
  5
3FA
102
{ACAD_XDICTIONARY
360
1C10
102
}
330
66
100
AcDbSymbolTableRecord
100
AcDbLayerTableRecord
  2
TITLE
 70
     0
 62
     4
  6
CONTINUOUS
  0
ENDTAB
  0
TABLE
  2
STYLE
  5
67
330
0
100
AcDbSymbolTable
 70
     2
  0
STYLE
  5
16
330
67
100
AcDbSymbolTableRecord
100
AcDbTextStyleTableRecord
  2
STANDARD
 70
     0
 40
0.0
 41
1.0
 50
0.0
 71
     0
 42
2.0
  3
simplex.shx
  4
extfont.shx
  0
ENDTAB
  0
TABLE
  2
VIEW
  5
6C
330
0
100
AcDbSymbolTable
 70
     0
  0
ENDTAB
  0
TABLE
  2
UCS
  5
6D
330
0
100
AcDbSymbolTable
 70
     0
  0
ENDTAB
  0
TABLE
  2
APPID
  5
70
330
0
100
AcDbSymbolTable
 70
     3
  0
APPID
  5
71
330
70
100
AcDbSymbolTableRecord
100
AcDbRegAppTableRecord
  2
ACAD
 70
     0
  0
APPID
  5
1827
330
70
100
AcDbSymbolTableRecord
100
AcDbRegAppTableRecord
  2
ACAD_MLEADERVER
 70
     0
  0
APPID
  5
1C37
330
70
100
AcDbSymbolTableRecord
100
AcDbRegAppTableRecord
  2
ACAD_DSTYLE_DIMRADIAL_EXTENSION
 70
     0
  0
ENDTAB
  0
TABLE
  2
DIMSTYLE
  5
72
330
0
100
AcDbSymbolTable
 70
     1
  0
DIMSTYLE
105
73
330
72
100
AcDbSymbolTableRecord
100
AcDbDimStyleTableRecord
  2
STANDARD
 70
     0
  3

  4

  5

  6

  7

 40
3.0
 41
1.8
 42
0.625
 43
3.75
 44
0.8
 45
0.0
 46
0.0
 47
0.0
 48
0.0
140
1.8
141
2.5
142
0.0
143
0.0394
144
1.0
145
0.0
146
1.0
147
0.75
 71
     0
 72
     0
 73
     0
 74
     0
 75
     0
 76
     0
 77
     1
 78
     8
170
     0
171
     4
172
     1
173
     0
174
     0
175
     0
176
     0
177
     0
178
     0
270
     8
271
     2
272
     2
273
     8
274
     4
340
16
275
     0
280
     0
281
     0
282
     0
283
     1
284
     0
285
     0
286
     0
287
     3
288
     0
  0
ENDTAB
  0
TABLE
  2
BLOCK_RECORD
  5
1
330
0
100
AcDbSymbolTable
 70
    42
  0
BLOCK_RECORD
  5
2
102
{ACAD_XDICTIONARY
360
2796
102
}
330
1
100
AcDbSymbolTableRecord
100
AcDbBlockTableRecord
  2
*MODEL_SPACE
  0
BLOCK_RECORD
  5
276F
102
{ACAD_XDICTIONARY
360
2798
102
}
330
1
100
AcDbSymbolTableRecord
100
AcDbBlockTableRecord
  2
*PAPER_SPACE
  0
ENDTAB
  0
ENDSEC
  0
SECTION
  2
BLOCKS
  0
BLOCK
  5
5D
330
2
100
AcDbEntity
  8
0
100
AcDbBlockBegin
  2
*MODEL_SPACE
 70
     0
 10
0.0
 20
0.0
 30
0.0
  3
*MODEL_SPACE
  1

  0
ENDBLK
  5
5F
330
2
100
AcDbEntity
  8
0
100
AcDbBlockEnd
  0
BLOCK
  5
2771
330
276F
100
AcDbEntity
 67
     1
  8
0
100
AcDbBlockBegin
  2
*PAPER_SPACE
 70
     0
 10
0.0
 20
0.0
 30
0.0
  3
*PAPER_SPACE
  1

  0
ENDBLK
  5
2772
330
276F
100
AcDbEntity
 67
     1
  8
0
100
AcDbBlockEnd
  0
ENDSEC
  0
SECTION
  2
ENTITIES
  0
TEXT
  5
F02
330
2
100
AcDbEntity
  8
TITLE
100
AcDbText
 10
309.0932380036855
 20
406.2483174022362
 30
0.0
 40
7.5
  1
AFCZ18H-3~5M750S1
100
AcDbText
  0
TEXT
  5
F03
330
2
100
AcDbEntity
  8
TITLE
100
AcDbText
 10
309.0932380036855
 20
394.7483174022362
 30
0.0
 40
7.5
  1
AFCZ18H-3~5L750S1
100
AcDbText
  0
LINE
  5
F06
330
2
100
AcDbEntity
  8
CENTER
100
AcDbLine
 10
218.8624655455409
 20
116.580379304818
 30
0.0
 11
17.86246554554099
 21
116.580379304818
 31
0.0
  0
LINE
  5
F0A
330
2
100
AcDbEntity
  8
CENTER
100
AcDbLine
 10
536.7034988437583
 20
411.4776468309496
 30
0.0
 11
737.4984174463286
 21
411.4776468309507
 31
0.0
  0
LINE
  5
F23
330
2
100
AcDbEntity
  8
0
100
AcDbLine
 10
672.4984174507043
 20
158.0803793048243
 30
0.0
 11
672.4984174507043
 21
75.08037930482436
 31
0.0
  0
LINE
  5
F2E
330
2
100
AcDbEntity
  8
0
100
AcDbLine
 10
82.862465545541
 20
75.08037930481757
 30
0.0
 11
82.862465545541
 21
158.0803793048175
 31
0.0
  0
LINE
  5
F43
330
2
100
AcDbEntity
  8
0
100
AcDbLine
 10
672.4984174463299
 20
452.4776468309501
 30
0.0
 11
672.4984174463299
 21
370.4776468309501
 31
0.0
  0
LINE
  5
FDE
330
2
100
AcDbEntity
  8
CENTER
100
AcDbLine
 10
528.498417450707
 20
116.5803793048207
 30
0.0
 11
737.4984174463333
 21
116.5803793048209
 31
0.0
  0
LINE
  5
11EE
330
2
100
AcDbEntity
  8
CENTER
100
AcDbLine
 10
997.9807611735923
 20
116.5803793048023
 30
0.0
 11
839.9804856188719
 21
116.5803793048023
 31
0.0
  0
LINE
  5
11EF
330
2
100
AcDbEntity
  8
CENTER
100
AcDbLine
 10
942.9804856188805
 20
168.0803793048173
 30
0.0
 11
942.9804856188805
 21
65.08037930481825
 31
0.0
  0
LINE
  5
11F0
330
2
100
AcDbEntity
  8
0
100
AcDbLine
 10
899.9804856188768
 20
156.9956791628362
 30
0.0
 11
899.9804856188751
 21
76.16507944677161
 31
0.0
  0
LINE
  5
11F1
330
2
100
AcDbEntity
  8
0
100
AcDbLine
 10
894.9804856188777
 20
151.5803793047973
 30
0.0
 11
894.9804856188777
 21
81.58037930479734
 31
0.0
  0
LINE
  5
11F2
330
2
100
AcDbEntity
  8
0
100
AcDbLine
 10
893.0502846122829
 20
144.9669452037653
 30
0.0
 11
883.9106866254736
 21
144.6477834092213
 31
0.0
  0
ARC
  5
11F3
330
2
100
AcDbEntity
  8
0
100
AcDbCircle
 10
892.9804856188777
 20
146.9657268578032
 30
0.0
 40
2.0
100
AcDbArc
 50
272.0000000000036
 51
0.0
  0
LINE
  5
11F4
330
2
100
AcDbEntity
  8
0
100
AcDbLine
 10
881.9804856188795
 20
142.6490017551825
 30
0.0
 11
881.9804856188778
 21
90.51175685441213
 31
0.0
  0
ARC
  5
11F5
330
2
100
AcDbEntity
  8
0
100
AcDbCircle
 10
883.9804856188777
 20
142.6490017551825
 30
0.0
 40
2.0
100
AcDbArc
 50
92.00000000000365
 51
180.0
  0
ARC
  5
11F6
330
2
100
AcDbEntity
  8
0
100
AcDbCircle
 10
883.9804856188777
 20
90.51175685441213
 30
0.0
 40
2.0
100
AcDbArc
 50
180.0
 51
267.9999999999963
  0
LINE
  5
11F7
330
2
100
AcDbEntity
  8
0
100
AcDbLine
 10
893.0502846122829
 20
88.19381340582841
 30
0.0
 11
883.9106866254725
 21
88.51297520037334
 31
0.0
  0
ARC
  5
11F8
330
2
100
AcDbEntity
  8
0
100
AcDbCircle
 10
892.9804856188777
 20
86.19503175178962
 30
0.0
 40
2.0
100
AcDbArc
 50
0.0
 51
87.99999999999636
  0
LINE
  5
11F9
330
2
100
AcDbEntity
  8
0
100
AcDbLine
 10
979.0414566949641
 20
75.52014724477086
 30
0.0
 11
942.9804856188795
 21
75.08037930481825
 31
0.0
  0
LINE
  5
11FA
330
2
100
AcDbEntity
  8
0
100
AcDbLine
 10
906.919514542794
 20
75.52014724477269
 30
0.0
 11
942.9804856188786
 21
75.08037930481825
 31
0.0
  0
LINE
  5
11FB
330
2
100
AcDbEntity
  8
0
100
AcDbLine
 10
906.919514542794
 20
157.6406113648638
 30
0.0
 11
919.167761448052
 21
157.7899802295623
 31
0.0
  0
ARC
  5
11FC
330
2
100
AcDbEntity
  8
0
100
AcDbCircle
 10
978.9804856188796
 20
152.6409831258981
 30
0.0
 40
5.0
100
AcDbArc
 50
44.50893050064553
 51
89.30130561700025
  0
ARC
  5
11FD
330
2
100
AcDbEntity
  8
0
100
AcDbCircle
 10
906.9804856188795
 20
152.6409831258963
 30
0.0
 40
5.0
100
AcDbArc
 50
90.69869438299972
 51
135.4910694994468
  0
ARC
  5
11FE
330
2
100
AcDbEntity
  8
0
100
AcDbCircle
 10
906.9804856188795
 20
80.51977548374017
 30
0.0
 40
5.0
100
AcDbArc
 50
224.5089305157256
 51
269.3013056170002
  0
ARC
  5
11FF
330
2
100
AcDbEntity
  8
0
100
AcDbCircle
 10
978.9804856188796
 20
80.51977548373836
 30
0.0
 40
5.0
100
AcDbArc
 50
270.6986943829997
 51
315.4910694841911
  0
LINE
  5
1200
330
2
100
AcDbEntity
  8
0
100
AcDbLine
 10
979.0414566949641
 20
157.6406113648656
 30
0.0
 11
942.9804856188795
 21
158.0803793048173
 31
0.0
  0
LINE
  5
1201
330
2
100
AcDbEntity
  8
0
100
AcDbLine
 10
904.5963361305323
 20
76.12479752961846
 30
0.0
 11
899.9804856188751
 21
76.16507944677161
 31
0.0
  0
LINE
  5
1202
330
2
100
AcDbEntity
  8
0
100
AcDbLine
 10
904.5963361304869
 20
157.0359610799925
 30
0.0
 11
899.9804856188768
 21
156.9956791628362
 31
0.0
  0
LINE
  5
1203
330
2
100
AcDbEntity
  8
0
100
AcDbLine
 10
899.9804856188777
 20
151.5803793047973
 30
0.0
 11
894.9804856188777
 21
151.5803793047973
 31
0.0
  0
LINE
  5
1204
330
2
100
AcDbEntity
  8
0
100
AcDbLine
 10
899.9804856188777
 20
81.58037930479734
 30
0.0
 11
894.9804856188777
 21
81.58037930479734
 31
0.0
  0
LINE
  5
1205
330
2
100
AcDbEntity
  8
0
100
AcDbLine
 10
984.9804856188724
 20
143.0803793048005
 30
0.0
 11
984.1573148871704
 21
143.0803793048005
 31
0.0
  0
LINE
  5
1206
330
2
100
AcDbEntity
  8
0
100
AcDbLine
 10
984.9804856188713
 20
143.0803793048005
 30
0.0
 11
985.9804856188723
 21
142.5030290356109
 31
0.0
  0
LINE
  5
1207
330
2
100
AcDbEntity
  8
0
100
AcDbLine
 10
985.9804856188759
 20
90.65772957399051
 30
0.0
 11
985.9804856188759
 21
142.5030290356082
 31
0.0
  0
LINE
  5
1208
330
2
100
AcDbEntity
  8
0
100
AcDbLine
 10
984.9804856188713
 20
90.0803793047987
 30
0.0
 11
985.9804856188723
 21
90.65772957398868
 31
0.0
  0
LINE
  5
1209
330
2
100
AcDbEntity
  8
0
100
AcDbLine
 10
984.9804856188724
 20
90.0803793047987
 30
0.0
 11
984.1573148871709
 21
90.08037930479892
 31
0.0
  0
LINE
  5
120A
330
2
100
AcDbEntity
  8
0
100
AcDbLine
 10
984.9804856188724
 20
90.0803793047987
 30
0.0
 11
984.9804856188713
 21
143.0803793048005
 31
0.0
  0
LINE
  5
1211
330
2
100
AcDbEntity
  8
0
100
AcDbLine
 10
681.4984174463299
 20
441.1276468309504
 30
0.0
 11
681.4984174463318
 21
381.8276468309502
 31
0.0
  0
LINE
  5
1212
330
2
100
AcDbEntity
  8
0
100
AcDbLine
 10
703.49841744633
 20
408.4776468309503
 30
0.0
 11
703.49841744633
 21
389.4776468309503
 31
0.0
  0
LINE
  5
1213
330
2
100
AcDbEntity
  8
0
100
AcDbLine
 10
706.4984174463299
 20
411.4776468309503
 30
0.0
 11
714.4984174463282
 21
411.4776468309503
 31
0.0
  0
LINE
  5
1214
330
2
100
AcDbEntity
  8
0
100
AcDbLine
 10
683.1039687217947
 20
451.4776468309503
 30
0.0
 11
727.4984174463281
 21
451.4776468309503
 31
0.0
  0
LINE
  5
1215
330
2
100
AcDbEntity
  8
0
100
AcDbLine
 10
717.4984174463282
 20
446.4776468309503
 30
0.0
 11
717.4984174463282
 21
414.4776468309503
 31
0.0
  0
ARC
  5
1216
330
2
100
AcDbEntity
  8
0
100
AcDbCircle
 10
722.4984174463282
 20
446.4776468309503
 30
0.0
 40
5.0
100
AcDbArc
 50
90.0
 51
180.0
  0
ARC
  5
1217
330
2
100
AcDbEntity
  8
0
100
AcDbCircle
 10
714.4984174463282
 20
414.4776468309503
 30
0.0
 40
3.0
100
AcDbArc
 50
270.0
 51
0.0
  0
LINE
  5
1218
330
2
100
AcDbEntity
  8
0
100
AcDbLine
 10
672.4984174463299
 20
452.4776468309503
 30
0.0
 11
679.4984174463317
 21
452.4776468309503
 31
0.0
  0
ARC
  5
1219
330
2
100
AcDbEntity
  8
0
100
AcDbCircle
 10
683.1039687217947
 20
456.4776468309503
 30
0.0
 40
5.0
100
AcDbArc
 50
238.9972808660707
 51
270.0
  0
ARC
  5
121A
330
2
100
AcDbEntity
  8
0
100
AcDbCircle
 10
679.4984174463317
 20
450.4776468309503
 30
0.0
 40
2.0
100
AcDbArc
 50
18.96557498886414
 51
90.0
  0
ARC
  5
121B
330
2
100
AcDbEntity
  8
0
100
AcDbCircle
 10
706.4984174463299
 20
408.4776468309503
 30
0.0
 40
3.0
100
AcDbArc
 50
90.0
 51
180.0
  0
LINE
  5
121C
330
2
100
AcDbEntity
  8
0
100
AcDbLine
 10
683.1039687217947
 20
371.4776468309503
 30
0.0
 11
727.4984174463281
 21
371.4776468309501
 31
0.0
  0
LINE
  5
121D
330
2
100
AcDbEntity
  8
0
100
AcDbLine
 10
706.4984174463299
 20
386.4776468309503
 30
0.0
 11
714.4984174463282
 21
386.4776468309503
 31
0.0
  0
LINE
  5
121E
330
2
100
AcDbEntity
  8
0
100
AcDbLine
 10
717.4984174463282
 20
383.4776468309503
 30
0.0
 11
717.4984174463282
 21
376.4776468309501
 31
0.0
  0
ARC
  5
121F
330
2
100
AcDbEntity
  8
0
100
AcDbCircle
 10
714.4984174463282
 20
383.4776468309503
 30
0.0
 40
3.0
100
AcDbArc
 50
0.0
 51
90.0
  0
ARC
  5
1220
330
2
100
AcDbEntity
  8
0
100
AcDbCircle
 10
722.4984174463282
 20
376.4776468309503
 30
0.0
 40
5.0
100
AcDbArc
 50
180.0
 51
270.0
  0
ARC
  5
1221
330
2
100
AcDbEntity
  8
0
100
AcDbCircle
 10
706.4984174463299
 20
389.4776468309503
 30
0.0
 40
3.0
100
AcDbArc
 50
180.0
 51
270.0
  0
LINE
  5
1222
330
2
100
AcDbEntity
  8
0
100
AcDbLine
 10
672.4984174463299
 20
370.4776468309501
 30
0.0
 11
679.4984174463317
 21
370.4776468309503
 31
0.0
  0
ARC
  5
1223
330
2
100
AcDbEntity
  8
0
100
AcDbCircle
 10
683.1039687217947
 20
366.4776468309503
 30
0.0
 40
5.0
100
AcDbArc
 50
90.0
 51
121.0027191339292
  0
ARC
  5
1224
330
2
100
AcDbEntity
  8
0
100
AcDbCircle
 10
679.4984174463317
 20
372.4776468309503
 30
0.0
 40
2.0
100
AcDbArc
 50
270.0
 51
341.0344250111357
  0
LINE
  5
1225
330
2
100
AcDbEntity
  8
0
100
AcDbLine
 10
727.4984174463281
 20
451.4776468309503
 30
0.0
 11
727.4984174463281
 21
371.4776468309501
 31
0.0
  0
LINE
  5
1226
330
2
100
AcDbEntity
  8
0
100
AcDbLine
 10
906.9198817977996
 20
157.5803793048021
 30
0.0
 11
919.107502272673
 21
157.580379304803
 31
0.0
  0
LINE
  5
1227
330
2
100
AcDbEntity
  8
0
100
AcDbLine
 10
936.8534689650871
 20
157.5803793048043
 30
0.0
 11
979.0410894399613
 21
157.5803793048075
 31
0.0
  0
CIRCLE
  5
1228
330
2
100
AcDbEntity
  8
HIDS
100
AcDbCircle
 10
942.9804856188805
 20
116.5803793048023
 30
0.0
 40
40.0
  0
CIRCLE
  5
1229
330
2
100
AcDbEntity
  8
0
100
AcDbCircle
 10
942.9804856188805
 20
116.5803793048023
 30
0.0
 40
34.99999999543831
  0
LINE
  5
122A
330
2
100
AcDbEntity
  8
0
100
AcDbLine
 10
910.9804856188805
 20
156.5803793048023
 30
0.0
 11
974.9804856188804
 21
156.5803793048023
 31
0.0
  0
LINE
  5
122B
330
2
100
AcDbEntity
  8
0
100
AcDbLine
 10
910.9804856188805
 20
76.58037930480233
 30
0.0
 11
974.8873673203199
 21
76.58037930480256
 31
0.0
  0
LINE
  5
122C
330
2
100
AcDbEntity
  8
0
100
AcDbLine
 10
901.9202535588322
 20
80.51940822871754
 30
0.0
 11
901.4804856188895
 21
116.5803793048023
 31
0.0
  0
LINE
  5
122D
330
2
100
AcDbEntity
  8
0
100
AcDbLine
 10
903.0736377637698
 20
84.55710829023585
 30
0.0
 11
902.9804856188805
 21
116.5803793048023
 31
0.0
  0
ARC
  5
122E
330
2
100
AcDbEntity
  8
0
100
AcDbCircle
 10
906.9198817977996
 20
80.58037930480256
 30
0.0
 40
5.0
100
AcDbArc
 50
180.6986943829866
 51
270.0
  0
ARC
  5
122F
330
2
100
AcDbEntity
  8
0
100
AcDbCircle
 10
911.073603917441
 20
84.58037930480234
 30
0.0
 40
7.999999999999998
100
AcDbArc
 50
180.1666665999998
 51
270.0
  0
LINE
  5
1230
330
2
100
AcDbEntity
  8
CENTER
100
AcDbLine
 10
911.1604856188808
 20
90.2603793048024
 30
0.0
 11
911.1604856188808
 21
79.2603793048024
 31
0.0
  0
LINE
  5
1231
330
2
100
AcDbEntity
  8
CENTER
100
AcDbLine
 10
905.6604856188808
 20
84.7603793048024
 30
0.0
 11
916.6604856188808
 21
84.7603793048024
 31
0.0
  0
LINE
  5
1232
330
2
100
AcDbEntity
  8
0
100
AcDbLine
 10
901.9202535588322
 20
152.6413503808871
 30
0.0
 11
901.4804856188895
 21
116.5803793048023
 31
0.0
  0
LINE
  5
1233
330
2
100
AcDbEntity
  8
HIDS
100
AcDbLine
 10
922.2304856188786
 20
156.5803793048023
 30
0.0
 11
922.5691072552402
 21
137.1807587502468
 31
0.0
  0
LINE
  5
1234
330
2
100
AcDbEntity
  8
HIDS
100
AcDbLine
 10
933.7304856188787
 20
156.5803793048023
 30
0.0
 11
933.5107313356868
 21
143.9906648526755
 31
0.0
  0
LINE
  5
1235
330
2
100
AcDbEntity
  8
0
100
AcDbLine
 10
903.0736377637698
 20
148.603650319369
 30
0.0
 11
902.9804856188805
 21
116.5803793048023
 31
0.0
  0
LINE
  5
1236
330
2
100
AcDbEntity
  8
CENTER
100
AcDbLine
 10
911.1604856188808
 20
153.9003793048024
 30
0.0
 11
911.1604856188808
 21
142.9003793048025
 31
0.0
  0
ARC
  5
1237
330
2
100
AcDbEntity
  8
HIDS
100
AcDbCircle
 10
919.9458801451113
 20
154.5803793048023
 30
0.0
 40
2.0
100
AcDbArc
 50
90.0
 51
178.9999999999982
  0
ARC
  5
1238
330
2
100
AcDbEntity
  8
0
100
AcDbCircle
 10
906.9198817977996
 20
152.5803793048021
 30
0.0
 40
5.0
100
AcDbArc
 50
90.0
 51
179.3013056170132
  0
ARC
  5
1239
330
2
100
AcDbEntity
  8
0
100
AcDbCircle
 10
911.073603917441
 20
148.5803793048023
 30
0.0
 40
7.999999999999998
100
AcDbArc
 50
90.0
 51
179.8333334000001
  0
LINE
  5
123A
330
2
100
AcDbEntity
  8
CENTER
100
AcDbLine
 10
905.6604856188808
 20
148.4003793048024
 30
0.0
 11
916.6604856188808
 21
148.4003793048024
 31
0.0
  0
LINE
  5
123B
330
2
100
AcDbEntity
  8
HIDS
100
AcDbLine
 10
917.9461847547994
 20
154.6152841176767
 30
0.0
 11
917.8490337925397
 21
149.0495092174103
 31
0.0
  0
ARC
  5
123C
330
2
100
AcDbEntity
  8
HIDS
100
AcDbCircle
 10
914.8494907070691
 20
149.1018664367224
 30
0.0
 40
3.0
100
AcDbArc
 50
310.8597132650932
 51
358.9999999999852
  0
LINE
  5
123D
330
2
100
AcDbEntity
  8
0
100
AcDbLine
 10
984.0407176789288
 20
80.51940822871731
 30
0.0
 11
984.4804856188714
 21
116.5803793047711
 31
0.0
  0
LINE
  5
123E
330
2
100
AcDbEntity
  8
0
100
AcDbLine
 10
982.8873334739911
 20
84.55710829023585
 30
0.0
 11
982.9804856188804
 21
116.5803793048023
 31
0.0
  0
ARC
  5
123F
330
2
100
AcDbEntity
  8
0
100
AcDbCircle
 10
979.0410894399613
 20
80.58037930480233
 30
0.0
 40
5.0
100
AcDbArc
 50
270.0
 51
359.3013056170132
  0
ARC
  5
1240
330
2
100
AcDbEntity
  8
0
100
AcDbCircle
 10
974.8873673203199
 20
84.58037930480234
 30
0.0
 40
8.0
100
AcDbArc
 50
270.0
 51
359.8333334000002
  0
LINE
  5
1241
330
2
100
AcDbEntity
  8
HIDS
100
AcDbLine
 10
968.0147864829617
 20
78.54547449192748
 30
0.0
 11
968.1119374452212
 21
84.11124939219414
 31
0.0
  0
LINE
  5
1242
330
2
100
AcDbEntity
  8
CENTER
100
AcDbLine
 10
974.8004856188801
 20
90.2603793048024
 30
0.0
 11
974.8004856188801
 21
79.2603793048024
 31
0.0
  0
ARC
  5
1243
330
2
100
AcDbEntity
  8
HIDS
100
AcDbCircle
 10
966.0150910926478
 20
78.58037930480256
 30
0.0
 40
2.0
100
AcDbArc
 50
270.0
 51
358.9999999999852
  0
LINE
  5
1244
330
2
100
AcDbEntity
  8
CENTER
100
AcDbLine
 10
969.3004856188801
 20
84.7603793048024
 30
0.0
 11
980.3004856188803
 21
84.7603793048024
 31
0.0
  0
ARC
  5
1245
330
2
100
AcDbEntity
  8
HIDS
100
AcDbCircle
 10
971.11148053069
 20
84.05889217288152
 30
0.0
 40
3.0
100
AcDbArc
 50
130.8597132650931
 51
178.9999999999851
  0
LINE
  5
1246
330
2
100
AcDbEntity
  8
0
100
AcDbLine
 10
984.0407176789288
 20
152.6413503808873
 30
0.0
 11
984.4804856188714
 21
116.5803793047711
 31
0.0
  0
LINE
  5
1247
330
2
100
AcDbEntity
  8
0
100
AcDbLine
 10
982.8873334739911
 20
148.603650319369
 30
0.0
 11
982.9804856188804
 21
116.5803793048023
 31
0.0
  0
LINE
  5
1248
330
2
100
AcDbEntity
  8
CENTER
100
AcDbLine
 10
974.8004856188801
 20
153.9003793048024
 30
0.0
 11
974.8004856188801
 21
142.9003793048025
 31
0.0
  0
ARC
  5
1249
330
2
100
AcDbEntity
  8
0
100
AcDbCircle
 10
974.8873673203199
 20
148.5803793048023
 30
0.0
 40
8.0
100
AcDbArc
 50
0.1666665999998381
 51
90.0
  0
LINE
  5
124A
330
2
100
AcDbEntity
  8
CENTER
100
AcDbLine
 10
969.3004856188801
 20
148.4003793048024
 30
0.0
 11
980.3004856188803
 21
148.4003793048024
 31
0.0
  0
ARC
  5
124B
330
2
100
AcDbEntity
  8
0
100
AcDbCircle
 10
979.0410894399613
 20
152.5803793048023
 30
0.0
 40
5.0
100
AcDbArc
 50
0.6986943829867131
 51
90.0
  0
CIRCLE
  5
124C
330
2
100
AcDbEntity
  8
0
100
AcDbCircle
 10
911.1604856188808
 20
148.4003793048024
 30
0.0
 40
2.5
  0
CIRCLE
  5
124D
330
2
100
AcDbEntity
  8
HOJO
100
AcDbCircle
 10
911.1604856188808
 20
148.4003793048024
 30
0.0
 40
3.0
  0
CIRCLE
  5
124E
330
2
100
AcDbEntity
  8
0
100
AcDbCircle
 10
974.8004856188801
 20
148.4003793048024
 30
0.0
 40
2.5
  0
CIRCLE
  5
124F
330
2
100
AcDbEntity
  8
HOJO
100
AcDbCircle
 10
974.8004856188801
 20
148.4003793048024
 30
0.0
 40
3.0
  0
CIRCLE
  5
1250
330
2
100
AcDbEntity
  8
0
100
AcDbCircle
 10
974.8004856188801
 20
84.7603793048024
 30
0.0
 40
2.5
  0
CIRCLE
  5
1251
330
2
100
AcDbEntity
  8
HOJO
100
AcDbCircle
 10
974.8004856188801
 20
84.7603793048024
 30
0.0
 40
3.0
  0
CIRCLE
  5
1252
330
2
100
AcDbEntity
  8
0
100
AcDbCircle
 10
911.1604856188808
 20
84.7603793048024
 30
0.0
 40
2.5
  0
CIRCLE
  5
1253
330
2
100
AcDbEntity
  8
HOJO
100
AcDbCircle
 10
911.1604856188808
 20
84.7603793048024
 30
0.0
 40
3.0
  0
LINE
  5
1254
330
2
100
AcDbEntity
  8
0
100
AcDbLine
 10
681.3298166413777
 20
126.2395131988241
 30
0.0
 11
680.8170606527282
 21
155.6152841176919
 31
0.0
  0
LINE
  5
1255
330
2
100
AcDbEntity
  8
0
100
AcDbLine
 10
718.1108678876288
 20
151.667641337007
 30
0.0
 11
718.0488341848239
 21
148.1137328835681
 31
0.0
  0
ARC
  5
1256
330
2
100
AcDbEntity
  8
0
100
AcDbCircle
 10
678.8173652624163
 20
77.5803793048205
 30
0.0
 40
2.0
100
AcDbArc
 50
270.0
 51
358.9999999999982
  0
LINE
  5
1258
330
2
100
AcDbEntity
  8
0
100
AcDbLine
 10
681.4984174507034
 20
116.5803793048209
 30
0.0
 11
680.8170606527299
 21
77.5454744919461
 31
0.0
  0
LINE
  5
1259
330
2
100
AcDbEntity
  8
0
100
AcDbLine
 10
718.1108678876288
 20
81.49311727263437
 30
0.0
 11
717.4984174507052
 21
116.5803793048209
 31
0.0
  0
LINE
  5
125A
330
2
100
AcDbEntity
  8
0
100
AcDbLine
 10
727.4984174507034
 20
76.58037930482095
 30
0.0
 11
681.9796429225852
 21
76.58037930482072
 31
0.0
  0
ARC
  5
125B
330
2
100
AcDbEntity
  8
0
100
AcDbCircle
 10
723.1101063634113
 20
81.58037930482072
 30
0.0
 40
5.0
100
AcDbArc
 50
181.0000000000017
 51
270.0
  0
LINE
  5
125C
330
2
100
AcDbEntity
  8
0
100
AcDbLine
 10
672.4984174507034
 20
75.58037930482072
 30
0.0
 11
678.8173652624163
 21
75.58037930482072
 31
0.0
  0
ARC
  5
125D
330
2
100
AcDbEntity
  8
0
100
AcDbCircle
 10
678.8173652624163
 20
155.5803793048211
 30
0.0
 40
2.0
100
AcDbArc
 50
0.9999999998845103
 51
90.0
  0
LINE
  5
125E
330
2
100
AcDbEntity
  8
0
100
AcDbLine
 10
727.4984174507034
 20
156.5803793048207
 30
0.0
 11
681.9796429225852
 21
156.5803793048209
 31
0.0
  0
ARC
  5
125F
330
2
100
AcDbEntity
  8
0
100
AcDbCircle
 10
723.1101063634113
 20
151.5803793048207
 30
0.0
 40
5.0
100
AcDbArc
 50
90.0
 51
178.9999999999982
  0
LINE
  5
1260
330
2
100
AcDbEntity
  8
0
100
AcDbLine
 10
672.4984174507052
 20
157.5803793048209
 30
0.0
 11
678.8173652624163
 21
157.5803793048211
 31
0.0
  0
LINE
  5
1261
330
2
100
AcDbEntity
  8
0
100
AcDbLine
 10
727.4984174507034
 20
156.5803793048207
 30
0.0
 11
727.4984174507034
 21
76.58037930482095
 31
0.0
  0
ARC
  5
1262
330
2
100
AcDbEntity
  8
0
100
AcDbCircle
 10
681.9796429225852
 20
160.0803793048209
 30
0.0
 40
3.5
100
AcDbArc
 50
234.9031987723861
 51
270.0
  0
ARC
  5
1263
330
2
100
AcDbEntity
  8
0
100
AcDbCircle
 10
681.9796429225852
 20
73.08037930482072
 30
0.0
 40
3.5
100
AcDbArc
 50
90.0
 51
125.0968012276142
  0
ARC
  5
1264
330
2
100
AcDbEntity
  8
0
100
AcDbCircle
 10
965.5765290590663
 20
196.3611706167653
 30
0.0
 40
40.0
100
AcDbArc
 50
263.8230035951095
 51
263.9988421367181
  0
ARC
  5
1265
330
2
100
AcDbEntity
  8
0
100
AcDbCircle
 10
920.3844421786946
 20
36.79958799283915
 30
0.0
 40
40.0
100
AcDbArc
 50
83.82300359510955
 51
83.99884213682334
  0
LINE
  5
1266
330
2
100
AcDbEntity
  8
0
100
AcDbLine
 10
906.9198817977996
 20
75.58037930480233
 30
0.0
 11
979.0410894399613
 21
75.58037930480233
 31
0.0
  0
ARC
  5
1267
330
2
100
AcDbEntity
  8
0
100
AcDbCircle
 10
965.5765290590663
 20
36.79958799283937
 30
0.0
 40
40.0
100
AcDbArc
 50
96.00115786317665
 51
96.17699640489044
  0
LINE
  5
1268
330
2
100
AcDbEntity
  8
CENTER
  6
CENS
100
AcDbLine
 10
665.8935994509327
 20
151.230379304821
 30
0.0
 11
692.8935994509328
 21
151.230379304821
 31
0.0
  0
LINE
  5
1269
330
2
100
AcDbEntity
  8
0
100
AcDbLine
 10
687.5808747755644
 20
146.230379304821
 30
0.0
 11
687.5808747755644
 21
156.230379304821
 31
0.0
  0
LINE
  5
126A
330
2
100
AcDbEntity
  8
0
100
AcDbLine
 10
687.9808747755641
 20
155.5375589817935
 30
0.0
 11
687.9808747755641
 21
146.9231996278487
 31
0.0
  0
LINE
  5
126B
330
2
100
AcDbEntity
  8
0
100
AcDbLine
 10
681.980874775564
 20
146.230379304821
 30
0.0
 11
681.980874775564
 21
156.230379304821
 31
0.0
  0
LINE
  5
126C
330
2
100
AcDbEntity
  8
0
100
AcDbLine
 10
681.980874775564
 20
156.230379304821
 30
0.0
 11
680.980874775564
 21
156.230379304821
 31
0.0
  0
LINE
  5
126D
330
2
100
AcDbEntity
  8
0
100
AcDbLine
 10
680.980874775564
 20
156.230379304821
 30
0.0
 11
680.980874775564
 21
146.230379304821
 31
0.0
  0
LINE
  5
126E
330
2
100
AcDbEntity
  8
0
100
AcDbLine
 10
680.980874775564
 20
146.230379304821
 30
0.0
 11
681.980874775564
 21
146.230379304821
 31
0.0
  0
LINE
  5
126F
330
2
100
AcDbEntity
  8
0
100
AcDbLine
 10
681.980874775564
 20
146.230379304821
 30
0.0
 11
681.980874775564
 21
156.230379304821
 31
0.0
  0
LINE
  5
1270
330
2
100
AcDbEntity
  8
0
100
AcDbLine
 10
687.5808747755644
 20
146.230379304821
 30
0.0
 11
681.980874775564
 21
146.230379304821
 31
0.0
  0
LINE
  5
1271
330
2
100
AcDbEntity
  8
0
100
AcDbLine
 10
681.980874775564
 20
156.230379304821
 30
0.0
 11
687.5808747755644
 21
156.230379304821
 31
0.0
  0
LINE
  5
1272
330
2
100
AcDbEntity
  8
0
100
AcDbLine
 10
687.5808747755644
 20
156.230379304821
 30
0.0
 11
687.9808747755641
 21
155.5375589817935
 31
0.0
  0
LINE
  5
1273
330
2
100
AcDbEntity
  8
0
100
AcDbLine
 10
687.5808747755644
 20
146.2303793048208
 30
0.0
 11
687.9808747755641
 21
146.9231996278485
 31
0.0
  0
LINE
  5
1274
330
2
100
AcDbEntity
  8
CENTER
  6
CENS
100
AcDbLine
 10
665.8935994509327
 20
81.93037930482086
 30
0.0
 11
692.8935994509328
 21
81.93037930482086
 31
0.0
  0
LINE
  5
1275
330
2
100
AcDbEntity
  8
0
100
AcDbLine
 10
687.5808747755644
 20
86.93037930482086
 30
0.0
 11
687.5808747755644
 21
76.93037930482086
 31
0.0
  0
LINE
  5
1276
330
2
100
AcDbEntity
  8
0
100
AcDbLine
 10
687.9808747755641
 20
77.62319962784835
 30
0.0
 11
687.9808747755641
 21
86.23755898179314
 31
0.0
  0
LINE
  5
1277
330
2
100
AcDbEntity
  8
0
100
AcDbLine
 10
681.980874775564
 20
86.93037930482086
 30
0.0
 11
681.980874775564
 21
76.93037930482086
 31
0.0
  0
LINE
  5
1278
330
2
100
AcDbEntity
  8
0
100
AcDbLine
 10
681.980874775564
 20
76.93037930482086
 30
0.0
 11
680.980874775564
 21
76.93037930482086
 31
0.0
  0
LINE
  5
1279
330
2
100
AcDbEntity
  8
0
100
AcDbLine
 10
680.980874775564
 20
76.93037930482086
 30
0.0
 11
680.980874775564
 21
86.93037930482086
 31
0.0
  0
LINE
  5
127A
330
2
100
AcDbEntity
  8
0
100
AcDbLine
 10
680.980874775564
 20
86.93037930482086
 30
0.0
 11
681.980874775564
 21
86.93037930482086
 31
0.0
  0
LINE
  5
127B
330
2
100
AcDbEntity
  8
0
100
AcDbLine
 10
681.980874775564
 20
86.93037930482086
 30
0.0
 11
681.980874775564
 21
76.93037930482086
 31
0.0
  0
LINE
  5
127C
330
2
100
AcDbEntity
  8
0
100
AcDbLine
 10
687.5808747755644
 20
86.93037930482086
 30
0.0
 11
681.980874775564
 21
86.93037930482086
 31
0.0
  0
LINE
  5
127D
330
2
100
AcDbEntity
  8
0
100
AcDbLine
 10
681.980874775564
 20
76.93037930482086
 30
0.0
 11
687.5808747755644
 21
76.93037930482086
 31
0.0
  0
LINE
  5
127E
330
2
100
AcDbEntity
  8
0
100
AcDbLine
 10
687.5808747755644
 20
76.93037930482086
 30
0.0
 11
687.9808747755641
 21
77.62319962784835
 31
0.0
  0
LINE
  5
127F
330
2
100
AcDbEntity
  8
0
100
AcDbLine
 10
687.5808747755644
 20
86.93037930482109
 30
0.0
 11
687.9808747755641
 21
86.23755898179338
 31
0.0
  0
LINE
  5
1280
330
2
100
AcDbEntity
  8
CENTER
  6
CENS
100
AcDbLine
 10
665.8935994465576
 20
376.8276468309502
 30
0.0
 11
692.8935994465575
 21
376.8276468309502
 31
0.0
  0
LINE
  5
1281
330
2
100
AcDbEntity
  8
0
100
AcDbLine
 10
687.5808747711892
 20
381.8276468309502
 30
0.0
 11
687.5808747711892
 21
371.8276468309502
 31
0.0
  0
LINE
  5
1282
330
2
100
AcDbEntity
  8
0
100
AcDbLine
 10
687.9808747711888
 20
372.5204671539777
 30
0.0
 11
687.9808747711888
 21
381.1348265079225
 31
0.0
  0
LINE
  5
1283
330
2
100
AcDbEntity
  8
0
100
AcDbLine
 10
681.9808747711888
 20
381.8276468309502
 30
0.0
 11
681.9808747711888
 21
371.8276468309502
 31
0.0
  0
LINE
  5
1284
330
2
100
AcDbEntity
  8
0
100
AcDbLine
 10
681.9808747711888
 20
371.8276468309502
 30
0.0
 11
680.9808747711888
 21
371.8276468309502
 31
0.0
  0
LINE
  5
1285
330
2
100
AcDbEntity
  8
0
100
AcDbLine
 10
680.9808747711888
 20
371.8276468309502
 30
0.0
 11
680.9808747711888
 21
381.8276468309502
 31
0.0
  0
LINE
  5
1286
330
2
100
AcDbEntity
  8
0
100
AcDbLine
 10
680.9808747711888
 20
381.8276468309502
 30
0.0
 11
681.9808747711888
 21
381.8276468309502
 31
0.0
  0
LINE
  5
1287
330
2
100
AcDbEntity
  8
0
100
AcDbLine
 10
681.9808747711888
 20
381.8276468309502
 30
0.0
 11
681.9808747711888
 21
371.8276468309502
 31
0.0
  0
LINE
  5
1288
330
2
100
AcDbEntity
  8
0
100
AcDbLine
 10
687.5808747711892
 20
381.8276468309502
 30
0.0
 11
681.9808747711888
 21
381.8276468309502
 31
0.0
  0
LINE
  5
1289
330
2
100
AcDbEntity
  8
0
100
AcDbLine
 10
681.9808747711888
 20
371.8276468309502
 30
0.0
 11
687.5808747711892
 21
371.8276468309502
 31
0.0
  0
LINE
  5
128A
330
2
100
AcDbEntity
  8
0
100
AcDbLine
 10
687.5808747711892
 20
371.8276468309502
 30
0.0
 11
687.9808747711888
 21
372.5204671539777
 31
0.0
  0
LINE
  5
128B
330
2
100
AcDbEntity
  8
0
100
AcDbLine
 10
687.5808747711892
 20
381.8276468309504
 30
0.0
 11
687.9808747711888
 21
381.1348265079227
 31
0.0
  0
LINE
  5
128C
330
2
100
AcDbEntity
  8
CENTER
  6
CENS
100
AcDbLine
 10
665.8935994465576
 20
446.1276468309504
 30
0.0
 11
692.8935994465575
 21
446.1276468309504
 31
0.0
  0
LINE
  5
128D
330
2
100
AcDbEntity
  8
0
100
AcDbLine
 10
687.5808747711892
 20
441.1276468309504
 30
0.0
 11
687.5808747711892
 21
451.1276468309504
 31
0.0
  0
LINE
  5
128E
330
2
100
AcDbEntity
  8
0
100
AcDbLine
 10
687.9808747711888
 20
450.4348265079229
 30
0.0
 11
687.9808747711888
 21
441.8204671539781
 31
0.0
  0
LINE
  5
128F
330
2
100
AcDbEntity
  8
0
100
AcDbLine
 10
681.9808747711888
 20
441.1276468309504
 30
0.0
 11
681.9808747711888
 21
451.1276468309504
 31
0.0
  0
LINE
  5
1290
330
2
100
AcDbEntity
  8
0
100
AcDbLine
 10
681.9808747711888
 20
451.1276468309504
 30
0.0
 11
680.9808747711888
 21
451.1276468309504
 31
0.0
  0
LINE
  5
1291
330
2
100
AcDbEntity
  8
0
100
AcDbLine
 10
680.9808747711888
 20
451.1276468309504
 30
0.0
 11
680.9808747711888
 21
441.1276468309504
 31
0.0
  0
LINE
  5
1292
330
2
100
AcDbEntity
  8
0
100
AcDbLine
 10
680.9808747711888
 20
441.1276468309504
 30
0.0
 11
681.9808747711888
 21
441.1276468309504
 31
0.0
  0
LINE
  5
1293
330
2
100
AcDbEntity
  8
0
100
AcDbLine
 10
681.9808747711888
 20
441.1276468309504
 30
0.0
 11
681.9808747711888
 21
451.1276468309504
 31
0.0
  0
LINE
  5
1294
330
2
100
AcDbEntity
  8
0
100
AcDbLine
 10
687.5808747711892
 20
441.1276468309504
 30
0.0
 11
681.9808747711888
 21
441.1276468309504
 31
0.0
  0
LINE
  5
1295
330
2
100
AcDbEntity
  8
0
100
AcDbLine
 10
681.9808747711888
 20
451.1276468309504
 30
0.0
 11
687.5808747711892
 21
451.1276468309504
 31
0.0
  0
LINE
  5
1296
330
2
100
AcDbEntity
  8
0
100
AcDbLine
 10
687.5808747711892
 20
451.1276468309504
 30
0.0
 11
687.9808747711888
 21
450.4348265079229
 31
0.0
  0
LINE
  5
1297
330
2
100
AcDbEntity
  8
0
100
AcDbLine
 10
687.5808747711892
 20
441.1276468309502
 30
0.0
 11
687.9808747711888
 21
441.8204671539779
 31
0.0
  0
LINE
  5
1298
330
2
100
AcDbEntity
  8
0
100
AcDbLine
 10
727.4984174507034
 20
151.5803793048209
 30
0.0
 11
720.4984174507034
 21
151.5803793048209
 31
0.0
  0
LINE
  5
1299
330
2
100
AcDbEntity
  8
0
100
AcDbLine
 10
720.4984174507034
 20
151.5803793048209
 30
0.0
 11
720.4984174507034
 21
116.5803793048209
 31
0.0
  0
LINE
  5
129B
330
2
100
AcDbEntity
  8
0
100
AcDbLine
 10
720.4984174507034
 20
136.3303793048209
 30
0.0
 11
720.4984174507052
 21
116.5803793048209
 31
0.0
  0
LINE
  5
129C
330
2
100
AcDbEntity
  8
0
100
AcDbLine
 10
720.4984174507034
 20
136.3303793048209
 30
0.0
 11
710.7606128801862
 21
136.3303793048209
 31
0.0
  0
LINE
  5
129D
330
2
100
AcDbEntity
  8
0
100
AcDbLine
 10
718.4984174507034
 20
124.5803793048209
 30
0.0
 11
707.4984174507034
 21
124.5803793048209
 31
0.0
  0
LINE
  5
129E
330
2
100
AcDbEntity
  8
0
100
AcDbLine
 10
688.9984174507034
 20
124.8303793048209
 30
0.0
 11
688.9984174507034
 21
116.5803793048209
 31
0.0
  0
LINE
  5
129F
330
2
100
AcDbEntity
  8
0
100
AcDbLine
 10
688.9984174507034
 20
124.8303793048209
 30
0.0
 11
682.9984174507034
 21
124.8303793048209
 31
0.0
  0
LINE
  5
12A0
330
2
100
AcDbEntity
  8
0
100
AcDbLine
 10
682.9984174507034
 20
124.8303793048209
 30
0.0
 11
682.9984174507034
 21
116.5803793048209
 31
0.0
  0
LINE
  5
12A1
330
2
100
AcDbEntity
  8
0
100
AcDbLine
 10
705.4984174507033
 20
130.8557895255159
 30
0.0
 11
705.4984174507033
 21
116.5803793048209
 31
0.0
  0
LINE
  5
12A2
330
2
100
AcDbEntity
  8
0
100
AcDbLine
 10
707.4984174507034
 20
131.9095228658977
 30
0.0
 11
707.4984174507034
 21
116.5803793048209
 31
0.0
  0
LINE
  5
12A3
330
2
100
AcDbEntity
  8
0
100
AcDbLine
 10
705.4984174507033
 20
124.5803793048209
 30
0.0
 11
688.9984174507034
 21
124.5803793048209
 31
0.0
  0
LINE
  5
12A4
330
2
100
AcDbEntity
  8
0
100
AcDbLine
 10
720.4984174507034
 20
125.7350798432002
 30
0.0
 11
718.4984174507034
 21
124.5803793048209
 31
0.0
  0
LINE
  5
12A5
330
2
100
AcDbEntity
  8
0
100
AcDbLine
 10
718.4984174507034
 20
124.5803793048209
 30
0.0
 11
718.4984174507034
 21
116.5803793048209
 31
0.0
  0
LINE
  5
12A6
330
2
100
AcDbEntity
  8
0
100
AcDbLine
 10
682.9984174507034
 20
124.0803793048209
 30
0.0
 11
678.6682904317812
 21
116.5803793048209
 31
0.0
  0
SPLINE
  5
12A7
330
2
100
AcDbEntity
  8
HOJO
100
AcDbSpline
210
0.0
220
0.0
230
1.0
 70
     8
 71
     3
 72
    20
 73
    16
 74
     0
 42
0.0000000001
 43
0.0000000001
 40
1.102548511336045
 40
1.102548511336045
 40
1.102548511336045
 40
1.102548511336045
 40
5.647385924430076
 40
9.759277458584113
 40
14.59638394258456
 40
18.6386056126129
 40
22.25598020257161
 40
26.57819511411361
 40
31.00332353479096
 40
40.39337194914635
 40
45.49899296170218
 40
52.02718752358933
 40
57.17041693382338
 40
65.63449353306062
 40
69.3611614947018
 40
69.3611614947018
 40
69.3611614947018
 40
69.3611614947018
 10
723.9091693730123
 20
156.5803793048207
 30
0.0
 10
722.5003818526191
 20
155.8519518551326
 30
0.0
 10
719.9876958908597
 20
154.3212392329744
 30
0.0
 10
718.666769644732
 20
149.7567165756201
 30
0.0
 10
717.516860319184
 20
146.3651470811016
 30
0.0
 10
714.0291039071952
 20
142.6913818698573
 30
0.0
 10
712.3572687308323
 20
139.1660217398781
 30
0.0
 10
710.3800221703776
 20
135.6153050423833
 30
0.0
 10
706.9922408578139
 20
130.026260453929
 30
0.0
 10
699.4678818134988
 20
130.2018369015206
 30
0.0
 10
692.7395424568502
 20
129.0554663680228
 30
0.0
 10
687.3962759114427
 20
127.336854263542
 30
0.0
 10
680.3974953970563
 20
127.0006829788189
 30
0.0
 10
676.682762597832
 20
121.5146886468636
 30
0.0
 10
675.3609211590363
 20
117.7447821536877
 30
0.0
 10
674.9482483859273
 20
116.5803793048209
 30
0.0
  0
LINE
  5
12A8
330
2
100
AcDbEntity
  8
HIDS
100
AcDbLine
 10
932.9804856188804
 20
133.6116006350534
 30
0.0
 11
932.9804856188804
 21
121.5803793048023
 31
0.0
  0
LINE
  5
12A9
330
2
100
AcDbEntity
  8
CENTER
  6
CENS
100
AcDbLine
 10
927.9804856188805
 20
165.7040637275051
 30
0.0
 11
927.9804856188805
 21
100.7327141472726
 31
0.0
  0
LINE
  5
12AA
330
2
100
AcDbEntity
  8
0
100
AcDbLine
 10
923.2447312628904
 20
115.8303793048023
 30
0.0
 11
935.0157194578425
 21
115.8303793048023
 31
0.0
  0
LINE
  5
12AB
330
2
100
AcDbEntity
  8
0
100
AcDbLine
 10
923.2447312628904
 20
117.3303793048023
 30
0.0
 11
935.0157194578425
 21
117.3303793048023
 31
0.0
  0
CIRCLE
  5
12AC
330
2
100
AcDbEntity
  8
0
100
AcDbCircle
 10
942.9804856188805
 20
116.5803793048023
 30
0.0
 40
8.0
  0
LINE
  5
12AD
330
2
100
AcDbEntity
  8
0
100
AcDbLine
 10
960.1804856188794
 20
115.8303793048023
 30
0.0
 11
960.1804856188794
 21
117.3303793048023
 31
0.0
  0
LINE
  5
12AE
330
2
100
AcDbEntity
  8
0
100
AcDbLine
 10
950.9452517799184
 20
115.8303793048023
 30
0.0
 11
960.1804856188794
 21
115.8303793048023
 31
0.0
  0
LINE
  5
12AF
330
2
100
AcDbEntity
  8
0
100
AcDbLine
 10
950.9452517799184
 20
117.3303793048023
 30
0.0
 11
960.1804856188794
 21
117.3303793048023
 31
0.0
  0
LINE
  5
12B0
330
2
100
AcDbEntity
  8
HIDS
100
AcDbLine
 10
930.4804856188805
 20
115.8303793048023
 30
0.0
 11
930.4804856188805
 21
101.2894506214292
 31
0.0
  0
LINE
  5
12B1
330
2
100
AcDbEntity
  8
HIDS
100
AcDbLine
 10
930.0638189522144
 20
115.8303793048023
 30
0.0
 11
930.0638189522144
 21
101.6397560841257
 31
0.0
  0
LINE
  5
12B2
330
2
100
AcDbEntity
  8
HIDS
100
AcDbLine
 10
925.8971522855466
 20
115.8303793048023
 30
0.0
 11
925.8971522855466
 21
106.6696668065899
 31
0.0
  0
LINE
  5
12B3
330
2
100
AcDbEntity
  8
HIDS
100
AcDbLine
 10
925.4804856188805
 20
115.8303793048023
 30
0.0
 11
925.4804856188805
 21
107.425462593002
 31
0.0
  0
LINE
  5
12B4
330
2
100
AcDbEntity
  8
HIDS
100
AcDbLine
 10
930.9804856188804
 20
121.5803793048023
 30
0.0
 11
930.9804856188804
 21
117.3303793048023
 31
0.0
  0
LINE
  5
12B5
330
2
100
AcDbEntity
  8
HIDS
100
AcDbLine
 10
924.9804856188804
 20
121.5803793048023
 30
0.0
 11
924.9804856188804
 21
117.3303793048023
 31
0.0
  0
LINE
  5
12B6
330
2
100
AcDbEntity
  8
HIDS
100
AcDbLine
 10
923.873876814596
 20
121.5803793048023
 30
0.0
 11
932.9804856188804
 21
121.5803793048023
 31
0.0
  0
LINE
  5
12B7
330
2
100
AcDbEntity
  8
HIDS
100
AcDbLine
 10
932.2304856188805
 20
121.5803793048023
 30
0.0
 11
932.2304856188805
 21
126.2803793048023
 31
0.0
  0
LINE
  5
12B8
330
2
100
AcDbEntity
  8
0
100
AcDbLine
 10
923.7304856188805
 20
126.2803793048023
 30
0.0
 11
923.7304856188805
 21
121.5803793048023
 31
0.0
  0
LINE
  5
12B9
330
2
100
AcDbEntity
  8
HIDS
100
AcDbLine
 10
930.4804856188805
 20
107.5803793048023
 30
0.0
 11
929.4804856188804
 21
106.5803793048023
 31
0.0
  0
LINE
  5
12BA
330
2
100
AcDbEntity
  8
HIDS
100
AcDbLine
 10
925.4804856188805
 20
107.5803793048023
 30
0.0
 11
926.4804856188805
 21
106.5803793048023
 31
0.0
  0
LINE
  5
12BB
330
2
100
AcDbEntity
  8
HIDS
100
AcDbLine
 10
929.4804856188804
 20
106.5803793048023
 30
0.0
 11
927.9804856188805
 21
106.5803793048023
 31
0.0
  0
LINE
  5
12BC
330
2
100
AcDbEntity
  8
HIDS
100
AcDbLine
 10
926.4804856188805
 20
106.5803793048023
 30
0.0
 11
927.9804856188805
 21
106.5803793048023
 31
0.0
  0
LINE
  5
12BD
330
2
100
AcDbEntity
  8
HIDS
100
AcDbLine
 10
930.4804856188805
 20
121.5803793048023
 30
0.0
 11
930.4804856188805
 21
117.3303793048023
 31
0.0
  0
LINE
  5
12BE
330
2
100
AcDbEntity
  8
HIDS
100
AcDbLine
 10
930.0638189522144
 20
119.4970459714688
 30
0.0
 11
930.0638189522144
 21
117.3303793048023
 31
0.0
  0
LINE
  5
12BF
330
2
100
AcDbEntity
  8
HIDS
100
AcDbLine
 10
925.8971522855466
 20
119.4970459714688
 30
0.0
 11
925.8971522855466
 21
117.3303793048023
 31
0.0
  0
LINE
  5
12C0
330
2
100
AcDbEntity
  8
HIDS
100
AcDbLine
 10
925.4804856188805
 20
121.5803793048023
 30
0.0
 11
925.4804856188805
 21
117.3303793048023
 31
0.0
  0
LINE
  5
12C1
330
2
100
AcDbEntity
  8
HIDS
100
AcDbLine
 10
930.4804856188805
 20
107.5803793048023
 30
0.0
 11
927.9804856188805
 21
107.5803793048023
 31
0.0
  0
LINE
  5
12C2
330
2
100
AcDbEntity
  8
HIDS
100
AcDbLine
 10
925.4804856188805
 20
107.5803793048023
 30
0.0
 11
927.9804856188805
 21
107.5803793048023
 31
0.0
  0
LINE
  5
12C3
330
2
100
AcDbEntity
  8
HIDS
100
AcDbLine
 10
930.4804856188805
 20
119.4970459714688
 30
0.0
 11
925.4804856188805
 21
119.4970459714688
 31
0.0
  0
LINE
  5
12C4
330
2
100
AcDbEntity
  8
0
100
AcDbLine
 10
923.7304856188805
 20
121.5803793048023
 30
0.0
 11
923.873876814596
 21
121.5803793048023
 31
0.0
  0
LINE
  5
12C5
330
2
100
AcDbEntity
  8
HIDS
100
AcDbLine
 10
925.4804856188805
 20
121.5803793048023
 30
0.0
 11
925.8971522855466
 21
119.4970459714688
 31
0.0
  0
LINE
  5
12C6
330
2
100
AcDbEntity
  8
HIDS
100
AcDbLine
 10
930.4804856188805
 20
121.5803793048023
 30
0.0
 11
930.0638189522144
 21
119.4970459714688
 31
0.0
  0
LINE
  5
12C7
330
2
100
AcDbEntity
  8
0
100
AcDbLine
 10
923.7304856188805
 20
126.2803793048023
 30
0.0
 11
925.7766343058758
 21
126.2803793048021
 31
0.0
  0
LINE
  5
12C8
330
2
100
AcDbEntity
  8
HIDS
100
AcDbLine
 10
931.71087037661
 20
126.5803793048023
 30
0.0
 11
925.9492642886291
 21
126.5803793048023
 31
0.0
  0
LINE
  5
12C9
330
2
100
AcDbEntity
  8
0
100
AcDbLine
 10
923.7304856188805
 20
126.2803793048023
 30
0.0
 11
924.250100861151
 21
126.5803793048023
 31
0.0
  0
LINE
  5
12CA
330
2
100
AcDbEntity
  8
HIDS
100
AcDbLine
 10
931.71087037661
 20
126.5803793048023
 30
0.0
 11
932.2304856188805
 21
126.2803793048023
 31
0.0
  0
LINE
  5
12CB
330
2
100
AcDbEntity
  8
HIDS
100
AcDbLine
 10
923.873876814596
 20
121.5803793048023
 30
0.0
 11
932.2304856188805
 21
121.5803793048023
 31
0.0
  0
LINE
  5
12CC
330
2
100
AcDbEntity
  8
0
100
AcDbLine
 10
925.9492642886291
 20
126.5803793048023
 30
0.0
 11
924.250100861151
 21
126.5803793048023
 31
0.0
  0
LINE
  5
12CD
330
2
100
AcDbEntity
  8
HIDS
100
AcDbLine
 10
925.7766343058758
 20
126.2803793048023
 30
0.0
 11
932.2304856188805
 21
126.2803793048023
 31
0.0
  0
LINE
  5
12CE
330
2
100
AcDbEntity
  8
0
100
AcDbLine
 10
930.4804856188805
 20
117.3303793048023
 30
0.0
 11
930.4804856188805
 21
115.8303793048023
 31
0.0
  0
LINE
  5
12CF
330
2
100
AcDbEntity
  8
HOJO
100
AcDbLine
 10
930.0638189522144
 20
117.3303793048023
 30
0.0
 11
930.0638189522144
 21
115.8303793048023
 31
0.0
  0
LINE
  5
12D0
330
2
100
AcDbEntity
  8
HOJO
100
AcDbLine
 10
925.8971522855466
 20
117.3303793048023
 30
0.0
 11
925.8971522855466
 21
115.8303793048023
 31
0.0
  0
LINE
  5
12D1
330
2
100
AcDbEntity
  8
0
100
AcDbLine
 10
925.4804856188805
 20
117.3303793048023
 30
0.0
 11
925.4804856188805
 21
115.8303793048023
 31
0.0
  0
LINE
  5
12D2
330
2
100
AcDbEntity
  8
HIDS
100
AcDbLine
 10
925.4804856188805
 20
115.8303793048023
 30
0.0
 11
925.4804856188805
 21
107.5803793048023
 31
0.0
  0
LINE
  5
12D3
330
2
100
AcDbEntity
  8
HIDS
100
AcDbLine
 10
930.0638189522144
 20
115.8303793048023
 30
0.0
 11
930.0638189522144
 21
107.1637126381355
 31
0.0
  0
LINE
  5
12D4
330
2
100
AcDbEntity
  8
HIDS
100
AcDbLine
 10
930.4804856188805
 20
115.8303793048023
 30
0.0
 11
930.4804856188805
 21
107.5803793048023
 31
0.0
  0
LINE
  5
12D5
330
2
100
AcDbEntity
  8
HIDS
100
AcDbLine
 10
925.8971522855466
 20
115.8303793048023
 30
0.0
 11
925.8971522855466
 21
107.1637126381355
 31
0.0
  0
CIRCLE
  5
12D6
330
2
100
AcDbEntity
  8
0
100
AcDbCircle
 10
942.9804856188805
 20
116.5803793048023
 30
0.0
 40
19.75
  0
ARC
  5
12D7
330
2
100
AcDbEntity
  8
0
100
AcDbCircle
 10
942.9804856188805
 20
116.5803793048023
 30
0.0
 40
9.154700538379415
100
AcDbArc
 50
4.699230675929105
 51
175.3007693240709
  0
ARC
  5
12D8
330
2
100
AcDbEntity
  8
0
100
AcDbCircle
 10
942.9804856188805
 20
116.5803793048023
 30
0.0
 40
9.154700538379415
100
AcDbArc
 50
184.6992306759291
 51
355.3007693240708
  0
LINE
  5
12D9
330
2
100
AcDbEntity
  8
0
100
AcDbLine
 10
922.9804856188804
 20
160.5803793048021
 30
0.0
 11
932.9804856188804
 21
160.5803793048021
 31
0.0
  0
ARC
  5
12DA
330
2
100
AcDbEntity
  8
0
100
AcDbCircle
 10
932.9804856188804
 20
156.5803793048021
 30
0.0
 40
4.0
100
AcDbArc
 50
0.0
 51
90.0
  0
ARC
  5
12DB
330
2
100
AcDbEntity
  8
0
100
AcDbCircle
 10
922.9804856188804
 20
156.5803793048021
 30
0.0
 40
4.0
100
AcDbArc
 50
90.0
 51
180.0
  0
LINE
  5
12DC
330
2
100
AcDbEntity
  8
0
100
AcDbLine
 10
718.498417450667
 20
160.5803793048207
 30
0.0
 11
708.498417450667
 21
160.5803793048207
 31
0.0
  0
ARC
  5
12DD
330
2
100
AcDbEntity
  8
0
100
AcDbCircle
 10
708.498417450667
 20
156.5803793048207
 30
0.0
 40
4.0
100
AcDbArc
 50
90.0
 51
180.0
  0
ARC
  5
12DE
330
2
100
AcDbEntity
  8
0
100
AcDbCircle
 10
718.498417450667
 20
156.5803793048207
 30
0.0
 40
4.0
100
AcDbArc
 50
0.0
 51
90.0
  0
LINE
  5
12DF
330
2
100
AcDbEntity
  8
CENTER
  6
CENS
100
AcDbLine
 10
713.498417450667
 20
165.704063727526
 30
0.0
 11
713.498417450667
 21
142.3441377251592
 31
0.0
  0
CIRCLE
  5
12E0
330
2
100
AcDbEntity
  8
0
100
AcDbCircle
 10
713.49841744633
 20
396.4776468309503
 30
0.0
 40
9.0
  0
LINE
  5
12E1
330
2
100
AcDbEntity
  8
CENTER
  6
CENS
100
AcDbLine
 10
713.49841744633
 20
382.543079643261
 30
0.0
 11
713.49841744633
 21
410.4122140186391
 31
0.0
  0
LINE
  5
12E2
330
2
100
AcDbEntity
  8
CENTER
  6
CENS
100
AcDbLine
 10
727.432984634019
 20
396.4776468309501
 30
0.0
 11
699.5638502586409
 21
396.4776468309501
 31
0.0
  0
CIRCLE
  5
12E7
330
2
100
AcDbEntity
  8
CENTER
100
AcDbCircle
 10
942.9804856188805
 20
116.5803793048023
 30
0.0
 40
45.0002755547118
  0
LINE
  5
12E8
330
2
100
AcDbEntity
  8
0
100
AcDbLine
 10
902.9804856187732
 20
116.5803793048023
 30
0.0
 11
901.4804856188895
 21
116.5803793048023
 31
0.0
  0
LINE
  5
12EA
330
2
100
AcDbEntity
  8
0
100
AcDbLine
 10
73.86246554561558
 20
116.580379304818
 30
0.0
 11
74.54382234351624
 21
155.615284117689
 31
0.0
  0
LINE
  5
12EB
330
2
100
AcDbEntity
  8
0
100
AcDbLine
 10
37.25001510861557
 20
151.6676413370041
 30
0.0
 11
37.86246554555282
 21
116.580379304818
 31
0.0
  0
ARC
  5
12EC
330
2
100
AcDbEntity
  8
0
100
AcDbCircle
 10
76.54351773382813
 20
77.58037930481757
 30
0.0
 40
2.0
100
AcDbArc
 50
181.0000000000017
 51
270.0
  0
LINE
  5
12EE
330
2
100
AcDbEntity
  8
0
100
AcDbLine
 10
73.862465545541
 20
116.580379304818
 30
0.0
 11
74.54382234351442
 21
77.54547449194316
 31
0.0
  0
LINE
  5
12EF
330
2
100
AcDbEntity
  8
0
100
AcDbLine
 10
37.25001510861557
 20
81.49311727263144
 30
0.0
 11
37.86246554553918
 21
116.580379304818
 31
0.0
  0
LINE
  5
12F0
330
2
100
AcDbEntity
  8
0
100
AcDbLine
 10
27.862465545541
 20
76.58037930481802
 30
0.0
 11
73.38124007365923
 21
76.58037930481779
 31
0.0
  0
ARC
  5
12F1
330
2
100
AcDbEntity
  8
0
100
AcDbCircle
 10
54.96590787886862
 20
82.48040600885857
 30
0.0
 40
3.0
100
AcDbArc
 50
90.0
 51
178.9999999999982
  0
LINE
  5
12F2
330
2
100
AcDbEntity
  8
0
100
AcDbLine
 10
54.96590787886862
 20
85.48040600885858
 30
0.0
 11
42.31961349239327
 21
85.48040600885903
 31
0.0
  0
ARC
  5
12F3
330
2
100
AcDbEntity
  8
0
100
AcDbCircle
 10
32.25077663283309
 20
81.5803793048178
 30
0.0
 40
5.0
100
AcDbArc
 50
270.0
 51
358.9999999999982
  0
ARC
  5
12F4
330
2
100
AcDbEntity
  8
0
100
AcDbCircle
 10
49.89707101930844
 20
78.5803793048178
 30
0.0
 40
2.0
100
AcDbArc
 50
270.0
 51
358.9999999999982
  0
LINE
  5
12F5
330
2
100
AcDbEntity
  8
0
100
AcDbLine
 10
51.96547050679737
 20
82.48152958303032
 30
0.0
 11
51.89676640962216
 21
78.54547449194317
 31
0.0
  0
LINE
  5
12F6
330
2
100
AcDbEntity
  8
0
100
AcDbLine
 10
82.862465545541
 20
75.5803793048178
 30
0.0
 11
76.54351773382813
 21
75.5803793048178
 31
0.0
  0
ARC
  5
12F7
330
2
100
AcDbEntity
  8
0
100
AcDbCircle
 10
76.54351773382813
 20
155.5803793048182
 30
0.0
 40
2.0
100
AcDbArc
 50
90.0
 51
179.0000000001154
  0
LINE
  5
12F8
330
2
100
AcDbEntity
  8
0
100
AcDbLine
 10
27.862465545541
 20
156.5803793048178
 30
0.0
 11
73.38124007365923
 21
156.580379304818
 31
0.0
  0
ARC
  5
12F9
330
2
100
AcDbEntity
  8
0
100
AcDbCircle
 10
32.25077663283309
 20
151.5803793048178
 30
0.0
 40
5.0
100
AcDbArc
 50
1.000000000001775
 51
90.0
  0
LINE
  5
12FA
330
2
100
AcDbEntity
  8
0
100
AcDbLine
 10
82.86246554553917
 20
157.580379304818
 30
0.0
 11
76.54351773382813
 21
157.5803793048182
 31
0.0
  0
LINE
  5
12FB
330
2
100
AcDbEntity
  8
0
100
AcDbLine
 10
27.862465545541
 20
156.5803793048178
 30
0.0
 11
27.862465545541
 21
76.58037930481802
 31
0.0
  0
ARC
  5
12FC
330
2
100
AcDbEntity
  8
0
100
AcDbCircle
 10
73.38124007365923
 20
160.080379304818
 30
0.0
 40
3.5
100
AcDbArc
 50
270.0
 51
305.0968012276138
  0
ARC
  5
12FD
330
2
100
AcDbEntity
  8
0
100
AcDbCircle
 10
73.38124007365923
 20
73.0803793048178
 30
0.0
 40
3.5
100
AcDbArc
 50
54.9031987723857
 51
90.0
  0
LINE
  5
12FE
330
2
100
AcDbEntity
  8
CENTER
  6
CENS
100
AcDbLine
 10
89.4672835453116
 20
151.2303793048181
 30
0.0
 11
62.4672835453116
 21
151.2303793048181
 31
0.0
  0
LINE
  5
12FF
330
2
100
AcDbEntity
  8
0
100
AcDbLine
 10
67.78000822067998
 20
146.2303793048181
 30
0.0
 11
67.78000822067998
 21
156.2303793048181
 31
0.0
  0
LINE
  5
1300
330
2
100
AcDbEntity
  8
0
100
AcDbLine
 10
67.38000822068034
 20
155.5375589817906
 30
0.0
 11
67.38000822068034
 21
146.9231996278458
 31
0.0
  0
LINE
  5
1301
330
2
100
AcDbEntity
  8
0
100
AcDbLine
 10
73.38000822068034
 20
146.2303793048181
 30
0.0
 11
73.38000822068034
 21
156.2303793048181
 31
0.0
  0
LINE
  5
1302
330
2
100
AcDbEntity
  8
0
100
AcDbLine
 10
73.38000822068034
 20
156.2303793048181
 30
0.0
 11
74.38000822068033
 21
156.2303793048181
 31
0.0
  0
LINE
  5
1303
330
2
100
AcDbEntity
  8
0
100
AcDbLine
 10
74.38000822068033
 20
156.2303793048181
 30
0.0
 11
74.38000822068033
 21
146.2303793048181
 31
0.0
  0
LINE
  5
1304
330
2
100
AcDbEntity
  8
0
100
AcDbLine
 10
74.38000822068033
 20
146.2303793048181
 30
0.0
 11
73.38000822068034
 21
146.2303793048181
 31
0.0
  0
LINE
  5
1305
330
2
100
AcDbEntity
  8
0
100
AcDbLine
 10
73.38000822068034
 20
146.2303793048181
 30
0.0
 11
73.38000822068034
 21
156.2303793048181
 31
0.0
  0
LINE
  5
1306
330
2
100
AcDbEntity
  8
0
100
AcDbLine
 10
67.78000822067998
 20
146.2303793048181
 30
0.0
 11
73.38000822068034
 21
146.2303793048181
 31
0.0
  0
LINE
  5
1307
330
2
100
AcDbEntity
  8
0
100
AcDbLine
 10
73.38000822068034
 20
156.2303793048181
 30
0.0
 11
67.78000822067998
 21
156.2303793048181
 31
0.0
  0
LINE
  5
1308
330
2
100
AcDbEntity
  8
0
100
AcDbLine
 10
67.78000822067998
 20
156.2303793048181
 30
0.0
 11
67.38000822068034
 21
155.5375589817906
 31
0.0
  0
LINE
  5
1309
330
2
100
AcDbEntity
  8
0
100
AcDbLine
 10
67.78000822067998
 20
146.2303793048178
 30
0.0
 11
67.38000822068034
 21
146.9231996278456
 31
0.0
  0
LINE
  5
130A
330
2
100
AcDbEntity
  8
CENTER
  6
CENS
100
AcDbLine
 10
89.4672835453116
 20
81.93037930481793
 30
0.0
 11
62.4672835453116
 21
81.93037930481793
 31
0.0
  0
LINE
  5
130B
330
2
100
AcDbEntity
  8
0
100
AcDbLine
 10
67.78000822067998
 20
86.93037930481793
 30
0.0
 11
67.78000822067998
 21
76.93037930481793
 31
0.0
  0
LINE
  5
130C
330
2
100
AcDbEntity
  8
0
100
AcDbLine
 10
67.38000822068034
 20
77.62319962784542
 30
0.0
 11
67.38000822068034
 21
86.23755898179021
 31
0.0
  0
LINE
  5
130D
330
2
100
AcDbEntity
  8
0
100
AcDbLine
 10
73.38000822068034
 20
86.93037930481793
 30
0.0
 11
73.38000822068034
 21
76.93037930481793
 31
0.0
  0
LINE
  5
130E
330
2
100
AcDbEntity
  8
0
100
AcDbLine
 10
73.38000822068034
 20
76.93037930481793
 30
0.0
 11
74.38000822068033
 21
76.93037930481793
 31
0.0
  0
LINE
  5
130F
330
2
100
AcDbEntity
  8
0
100
AcDbLine
 10
74.38000822068033
 20
76.93037930481793
 30
0.0
 11
74.38000822068033
 21
86.93037930481793
 31
0.0
  0
LINE
  5
1310
330
2
100
AcDbEntity
  8
0
100
AcDbLine
 10
74.38000822068033
 20
86.93037930481793
 30
0.0
 11
73.38000822068034
 21
86.93037930481793
 31
0.0
  0
LINE
  5
1311
330
2
100
AcDbEntity
  8
0
100
AcDbLine
 10
73.38000822068034
 20
86.93037930481793
 30
0.0
 11
73.38000822068034
 21
76.93037930481793
 31
0.0
  0
LINE
  5
1312
330
2
100
AcDbEntity
  8
0
100
AcDbLine
 10
67.78000822067998
 20
86.93037930481793
 30
0.0
 11
73.38000822068034
 21
86.93037930481793
 31
0.0
  0
LINE
  5
1313
330
2
100
AcDbEntity
  8
0
100
AcDbLine
 10
73.38000822068034
 20
76.93037930481793
 30
0.0
 11
67.78000822067998
 21
76.93037930481793
 31
0.0
  0
LINE
  5
1314
330
2
100
AcDbEntity
  8
0
100
AcDbLine
 10
67.78000822067998
 20
76.93037930481793
 30
0.0
 11
67.38000822068034
 21
77.62319962784542
 31
0.0
  0
LINE
  5
1315
330
2
100
AcDbEntity
  8
0
100
AcDbLine
 10
67.78000822067998
 20
86.93037930481816
 30
0.0
 11
67.38000822068034
 21
86.23755898179044
 31
0.0
  0
LINE
  5
1316
330
2
100
AcDbEntity
  8
0
100
AcDbLine
 10
36.86246554557738
 20
160.5803793048178
 30
0.0
 11
46.86246554557738
 21
160.5803793048178
 31
0.0
  0
ARC
  5
1317
330
2
100
AcDbEntity
  8
0
100
AcDbCircle
 10
46.86246554557738
 20
156.5803793048178
 30
0.0
 40
4.0
100
AcDbArc
 50
0.0
 51
90.0
  0
ARC
  5
1318
330
2
100
AcDbEntity
  8
0
100
AcDbCircle
 10
36.86246554557738
 20
156.5803793048178
 30
0.0
 40
4.0
100
AcDbArc
 50
90.0
 51
180.0
  0
LINE
  5
1319
330
2
100
AcDbEntity
  8
CENTER
  6
CENS
100
AcDbLine
 10
41.86246554557738
 20
165.7040637275231
 30
0.0
 11
41.86246554557738
 21
142.3441377251562
 31
0.0
  0
ARC
  5
131A
330
2
100
AcDbEntity
  8
0
100
AcDbCircle
 10
700.3949751173758
 20
150.6803526007804
 30
0.0
 40
3.0
100
AcDbArc
 50
270.0
 51
358.9999999999982
  0
LINE
  5
131B
330
2
100
AcDbEntity
  8
0
100
AcDbLine
 10
700.3949751173758
 20
147.6803526007804
 30
0.0
 11
713.0412695038511
 21
147.6803526007799
 31
0.0
  0
ARC
  5
131C
330
2
100
AcDbEntity
  8
0
100
AcDbCircle
 10
705.4638119769359
 20
154.5803793048211
 30
0.0
 40
2.0
100
AcDbArc
 50
90.0
 51
178.9999999999982
  0
LINE
  5
131D
330
2
100
AcDbEntity
  8
0
100
AcDbLine
 10
703.395412489447
 20
150.6792290266086
 30
0.0
 11
703.4641165866222
 21
154.6152841176958
 31
0.0
  0
CIRCLE
  5
131E
330
2
100
AcDbEntity
  8
0
100
AcDbCircle
 10
942.9804856188805
 20
116.5803793048023
 30
0.0
 40
29.0
  0
LINE
  5
131F
330
2
100
AcDbEntity
  8
0
100
AcDbLine
 10
720.4984174507034
 20
145.5803793048209
 30
0.0
 11
716.5887641019261
 21
145.5803793048209
 31
0.0
  0
LINE
  5
1320
330
2
100
AcDbEntity
  8
0
100
AcDbLine
 10
936.7185684085786
 20
158.0040144607892
 30
0.0
 11
942.9804856188786
 21
158.0803793048173
 31
0.0
  0
LINE
  5
207D
330
2
100
AcDbEntity
  8
CENTER
100
AcDbLine
 10
211.112465545541
 20
151.080379304818
 30
0.0
 11
193.612465545541
 21
151.080379304818
 31
0.0
  0
ARC
  5
207E
330
2
100
AcDbEntity
  8
0
100
AcDbCircle
 10
196.3624655455382
 20
134.0423200819464
 30
0.0
 40
8.5
100
AcDbArc
 50
0.0
 51
44.99999999998617
  0
CIRCLE
  5
207F
330
2
100
AcDbEntity
  8
0
100
AcDbCircle
 10
202.3624655455409
 20
151.080379304818
 30
0.0
 40
5.000000000000113
  0
CIRCLE
  5
2080
330
2
100
AcDbEntity
  8
0
100
AcDbCircle
 10
202.3624655455409
 20
151.080379304818
 30
0.0
 40
4.307179676972509
  0
LINE
  5
2081
330
2
100
AcDbEntity
  8
0
100
AcDbLine
 10
204.862465545541
 20
149.6370036318439
 30
0.0
 11
202.3624655455409
 21
148.1936279588699
 31
0.0
  0
LINE
  5
2082
330
2
100
AcDbEntity
  8
0
100
AcDbLine
 10
202.3624655455409
 20
153.9671306507661
 30
0.0
 11
204.862465545541
 21
152.5237549777921
 31
0.0
  0
LINE
  5
2083
330
2
100
AcDbEntity
  8
CENTER
100
AcDbLine
 10
211.112465545541
 20
82.08037930481806
 30
0.0
 11
193.612465545541
 21
82.08037930481806
 31
0.0
  0
LINE
  5
2084
330
2
100
AcDbEntity
  8
CENTER
100
AcDbLine
 10
209.0356706262959
 20
90.08037930481805
 30
0.0
 11
198.6892604647814
 21
90.08037930481805
 31
0.0
  0
CIRCLE
  5
2085
330
2
100
AcDbEntity
  8
HOJO
100
AcDbCircle
 10
203.8624655455382
 20
90.08037930481805
 30
0.0
 40
2.0
  0
CIRCLE
  5
2086
330
2
100
AcDbEntity
  8
0
100
AcDbCircle
 10
203.8624655455382
 20
90.08037930481805
 30
0.0
 40
1.6
  0
ARC
  5
2087
330
2
100
AcDbEntity
  8
0
100
AcDbCircle
 10
196.3624655455382
 20
99.11843852768971
 30
0.0
 40
8.5
100
AcDbArc
 50
315.0000000000138
 51
0.0
  0
CIRCLE
  5
2088
330
2
100
AcDbEntity
  8
0
100
AcDbCircle
 10
202.3624655455409
 20
82.08037930481806
 30
0.0
 40
5.000000000000113
  0
CIRCLE
  5
2089
330
2
100
AcDbEntity
  8
0
100
AcDbCircle
 10
202.3624655455409
 20
82.08037930481806
 30
0.0
 40
4.307179676972509
  0
LINE
  5
208A
330
2
100
AcDbEntity
  8
0
100
AcDbLine
 10
204.862465545541
 20
80.63700363184398
 30
0.0
 11
202.3624655455409
 21
79.19362795886991
 31
0.0
  0
LINE
  5
208B
330
2
100
AcDbEntity
  8
0
100
AcDbLine
 10
202.3624655455409
 20
84.96713065076619
 30
0.0
 11
204.862465545541
 21
83.52375497779211
 31
0.0
  0
ARC
  5
208C
330
2
100
AcDbEntity
  8
0
100
AcDbCircle
 10
203.8624655455409
 20
152.5803793048173
 30
0.0
 40
5.0
100
AcDbArc
 50
0.0
 51
90.0
  0
ARC
  5
208D
330
2
100
AcDbEntity
  8
0
100
AcDbCircle
 10
203.8624655455409
 20
80.58037930481759
 30
0.0
 40
5.0
100
AcDbArc
 50
270.0
 51
0.0
  0
LINE
  5
208F
330
2
100
AcDbEntity
  8
CENTER
100
AcDbLine
 10
212.3477469197792
 20
161.0656606790564
 30
0.0
 11
123.3771841713023
 21
72.0950979305793
 31
0.0
  0
LINE
  5
2090
330
2
100
AcDbEntity
  8
CENTER
100
AcDbLine
 10
123.3771841713028
 20
161.0656606790563
 30
0.0
 11
212.3477469197796
 21
72.09509793057918
 31
0.0
  0
LINE
  5
2091
330
2
100
AcDbEntity
  8
0
100
AcDbLine
 10
202.372873185624
 20
93.10803088760394
 30
0.0
 11
191.3348139627555
 21
82.06997166473547
 31
0.0
  0
LINE
  5
2092
330
2
100
AcDbEntity
  8
CENTER
100
AcDbLine
 10
202.3624655455409
 20
77.89613656065148
 30
0.0
 11
202.3624655455409
 21
90.83037930481806
 31
0.0
  0
LINE
  5
2093
330
2
100
AcDbEntity
  8
0
100
AcDbLine
 10
202.3624655455409
 20
84.96713065076619
 30
0.0
 11
199.862465545541
 21
83.52375497779211
 31
0.0
  0
ARC
  5
2094
330
2
100
AcDbEntity
  8
0
100
AcDbCircle
 10
123.862465545541
 20
81.58037930481304
 30
0.0
 40
3.0
100
AcDbArc
 50
0.0
 51
90.0
  0
LINE
  5
2095
330
2
100
AcDbEntity
  8
0
100
AcDbLine
 10
133.3520579054579
 20
93.1080308876044
 30
0.0
 11
144.3901171283273
 21
82.06997166473502
 31
0.0
  0
ARC
  5
2096
330
2
100
AcDbEntity
  8
0
100
AcDbCircle
 10
150.4005247684131
 20
88.08037930482077
 30
0.0
 40
5.0
100
AcDbArc
 50
224.9999999999861
 51
270.0
  0
LINE
  5
2097
330
2
100
AcDbEntity
  8
CENTER
100
AcDbLine
 10
133.362465545541
 20
77.89613656065148
 30
0.0
 11
133.362465545541
 21
90.83037930481806
 31
0.0
  0
CIRCLE
  5
2098
330
2
100
AcDbEntity
  8
0
100
AcDbCircle
 10
133.362465545541
 20
82.0803793048185
 30
0.0
 40
5.000000000000113
  0
CIRCLE
  5
2099
330
2
100
AcDbEntity
  8
0
100
AcDbCircle
 10
133.362465545541
 20
82.0803793048185
 30
0.0
 40
4.307179676972509
  0
LINE
  5
209A
330
2
100
AcDbEntity
  8
0
100
AcDbLine
 10
133.362465545541
 20
84.96713065076665
 30
0.0
 11
130.8624655455419
 21
83.52375497779258
 31
0.0
  0
LINE
  5
209B
330
2
100
AcDbEntity
  8
0
100
AcDbLine
 10
133.362465545541
 20
84.96713065076665
 30
0.0
 11
135.862465545541
 21
83.52375497779211
 31
0.0
  0
LINE
  5
209C
330
2
100
AcDbEntity
  8
0
100
AcDbLine
 10
126.8624655455409
 20
80.58037930481759
 30
0.0
 11
126.8624655455409
 21
152.5803793048173
 31
0.0
  0
LINE
  5
209D
330
2
100
AcDbEntity
  8
0
100
AcDbLine
 10
127.2724655455408
 20
80.5803793048185
 30
0.0
 11
127.2724655455408
 21
152.580379304818
 31
0.0
  0
ARC
  5
209E
330
2
100
AcDbEntity
  8
0
100
AcDbCircle
 10
99.86246554554554
 20
78.58037930493447
 30
0.0
 40
5.0
100
AcDbArc
 50
90.0
 51
180.0
  0
ARC
  5
209F
330
2
100
AcDbEntity
  8
0
100
AcDbCircle
 10
105.362465545541
 20
85.58037930493446
 30
0.0
 40
2.0
100
AcDbArc
 50
270.0
 51
0.0
  0
LINE
  5
20A0
330
2
100
AcDbEntity
  8
0
100
AcDbLine
 10
94.86246554554554
 20
77.0803793048176
 30
0.0
 11
94.86246554554554
 21
156.0803793048173
 31
0.0
  0
LINE
  5
20A1
330
2
100
AcDbEntity
  8
CENTER
100
AcDbLine
 10
167.862465545541
 20
65.58037930482123
 30
0.0
 11
167.862465545541
 21
167.5803793048211
 31
0.0
  0
ARC
  5
20A3
330
2
100
AcDbEntity
  8
0
100
AcDbCircle
 10
185.3244063226697
 20
88.08037930482077
 30
0.0
 40
5.0
100
AcDbArc
 50
270.0
 51
315.0000000000138
  0
LINE
  5
20A4
330
2
100
AcDbEntity
  8
CENTER
100
AcDbLine
 10
124.6124655455409
 20
82.0803793048185
 30
0.0
 11
142.1124655455409
 21
82.0803793048185
 31
0.0
  0
LINE
  5
20A5
330
2
100
AcDbEntity
  8
0
100
AcDbLine
 10
135.862465545541
 20
80.63700363184443
 30
0.0
 11
133.3624655455419
 21
79.19362795887036
 31
0.0
  0
ARC
  5
20A6
330
2
100
AcDbEntity
  8
0
100
AcDbCircle
 10
134.8624655455409
 20
80.58037930482191
 30
0.0
 40
5.0
100
AcDbArc
 50
270.0
 51
283.367674202629
  0
LINE
  5
20A7
330
2
100
AcDbEntity
  8
0
100
AcDbLine
 10
99.86246554554554
 20
83.58037930493447
 30
0.0
 11
105.362465545541
 21
83.58037930493447
 31
0.0
  0
LINE
  5
20A8
330
2
100
AcDbEntity
  8
0
100
AcDbLine
 10
92.86246554554281
 20
75.58037930481759
 30
0.0
 11
82.862465545541
 21
75.58037930481759
 31
0.0
  0
LINE
  5
20A9
330
2
100
AcDbEntity
  8
0
100
AcDbLine
 10
92.86246554554281
 20
75.08037930481759
 30
0.0
 11
82.862465545541
 21
75.08037930481759
 31
0.0
  0
ARC
  5
20AA
330
2
100
AcDbEntity
  8
0
100
AcDbCircle
 10
92.86246554554281
 20
77.58037930481759
 30
0.0
 40
2.0
100
AcDbArc
 50
270.0
 51
0.0
  0
ARC
  5
20AB
330
2
100
AcDbEntity
  8
0
100
AcDbCircle
 10
92.86246554554281
 20
77.0803793048176
 30
0.0
 40
2.0
100
AcDbArc
 50
270.0
 51
0.0
  0
LINE
  5
20AC
330
2
100
AcDbEntity
  8
0
100
AcDbLine
 10
130.8624655455419
 20
80.63700363184443
 30
0.0
 11
130.8624655455419
 21
83.52375497779258
 31
0.0
  0
LINE
  5
20AD
330
2
100
AcDbEntity
  8
0
100
AcDbLine
 10
130.8624655455419
 20
80.63700363184443
 30
0.0
 11
133.3624655455419
 21
79.19362795887036
 31
0.0
  0
LINE
  5
20AE
330
2
100
AcDbEntity
  8
0
100
AcDbLine
 10
134.8624655455409
 20
75.58037930482147
 30
0.0
 11
131.8624655455409
 21
75.58037930482147
 31
0.0
  0
LINE
  5
20AF
330
2
100
AcDbEntity
  8
0
100
AcDbLine
 10
134.8624655455409
 20
75.58037930481851
 30
0.0
 11
132.2724655455408
 21
75.58037930481851
 31
0.0
  0
ARC
  5
20B0
330
2
100
AcDbEntity
  8
0
100
AcDbCircle
 10
131.8624655455409
 20
80.58037930481759
 30
0.0
 40
5.0
100
AcDbArc
 50
180.0
 51
270.0
  0
ARC
  5
20B1
330
2
100
AcDbEntity
  8
0
100
AcDbCircle
 10
132.2724655455408
 20
80.5803793048185
 30
0.0
 40
5.0
100
AcDbArc
 50
180.0
 51
270.0
  0
LINE
  5
20B2
330
2
100
AcDbEntity
  8
CENTER
100
AcDbLine
 10
133.362465545541
 20
76.87108376993728
 30
0.0
 11
133.362465545541
 21
73.47442162756033
 31
0.0
  0
LINE
  5
20B3
330
2
100
AcDbEntity
  8
0
100
AcDbLine
 10
150.4005247684131
 20
79.58037930482078
 30
0.0
 11
185.3244063226697
 21
79.58037930482078
 31
0.0
  0
LINE
  5
20B4
330
2
100
AcDbEntity
  8
0
100
AcDbLine
 10
150.4005247684131
 20
83.08037930482077
 30
0.0
 11
185.3244063226697
 21
83.08037930482077
 31
0.0
  0
ARC
  5
20B5
330
2
100
AcDbEntity
  8
0
100
AcDbCircle
 10
167.862465545541
 20
245.5803793048212
 30
0.0
 40
170.0
100
AcDbArc
 50
263.823003595109
 51
276.1769964048909
  0
ARC
  5
20B6
330
2
100
AcDbEntity
  8
0
100
AcDbCircle
 10
150.4005247684131
 20
88.08037930482077
 30
0.0
 40
8.5
100
AcDbArc
 50
224.9999999999861
 51
270.0
  0
LINE
  5
20B7
330
2
100
AcDbEntity
  8
0
100
AcDbLine
 10
147.1477155933093
 20
80.22740327847486
 30
0.0
 11
148.4871076065869
 21
83.46098164226441
 31
0.0
  0
LINE
  5
20B8
330
2
100
AcDbEntity
  8
0
100
AcDbLine
 10
135.862465545541
 20
80.63700363184443
 30
0.0
 11
135.862465545541
 21
83.52375497779211
 31
0.0
  0
ARC
  5
20B9
330
2
100
AcDbEntity
  8
0
100
AcDbCircle
 10
145.2664221053505
 20
36.79958799285953
 30
0.0
 40
40.0
100
AcDbArc
 50
83.82300359510905
 51
103.367674202629
  0
LINE
  5
20BA
330
2
100
AcDbEntity
  8
0
100
AcDbLine
 10
188.5772154977735
 20
80.22740327847486
 30
0.0
 11
187.237823484495
 21
83.46098164226441
 31
0.0
  0
LINE
  5
20BB
330
2
100
AcDbEntity
  8
0
100
AcDbLine
 10
199.862465545541
 20
80.63700363184398
 30
0.0
 11
199.862465545541
 21
83.52375497779211
 31
0.0
  0
LINE
  5
20BC
330
2
100
AcDbEntity
  8
0
100
AcDbLine
 10
199.862465545541
 20
80.63700363184398
 30
0.0
 11
202.3624655455409
 21
79.19362795886991
 31
0.0
  0
ARC
  5
20BD
330
2
100
AcDbEntity
  8
0
100
AcDbCircle
 10
200.862465545541
 20
80.58037930482147
 30
0.0
 40
5.0
100
AcDbArc
 50
256.6323257973709
 51
270.0
  0
LINE
  5
20BE
330
2
100
AcDbEntity
  8
0
100
AcDbLine
 10
203.8624655455409
 20
75.58037930482147
 30
0.0
 11
200.862465545541
 21
75.58037930482147
 31
0.0
  0
LINE
  5
20BF
330
2
100
AcDbEntity
  8
CENTER
100
AcDbLine
 10
202.3624655455409
 20
76.87108376993728
 30
0.0
 11
202.3624655455409
 21
73.47442162756033
 31
0.0
  0
ARC
  5
20C0
330
2
100
AcDbEntity
  8
0
100
AcDbCircle
 10
190.4585089857305
 20
36.7995879928593
 30
0.0
 40
40.0
100
AcDbArc
 50
76.63232579737094
 51
96.17699640483843
  0
ARC
  5
20C1
330
2
100
AcDbEntity
  8
0
100
AcDbCircle
 10
185.3244063226697
 20
88.08037930482077
 30
0.0
 40
8.5
100
AcDbArc
 50
270.0
 51
315.0000000000138
  0
ARC
  5
20C2
330
2
100
AcDbEntity
  8
0
100
AcDbCircle
 10
134.8624655455409
 20
152.580379304821
 30
0.0
 40
5.0
100
AcDbArc
 50
76.63232579737094
 51
90.0
  0
LINE
  5
20C3
330
2
100
AcDbEntity
  8
CENTER
100
AcDbLine
 10
124.6124655455409
 20
151.080379304818
 30
0.0
 11
142.1124655455409
 21
151.080379304818
 31
0.0
  0
LINE
  5
20C4
330
2
100
AcDbEntity
  8
CENTER
100
AcDbLine
 10
126.6892604647869
 20
143.080379304818
 30
0.0
 11
137.0356706263014
 21
143.080379304818
 31
0.0
  0
ARC
  5
20C5
330
2
100
AcDbEntity
  8
0
100
AcDbCircle
 10
139.3624655455437
 20
134.0423200819468
 30
0.0
 40
5.0
100
AcDbArc
 50
135.0000000000138
 51
180.0
  0
LINE
  5
20C6
330
2
100
AcDbEntity
  8
0
100
AcDbLine
 10
133.3520579054579
 20
140.0527277220326
 30
0.0
 11
144.3901171283273
 21
151.090786944901
 31
0.0
  0
CIRCLE
  5
20C7
330
2
100
AcDbEntity
  8
0
100
AcDbCircle
 10
133.362465545541
 20
151.080379304818
 30
0.0
 40
5.000000000000113
  0
CIRCLE
  5
20C8
330
2
100
AcDbEntity
  8
0
100
AcDbCircle
 10
133.362465545541
 20
151.080379304818
 30
0.0
 40
4.307179676972509
  0
LINE
  5
20C9
330
2
100
AcDbEntity
  8
0
100
AcDbLine
 10
135.862465545541
 20
149.6370036318439
 30
0.0
 11
133.362465545541
 21
148.1936279588699
 31
0.0
  0
LINE
  5
20CA
330
2
100
AcDbEntity
  8
0
100
AcDbLine
 10
133.362465545541
 20
153.9671306507661
 30
0.0
 11
135.862465545541
 21
152.5237549777921
 31
0.0
  0
ARC
  5
20CB
330
2
100
AcDbEntity
  8
0
100
AcDbCircle
 10
139.3624655455437
 20
99.11843852768971
 30
0.0
 40
5.0
100
AcDbArc
 50
180.0
 51
224.9999999999861
  0
LINE
  5
20CC
330
2
100
AcDbEntity
  8
0
100
AcDbLine
 10
126.3624655455419
 20
104.4560236518359
 30
0.0
 11
126.362465545541
 21
128.7047349578001
 31
0.0
  0
LINE
  5
20CD
330
2
100
AcDbEntity
  8
0
100
AcDbLine
 10
134.3624655455437
 20
134.0423200819468
 30
0.0
 11
134.3624655455437
 21
99.11843852768971
 31
0.0
  0
LINE
  5
20CE
330
2
100
AcDbEntity
  8
0
100
AcDbLine
 10
130.8624655455437
 20
134.0423200819468
 30
0.0
 11
130.8624655455437
 21
99.11843852768971
 31
0.0
  0
LINE
  5
20CF
330
2
100
AcDbEntity
  8
0
100
AcDbLine
 10
107.3624655455346
 20
85.58037930493446
 30
0.0
 11
107.3624655455391
 21
147.5803793047002
 31
0.0
  0
ARC
  5
20D0
330
2
100
AcDbEntity
  8
0
100
AcDbCircle
 10
121.862465545541
 20
85.58037930493469
 30
0.0
 40
5.0
100
AcDbArc
 50
0.0
 51
90.0
  0
LINE
  5
20D1
330
2
100
AcDbEntity
  8
0
100
AcDbLine
 10
131.5094895191982
 20
95.86562935258644
 30
0.0
 11
134.7430678829873
 21
97.20502136586446
 31
0.0
  0
ARC
  5
20D2
330
2
100
AcDbEntity
  8
0
100
AcDbCircle
 10
139.3624655455437
 20
99.11843852768971
 30
0.0
 40
8.5
100
AcDbArc
 50
180.0
 51
224.9999999999861
  0
ARC
  5
20D3
330
2
100
AcDbEntity
  8
0
100
AcDbCircle
 10
112.3624655455355
 20
85.58037930493515
 30
0.0
 40
5.0
100
AcDbArc
 50
90.0
 51
180.0
  0
ARC
  5
20D4
330
2
100
AcDbEntity
  8
0
100
AcDbCircle
 10
108.3624655455419
 20
81.58037930481304
 30
0.0
 40
3.0
100
AcDbArc
 50
90.0
 51
126.86989764587
  0
LINE
  5
20D5
330
2
100
AcDbEntity
  8
0
100
AcDbLine
 10
112.3624655455355
 20
90.58037930493515
 30
0.0
 11
121.862465545541
 21
90.58037930493469
 31
0.0
  0
LINE
  5
20D6
330
2
100
AcDbEntity
  8
0
100
AcDbLine
 10
107.3624655455364
 20
104.4560236518359
 30
0.0
 11
126.8624655455419
 21
104.4560236518359
 31
0.0
  0
LINE
  5
20D7
330
2
100
AcDbEntity
  8
0
100
AcDbLine
 10
123.862465545541
 20
84.58037930481305
 30
0.0
 11
108.3624655455419
 21
84.58037930481305
 31
0.0
  0
LINE
  5
20D8
330
2
100
AcDbEntity
  8
0
100
AcDbLine
 10
99.86246554554099
 20
149.5803793047002
 30
0.0
 11
105.362465545541
 21
149.5803793047002
 31
0.0
  0
ARC
  5
20D9
330
2
100
AcDbEntity
  8
0
100
AcDbCircle
 10
99.86246554554099
 20
154.5803793047002
 30
0.0
 40
5.0
100
AcDbArc
 50
180.0
 51
270.0
  0
ARC
  5
20DA
330
2
100
AcDbEntity
  8
0
100
AcDbCircle
 10
92.862465545541
 20
155.5803793048173
 30
0.0
 40
2.0
100
AcDbArc
 50
0.0
 51
90.0
  0
LINE
  5
20DB
330
2
100
AcDbEntity
  8
0
100
AcDbLine
 10
82.862465545541
 20
157.5803793048173
 30
0.0
 11
92.862465545541
 21
157.5803793048173
 31
0.0
  0
LINE
  5
20DC
330
2
100
AcDbEntity
  8
0
100
AcDbLine
 10
82.862465545541
 20
158.0803793048173
 30
0.0
 11
92.862465545541
 21
158.0803793048173
 31
0.0
  0
ARC
  5
20DD
330
2
100
AcDbEntity
  8
0
100
AcDbCircle
 10
92.862465545541
 20
156.0803793048173
 30
0.0
 40
2.0
100
AcDbArc
 50
0.0
 51
90.0
  0
LINE
  5
20DE
330
2
100
AcDbEntity
  8
0
100
AcDbLine
 10
134.8624655455409
 20
157.5803793048212
 30
0.0
 11
131.8624655455409
 21
157.5803793048212
 31
0.0
  0
ARC
  5
20DF
330
2
100
AcDbEntity
  8
0
100
AcDbCircle
 10
121.862465545541
 20
147.5803793047002
 30
0.0
 40
5.0
100
AcDbArc
 50
270.0
 51
0.0
  0
ARC
  5
20E0
330
2
100
AcDbEntity
  8
0
100
AcDbCircle
 10
123.862465545541
 20
151.580379304823
 30
0.0
 40
3.0
100
AcDbArc
 50
270.0
 51
0.0
  0
CIRCLE
  5
20E1
330
2
100
AcDbEntity
  8
HOJO
100
AcDbCircle
 10
131.8624655455437
 20
143.080379304818
 30
0.0
 40
2.0
  0
LINE
  5
20E2
330
2
100
AcDbEntity
  8
CENTER
100
AcDbLine
 10
131.8624655455437
 20
148.2535843855753
 30
0.0
 11
131.8624655455437
 21
137.9071742240612
 31
0.0
  0
ARC
  5
20E3
330
2
100
AcDbEntity
  8
0
100
AcDbCircle
 10
139.3624655455437
 20
134.0423200819468
 30
0.0
 40
8.5
100
AcDbArc
 50
135.0000000000138
 51
180.0
  0
LINE
  5
20E4
330
2
100
AcDbEntity
  8
0
100
AcDbLine
 10
131.5094895191982
 20
137.2951292570501
 30
0.0
 11
134.7430678829873
 21
135.9557372437721
 31
0.0
  0
LINE
  5
20E5
330
2
100
AcDbEntity
  8
0
100
AcDbLine
 10
134.8624655455409
 20
157.580379304818
 30
0.0
 11
132.2724655455408
 21
157.580379304818
 31
0.0
  0
CIRCLE
  5
20E6
330
2
100
AcDbEntity
  8
0
100
AcDbCircle
 10
131.8624655455437
 20
143.080379304818
 30
0.0
 40
1.6
  0
LINE
  5
20E7
330
2
100
AcDbEntity
  8
0
100
AcDbLine
 10
130.8624655455409
 20
149.6370036318439
 30
0.0
 11
130.8624655455409
 21
152.5237549777921
 31
0.0
  0
LINE
  5
20E8
330
2
100
AcDbEntity
  8
0
100
AcDbLine
 10
130.8624655455409
 20
149.6370036318439
 30
0.0
 11
133.362465545541
 21
148.1936279588699
 31
0.0
  0
LINE
  5
20E9
330
2
100
AcDbEntity
  8
0
100
AcDbLine
 10
133.362465545541
 20
153.9671306507661
 30
0.0
 11
130.8624655455409
 21
152.5237549777921
 31
0.0
  0
ARC
  5
20EA
330
2
100
AcDbEntity
  8
0
100
AcDbCircle
 10
105.362465545541
 20
147.5803793047002
 30
0.0
 40
2.0
100
AcDbArc
 50
0.0
 51
90.0
  0
ARC
  5
20EB
330
2
100
AcDbEntity
  8
0
100
AcDbCircle
 10
112.3624655455391
 20
147.5803793047002
 30
0.0
 40
5.0
100
AcDbArc
 50
180.0
 51
270.0
  0
ARC
  5
20EC
330
2
100
AcDbEntity
  8
0
100
AcDbCircle
 10
108.3624655455419
 20
151.580379304823
 30
0.0
 40
3.0
100
AcDbArc
 50
233.1301023541299
 51
270.0
  0
LINE
  5
20ED
330
2
100
AcDbEntity
  8
0
100
AcDbLine
 10
112.3624655455391
 20
142.5803793047002
 30
0.0
 11
121.862465545541
 21
142.5803793047002
 31
0.0
  0
LINE
  5
20EE
330
2
100
AcDbEntity
  8
0
100
AcDbLine
 10
107.3624655455391
 20
128.7047349578001
 30
0.0
 11
126.8624655455409
 21
128.7047349578001
 31
0.0
  0
LINE
  5
20EF
330
2
100
AcDbEntity
  8
0
100
AcDbLine
 10
123.862465545541
 20
148.5803793048228
 30
0.0
 11
108.3624655455419
 21
148.5803793048228
 31
0.0
  0
ARC
  5
20F0
330
2
100
AcDbEntity
  8
0
100
AcDbCircle
 10
131.8624655455409
 20
152.5803793048173
 30
0.0
 40
5.0
100
AcDbArc
 50
90.0
 51
180.0
  0
ARC
  5
20F1
330
2
100
AcDbEntity
  8
0
100
AcDbCircle
 10
132.2724655455408
 20
152.580379304818
 30
0.0
 40
5.0
100
AcDbArc
 50
90.0
 51
180.0
  0
LINE
  5
20F2
330
2
100
AcDbEntity
  8
CENTER
100
AcDbLine
 10
133.362465545541
 20
159.830379304818
 30
0.0
 11
133.362465545541
 21
142.330379304818
 31
0.0
  0
LINE
  5
20F3
330
2
100
AcDbEntity
  8
0
100
AcDbLine
 10
201.3624655455382
 20
99.11843852768971
 30
0.0
 11
201.3624655455382
 21
134.0423200819468
 31
0.0
  0
CIRCLE
  5
20F4
330
2
100
AcDbEntity
  8
0
100
AcDbCircle
 10
167.862465545541
 20
116.580379304818
 30
0.0
 40
23.0
  0
CIRCLE
  5
20F5
330
2
100
AcDbEntity
  8
0
100
AcDbCircle
 10
167.862465545541
 20
116.580379304818
 30
0.0
 40
29.0
  0
CIRCLE
  5
20F6
330
2
100
AcDbEntity
  8
0
100
AcDbCircle
 10
167.862465545541
 20
116.580379304818
 30
0.0
 40
26.5
  0
CIRCLE
  5
20F7
330
2
100
AcDbEntity
  8
0
100
AcDbCircle
 10
167.862465545541
 20
116.580379304818
 30
0.0
 40
28.5
  0
CIRCLE
  5
20F8
330
2
100
AcDbEntity
  8
0
100
AcDbCircle
 10
167.862465545541
 20
116.580379304818
 30
0.0
 40
23.5774
  0
CIRCLE
  5
20F9
330
2
100
AcDbEntity
  8
0
100
AcDbCircle
 10
167.862465545541
 20
116.580379304818
 30
0.0
 40
25.9226
  0
LINE
  5
20FA
330
2
100
AcDbEntity
  8
0
100
AcDbLine
 10
135.8269316396113
 20
95.58290462175728
 30
0.0
 11
146.8649908624797
 21
84.54484539888836
 31
0.0
  0
LINE
  5
20FB
330
2
100
AcDbEntity
  8
CENTER
100
AcDbLine
 10
203.8624655455382
 20
84.90717422406124
 30
0.0
 11
203.8624655455382
 21
95.25358438557532
 31
0.0
  0
LINE
  5
20FC
330
2
100
AcDbEntity
  8
0
100
AcDbLine
 10
204.2154415718837
 20
95.86562935258644
 30
0.0
 11
200.9818632080946
 21
97.20502136586402
 31
0.0
  0
LINE
  5
20FD
330
2
100
AcDbEntity
  8
0
100
AcDbLine
 10
199.8979994514707
 20
95.58290462175682
 30
0.0
 11
188.8599402286022
 21
84.5448453988879
 31
0.0
  0
ARC
  5
20FE
330
2
100
AcDbEntity
  8
0
100
AcDbCircle
 10
196.3624655455382
 20
99.11843852768971
 30
0.0
 40
5.0
100
AcDbArc
 50
315.0000000000138
 51
0.0
  0
ARC
  5
20FF
330
2
100
AcDbEntity
  8
0
100
AcDbCircle
 10
167.862465545541
 20
-12.41962069517887
 30
0.0
 40
170.0
100
AcDbArc
 50
83.82300359510905
 51
96.17699640483843
  0
LINE
  5
2100
330
2
100
AcDbEntity
  8
0
100
AcDbLine
 10
185.3244063226697
 20
153.5803793048153
 30
0.0
 11
150.4005247684131
 21
153.5803793048153
 31
0.0
  0
LINE
  5
2101
330
2
100
AcDbEntity
  8
0
100
AcDbLine
 10
185.3244063226697
 20
150.0803793048153
 30
0.0
 11
150.4005247684131
 21
150.0803793048153
 31
0.0
  0
ARC
  5
2102
330
2
100
AcDbEntity
  8
0
100
AcDbCircle
 10
145.2664221053514
 20
196.361170616783
 30
0.0
 40
40.0
100
AcDbArc
 50
256.6323257973709
 51
276.1769964048909
  0
ARC
  5
2103
330
2
100
AcDbEntity
  8
0
100
AcDbCircle
 10
150.4005247684131
 20
145.0803793048153
 30
0.0
 40
8.5
100
AcDbArc
 50
90.0
 51
135.0000000000138
  0
LINE
  5
2104
330
2
100
AcDbEntity
  8
0
100
AcDbLine
 10
147.1477155933093
 20
152.9333553311612
 30
0.0
 11
148.4871076065869
 21
149.6997769673716
 31
0.0
  0
LINE
  5
2105
330
2
100
AcDbEntity
  8
0
100
AcDbLine
 10
135.8269316396113
 20
137.5778539878792
 30
0.0
 11
146.8649908624797
 21
148.6159132107482
 31
0.0
  0
ARC
  5
2106
330
2
100
AcDbEntity
  8
0
100
AcDbCircle
 10
150.4005247684131
 20
145.0803793048153
 30
0.0
 40
5.0
100
AcDbArc
 50
90.0
 51
135.0000000000138
  0
LINE
  5
2107
330
2
100
AcDbEntity
  8
0
100
AcDbLine
 10
135.862465545541
 20
149.6370036318439
 30
0.0
 11
135.862465545541
 21
152.5237549777921
 31
0.0
  0
LINE
  5
2108
330
2
100
AcDbEntity
  8
0
100
AcDbLine
 10
203.8624655455409
 20
157.5803793048212
 30
0.0
 11
200.862465545541
 21
157.5803793048212
 31
0.0
  0
ARC
  5
2109
330
2
100
AcDbEntity
  8
0
100
AcDbCircle
 10
200.862465545541
 20
152.5803793048203
 30
0.0
 40
5.0
100
AcDbArc
 50
90.0
 51
103.367674202629
  0
ARC
  5
210A
330
2
100
AcDbEntity
  8
0
100
AcDbCircle
 10
196.3624655455382
 20
134.0423200819468
 30
0.0
 40
5.0
100
AcDbArc
 50
0.0
 51
44.99999999998617
  0
LINE
  5
210B
330
2
100
AcDbEntity
  8
0
100
AcDbLine
 10
204.2154415718837
 20
137.2951292570496
 30
0.0
 11
200.9818632080955
 21
135.9557372437721
 31
0.0
  0
LINE
  5
210C
330
2
100
AcDbEntity
  8
0
100
AcDbLine
 10
188.5772154977735
 20
152.9333553311612
 30
0.0
 11
187.237823484495
 21
149.6997769673716
 31
0.0
  0
LINE
  5
210D
330
2
100
AcDbEntity
  8
0
100
AcDbLine
 10
202.372873185624
 20
140.0527277220321
 30
0.0
 11
191.3348139627555
 21
151.090786944901
 31
0.0
  0
LINE
  5
210E
330
2
100
AcDbEntity
  8
0
100
AcDbLine
 10
199.8979994514707
 20
137.5778539878792
 30
0.0
 11
188.8599402286022
 21
148.6159132107482
 31
0.0
  0
LINE
  5
210F
330
2
100
AcDbEntity
  8
0
100
AcDbLine
 10
199.862465545541
 20
149.6370036318439
 30
0.0
 11
199.862465545541
 21
152.5237549777921
 31
0.0
  0
LINE
  5
2110
330
2
100
AcDbEntity
  8
0
100
AcDbLine
 10
199.862465545541
 20
149.6370036318439
 30
0.0
 11
202.3624655455409
 21
148.1936279588699
 31
0.0
  0
LINE
  5
2111
330
2
100
AcDbEntity
  8
0
100
AcDbLine
 10
202.3624655455409
 20
153.9671306507661
 30
0.0
 11
199.862465545541
 21
152.5237549777921
 31
0.0
  0
LINE
  5
2112
330
2
100
AcDbEntity
  8
CENTER
100
AcDbLine
 10
202.3624655455409
 20
159.830379304818
 30
0.0
 11
202.3624655455409
 21
142.330379304818
 31
0.0
  0
ARC
  5
2113
330
2
100
AcDbEntity
  8
0
100
AcDbCircle
 10
190.4585089857314
 20
196.3611706167825
 30
0.0
 40
40.0
100
AcDbArc
 50
263.823003595109
 51
283.367674202629
  0
ARC
  5
2114
330
2
100
AcDbEntity
  8
0
100
AcDbCircle
 10
185.3244063226697
 20
145.0803793048153
 30
0.0
 40
8.5
100
AcDbArc
 50
44.99999999998617
 51
90.0
  0
ARC
  5
2115
330
2
100
AcDbEntity
  8
0
100
AcDbCircle
 10
185.3244063226697
 20
145.0803793048153
 30
0.0
 40
5.0
100
AcDbArc
 50
44.99999999998617
 51
90.0
  0
LINE
  5
211C
330
2
100
AcDbEntity
  8
0
100
AcDbLine
 10
370.1027274601337
 20
81.58037930480714
 30
0.0
 11
370.1027274601337
 21
151.5803793048071
 31
0.0
  0
LINE
  5
211D
330
2
100
AcDbEntity
  8
0
100
AcDbLine
 10
289.6027274601336
 20
77.08037930478349
 30
0.0
 11
289.6027274601336
 21
87.08037930478326
 31
0.0
  0
LINE
  5
211E
330
2
100
AcDbEntity
  8
0
100
AcDbLine
 10
281.1027274601318
 20
80.51977548370633
 30
0.0
 11
281.1027274601318
 21
90.08037930480123
 31
0.0
  0
LINE
  5
211F
330
2
100
AcDbEntity
  8
0
100
AcDbLine
 10
283.6027274601336
 20
77.7731996278112
 30
0.0
 11
283.6027274601327
 21
86.38755898175578
 31
0.0
  0
LINE
  5
2120
330
2
100
AcDbEntity
  8
0
100
AcDbLine
 10
284.0027274601333
 20
77.08037930478349
 30
0.0
 11
284.0027274601333
 21
87.08037930478349
 31
0.0
  0
LINE
  5
2121
330
2
100
AcDbEntity
  8
HIDS
100
AcDbLine
 10
287.60272746013
 20
87.08037930478349
 30
0.0
 11
287.60272746013
 21
83.90880642954858
 31
0.0
  0
LINE
  5
2122
330
2
100
AcDbEntity
  8
0
100
AcDbLine
 10
291.1027274601327
 20
76.58037930480213
 30
0.0
 11
291.1027274601327
 21
156.5803793048021
 31
0.0
  0
ARC
  5
2123
330
2
100
AcDbEntity
  8
0
100
AcDbCircle
 10
203.8624655455401
 20
83.58037930482124
 30
0.0
 40
5.0
100
AcDbArc
 50
0.0
 51
13.36767420262589
  0
LINE
  5
2124
330
2
100
AcDbEntity
  8
0
100
AcDbLine
 10
365.1027274601346
 20
76.16507944676868
 30
0.0
 11
365.1027274601364
 21
156.9956791628328
 31
0.0
  0
LINE
  5
2125
330
2
100
AcDbEntity
  8
0
100
AcDbLine
 10
298.60272746013
 20
75.58474273868546
 30
0.0
 11
298.60272746013
 21
157.5760158708608
 31
0.0
  0
LINE
  5
2126
330
2
100
AcDbEntity
  8
CENTER
100
AcDbLine
 10
322.1027274601264
 20
168.0803793047861
 30
0.0
 11
322.1027274601264
 21
65.08037930478713
 31
0.0
  0
LINE
  5
2128
330
2
100
AcDbEntity
  8
0
100
AcDbLine
 10
365.1027274601364
 20
80.58037930478212
 30
0.0
 11
298.60272746013
 21
80.58037930478212
 31
0.0
  0
LINE
  5
2129
330
2
100
AcDbEntity
  8
0
100
AcDbLine
 10
365.1027274601364
 20
83.58037930478189
 30
0.0
 11
298.60272746013
 21
83.58037930478189
 31
0.0
  0
LINE
  5
212A
330
2
100
AcDbEntity
  8
0
100
AcDbLine
 10
358.1636985362173
 20
75.52014724474066
 30
0.0
 11
322.1027274601327
 21
75.08037930478713
 31
0.0
  0
LINE
  5
212B
330
2
100
AcDbEntity
  8
0
100
AcDbLine
 10
298.60272746013
 20
75.58474273868546
 30
0.0
 11
365.1027274601346
 21
76.16507944676868
 31
0.0
  0
LINE
  5
212C
330
2
100
AcDbEntity
  8
0
100
AcDbLine
 10
208.862465545541
 20
80.58037930482147
 30
0.0
 11
208.862465545541
 21
83.58037930482124
 31
0.0
  0
LINE
  5
212D
330
2
100
AcDbEntity
  8
0
100
AcDbLine
 10
204.862465545541
 20
80.63700363184398
 30
0.0
 11
204.862465545541
 21
83.52375497779211
 31
0.0
  0
LINE
  5
212E
330
2
100
AcDbEntity
  8
0
100
AcDbLine
 10
286.0417563840472
 20
75.52014724473884
 30
0.0
 11
322.1027274601318
 21
75.08037930478713
 31
0.0
  0
ARC
  5
212F
330
2
100
AcDbEntity
  8
HIDS
100
AcDbCircle
 10
289.1027274601327
 20
78.75195218005592
 30
0.0
 40
2.0
100
AcDbArc
 50
0.0
 51
45.00000000005988
  0
LINE
  5
2130
330
2
100
AcDbEntity
  8
0
100
AcDbLine
 10
298.60272746013
 20
80.58037930478212
 30
0.0
 11
292.1027274601327
 21
80.58037930478212
 31
0.0
  0
LINE
  5
2131
330
2
100
AcDbEntity
  8
0
100
AcDbLine
 10
298.60272746013
 20
83.58037930478189
 30
0.0
 11
292.1027274601327
 21
83.58037930478189
 31
0.0
  0
LINE
  5
2132
330
2
100
AcDbEntity
  8
0
100
AcDbLine
 10
289.6027274601327
 20
77.08037930478349
 30
0.0
 11
291.1027274601327
 21
77.08037930478349
 31
0.0
  0
ARC
  5
2133
330
2
100
AcDbEntity
  8
HIDS
100
AcDbCircle
 10
289.60272746013
 20
83.90880642954858
 30
0.0
 40
2.0
100
AcDbArc
 50
180.0
 51
225.0000000000598
  0
LINE
  5
2134
330
2
100
AcDbEntity
  8
0
100
AcDbLine
 10
284.0027274601333
 20
77.08037930478349
 30
0.0
 11
283.6027274601336
 21
77.7731996278112
 31
0.0
  0
LINE
  5
2135
330
2
100
AcDbEntity
  8
HIDS
100
AcDbLine
 10
290.5169410225052
 20
80.16616574242949
 30
0.0
 11
288.1885138977585
 21
82.49459286717479
 31
0.0
  0
LINE
  5
2136
330
2
100
AcDbEntity
  8
CENTER
100
AcDbLine
 10
278.6027274601327
 20
82.08037930478349
 30
0.0
 11
303.6654742042791
 21
82.08037930478349
 31
0.0
  0
LINE
  5
2137
330
2
100
AcDbEntity
  8
0
100
AcDbLine
 10
289.6027274601336
 20
77.08037930478349
 30
0.0
 11
284.0027274601333
 21
77.08037930478349
 31
0.0
  0
LINE
  5
2138
330
2
100
AcDbEntity
  8
0
100
AcDbLine
 10
298.60272746013
 20
75.58037930480214
 30
0.0
 11
292.1027274601336
 21
75.58037930480214
 31
0.0
  0
ARC
  5
2139
330
2
100
AcDbEntity
  8
0
100
AcDbCircle
 10
286.1027274601318
 20
80.51977548370633
 30
0.0
 40
5.0
100
AcDbArc
 50
180.0
 51
269.3013056170002
  0
ARC
  5
213A
330
2
100
AcDbEntity
  8
0
100
AcDbCircle
 10
292.1027274601336
 20
76.58037930480213
 30
0.0
 40
1.0
100
AcDbArc
 50
180.0
 51
270.0
  0
LINE
  5
213B
330
2
100
AcDbEntity
  8
0
100
AcDbLine
 10
365.1027274601336
 20
81.58037930480714
 30
0.0
 11
370.1027274601337
 21
81.58037930480714
 31
0.0
  0
ARC
  5
213C
330
2
100
AcDbEntity
  8
0
100
AcDbCircle
 10
358.1027274601318
 20
80.51977548370814
 30
0.0
 40
5.0
100
AcDbArc
 50
270.6986943829998
 51
298.4785614955819
  0
LINE
  5
213D
330
2
100
AcDbEntity
  8
0
100
AcDbLine
 10
358.1636985362173
 20
157.6406113648317
 30
0.0
 11
322.1027274601327
 21
158.0803793047862
 31
0.0
  0
LINE
  5
213E
330
2
100
AcDbEntity
  8
0
100
AcDbLine
 10
298.60272746013
 20
157.5760158708608
 30
0.0
 11
365.1027274601364
 21
156.9956791628328
 31
0.0
  0
LINE
  5
213F
330
2
100
AcDbEntity
  8
CENTER
100
AcDbLine
 10
269.10272746013
 20
116.5803793048021
 30
0.0
 11
425.1027274601345
 21
116.5803793048021
 31
0.0
  0
LINE
  5
2140
330
2
100
AcDbEntity
  8
0
100
AcDbLine
 10
365.1027274601364
 20
152.5803793048221
 30
0.0
 11
298.60272746013
 21
152.5803793048221
 31
0.0
  0
LINE
  5
2141
330
2
100
AcDbEntity
  8
0
100
AcDbLine
 10
365.1027274601364
 20
149.5803793048223
 30
0.0
 11
298.60272746013
 21
149.5803793048223
 31
0.0
  0
LINE
  5
2142
330
2
100
AcDbEntity
  8
0
100
AcDbLine
 10
365.1027274601355
 20
134.8724144706864
 30
0.0
 11
298.60272746013
 21
134.8724144706864
 31
0.0
  0
LINE
  5
2143
330
2
100
AcDbEntity
  8
0
100
AcDbLine
 10
365.1027274601355
 20
98.28834413891787
 30
0.0
 11
298.60272746013
 21
98.28834413891787
 31
0.0
  0
ARC
  5
2148
330
2
100
AcDbEntity
  8
0
100
AcDbCircle
 10
38.862465545541
 20
116.5803793048212
 30
0.0
 40
170.0
100
AcDbArc
 50
353.8230035951353
 51
6.176996404864683
  0
LINE
  5
2149
330
2
100
AcDbEntity
  8
0
100
AcDbLine
 10
204.8624655455382
 20
99.11843852768971
 30
0.0
 11
204.8624655455382
 21
134.0423200819464
 31
0.0
  0
ARC
  5
214A
330
2
100
AcDbEntity
  8
0
100
AcDbCircle
 10
247.6432568575023
 20
93.98433586463079
 30
0.0
 40
40.0
100
AcDbArc
 50
173.8230035951353
 51
193.3676742026259
  0
ARC
  5
214B
330
2
100
AcDbEntity
  8
0
100
AcDbCircle
 10
247.6432568575032
 20
139.1764227450105
 30
0.0
 40
40.0
100
AcDbArc
 50
166.6323257973741
 51
186.1769964048647
  0
LINE
  5
214C
330
2
100
AcDbEntity
  8
0
100
AcDbLine
 10
208.862465545541
 20
149.5803793048212
 30
0.0
 11
208.862465545541
 21
152.5803793048212
 31
0.0
  0
ARC
  5
214D
330
2
100
AcDbEntity
  8
0
100
AcDbCircle
 10
203.8624655455409
 20
149.5803793048212
 30
0.0
 40
5.0
100
AcDbArc
 50
346.6323257973741
 51
0.0
  0
LINE
  5
214E
330
2
100
AcDbEntity
  8
0
100
AcDbLine
 10
204.862465545541
 20
149.6370036318439
 30
0.0
 11
204.862465545541
 21
152.5237549777921
 31
0.0
  0
LINE
  5
214F
330
2
100
AcDbEntity
  8
0
100
AcDbLine
 10
287.60272746013
 20
146.0803793048207
 30
0.0
 11
287.60272746013
 21
87.08037930478349
 31
0.0
  0
LINE
  5
2150
330
2
100
AcDbEntity
  8
0
100
AcDbLine
 10
279.10272746013
 20
142.503029035611
 30
0.0
 11
279.10272746013
 21
90.65772957399349
 31
0.0
  0
LINE
  5
2151
330
2
100
AcDbEntity
  8
0
100
AcDbLine
 10
283.6027274601354
 20
142.8803793048025
 30
0.0
 11
283.6027274601354
 21
90.28037930480172
 31
0.0
  0
LINE
  5
2152
330
2
100
AcDbEntity
  8
0
100
AcDbLine
 10
281.6027274601355
 20
142.880379304803
 30
0.0
 11
281.6027274602146
 21
90.28037930480172
 31
0.0
  0
LINE
  5
2153
330
2
100
AcDbEntity
  8
0
100
AcDbLine
 10
287.1027274601309
 20
88.08037930480736
 30
0.0
 11
287.10272746013
 21
145.0803793047964
 31
0.0
  0
LINE
  5
2154
330
2
100
AcDbEntity
  8
0
100
AcDbLine
 10
280.1027274601354
 20
143.0803793048028
 30
0.0
 11
280.1027274601354
 21
90.08037930480123
 31
0.0
  0
LINE
  5
2155
330
2
100
AcDbEntity
  8
0
100
AcDbLine
 10
283.8027274601353
 20
90.08037930480169
 30
0.0
 11
283.8027274601353
 21
143.0803793048023
 31
0.0
  0
LINE
  5
2156
330
2
100
AcDbEntity
  8
0
100
AcDbLine
 10
298.60272746013
 20
98.28834413891787
 30
0.0
 11
292.1027274601327
 21
98.28834413891787
 31
0.0
  0
LINE
  5
2157
330
2
100
AcDbEntity
  8
0
100
AcDbLine
 10
289.6027274601327
 20
87.08037930478349
 30
0.0
 11
291.1027274601327
 21
87.08037930478349
 31
0.0
  0
LINE
  5
2158
330
2
100
AcDbEntity
  8
0
100
AcDbLine
 10
280.1027274601354
 20
90.08037930480123
 30
0.0
 11
281.4027274601347
 21
90.08037930480146
 31
0.0
  0
LINE
  5
2159
330
2
100
AcDbEntity
  8
0
100
AcDbLine
 10
283.6027274601354
 20
90.28037930480172
 30
0.0
 11
283.8027274601353
 21
90.08037930480169
 31
0.0
  0
LINE
  5
215A
330
2
100
AcDbEntity
  8
0
100
AcDbLine
 10
281.8027274601353
 20
90.78037930480126
 30
0.0
 11
283.4027274601347
 21
90.78037930480173
 31
0.0
  0
LINE
  5
215B
330
2
100
AcDbEntity
  8
0
100
AcDbLine
 10
280.1027274601354
 20
90.08037930480123
 30
0.0
 11
279.1027274601355
 21
90.65772957399076
 31
0.0
  0
LINE
  5
215C
330
2
100
AcDbEntity
  8
0
100
AcDbLine
 10
287.1027274601309
 20
88.08037930480736
 30
0.0
 11
287.6027274601355
 21
87.58037930480236
 31
0.0
  0
LINE
  5
215D
330
2
100
AcDbEntity
  8
0
100
AcDbLine
 10
283.8027274601353
 20
90.08037930480169
 30
0.0
 11
287.1027274601355
 21
90.08037930480213
 31
0.0
  0
ARC
  5
215E
330
2
100
AcDbEntity
  8
0
100
AcDbCircle
 10
281.4027274601347
 20
90.28037930480127
 30
0.0
 40
0.2
100
AcDbArc
 50
270.0
 51
0.0000000001042204
  0
ARC
  5
215F
330
2
100
AcDbEntity
  8
0
100
AcDbCircle
 10
281.8027274601362
 20
90.58037930480145
 30
0.0
 40
0.2
100
AcDbArc
 50
90.0
 51
179.9999999998697
  0
ARC
  5
2160
330
2
100
AcDbEntity
  8
0
100
AcDbCircle
 10
283.4027274601347
 20
90.58037930480145
 30
0.0
 40
0.2
100
AcDbArc
 50
0.0
 51
90.0
  0
LINE
  5
2161
330
2
100
AcDbEntity
  8
0
100
AcDbLine
 10
284.0027274601333
 20
87.08037930478349
 30
0.0
 11
283.6027274601336
 21
86.38755898175578
 31
0.0
  0
LINE
  5
2162
330
2
100
AcDbEntity
  8
0
100
AcDbLine
 10
289.6027274601336
 20
87.08037930478349
 30
0.0
 11
284.0027274601333
 21
87.08037930478349
 31
0.0
  0
LINE
  5
2163
330
2
100
AcDbEntity
  8
0
100
AcDbLine
 10
286.0417563840472
 20
157.6406113648336
 30
0.0
 11
322.1027274601318
 21
158.0803793047862
 31
0.0
  0
LINE
  5
2164
330
2
100
AcDbEntity
  8
0
100
AcDbLine
 10
298.6027274601309
 20
157.5803793048019
 30
0.0
 11
292.1027274601327
 21
157.5803793048019
 31
0.0
  0
ARC
  5
2165
330
2
100
AcDbEntity
  8
0
100
AcDbCircle
 10
292.1027274601327
 20
156.5803793048019
 30
0.0
 40
1.0
100
AcDbArc
 50
90.0
 51
180.0
  0
ARC
  5
2166
330
2
100
AcDbEntity
  8
HIDS
100
AcDbCircle
 10
289.1027274601327
 20
154.4088064295483
 30
0.0
 40
2.0
100
AcDbArc
 50
314.99999999994
 51
0.0
  0
LINE
  5
2167
330
2
100
AcDbEntity
  8
0
100
AcDbLine
 10
298.60272746013
 20
152.5803793048221
 30
0.0
 11
292.1027274601327
 21
152.5803793048221
 31
0.0
  0
LINE
  5
2168
330
2
100
AcDbEntity
  8
0
100
AcDbLine
 10
298.60272746013
 20
149.5803793048223
 30
0.0
 11
292.1027274601327
 21
149.5803793048223
 31
0.0
  0
LINE
  5
2169
330
2
100
AcDbEntity
  8
0
100
AcDbLine
 10
298.60272746013
 20
134.8724144706864
 30
0.0
 11
292.1027274601327
 21
134.8724144706864
 31
0.0
  0
LINE
  5
216A
330
2
100
AcDbEntity
  8
0
100
AcDbLine
 10
289.6027274601336
 20
156.0803793048207
 30
0.0
 11
289.6027274601336
 21
146.080379304821
 31
0.0
  0
LINE
  5
216B
330
2
100
AcDbEntity
  8
0
100
AcDbLine
 10
289.6027274601327
 20
156.0803793048207
 30
0.0
 11
291.1027274601327
 21
156.0803793048207
 31
0.0
  0
LINE
  5
216C
330
2
100
AcDbEntity
  8
0
100
AcDbLine
 10
289.6027274601327
 20
146.0803793048207
 30
0.0
 11
291.1027274601327
 21
146.0803793048207
 31
0.0
  0
LINE
  5
216D
330
2
100
AcDbEntity
  8
0
100
AcDbLine
 10
281.1027274601318
 20
143.0803793048025
 30
0.0
 11
281.1027274601318
 21
152.6409831258661
 31
0.0
  0
LINE
  5
216E
330
2
100
AcDbEntity
  8
0
100
AcDbLine
 10
280.1027274601354
 20
143.0803793048028
 30
0.0
 11
279.1027274601355
 21
142.5030290356132
 31
0.0
  0
LINE
  5
216F
330
2
100
AcDbEntity
  8
0
100
AcDbLine
 10
281.8027274601353
 20
142.3803793048027
 30
0.0
 11
283.4027274601347
 21
142.3803793048025
 31
0.0
  0
LINE
  5
2170
330
2
100
AcDbEntity
  8
0
100
AcDbLine
 10
283.6027274601354
 20
142.8803793048025
 30
0.0
 11
283.8027274601353
 21
143.0803793048023
 31
0.0
  0
LINE
  5
2171
330
2
100
AcDbEntity
  8
0
100
AcDbLine
 10
280.1027274601354
 20
143.0803793048028
 30
0.0
 11
281.4027274601347
 21
143.0803793048025
 31
0.0
  0
LINE
  5
2172
330
2
100
AcDbEntity
  8
0
100
AcDbLine
 10
287.1027274601355
 20
145.0803793048019
 30
0.0
 11
287.1027274601355
 21
143.0803793048019
 31
0.0
  0
LINE
  5
2173
330
2
100
AcDbEntity
  8
0
100
AcDbLine
 10
287.1027274601355
 20
145.0803793048019
 30
0.0
 11
287.6027274601355
 21
145.5803793048019
 31
0.0
  0
LINE
  5
2174
330
2
100
AcDbEntity
  8
0
100
AcDbLine
 10
283.8027274601353
 20
143.0803793048023
 30
0.0
 11
287.1027274601355
 21
143.0803793048019
 31
0.0
  0
ARC
  5
2175
330
2
100
AcDbEntity
  8
HIDS
100
AcDbCircle
 10
289.60272746013
 20
149.2519521800556
 30
0.0
 40
2.0
100
AcDbArc
 50
134.9999999999401
 51
180.0
  0
ARC
  5
2176
330
2
100
AcDbEntity
  8
0
100
AcDbCircle
 10
281.4027274601347
 20
142.8803793048025
 30
0.0
 40
0.2
100
AcDbArc
 50
0.0000000001302755
 51
90.0
  0
ARC
  5
2177
330
2
100
AcDbEntity
  8
0
100
AcDbCircle
 10
281.8027274601353
 20
142.5803793048028
 30
0.0
 40
0.2
100
AcDbArc
 50
180.0000000001302
 51
270.0
  0
ARC
  5
2178
330
2
100
AcDbEntity
  8
0
100
AcDbCircle
 10
283.4027274601347
 20
142.5803793048023
 30
0.0
 40
0.2
100
AcDbArc
 50
270.0
 51
0.0
  0
LINE
  5
2179
330
2
100
AcDbEntity
  8
0
100
AcDbLine
 10
283.6027274601336
 20
155.387558981793
 30
0.0
 11
283.6027274601327
 21
146.7731996278484
 31
0.0
  0
LINE
  5
217A
330
2
100
AcDbEntity
  8
0
100
AcDbLine
 10
284.0027274601333
 20
156.0803793048207
 30
0.0
 11
284.0027274601333
 21
146.0803793048207
 31
0.0
  0
LINE
  5
217B
330
2
100
AcDbEntity
  8
0
100
AcDbLine
 10
284.0027274601333
 20
156.0803793048207
 30
0.0
 11
283.6027274601336
 21
155.387558981793
 31
0.0
  0
LINE
  5
217C
330
2
100
AcDbEntity
  8
0
100
AcDbLine
 10
284.0027274601333
 20
146.0803793048207
 30
0.0
 11
283.6027274601336
 21
146.7731996278484
 31
0.0
  0
LINE
  5
217D
330
2
100
AcDbEntity
  8
HIDS
100
AcDbLine
 10
287.60272746013
 20
146.0803793048207
 30
0.0
 11
287.60272746013
 21
149.2519521800556
 31
0.0
  0
LINE
  5
217E
330
2
100
AcDbEntity
  8
HIDS
100
AcDbLine
 10
290.5169410225052
 20
152.9945928671745
 30
0.0
 11
288.1885138977576
 21
150.6661657424294
 31
0.0
  0
LINE
  5
217F
330
2
100
AcDbEntity
  8
CENTER
100
AcDbLine
 10
278.6027274601327
 20
151.0803793048207
 30
0.0
 11
303.6654742042791
 21
151.0803793048207
 31
0.0
  0
LINE
  5
2180
330
2
100
AcDbEntity
  8
0
100
AcDbLine
 10
289.6027274601336
 20
146.0803793048207
 30
0.0
 11
284.0027274601333
 21
146.0803793048207
 31
0.0
  0
LINE
  5
2181
330
2
100
AcDbEntity
  8
0
100
AcDbLine
 10
289.6027274601336
 20
156.0803793048207
 30
0.0
 11
284.0027274601333
 21
156.0803793048207
 31
0.0
  0
ARC
  5
2182
330
2
100
AcDbEntity
  8
0
100
AcDbCircle
 10
286.1027274601318
 20
152.6409831258661
 30
0.0
 40
5.0
100
AcDbArc
 50
90.69869438299976
 51
180.0
  0
LINE
  5
2188
330
2
100
AcDbEntity
  8
0
100
AcDbLine
 10
414.6027274601346
 20
107.5804253048022
 30
0.0
 11
385.1027274601355
 21
107.5804253048022
 31
0.0
  0
LINE
  5
2189
330
2
100
AcDbEntity
  8
0
100
AcDbLine
 10
385.1027274601355
 20
125.5804253048022
 30
0.0
 11
414.6027274601346
 21
125.5804253048022
 31
0.0
  0
LINE
  5
218B
330
2
100
AcDbEntity
  8
0
100
AcDbLine
 10
383.1027274601318
 20
90.51175685442194
 30
0.0
 11
383.1027274601336
 21
142.6490017551923
 31
0.0
  0
LINE
  5
218C
330
2
100
AcDbEntity
  8
0
100
AcDbLine
 10
385.1027274601355
 20
126.5804250160888
 30
0.0
 11
385.1027274601355
 21
106.5804250160867
 31
0.0
  0
LINE
  5
218D
330
2
100
AcDbEntity
  8
0
100
AcDbLine
 10
384.1027274601355
 20
130.2917041702073
 30
0.0
 11
384.1027274601355
 21
102.8690544393969
 31
0.0
  0
LINE
  5
218E
330
2
100
AcDbEntity
  8
0
100
AcDbLine
 10
372.0329284667285
 20
88.19381340583914
 30
0.0
 11
381.1725264535379
 21
88.51297520038315
 31
0.0
  0
ARC
  5
218F
330
2
100
AcDbEntity
  8
0
100
AcDbCircle
 10
372.1027274601336
 20
86.19503175180126
 30
0.0
 40
2.0
100
AcDbArc
 50
92.00000000000361
 51
180.0
  0
ARC
  5
2190
330
2
100
AcDbEntity
  8
0
100
AcDbCircle
 10
381.1027274601336
 20
90.51175685442194
 30
0.0
 40
2.0
100
AcDbArc
 50
272.0000000000035
 51
0.0
  0
LINE
  5
2191
330
2
100
AcDbEntity
  8
0
100
AcDbLine
 10
385.1027274601355
 20
106.5803335935151
 30
0.0
 11
384.1027274601355
 21
106.0029833243256
 31
0.0
  0
ARC
  5
2192
330
2
100
AcDbEntity
  8
0
100
AcDbCircle
 10
383.6027274601354
 20
102.8690544393969
 30
0.0
 40
0.5
100
AcDbArc
 50
300.0000000000005
 51
0.0
  0
LINE
  5
2193
330
2
100
AcDbEntity
  8
0
100
AcDbLine
 10
383.8527274601355
 20
102.4360417375046
 30
0.0
 11
383.7008892242846
 21
102.3483778911629
 31
0.0
  0
ARC
  5
2194
330
2
100
AcDbEntity
  8
0
100
AcDbCircle
 10
382.7008892242846
 20
104.0804286987317
 30
0.0
 40
2.0
100
AcDbArc
 50
281.5907116854249
 51
300.0000000000005
  0
LINE
  5
2195
330
2
100
AcDbEntity
  8
0
100
AcDbLine
 10
372.0329284667285
 20
144.966945203776
 30
0.0
 11
381.1725264535388
 21
144.6477834092311
 31
0.0
  0
ARC
  5
2196
330
2
100
AcDbEntity
  8
0
100
AcDbCircle
 10
372.1027274601336
 20
146.9657268578148
 30
0.0
 40
2.0
100
AcDbArc
 50
180.0
 51
267.9999999999963
  0
ARC
  5
2197
330
2
100
AcDbEntity
  8
0
100
AcDbCircle
 10
358.1027274601318
 20
152.6409831258642
 30
0.0
 40
5.0
100
AcDbArc
 50
61.52143850501121
 51
89.30130561700023
  0
LINE
  5
2198
330
2
100
AcDbEntity
  8
0
100
AcDbLine
 10
365.1027274601336
 20
151.5803793048071
 30
0.0
 11
370.1027274601337
 21
151.5803793048071
 31
0.0
  0
ARC
  5
2199
330
2
100
AcDbEntity
  8
0
100
AcDbCircle
 10
381.1027274601336
 20
142.6490017551923
 30
0.0
 40
2.0
100
AcDbArc
 50
0.0
 51
87.9999999999964
  0
ARC
  5
219A
330
2
100
AcDbEntity
  8
0
100
AcDbCircle
 10
383.6027274601354
 20
130.2917041702073
 30
0.0
 40
0.5
100
AcDbArc
 50
0.0
 51
59.99999999999946
  0
LINE
  5
219B
330
2
100
AcDbEntity
  8
0
100
AcDbLine
 10
385.1027274601355
 20
126.5804250160888
 30
0.0
 11
384.1027274601355
 21
127.1577752852786
 31
0.0
  0
LINE
  5
219C
330
2
100
AcDbEntity
  8
0
100
AcDbLine
 10
383.8527274601355
 20
130.7247168720994
 30
0.0
 11
383.7008892242846
 21
130.8123807184413
 31
0.0
  0
ARC
  5
219D
330
2
100
AcDbEntity
  8
0
100
AcDbCircle
 10
382.7008892242846
 20
129.0803299108722
 30
0.0
 40
2.0
100
AcDbArc
 50
59.99999999999946
 51
78.40928831454826
  0
LINE
  5
219E
330
2
100
AcDbEntity
  8
0
100
AcDbLine
 10
414.6027274601346
 20
125.5804253048022
 30
0.0
 11
415.1027274601346
 21
125.0804253048022
 31
0.0
  0
LINE
  5
219F
330
2
100
AcDbEntity
  8
0
100
AcDbLine
 10
415.1027274601346
 20
108.0804253048022
 30
0.0
 11
414.6027274601346
 21
107.5804253048022
 31
0.0
  0
LINE
  5
21A0
330
2
100
AcDbEntity
  8
0
100
AcDbLine
 10
415.1027274601346
 20
125.0804253048022
 30
0.0
 11
415.1027274601346
 21
108.0804253048022
 31
0.0
  0
LINE
  5
21A1
330
2
100
AcDbEntity
  8
0
100
AcDbLine
 10
414.6027274601346
 20
125.5804253048022
 30
0.0
 11
414.6027274601346
 21
107.5804253048022
 31
0.0
  0
ARC
  5
21A8
330
2
100
AcDbEntity
  8
0
100
AcDbCircle
 10
655.4984174507043
 20
78.58037930494162
 30
0.0
 40
5.0
100
AcDbArc
 50
0.0
 51
90.0
  0
CIRCLE
  5
21A9
330
2
100
AcDbEntity
  8
HOJO
100
AcDbCircle
 10
622.1466497288473
 20
81.93214702668376
 30
0.0
 40
3.0
  0
CIRCLE
  5
21AA
330
2
100
AcDbEntity
  8
0
100
AcDbCircle
 10
622.1466497288473
 20
81.93214702668376
 30
0.0
 40
2.399999999999999
  0
ARC
  5
21AB
330
2
100
AcDbEntity
  8
0
100
AcDbCircle
 10
649.9984174507098
 20
85.58037930494277
 30
0.0
 40
2.0
100
AcDbArc
 50
180.0
 51
270.0
  0
ARC
  5
21AC
330
2
100
AcDbEntity
  8
0
100
AcDbCircle
 10
631.4984174507061
 20
81.58037930482317
 30
0.0
 40
3.0
100
AcDbArc
 50
90.0
 51
180.0
  0
LINE
  5
21AD
330
2
100
AcDbEntity
  8
0
100
AcDbLine
 10
628.4984174507061
 20
152.5803793048245
 30
0.0
 11
628.4984174507061
 21
80.58037930482454
 31
0.0
  0
LINE
  5
21AE
330
2
100
AcDbEntity
  8
0
100
AcDbLine
 10
660.4984174507043
 20
156.0803793048245
 30
0.0
 11
660.498417450707
 21
77.08037930482453
 31
0.0
  0
LINE
  5
21AF
330
2
100
AcDbEntity
  8
0
100
AcDbLine
 10
586.0459333661828
 20
85.9072529272122
 30
0.0
 11
584.2959333661891
 21
82.40725292722448
 31
0.0
  0
ARC
  5
21B0
330
2
100
AcDbEntity
  8
0
100
AcDbCircle
 10
588.9509015336724
 20
84.71725292721647
 30
0.0
 40
1.189999999995825
100
AcDbArc
 50
307.5189678668038
 51
90.0
  0
LINE
  5
21B1
330
2
100
AcDbEntity
  8
0
100
AcDbLine
 10
587.9096833661759
 20
84.56850292721686
 30
0.0
 11
589.2849822291262
 21
82.40725292722448
 31
0.0
  0
LINE
  5
21B2
330
2
100
AcDbEntity
  8
0
100
AcDbLine
 10
587.7609015336765
 20
84.71725292721647
 30
0.0
 11
587.7609015336765
 21
82.40725292722448
 31
0.0
  0
CIRCLE
  5
21B3
330
2
100
AcDbEntity
  8
HOJO
100
AcDbCircle
 10
552.8501851725658
 20
81.93214702668376
 30
0.0
 40
3.0
  0
CIRCLE
  5
21B4
330
2
100
AcDbEntity
  8
0
100
AcDbCircle
 10
552.8501851725658
 20
81.93214702668376
 30
0.0
 40
2.399999999999999
  0
ARC
  5
21B5
330
2
100
AcDbEntity
  8
0
100
AcDbCircle
 10
551.4984174507033
 20
83.58037930482657
 30
0.0
 40
5.0
100
AcDbArc
 50
166.6323257973741
 51
180.0
  0
CIRCLE
  5
21B6
330
2
100
AcDbEntity
  8
0
100
AcDbCircle
 10
587.4984174507061
 20
116.5803793048245
 30
0.0
 40
35.00000000000011
  0
LINE
  5
21B7
330
2
100
AcDbEntity
  8
CENTER
100
AcDbLine
 10
632.0461446654579
 20
161.1281065195782
 30
0.0
 11
542.9506902359524
 21
72.03265209007327
 31
0.0
  0
LINE
  5
21B8
330
2
100
AcDbEntity
  8
CENTER
100
AcDbLine
 10
542.2723379841299
 20
161.8064587714002
 30
0.0
 11
632.7244969172806
 21
71.35429983824884
 31
0.0
  0
CIRCLE
  5
21B9
330
2
100
AcDbEntity
  8
CENTER
100
AcDbCircle
 10
587.4984174507061
 20
116.5803793048249
 30
0.0
 40
48.99999999999932
  0
LINE
  5
21BA
330
2
100
AcDbEntity
  8
CENTER
100
AcDbLine
 10
552.8501851725649
 20
88.93214702668377
 30
0.0
 11
552.8501851725649
 21
74.93214702668376
 31
0.0
  0
LINE
  5
21BB
330
2
100
AcDbEntity
  8
CENTER
100
AcDbLine
 10
622.1466497288473
 20
88.93214702668377
 30
0.0
 11
622.1466497288473
 21
74.93214702668376
 31
0.0
  0
LINE
  5
21BD
330
2
100
AcDbEntity
  8
CENTER
100
AcDbLine
 10
587.498417450712
 20
175.5803793048243
 30
0.0
 11
587.4984174507115
 21
57.58037930482567
 31
0.0
  0
ARC
  5
21BF
330
2
100
AcDbEntity
  8
0
100
AcDbCircle
 10
564.9023740105129
 20
36.79958799286487
 30
0.0
 40
40.0
100
AcDbArc
 50
83.82300359510905
 51
103.367674202629
  0
LINE
  5
21C0
330
2
100
AcDbEntity
  8
0
100
AcDbLine
 10
546.4984174507025
 20
83.58037930482657
 30
0.0
 11
546.4984174507025
 21
80.58037930482658
 31
0.0
  0
LINE
  5
21C1
330
2
100
AcDbEntity
  8
CENTER
100
AcDbLine
 10
559.8501851725658
 20
81.93214702668536
 30
0.0
 11
545.8501851725658
 21
81.93214702668536
 31
0.0
  0
LINE
  5
21C2
330
2
100
AcDbEntity
  8
0
100
AcDbLine
 10
551.4984174507024
 20
75.58037930482658
 30
0.0
 11
554.4984174507025
 21
75.58037930482658
 31
0.0
  0
ARC
  5
21C3
330
2
100
AcDbEntity
  8
0
100
AcDbCircle
 10
554.4984174507025
 20
80.58037930482726
 30
0.0
 40
5.0
100
AcDbArc
 50
270.0
 51
283.367674202629
  0
ARC
  5
21C4
330
2
100
AcDbEntity
  8
0
100
AcDbCircle
 10
551.4984174507061
 20
80.58037930482454
 30
0.0
 40
5.0
100
AcDbArc
 50
180.0
 51
270.0
  0
ARC
  5
21C5
330
2
100
AcDbEntity
  8
0
100
AcDbCircle
 10
587.4984174507025
 20
245.5803793048267
 30
0.0
 40
170.0
100
AcDbArc
 50
263.823003595109
 51
276.1769964048909
  0
LINE
  5
21C6
330
2
100
AcDbEntity
  8
0
100
AcDbLine
 10
584.2959333661891
 20
82.40725292722448
 30
0.0
 11
585.555933909265
 21
82.40725292722448
 31
0.0
  0
LINE
  5
21C7
330
2
100
AcDbEntity
  8
0
100
AcDbLine
 10
589.6756401372702
 20
83.77340232651443
 30
0.0
 11
590.5449827722021
 21
82.40725292722448
 31
0.0
  0
LINE
  5
21C8
330
2
100
AcDbEntity
  8
0
100
AcDbLine
 10
589.2849822291262
 20
82.40725292722448
 30
0.0
 11
590.5449827722021
 21
82.40725292722448
 31
0.0
  0
LINE
  5
21C9
330
2
100
AcDbEntity
  8
0
100
AcDbLine
 10
586.71093336618
 20
82.40725292722448
 30
0.0
 11
587.7609015336765
 21
82.40725292722448
 31
0.0
  0
LINE
  5
21CA
330
2
100
AcDbEntity
  8
0
100
AcDbLine
 10
585.8184339092639
 20
82.93225292722274
 30
0.0
 11
585.555933909265
 21
82.40725292722448
 31
0.0
  0
LINE
  5
21CB
330
2
100
AcDbEntity
  8
0
100
AcDbLine
 10
585.8184339092639
 20
82.93225292722274
 30
0.0
 11
586.71093336618
 21
82.93225292722274
 31
0.0
  0
LINE
  5
21CC
330
2
100
AcDbEntity
  8
0
100
AcDbLine
 10
586.71093336618
 20
82.93225292722274
 30
0.0
 11
586.71093336618
 21
82.40725292722448
 31
0.0
  0
LINE
  5
21CD
330
2
100
AcDbEntity
  8
CENTER
100
AcDbLine
 10
629.1466497288474
 20
81.93214702668877
 30
0.0
 11
615.1466497288473
 21
81.93214702668877
 31
0.0
  0
ARC
  5
21CE
330
2
100
AcDbEntity
  8
0
100
AcDbCircle
 10
620.4984174507025
 20
80.58037930482681
 30
0.0
 40
5.0
100
AcDbArc
 50
256.6323257973709
 51
270.0
  0
LINE
  5
21CF
330
2
100
AcDbEntity
  8
0
100
AcDbLine
 10
620.4984174507025
 20
75.58037930482658
 30
0.0
 11
623.4984174507034
 21
75.58037930482658
 31
0.0
  0
ARC
  5
21D0
330
2
100
AcDbEntity
  8
0
100
AcDbCircle
 10
623.498417450707
 20
80.58037930482454
 30
0.0
 40
5.0
100
AcDbArc
 50
270.0
 51
0.0
  0
ARC
  5
21D1
330
2
100
AcDbEntity
  8
0
100
AcDbCircle
 10
610.094460890892
 20
36.79958799286464
 30
0.0
 40
40.0
100
AcDbArc
 50
76.63232579737094
 51
96.17699640483843
  0
LINE
  5
21D2
330
2
100
AcDbEntity
  8
0
100
AcDbLine
 10
655.4984174507043
 20
83.58037930494162
 30
0.0
 11
649.9984174507098
 21
83.58037930494162
 31
0.0
  0
LINE
  5
21D3
330
2
100
AcDbEntity
  8
0
100
AcDbLine
 10
672.4984174507043
 20
75.58037930482453
 30
0.0
 11
662.498417450707
 21
75.58037930482453
 31
0.0
  0
LINE
  5
21D4
330
2
100
AcDbEntity
  8
0
100
AcDbLine
 10
672.4984174507043
 20
75.08037930482453
 30
0.0
 11
662.498417450707
 21
75.08037930482453
 31
0.0
  0
ARC
  5
21D5
330
2
100
AcDbEntity
  8
0
100
AcDbCircle
 10
662.498417450707
 20
77.58037930482453
 30
0.0
 40
2.0
100
AcDbArc
 50
180.0
 51
270.0
  0
ARC
  5
21D6
330
2
100
AcDbEntity
  8
0
100
AcDbCircle
 10
662.498417450707
 20
77.08037930482453
 30
0.0
 40
2.0
100
AcDbArc
 50
180.0
 51
270.0
  0
LINE
  5
21DB
330
2
100
AcDbEntity
  8
0
100
AcDbLine
 10
642.9984174507161
 20
142.5803793047076
 30
0.0
 11
633.4984174507061
 21
142.5803793047083
 31
0.0
  0
LINE
  5
21DC
330
2
100
AcDbEntity
  8
0
100
AcDbLine
 10
631.4984174507061
 20
119.0803793048249
 30
0.0
 11
644.9984174507143
 21
119.0803793048249
 31
0.0
  0
LINE
  5
21DD
330
2
100
AcDbEntity
  8
0
100
AcDbLine
 10
631.4984174507061
 20
148.5803793048329
 30
0.0
 11
646.9984174507052
 21
148.5803793048329
 31
0.0
  0
LINE
  5
21DE
330
2
100
AcDbEntity
  8
0
100
AcDbLine
 10
642.9984174507143
 20
90.58037930494277
 30
0.0
 11
633.4984174507061
 21
90.58037930494277
 31
0.0
  0
LINE
  5
21DF
330
2
100
AcDbEntity
  8
0
100
AcDbLine
 10
631.4984174507061
 20
114.0803793048254
 30
0.0
 11
644.9984174507134
 21
114.0803793048249
 31
0.0
  0
LINE
  5
21E0
330
2
100
AcDbEntity
  8
0
100
AcDbLine
 10
631.4984174507061
 20
84.58037930482317
 30
0.0
 11
646.9984174507052
 21
84.58037930482317
 31
0.0
  0
ARC
  5
21E2
330
2
100
AcDbEntity
  8
0
100
AcDbCircle
 10
564.9023740105129
 20
196.3611706167886
 30
0.0
 40
40.0
100
AcDbArc
 50
256.6323257973709
 51
276.1769964048909
  0
CIRCLE
  5
21E3
330
2
100
AcDbEntity
  8
0
100
AcDbCircle
 10
587.4984174507061
 20
116.5803793048245
 30
0.0
 40
23.0
  0
CIRCLE
  5
21E4
330
2
100
AcDbEntity
  8
0
100
AcDbCircle
 10
587.4984174507061
 20
116.5803793048245
 30
0.0
 40
27.99999999999875
  0
ARC
  5
21E5
330
2
100
AcDbEntity
  8
0
100
AcDbCircle
 10
716.4984174507034
 20
116.5803793048265
 30
0.0
 40
170.0
100
AcDbArc
 50
173.8230035951353
 51
186.1769964048647
  0
ARC
  5
21E6
330
2
100
AcDbEntity
  8
0
100
AcDbCircle
 10
507.7176261387411
 20
93.98433586463728
 30
0.0
 40
40.0
100
AcDbArc
 50
346.6323257973741
 51
6.176996404864683
  0
CIRCLE
  5
21E7
330
2
100
AcDbEntity
  8
0
100
AcDbCircle
 10
552.8501851725658
 20
151.2286115829652
 30
0.0
 40
2.399999999999999
  0
CIRCLE
  5
21E8
330
2
100
AcDbEntity
  8
HOJO
100
AcDbCircle
 10
552.8501851725658
 20
151.2286115829652
 30
0.0
 40
3.0
  0
ARC
  5
21E9
330
2
100
AcDbEntity
  8
0
100
AcDbCircle
 10
554.4984174507025
 20
152.5803793048263
 30
0.0
 40
5.0
100
AcDbArc
 50
76.63232579737094
 51
90.0
  0
LINE
  5
21EA
330
2
100
AcDbEntity
  8
0
100
AcDbLine
 10
551.4984174507024
 20
157.5803793048263
 30
0.0
 11
554.4984174507025
 21
157.5803793048263
 31
0.0
  0
LINE
  5
21EB
330
2
100
AcDbEntity
  8
0
100
AcDbLine
 10
546.4984174507025
 20
152.5803793048263
 30
0.0
 11
546.4984174507025
 21
149.5803793048265
 31
0.0
  0
ARC
  5
21EC
330
2
100
AcDbEntity
  8
0
100
AcDbCircle
 10
551.4984174507033
 20
149.5803793048265
 30
0.0
 40
5.0
100
AcDbArc
 50
180.0
 51
193.3676742026259
  0
LINE
  5
21ED
330
2
100
AcDbEntity
  8
CENTER
100
AcDbLine
 10
559.8501851725658
 20
151.2286115829648
 30
0.0
 11
545.8501851725658
 21
151.2286115829648
 31
0.0
  0
ARC
  5
21EE
330
2
100
AcDbEntity
  8
0
100
AcDbCircle
 10
507.7176261387411
 20
139.1764227450168
 30
0.0
 40
40.0
100
AcDbArc
 50
353.8230035951353
 51
13.36767420262589
  0
LINE
  5
21EF
330
2
100
AcDbEntity
  8
CENTER
100
AcDbLine
 10
552.8501851725649
 20
158.2286115829653
 30
0.0
 11
552.8501851725649
 21
144.2286115829652
 31
0.0
  0
ARC
  5
21F0
330
2
100
AcDbEntity
  8
0
100
AcDbCircle
 10
551.4984174507061
 20
152.5803793048245
 30
0.0
 40
5.0
100
AcDbArc
 50
90.0
 51
180.0
  0
CIRCLE
  5
21F1
330
2
100
AcDbEntity
  8
0
100
AcDbCircle
 10
587.4984174507115
 20
116.5803793048181
 30
0.0
 40
10.00004571127499
  0
CIRCLE
  5
21F2
330
2
100
AcDbEntity
  8
0
100
AcDbCircle
 10
587.4984174507115
 20
116.5803793048181
 30
0.0
 40
10.57739598046464
  0
CIRCLE
  5
21F3
330
2
100
AcDbEntity
  8
0
100
AcDbCircle
 10
587.4984174507115
 20
116.580379304832
 30
0.0
 40
14.49995060603862
  0
LINE
  5
21F4
330
2
100
AcDbEntity
  8
0
100
AcDbLine
 10
586.3784339092624
 20
84.05225292721878
 30
0.0
 11
586.71093336618
 21
84.05225292721878
 31
0.0
  0
LINE
  5
21F5
330
2
100
AcDbEntity
  8
0
100
AcDbLine
 10
586.71093336618
 20
84.71725184105423
 30
0.0
 11
586.71093336618
 21
84.05225292721878
 31
0.0
  0
LINE
  5
21F6
330
2
100
AcDbEntity
  8
0
100
AcDbLine
 10
586.71093336618
 20
84.71725184105423
 30
0.0
 11
586.3784339092624
 21
84.05225292721878
 31
0.0
  0
LINE
  5
21F7
330
2
100
AcDbEntity
  8
0
100
AcDbLine
 10
587.7609015336765
 20
84.71725292721647
 30
0.0
 11
588.8765583661723
 21
84.71725292721647
 31
0.0
  0
LINE
  5
21F8
330
2
100
AcDbEntity
  8
0
100
AcDbLine
 10
587.9096833661759
 20
84.56850292721686
 30
0.0
 11
588.8765583661723
 21
84.56850292721686
 31
0.0
  0
ARC
  5
21F9
330
2
100
AcDbEntity
  8
0
100
AcDbCircle
 10
588.8765583661723
 20
84.64287792721654
 30
0.0
 40
0.0743749999997391
100
AcDbArc
 50
270.0
 51
90.0
  0
LINE
  5
21FA
330
2
100
AcDbEntity
  8
0
100
AcDbLine
 10
586.0459333661828
 20
85.9072529272122
 30
0.0
 11
588.9509015336724
 21
85.9072529272122
 31
0.0
  0
CIRCLE
  5
21FB
330
2
100
AcDbEntity
  8
0
100
AcDbCircle
 10
587.4984174506997
 20
116.5803793048209
 30
0.0
 40
9.000045999985673
  0
ARC
  5
21FC
330
2
100
AcDbEntity
  8
0
100
AcDbCircle
 10
631.4984174507061
 20
122.0803793048249
 30
0.0
 40
3.0
100
AcDbArc
 50
180.0
 51
270.0
  0
ARC
  5
21FD
330
2
100
AcDbEntity
  8
0
100
AcDbCircle
 10
633.4984174507061
 20
85.58037930494277
 30
0.0
 40
5.0
100
AcDbArc
 50
90.0
 51
180.0
  0
ARC
  5
21FE
330
2
100
AcDbEntity
  8
0
100
AcDbCircle
 10
631.4984174507061
 20
111.0803793048254
 30
0.0
 40
3.0
100
AcDbArc
 50
90.0
 51
180.0
  0
ARC
  5
21FF
330
2
100
AcDbEntity
  8
0
100
AcDbCircle
 10
587.4984174507025
 20
-12.41962069517376
 30
0.0
 40
170.0
100
AcDbArc
 50
83.82300359510905
 51
96.17699640483843
  0
CIRCLE
  5
2200
330
2
100
AcDbEntity
  8
HOJO
100
AcDbCircle
 10
622.1466497288473
 20
151.2286115829652
 30
0.0
 40
3.0
  0
CIRCLE
  5
2201
330
2
100
AcDbEntity
  8
0
100
AcDbCircle
 10
622.1466497288473
 20
151.2286115829652
 30
0.0
 40
2.399999999999999
  0
ARC
  5
2202
330
2
100
AcDbEntity
  8
0
100
AcDbCircle
 10
620.4984174507025
 20
152.5803793048259
 30
0.0
 40
5.0
100
AcDbArc
 50
90.0
 51
103.367674202629
  0
LINE
  5
2203
330
2
100
AcDbEntity
  8
0
100
AcDbLine
 10
620.4984174507025
 20
157.5803793048263
 30
0.0
 11
623.4984174507025
 21
157.5803793048263
 31
0.0
  0
ARC
  5
2204
330
2
100
AcDbEntity
  8
0
100
AcDbCircle
 10
633.4984174507061
 20
147.5803793047083
 30
0.0
 40
5.0
100
AcDbArc
 50
180.0
 51
270.0
  0
ARC
  5
2205
330
2
100
AcDbEntity
  8
0
100
AcDbCircle
 10
631.4984174507061
 20
151.5803793048331
 30
0.0
 40
3.0
100
AcDbArc
 50
180.0
 51
270.0
  0
LINE
  5
2206
330
2
100
AcDbEntity
  8
CENTER
100
AcDbLine
 10
622.1466497288455
 20
158.2286115829653
 30
0.0
 11
622.1466497288455
 21
144.2286115829652
 31
0.0
  0
ARC
  5
2207
330
2
100
AcDbEntity
  8
0
100
AcDbCircle
 10
623.4984174507061
 20
152.5803793048245
 30
0.0
 40
5.0
100
AcDbArc
 50
0.0
 51
90.0
  0
LINE
  5
2208
330
2
100
AcDbEntity
  8
CENTER
100
AcDbLine
 10
629.1466497288474
 20
151.2286115829662
 30
0.0
 11
615.1466497288473
 21
151.2286115829662
 31
0.0
  0
ARC
  5
2209
330
2
100
AcDbEntity
  8
0
100
AcDbCircle
 10
610.0944608908938
 20
196.3611706167881
 30
0.0
 40
40.0
100
AcDbArc
 50
263.823003595109
 51
283.367674202629
  0
LINE
  5
220A
330
2
100
AcDbEntity
  8
0
100
AcDbLine
 10
647.9984174507143
 20
147.5803793047085
 30
0.0
 11
647.9984174507134
 21
85.58037930494277
 31
0.0
  0
ARC
  5
220B
330
2
100
AcDbEntity
  8
0
100
AcDbCircle
 10
644.9984174507143
 20
122.0803793048249
 30
0.0
 40
3.0
100
AcDbArc
 50
270.0
 51
0.0
  0
ARC
  5
220C
330
2
100
AcDbEntity
  8
0
100
AcDbCircle
 10
642.9984174507143
 20
85.58037930494277
 30
0.0
 40
5.0
100
AcDbArc
 50
0.0
 51
90.0
  0
ARC
  5
220D
330
2
100
AcDbEntity
  8
0
100
AcDbCircle
 10
644.9984174507134
 20
111.0803793048249
 30
0.0
 40
3.0
100
AcDbArc
 50
0.0
 51
90.0
  0
ARC
  5
220E
330
2
100
AcDbEntity
  8
0
100
AcDbCircle
 10
646.9984174507052
 20
81.58037930482317
 30
0.0
 40
3.0
100
AcDbArc
 50
53.13010235412992
 51
90.0
  0
ARC
  5
220F
330
2
100
AcDbEntity
  8
0
100
AcDbCircle
 10
655.4984174507043
 20
154.5803793047072
 30
0.0
 40
5.0
100
AcDbArc
 50
270.0
 51
0.0
  0
LINE
  5
2210
330
2
100
AcDbEntity
  8
0
100
AcDbLine
 10
662.4984174507043
 20
157.5803793048245
 30
0.0
 11
672.4984174507043
 21
157.5803793048245
 31
0.0
  0
ARC
  5
2211
330
2
100
AcDbEntity
  8
0
100
AcDbCircle
 10
662.4984174507043
 20
155.5803793048245
 30
0.0
 40
2.0
100
AcDbArc
 50
90.0
 51
180.0
  0
LINE
  5
2212
330
2
100
AcDbEntity
  8
0
100
AcDbLine
 10
662.4984174507043
 20
158.0803793048245
 30
0.0
 11
672.4984174507043
 21
158.0803793048245
 31
0.0
  0
ARC
  5
2213
330
2
100
AcDbEntity
  8
0
100
AcDbCircle
 10
649.9984174507098
 20
147.5803793047083
 30
0.0
 40
2.0
100
AcDbArc
 50
90.0
 51
180.0
  0
ARC
  5
2214
330
2
100
AcDbEntity
  8
0
100
AcDbCircle
 10
642.9984174507161
 20
147.5803793047076
 30
0.0
 40
5.0
100
AcDbArc
 50
270.0
 51
0.0
  0
ARC
  5
2215
330
2
100
AcDbEntity
  8
0
100
AcDbCircle
 10
646.9984174507052
 20
151.5803793048331
 30
0.0
 40
3.0
100
AcDbArc
 50
270.0
 51
306.86989764587
  0
LINE
  5
2216
330
2
100
AcDbEntity
  8
0
100
AcDbLine
 10
655.4984174507043
 20
149.5803793047072
 30
0.0
 11
649.9984174507098
 21
149.5803793047074
 31
0.0
  0
ARC
  5
2217
330
2
100
AcDbEntity
  8
0
100
AcDbCircle
 10
662.4984174507043
 20
156.0803793048245
 30
0.0
 40
2.0
100
AcDbArc
 50
90.0
 51
180.0
  0
LINE
  5
2219
330
2
100
AcDbEntity
  8
0
100
AcDbLine
 10
879.9804856188709
 20
106.5803335935154
 30
0.0
 11
879.9804856188709
 21
126.5803335935177
 31
0.0
  0
LINE
  5
221A
330
2
100
AcDbEntity
  8
0
100
AcDbLine
 10
880.9804856188709
 20
102.8690544393969
 30
0.0
 11
880.9804856188709
 21
130.2917041702073
 31
0.0
  0
LINE
  5
221C
330
2
100
AcDbEntity
  8
0
100
AcDbLine
 10
849.9804856188719
 20
125.0803333048017
 30
0.0
 11
850.4804856188718
 21
125.5803333048018
 31
0.0
  0
LINE
  5
221D
330
2
100
AcDbEntity
  8
0
100
AcDbLine
 10
850.4804856188718
 20
125.5803333048018
 30
0.0
 11
879.9804856188709
 21
125.5803333048018
 31
0.0
  0
ARC
  5
221E
330
2
100
AcDbEntity
  8
0
100
AcDbCircle
 10
881.4804856188709
 20
102.8690544393969
 30
0.0
 40
0.5
100
AcDbArc
 50
180.0
 51
239.9999999999994
  0
LINE
  5
221F
330
2
100
AcDbEntity
  8
0
100
AcDbLine
 10
879.9804856188709
 20
106.5803335935154
 30
0.0
 11
880.9804856188709
 21
106.0029833243258
 31
0.0
  0
LINE
  5
2220
330
2
100
AcDbEntity
  8
0
100
AcDbLine
 10
881.230485618871
 20
102.4360417375048
 30
0.0
 11
881.3823238547218
 21
102.3483778911629
 31
0.0
  0
ARC
  5
2221
330
2
100
AcDbEntity
  8
0
100
AcDbCircle
 10
882.3823238547218
 20
104.080428698732
 30
0.0
 40
2.0
100
AcDbArc
 50
239.9999999999994
 51
258.4092883145482
  0
LINE
  5
2222
330
2
100
AcDbEntity
  8
0
100
AcDbLine
 10
850.4804856188718
 20
107.5803333048017
 30
0.0
 11
849.9804856188719
 21
108.0803333048018
 31
0.0
  0
LINE
  5
2223
330
2
100
AcDbEntity
  8
0
100
AcDbLine
 10
879.9804856188709
 20
107.5803333048017
 30
0.0
 11
850.4804856188718
 21
107.5803333048017
 31
0.0
  0
LINE
  5
2224
330
2
100
AcDbEntity
  8
0
100
AcDbLine
 10
849.9804856188719
 20
108.0803333048018
 30
0.0
 11
849.9804856188719
 21
125.0803333048017
 31
0.0
  0
LINE
  5
2225
330
2
100
AcDbEntity
  8
0
100
AcDbLine
 10
850.4804856188718
 20
107.5803333048017
 30
0.0
 11
850.4804856188718
 21
125.5803333048018
 31
0.0
  0
LINE
  5
2229
330
2
100
AcDbEntity
  8
0
100
AcDbLine
 10
879.9804856188709
 20
126.5804250160888
 30
0.0
 11
880.9804856188709
 21
127.1577752852788
 31
0.0
  0
ARC
  5
222A
330
2
100
AcDbEntity
  8
0
100
AcDbCircle
 10
881.4804856188709
 20
130.2917041702073
 30
0.0
 40
0.5
100
AcDbArc
 50
120.0000000000005
 51
180.0
  0
LINE
  5
222B
330
2
100
AcDbEntity
  8
0
100
AcDbLine
 10
881.230485618871
 20
130.7247168720994
 30
0.0
 11
881.3823238547218
 21
130.8123807184413
 31
0.0
  0
ARC
  5
222C
330
2
100
AcDbEntity
  8
0
100
AcDbCircle
 10
882.3823238547218
 20
129.0803299108722
 30
0.0
 40
2.0
100
AcDbArc
 50
101.5907116854517
 51
120.0000000000005
  0
LINE
  5
224A
330
2
100
AcDbEntity
  8
0
100
AcDbLine
 10
561.429795000314
 20
350.4776468309525
 30
0.0
 11
613.5670399010844
 21
350.4776468309502
 31
0.0
  0
ARC
  5
224B
330
2
100
AcDbEntity
  8
0
100
AcDbCircle
 10
561.429795000314
 20
352.4776468309504
 30
0.0
 40
2.0
100
AcDbArc
 50
182.0000000000036
 51
270.0
  0
LINE
  5
224C
330
2
100
AcDbEntity
  8
0
100
AcDbLine
 10
559.1118515517312
 20
361.5474458243553
 30
0.0
 11
559.4310133462752
 21
352.4078478375457
 31
0.0
  0
ARC
  5
224D
330
2
100
AcDbEntity
  8
0
100
AcDbCircle
 10
613.5670399010844
 20
352.4776468309502
 30
0.0
 40
2.0
100
AcDbArc
 50
270.0
 51
357.9999999999964
  0
ARC
  5
224E
330
2
100
AcDbEntity
  8
0
100
AcDbCircle
 10
601.2097423161042
 20
349.9776468309413
 30
0.0
 40
0.5
100
AcDbArc
 50
270.0
 51
330.0000000000083
  0
LINE
  5
224F
330
2
100
AcDbEntity
  8
0
100
AcDbLine
 10
597.4984631619856
 20
348.4776468309413
 30
0.0
 11
598.0758134311757
 21
349.4776468309413
 31
0.0
  0
LINE
  5
2250
330
2
100
AcDbEntity
  8
0
100
AcDbLine
 10
601.6427550179971
 20
349.7276468309413
 30
0.0
 11
601.7304188643386
 21
349.8794850667922
 31
0.0
  0
ARC
  5
2251
330
2
100
AcDbEntity
  8
0
100
AcDbCircle
 10
599.9983680567695
 20
350.8794850667921
 30
0.0
 40
2.0
100
AcDbArc
 50
330.0000000000083
 51
348.4092883145514
  0
LINE
  5
2252
330
2
100
AcDbEntity
  8
0
100
AcDbLine
 10
577.4983717394127
 20
348.4776468309413
 30
0.0
 11
576.9210214702227
 21
349.4776468309413
 31
0.0
  0
ARC
  5
2253
330
2
100
AcDbEntity
  8
0
100
AcDbCircle
 10
573.7870925852941
 20
349.9776468309413
 30
0.0
 40
0.5
100
AcDbArc
 50
209.9999999999916
 51
270.0
  0
LINE
  5
2254
330
2
100
AcDbEntity
  8
0
100
AcDbLine
 10
573.3540798834021
 20
349.7276468309413
 30
0.0
 11
573.2664160370598
 21
349.8794850667922
 31
0.0
  0
ARC
  5
2255
330
2
100
AcDbEntity
  8
0
100
AcDbCircle
 10
574.9984668446297
 20
350.8794850667921
 30
0.0
 40
2.0
100
AcDbArc
 50
191.5907116854485
 51
209.9999999999916
  0
LINE
  5
2256
330
2
100
AcDbEntity
  8
0
100
AcDbLine
 10
597.4984631619856
 20
348.4776468309413
 30
0.0
 11
577.4984631619838
 21
348.4776468309413
 31
0.0
  0
LINE
  5
2257
330
2
100
AcDbEntity
  8
0
100
AcDbLine
 10
601.2097423161042
 20
349.4776468309413
 30
0.0
 11
573.7870925852941
 21
349.4776468309413
 31
0.0
  0
LINE
  5
2258
330
2
100
AcDbEntity
  8
0
100
AcDbLine
 10
596.4984634506993
 20
318.9776468309418
 30
0.0
 11
595.9984634506993
 21
318.4776468309418
 31
0.0
  0
LINE
  5
2259
330
2
100
AcDbEntity
  8
0
100
AcDbLine
 10
578.9984634506993
 20
318.4776468309418
 30
0.0
 11
578.4984634506993
 21
318.9776468309418
 31
0.0
  0
LINE
  5
225A
330
2
100
AcDbEntity
  8
0
100
AcDbLine
 10
595.9984634506993
 20
318.4776468309418
 30
0.0
 11
578.9984634506993
 21
318.4776468309418
 31
0.0
  0
LINE
  5
225B
330
2
100
AcDbEntity
  8
0
100
AcDbLine
 10
596.4984634506993
 20
318.9776468309418
 30
0.0
 11
578.4984634506993
 21
318.9776468309418
 31
0.0
  0
LINE
  5
225C
330
2
100
AcDbEntity
  8
0
100
AcDbLine
 10
578.4984634506993
 20
318.9776468309418
 30
0.0
 11
578.4984634506993
 21
348.4776468309413
 31
0.0
  0
LINE
  5
225D
330
2
100
AcDbEntity
  8
0
100
AcDbLine
 10
596.4984634506993
 20
348.4776468309413
 30
0.0
 11
596.4984634506993
 21
318.9776468309418
 31
0.0
  0
LINE
  5
225E
330
2
100
AcDbEntity
  8
0
100
AcDbLine
 10
615.8849833496681
 20
361.5474458243553
 30
0.0
 11
615.5658215551231
 21
352.4078478375453
 31
0.0
  0
LINE
  5
225F
330
2
100
AcDbEntity
  8
CENTER
100
AcDbLine
 10
587.4984174506996
 20
464.4776468282848
 30
0.0
 11
587.4984174507001
 21
308.4776468309418
 31
0.0
  0
LINE
  5
2260
330
2
100
AcDbEntity
  8
0
100
AcDbLine
 10
642.8657738759559
 20
434.4776468282832
 30
0.0
 11
628.5833360576409
 21
434.4776468282832
 31
0.0
  0
LINE
  5
2261
330
2
100
AcDbEntity
  8
0
100
AcDbLine
 10
631.0354525199239
 20
385.4776468309504
 30
0.0
 11
642.9443316451054
 21
385.4776468309504
 31
0.0
  0
LINE
  5
2262
330
2
100
AcDbEntity
  8
0
100
AcDbLine
 10
630.9830913131793
 20
379.4776468309504
 30
0.0
 11
646.9467311925411
 21
379.4776468309504
 31
0.0
  0
LINE
  5
2263
330
2
100
AcDbEntity
  8
0
100
AcDbLine
 10
631.2405339130075
 20
413.9776468309502
 30
0.0
 11
644.2772762300785
 21
413.9776468309504
 31
0.0
  0
LINE
  5
2264
330
2
100
AcDbEntity
  8
0
100
AcDbLine
 10
631.2405339130075
 20
408.9776468309504
 30
0.0
 11
644.2772762301776
 21
408.9776468309504
 31
0.0
  0
LINE
  5
2266
330
2
100
AcDbEntity
  8
0
100
AcDbLine
 10
627.9131621356957
 20
368.4776468309491
 30
0.0
 11
628.2884174506992
 21
411.4776468309504
 31
0.0
  0
LINE
  5
2267
330
2
100
AcDbEntity
  8
0
100
AcDbLine
 10
620.4984174506982
 20
411.4776468309504
 30
0.0
 11
620.4984174506982
 21
369.9776277924823
 31
0.0
  0
LINE
  5
2268
330
2
100
AcDbEntity
  8
0
100
AcDbLine
 10
623.2889727898729
 20
434.9776468309503
 30
0.0
 11
623.2889727898729
 21
369.9776277924823
 31
0.0
  0
LINE
  5
2269
330
2
100
AcDbEntity
  8
0
100
AcDbLine
 10
546.4984174506992
 20
434.9776468282836
 30
0.0
 11
547.0787541587617
 21
368.4776468309504
 31
0.0
  0
LINE
  5
226A
330
2
100
AcDbEntity
  8
0
100
AcDbLine
 10
569.2063822847587
 20
434.4776468309503
 30
0.0
 11
569.2063822847587
 21
369.9776277924823
 31
0.0
  0
LINE
  5
226B
330
2
100
AcDbEntity
  8
0
100
AcDbLine
 10
554.4984174507001
 20
434.4776468309503
 30
0.0
 11
554.4984174507001
 21
369.9776277924823
 31
0.0
  0
LINE
  5
226C
330
2
100
AcDbEntity
  8
0
100
AcDbLine
 10
551.4984174506983
 20
434.4776468309503
 30
0.0
 11
551.4984174506983
 21
369.9776277924823
 31
0.0
  0
LINE
  5
226D
330
2
100
AcDbEntity
  8
0
100
AcDbLine
 10
605.7904526166396
 20
434.4776468309503
 30
0.0
 11
605.7904526166396
 21
369.9776277924823
 31
0.0
  0
LINE
  5
226E
330
2
100
AcDbEntity
  8
0
100
AcDbLine
 10
552.4984174506991
 20
363.4776468309511
 30
0.0
 11
622.4984174506992
 21
363.4776468309511
 31
0.0
  0
LINE
  5
226F
330
2
100
AcDbEntity
  8
0
100
AcDbLine
 10
547.0787541587617
 20
368.4776468309504
 30
0.0
 11
627.9131621356957
 21
368.4776468309491
 31
0.0
  0
ARC
  5
2270
330
2
100
AcDbEntity
  8
0
100
AcDbCircle
 10
557.1130698976933
 20
361.4776468309502
 30
0.0
 40
2.0
100
AcDbArc
 50
2.000000000003612
 51
90.0
  0
LINE
  5
2271
330
2
100
AcDbEntity
  8
0
100
AcDbLine
 10
552.4984174506991
 20
368.4776468309504
 30
0.0
 11
552.4984174506991
 21
363.4776468309504
 31
0.0
  0
ARC
  5
2272
330
2
100
AcDbEntity
  8
0
100
AcDbCircle
 10
631.0354525199239
 20
382.4776468309504
 30
0.0
 40
3.0
100
AcDbArc
 50
90.0
 51
179.5000000000084
  0
LINE
  5
2273
330
2
100
AcDbEntity
  8
0
100
AcDbLine
 10
622.4984174506992
 20
368.4776468309504
 30
0.0
 11
622.4984174506992
 21
363.4776468309504
 31
0.0
  0
ARC
  5
2274
330
2
100
AcDbEntity
  8
0
100
AcDbCircle
 10
630.9830913131793
 20
376.4776468309504
 30
0.0
 40
3.0
100
AcDbArc
 50
90.0
 51
179.5000000000084
  0
ARC
  5
2275
330
2
100
AcDbEntity
  8
0
100
AcDbCircle
 10
617.8837650037069
 20
361.4776468309502
 30
0.0
 40
2.0
100
AcDbArc
 50
90.0
 51
177.9999999999963
  0
LINE
  5
2276
330
2
100
AcDbEntity
  8
0
100
AcDbLine
 10
613.4210671815074
 20
454.4776468282848
 30
0.0
 11
561.575767719891
 21
454.4776468282848
 31
0.0
  0
LINE
  5
2277
330
2
100
AcDbEntity
  8
0
100
AcDbLine
 10
613.7984174507002
 20
449.9776468282802
 30
0.0
 11
561.198417450698
 21
449.9776468282802
 31
0.0
  0
LINE
  5
2278
330
2
100
AcDbEntity
  8
0
100
AcDbLine
 10
613.7984174507002
 20
451.9776468282802
 30
0.0
 11
561.198417450698
 21
451.9776468282007
 31
0.0
  0
LINE
  5
2279
330
2
100
AcDbEntity
  8
0
100
AcDbLine
 10
558.9984174507046
 20
446.4776468282844
 30
0.0
 11
615.9984174506937
 21
446.4776468282848
 31
0.0
  0
LINE
  5
227A
330
2
100
AcDbEntity
  8
0
100
AcDbLine
 10
613.9984174506992
 20
453.4776468282802
 30
0.0
 11
560.9984174506982
 21
453.4776468282798
 31
0.0
  0
LINE
  5
227B
330
2
100
AcDbEntity
  8
0
100
AcDbLine
 10
560.9984174506991
 20
449.77764682828
 30
0.0
 11
613.9984174506992
 21
449.77764682828
 31
0.0
  0
LINE
  5
227C
330
2
100
AcDbEntity
  8
0
100
AcDbLine
 10
546.4984174506992
 20
434.9776468282836
 30
0.0
 11
628.0833360576391
 21
434.9776468282861
 31
0.0
  0
LINE
  5
227D
330
2
100
AcDbEntity
  8
0
100
AcDbLine
 10
616.9984174507174
 20
445.9776468282848
 30
0.0
 11
557.998417450681
 21
445.9776468282848
 31
0.0
  0
LINE
  5
227E
330
2
100
AcDbEntity
  8
0
100
AcDbLine
 10
547.5551801697259
 20
442.4776468282825
 30
0.0
 11
627.0316547316745
 21
442.4776468282828
 31
0.0
  0
LINE
  5
227F
330
2
100
AcDbEntity
  8
0
100
AcDbLine
 10
551.4984174506792
 20
434.9776468282848
 30
0.0
 11
551.4984174506792
 21
442.4776468282825
 31
0.0
  0
LINE
  5
2280
330
2
100
AcDbEntity
  8
0
100
AcDbLine
 10
554.4984174506792
 20
434.9776468282848
 30
0.0
 11
554.4984174506792
 21
442.4776468282825
 31
0.0
  0
LINE
  5
2281
330
2
100
AcDbEntity
  8
CENTER
100
AcDbLine
 10
552.998417450681
 20
454.9776468282825
 30
0.0
 11
552.998417450681
 21
429.9149000841362
 31
0.0
  0
LINE
  5
2282
330
2
100
AcDbEntity
  8
0
100
AcDbLine
 10
546.4984174506992
 20
434.9776468282848
 30
0.0
 11
546.555218246661
 21
441.486373363781
 31
0.0
  0
LINE
  5
2283
330
2
100
AcDbEntity
  8
0
100
AcDbLine
 10
560.9984174506982
 20
453.4776468282802
 30
0.0
 11
560.9984174506991
 21
452.1776468282805
 31
0.0
  0
LINE
  5
2284
330
2
100
AcDbEntity
  8
0
100
AcDbLine
 10
561.198417450698
 20
449.9776468282802
 30
0.0
 11
560.9984174506991
 21
449.77764682828
 31
0.0
  0
LINE
  5
2285
330
2
100
AcDbEntity
  8
0
100
AcDbLine
 10
561.698417450698
 20
451.77764682828
 30
0.0
 11
561.698417450698
 21
450.1776468282801
 31
0.0
  0
LINE
  5
2286
330
2
100
AcDbEntity
  8
0
100
AcDbLine
 10
560.9984174506982
 20
453.4776468282798
 30
0.0
 11
561.5757677198874
 21
454.4776468282803
 31
0.0
  0
LINE
  5
2287
330
2
100
AcDbEntity
  8
0
100
AcDbLine
 10
558.9984174507046
 20
446.4776468282844
 30
0.0
 11
558.4984174506992
 21
445.9776468282793
 31
0.0
  0
LINE
  5
2288
330
2
100
AcDbEntity
  8
0
100
AcDbLine
 10
560.9984174506991
 20
449.77764682828
 30
0.0
 11
560.9984174506991
 21
446.4776468282798
 31
0.0
  0
LINE
  5
2289
330
2
100
AcDbEntity
  8
HIDS
100
AcDbLine
 10
551.0842038883258
 20
443.0634332659101
 30
0.0
 11
553.4126310130725
 21
445.3918603906572
 31
0.0
  0
ARC
  5
228A
330
2
100
AcDbEntity
  8
HIDS
100
AcDbCircle
 10
549.6699903259525
 20
444.4776468282825
 30
0.0
 40
2.0
100
AcDbArc
 50
270.0
 51
315.0000000000138
  0
ARC
  5
228B
330
2
100
AcDbEntity
  8
HIDS
100
AcDbCircle
 10
554.8268445754458
 20
443.9776468282848
 30
0.0
 40
2.0
100
AcDbArc
 50
90.0
 51
135.0000000000138
  0
ARC
  5
228C
330
2
100
AcDbEntity
  8
0
100
AcDbCircle
 10
561.198417450698
 20
452.17764682828
 30
0.0
 40
0.2
100
AcDbArc
 50
180.0
 51
270.0000000001042
  0
ARC
  5
228D
330
2
100
AcDbEntity
  8
0
100
AcDbCircle
 10
561.4984174506992
 20
451.7776468282796
 30
0.0
 40
0.2
100
AcDbArc
 50
0.0
 51
89.99999999984366
  0
ARC
  5
228E
330
2
100
AcDbEntity
  8
0
100
AcDbCircle
 10
561.4984174506992
 20
450.1776468282801
 30
0.0
 40
0.2
100
AcDbArc
 50
270.0
 51
0.0
  0
LINE
  5
228F
330
2
100
AcDbEntity
  8
0
100
AcDbLine
 10
557.998417450681
 20
443.9776468282821
 30
0.0
 11
557.998417450681
 21
449.5776468282819
 31
0.0
  0
LINE
  5
2290
330
2
100
AcDbEntity
  8
0
100
AcDbLine
 10
547.9984174506809
 20
443.9776468282821
 30
0.0
 11
547.9984174506809
 21
449.5776468282819
 31
0.0
  0
LINE
  5
2291
330
2
100
AcDbEntity
  8
0
100
AcDbLine
 10
547.9984174506809
 20
443.9776468282821
 30
0.0
 11
557.998417450681
 21
443.9776468282821
 31
0.0
  0
LINE
  5
2292
330
2
100
AcDbEntity
  8
0
100
AcDbLine
 10
548.6912377737082
 20
449.9776468282821
 30
0.0
 11
557.3055971276528
 21
449.9776468282825
 31
0.0
  0
LINE
  5
2293
330
2
100
AcDbEntity
  8
0
100
AcDbLine
 10
547.9984174506809
 20
449.5776468282825
 30
0.0
 11
557.998417450681
 21
449.5776468282819
 31
0.0
  0
LINE
  5
2294
330
2
100
AcDbEntity
  8
0
100
AcDbLine
 10
547.9984174506809
 20
449.5776468282819
 30
0.0
 11
548.6912377737082
 21
449.9776468282821
 31
0.0
  0
LINE
  5
2295
330
2
100
AcDbEntity
  8
0
100
AcDbLine
 10
557.998417450681
 20
449.5776468282819
 30
0.0
 11
557.3055971276528
 21
449.9776468282821
 31
0.0
  0
LINE
  5
2296
330
2
100
AcDbEntity
  8
0
100
AcDbLine
 10
547.9984174506809
 20
443.9776468282826
 30
0.0
 11
547.9984174506809
 21
442.4776468282825
 31
0.0
  0
LINE
  5
2297
330
2
100
AcDbEntity
  8
0
100
AcDbLine
 10
557.998417450681
 20
443.9776468282826
 30
0.0
 11
557.998417450681
 21
442.4776468282825
 31
0.0
  0
LINE
  5
2298
330
2
100
AcDbEntity
  8
HIDS
100
AcDbLine
 10
557.998417450681
 20
445.9776468282848
 30
0.0
 11
554.8268445754458
 21
445.9776468282848
 31
0.0
  0
ARC
  5
2299
330
2
100
AcDbEntity
  8
0
100
AcDbCircle
 10
547.5551801697259
 20
441.4776468282825
 30
0.0
 40
1.0
100
AcDbArc
 50
90.0
 51
179.5000000000084
  0
LINE
  5
229A
330
2
100
AcDbEntity
  8
0
100
AcDbLine
 10
623.4984174507192
 20
434.9776468282848
 30
0.0
 11
623.4984174507192
 21
442.4776468282825
 31
0.0
  0
LINE
  5
229B
330
2
100
AcDbEntity
  8
0
100
AcDbLine
 10
620.4984174507192
 20
434.9776468282848
 30
0.0
 11
620.4984174507192
 21
442.4776468282825
 31
0.0
  0
LINE
  5
229C
330
2
100
AcDbEntity
  8
CENTER
100
AcDbLine
 10
621.9984174507174
 20
454.9776468282825
 30
0.0
 11
621.9984174507174
 21
429.9149000841362
 31
0.0
  0
LINE
  5
229D
330
2
100
AcDbEntity
  8
0
100
AcDbLine
 10
628.0316166547383
 20
441.486373363781
 30
0.0
 11
628.0884174506994
 21
434.9776468282859
 31
0.0
  0
LINE
  5
229E
330
2
100
AcDbEntity
  8
0
100
AcDbLine
 10
605.7904526165842
 20
434.9776468282848
 30
0.0
 11
605.7904526165842
 21
442.4776468282825
 31
0.0
  0
LINE
  5
229F
330
2
100
AcDbEntity
  8
0
100
AcDbLine
 10
569.2063822848142
 20
434.9776468282848
 30
0.0
 11
569.2063822848142
 21
442.4776468282825
 31
0.0
  0
LINE
  5
22A0
330
2
100
AcDbEntity
  8
0
100
AcDbLine
 10
628.0833360576391
 20
434.9776468282859
 30
0.0
 11
628.5833360576391
 21
434.477646828286
 31
0.0
  0
ARC
  5
22A1
330
2
100
AcDbEntity
  8
0
100
AcDbCircle
 10
631.2405339130075
 20
405.9776468309504
 30
0.0
 40
3.0
100
AcDbArc
 50
90.0
 51
179.5000000000084
  0
ARC
  5
22A2
330
2
100
AcDbEntity
  8
0
100
AcDbCircle
 10
622.1010364392798
 20
412.4776468309504
 30
0.0
 40
1.0
100
AcDbArc
 50
181.4999999999897
 51
270.0
  0
LINE
  5
22A3
330
2
100
AcDbEntity
  8
0
100
AcDbLine
 10
622.1010364392798
 20
411.4776468309504
 30
0.0
 11
628.2884174506992
 21
411.4776468309504
 31
0.0
  0
ARC
  5
22A4
330
2
100
AcDbEntity
  8
0
100
AcDbCircle
 10
631.2405339130075
 20
416.9776468309501
 30
0.0
 40
3.0
100
AcDbArc
 50
180.4999999999915
 51
270.0
  0
LINE
  5
22A5
330
2
100
AcDbEntity
  8
0
100
AcDbLine
 10
620.5115104115532
 20
434.9776468282857
 30
0.0
 11
621.1013791143043
 21
412.4514698826427
 31
0.0
  0
LINE
  5
22A6
330
2
100
AcDbEntity
  8
0
100
AcDbLine
 10
628.0833360576391
 20
434.9776468282859
 30
0.0
 11
628.2884174506992
 21
411.4776468309504
 31
0.0
  0
LINE
  5
22A7
330
2
100
AcDbEntity
  8
HIDS
100
AcDbLine
 10
623.9126310130716
 20
443.0634332659101
 30
0.0
 11
621.5842038883258
 21
445.3918603906577
 31
0.0
  0
ARC
  5
22A8
330
2
100
AcDbEntity
  8
HIDS
100
AcDbCircle
 10
625.3268445754458
 20
444.4776468282825
 30
0.0
 40
2.0
100
AcDbArc
 50
224.9999999999861
 51
270.0
  0
ARC
  5
22A9
330
2
100
AcDbEntity
  8
HIDS
100
AcDbCircle
 10
620.1699903259525
 20
443.9776468282852
 30
0.0
 40
2.0
100
AcDbArc
 50
44.99999999998617
 51
90.0
  0
LINE
  5
22AA
330
2
100
AcDbEntity
  8
0
100
AcDbLine
 10
616.9984174507174
 20
443.9776468282821
 30
0.0
 11
616.9984174507174
 21
449.5776468282819
 31
0.0
  0
LINE
  5
22AB
330
2
100
AcDbEntity
  8
0
100
AcDbLine
 10
626.9984174507174
 20
443.9776468282821
 30
0.0
 11
626.9984174507174
 21
449.5776468282819
 31
0.0
  0
LINE
  5
22AC
330
2
100
AcDbEntity
  8
0
100
AcDbLine
 10
626.9984174507174
 20
443.9776468282821
 30
0.0
 11
616.9984174507174
 21
443.9776468282821
 31
0.0
  0
LINE
  5
22AD
330
2
100
AcDbEntity
  8
0
100
AcDbLine
 10
626.3055971276901
 20
449.9776468282821
 30
0.0
 11
617.6912377737456
 21
449.9776468282825
 31
0.0
  0
LINE
  5
22AE
330
2
100
AcDbEntity
  8
0
100
AcDbLine
 10
626.9984174507174
 20
449.5776468282825
 30
0.0
 11
616.9984174507174
 21
449.5776468282819
 31
0.0
  0
LINE
  5
22AF
330
2
100
AcDbEntity
  8
0
100
AcDbLine
 10
626.9984174507174
 20
449.5776468282819
 30
0.0
 11
626.3055971276901
 21
449.9776468282821
 31
0.0
  0
LINE
  5
22B0
330
2
100
AcDbEntity
  8
0
100
AcDbLine
 10
616.9984174507174
 20
449.5776468282819
 30
0.0
 11
617.6912377737456
 21
449.9776468282821
 31
0.0
  0
LINE
  5
22B1
330
2
100
AcDbEntity
  8
0
100
AcDbLine
 10
626.9984174507174
 20
443.9776468282826
 30
0.0
 11
626.9984174507174
 21
442.4776468282825
 31
0.0
  0
LINE
  5
22B2
330
2
100
AcDbEntity
  8
0
100
AcDbLine
 10
616.9984174507174
 20
443.9776468282826
 30
0.0
 11
616.9984174507174
 21
442.4776468282825
 31
0.0
  0
LINE
  5
22B3
330
2
100
AcDbEntity
  8
HIDS
100
AcDbLine
 10
616.9984174507174
 20
445.9776468282848
 30
0.0
 11
620.1699903259525
 21
445.9776468282853
 31
0.0
  0
ARC
  5
22B4
330
2
100
AcDbEntity
  8
0
100
AcDbCircle
 10
627.0316547316745
 20
441.4776468282828
 30
0.0
 40
1.0
100
AcDbArc
 50
0.4999999999915467
 51
90.0
  0
LINE
  5
22B5
330
2
100
AcDbEntity
  8
0
100
AcDbLine
 10
613.9984174506992
 20
453.4776468282798
 30
0.0
 11
613.421067181511
 21
454.4776468282803
 31
0.0
  0
LINE
  5
22B6
330
2
100
AcDbEntity
  8
0
100
AcDbLine
 10
613.2984174507003
 20
451.77764682828
 30
0.0
 11
613.2984174507003
 21
450.1776468282801
 31
0.0
  0
LINE
  5
22B7
330
2
100
AcDbEntity
  8
0
100
AcDbLine
 10
613.7984174507002
 20
449.9776468282802
 30
0.0
 11
613.9984174506992
 21
449.77764682828
 31
0.0
  0
LINE
  5
22B8
330
2
100
AcDbEntity
  8
0
100
AcDbLine
 10
613.9984174506992
 20
453.4776468282802
 30
0.0
 11
613.9984174506992
 21
452.1776468282805
 31
0.0
  0
LINE
  5
22B9
330
2
100
AcDbEntity
  8
0
100
AcDbLine
 10
615.9984174506992
 20
446.4776468282798
 30
0.0
 11
613.9984174506992
 21
446.4776468282798
 31
0.0
  0
LINE
  5
22BA
330
2
100
AcDbEntity
  8
0
100
AcDbLine
 10
613.9984174506992
 20
449.77764682828
 30
0.0
 11
613.9984174506992
 21
446.4776468282798
 31
0.0
  0
ARC
  5
22BB
330
2
100
AcDbEntity
  8
0
100
AcDbCircle
 10
613.7984174507002
 20
452.1776468282805
 30
0.0
 40
0.2
100
AcDbArc
 50
270.0000000001042
 51
359.9999999999739
  0
ARC
  5
22BC
330
2
100
AcDbEntity
  8
0
100
AcDbCircle
 10
613.4984174506992
 20
451.77764682828
 30
0.0
 40
0.2
100
AcDbArc
 50
90.00000000010421
 51
179.9999999999739
  0
ARC
  5
22BD
330
2
100
AcDbEntity
  8
0
100
AcDbCircle
 10
613.4984174506992
 20
450.1776468282801
 30
0.0
 40
0.2
100
AcDbArc
 50
179.9999999999739
 51
270.0
  0
LINE
  5
22BE
330
2
100
AcDbEntity
  8
0
100
AcDbLine
 10
615.9984174506992
 20
446.4776468282798
 30
0.0
 11
616.4984174506992
 21
445.9776468282793
 31
0.0
  0
LINE
  5
22BF
330
2
100
AcDbEntity
  8
0
100
AcDbLine
 10
647.9474165425902
 20
380.4252929343346
 30
0.0
 11
647.134282039043
 21
411.4776468309504
 31
0.0
  0
LINE
  5
22C1
330
2
100
AcDbEntity
  8
0
100
AcDbLine
 10
660.447416542591
 20
372.425292934335
 30
0.0
 11
659.4247946663956
 21
411.4776468309504
 31
0.0
  0
ARC
  5
22C2
330
2
100
AcDbEntity
  8
0
100
AcDbCircle
 10
649.9467311925411
 20
380.4776468309504
 30
0.0
 40
2.0
100
AcDbArc
 50
181.5000000000418
 51
270.0
  0
ARC
  5
22C3
330
2
100
AcDbEntity
  8
0
100
AcDbCircle
 10
642.9443316451054
 20
380.4776468309504
 30
0.0
 40
5.0
100
AcDbArc
 50
1.500000000015761
 51
90.0
  0
ARC
  5
22C4
330
2
100
AcDbEntity
  8
0
100
AcDbCircle
 10
646.9467311925411
 20
376.4776468309504
 30
0.0
 40
3.0
100
AcDbArc
 50
53.13010235412992
 51
90.0
  0
LINE
  5
22C5
330
2
100
AcDbEntity
  8
0
100
AcDbLine
 10
649.9467311925411
 20
378.4776468309504
 30
0.0
 11
655.4181457235383
 21
378.4776468309504
 31
0.0
  0
LINE
  5
22C6
330
2
100
AcDbEntity
  8
0
100
AcDbLine
 10
662.4467311925411
 20
370.4776468309504
 30
0.0
 11
672.4984174463299
 21
370.4776468309504
 31
0.0
  0
ARC
  5
22C7
330
2
100
AcDbEntity
  8
0
100
AcDbCircle
 10
662.4467311925411
 20
372.4776468309504
 30
0.0
 40
2.0
100
AcDbArc
 50
181.4999999999897
 51
270.0
  0
ARC
  5
22C8
330
2
100
AcDbEntity
  8
0
100
AcDbCircle
 10
655.4181457235383
 20
373.4776468309504
 30
0.0
 40
5.0
100
AcDbArc
 50
1.499999999989714
 51
90.0
  0
ARC
  5
22C9
330
2
100
AcDbEntity
  8
0
100
AcDbCircle
 10
642.8657738803979
 20
439.4776468309503
 30
0.0
 40
5.0
100
AcDbArc
 50
270.0
 51
358.4999999999841
  0
LINE
  5
22CA
330
2
100
AcDbEntity
  8
0
100
AcDbLine
 10
660.447416542591
 20
450.5300007275657
 30
0.0
 11
659.4247946663966
 21
411.4776468309504
 31
0.0
  0
LINE
  5
22CB
330
2
100
AcDbEntity
  8
0
100
AcDbLine
 10
647.9474165425902
 20
442.5300007275659
 30
0.0
 11
647.134282038922
 21
411.4776468309504
 31
0.0
  0
LINE
  5
22CC
330
2
100
AcDbEntity
  8
0
100
AcDbLine
 10
659.4247946663966
 20
411.4776468309504
 30
0.0
 11
672.4984174463299
 21
411.4776468309504
 31
0.0
  0
ARC
  5
22CD
330
2
100
AcDbEntity
  8
0
100
AcDbCircle
 10
644.2772762300785
 20
416.9776468309503
 30
0.0
 40
3.0
100
AcDbArc
 50
270.0
 51
358.5000000000102
  0
ARC
  5
22CE
330
2
100
AcDbEntity
  8
0
100
AcDbCircle
 10
644.2772762301776
 20
405.9776468309504
 30
0.0
 40
3.0
100
AcDbArc
 50
1.499999999781174
 51
90.0
  0
LINE
  5
22CF
330
2
100
AcDbEntity
  8
0
100
AcDbLine
 10
662.4467311925411
 20
452.4776468309503
 30
0.0
 11
672.4984174463299
 21
452.4776468309503
 31
0.0
  0
ARC
  5
22D0
330
2
100
AcDbEntity
  8
0
100
AcDbCircle
 10
662.4467311925411
 20
450.4776468309503
 30
0.0
 40
2.0
100
AcDbArc
 50
90.0
 51
178.5000000000102
  0
ARC
  5
22D1
330
2
100
AcDbEntity
  8
0
100
AcDbCircle
 10
655.4181457235374
 20
449.4776468309503
 30
0.0
 40
5.0
100
AcDbArc
 50
270.0
 51
358.5000000000102
  0
ARC
  5
22D2
330
2
100
AcDbEntity
  8
0
100
AcDbCircle
 10
649.9467311925411
 20
442.4776468309503
 30
0.0
 40
2.0
100
AcDbArc
 50
90.0
 51
178.4999999999842
  0
LINE
  5
22D3
330
2
100
AcDbEntity
  8
0
100
AcDbLine
 10
649.9467311925411
 20
444.4776468309503
 30
0.0
 11
655.4181457235374
 21
444.4776468309503
 31
0.0
  0
ARC
  5
26DF
330
2
100
AcDbEntity
  8
0
100
AcDbCircle
 10
342.1027274601263
 20
156.5803793047999
 30
0.0
 40
4.0
100
AcDbArc
 50
17.60182375630768
 51
90.0
  0
LINE
  5
26E0
330
2
100
AcDbEntity
  8
0
100
AcDbLine
 10
342.1027274601263
 20
160.5803793047999
 30
0.0
 11
332.1027274601263
 21
160.5803793047999
 31
0.0
  0
ARC
  5
26E1
330
2
100
AcDbEntity
  8
0
100
AcDbCircle
 10
332.1027274601263
 20
156.5803793047999
 30
0.0
 40
4.0
100
AcDbArc
 50
90.0
 51
159.1508477649307
  0
LINE
  5
26E2
330
2
100
AcDbEntity
  8
CENTER
  6
CENS
100
AcDbLine
 10
337.1027274601264
 20
165.704063727503
 30
0.0
 11
337.1027274601264
 21
142.3441377251562
 31
0.0
  0
LINE
  5
26E8
330
2
100
AcDbEntity
  8
0
100
AcDbLine
 10
982.9804856189879
 20
116.5803793048023
 30
0.0
 11
984.4804856188714
 21
116.5803793048023
 31
0.0
  0
CIRCLE
  5
2716
330
2
100
AcDbEntity
  8
0
100
AcDbCircle
 10
587.4984174507061
 20
116.5803793048243
 30
0.0
 40
23.5774
  0
ENDSEC
  0
SECTION
  2
OBJECTS
  0
DICTIONARY
  5
7
330
0
100
AcDbDictionary
  3
ACAD_COLOR
350
1BD9
  3
ACAD_GROUP
350
75
  3
ACAD_LAYOUT
350
61
  3
ACAD_MATERIAL
350
1BAF
  3
ACAD_MLEADERSTYLE
350
1BFE
  3
ACAD_MLINESTYLE
350
76
  3
ACAD_PLOTSETTINGS
350
77
  3
ACAD_PLOTSTYLENAME
350
6
  3
ACAD_SCALELIST
350
1BDC
  3
ACAD_TABLESTYLE
350
1BDA
  3
ACAD_VISUALSTYLE
350
1BC8
  3
ACADDIM
350
480
  3
ACDB_RECOMPOSE_DATA
350
1C3A
  3
ACDBHEADERROUNDTRIPXREC
350
2775
  3
ACDBVARIABLEDICTIONARY
350
102
  3
DWGPROPS
350
2742
  0
DICTIONARY
  5
1C43
330
6E
100
AcDbDictionary
280
     1
  3
ACAD_XREC_ROUNDTRIP
360
2749
  0
DICTIONARY
  5
ADB
330
66
100
AcDbDictionary
280
     1
  3
ACAD_LAYERSTATES
360
ADC
  0
DICTIONARY
  5
1C02
330
5E
100
AcDbDictionary
280
     1
  3
ACAD_XREC_ROUNDTRIP
360
2745
  3
ADSK_XREC_LAYER_RECONCILED
360
1C03
  0
DICTIONARY
  5
1C04
330
3E
100
AcDbDictionary
280
     1
  3
ACAD_XREC_ROUNDTRIP
360
2744
  3
ADSK_XREC_LAYER_RECONCILED
360
1C05
  0
DICTIONARY
  5
1C0A
330
2B5
100
AcDbDictionary
280
     1
  3
ACAD_XREC_ROUNDTRIP
360
274F
  3
ADSK_XREC_LAYER_RECONCILED
360
1C0B
  0
DICTIONARY
  5
1C0C
330
2BA
100
AcDbDictionary
280
     1
  3
ACAD_XREC_ROUNDTRIP
360
2750
  3
ADSK_XREC_LAYER_RECONCILED
360
1C0D
  0
DICTIONARY
  5
1C10
330
3FA
100
AcDbDictionary
280
     1
  3
ACAD_XREC_ROUNDTRIP
360
2752
  3
ADSK_XREC_LAYER_RECONCILED
360
1C11
  0
DICTIONARY
  5
2796
330
2
100
AcDbDictionary
280
     1
  3
ACAD_LAYOUTSELFREF
360
2797
  0
DICTIONARY
  5
2798
330
276F
100
AcDbDictionary
280
     1
  3
ACAD_LAYOUTSELFREF
360
2799
  0
DICTIONARY
  5
1BD9
102
{ACAD_REACTORS
330
7
102
}
330
7
100
AcDbDictionary
  0
DICTIONARY
  5
75
102
{ACAD_REACTORS
330
7
102
}
330
7
100
AcDbDictionary
  0
DICTIONARY
  5
61
102
{ACAD_REACTORS
330
7
102
}
330
7
100
AcDbDictionary
  0
DICTIONARY
  5
1BAF
102
{ACAD_REACTORS
330
7
102
}
330
7
100
AcDbDictionary
  3
BYBLOCK
350
1BB8
  3
BYLAYER
350
1BB0
  3
GLOBAL
350
1BC0
  0
DICTIONARY
  5
1BFE
102
{ACAD_REACTORS
330
7
102
}
330
7
100
AcDbDictionary
  3
STANDARD
350
1BFF
  0
DICTIONARY
  5
76
102
{ACAD_REACTORS
330
7
102
}
330
7
100
AcDbDictionary
  3
STANDARD
350
78
  0
DICTIONARY
  5
77
102
{ACAD_REACTORS
330
7
102
}
330
7
100
AcDbDictionary
  0
ACDBDICTIONARYWDFLT
  5
6
102
{ACAD_REACTORS
330
7
102
}
330
7
100
AcDbDictionary
281
     1
  3
Normal
350
5
100
AcDbDictionaryWithDefault
340
5
  0
DICTIONARY
  5
1BDC
102
{ACAD_REACTORS
330
7
102
}
330
7
100
AcDbDictionary
  3
A0
350
1BDD
  3
A1
350
1BDE
  3
A2
350
1BDF
  3
A3
350
1BE0
  3
A4
350
1BE1
  3
A5
350
1BE2
  3
A6
350
1BE3
  3
A7
350
1BE4
  3
A8
350
1BE5
  3
A9
350
1BE6
  3
B0
350
1BE7
  3
B1
350
1BE8
  3
B2
350
1BE9
  3
B3
350
1BEA
  3
B4
350
1BEB
  3
B5
350
1BEC
  3
B6
350
1BED
  3
B7
350
1BEE
  3
B8
350
1BEF
  3
B9
350
1BF0
  3
C0
350
1BF1
  3
C1
350
1BF2
  3
C2
350
1BF3
  3
C3
350
1BF4
  3
C4
350
1BF5
  3
C5
350
1BF6
  3
C6
350
1BF7
  3
C7
350
1BF8
  3
C8
350
1BF9
  3
C9
350
1BFA
  3
D0
350
1BFB
  3
D1
350
1BFC
  3
D2
350
1BFD
  0
DICTIONARY
  5
1BDA
102
{ACAD_REACTORS
330
7
102
}
330
7
100
AcDbDictionary
  3
STANDARD
350
1BDB
  0
DICTIONARY
  5
1BC8
102
{ACAD_REACTORS
330
7
102
}
330
7
100
AcDbDictionary
  3
2DWIREFRAME
350
1BCE
  3
3D_HIDDEN
350
1BD0
  3
3DWIREFRAME
350
1BCF
  3
BASIC
350
1BCD
  3
BRIGHTEN
350
1BD4
  3
COLORCHANGE
350
1BD8
  3
CONCEPTUAL
350
1BD1
  3
DIM
350
1BD3
  3
FACEPATTERN
350
1BD7
  3
FLAT
350
1BC9
  3
FLATWITHEDGES
350
1BCA
  3
GOURAUD
350
1BCB
  3
GOURAUDWITHEDGES
350
1BCC
  3
LINEPATTERN
350
1BD6
  3
REALISTIC
350
1BD2
  3
THICKEN
350
1BD5
  0
XRECORD
  5
480
102
{ACAD_REACTORS
330
7
102
}
330
7
100
AcDbXrecord
 90
   990106
  3

 60
     0
 61
     0
 62
     1
 63
     3
 64
     1
 65
     0
 66
     0
 67
     3
 68
     1
 69
     0
 70
     0
 71
     0
 72
     0
 40
0.0
170
     2
340
0
  0
XRECORD
  5
1C3A
102
{ACAD_REACTORS
330
7
102
}
330
7
100
AcDbXrecord
 90
        1
330
1BDB
  0
DICTIONARY
  5
2775
102
{ACAD_REACTORS
330
7
102
}
330
7
100
AcDbDictionary
  3
CEPSNTYPE
350
277F
  3
DIMSTYLEDATA
350
2783
  3
FINGERPRINTGUID
350
2780
  3
HYPERLINKBASE
350
2778
  3
INSUNITS
350
277E
  3
LAYOUTDICT
350
277A
  3
LWETCUNION
350
277D
  3
PLOTSETDICT
350
277B
  3
PLOTSTYLNAMDICT
350
277C
  3
PSVPSCALE
350
2782
  3
PUCSBASE
350
2786
  3
PUCSORGBACK
350
278C
  3
PUCSORGBOTTOM
350
2788
  3
PUCSORGFRONT
350
278B
  3
PUCSORGLEFT
350
2789
  3
PUCSORGRIGHT
350
278A
  3
PUCSORGTOP
350
2787
  3
PUCSORTHOREF
350
2784
  3
PUCSORTHOVIEW
350
2785
  3
STYLESHEET
350
2779
  3
TSTACKALIGN
350
2776
  3
TSTACKSIZE
350
2777
  3
UCSBASE
350
278F
  3
UCSORGBACK
350
2795
  3
UCSORGBOTTOM
350
2791
  3
UCSORGFRONT
350
2794
  3
UCSORGLEFT
350
2792
  3
UCSORGRIGHT
350
2793
  3
UCSORGTOP
350
2790
  3
UCSORTHOREF
350
278D
  3
UCSORTHOVIEW
350
278E
  3
VERSIONGUID
350
2781
  0
DICTIONARY
  5
102
102
{ACAD_REACTORS
330
7
102
}
330
7
100
AcDbDictionary
  3
CANNOSCALE
350
1C5B
  3
CMLEADERSTYLE
350
1C5A
  3
CTABLESTYLE
350
1C59
  3
DIMASSOC
350
103
  3
INDEXCTL
350
1C5C
  3
SORTENTS
350
549
  0
XRECORD
  5
2742
102
{ACAD_REACTORS
330
7
102
}
330
7
100
AcDbXrecord
  1
DWGPROPS COOKIE
  2

  3

  4

  6

  7

  8
ymorima
  9

300
=
301
=
302
=
303
=
304
=
305
=
306
=
307
=
308
=
309
=
 40
0.045836412037037
 41
2454410.727105034
 42
2454425.725472176
  1

 90
        0
  0
XRECORD
  5
2749
102
{ACAD_REACTORS
330
1C43
102
}
330
1C43
100
AcDbXrecord
102
VTR_0.000_0.000_1.000_1.000_VISUALSTYLE
340
1BCE
102
VTR_0.000_0.000_1.000_1.000_GRIDDISPLAY
 70
     3
102
VTR_0.000_0.000_1.000_1.000_GRIDMAJOR
 70
     5
102
VTR_0.000_0.000_1.000_1.000_DEFAULTLIGHTING
280
     1
102
VTR_0.000_0.000_1.000_1.000_DEFAULTLIGHTINGTYPE
 70
     1
102
VTR_0.000_0.000_1.000_1.000_BRIGHTNESS
141
0.0
102
VTR_0.000_0.000_1.000_1.000_CONTRAST
142
0.0
  0
DICTIONARY
  5
ADC
102
{ACAD_REACTORS
330
ADB
102
}
330
ADB
100
AcDbDictionary
  0
XRECORD
  5
2745
102
{ACAD_REACTORS
330
1C02
102
}
330
1C02
100
AcDbXrecord
102
MATERIAL
340
1BC0
  0
XRECORD
  5
1C03
102
{ACAD_REACTORS
330
1C02
102
}
330
1C02
100
AcDbXrecord
290
     1
  0
XRECORD
  5
2744
102
{ACAD_REACTORS
330
1C04
102
}
330
1C04
100
AcDbXrecord
102
MATERIAL
340
1BC0
  0
XRECORD
  5
1C05
102
{ACAD_REACTORS
330
1C04
102
}
330
1C04
100
AcDbXrecord
290
     1
  0
XRECORD
  5
274F
102
{ACAD_REACTORS
330
1C0A
102
}
330
1C0A
100
AcDbXrecord
102
MATERIAL
340
1BC0
  0
XRECORD
  5
1C0B
102
{ACAD_REACTORS
330
1C0A
102
}
330
1C0A
100
AcDbXrecord
290
     1
  0
XRECORD
  5
2750
102
{ACAD_REACTORS
330
1C0C
102
}
330
1C0C
100
AcDbXrecord
102
MATERIAL
340
1BC0
  0
XRECORD
  5
1C0D
102
{ACAD_REACTORS
330
1C0C
102
}
330
1C0C
100
AcDbXrecord
290
     1
  0
XRECORD
  5
2752
102
{ACAD_REACTORS
330
1C10
102
}
330
1C10
100
AcDbXrecord
102
MATERIAL
340
1BC0
  0
XRECORD
  5
1C11
102
{ACAD_REACTORS
330
1C10
102
}
330
1C10
100
AcDbXrecord
290
     1
  0
XRECORD
  5
2797
102
{ACAD_REACTORS
330
2796
102
}
330
2796
100
AcDbXrecord
340
2
  0
XRECORD
  5
2799
102
{ACAD_REACTORS
330
2798
102
}
330
2798
100
AcDbXrecord
340
276F
  0
ACAD_PROXY_OBJECT
  5
1BB8
102
{ACAD_XDICTIONARY
360
1BB9
102
}
102
{ACAD_REACTORS
330
1BAF
102
}
330
1BAF
100
AcDbProxyObject
 90
      499
 91
      510
 93
     1340
310
42109E509B1BD8DAC02004014080404555555555555953FAA155555555555654FEA9AA400014080404555555555555953FAA155555555555654FEA9AA400000000000000E03F4080404555555555555953FAA155555555555654FEA9AA4014080404555555555555953FAA155555555555654FEA9AA4010201011555555555
310
55654FEA8555555555555953FAA6A9005020101155555555555654FEA8555555555555953FAA6A9000
 94
        0
1001
ACAD
1000
AcadProxyRoundTripData
1071
      504
1071
   655383
1070
     0
  0
ACAD_PROXY_OBJECT
  5
1BB0
102
{ACAD_XDICTIONARY
360
1BB1
102
}
102
{ACAD_REACTORS
330
1BAF
102
}
330
1BAF
100
AcDbProxyObject
 90
      499
 91
      510
 93
     1340
310
42109E53185E595C802004014080404555555555555953FAA155555555555654FEA9AA400014080404555555555555953FAA155555555555654FEA9AA400000000000000E03F4080404555555555555953FAA155555555555654FEA9AA4014080404555555555555953FAA155555555555654FEA9AA4010201011555555555
310
55654FEA8555555555555953FAA6A9005020101155555555555654FEA8555555555555953FAA6A9000
 94
        0
1001
ACAD
1000
AcadProxyRoundTripData
1071
      504
1071
   655383
1070
     0
  0
ACAD_PROXY_OBJECT
  5
1BC0
102
{ACAD_XDICTIONARY
360
1BC1
102
}
102
{ACAD_REACTORS
330
1BAF
102
}
330
1BAF
100
AcDbProxyObject
 90
      499
 91
      510
 93
     1332
310
41D1DB1BD8985B002004014080404555555555555953FAA155555555555654FEA9AA400014080404555555555555953FAA155555555555654FEA9AA400000000000000E03F4080404555555555555953FAA155555555555654FEA9AA4014080404555555555555953FAA155555555555654FEA9AA401020101155555555555
310
654FEA8555555555555953FAA6A9005020101155555555555654FEA8555555555555953FAA6A9000
 94
        0
1001
ACAD
1000
AcadProxyRoundTripData
1071
      504
1071
   655383
1070
     0
  0
ACAD_PROXY_OBJECT
  5
1BFF
102
{ACAD_REACTORS
330
1BFE
102
}
330
1BFE
100
AcDbProxyObject
 90
      499
 91
      510
 93
      618
310
40901902A4063FBFFFFFE056BD1B81E855B9FC0AD7A3703D0AD73F4254DD185B99185C990000AD7A3703D0AC73F90141901A02B5E8DC0F42B1CFC02B5E8DC0F42B1CFE5764000000000000300FC6
340
6A
340
0
340
16
340
0
 94
        0
1001
ACAD_MLEADERVER
1070
     2
1001
ACAD
1000
AcadProxyRoundTripData
1071
      508
1071
   655383
1070
     0
  0
MLINESTYLE
  5
78
102
{ACAD_REACTORS
330
76
102
}
330
76
100
AcDbMlineStyle
  2
STANDARD
 70
     0
  3

 62
     0
 51
90.0
 52
90.0
 71
     2
 49
0.5
 62
   256
  6
BYLAYER
 49
-0.5
 62
   256
  6
BYLAYER
  0
ACDBPLACEHOLDER
  5
5
102
{ACAD_REACTORS
330
6
102
}
330
6
100
AcDbPlaceHolder
280
     0
  0
ACAD_PROXY_OBJECT
  5
1BDD
102
{ACAD_REACTORS
330
1BDC
102
}
330
1BDC
100
AcDbProxyObject
 90
      499
 91
      510
 93
       49
310
904313A3100598
 94
        0
1001
ACAD
1000
AcadProxyRoundTripData
1071
      507
1071
   655383
1070
     0
  0
ACAD_PROXY_OBJECT
  5
1BDE
102
{ACAD_REACTORS
330
1BDC
102
}
330
1BDC
100
AcDbProxyObject
 90
      499
 91
      510
 93
      113
310
904313A3200400000000000000406B
 94
        0
1001
ACAD
1000
AcadProxyRoundTripData
1071
      507
1071
   655383
1070
     0
  0
ACAD_PROXY_OBJECT
  5
1BDF
102
{ACAD_REACTORS
330
1BDC
102
}
330
1BDC
100
AcDbProxyObject
 90
      499
 91
      510
 93
      113
310
904313A3400400000000000010406B
 94
        0
1001
ACAD
1000
AcadProxyRoundTripData
1071
      507
1071
   655383
1070
     0
  0
ACAD_PROXY_OBJECT
  5
1BE0
102
{ACAD_REACTORS
330
1BDC
102
}
330
1BDC
100
AcDbProxyObject
 90
      499
 91
      510
 93
      113
310
904313A3500400000000000014406B
 94
        0
1001
ACAD
1000
AcadProxyRoundTripData
1071
      507
1071
   655383
1070
     0
  0
ACAD_PROXY_OBJECT
  5
1BE1
102
{ACAD_REACTORS
330
1BDC
102
}
330
1BDC
100
AcDbProxyObject
 90
      499
 91
      510
 93
      113
310
904313A3800400000000000020406B
 94
        0
1001
ACAD
1000
AcadProxyRoundTripData
1071
      507
1071
   655383
1070
     0
  0
ACAD_PROXY_OBJECT
  5
1BE2
102
{ACAD_REACTORS
330
1BDC
102
}
330
1BDC
100
AcDbProxyObject
 90
      499
 91
      510
 93
      121
310
905313A3130004000000000000244051
 94
        0
1001
ACAD
1000
AcadProxyRoundTripData
1071
      507
1071
   655383
1070
     0
  0
ACAD_PROXY_OBJECT
  5
1BE3
102
{ACAD_REACTORS
330
1BDC
102
}
330
1BDC
100
AcDbProxyObject
 90
      499
 91
      510
 93
      121
310
905313A3136004000000000000304051
 94
        0
1001
ACAD
1000
AcadProxyRoundTripData
1071
      507
1071
   655383
1070
     0
  0
ACAD_PROXY_OBJECT
  5
1BE4
102
{ACAD_REACTORS
330
1BDC
102
}
330
1BDC
100
AcDbProxyObject
 90
      499
 91
      510
 93
      121
310
905313A3230004000000000000344051
 94
        0
1001
ACAD
1000
AcadProxyRoundTripData
1071
      507
1071
   655383
1070
     0
  0
ACAD_PROXY_OBJECT
  5
1BE5
102
{ACAD_REACTORS
330
1BDC
102
}
330
1BDC
100
AcDbProxyObject
 90
      499
 91
      510
 93
      121
310
905313A33300040000000000003E4051
 94
        0
1001
ACAD
1000
AcadProxyRoundTripData
1071
      507
1071
   655383
1070
     0
  0
ACAD_PROXY_OBJECT
  5
1BE6
102
{ACAD_REACTORS
330
1BDC
102
}
330
1BDC
100
AcDbProxyObject
 90
      499
 91
      510
 93
      121
310
905313A3430004000000000000444051
 94
        0
1001
ACAD
1000
AcadProxyRoundTripData
1071
      507
1071
   655383
1070
     0
  0
ACAD_PROXY_OBJECT
  5
1BE7
102
{ACAD_REACTORS
330
1BDC
102
}
330
1BDC
100
AcDbProxyObject
 90
      499
 91
      510
 93
      121
310
905313A3530004000000000000494051
 94
        0
1001
ACAD
1000
AcadProxyRoundTripData
1071
      507
1071
   655383
1070
     0
  0
ACAD_PROXY_OBJECT
  5
1BE8
102
{ACAD_REACTORS
330
1BDC
102
}
330
1BDC
100
AcDbProxyObject
 90
      499
 91
      510
 93
      129
310
906313A313030004000000000000594038
 94
        0
1001
ACAD
1000
AcadProxyRoundTripData
1071
      507
1071
   655383
1070
     0
  0
ACAD_PROXY_OBJECT
  5
1BE9
102
{ACAD_REACTORS
330
1BDC
102
}
330
1BDC
100
AcDbProxyObject
 90
      499
 91
      510
 93
      113
310
904323A31000000000000000010159
 94
        0
1001
ACAD
1000
AcadProxyRoundTripData
1071
      507
1071
   655383
1070
     0
  0
ACAD_PROXY_OBJECT
  5
1BEA
102
{ACAD_REACTORS
330
1BDC
102
}
330
1BDC
100
AcDbProxyObject
 90
      499
 91
      510
 93
      113
310
904343A31000000000000000410159
 94
        0
1001
ACAD
1000
AcadProxyRoundTripData
1071
      507
1071
   655383
1070
     0
  0
ACAD_PROXY_OBJECT
  5
1BEB
102
{ACAD_REACTORS
330
1BDC
102
}
330
1BDC
100
AcDbProxyObject
 90
      499
 91
      510
 93
      113
310
904383A31000000000000000810159
 94
        0
1001
ACAD
1000
AcadProxyRoundTripData
1071
      507
1071
   655383
1070
     0
  0
ACAD_PROXY_OBJECT
  5
1BEC
102
{ACAD_REACTORS
330
1BDC
102
}
330
1BDC
100
AcDbProxyObject
 90
      499
 91
      510
 93
      121
310
90531303A31000000000000000910140
 94
        0
1001
ACAD
1000
AcadProxyRoundTripData
1071
      507
1071
   655383
1070
     0
  0
ACAD_PROXY_OBJECT
  5
1BED
102
{ACAD_REACTORS
330
1BDC
102
}
330
1BDC
100
AcDbProxyObject
 90
      499
 91
      510
 93
      129
310
9063130303A31000000000000001650138
 94
        0
1001
ACAD
1000
AcadProxyRoundTripData
1071
      507
1071
   655383
1070
     0
  0
ACAD_PROXY_OBJECT
  5
1BEE
102
{ACAD_REACTORS
330
1BDC
102
}
330
1BDC
100
AcDbProxyObject
 90
      499
 91
      510
 93
      265
310
90F312F31323822203D2031272D302200000000000000200FC00000000000028402B
 94
        0
1001
ACAD
1000
AcadProxyRoundTripData
1071
      507
1071
   655383
1070
     0
  0
ACAD_PROXY_OBJECT
  5
1BEF
102
{ACAD_REACTORS
330
1BDC
102
}
330
1BDC
100
AcDbProxyObject
 90
      499
 91
      510
 93
      257
310
90E312F363422203D2031272D302200000000000000240FC000000000000284040
 94
        0
1001
ACAD
1000
AcadProxyRoundTripData
1071
      507
1071
   655383
1070
     0
  0
ACAD_PROXY_OBJECT
  5
1BF0
102
{ACAD_REACTORS
330
1BDC
102
}
330
1BDC
100
AcDbProxyObject
 90
      499
 91
      510
 93
      257
310
90E312F333222203D2031272D302200000000000000280FC000000000000284040
 94
        0
1001
ACAD
1000
AcadProxyRoundTripData
1071
      507
1071
   655383
1070
     0
  0
ACAD_PROXY_OBJECT
  5
1BF1
102
{ACAD_REACTORS
330
1BDC
102
}
330
1BDC
100
AcDbProxyObject
 90
      499
 91
      510
 93
      257
310
90E312F313622203D2031272D3022000000000000002C0FC000000000000284040
 94
        0
1001
ACAD
1000
AcadProxyRoundTripData
1071
      507
1071
   655383
1070
     0
  0
ACAD_PROXY_OBJECT
  5
1BF2
102
{ACAD_REACTORS
330
1BDC
102
}
330
1BDC
100
AcDbProxyObject
 90
      499
 91
      510
 93
      257
310
90E332F333222203D2031272D3022000000000000002E0FC000000000000284040
 94
        0
1001
ACAD
1000
AcadProxyRoundTripData
1071
      507
1071
   655383
1070
     0
  0
ACAD_PROXY_OBJECT
  5
1BF3
102
{ACAD_REACTORS
330
1BDC
102
}
330
1BDC
100
AcDbProxyObject
 90
      499
 91
      510
 93
      249
310
90D312F3822203D2031272D302200000000000000300FC000000000000284040
 94
        0
1001
ACAD
1000
AcadProxyRoundTripData
1071
      507
1071
   655383
1070
     0
  0
ACAD_PROXY_OBJECT
  5
1BF4
102
{ACAD_REACTORS
330
1BDC
102
}
330
1BDC
100
AcDbProxyObject
 90
      499
 91
      510
 93
      257
310
90E332F313622203D2031272D302200000000000000320FC000000000000284040
 94
        0
1001
ACAD
1000
AcadProxyRoundTripData
1071
      507
1071
   655383
1070
     0
  0
ACAD_PROXY_OBJECT
  5
1BF5
102
{ACAD_REACTORS
330
1BDC
102
}
330
1BDC
100
AcDbProxyObject
 90
      499
 91
      510
 93
      249
310
90D312F3422203D2031272D302200000000000000340FC000000000000284040
 94
        0
1001
ACAD
1000
AcadProxyRoundTripData
1071
      507
1071
   655383
1070
     0
  0
ACAD_PROXY_OBJECT
  5
1BF6
102
{ACAD_REACTORS
330
1BDC
102
}
330
1BDC
100
AcDbProxyObject
 90
      499
 91
      510
 93
      249
310
90D332F3822203D2031272D302200000000000000360FC000000000000284040
 94
        0
1001
ACAD
1000
AcadProxyRoundTripData
1071
      507
1071
   655383
1070
     0
  0
ACAD_PROXY_OBJECT
  5
1BF7
102
{ACAD_REACTORS
330
1BDC
102
}
330
1BDC
100
AcDbProxyObject
 90
      499
 91
      510
 93
      249
310
90D312F3222203D2031272D302200000000000000380FC000000000000284040
 94
        0
1001
ACAD
1000
AcadProxyRoundTripData
1071
      507
1071
   655383
1070
     0
  0
ACAD_PROXY_OBJECT
  5
1BF8
102
{ACAD_REACTORS
330
1BDC
102
}
330
1BDC
100
AcDbProxyObject
 90
      499
 91
      510
 93
      249
310
90D332F3422203D2031272D3022000000000000003A0FC000000000000284040
 94
        0
1001
ACAD
1000
AcadProxyRoundTripData
1071
      507
1071
   655383
1070
     0
  0
ACAD_PROXY_OBJECT
  5
1BF9
102
{ACAD_REACTORS
330
1BDC
102
}
330
1BDC
100
AcDbProxyObject
 90
      499
 91
      510
 93
      169
310
90B3122203D2031272D3022004000000000000284020
 94
        0
1001
ACAD
1000
AcadProxyRoundTripData
1071
      507
1071
   655383
1070
     0
  0
ACAD_PROXY_OBJECT
  5
1BFA
102
{ACAD_REACTORS
330
1BDC
102
}
330
1BDC
100
AcDbProxyObject
 90
      499
 91
      510
 93
      265
310
90F312D312F3222203D2031272D3022000000000000003E0FC00000000000028402B
 94
        0
1001
ACAD
1000
AcadProxyRoundTripData
1071
      507
1071
   655383
1070
     0
  0
ACAD_PROXY_OBJECT
  5
1BFB
102
{ACAD_REACTORS
330
1BDC
102
}
330
1BDC
100
AcDbProxyObject
 90
      499
 91
      510
 93
      233
310
90B3322203D2031272D30220000000000000002100000000000000284000
 94
        0
1001
ACAD
1000
AcadProxyRoundTripData
1071
      507
1071
   655383
1070
     0
  0
ACAD_PROXY_OBJECT
  5
1BFC
102
{ACAD_REACTORS
330
1BDC
102
}
330
1BDC
100
AcDbProxyObject
 90
      499
 91
      510
 93
      233
310
90B3622203D2031272D30220000000000000006100000000000000284000
 94
        0
1001
ACAD
1000
AcadProxyRoundTripData
1071
      507
1071
   655383
1070
     0
  0
ACAD_PROXY_OBJECT
  5
1BFD
102
{ACAD_REACTORS
330
1BDC
102
}
330
1BDC
100
AcDbProxyObject
 90
      499
 91
      510
 93
      257
310
90E31272D3022203D2031272D3022000000000000000A100000000000000284040
 94
        0
1001
ACAD
1000
AcadProxyRoundTripData
1071
      507
1071
   655383
1070
     0
  0
ACAD_PROXY_OBJECT
  5
1BDB
102
{ACAD_XDICTIONARY
360
1C38
102
}
102
{ACAD_REACTORS
330
1BDA
102
}
330
1BDA
100
AcDbProxyObject
 90
      499
 91
      510
 93
     1849
310
4254DD185B99185C990028B81E85EB51B8AE3F2E07A17AD46E2B8FC02B5E8DC0F42B1CFD028000000C1008070000C3001FDFF8000000C1003FBFF000000182007F7FE00000030400FEFFC00000060801FDFF8000000C1003FBFF00000018200000000000000681FA0B0000001820100E000186003FBFF000000182007F7FE0
310
0000030400FEFFC00000060801FDFF8000000C1003FBFF000000182007F7FE000000304000AD7A3703D0AC73F4160000003040201C00030C007F7FE00000030400FEFFC00000060801FDFF8000000C1003FBFF000000182007F7FE00000030400FEFFC000000608000
340
16
340
16
340
16
 94
        0
1001
ACAD
1000
AcadProxyRoundTripData
1071
      506
1071
   655383
1070
     0
  0
ACAD_PROXY_OBJECT
  5
1BCE
102
{ACAD_REACTORS
330
1BC8
102
}
330
1BC8
100
AcDbProxyObject
 90
      499
 91
      510
 93
      444
310
430C9915DA5C99599C985B59401049028333333333333E3BF0000000000000FB0107901411070040501600405405064090741402480A0340
 94
        0
1001
ACAD
1000
AcDbSavedByObjectVersion
1070
     0
1000
AcadProxyRoundTripData
1071
      505
1071
   655383
1070
     0
  0
ACAD_PROXY_OBJECT
  5
1BD0
102
{ACAD_REACTORS
330
1BC8
102
}
330
1BC8
100
AcDbProxyObject
 90
      499
 91
      510
 93
      508
310
428CD108121A5919195B8010640502408333333333333E3BF0000000000000FB01079024090700405020000000000001110200405405064090740C02480A0340
 94
        0
1001
ACAD
1000
AcDbSavedByObjectVersion
1070
     0
1000
AcadProxyRoundTripData
1071
      505
1071
   655383
1070
     0
  0
ACAD_PROXY_OBJECT
  5
1BCF
102
{ACAD_REACTORS
330
1BC8
102
}
330
1BC8
100
AcDbProxyObject
 90
      499
 91
      510
 93
      444
310
430CD915DA5C99599C985B59401059028333333333333E3BF0000000000000FB0107901411070040501600405405064090741402480A0340
 94
        0
1001
ACAD
1000
AcDbSavedByObjectVersion
1070
     0
1000
AcadProxyRoundTripData
1071
      505
1071
   655383
1070
     0
  0
ACAD_PROXY_OBJECT
  5
1BCD
102
{ACAD_REACTORS
330
1BC8
102
}
330
1BC8
100
AcDbProxyObject
 90
      499
 91
      510
 93
      396
310
4190985CDA58C0107406404333333333333E3BF0000000000000FB0107A41107004050150841D405064090741402480A0356
 94
        0
1001
ACAD
1000
AcDbSavedByObjectVersion
1070
     0
1000
AcadProxyRoundTripData
1071
      505
1071
   655383
1070
     0
  0
ACAD_PROXY_OBJECT
  5
1BD4
102
{ACAD_REACTORS
330
1BC8
102
}
330
1BC8
100
AcDbProxyObject
 90
      499
 91
      510
 93
      436
310
42509C9A59DA1D195B8010C409028333333333333E3BF0000000000000FB010790141107004050150841D405064090741402480A029956
 94
        0
1001
ACAD
1000
AcDbSavedByObjectVersion
1070
     0
1000
AcadProxyRoundTripData
1071
      505
1071
   655383
1070
     0
  0
ACAD_PROXY_OBJECT
  5
1BD8
102
{ACAD_REACTORS
330
1BC8
102
}
330
1BC8
100
AcDbProxyObject
 90
      499
 91
      510
 93
      460
310
4310DBDB1BDC90DA185B99D9401104090240C333333333333E3BF0000000000000FB0108901411070040501508421405064090741402480A0354
 94
        0
1001
ACAD
1000
AcDbSavedByObjectVersion
1070
     0
1000
AcadProxyRoundTripData
1071
      505
1071
   655383
1070
     0
  0
ACAD_PROXY_OBJECT
  5
1BD1
102
{ACAD_REACTORS
330
1BC8
102
}
330
1BC8
100
AcDbProxyObject
 90
      499
 91
      510
 93
      508
310
42D0DBDB98D95C1D1D585B0010940D028333333333333E3BF0000000000000FB0107902409070040501000000000000111010841D405064090740C02480A0340
 94
        0
1001
ACAD
1000
AcDbSavedByObjectVersion
1070
     0
1000
AcadProxyRoundTripData
1071
      505
1071
   655383
1070
     0
  0
ACAD_PROXY_OBJECT
  5
1BD3
102
{ACAD_REACTORS
330
1BC8
102
}
330
1BC8
100
AcDbProxyObject
 90
      499
 91
      510
 93
      420
310
41111A5B4010B409028333333333333E3BF0000000000000FB010790141107004050150841D405064090741402480A02677FFFFFDB
 94
        0
1001
ACAD
1000
AcDbSavedByObjectVersion
1070
     0
1000
AcadProxyRoundTripData
1071
      505
1071
   655383
1070
     0
  0
ACAD_PROXY_OBJECT
  5
1BD7
102
{ACAD_REACTORS
330
1BC8
102
}
330
1BC8
100
AcDbProxyObject
 90
      499
 91
      510
 93
      452
310
43119858D95C185D1D195C9B8010F409028333333333333E3BF0000000000000FB010790141107004050150841D405064090741402480A0350
 94
        0
1001
ACAD
1000
AcDbSavedByObjectVersion
1070
     0
1000
AcadProxyRoundTripData
1071
      505
1071
   655383
1070
     0
  0
ACAD_PROXY_OBJECT
  5
1BC9
102
{ACAD_REACTORS
330
1BC8
102
}
330
1BC8
100
AcDbProxyObject
 90
      499
 91
      510
 93
      396
310
41519B185D00240901404333333333333E3BF0000000000000F9010740A41107004050150841D405064090741402480A1B55
 94
        0
1001
ACAD
1000
AcDbSavedByObjectVersion
1070
     0
1000
AcadProxyRoundTripData
1071
      505
1071
   655383
1070
     0
  0
ACAD_PROXY_OBJECT
  5
1BCA
102
{ACAD_REACTORS
330
1BC8
102
}
330
1BC8
100
AcDbProxyObject
 90
      499
 91
      510
 93
      484
310
43919B185D15DA5D1A115919D95CC010140901404333333333333E3BF0000000000000F9010740901411070040501600405405064090741402480A1B50
 94
        0
1001
ACAD
1000
AcDbSavedByObjectVersion
1070
     0
1000
AcadProxyRoundTripData
1071
      505
1071
   655383
1070
     0
  0
ACAD_PROXY_OBJECT
  5
1BCB
102
{ACAD_REACTORS
330
1BC8
102
}
330
1BC8
100
AcDbProxyObject
 90
      499
 91
      510
 93
      420
310
4211DBDD5C985D590010240902404333333333333E3BF0000000000000F9010740A411070040501641D405064090741402480A1B50
 94
        0
1001
ACAD
1000
AcDbSavedByObjectVersion
1070
     0
1000
AcadProxyRoundTripData
1071
      505
1071
   655383
1070
     0
  0
ACAD_PROXY_OBJECT
  5
1BCC
102
{ACAD_REACTORS
330
1BC8
102
}
330
1BC8
100
AcDbProxyObject
 90
      499
 91
      510
 93
      508
310
4451DBDD5C985D5915DA5D1A115919D95CC010340902404333333333333E3BF0000000000000F9010740901411070040501600405405064090741402480A1B50
 94
        0
1001
ACAD
1000
AcDbSavedByObjectVersion
1070
     0
1000
AcadProxyRoundTripData
1071
      505
1071
   655383
1070
     0
  0
ACAD_PROXY_OBJECT
  5
1BD6
102
{ACAD_REACTORS
330
1BC8
102
}
330
1BC8
100
AcDbProxyObject
 90
      499
 91
      510
 93
      452
310
43131A5B995C185D1D195C9B8010E409028333333333333E3BF0000000000000FB010790141107004050750841D405064090741402483A0350
 94
        0
1001
ACAD
1000
AcDbSavedByObjectVersion
1070
     0
1000
AcadProxyRoundTripData
1071
      505
1071
   655383
1070
     0
  0
ACAD_PROXY_OBJECT
  5
1BD2
102
{ACAD_REACTORS
330
1BC8
102
}
330
1BC8
100
AcDbProxyObject
 90
      499
 91
      510
 93
      428
310
429499585B1A5CDD1A58C0108409028333333333333E3BF0000000000000FB01079019070040501508421405064090741402480A1B45
 94
        0
1001
ACAD
1000
AcDbSavedByObjectVersion
1070
     0
1000
AcadProxyRoundTripData
1071
      505
1071
   655383
1070
     0
  0
ACAD_PROXY_OBJECT
  5
1BD5
102
{ACAD_REACTORS
330
1BC8
102
}
330
1BC8
100
AcDbProxyObject
 90
      499
 91
      510
 93
      420
310
42151A1A58DAD95B8010D409028333333333333E3BF0000000000000FB010790141107004050150C41D405064090741402480A0352
 94
        0
1001
ACAD
1000
AcDbSavedByObjectVersion
1070
     0
1000
AcadProxyRoundTripData
1071
      505
1071
   655383
1070
     0
  0
XRECORD
  5
277F
102
{ACAD_REACTORS
330
2775
102
}
330
2775
100
AcDbXrecord
 90
        0
  0
XRECORD
  5
2783
102
{ACAD_REACTORS
330
2775
102
}
330
2775
100
AcDbXrecord
1000
DSTYLE
1002
{
1070
   179
 70
     2
1070
   277
 70
     6
1002
}
  0
XRECORD
  5
2780
102
{ACAD_REACTORS
330
2775
102
}
330
2775
100
AcDbXrecord
  1
{6385560B-F4B1-4644-A7C2-A3E32AC3D232}
  0
XRECORD
  5
2778
102
{ACAD_REACTORS
330
2775
102
}
330
2775
100
AcDbXrecord
  1

  0
XRECORD
  5
277E
102
{ACAD_REACTORS
330
2775
102
}
330
2775
100
AcDbXrecord
 90
        0
  0
XRECORD
  5
277A
102
{ACAD_REACTORS
330
2775
102
}
330
2775
100
AcDbXrecord
340
61
  0
XRECORD
  5
277D
102
{ACAD_REACTORS
330
2775
102
}
330
2775
100
AcDbXrecord
 90
    10781
  0
XRECORD
  5
277B
102
{ACAD_REACTORS
330
2775
102
}
330
2775
100
AcDbXrecord
340
77
  0
XRECORD
  5
277C
102
{ACAD_REACTORS
330
2775
102
}
330
2775
100
AcDbXrecord
340
6
  0
XRECORD
  5
2782
102
{ACAD_REACTORS
330
2775
102
}
330
2775
100
AcDbXrecord
 40
0.0
  0
XRECORD
  5
2786
102
{ACAD_REACTORS
330
2775
102
}
330
2775
100
AcDbXrecord
340
0
  0
XRECORD
  5
278C
102
{ACAD_REACTORS
330
2775
102
}
330
2775
100
AcDbXrecord
 10
0.0
 20
0.0
 30
0.0
  0
XRECORD
  5
2788
102
{ACAD_REACTORS
330
2775
102
}
330
2775
100
AcDbXrecord
 10
0.0
 20
0.0
 30
0.0
  0
XRECORD
  5
278B
102
{ACAD_REACTORS
330
2775
102
}
330
2775
100
AcDbXrecord
 10
0.0
 20
0.0
 30
0.0
  0
XRECORD
  5
2789
102
{ACAD_REACTORS
330
2775
102
}
330
2775
100
AcDbXrecord
 10
0.0
 20
0.0
 30
0.0
  0
XRECORD
  5
278A
102
{ACAD_REACTORS
330
2775
102
}
330
2775
100
AcDbXrecord
 10
0.0
 20
0.0
 30
0.0
  0
XRECORD
  5
2787
102
{ACAD_REACTORS
330
2775
102
}
330
2775
100
AcDbXrecord
 10
0.0
 20
0.0
 30
0.0
  0
XRECORD
  5
2784
102
{ACAD_REACTORS
330
2775
102
}
330
2775
100
AcDbXrecord
340
0
  0
XRECORD
  5
2785
102
{ACAD_REACTORS
330
2775
102
}
330
2775
100
AcDbXrecord
 70
     0
  0
XRECORD
  5
2779
102
{ACAD_REACTORS
330
2775
102
}
330
2775
100
AcDbXrecord
  1
Sekkei.ctb
  0
XRECORD
  5
2776
102
{ACAD_REACTORS
330
2775
102
}
330
2775
100
AcDbXrecord
 90
        1
  0
XRECORD
  5
2777
102
{ACAD_REACTORS
330
2775
102
}
330
2775
100
AcDbXrecord
 90
       70
  0
XRECORD
  5
278F
102
{ACAD_REACTORS
330
2775
102
}
330
2775
100
AcDbXrecord
340
0
  0
XRECORD
  5
2795
102
{ACAD_REACTORS
330
2775
102
}
330
2775
100
AcDbXrecord
 10
0.0
 20
0.0
 30
0.0
  0
XRECORD
  5
2791
102
{ACAD_REACTORS
330
2775
102
}
330
2775
100
AcDbXrecord
 10
0.0
 20
0.0
 30
0.0
  0
XRECORD
  5
2794
102
{ACAD_REACTORS
330
2775
102
}
330
2775
100
AcDbXrecord
 10
0.0
 20
0.0
 30
0.0
  0
XRECORD
  5
2792
102
{ACAD_REACTORS
330
2775
102
}
330
2775
100
AcDbXrecord
 10
0.0
 20
0.0
 30
0.0
  0
XRECORD
  5
2793
102
{ACAD_REACTORS
330
2775
102
}
330
2775
100
AcDbXrecord
 10
0.0
 20
0.0
 30
0.0
  0
XRECORD
  5
2790
102
{ACAD_REACTORS
330
2775
102
}
330
2775
100
AcDbXrecord
 10
0.0
 20
0.0
 30
0.0
  0
XRECORD
  5
278D
102
{ACAD_REACTORS
330
2775
102
}
330
2775
100
AcDbXrecord
340
0
  0
XRECORD
  5
278E
102
{ACAD_REACTORS
330
2775
102
}
330
2775
100
AcDbXrecord
 70
     0
  0
XRECORD
  5
2781
102
{ACAD_REACTORS
330
2775
102
}
330
2775
100
AcDbXrecord
  1
{AD1DB07F-96DE-41C5-A11F-3C1901DE2F6C}
  0
DICTIONARYVAR
  5
1C5B
102
{ACAD_REACTORS
330
102
102
}
330
102
100
DictionaryVariables
280
     0
  1
1:1
  0
DICTIONARYVAR
  5
1C5A
102
{ACAD_REACTORS
330
102
102
}
330
102
100
DictionaryVariables
280
     0
  1
STANDARD
  0
DICTIONARYVAR
  5
1C59
102
{ACAD_REACTORS
330
102
102
}
330
102
100
DictionaryVariables
280
     0
  1
STANDARD
  0
DICTIONARYVAR
  5
103
102
{ACAD_REACTORS
330
102
102
}
330
102
100
DictionaryVariables
280
     0
  1
1
  0
DICTIONARYVAR
  5
1C5C
102
{ACAD_REACTORS
330
102
102
}
330
102
100
DictionaryVariables
280
     0
  1
0
  0
DICTIONARYVAR
  5
549
102
{ACAD_REACTORS
330
102
102
}
330
102
100
DictionaryVariables
280
     0
  1
96
  0
DICTIONARY
  5
1BB9
330
1BB8
100
AcDbDictionary
280
     1
  3
ACAD_XREC_ROUNDTRIP
360
2754
  3
BUMPTILE
360
1BBB
  3
DIFFUSETILE
360
1BBA
  3
OPACITYTILE
360
1BBE
  3
REFLECTIONTILE
360
1BBD
  3
REFRACTIONTILE
360
1BBF
  3
SPECULARTILE
360
1BBC
  0
DICTIONARY
  5
1BB1
330
1BB0
100
AcDbDictionary
280
     1
  3
ACAD_XREC_ROUNDTRIP
360
2753
  3
BUMPTILE
360
1BB3
  3
DIFFUSETILE
360
1BB2
  3
OPACITYTILE
360
1BB6
  3
REFLECTIONTILE
360
1BB5
  3
REFRACTIONTILE
360
1BB7
  3
SPECULARTILE
360
1BB4
  0
DICTIONARY
  5
1BC1
330
1BC0
100
AcDbDictionary
280
     1
  3
ACAD_XREC_ROUNDTRIP
360
2755
  3
BUMPTILE
360
1BC3
  3
DIFFUSETILE
360
1BC2
  3
OPACITYTILE
360
1BC6
  3
REFLECTIONTILE
360
1BC5
  3
REFRACTIONTILE
360
1BC7
  3
SPECULARTILE
360
1BC4
  0
DICTIONARY
  5
1C38
330
1BDB
100
AcDbDictionary
280
     1
  3
ACAD_ROUNDTRIP_2008_TABLES
360
2741
  3
ACAD_XREC_ROUNDTRIP
360
2756
  0
XRECORD
  5
2754
102
{ACAD_REACTORS
330
1BB9
102
}
330
1BB9
100
AcDbXrecord
102
MATERIAL
148
0.0
149
0.0
149
0.0
 93
        0
 94
      127
282
     0
 72
     0
 77
     0
171
     0
175
     0
179
     0
273
     0
  0
XRECORD
  5
1BBB
102
{ACAD_REACTORS
330
1BB9
102
}
330
1BB9
100
AcDbXrecord
270
     1
271
     1
  0
XRECORD
  5
1BBA
102
{ACAD_REACTORS
330
1BB9
102
}
330
1BB9
100
AcDbXrecord
270
     1
271
     1
  0
XRECORD
  5
1BBE
102
{ACAD_REACTORS
330
1BB9
102
}
330
1BB9
100
AcDbXrecord
270
     1
271
     1
  0
XRECORD
  5
1BBD
102
{ACAD_REACTORS
330
1BB9
102
}
330
1BB9
100
AcDbXrecord
270
     1
271
     1
  0
XRECORD
  5
1BBF
102
{ACAD_REACTORS
330
1BB9
102
}
330
1BB9
100
AcDbXrecord
270
     1
271
     1
  0
XRECORD
  5
1BBC
102
{ACAD_REACTORS
330
1BB9
102
}
330
1BB9
100
AcDbXrecord
270
     1
271
     1
  0
XRECORD
  5
2753
102
{ACAD_REACTORS
330
1BB1
102
}
330
1BB1
100
AcDbXrecord
102
MATERIAL
148
0.0
149
0.0
149
0.0
 93
        0
 94
      127
282
     0
 72
     0
 77
     0
171
     0
175
     0
179
     0
273
     0
  0
XRECORD
  5
1BB3
102
{ACAD_REACTORS
330
1BB1
102
}
330
1BB1
100
AcDbXrecord
270
     1
271
     1
  0
XRECORD
  5
1BB2
102
{ACAD_REACTORS
330
1BB1
102
}
330
1BB1
100
AcDbXrecord
270
     1
271
     1
  0
XRECORD
  5
1BB6
102
{ACAD_REACTORS
330
1BB1
102
}
330
1BB1
100
AcDbXrecord
270
     1
271
     1
  0
XRECORD
  5
1BB5
102
{ACAD_REACTORS
330
1BB1
102
}
330
1BB1
100
AcDbXrecord
270
     1
271
     1
  0
XRECORD
  5
1BB7
102
{ACAD_REACTORS
330
1BB1
102
}
330
1BB1
100
AcDbXrecord
270
     1
271
     1
  0
XRECORD
  5
1BB4
102
{ACAD_REACTORS
330
1BB1
102
}
330
1BB1
100
AcDbXrecord
270
     1
271
     1
  0
XRECORD
  5
2755
102
{ACAD_REACTORS
330
1BC1
102
}
330
1BC1
100
AcDbXrecord
102
MATERIAL
148
0.0
149
0.0
149
0.0
 93
        0
 94
      127
282
     0
 72
     0
 77
     0
171
     0
175
     0
179
     0
273
     0
  0
XRECORD
  5
1BC3
102
{ACAD_REACTORS
330
1BC1
102
}
330
1BC1
100
AcDbXrecord
270
     1
271
     1
  0
XRECORD
  5
1BC2
102
{ACAD_REACTORS
330
1BC1
102
}
330
1BC1
100
AcDbXrecord
270
     1
271
     1
  0
XRECORD
  5
1BC6
102
{ACAD_REACTORS
330
1BC1
102
}
330
1BC1
100
AcDbXrecord
270
     1
271
     1
  0
XRECORD
  5
1BC5
102
{ACAD_REACTORS
330
1BC1
102
}
330
1BC1
100
AcDbXrecord
270
     1
271
     1
  0
XRECORD
  5
1BC7
102
{ACAD_REACTORS
330
1BC1
102
}
330
1BC1
100
AcDbXrecord
270
     1
271
     1
  0
XRECORD
  5
1BC4
102
{ACAD_REACTORS
330
1BC1
102
}
330
1BC1
100
AcDbXrecord
270
     1
271
     1
  0
ACAD_PROXY_OBJECT
  5
2741
102
{ACAD_REACTORS
330
1C38
102
}
330
1C38
100
AcDbProxyObject
 90
      499
 91
      510
 93
     5304
310
40D054060020000020000003200101A000080002A5058000000C100000000000000340FD012E07A17AD46E2B8FCB81E85EB51B8AE3F2E07A17AD46E2B8FCB81E85EB51B8AE3F02B5E8DC0F42B1CFC0AD7A3703D0AC73F419019018000000C1003FBFFFFFE02B5E8DC0F42A9CFD029018000000C1003FBFFFFFE02B5E8DC0F4
310
2A9CFD049018000000C1003FBFFFFFE02B5E8DC0F42A9CFD089018000000C1003FBFFFFFE02B5E8DC0F42A9CFD109018000000C1003FBFFFFFE02B5E8DC0F42A9CFD209018000000C1003FBFFFFFE02B5E8DC0F42A9CFD01405075F5449544C450041501A8000000C800406800020000A9416000000304000AD7A3703D0AC7
310
3F404B81E85EB51B8AE3F2E07A17AD46E2B8FCB81E85EB51B8AE3F2E07A17AD46E2B8FC0AD7A3703D0AC73F02B5E8DC0F42B1CFD0640640600000030400FEFFFFFF80AD7A3703D0AA73F40A40600000030400FEFFFFFF80AD7A3703D0AA73F41240600000030400FEFFFFFF80AD7A3703D0AA73F42240600000030400FEFFF
310
FFF80AD7A3703D0AA73F44240600000030400FEFFFFFF80AD7A3703D0AA73F48240600000030400FEFFFFFF80AD7A3703D0AA73F409014217D2115051115480105406A0000003200101A000080002A5028000000C10002B5E8DC0F42B1CFD012E07A17AD46E2B8FCB81E85EB51B8AE3F2E07A17AD46E2B8FCB81E85EB51B8A
310
E3F02B5E8DC0F42B1CFC0AD7A3703D0AC73F419019018000000C1003FBFFFFFE02B5E8DC0F42A9CFD029018000000C1003FBFFFFFE02B5E8DC0F42A9CFD049018000000C1003FBFFFFFE02B5E8DC0F42A9CFD089018000000C1003FBFFFFFE02B5E8DC0F42A9CFD109018000000C1003FBFFFFFE02B5E8DC0F42A9CFD20901
310
8000000C1003FBFFFFFE02B5E8DC0F42A9CFD03409065F444154410000
340
16
340
0
340
0
340
0
340
0
340
0
340
0
340
16
340
0
340
0
340
0
340
0
340
0
340
0
340
16
340
0
340
0
340
0
340
0
340
0
340
0
 94
        0
1001
ACAD
1000
AcadProxyRoundTripData
1071
      509
1071
   655383
1070
     0
  0
XRECORD
  5
2756
102
{ACAD_REACTORS
330
1C38
102
}
330
1C38
100
AcDbXrecord
102
ACAD_ROUNDTRIP_PRE2007_TABLESTYLE
 90
      512
 91
        0
  1

 92
      512
 93
        0
  2

 94
      512
 95
        0
  3

  0
ENDSEC
  0
EOF
