  0
SECTION
  2
HEADER
  9
$ACADVER
  1
AC1014
  9
$ACADMAINTVER
 70
     9
  9
$DWGCODEPAGE
  3
ANSI_932
  9
$INSBASE
 10
0.0
 20
0.0
 30
0.0
  9
$EXTMIN
 10
39.64009703866327
 20
50.42155619458828
 30
0.0
  9
$EXTMAX
 10
1015.616516226257
 20
433.0537322187878
 30
0.0
  9
$LIMMIN
 10
0.0
 20
0.0
  9
$LIMMAX
 10
297.0
 20
210.0
  9
$ORTHOMODE
 70
     1
  9
$REGENMODE
 70
     1
  9
$FILLMODE
 70
     1
  9
$QTEXTMODE
 70
     0
  9
$MIRRTEXT
 70
     0
  9
$DRAGMODE
 70
     2
  9
$LTSCALE
 40
3.0
  9
$OSMODE
 70
    37
  9
$ATTMODE
 70
     1
  9
$TEXTSIZE
 40
2.0
  9
$TRACEWID
 40
1.0
  9
$TEXTSTYLE
  7
STANDARD
  9
$CLAYER
  8
0
  9
$CELTYPE
  6
BYLAYER
  9
$CECOLOR
 62
   256
  9
$CELTSCALE
 40
1.0
  9
$DELOBJ
 70
     1
  9
$DISPSILH
 70
     0
  9
$DIMSCALE
 40
3.0
  9
$DIMASZ
 40
1.8
  9
$DIMEXO
 40
0.625
  9
$DIMDLI
 40
3.75
  9
$DIMRND
 40
0.0
  9
$DIMDLE
 40
0.0
  9
$DIMEXE
 40
0.8
  9
$DIMTP
 40
0.0
  9
$DIMTM
 40
0.0
  9
$DIMTXT
 40
1.8
  9
$DIMCEN
 40
2.5
  9
$DIMTSZ
 40
0.0
  9
$DIMTOL
 70
     0
  9
$DIMLIM
 70
     0
  9
$DIMTIH
 70
     0
  9
$DIMTOH
 70
     0
  9
$DIMSE1
 70
     0
  9
$DIMSE2
 70
     0
  9
$DIMTAD
 70
     1
  9
$DIMZIN
 70
     8
  9
$DIMBLK
  1

  9
$DIMASO
 70
     1
  9
$DIMSHO
 70
     1
  9
$DIMPOST
  1

  9
$DIMAPOST
  1

  9
$DIMALT
 70
     0
  9
$DIMALTD
 70
     4
  9
$DIMALTF
 40
0.0394
  9
$DIMLFAC
 40
1.0
  9
$DIMTOFL
 70
     1
  9
$DIMTVP
 40
0.0
  9
$DIMTIX
 70
     0
  9
$DIMSOXD
 70
     0
  9
$DIMSAH
 70
     0
  9
$DIMBLK1
  1

  9
$DIMBLK2
  1

  9
$DIMSTYLE
  2
STANDARD
  9
$DIMCLRD
 70
     0
  9
$DIMCLRE
 70
     0
  9
$DIMCLRT
 70
     0
  9
$DIMTFAC
 40
1.0
  9
$DIMGAP
 40
0.75
  9
$DIMJUST
 70
     0
  9
$DIMSD1
 70
     0
  9
$DIMSD2
 70
     0
  9
$DIMTOLJ
 70
     1
  9
$DIMTZIN
 70
     0
  9
$DIMALTZ
 70
     0
  9
$DIMALTTZ
 70
     0
  9
$DIMFIT
 70
     3
  9
$DIMUPT
 70
     0
  9
$DIMUNIT
 70
     8
  9
$DIMDEC
 70
     2
  9
$DIMTDEC
 70
     2
  9
$DIMALTU
 70
     8
  9
$DIMALTTD
 70
     4
  9
$DIMTXSTY
  7
STANDARD
  9
$DIMAUNIT
 70
     0
  9
$LUNITS
 70
     2
  9
$LUPREC
 70
     3
  9
$SKETCHINC
 40
1.0
  9
$FILLETRAD
 40
10.0
  9
$AUNITS
 70
     0
  9
$AUPREC
 70
     2
  9
$MENU
  1
.
  9
$ELEVATION
 40
0.0
  9
$PELEVATION
 40
0.0
  9
$THICKNESS
 40
0.0
  9
$LIMCHECK
 70
     0
  9
$BLIPMODE
 70
     0
  9
$CHAMFERA
 40
0.0
  9
$CHAMFERB
 40
0.0
  9
$CHAMFERC
 40
20.0
  9
$CHAMFERD
 40
0.0
  9
$SKPOLY
 70
     0
  9
$TDCREATE
 40
2454411.594523646
  9
$TDUPDATE
 40
2454424.579878102
  9
$TDINDWG
 40
0.0453859259
  9
$TDUSRTIMER
 40
0.0453859259
  9
$USRTIMER
 70
     1
  9
$ANGBASE
 50
0.0
  9
$ANGDIR
 70
     0
  9
$PDMODE
 70
     0
  9
$PDSIZE
 40
-10.0
  9
$PLINEWID
 40
0.0
  9
$COORDS
 70
     0
  9
$SPLFRAME
 70
     0
  9
$SPLINETYPE
 70
     6
  9
$SPLINESEGS
 70
     8
  9
$ATTDIA
 70
     0
  9
$ATTREQ
 70
     1
  9
$HANDLING
 70
-16383
  9
$HANDSEED
  5
3829
  9
$SURFTAB1
 70
     6
  9
$SURFTAB2
 70
     6
  9
$SURFTYPE
 70
     6
  9
$SURFU
 70
     6
  9
$SURFV
 70
     6
  9
$UCSNAME
  2

  9
$UCSORG
 10
0.0
 20
0.0
 30
0.0
  9
$UCSXDIR
 10
1.0
 20
0.0
 30
0.0
  9
$UCSYDIR
 10
0.0
 20
1.0
 30
0.0
  9
$PUCSNAME
  2

  9
$PUCSORG
 10
0.0
 20
0.0
 30
0.0
  9
$PUCSXDIR
 10
1.0
 20
0.0
 30
0.0
  9
$PUCSYDIR
 10
0.0
 20
1.0
 30
0.0
  9
$USERI1
 70
     0
  9
$USERI2
 70
     0
  9
$USERI3
 70
     0
  9
$USERI4
 70
     0
  9
$USERI5
 70
     0
  9
$USERR1
 40
0.0
  9
$USERR2
 40
0.0
  9
$USERR3
 40
0.0
  9
$USERR4
 40
0.0
  9
$USERR5
 40
0.0
  9
$WORLDVIEW
 70
     1
  9
$SHADEDGE
 70
     3
  9
$SHADEDIF
 70
    70
  9
$TILEMODE
 70
     1
  9
$MAXACTVP
 70
    48
  9
$PINSBASE
 10
0.0
 20
0.0
 30
0.0
  9
$PLIMCHECK
 70
     0
  9
$PEXTMIN
 10
0.0
 20
0.0
 30
0.0
  9
$PEXTMAX
 10
0.0
 20
0.0
 30
0.0
  9
$PLIMMIN
 10
0.0
 20
0.0
  9
$PLIMMAX
 10
12.0
 20
9.0
  9
$UNITMODE
 70
     0
  9
$VISRETAIN
 70
     1
  9
$PLINEGEN
 70
     0
  9
$PSLTSCALE
 70
     1
  9
$TREEDEPTH
 70
  3020
  9
$PICKSTYLE
 70
     1
  9
$CMLSTYLE
  2
STANDARD
  9
$CMLJUST
 70
     0
  9
$CMLSCALE
 40
1.0
  9
$PROXYGRAPHICS
 70
     1
  9
$MEASUREMENT
 70
     0
  0
ENDSEC
  0
SECTION
  2
CLASSES
  0
CLASS
  1
DICTIONARYVAR
  2
AcDbDictionaryVar
  3
AutoCAD 2000
 90
        0
280
     0
281
     0
  0
CLASS
  1
ACDBDICTIONARYWDFLT
  2
AcDbDictionaryWithDefault
  3
AutoCAD 2000
 90
        0
280
     0
281
     0
  0
CLASS
  1
ACDBPLACEHOLDER
  2
AcDbPlaceHolder
  3
AutoCAD 2000
 90
        0
280
     0
281
     0
  0
CLASS
  1
LAYOUT
  2
AcDbLayout
  3
AutoCAD 2000
 90
        0
280
     0
281
     0
  0
CLASS
  1
MATERIAL
  2
AcDbMaterial
  3
ObjectDBX Classes
 90
     1153
280
     0
281
     0
  0
CLASS
  1
VISUALSTYLE
  2
AcDbVisualStyle
  3
ObjectDBX Classes
 90
     4095
280
     0
281
     0
  0
CLASS
  1
TABLESTYLE
  2
AcDbTableStyle
  3
ObjectDBX Classes
 90
     4095
280
     0
281
     0
  0
CLASS
  1
SCALE
  2
AcDbScale
  3
ObjectDBX Classes
 90
     1153
280
     0
281
     0
  0
CLASS
  1
MLEADERSTYLE
  2
AcDbMLeaderStyle
  3
ACDB_MLEADERSTYLE_CLASS
 90
     4095
280
     0
281
     0
  0
CLASS
  1
CELLSTYLEMAP
  2
AcDbCellStyleMap
  3
ObjectDBX Classes
 90
     1152
280
     0
281
     0
  0
CLASS
  1
ACAD_PROXY_OBJECT_WRAPPER
  2
AcDbProxyObjectWrapper
  3
AutoCAD 2000
 90
        0
280
     0
281
     0
  0
CLASS
  1
LONG_TRANSACTION
  2
AcDbLongTransaction
  3
AutoCAD 2000
 90
        0
280
     0
281
     0
  0
CLASS
  1
LWPOLYLINE
  2
AcDbPolyline
  3
AutoCAD 2000
 90
        0
280
     0
281
     1
  0
CLASS
  1
HATCH
  2
AcDbHatch
  3
AutoCAD 2000
 90
        0
280
     0
281
     1
  0
CLASS
  1
XRECORD
  2
AcDbXrecord
  3
AutoCAD 2000
 90
        0
280
     0
281
     0
  0
ENDSEC
  0
SECTION
  2
TABLES
  0
TABLE
  2
VPORT
  5
6E
102
{ACAD_XDICTIONARY
360
1E20
102
}
330
0
100
AcDbSymbolTable
 70
     2
  0
VPORT
  5
3803
330
6E
100
AcDbSymbolTableRecord
100
AcDbViewportTableRecord
  2
*ACTIVE
 70
     0
 10
0.0
 20
0.0
 11
1.0
 21
1.0
 12
593.6921210019725
 22
233.6577845078765
 13
0.0
 23
0.0
 14
10.0
 24
10.0
 15
10.0
 25
10.0
 16
0.0
 26
0.0
 36
1.0
 17
0.0
 27
0.0
 37
0.0
 40
634.7587544308007
 41
1.753504672897196
 42
50.0
 43
0.0
 44
0.0
 50
0.0
 51
0.0
 71
     0
 72
   100
 73
     1
 74
     3
 75
     0
 76
     0
 77
     0
 78
     0
  0
ENDTAB
  0
TABLE
  2
LTYPE
  5
69
330
0
100
AcDbSymbolTable
 70
     5
  0
LTYPE
  5
6A
330
69
100
AcDbSymbolTableRecord
100
AcDbLinetypeTableRecord
  2
BYBLOCK
 70
     0
  3

 72
    65
 73
     0
 40
0.0
  0
LTYPE
  5
6B
330
69
100
AcDbSymbolTableRecord
100
AcDbLinetypeTableRecord
  2
BYLAYER
 70
     0
  3

 72
    65
 73
     0
 40
0.0
  0
LTYPE
  5
8
330
69
100
AcDbSymbolTableRecord
100
AcDbLinetypeTableRecord
  2
CONTINUOUS
 70
     0
  3
Solid line
 72
    65
 73
     0
 40
0.0
  0
LTYPE
  5
27C
330
69
100
AcDbSymbolTableRecord
100
AcDbLinetypeTableRecord
  2
SEKKEI_A2_
 70
     0
  3
center(A2)  ____ _ ____ _ ____ _ ____ _ ____ _ 
 72
    65
 73
     4
 40
14.28749999999999
 49
9.525
 74
     0
 49
-1.587499999999999
 74
     0
 49
1.587499999999999
 74
     0
 49
-1.587499999999999
 74
     0
  0
LTYPE
  5
7F0
330
69
100
AcDbSymbolTableRecord
100
AcDbLinetypeTableRecord
  2
HIDDEN3
 70
     0
  3
Hidden (.3x) _ _ _ _ _ _ _ _ _ _ _ _ _ _ _ _ _
 72
    65
 73
     2
 40
2.857499999999999
 49
1.905
 74
     0
 49
-0.9525
 74
     0
  0
LTYPE
  5
AF5
330
69
100
AcDbSymbolTableRecord
100
AcDbLinetypeTableRecord
  2
CENS
 70
     0
  3
(一点鎖線１)---- - ---- - ---- - ---- - ---- - 
 72
    65
 73
     4
 40
7.0
 49
4.0
 74
     0
 49
-1.0
 74
     0
 49
1.0
 74
     0
 49
-1.0
 74
     0
  0
ENDTAB
  0
TABLE
  2
LAYER
  5
66
102
{ACAD_XDICTIONARY
360
AF6
102
}
330
0
100
AcDbSymbolTable
 70
     9
  0
LAYER
  5
5E
102
{ACAD_XDICTIONARY
360
1D8E
102
}
330
66
100
AcDbSymbolTableRecord
100
AcDbLayerTableRecord
  2
0
 70
     0
 62
     7
  6
CONTINUOUS
  0
LAYER
  5
3E
102
{ACAD_XDICTIONARY
360
1D90
102
}
330
66
100
AcDbSymbolTableRecord
100
AcDbLayerTableRecord
  2
CENTER
 70
     0
 62
     3
  6
SEKKEI_A2_
  0
LAYER
  5
2B5
102
{ACAD_XDICTIONARY
360
1D96
102
}
330
66
100
AcDbSymbolTableRecord
100
AcDbLayerTableRecord
  2
HIDS
 70
     0
 62
     1
  6
HIDDEN3
  0
LAYER
  5
2BA
102
{ACAD_XDICTIONARY
360
1D98
102
}
330
66
100
AcDbSymbolTableRecord
100
AcDbLayerTableRecord
  2
HOJO
 70
     0
 62
     4
  6
CONTINUOUS
  0
LAYER
  5
3FA
102
{ACAD_XDICTIONARY
360
1D9C
102
}
330
66
100
AcDbSymbolTableRecord
100
AcDbLayerTableRecord
  2
TITLE
 70
     0
 62
     4
  6
CONTINUOUS
  0
ENDTAB
  0
TABLE
  2
STYLE
  5
67
330
0
100
AcDbSymbolTable
 70
     2
  0
STYLE
  5
16
330
67
100
AcDbSymbolTableRecord
100
AcDbTextStyleTableRecord
  2
STANDARD
 70
     0
 40
0.0
 41
1.0
 50
0.0
 71
     0
 42
2.0
  3
simplex.shx
  4
extfont.shx
  0
ENDTAB
  0
TABLE
  2
VIEW
  5
6C
330
0
100
AcDbSymbolTable
 70
     0
  0
ENDTAB
  0
TABLE
  2
UCS
  5
6D
330
0
100
AcDbSymbolTable
 70
     0
  0
ENDTAB
  0
TABLE
  2
APPID
  5
70
330
0
100
AcDbSymbolTable
 70
     3
  0
APPID
  5
71
330
70
100
AcDbSymbolTableRecord
100
AcDbRegAppTableRecord
  2
ACAD
 70
     0
  0
APPID
  5
1BBC
330
70
100
AcDbSymbolTableRecord
100
AcDbRegAppTableRecord
  2
ACAD_MLEADERVER
 70
     0
  0
APPID
  5
1E45
330
70
100
AcDbSymbolTableRecord
100
AcDbRegAppTableRecord
  2
ACAD_DSTYLE_DIMRADIAL_EXTENSION
 70
     0
  0
ENDTAB
  0
TABLE
  2
DIMSTYLE
  5
72
330
0
100
AcDbSymbolTable
 70
     1
  0
DIMSTYLE
105
73
330
72
100
AcDbSymbolTableRecord
100
AcDbDimStyleTableRecord
  2
STANDARD
 70
     0
  3

  4

  5

  6

  7

 40
3.0
 41
1.8
 42
0.625
 43
3.75
 44
0.8
 45
0.0
 46
0.0
 47
0.0
 48
0.0
140
1.8
141
2.5
142
0.0
143
0.0394
144
1.0
145
0.0
146
1.0
147
0.75
 71
     0
 72
     0
 73
     0
 74
     0
 75
     0
 76
     0
 77
     1
 78
     8
170
     0
171
     4
172
     1
173
     0
174
     0
175
     0
176
     0
177
     0
178
     0
270
     8
271
     2
272
     2
273
     8
274
     4
340
16
275
     0
280
     0
281
     0
282
     0
283
     1
284
     0
285
     0
286
     0
287
     3
288
     0
  0
ENDTAB
  0
TABLE
  2
BLOCK_RECORD
  5
1
330
0
100
AcDbSymbolTable
 70
    47
  0
BLOCK_RECORD
  5
2
102
{ACAD_XDICTIONARY
360
3825
102
}
330
1
100
AcDbSymbolTableRecord
100
AcDbBlockTableRecord
  2
*MODEL_SPACE
  0
BLOCK_RECORD
  5
37FE
102
{ACAD_XDICTIONARY
360
3827
102
}
330
1
100
AcDbSymbolTableRecord
100
AcDbBlockTableRecord
  2
*PAPER_SPACE
  0
ENDTAB
  0
ENDSEC
  0
SECTION
  2
BLOCKS
  0
BLOCK
  5
5D
330
2
100
AcDbEntity
  8
0
100
AcDbBlockBegin
  2
*MODEL_SPACE
 70
     0
 10
0.0
 20
0.0
 30
0.0
  3
*MODEL_SPACE
  1

  0
ENDBLK
  5
5F
330
2
100
AcDbEntity
  8
0
100
AcDbBlockEnd
  0
BLOCK
  5
3800
330
37FE
100
AcDbEntity
 67
     1
  8
0
100
AcDbBlockBegin
  2
*PAPER_SPACE
 70
     0
 10
0.0
 20
0.0
 30
0.0
  3
*PAPER_SPACE
  1

  0
ENDBLK
  5
3801
330
37FE
100
AcDbEntity
 67
     1
  8
0
100
AcDbBlockEnd
  0
ENDSEC
  0
SECTION
  2
ENTITIES
  0
LINE
  5
FDB
330
2
100
AcDbEntity
  8
CENTER
100
AcDbLine
 10
958.6165162262529
 20
160.2033844998193
 30
0.0
 11
958.6165162262526
 21
58.63681899910699
 31
0.0
  0
LINE
  5
FDC
330
2
100
AcDbEntity
  8
0
100
AcDbLine
 10
920.6165162262539
 20
144.4215561945882
 30
0.0
 11
920.6165162262539
 21
74.42155619458827
 31
0.0
  0
LINE
  5
FDD
330
2
100
AcDbEntity
  8
0
100
AcDbLine
 10
925.6165162262535
 20
149.9153978627244
 30
0.0
 11
925.6165162262538
 21
68.92480563620194
 31
0.0
  0
LINE
  5
FDE
330
2
100
AcDbEntity
  8
0
100
AcDbLine
 10
925.6165162262529
 20
74.42155619458827
 30
0.0
 11
920.616516226253
 21
74.42155619458827
 31
0.0
  0
LINE
  5
FDF
330
2
100
AcDbEntity
  8
CENTER
100
AcDbLine
 10
245.6400970386634
 20
109.4215561945882
 30
0.0
 11
39.64009703866327
 21
109.4215561945882
 31
0.0
  0
LINE
  5
FE2
330
2
100
AcDbEntity
  8
CENTER
100
AcDbLine
 10
554.4848237678413
 20
109.4215561945882
 30
0.0
 11
768.4848237678391
 21
109.4215561945882
 31
0.0
  0
LINE
  5
FE3
330
2
100
AcDbEntity
  8
CENTER
100
AcDbLine
 10
562.7029954626107
 20
376.0537322187845
 30
0.0
 11
768.4848237678391
 21
376.0537322187842
 31
0.0
  0
LINE
  5
FEC
330
2
100
AcDbEntity
  8
0
100
AcDbLine
 10
925.6165162262529
 20
144.4215561945882
 30
0.0
 11
920.616516226253
 21
144.4215561945882
 31
0.0
  0
LINE
  5
FED
330
2
100
AcDbEntity
  8
0
100
AcDbLine
 10
983.6165162262538
 20
150.4215561945882
 30
0.0
 11
983.6165162262538
 21
140.5183303881374
 31
0.0
  0
LINE
  5
FEE
330
2
100
AcDbEntity
  8
0
100
AcDbLine
 10
983.6165162262538
 20
150.4215561945882
 30
0.0
 11
925.6165162262535
 21
149.9153978627244
 31
0.0
  0
LINE
  5
FEF
330
2
100
AcDbEntity
  8
0
100
AcDbLine
 10
983.6165162262538
 20
68.41864730433809
 30
0.0
 11
925.6165162262538
 21
68.92480563620194
 31
0.0
  0
LINE
  5
FF0
330
2
100
AcDbEntity
  8
0
100
AcDbLine
 10
983.6165162262538
 20
78.32478200104088
 30
0.0
 11
983.6165162262538
 21
68.41864730433809
 31
0.0
  0
LINE
  5
100B
330
2
100
AcDbEntity
  8
0
100
AcDbLine
 10
720.4848237678386
 20
140.9215561945882
 30
0.0
 11
720.4848237678386
 21
77.92155619458828
 31
0.0
  0
LINE
  5
1017
330
2
100
AcDbEntity
  8
0
100
AcDbLine
 10
720.4848237648154
 20
407.0537322187845
 30
0.0
 11
720.4848237648154
 21
345.0537322187826
 31
0.0
  0
LINE
  5
1018
330
2
100
AcDbEntity
  8
0
100
AcDbLine
 10
720.4848237648154
 20
407.0537322187845
 30
0.0
 11
720.4848237648154
 21
345.0537322187845
 31
0.0
  0
LINE
  5
1021
330
2
100
AcDbEntity
  8
0
100
AcDbLine
 10
87.64009703866349
 20
78.42155619458828
 30
0.0
 11
87.64009703866349
 21
140.4215561945882
 31
0.0
  0
LINE
  5
1022
330
2
100
AcDbEntity
  8
0
100
AcDbLine
 10
87.64009703866395
 20
77.92155619458828
 30
0.0
 11
87.64009703866349
 21
140.9215561945882
 31
0.0
  0
LINE
  5
103A
330
2
100
AcDbEntity
  8
0
100
AcDbLine
 10
983.6165162262538
 20
150.4215561945882
 30
0.0
 11
983.6165162262538
 21
140.5183303881374
 31
0.0
  0
LINE
  5
103B
330
2
100
AcDbEntity
  8
0
100
AcDbLine
 10
983.6165162262538
 20
78.32478200104088
 30
0.0
 11
983.6165162262538
 21
68.41864730433809
 31
0.0
  0
ARC
  5
103E
330
2
100
AcDbEntity
  8
0
100
AcDbCircle
 10
918.6165162262538
 20
79.03620864158148
 30
0.0
 40
2.0
100
AcDbArc
 50
0.0
 51
87.99999999999636
  0
ARC
  5
103F
330
2
100
AcDbEntity
  8
0
100
AcDbCircle
 10
909.6165162262535
 20
83.35293374420217
 30
0.0
 40
2.0
100
AcDbArc
 50
180.0
 51
267.9999999999963
  0
ARC
  5
1040
330
2
100
AcDbEntity
  8
0
100
AcDbCircle
 10
918.6165162262538
 20
139.8069037475932
 30
0.0
 40
2.0
100
AcDbArc
 50
272.0000000000036
 51
0.0
  0
ARC
  5
1041
330
2
100
AcDbEntity
  8
0
100
AcDbCircle
 10
909.6165162262529
 20
135.4901786449725
 30
0.0
 40
2.0
100
AcDbArc
 50
92.00000000000365
 51
180.0
  0
LINE
  5
1042
330
2
100
AcDbEntity
  8
0
100
AcDbLine
 10
909.5467172328483
 20
81.35415209016429
 30
0.0
 11
918.686315219659
 21
81.03499029561936
 31
0.0
  0
LINE
  5
1043
330
2
100
AcDbEntity
  8
0
100
AcDbLine
 10
909.5467172328479
 20
137.4889602990104
 30
0.0
 11
918.686315219659
 21
137.8081220935553
 31
0.0
  0
LINE
  5
1044
330
2
100
AcDbEntity
  8
0
100
AcDbLine
 10
907.6165162262524
 20
135.4901786449725
 30
0.0
 11
907.6165162262538
 21
83.35293374420217
 31
0.0
  0
LINE
  5
10A2
330
2
100
AcDbEntity
  8
0
100
AcDbLine
 10
983.6165162262538
 20
77.4259196284791
 30
0.0
 11
929.5990631552566
 21
77.89732279982565
 31
0.0
  0
LINE
  5
10A3
330
2
100
AcDbEntity
  8
0
100
AcDbLine
 10
983.6165162262538
 20
141.4171927606956
 30
0.0
 11
929.5990631552566
 21
140.9457895893527
 31
0.0
  0
LINE
  5
10A4
330
2
100
AcDbEntity
  8
0
100
AcDbLine
 10
958.6165162262529
 20
77.92155619458828
 30
0.0
 11
930.5681354220981
 21
78.37394943336659
 31
0.0
  0
LINE
  5
10A5
330
2
100
AcDbEntity
  8
0
100
AcDbLine
 10
958.6165162262529
 20
140.9215561945882
 30
0.0
 11
986.6648970304074
 21
140.4691629558117
 31
0.0
  0
LINE
  5
10A6
330
2
100
AcDbEntity
  8
0
100
AcDbLine
 10
930.5681354220984
 20
140.4691629558117
 30
0.0
 11
958.6165162262529
 21
140.9215561945882
 31
0.0
  0
LINE
  5
10A7
330
2
100
AcDbEntity
  8
0
100
AcDbLine
 10
986.6648970304074
 20
78.37394943336659
 30
0.0
 11
958.6165162262529
 21
77.92155619458828
 31
0.0
  0
LINE
  5
10A8
330
2
100
AcDbEntity
  8
0
100
AcDbLine
 10
927.6165162262529
 20
138.9458657432249
 30
0.0
 11
927.6165162262529
 21
79.89724664595343
 31
0.0
  0
ARC
  5
10A9
330
2
100
AcDbEntity
  8
0
100
AcDbCircle
 10
986.6165162262531
 20
137.469553098216
 30
0.0
 40
3.0
100
AcDbArc
 50
0.0
 51
89.07595464723311
  0
ARC
  5
10AA
330
2
100
AcDbEntity
  8
0
100
AcDbCircle
 10
986.6165162262531
 20
81.3735592909623
 30
0.0
 40
3.0
100
AcDbArc
 50
270.9240453527669
 51
0.0
  0
ARC
  5
10AB
330
2
100
AcDbEntity
  8
0
100
AcDbCircle
 10
930.616516226253
 20
81.3735592909623
 30
0.0
 40
3.0
100
AcDbArc
 50
180.0
 51
269.075954647207
  0
ARC
  5
10AC
330
2
100
AcDbEntity
  8
0
100
AcDbCircle
 10
930.616516226253
 20
137.469553098216
 30
0.0
 40
3.0
100
AcDbArc
 50
90.9240453527669
 51
180.0
  0
ARC
  5
10AD
330
2
100
AcDbEntity
  8
0
100
AcDbCircle
 10
929.616516226253
 20
138.9458657432249
 30
0.0
 40
2.0
100
AcDbArc
 50
90.49999999999155
 51
180.0
  0
ARC
  5
10AE
330
2
100
AcDbEntity
  8
0
100
AcDbCircle
 10
929.616516226253
 20
79.89724664595343
 30
0.0
 40
2.0
100
AcDbArc
 50
180.0
 51
269.5000000000084
  0
LINE
  5
10AF
330
2
100
AcDbEntity
  8
0
100
AcDbLine
 10
989.616516226253
 20
137.469553098216
 30
0.0
 11
989.616516226253
 21
81.3735592909623
 31
0.0
  0
LINE
  5
10E4
330
2
100
AcDbEntity
  8
0
100
AcDbLine
 10
926.6165162262529
 20
73.42155619458828
 30
0.0
 11
983.6165162262538
 21
73.42155619458828
 31
0.0
  0
LINE
  5
10E5
330
2
100
AcDbEntity
  8
0
100
AcDbLine
 10
926.6165162262534
 20
145.4215561945882
 30
0.0
 11
983.6165162262538
 21
145.4215561945882
 31
0.0
  0
LINE
  5
1188
330
2
100
AcDbEntity
  8
0
100
AcDbLine
 10
1000.916516226253
 20
82.92155619458828
 30
0.0
 11
998.6165162262553
 21
82.92155619458828
 31
0.0
  0
LINE
  5
1189
330
2
100
AcDbEntity
  8
0
100
AcDbLine
 10
1004.616516226253
 20
82.92155619458645
 30
0.0
 11
1005.616516226253
 21
83.49890646377644
 31
0.0
  0
LINE
  5
118A
330
2
100
AcDbEntity
  8
0
100
AcDbLine
 10
1002.916516226253
 20
83.62155619458718
 30
0.0
 11
1001.316516226253
 21
83.62155619458718
 31
0.0
  0
LINE
  5
118B
330
2
100
AcDbEntity
  8
0
100
AcDbLine
 10
1001.116516226253
 20
83.12155619458719
 30
0.0
 11
1000.916516226253
 21
82.92155619458828
 31
0.0
  0
LINE
  5
118C
330
2
100
AcDbEntity
  8
0
100
AcDbLine
 10
1003.116516226252
 20
83.12155619458719
 30
0.0
 11
1003.116516226252
 21
135.7215561945875
 31
0.0
  0
LINE
  5
118D
330
2
100
AcDbEntity
  8
0
100
AcDbLine
 10
1004.616516226253
 20
82.92155619458645
 30
0.0
 11
1003.316516226253
 21
82.92155619458828
 31
0.0
  0
LINE
  5
118E
330
2
100
AcDbEntity
  8
0
100
AcDbLine
 10
1000.916516226254
 20
135.9215561945882
 30
0.0
 11
998.6165162262553
 21
135.9215561945882
 31
0.0
  0
LINE
  5
118F
330
2
100
AcDbEntity
  8
0
100
AcDbLine
 10
997.6165162262548
 20
129.92155619459
 30
0.0
 11
997.6165162262548
 21
88.92155619458646
 31
0.0
  0
LINE
  5
1190
330
2
100
AcDbEntity
  8
0
100
AcDbLine
 10
996.1165162262584
 20
69.5219532525669
 30
0.0
 11
996.1165162262584
 21
78.92155619458645
 31
0.0
  0
LINE
  5
1191
330
2
100
AcDbEntity
  8
0
100
AcDbLine
 10
996.1165162262584
 20
88.92155619458646
 30
0.0
 11
996.1165162262584
 21
129.92155619459
 31
0.0
  0
LINE
  5
1192
330
2
100
AcDbEntity
  8
0
100
AcDbLine
 10
996.1165162262579
 20
139.9215561945901
 30
0.0
 11
996.1165162262579
 21
149.3211591366078
 31
0.0
  0
ARC
  5
1193
330
2
100
AcDbEntity
  8
0
100
AcDbCircle
 10
995.1165162262585
 20
69.5219532525669
 30
0.0
 40
1.0
100
AcDbArc
 50
270.5000000000175
 51
0.0
  0
LINE
  5
1194
330
2
100
AcDbEntity
  8
0
100
AcDbLine
 10
997.1165162262602
 20
88.92155619458646
 30
0.0
 11
997.1165162262602
 21
129.92155619459
 31
0.0
  0
LINE
  5
1195
330
2
100
AcDbEntity
  8
0
100
AcDbLine
 10
1005.616516226257
 20
83.49890646377827
 30
0.0
 11
1005.616516226258
 21
135.3442059253964
 31
0.0
  0
LINE
  5
1196
330
2
100
AcDbEntity
  8
0
100
AcDbLine
 10
1004.616516226255
 20
135.9215561945882
 30
0.0
 11
1003.316516226255
 21
135.9215561945882
 31
0.0
  0
LINE
  5
1197
330
2
100
AcDbEntity
  8
0
100
AcDbLine
 10
1001.116516226254
 20
135.7215561945875
 30
0.0
 11
1000.916516226254
 21
135.9215561945882
 31
0.0
  0
LINE
  5
1198
330
2
100
AcDbEntity
  8
0
100
AcDbLine
 10
1001.116516226254
 20
135.7215561945875
 30
0.0
 11
1001.116516226294
 21
83.12155619462902
 31
0.0
  0
LINE
  5
1199
330
2
100
AcDbEntity
  8
0
100
AcDbLine
 10
1002.916516226255
 20
135.2215561945893
 30
0.0
 11
1001.316516226255
 21
135.2215561945875
 31
0.0
  0
LINE
  5
119A
330
2
100
AcDbEntity
  8
0
100
AcDbLine
 10
1004.616516226254
 20
135.9215561945882
 30
0.0
 11
1005.616516226255
 21
135.3442059253982
 31
0.0
  0
LINE
  5
119B
330
2
100
AcDbEntity
  8
0
100
AcDbLine
 10
983.6165162262561
 20
150.4215561945882
 30
0.0
 11
983.6165162262558
 21
140.5183303881374
 31
0.0
  0
LINE
  5
119C
330
2
100
AcDbEntity
  8
0
100
AcDbLine
 10
983.6165162262521
 20
78.32478200104088
 30
0.0
 11
983.6165162262512
 21
68.42155619458828
 31
0.0
  0
LINE
  5
119D
330
2
100
AcDbEntity
  8
0
100
AcDbLine
 10
991.1165162262557
 20
140.3647934755652
 30
0.0
 11
991.1165162262548
 21
128.4433924032589
 31
0.0
  0
LINE
  5
119E
330
2
100
AcDbEntity
  8
0
100
AcDbLine
 10
994.1165162262556
 20
140.3386128721929
 30
0.0
 11
994.1165162262556
 21
139.9215561945901
 31
0.0
  0
LINE
  5
119F
330
2
100
AcDbEntity
  8
0
100
AcDbLine
 10
994.1165162262553
 20
129.92155619459
 30
0.0
 11
994.1165162262525
 21
88.92155619458646
 31
0.0
  0
LINE
  5
11A0
330
2
100
AcDbEntity
  8
0
100
AcDbLine
 10
994.1165162262521
 20
78.92155619458645
 30
0.0
 11
994.1165162262521
 21
78.50449951698357
 31
0.0
  0
ARC
  5
11A1
330
2
100
AcDbEntity
  8
0
100
AcDbCircle
 10
993.1165162262521
 20
78.50449951698357
 30
0.0
 40
1.0
100
AcDbArc
 50
270.4999999999915
 51
0.0
  0
LINE
  5
11A2
330
2
100
AcDbEntity
  8
0
100
AcDbLine
 10
983.6165162262512
 20
68.42155619458828
 30
0.0
 11
995.1252427617566
 21
68.52199132950301
 31
0.0
  0
ARC
  5
11A3
330
2
100
AcDbEntity
  8
0
100
AcDbCircle
 10
1003.316516226255
 20
135.7215561945875
 30
0.0
 40
0.2
100
AcDbArc
 50
90.0
 51
180.0
  0
ARC
  5
11A4
330
2
100
AcDbEntity
  8
0
100
AcDbCircle
 10
1002.916516226255
 20
135.4215561945882
 30
0.0
 40
0.2
100
AcDbArc
 50
270.0
 51
0.0
  0
ARC
  5
11A5
330
2
100
AcDbEntity
  8
0
100
AcDbCircle
 10
1001.316516226255
 20
135.4215561945882
 30
0.0
 40
0.2
100
AcDbArc
 50
180.0
 51
270.0
  0
ARC
  5
11A6
330
2
100
AcDbEntity
  8
0
100
AcDbCircle
 10
1003.316516226253
 20
83.12155619458719
 30
0.0
 40
0.2
100
AcDbArc
 50
180.0
 51
269.9999999999739
  0
ARC
  5
11A7
330
2
100
AcDbEntity
  8
0
100
AcDbCircle
 10
1002.916516226253
 20
83.42155619458646
 30
0.0
 40
0.2
100
AcDbArc
 50
0.0
 51
89.99999999997395
  0
ARC
  5
11A8
330
2
100
AcDbEntity
  8
0
100
AcDbCircle
 10
1001.316516226253
 20
83.42155619458827
 30
0.0
 40
0.2
100
AcDbArc
 50
89.99999999997395
 51
180.0
  0
LINE
  5
11A9
330
2
100
AcDbEntity
  8
0
100
AcDbLine
 10
1004.616516226253
 20
82.92155619458645
 30
0.0
 11
1004.616516226255
 21
135.9215561945882
 31
0.0
  0
LINE
  5
11AA
330
2
100
AcDbEntity
  8
0
100
AcDbLine
 10
1000.916516226254
 20
135.9215561945882
 30
0.0
 11
1000.916516226253
 21
82.92155619458828
 31
0.0
  0
ARC
  5
11AB
330
2
100
AcDbEntity
  8
0
100
AcDbCircle
 10
995.1165162262585
 20
149.3211591366078
 30
0.0
 40
1.0
100
AcDbArc
 50
0.0
 51
89.49999999998238
  0
LINE
  5
11AC
330
2
100
AcDbEntity
  8
0
100
AcDbLine
 10
983.6165162262561
 20
150.4215561945882
 30
0.0
 11
995.1252427617566
 21
150.3211210596717
 31
0.0
  0
LINE
  5
11AD
330
2
100
AcDbEntity
  8
0
100
AcDbLine
 10
983.6165162262558
 20
141.42155619459
 30
0.0
 11
993.125242761754
 21
141.3385747952568
 31
0.0
  0
ARC
  5
11AE
330
2
100
AcDbEntity
  8
0
100
AcDbCircle
 10
990.1165162262557
 20
140.3647934755652
 30
0.0
 40
1.0
100
AcDbArc
 50
0.0
 51
89.50000000000846
  0
ARC
  5
11AF
330
2
100
AcDbEntity
  8
0
100
AcDbCircle
 10
993.1165162262557
 20
140.3386128721929
 30
0.0
 40
1.0
100
AcDbArc
 50
0.0
 51
89.50000000000846
  0
LINE
  5
11B0
330
2
100
AcDbEntity
  8
0
100
AcDbLine
 10
983.6165162262558
 20
77.42155619458646
 30
0.0
 11
993.1252427617502
 21
77.50453759391968
 31
0.0
  0
LINE
  5
11B1
330
2
100
AcDbEntity
  8
0
100
AcDbLine
 10
991.6121529585058
 20
127.9434114417279
 30
0.0
 11
993.1252427617534
 21
127.9302069070588
 31
0.0
  0
ARC
  5
11B2
330
2
100
AcDbEntity
  8
0
100
AcDbCircle
 10
991.6165162262547
 20
128.4433924032589
 30
0.0
 40
0.5
100
AcDbArc
 50
180.0
 51
269.4999999999824
  0
ARC
  5
11B3
330
2
100
AcDbEntity
  8
0
100
AcDbCircle
 10
993.1165162262548
 20
126.930244983995
 30
0.0
 40
1.0
100
AcDbArc
 50
0.0
 51
89.50000000000846
  0
LINE
  5
11B4
330
2
100
AcDbEntity
  8
0
100
AcDbLine
 10
991.1165162262557
 20
78.4783189136113
 30
0.0
 11
991.1165162262548
 21
90.39971998591573
 31
0.0
  0
ARC
  5
11B5
330
2
100
AcDbEntity
  8
0
100
AcDbCircle
 10
990.1165162262557
 20
78.4783189136113
 30
0.0
 40
1.0
100
AcDbArc
 50
270.4999999999915
 51
0.0
  0
LINE
  5
11B6
330
2
100
AcDbEntity
  8
0
100
AcDbLine
 10
991.6121529585058
 20
90.8997009474486
 30
0.0
 11
993.1252427617534
 21
90.91290548211764
 31
0.0
  0
ARC
  5
11B7
330
2
100
AcDbEntity
  8
0
100
AcDbCircle
 10
991.6165162262547
 20
90.39971998591573
 30
0.0
 40
0.5
100
AcDbArc
 50
90.50000000001761
 51
180.0
  0
ARC
  5
11B8
330
2
100
AcDbEntity
  8
0
100
AcDbCircle
 10
993.1165162262548
 20
91.91286740518155
 30
0.0
 40
1.0
100
AcDbArc
 50
270.4999999999915
 51
0.0
  0
LINE
  5
11B9
330
2
100
AcDbEntity
  8
0
100
AcDbLine
 10
998.2165162262552
 20
129.92155619459
 30
0.0
 11
998.6165162262553
 21
130.6143765176173
 31
0.0
  0
LINE
  5
11BA
330
2
100
AcDbEntity
  8
0
100
AcDbLine
 10
992.6165162262552
 20
129.92155619459
 30
0.0
 11
992.6165162262552
 21
139.9215561945901
 31
0.0
  0
LINE
  5
11BB
330
2
100
AcDbEntity
  8
0
100
AcDbLine
 10
998.2165162262552
 20
129.92155619459
 30
0.0
 11
998.2165162262552
 21
139.9215561945901
 31
0.0
  0
LINE
  5
11BC
330
2
100
AcDbEntity
  8
0
100
AcDbLine
 10
991.1165162262552
 20
129.92155619459
 30
0.0
 11
998.2165162262552
 21
129.92155619459
 31
0.0
  0
LINE
  5
11BD
330
2
100
AcDbEntity
  8
0
100
AcDbLine
 10
991.1165162262552
 20
139.9215561945901
 30
0.0
 11
998.2165162262552
 21
139.9215561945901
 31
0.0
  0
LINE
  5
11BE
330
2
100
AcDbEntity
  8
0
100
AcDbLine
 10
998.2165162262552
 20
139.9215561945901
 30
0.0
 11
998.6165162262553
 21
139.2287358715628
 31
0.0
  0
LINE
  5
11BF
330
2
100
AcDbEntity
  8
0
100
AcDbLine
 10
998.6165162262553
 20
130.6143765176173
 30
0.0
 11
998.6165162262553
 21
139.2287358715628
 31
0.0
  0
LINE
  5
11C0
330
2
100
AcDbEntity
  8
0
100
AcDbLine
 10
991.1165162262552
 20
139.9215561945901
 30
0.0
 11
991.1165162262552
 21
129.92155619459
 31
0.0
  0
LINE
  5
11C1
330
2
100
AcDbEntity
  8
0
100
AcDbLine
 10
998.2165162262552
 20
88.92155619458646
 30
0.0
 11
998.6165162262553
 21
88.22873587155919
 31
0.0
  0
LINE
  5
11C2
330
2
100
AcDbEntity
  8
0
100
AcDbLine
 10
992.6165162262552
 20
88.92155619458646
 30
0.0
 11
992.6165162262552
 21
78.92155619458645
 31
0.0
  0
LINE
  5
11C3
330
2
100
AcDbEntity
  8
0
100
AcDbLine
 10
998.2165162262552
 20
88.92155619458646
 30
0.0
 11
998.2165162262552
 21
78.92155619458645
 31
0.0
  0
LINE
  5
11C4
330
2
100
AcDbEntity
  8
0
100
AcDbLine
 10
991.1165162262552
 20
88.92155619458646
 30
0.0
 11
998.2165162262552
 21
88.92155619458646
 31
0.0
  0
LINE
  5
11C5
330
2
100
AcDbEntity
  8
0
100
AcDbLine
 10
991.1165162262552
 20
78.92155619458645
 30
0.0
 11
998.2165162262552
 21
78.92155619458645
 31
0.0
  0
LINE
  5
11C6
330
2
100
AcDbEntity
  8
0
100
AcDbLine
 10
998.2165162262552
 20
78.92155619458645
 30
0.0
 11
998.6165162262553
 21
79.61437651761372
 31
0.0
  0
LINE
  5
11C7
330
2
100
AcDbEntity
  8
0
100
AcDbLine
 10
998.6165162262553
 20
88.22873587155919
 30
0.0
 11
998.6165162262553
 21
79.61437651761372
 31
0.0
  0
LINE
  5
11C8
330
2
100
AcDbEntity
  8
CENTER
  6
CENS
100
AcDbLine
 10
1001.616516226255
 20
134.92155619459
 30
0.0
 11
980.6165162262502
 21
134.92155619459
 31
0.0
  0
LINE
  5
11C9
330
2
100
AcDbEntity
  8
CENTER
  6
CENS
100
AcDbLine
 10
1001.616516226255
 20
83.92155619458646
 30
0.0
 11
980.6165162262498
 21
83.92155619458646
 31
0.0
  0
LINE
  5
1333
330
2
100
AcDbEntity
  8
CENTER
100
AcDbLine
 10
1015.616516226257
 20
109.4215561945883
 30
0.0
 11
865.6165162262553
 21
109.4215561945883
 31
0.0
  0
LINE
  5
133E
330
2
100
AcDbEntity
  8
0
100
AcDbLine
 10
998.5051913608524
 20
139.4215561945864
 30
0.0
 11
998.6165162262594
 21
139.6143765176164
 31
0.0
  0
LINE
  5
133F
330
2
100
AcDbEntity
  8
0
100
AcDbLine
 10
998.2165162262592
 20
138.9215561945891
 30
0.0
 11
998.2165162262592
 21
148.9215561945892
 31
0.0
  0
LINE
  5
1340
330
2
100
AcDbEntity
  8
0
100
AcDbLine
 10
996.1165162262579
 20
148.9215561945892
 30
0.0
 11
998.2165162262592
 21
148.9215561945892
 31
0.0
  0
LINE
  5
1341
330
2
100
AcDbEntity
  8
0
100
AcDbLine
 10
998.2165162262592
 20
148.9215561945892
 30
0.0
 11
998.6165162262594
 21
148.2287358715619
 31
0.0
  0
LINE
  5
1342
330
2
100
AcDbEntity
  8
0
100
AcDbLine
 10
998.6165162262594
 20
139.6143765176164
 30
0.0
 11
998.6165162262594
 21
148.2287358715619
 31
0.0
  0
LINE
  5
1343
330
2
100
AcDbEntity
  8
0
100
AcDbLine
 10
998.5051913608529
 20
79.42155619459192
 30
0.0
 11
998.6165162262594
 21
79.22873587156193
 31
0.0
  0
LINE
  5
1344
330
2
100
AcDbEntity
  8
0
100
AcDbLine
 10
998.2165162262592
 20
79.92155619458919
 30
0.0
 11
998.2165162262592
 21
69.92155619458919
 31
0.0
  0
LINE
  5
1345
330
2
100
AcDbEntity
  8
0
100
AcDbLine
 10
996.1165162262584
 20
69.92155619458919
 30
0.0
 11
998.2165162262592
 21
69.92155619458919
 31
0.0
  0
LINE
  5
1346
330
2
100
AcDbEntity
  8
0
100
AcDbLine
 10
998.2165162262592
 20
69.92155619458919
 30
0.0
 11
998.6165162262594
 21
70.61437651761645
 31
0.0
  0
LINE
  5
1347
330
2
100
AcDbEntity
  8
0
100
AcDbLine
 10
998.6165162262594
 20
79.22873587156193
 30
0.0
 11
998.6165162262594
 21
70.61437651761645
 31
0.0
  0
LINE
  5
1348
330
2
100
AcDbEntity
  8
CENTER
  6
CENS
100
AcDbLine
 10
1003.195184136355
 20
143.9215561945891
 30
0.0
 11
978.6323304599735
 21
143.9215561945891
 31
0.0
  0
LINE
  5
1349
330
2
100
AcDbEntity
  8
CENTER
  6
CENS
100
AcDbLine
 10
1003.195184136355
 20
74.92155619458919
 30
0.0
 11
978.6323304599738
 21
74.92155619458919
 31
0.0
  0
TEXT
  5
1360
330
2
100
AcDbEntity
  8
TITLE
100
AcDbText
 10
347.2751550338421
 20
377.4044316336013
 30
0.0
 40
7.5
  1
AFCZ18L-40~60M100S1
100
AcDbText
  0
TEXT
  5
1361
330
2
100
AcDbEntity
  8
TITLE
100
AcDbText
 10
347.2751550338421
 20
366.4044316336013
 30
0.0
 40
7.5
  1
AFCZ18L-40~60L100S1
100
AcDbText
  0
LINE
  5
1363
330
2
100
AcDbEntity
  8
0
100
AcDbLine
 10
753.5197285807132
 20
136.4558570586694
 30
0.0
 11
733.484823767839
 21
136.8055676230095
 31
0.0
  0
LINE
  5
1364
330
2
100
AcDbEntity
  8
0
100
AcDbLine
 10
755.4848237678381
 20
126.5867562104438
 30
0.0
 11
755.4848237678391
 21
134.4561616683575
 31
0.0
  0
LINE
  5
1365
330
2
100
AcDbEntity
  8
0
100
AcDbLine
 10
757.4324698712228
 20
129.4491130511876
 30
0.0
 11
758.484823767839
 21
129.4215561945882
 31
0.0
  0
ARC
  5
1366
330
2
100
AcDbEntity
  8
0
100
AcDbCircle
 10
753.484823767839
 20
134.4561616683575
 30
0.0
 40
2.0
100
AcDbArc
 50
0.0
 51
88.99999999999822
  0
LINE
  5
1367
330
2
100
AcDbEntity
  8
0
100
AcDbLine
 10
720.4848237678386
 20
140.4215561945882
 30
0.0
 11
727.4935503033373
 21
140.360391964731
 31
0.0
  0
ARC
  5
1368
330
2
100
AcDbEntity
  8
0
100
AcDbCircle
 10
727.4848237678391
 20
139.3604300416671
 30
0.0
 40
1.0
100
AcDbArc
 50
0.0
 51
89.49999999999542
  0
LINE
  5
1369
330
2
100
AcDbEntity
  8
0
100
AcDbLine
 10
753.5197285776896
 20
358.0194313547033
 30
0.0
 11
731.4324665468468
 21
357.6338967618683
 31
0.0
  0
LINE
  5
136A
330
2
100
AcDbEntity
  8
0
100
AcDbLine
 10
733.4848237648154
 20
403.4377436472056
 30
0.0
 11
753.5197285776896
 21
403.0880330828656
 31
0.0
  0
LINE
  5
136B
330
2
100
AcDbEntity
  8
0
100
AcDbLine
 10
733.4848237648159
 20
348.6697207903632
 30
0.0
 11
753.5197285776896
 21
349.0194313547033
 31
0.0
  0
LINE
  5
136C
330
2
100
AcDbEntity
  8
0
100
AcDbLine
 10
755.484823764815
 20
351.0191267450152
 30
0.0
 11
755.484823764815
 21
401.0883376925537
 31
0.0
  0
ARC
  5
136D
330
2
100
AcDbEntity
  8
0
100
AcDbCircle
 10
753.484823764815
 20
360.0191267450161
 30
0.0
 40
2.0
100
AcDbArc
 50
270.9999999999887
 51
0.0
  0
ARC
  5
136E
330
2
100
AcDbEntity
  8
0
100
AcDbCircle
 10
753.484823764815
 20
401.0883376925537
 30
0.0
 40
2.0
100
AcDbArc
 50
0.0
 51
88.99999999999822
  0
LINE
  5
136F
330
2
100
AcDbEntity
  8
0
100
AcDbLine
 10
757.4324698681996
 20
356.026175362185
 30
0.0
 11
758.4848237648154
 21
356.0537322187844
 31
0.0
  0
ARC
  5
1370
330
2
100
AcDbEntity
  8
0
100
AcDbCircle
 10
753.484823764815
 20
351.0191267450152
 30
0.0
 40
2.0
100
AcDbArc
 50
271.0000000000017
 51
0.0
  0
LINE
  5
1371
330
2
100
AcDbEntity
  8
0
100
AcDbLine
 10
728.4848237661588
 20
405.9926060658515
 30
0.0
 11
728.4848237661588
 21
346.1148583717174
 31
0.0
  0
LINE
  5
1372
330
2
100
AcDbEntity
  8
0
100
AcDbLine
 10
720.4848237648154
 20
345.0537322187845
 30
0.0
 11
727.4935503016575
 21
345.1148964486535
 31
0.0
  0
ARC
  5
1373
330
2
100
AcDbEntity
  8
0
100
AcDbCircle
 10
731.4848237661587
 20
354.6343536763995
 30
0.0
 40
3.0
100
AcDbArc
 50
91.00000000000177
 51
180.0
  0
ARC
  5
1374
330
2
100
AcDbEntity
  8
0
100
AcDbCircle
 10
958.6165162262521
 20
109.4215561945873
 30
0.0
 40
27.00000000000004
100
AcDbArc
 50
133.6028189727125
 51
260.4059317731351
  0
LINE
  5
1375
330
2
100
AcDbEntity
  8
0
100
AcDbLine
 10
976.616516226252
 20
84.42155619458736
 30
0.0
 11
976.616516226252
 21
88.42155619458736
 31
0.0
  0
LINE
  5
1376
330
2
100
AcDbEntity
  8
0
100
AcDbLine
 10
986.6165162262525
 20
78.42155619458736
 30
0.0
 11
930.6165162262521
 21
78.42155619458736
 31
0.0
  0
LINE
  5
1377
330
2
100
AcDbEntity
  8
0
100
AcDbLine
 10
955.8208637360401
 20
82.42155619458737
 30
0.0
 11
974.6165162262521
 21
82.42155619458737
 31
0.0
  0
ARC
  5
1378
330
2
100
AcDbEntity
  8
0
100
AcDbCircle
 10
930.6165162262521
 20
81.42155619458737
 30
0.0
 40
3.0
100
AcDbArc
 50
180.0
 51
270.0
  0
ARC
  5
1379
330
2
100
AcDbEntity
  8
0
100
AcDbCircle
 10
974.6165162262521
 20
84.42155619458736
 30
0.0
 40
2.0
100
AcDbArc
 50
270.0
 51
0.0
  0
ARC
  5
137A
330
2
100
AcDbEntity
  8
0
100
AcDbCircle
 10
986.6165162262525
 20
81.42155619458737
 30
0.0
 40
3.0
100
AcDbArc
 50
270.0
 51
0.0
  0
LINE
  5
137B
330
2
100
AcDbEntity
  8
0
100
AcDbLine
 10
930.5685193377383
 20
140.4215561945873
 30
0.0
 11
944.4303755646208
 21
140.4215561945891
 31
0.0
  0
LINE
  5
137C
330
2
100
AcDbEntity
  8
0
100
AcDbLine
 10
956.8026568878783
 20
140.421556194591
 30
0.0
 11
986.616516226252
 21
140.4215561945955
 31
0.0
  0
CIRCLE
  5
137D
330
2
100
AcDbEntity
  8
0
100
AcDbCircle
 10
958.6165162262521
 20
109.4215561945873
 30
0.0
 40
14.99999999999994
  0
LINE
  5
137E
330
2
100
AcDbEntity
  8
0
100
AcDbLine
 10
942.616516226252
 20
129.4215561945873
 30
0.0
 11
974.6165162262512
 21
129.4215561945873
 31
0.0
  0
LINE
  5
137F
330
2
100
AcDbEntity
  8
0
100
AcDbLine
 10
974.6165162262512
 20
89.42155619458736
 30
0.0
 11
942.616516226252
 21
89.42155619458736
 31
0.0
  0
ARC
  5
1380
330
2
100
AcDbEntity
  8
0
100
AcDbCircle
 10
958.6165162262521
 20
109.4215561945873
 30
0.0
 40
27.00000000000004
100
AcDbArc
 50
313.6028189727125
 51
80.40593177313521
  0
LINE
  5
1381
330
2
100
AcDbEntity
  8
0
100
AcDbLine
 10
938.6165162262521
 20
93.42155619458736
 30
0.0
 11
938.6165162262521
 21
125.4215561945873
 31
0.0
  0
ARC
  5
1382
330
2
100
AcDbEntity
  8
0
100
AcDbCircle
 10
942.616516226252
 20
93.42155619458736
 30
0.0
 40
4.0
100
AcDbArc
 50
180.0
 51
270.0
  0
LINE
  5
1383
330
2
100
AcDbEntity
  8
0
100
AcDbLine
 10
961.412168716464
 20
136.4215561945873
 30
0.0
 11
942.616516226252
 21
136.4215561945873
 31
0.0
  0
LINE
  5
1384
330
2
100
AcDbEntity
  8
0
100
AcDbLine
 10
940.6165162262521
 20
134.4215561945873
 30
0.0
 11
940.6165162262521
 21
130.4215561945873
 31
0.0
  0
ARC
  5
1385
330
2
100
AcDbEntity
  8
0
100
AcDbCircle
 10
938.6165162262521
 20
130.4215561945873
 30
0.0
 40
2.0
100
AcDbArc
 50
313.6028189727125
 51
0.0
  0
ARC
  5
1386
330
2
100
AcDbEntity
  8
0
100
AcDbCircle
 10
942.616516226252
 20
125.4215561945873
 30
0.0
 40
4.0
100
AcDbArc
 50
90.0
 51
180.0
  0
ARC
  5
1387
330
2
100
AcDbEntity
  8
0
100
AcDbCircle
 10
930.6165162262521
 20
137.4215561945873
 30
0.0
 40
3.0
100
AcDbArc
 50
90.0
 51
180.0
  0
ARC
  5
1388
330
2
100
AcDbEntity
  8
0
100
AcDbCircle
 10
942.616516226252
 20
134.4215561945873
 30
0.0
 40
2.0
100
AcDbArc
 50
90.0
 51
180.0
  0
LINE
  5
1389
330
2
100
AcDbEntity
  8
0
100
AcDbLine
 10
978.6165162262511
 20
125.4215561945873
 30
0.0
 11
978.6165162262511
 21
93.42155619458736
 31
0.0
  0
ARC
  5
138A
330
2
100
AcDbEntity
  8
0
100
AcDbCircle
 10
978.616516226252
 20
88.42155619458736
 30
0.0
 40
2.0
100
AcDbArc
 50
133.6028189727125
 51
180.0
  0
ARC
  5
138B
330
2
100
AcDbEntity
  8
0
100
AcDbCircle
 10
974.6165162262512
 20
93.42155619458736
 30
0.0
 40
4.0
100
AcDbArc
 50
270.0
 51
0.0
  0
ARC
  5
138C
330
2
100
AcDbEntity
  8
0
100
AcDbCircle
 10
974.6165162262512
 20
125.4215561945873
 30
0.0
 40
4.0
100
AcDbArc
 50
0.0
 51
90.0
  0
ARC
  5
138D
330
2
100
AcDbEntity
  8
0
100
AcDbCircle
 10
986.6165162262525
 20
137.4215561945873
 30
0.0
 40
3.0
100
AcDbArc
 50
0.0
 51
90.00000000001303
  0
ARC
  5
138E
330
2
100
AcDbEntity
  8
0
100
AcDbCircle
 10
727.4848237661587
 20
346.1148583717174
 30
0.0
 40
1.0
100
AcDbArc
 50
270.5000000000045
 51
0.0
  0
LINE
  5
138F
330
2
100
AcDbEntity
  8
0
100
AcDbLine
 10
758.4848237648154
 20
396.0537322187844
 30
0.0
 11
758.4848237648154
 21
356.0537322187844
 31
0.0
  0
ARC
  5
1390
330
2
100
AcDbEntity
  8
0
100
AcDbCircle
 10
757.484823764815
 20
354.0268607122341
 30
0.0
 40
2.0
100
AcDbArc
 50
91.50000000000272
 51
180.0
  0
LINE
  5
1391
330
2
100
AcDbEntity
  8
0
100
AcDbLine
 10
757.4324698681996
 20
396.0812890753838
 30
0.0
 11
758.4848237648159
 21
396.0537322187844
 31
0.0
  0
ARC
  5
1392
330
2
100
AcDbEntity
  8
0
100
AcDbCircle
 10
757.4848237648154
 20
398.0806037253348
 30
0.0
 40
2.0
100
AcDbArc
 50
180.0
 51
268.4999999999972
  0
LINE
  5
1393
330
2
100
AcDbEntity
  8
0
100
AcDbLine
 10
728.484823767839
 20
139.3604300416671
 30
0.0
 11
728.4848237678386
 21
116.7454422130802
 31
0.0
  0
ARC
  5
1394
330
2
100
AcDbEntity
  8
0
100
AcDbCircle
 10
731.4557969572931
 20
139.8414414018596
 30
0.0
 40
3.0
100
AcDbArc
 50
186.9066949159437
 51
187.9767771032858
  0
LINE
  5
1395
330
2
100
AcDbEntity
  8
0
100
AcDbLine
 10
758.484823767839
 20
129.4215561945882
 30
0.0
 11
758.484823767839
 21
89.42155619458828
 31
0.0
  0
ARC
  5
1396
330
2
100
AcDbEntity
  8
0
100
AcDbCircle
 10
757.4848237678386
 20
131.4484277011395
 30
0.0
 40
2.0
100
AcDbArc
 50
180.0
 51
268.4999999999972
  0
ARC
  5
1397
330
2
100
AcDbEntity
  8
0
100
AcDbCircle
 10
955.8208637360401
 20
85.42155619458737
 30
0.0
 40
3.0
100
AcDbArc
 50
248.4451812910239
 51
270.0
  0
ARC
  5
1398
330
2
100
AcDbEntity
  8
0
100
AcDbCircle
 10
953.616516226252
 20
79.84115727908994
 30
0.0
 40
3.0
100
AcDbArc
 50
68.44518129102394
 51
80.40593177313521
  0
ARC
  5
1399
330
2
100
AcDbEntity
  8
0
100
AcDbCircle
 10
961.412168716464
 20
133.4215561945873
 30
0.0
 40
3.0
100
AcDbArc
 50
68.44518129102394
 51
90.0
  0
ARC
  5
139A
330
2
100
AcDbEntity
  8
0
100
AcDbCircle
 10
963.6165162262521
 20
139.0019551100857
 30
0.0
 40
3.0
100
AcDbArc
 50
248.4451812910239
 51
260.4059317731351
  0
LINE
  5
139B
330
2
100
AcDbEntity
  8
CENTER
  6
CENS
100
AcDbLine
 10
746.4848237664953
 20
143.1085545851681
 30
0.0
 11
746.4848237664953
 21
119.9227785917749
 31
0.0
  0
LINE
  5
139C
330
2
100
AcDbEntity
  8
HIDS
100
AcDbLine
 10
956.3665162262521
 20
136.4215561945873
 30
0.0
 11
956.3665162262521
 21
126.7763105863958
 31
0.0
  0
LINE
  5
139D
330
2
100
AcDbEntity
  8
HIDS
100
AcDbLine
 10
944.8665162262521
 20
136.4215561945873
 30
0.0
 11
944.8665162262521
 21
120.246873741892
 31
0.0
  0
CIRCLE
  5
139E
330
2
100
AcDbEntity
  8
HIDS
100
AcDbCircle
 10
958.6165162262521
 20
109.4215561945873
 30
0.0
 40
17.4999999999992
  0
LINE
  5
139F
330
2
100
AcDbEntity
  8
0
100
AcDbLine
 10
720.4848237648154
 20
407.0537322187845
 30
0.0
 11
727.4935503016575
 21
406.9925679889154
 31
0.0
  0
ARC
  5
13A0
330
2
100
AcDbEntity
  8
0
100
AcDbCircle
 10
727.4848237661587
 20
405.9926060658515
 30
0.0
 40
1.0
100
AcDbArc
 50
0.0
 51
89.49999999999542
  0
ARC
  5
13A1
330
2
100
AcDbEntity
  8
0
100
AcDbCircle
 10
732.9595513094466
 20
408.4476739522385
 30
0.0
 40
5.0
100
AcDbArc
 50
204.1532073122253
 51
206.4985685482824
  0
LINE
  5
13A2
330
2
100
AcDbEntity
  8
0
100
AcDbLine
 10
753.4848237648154
 20
378.0886423486406
 30
0.0
 11
731.4848237661583
 21
378.4726537770382
 31
0.0
  0
LINE
  5
13A3
330
2
100
AcDbEntity
  8
0
100
AcDbLine
 10
753.5197285807132
 20
82.38725533050711
 30
0.0
 11
733.484823767839
 21
82.03754476616706
 31
0.0
  0
LINE
  5
13A4
330
2
100
AcDbEntity
  8
0
100
AcDbLine
 10
757.4324698712228
 20
89.39399933798886
 30
0.0
 11
758.484823767839
 21
89.42155619458828
 31
0.0
  0
ARC
  5
13A5
330
2
100
AcDbEntity
  8
0
100
AcDbCircle
 10
753.484823767839
 20
84.38695072081992
 30
0.0
 40
2.0
100
AcDbArc
 50
271.0000000000017
 51
0.0
  0
LINE
  5
13A6
330
2
100
AcDbEntity
  8
0
100
AcDbLine
 10
720.4848237678386
 20
78.42155619458828
 30
0.0
 11
727.4935503033368
 21
78.48272042444552
 31
0.0
  0
ARC
  5
13A7
330
2
100
AcDbEntity
  8
0
100
AcDbCircle
 10
727.4848237678386
 20
79.48268234750941
 30
0.0
 40
1.0
100
AcDbArc
 50
270.5000000000045
 51
0.0
  0
ARC
  5
13A8
330
2
100
AcDbEntity
  8
0
100
AcDbCircle
 10
731.4557969572931
 20
79.00167098731691
 30
0.0
 40
3.0
100
AcDbArc
 50
172.0232228967141
 51
173.0933050840308
  0
ARC
  5
13A9
330
2
100
AcDbEntity
  8
0
100
AcDbCircle
 10
757.4848237678386
 20
87.3946846880379
 30
0.0
 40
2.0
100
AcDbArc
 50
91.50000000000272
 51
180.0
  0
LINE
  5
13AA
330
2
100
AcDbEntity
  8
0
100
AcDbLine
 10
754.4848237678354
 20
128.9851795713828
 30
0.0
 11
729.4848237678386
 21
129.4215561945882
 31
0.0
  0
SPLINE
  5
13AB
330
2
100
AcDbEntity
  8
HOJO
100
AcDbSpline
210
0.0
220
0.0
230
1.0
 70
     8
 71
     3
 72
    15
 73
    11
 74
     0
 42
0.0000000001
 43
0.0000000001
 40
1.229586671925319
 40
1.229586671925319
 40
1.229586671925319
 40
1.229586671925319
 40
9.059721493801909
 40
14.01454332224558
 40
17.68854249089321
 40
25.49282471102274
 40
30.81266567978604
 40
35.19147887412627
 40
39.07871238777226
 40
41.18872123517163
 40
41.18872123517163
 40
41.18872123517163
 40
41.18872123517163
 10
758.4848237678468
 20
126.9937188714892
 30
0.0
 10
755.6746843568601
 20
126.7265285831443
 30
0.0
 10
751.2660665755126
 20
126.0274046902503
 30
0.0
 10
748.3744197928752
 20
121.056282575725
 30
0.0
 10
742.6802665950183
 20
117.3715097332768
 30
0.0
 10
738.00142405776
 20
118.1363457356754
 30
0.0
 10
732.329442572701
 20
117.3578902634988
 30
0.0
 10
727.8478908219624
 20
116.680942513726
 30
0.0
 10
723.359697031917
 20
115.7145312449854
 30
0.0
 10
721.4962924354761
 20
110.0343181712949
 30
0.0
 10
721.2786494193048
 20
109.4215561945882
 30
0.0
  0
CIRCLE
  5
13AC
330
2
100
AcDbEntity
  8
0
100
AcDbCircle
 10
931.7464585411633
 20
136.2916138796761
 30
0.0
 40
1.732050807568871
  0
LWPOLYLINE
  5
13AD
330
2
100
AcDbEntity
  8
0
100
AcDbPolyline
 90
        6
 70
     1
 43
0.0
 10
933.2464585411633
 20
137.1576392834611
 10
931.7464585411633
 20
138.0236646872452
 10
930.2464585411632
 20
137.1576392834611
 10
930.2464585411632
 20
135.425588475892
 10
931.7464585411633
 20
134.5595630721071
 10
933.2464585411633
 20
135.425588475892
  0
CIRCLE
  5
13AE
330
2
100
AcDbEntity
  8
0
100
AcDbCircle
 10
931.7464585411633
 20
136.2916138796761
 30
0.0
 40
3.499999999999717
  0
CIRCLE
  5
13AF
330
2
100
AcDbEntity
  8
0
100
AcDbCircle
 10
931.7464585411633
 20
136.2916138796761
 30
0.0
 40
2.980384757729353
  0
CIRCLE
  5
13B0
330
2
100
AcDbEntity
  8
0
100
AcDbCircle
 10
985.4865739113408
 20
136.2916138796761
 30
0.0
 40
1.732050807568871
  0
LWPOLYLINE
  5
13B1
330
2
100
AcDbEntity
  8
0
100
AcDbPolyline
 90
        6
 70
     1
 43
0.0
 10
986.9865739113409
 20
137.1576392834611
 10
985.4865739113408
 20
138.0236646872452
 10
983.9865739113408
 20
137.1576392834611
 10
983.9865739113408
 20
135.425588475892
 10
985.4865739113408
 20
134.5595630721071
 10
986.9865739113409
 20
135.425588475892
  0
CIRCLE
  5
13B2
330
2
100
AcDbEntity
  8
0
100
AcDbCircle
 10
985.4865739113408
 20
136.2916138796761
 30
0.0
 40
3.499999999999717
  0
CIRCLE
  5
13B3
330
2
100
AcDbEntity
  8
0
100
AcDbCircle
 10
985.4865739113408
 20
136.2916138796761
 30
0.0
 40
2.980384757729353
  0
CIRCLE
  5
13B4
330
2
100
AcDbEntity
  8
0
100
AcDbCircle
 10
985.4865739113408
 20
82.55149850949857
 30
0.0
 40
1.732050807568871
  0
LWPOLYLINE
  5
13B5
330
2
100
AcDbEntity
  8
0
100
AcDbPolyline
 90
        6
 70
     1
 43
0.0
 10
986.9865739113409
 20
83.41752391328355
 10
985.4865739113408
 20
84.28354931706763
 10
983.9865739113408
 20
83.41752391328355
 10
983.9865739113408
 20
81.68547310571449
 10
985.4865739113408
 20
80.81944770192951
 10
986.9865739113409
 20
81.68547310571449
  0
CIRCLE
  5
13B6
330
2
100
AcDbEntity
  8
0
100
AcDbCircle
 10
985.4865739113408
 20
82.55149850949857
 30
0.0
 40
3.499999999999717
  0
CIRCLE
  5
13B7
330
2
100
AcDbEntity
  8
0
100
AcDbCircle
 10
985.4865739113408
 20
82.55149850949857
 30
0.0
 40
2.980384757729353
  0
CIRCLE
  5
13B8
330
2
100
AcDbEntity
  8
0
100
AcDbCircle
 10
931.7464585411633
 20
82.55149850949857
 30
0.0
 40
1.732050807568871
  0
LWPOLYLINE
  5
13B9
330
2
100
AcDbEntity
  8
0
100
AcDbPolyline
 90
        6
 70
     1
 43
0.0
 10
933.2464585411633
 20
83.41752391328355
 10
931.7464585411633
 20
84.28354931706763
 10
930.2464585411632
 20
83.41752391328355
 10
930.2464585411632
 20
81.68547310571449
 10
931.7464585411633
 20
80.81944770192951
 10
933.2464585411633
 20
81.68547310571449
  0
CIRCLE
  5
13BA
330
2
100
AcDbEntity
  8
0
100
AcDbCircle
 10
931.7464585411633
 20
82.55149850949857
 30
0.0
 40
3.499999999999717
  0
CIRCLE
  5
13BB
330
2
100
AcDbEntity
  8
0
100
AcDbCircle
 10
931.7464585411633
 20
82.55149850949857
 30
0.0
 40
2.980384757729353
  0
LINE
  5
13BC
330
2
100
AcDbEntity
  8
CENTER
100
AcDbLine
 10
931.7464585411633
 20
142.1243029622726
 30
0.0
 11
931.7464585411633
 21
130.4589247970796
 31
0.0
  0
LINE
  5
13BD
330
2
100
AcDbEntity
  8
CENTER
100
AcDbLine
 10
925.9137694585662
 20
136.2916138796761
 30
0.0
 11
937.5791476237603
 21
136.2916138796761
 31
0.0
  0
LINE
  5
13BE
330
2
100
AcDbEntity
  8
CENTER
100
AcDbLine
 10
985.4865739113408
 20
142.1243029622735
 30
0.0
 11
985.4865739113408
 21
130.4589247970796
 31
0.0
  0
LINE
  5
13BF
330
2
100
AcDbEntity
  8
CENTER
100
AcDbLine
 10
979.6538848287438
 20
136.2916138796761
 30
0.0
 11
991.3192629939379
 21
136.2916138796761
 31
0.0
  0
LINE
  5
13C0
330
2
100
AcDbEntity
  8
CENTER
100
AcDbLine
 10
985.4865739113408
 20
88.384187592096
 30
0.0
 11
985.4865739113408
 21
76.71880942690205
 31
0.0
  0
LINE
  5
13C1
330
2
100
AcDbEntity
  8
CENTER
100
AcDbLine
 10
979.6538848287438
 20
82.55149850949857
 30
0.0
 11
991.3192629939379
 21
82.55149850949857
 31
0.0
  0
LINE
  5
13C2
330
2
100
AcDbEntity
  8
CENTER
100
AcDbLine
 10
931.7464585411633
 20
88.384187592096
 30
0.0
 11
931.7464585411633
 21
76.71880942690205
 31
0.0
  0
LINE
  5
13C3
330
2
100
AcDbEntity
  8
CENTER
100
AcDbLine
 10
925.9137694585662
 20
82.55149850949857
 30
0.0
 11
937.5791476237603
 21
82.55149850949857
 31
0.0
  0
LINE
  5
13C4
330
2
100
AcDbEntity
  8
0
100
AcDbLine
 10
755.4848237678391
 20
84.38695072081992
 30
0.0
 11
755.4848237678391
 21
109.4215561945882
 31
0.0
  0
LINE
  5
13C5
330
2
100
AcDbEntity
  8
0
100
AcDbLine
 10
728.4848237678386
 20
109.4215561945882
 30
0.0
 11
728.484823767839
 21
79.48268234750941
 31
0.0
  0
LINE
  5
13C6
330
2
100
AcDbEntity
  8
0
100
AcDbLine
 10
729.484823767839
 20
139.791613879677
 30
0.0
 11
728.484823767839
 21
139.791613879677
 31
0.0
  0
LINE
  5
13C7
330
2
100
AcDbEntity
  8
0
100
AcDbLine
 10
728.484823767839
 20
139.791613879677
 30
0.0
 11
728.484823767839
 21
132.791613879677
 31
0.0
  0
LINE
  5
13C8
330
2
100
AcDbEntity
  8
0
100
AcDbLine
 10
728.484823767839
 20
132.791613879677
 30
0.0
 11
729.484823767839
 21
132.791613879677
 31
0.0
  0
LINE
  5
13C9
330
2
100
AcDbEntity
  8
0
100
AcDbLine
 10
729.484823767839
 20
132.791613879677
 30
0.0
 11
729.484823767839
 21
139.791613879677
 31
0.0
  0
LINE
  5
13CA
330
2
100
AcDbEntity
  8
0
100
AcDbLine
 10
733.484823767839
 20
139.2719986374066
 30
0.0
 11
733.484823767839
 21
133.3112291219484
 31
0.0
  0
LINE
  5
13CB
330
2
100
AcDbEntity
  8
0
100
AcDbLine
 10
733.1848237678388
 20
132.791613879677
 30
0.0
 11
733.1848237678388
 21
139.791613879677
 31
0.0
  0
LINE
  5
13CC
330
2
100
AcDbEntity
  8
0
100
AcDbLine
 10
733.1848237678388
 20
132.791613879677
 30
0.0
 11
729.484823767839
 21
132.791613879677
 31
0.0
  0
LINE
  5
13CD
330
2
100
AcDbEntity
  8
0
100
AcDbLine
 10
733.1848237678388
 20
132.791613879677
 30
0.0
 11
733.484823767839
 21
133.3112291219484
 31
0.0
  0
LINE
  5
13CE
330
2
100
AcDbEntity
  8
0
100
AcDbLine
 10
733.484823767839
 20
139.2719986374066
 30
0.0
 11
733.1848237678388
 21
139.791613879677
 31
0.0
  0
LINE
  5
13CF
330
2
100
AcDbEntity
  8
0
100
AcDbLine
 10
729.484823767839
 20
139.791613879677
 30
0.0
 11
733.1848237678388
 21
139.791613879677
 31
0.0
  0
LINE
  5
13D0
330
2
100
AcDbEntity
  8
0
100
AcDbLine
 10
729.484823767839
 20
86.05149850949947
 30
0.0
 11
728.484823767839
 21
86.05149850949947
 31
0.0
  0
LINE
  5
13D1
330
2
100
AcDbEntity
  8
0
100
AcDbLine
 10
728.484823767839
 20
86.05149850949947
 30
0.0
 11
728.484823767839
 21
79.05149850949948
 31
0.0
  0
LINE
  5
13D2
330
2
100
AcDbEntity
  8
0
100
AcDbLine
 10
728.484823767839
 20
79.05149850949948
 30
0.0
 11
729.484823767839
 21
79.05149850949948
 31
0.0
  0
LINE
  5
13D3
330
2
100
AcDbEntity
  8
0
100
AcDbLine
 10
729.484823767839
 20
79.05149850949948
 30
0.0
 11
729.484823767839
 21
86.05149850949947
 31
0.0
  0
LINE
  5
13D4
330
2
100
AcDbEntity
  8
0
100
AcDbLine
 10
733.484823767839
 20
85.53188326722903
 30
0.0
 11
733.484823767839
 21
79.57111375177084
 31
0.0
  0
LINE
  5
13D5
330
2
100
AcDbEntity
  8
0
100
AcDbLine
 10
733.1848237678388
 20
79.05149850949948
 30
0.0
 11
733.1848237678388
 21
86.05149850949947
 31
0.0
  0
LINE
  5
13D6
330
2
100
AcDbEntity
  8
0
100
AcDbLine
 10
733.1848237678388
 20
79.05149850949948
 30
0.0
 11
729.484823767839
 21
79.05149850949948
 31
0.0
  0
LINE
  5
13D7
330
2
100
AcDbEntity
  8
0
100
AcDbLine
 10
733.1848237678388
 20
79.05149850949948
 30
0.0
 11
733.484823767839
 21
79.57111375177084
 31
0.0
  0
LINE
  5
13D8
330
2
100
AcDbEntity
  8
0
100
AcDbLine
 10
733.484823767839
 20
85.53188326722903
 30
0.0
 11
733.1848237678388
 21
86.05149850949947
 31
0.0
  0
LINE
  5
13D9
330
2
100
AcDbEntity
  8
0
100
AcDbLine
 10
729.484823767839
 20
86.05149850949947
 30
0.0
 11
733.1848237678388
 21
86.05149850949947
 31
0.0
  0
LINE
  5
13DA
330
2
100
AcDbEntity
  8
CENTER
  6
CENS
100
AcDbLine
 10
738.4848237678386
 20
136.2916138796779
 30
0.0
 11
715.4848666782161
 21
136.2916138796779
 31
0.0
  0
LINE
  5
13DB
330
2
100
AcDbEntity
  8
CENTER
  6
CENS
100
AcDbLine
 10
738.4848237678386
 20
82.55149850950038
 30
0.0
 11
715.4848666782161
 21
82.55149850950038
 31
0.0
  0
ARC
  5
13DC
330
2
100
AcDbEntity
  8
0
100
AcDbCircle
 10
731.45579695427
 20
345.6338470115131
 30
0.0
 40
3.0
100
AcDbArc
 50
172.0232228966878
 51
173.0933050840563
  0
ARC
  5
13DD
330
2
100
AcDbEntity
  8
0
100
AcDbCircle
 10
731.45579695427
 20
406.4736174260558
 30
0.0
 40
3.0
100
AcDbArc
 50
186.9066949159437
 51
187.9767771033121
  0
LINE
  5
13DE
330
2
100
AcDbEntity
  8
0
100
AcDbLine
 10
729.4848237648159
 20
345.6836745336957
 30
0.0
 11
728.4848237648159
 21
345.6836745336957
 31
0.0
  0
LINE
  5
13DF
330
2
100
AcDbEntity
  8
0
100
AcDbLine
 10
728.4848237648159
 20
345.6836745336957
 30
0.0
 11
728.4848237648159
 21
352.6836745336956
 31
0.0
  0
LINE
  5
13E0
330
2
100
AcDbEntity
  8
0
100
AcDbLine
 10
728.4848237648159
 20
352.6836745336956
 30
0.0
 11
729.4848237648159
 21
352.6836745336956
 31
0.0
  0
LINE
  5
13E1
330
2
100
AcDbEntity
  8
0
100
AcDbLine
 10
729.4848237648159
 20
352.6836745336956
 30
0.0
 11
729.4848237648159
 21
345.6836745336957
 31
0.0
  0
LINE
  5
13E2
330
2
100
AcDbEntity
  8
0
100
AcDbLine
 10
733.4848237648159
 20
346.2032897759661
 30
0.0
 11
733.4848237648159
 21
352.1640592914243
 31
0.0
  0
LINE
  5
13E3
330
2
100
AcDbEntity
  8
0
100
AcDbLine
 10
733.1848237648157
 20
352.6836745336956
 30
0.0
 11
733.1848237648157
 21
345.6836745336957
 31
0.0
  0
LINE
  5
13E4
330
2
100
AcDbEntity
  8
0
100
AcDbLine
 10
733.1848237648157
 20
352.6836745336956
 30
0.0
 11
729.4848237648159
 21
352.6836745336956
 31
0.0
  0
LINE
  5
13E5
330
2
100
AcDbEntity
  8
0
100
AcDbLine
 10
733.1848237648157
 20
352.6836745336956
 30
0.0
 11
733.4848237648159
 21
352.1640592914243
 31
0.0
  0
LINE
  5
13E6
330
2
100
AcDbEntity
  8
0
100
AcDbLine
 10
733.4848237648159
 20
346.2032897759661
 30
0.0
 11
733.1848237648157
 21
345.6836745336957
 31
0.0
  0
LINE
  5
13E7
330
2
100
AcDbEntity
  8
0
100
AcDbLine
 10
729.4848237648159
 20
345.6836745336957
 30
0.0
 11
733.1848237648157
 21
345.6836745336957
 31
0.0
  0
LINE
  5
13E8
330
2
100
AcDbEntity
  8
0
100
AcDbLine
 10
729.4848237648159
 20
399.4237899038732
 30
0.0
 11
728.4848237648159
 21
399.4237899038732
 31
0.0
  0
LINE
  5
13E9
330
2
100
AcDbEntity
  8
0
100
AcDbLine
 10
728.4848237648159
 20
399.4237899038732
 30
0.0
 11
728.4848237648159
 21
406.4237899038732
 31
0.0
  0
LINE
  5
13EA
330
2
100
AcDbEntity
  8
0
100
AcDbLine
 10
728.4848237648159
 20
406.4237899038732
 30
0.0
 11
729.4848237648159
 21
406.4237899038732
 31
0.0
  0
LINE
  5
13EB
330
2
100
AcDbEntity
  8
0
100
AcDbLine
 10
729.4848237648159
 20
406.4237899038732
 30
0.0
 11
729.4848237648159
 21
399.4237899038732
 31
0.0
  0
LINE
  5
13EC
330
2
100
AcDbEntity
  8
0
100
AcDbLine
 10
733.4848237648159
 20
399.9434051461437
 30
0.0
 11
733.4848237648159
 21
405.9041746616019
 31
0.0
  0
LINE
  5
13ED
330
2
100
AcDbEntity
  8
0
100
AcDbLine
 10
733.1848237648157
 20
406.4237899038732
 30
0.0
 11
733.1848237648157
 21
399.4237899038732
 31
0.0
  0
LINE
  5
13EE
330
2
100
AcDbEntity
  8
0
100
AcDbLine
 10
733.1848237648157
 20
406.4237899038732
 30
0.0
 11
729.4848237648159
 21
406.4237899038732
 31
0.0
  0
LINE
  5
13EF
330
2
100
AcDbEntity
  8
0
100
AcDbLine
 10
733.1848237648157
 20
406.4237899038732
 30
0.0
 11
733.4848237648159
 21
405.9041746616019
 31
0.0
  0
LINE
  5
13F0
330
2
100
AcDbEntity
  8
0
100
AcDbLine
 10
733.4848237648159
 20
399.9434051461437
 30
0.0
 11
733.1848237648157
 21
399.4237899038732
 31
0.0
  0
LINE
  5
13F1
330
2
100
AcDbEntity
  8
0
100
AcDbLine
 10
729.4848237648159
 20
399.4237899038732
 30
0.0
 11
733.1848237648157
 21
399.4237899038732
 31
0.0
  0
LINE
  5
13F2
330
2
100
AcDbEntity
  8
CENTER
  6
CENS
100
AcDbLine
 10
738.4848237648155
 20
349.1836745336947
 30
0.0
 11
715.4848666751929
 21
349.1836745336947
 31
0.0
  0
LINE
  5
13F3
330
2
100
AcDbEntity
  8
CENTER
  6
CENS
100
AcDbLine
 10
738.4848237648155
 20
402.9237899038723
 30
0.0
 11
715.4848666751929
 21
402.9237899038723
 31
0.0
  0
LINE
  5
13F4
330
2
100
AcDbEntity
  8
0
100
AcDbLine
 10
754.4848237678386
 20
124.4215561945882
 30
0.0
 11
758.484823767839
 21
124.4215561945882
 31
0.0
  0
ARC
  5
13F5
330
2
100
AcDbEntity
  8
0
100
AcDbCircle
 10
752.4848237678386
 20
124.5411747468522
 30
0.0
 40
2.0
100
AcDbArc
 50
0.0
 51
52.22196899340072
  0
LINE
  5
13F6
330
2
100
AcDbEntity
  8
0
100
AcDbLine
 10
754.4848237678386
 20
124.5411747468522
 30
0.0
 11
754.4848237678386
 21
109.4215561945882
 31
0.0
  0
LINE
  5
13F7
330
2
100
AcDbEntity
  8
0
100
AcDbLine
 10
741.984823767839
 20
113.4215561945882
 30
0.0
 11
752.9848237678391
 21
113.4215561945882
 31
0.0
  0
LINE
  5
13F8
330
2
100
AcDbEntity
  8
0
100
AcDbLine
 10
741.984823767839
 20
109.4215561945882
 30
0.0
 11
741.984823767839
 21
117.9817446236227
 31
0.0
  0
LINE
  5
13F9
330
2
100
AcDbEntity
  8
0
100
AcDbLine
 10
748.4207031977596
 20
121.6715561945882
 30
0.0
 11
753.984823767839
 21
121.6715561945882
 31
0.0
  0
LINE
  5
13FA
330
2
100
AcDbEntity
  8
0
100
AcDbLine
 10
753.984823767839
 20
121.6715561945882
 30
0.0
 11
753.984823767839
 21
109.4215561945882
 31
0.0
  0
LINE
  5
13FB
330
2
100
AcDbEntity
  8
0
100
AcDbLine
 10
752.9848237678391
 20
113.4215561945882
 30
0.0
 11
752.9848237678391
 21
109.4215561945882
 31
0.0
  0
LINE
  5
13FC
330
2
100
AcDbEntity
  8
0
100
AcDbLine
 10
752.9848237678391
 20
113.4215561945882
 30
0.0
 11
753.984823767839
 21
113.9989064637782
 31
0.0
  0
LINE
  5
13FD
330
2
100
AcDbEntity
  8
0
100
AcDbLine
 10
739.9848237678391
 20
117.8255444790746
 30
0.0
 11
739.9848237678391
 21
109.4215561945882
 31
0.0
  0
LINE
  5
13FE
330
2
100
AcDbEntity
  8
0
100
AcDbLine
 10
733.484823767839
 20
113.4215561945882
 30
0.0
 11
739.9848237678391
 21
113.4215561945882
 31
0.0
  0
LINE
  5
13FF
330
2
100
AcDbEntity
  8
0
100
AcDbLine
 10
735.4848237678391
 20
113.4215561945882
 30
0.0
 11
739.9848237678391
 21
113.4215561945882
 31
0.0
  0
LINE
  5
1400
330
2
100
AcDbEntity
  8
0
100
AcDbLine
 10
729.984823767839
 20
113.6715561945882
 30
0.0
 11
729.984823767839
 21
109.4215561945882
 31
0.0
  0
LINE
  5
1401
330
2
100
AcDbEntity
  8
0
100
AcDbLine
 10
733.484823767839
 20
113.4215561945882
 30
0.0
 11
733.484823767839
 21
109.4215561945882
 31
0.0
  0
LINE
  5
1402
330
2
100
AcDbEntity
  8
0
100
AcDbLine
 10
733.484823767839
 20
113.6715561945882
 30
0.0
 11
729.984823767839
 21
113.6715561945882
 31
0.0
  0
LINE
  5
1403
330
2
100
AcDbEntity
  8
0
100
AcDbLine
 10
733.484823767839
 20
113.4215561945882
 30
0.0
 11
733.484823767839
 21
113.6715561945882
 31
0.0
  0
LINE
  5
1404
330
2
100
AcDbEntity
  8
0
100
AcDbLine
 10
729.984823767839
 20
112.9215561945882
 30
0.0
 11
727.9640978256755
 21
109.4215561945882
 31
0.0
  0
LINE
  5
1406
330
2
100
AcDbEntity
  8
CENTER
100
AcDbLine
 10
950.6165162262526
 20
143.1085545851672
 30
0.0
 11
950.6165162262526
 21
96.0623815170382
 31
0.0
  0
LINE
  5
1407
330
2
100
AcDbEntity
  8
0
100
AcDbLine
 10
946.389496965615
 20
110.1715561945882
 30
0.0
 11
954.687457814877
 21
110.1715561945882
 31
0.0
  0
LINE
  5
1408
330
2
100
AcDbEntity
  8
0
100
AcDbLine
 10
946.389496965615
 20
108.6715561945882
 30
0.0
 11
954.687457814877
 21
108.6715561945882
 31
0.0
  0
LINE
  5
1409
330
2
100
AcDbEntity
  8
0
100
AcDbLine
 10
970.84353548689
 20
108.6715561945882
 30
0.0
 11
962.545574637628
 21
108.6715561945882
 31
0.0
  0
LINE
  5
140A
330
2
100
AcDbEntity
  8
0
100
AcDbLine
 10
962.545574637628
 20
110.1715561945882
 30
0.0
 11
970.84353548689
 21
110.1715561945882
 31
0.0
  0
CIRCLE
  5
140B
330
2
100
AcDbEntity
  8
0
100
AcDbCircle
 10
958.6165162262526
 20
109.4215561945882
 30
0.0
 40
3.999999999998976
  0
ARC
  5
140C
330
2
100
AcDbEntity
  8
0
100
AcDbCircle
 10
958.6165162262526
 20
109.4215561945882
 30
0.0
 40
4.577350269188627
100
AcDbArc
 50
189.4304498503574
 51
350.5695501496425
  0
ARC
  5
140D
330
2
100
AcDbEntity
  8
0
100
AcDbCircle
 10
958.6165162262526
 20
109.4215561945882
 30
0.0
 40
4.577350269188627
100
AcDbArc
 50
9.430449850357423
 51
170.5695501496425
  0
LINE
  5
140E
330
2
100
AcDbEntity
  8
HIDS
100
AcDbLine
 10
947.4333816030801
 20
114.4215561945882
 30
0.0
 11
954.1165162262529
 21
114.4215561945882
 31
0.0
  0
LINE
  5
140F
330
2
100
AcDbEntity
  8
0
100
AcDbLine
 10
947.1165162262529
 20
118.1215561945881
 30
0.0
 11
949.9925670148993
 21
118.1215561945881
 31
0.0
  0
LINE
  5
1410
330
2
100
AcDbEntity
  8
0
100
AcDbLine
 10
947.1165162262529
 20
118.1215561945881
 30
0.0
 11
947.6361314685235
 21
118.4215561945882
 31
0.0
  0
LINE
  5
1411
330
2
100
AcDbEntity
  8
HIDS
100
AcDbLine
 10
947.4333816030801
 20
114.4215561945882
 30
0.0
 11
954.616516226253
 21
114.4215561945882
 31
0.0
  0
LINE
  5
1412
330
2
100
AcDbEntity
  8
0
100
AcDbLine
 10
947.1165162262529
 20
118.1215561945881
 30
0.0
 11
947.1165162262529
 21
114.4215561945882
 31
0.0
  0
LINE
  5
1413
330
2
100
AcDbEntity
  8
HIDS
100
AcDbLine
 10
948.616516226253
 20
114.4215561945882
 30
0.0
 11
948.9498495595865
 21
112.7548895279213
 31
0.0
  0
LINE
  5
1414
330
2
100
AcDbEntity
  8
HIDS
100
AcDbLine
 10
952.6165162262529
 20
114.4215561945882
 30
0.0
 11
952.2831828929195
 21
112.7548895279213
 31
0.0
  0
LINE
  5
1415
330
2
100
AcDbEntity
  8
HIDS
100
AcDbLine
 10
952.6165162262529
 20
114.4215561945882
 30
0.0
 11
952.6165162262529
 21
110.1715561945882
 31
0.0
  0
LINE
  5
1416
330
2
100
AcDbEntity
  8
HIDS
100
AcDbLine
 10
948.616516226253
 20
114.4215561945882
 30
0.0
 11
948.616516226253
 21
110.1715561945882
 31
0.0
  0
LINE
  5
1417
330
2
100
AcDbEntity
  8
HIDS
100
AcDbLine
 10
948.1165162262529
 20
114.4215561945882
 30
0.0
 11
948.1165162262529
 21
110.1715561945882
 31
0.0
  0
LINE
  5
1418
330
2
100
AcDbEntity
  8
HIDS
100
AcDbLine
 10
953.116516226253
 20
114.4215561945882
 30
0.0
 11
953.116516226253
 21
110.1715561945882
 31
0.0
  0
LINE
  5
1419
330
2
100
AcDbEntity
  8
HIDS
100
AcDbLine
 10
952.6165162262529
 20
108.6715561945882
 30
0.0
 11
952.6165162262529
 21
100.2215561945884
 31
0.0
  0
LINE
  5
141A
330
2
100
AcDbEntity
  8
HIDS
100
AcDbLine
 10
952.2831828929195
 20
108.6715561945882
 30
0.0
 11
952.2831828929195
 21
99.88822286125452
 31
0.0
  0
LINE
  5
141B
330
2
100
AcDbEntity
  8
HIDS
100
AcDbLine
 10
948.9498495595865
 20
108.6715561945882
 30
0.0
 11
948.9498495595865
 21
101.8970591645164
 31
0.0
  0
LINE
  5
141C
330
2
100
AcDbEntity
  8
0
100
AcDbLine
 10
948.616516226253
 20
102.3460703455455
 30
0.0
 11
948.616516226253
 21
100.2215561945884
 31
0.0
  0
LINE
  5
141D
330
2
100
AcDbEntity
  8
HIDS
100
AcDbLine
 10
952.6165162262529
 20
108.6715561945882
 30
0.0
 11
952.6165162262529
 21
98.74155151294127
 31
0.0
  0
LINE
  5
141E
330
2
100
AcDbEntity
  8
HIDS
100
AcDbLine
 10
952.6165162262529
 20
100.2215561945884
 30
0.0
 11
950.6165162262529
 21
100.2215561945884
 31
0.0
  0
LINE
  5
141F
330
2
100
AcDbEntity
  8
0
100
AcDbLine
 10
951.8165162262528
 20
99.42155619458828
 30
0.0
 11
951.5410303772103
 21
99.42155619458828
 31
0.0
  0
LINE
  5
1420
330
2
100
AcDbEntity
  8
HOJO
100
AcDbLine
 10
948.9498495595865
 20
101.8970591645164
 30
0.0
 11
948.9498495595865
 21
99.88822286125452
 31
0.0
  0
LINE
  5
1421
330
2
100
AcDbEntity
  8
0
100
AcDbLine
 10
949.4165162262531
 20
99.42155619458828
 30
0.0
 11
951.5410303772103
 21
99.42155619458828
 31
0.0
  0
LINE
  5
1422
330
2
100
AcDbEntity
  8
0
100
AcDbLine
 10
948.616516226253
 20
100.2215561945884
 30
0.0
 11
950.5280985812493
 21
100.2215561945884
 31
0.0
  0
LINE
  5
1423
330
2
100
AcDbEntity
  8
0
100
AcDbLine
 10
950.5280985812493
 20
100.2215561945884
 30
0.0
 11
950.6165162262529
 21
100.2215561945884
 31
0.0
  0
LINE
  5
1424
330
2
100
AcDbEntity
  8
0
100
AcDbLine
 10
948.616516226253
 20
100.2215561945884
 30
0.0
 11
949.4165162262531
 21
99.42155619458828
 31
0.0
  0
LINE
  5
1425
330
2
100
AcDbEntity
  8
HIDS
100
AcDbLine
 10
952.6165162262529
 20
100.2215561945884
 30
0.0
 11
951.8165162262528
 21
99.42155619458828
 31
0.0
  0
LINE
  5
1426
330
2
100
AcDbEntity
  8
HIDS
100
AcDbLine
 10
948.616516226253
 20
108.6715561945882
 30
0.0
 11
948.616516226253
 21
102.3460703455455
 31
0.0
  0
LINE
  5
1427
330
2
100
AcDbEntity
  8
HIDS
100
AcDbLine
 10
948.616516226253
 20
108.6715561945882
 30
0.0
 11
948.616516226253
 21
102.3460703455455
 31
0.0
  0
LINE
  5
1428
330
2
100
AcDbEntity
  8
HIDS
100
AcDbLine
 10
952.6165162262529
 20
112.7548895279213
 30
0.0
 11
948.616516226253
 21
112.7548895279213
 31
0.0
  0
LINE
  5
1429
330
2
100
AcDbEntity
  8
HOJO
100
AcDbLine
 10
948.9498495595865
 20
110.1715561945882
 30
0.0
 11
948.9498495595865
 21
108.6715561945882
 31
0.0
  0
LINE
  5
142A
330
2
100
AcDbEntity
  8
0
100
AcDbLine
 10
948.616516226253
 20
110.1715561945882
 30
0.0
 11
948.616516226253
 21
108.6715561945882
 31
0.0
  0
LINE
  5
142B
330
2
100
AcDbEntity
  8
HIDS
100
AcDbLine
 10
948.9498495595865
 20
112.7548895279213
 30
0.0
 11
948.9498495595865
 21
110.1715561945882
 31
0.0
  0
LINE
  5
142C
330
2
100
AcDbEntity
  8
HOJO
100
AcDbLine
 10
952.2831828929195
 20
110.1715561945882
 30
0.0
 11
952.2831828929195
 21
108.6715561945882
 31
0.0
  0
LINE
  5
142D
330
2
100
AcDbEntity
  8
0
100
AcDbLine
 10
952.6165162262529
 20
110.1715561945882
 30
0.0
 11
952.6165162262529
 21
108.6715561945882
 31
0.0
  0
LINE
  5
142E
330
2
100
AcDbEntity
  8
HIDS
100
AcDbLine
 10
952.2831828929195
 20
112.7548895279213
 30
0.0
 11
952.2831828929195
 21
110.1715561945882
 31
0.0
  0
LINE
  5
142F
330
2
100
AcDbEntity
  8
HIDS
100
AcDbLine
 10
954.616516226253
 20
121.0000923714977
 30
0.0
 11
954.616516226253
 21
114.4215561945882
 31
0.0
  0
LINE
  5
1430
330
2
100
AcDbEntity
  8
HIDS
100
AcDbLine
 10
949.9925670148993
 20
118.1215561945881
 30
0.0
 11
954.1165162262529
 21
118.1215561945881
 31
0.0
  0
LINE
  5
1431
330
2
100
AcDbEntity
  8
HIDS
100
AcDbLine
 10
953.5969009839821
 20
118.4215561945882
 30
0.0
 11
950.3061311569556
 21
118.4215561945882
 31
0.0
  0
LINE
  5
1432
330
2
100
AcDbEntity
  8
0
100
AcDbLine
 10
950.3061311569551
 20
118.4215561945882
 30
0.0
 11
947.6361314685235
 21
118.4215561945882
 31
0.0
  0
LINE
  5
1433
330
2
100
AcDbEntity
  8
HIDS
100
AcDbLine
 10
954.1165162262529
 20
114.4215561945882
 30
0.0
 11
954.1165162262529
 21
118.1215561945881
 31
0.0
  0
LINE
  5
1434
330
2
100
AcDbEntity
  8
HIDS
100
AcDbLine
 10
953.5969009839821
 20
118.4215561945882
 30
0.0
 11
954.1165162262529
 21
118.1215561945881
 31
0.0
  0
LINE
  5
1435
330
2
100
AcDbEntity
  8
0
100
AcDbLine
 10
947.1165162262529
 20
114.4215561945882
 30
0.0
 11
947.4333816030801
 21
114.4215561945882
 31
0.0
  0
LINE
  5
1436
330
2
100
AcDbEntity
  8
0
100
AcDbLine
 10
751.4142100658125
 20
140.4932183332301
 30
0.0
 11
741.4157331142485
 21
140.6677423976032
 31
0.0
  0
ARC
  5
1437
330
2
100
AcDbEntity
  8
0
100
AcDbCircle
 10
741.3459234884997
 20
136.6683516169776
 30
0.0
 40
3.99999999999998
100
AcDbArc
 50
89.00000000001126
 51
178.9999999999982
  0
LINE
  5
1438
330
2
100
AcDbEntity
  8
0
100
AcDbLine
 10
737.346532707874
 20
136.7381612427269
 30
0.0
 11
755.3437912206889
 21
136.4240179268552
 31
0.0
  0
ARC
  5
1439
330
2
100
AcDbEntity
  8
0
100
AcDbCircle
 10
751.3444004400632
 20
136.4938275526045
 30
0.0
 40
4.000000000000023
100
AcDbArc
 50
358.9999999999982
 51
89.00000000001126
  0
LINE
  5
143A
330
2
100
AcDbEntity
  8
0
100
AcDbLine
 10
959.616516226252
 20
136.4215561945882
 30
0.0
 11
941.6165162262521
 21
136.4215561945882
 31
0.0
  0
CIRCLE
  5
143B
330
2
100
AcDbEntity
  8
0
100
AcDbCircle
 10
746.4848237648155
 20
368.0537322187845
 30
0.0
 40
8.858967454193532
  0
LINE
  5
143C
330
2
100
AcDbEntity
  8
CENTER
  6
CENS
100
AcDbLine
 10
746.4848237648159
 20
356.9346287802025
 30
0.0
 11
746.4848237648159
 21
379.1728356573674
 31
0.0
  0
LINE
  5
143D
330
2
100
AcDbEntity
  8
CENTER
  6
CENS
100
AcDbLine
 10
757.6039272033983
 20
368.0537322187845
 30
0.0
 11
735.3657203262335
 21
368.0537322187845
 31
0.0
  0
LINE
  5
143E
330
2
100
AcDbEntity
  8
0
100
AcDbLine
 10
54.60519222578887
 20
136.4558570586694
 30
0.0
 11
74.64009703866349
 21
136.8055676230095
 31
0.0
  0
LINE
  5
143F
330
2
100
AcDbEntity
  8
0
100
AcDbLine
 10
50.69245093527934
 20
129.4491130511876
 30
0.0
 11
49.64009703866349
 21
129.4215561945882
 31
0.0
  0
ARC
  5
1440
330
2
100
AcDbEntity
  8
0
100
AcDbCircle
 10
54.64009703866349
 20
134.4561616683575
 30
0.0
 40
2.0
100
AcDbArc
 50
91.00000000000177
 51
180.0
  0
LINE
  5
1441
330
2
100
AcDbEntity
  8
0
100
AcDbLine
 10
87.64009703866349
 20
140.4215561945882
 30
0.0
 11
80.63137050316482
 21
140.360391964731
 31
0.0
  0
ARC
  5
1442
330
2
100
AcDbEntity
  8
0
100
AcDbCircle
 10
80.6400970386635
 20
139.3604300416671
 30
0.0
 40
1.0
100
AcDbArc
 50
90.50000000000457
 51
180.0
  0
ARC
  5
1443
330
2
100
AcDbEntity
  8
0
100
AcDbCircle
 10
76.66912384920897
 20
139.8414414018596
 30
0.0
 40
3.0
100
AcDbArc
 50
352.0232228967141
 51
353.0933050840563
  0
LINE
  5
1444
330
2
100
AcDbEntity
  8
0
100
AcDbLine
 10
49.64009703866349
 20
129.4215561945882
 30
0.0
 11
49.64009703866304
 21
89.42155619458828
 31
0.0
  0
ARC
  5
1445
330
2
100
AcDbEntity
  8
0
100
AcDbCircle
 10
50.6400970386635
 20
131.4484277011395
 30
0.0
 40
2.0
100
AcDbArc
 50
271.5000000000027
 51
0.0
  0
LINE
  5
1446
330
2
100
AcDbEntity
  8
CENTER
  6
CENS
100
AcDbLine
 10
61.64009704000682
 20
143.1085545851681
 30
0.0
 11
61.64009704000682
 21
119.7486285828013
 31
0.0
  0
LINE
  5
1447
330
2
100
AcDbEntity
  8
0
100
AcDbLine
 10
54.60519222578887
 20
82.38725533050711
 30
0.0
 11
74.64009703866349
 21
82.03754476616706
 31
0.0
  0
LINE
  5
1448
330
2
100
AcDbEntity
  8
0
100
AcDbLine
 10
50.69245093527934
 20
89.39399933798886
 30
0.0
 11
49.64009703866304
 21
89.42155619458828
 31
0.0
  0
ARC
  5
1449
330
2
100
AcDbEntity
  8
0
100
AcDbCircle
 10
54.64009703866349
 20
84.38695072081992
 30
0.0
 40
2.0
100
AcDbArc
 50
180.0
 51
268.9999999999982
  0
LINE
  5
144A
330
2
100
AcDbEntity
  8
0
100
AcDbLine
 10
87.64009703866349
 20
78.42155619458828
 30
0.0
 11
80.63137050316527
 21
78.48272042444552
 31
0.0
  0
ARC
  5
144B
330
2
100
AcDbEntity
  8
0
100
AcDbCircle
 10
80.64009703866394
 20
79.48268234750941
 30
0.0
 40
1.0
100
AcDbArc
 50
180.0
 51
269.4999999999954
  0
ARC
  5
144C
330
2
100
AcDbEntity
  8
0
100
AcDbCircle
 10
76.66912384920897
 20
79.00167098731691
 30
0.0
 40
3.0
100
AcDbArc
 50
6.90669491596911
 51
7.976777103285854
  0
ARC
  5
144D
330
2
100
AcDbEntity
  8
0
100
AcDbCircle
 10
50.6400970386635
 20
87.3946846880379
 30
0.0
 40
2.0
100
AcDbArc
 50
0.0
 51
88.49999999999729
  0
LINE
  5
144E
330
2
100
AcDbEntity
  8
0
100
AcDbLine
 10
53.64009703866668
 20
89.8579328177937
 30
0.0
 11
78.64009703866395
 21
89.42155619458828
 31
0.0
  0
LINE
  5
144F
330
2
100
AcDbEntity
  8
0
100
AcDbLine
 10
52.64009703866349
 20
84.38695072081992
 30
0.0
 11
52.64009703866349
 21
134.4561616683575
 31
0.0
  0
LINE
  5
1450
330
2
100
AcDbEntity
  8
0
100
AcDbLine
 10
79.64009703866395
 20
139.3604300416671
 30
0.0
 11
79.64009703866349
 21
79.48268234750941
 31
0.0
  0
LINE
  5
1451
330
2
100
AcDbEntity
  8
0
100
AcDbLine
 10
78.6400970386635
 20
139.791613879677
 30
0.0
 11
79.64009703866349
 21
139.791613879677
 31
0.0
  0
LINE
  5
1452
330
2
100
AcDbEntity
  8
0
100
AcDbLine
 10
79.64009703866349
 20
139.791613879677
 30
0.0
 11
79.64009703866349
 21
132.791613879677
 31
0.0
  0
LINE
  5
1453
330
2
100
AcDbEntity
  8
0
100
AcDbLine
 10
79.64009703866349
 20
132.791613879677
 30
0.0
 11
78.6400970386635
 21
132.791613879677
 31
0.0
  0
LINE
  5
1454
330
2
100
AcDbEntity
  8
0
100
AcDbLine
 10
78.6400970386635
 20
132.791613879677
 30
0.0
 11
78.6400970386635
 21
139.791613879677
 31
0.0
  0
LINE
  5
1455
330
2
100
AcDbEntity
  8
0
100
AcDbLine
 10
74.64009703866349
 20
139.2719986374066
 30
0.0
 11
74.64009703866349
 21
133.3112291219484
 31
0.0
  0
LINE
  5
1456
330
2
100
AcDbEntity
  8
0
100
AcDbLine
 10
74.94009703866322
 20
132.791613879677
 30
0.0
 11
74.94009703866322
 21
139.791613879677
 31
0.0
  0
LINE
  5
1457
330
2
100
AcDbEntity
  8
0
100
AcDbLine
 10
74.94009703866322
 20
132.791613879677
 30
0.0
 11
78.6400970386635
 21
132.791613879677
 31
0.0
  0
LINE
  5
1458
330
2
100
AcDbEntity
  8
0
100
AcDbLine
 10
74.94009703866322
 20
132.791613879677
 30
0.0
 11
74.64009703866349
 21
133.3112291219484
 31
0.0
  0
LINE
  5
1459
330
2
100
AcDbEntity
  8
0
100
AcDbLine
 10
74.64009703866349
 20
139.2719986374066
 30
0.0
 11
74.94009703866322
 21
139.791613879677
 31
0.0
  0
LINE
  5
145A
330
2
100
AcDbEntity
  8
0
100
AcDbLine
 10
78.6400970386635
 20
139.791613879677
 30
0.0
 11
74.94009703866322
 21
139.791613879677
 31
0.0
  0
LINE
  5
145B
330
2
100
AcDbEntity
  8
0
100
AcDbLine
 10
78.6400970386635
 20
86.05149850949947
 30
0.0
 11
79.64009703866349
 21
86.05149850949947
 31
0.0
  0
LINE
  5
145C
330
2
100
AcDbEntity
  8
0
100
AcDbLine
 10
79.64009703866349
 20
86.05149850949947
 30
0.0
 11
79.64009703866349
 21
79.05149850949948
 31
0.0
  0
LINE
  5
145D
330
2
100
AcDbEntity
  8
0
100
AcDbLine
 10
79.64009703866349
 20
79.05149850949948
 30
0.0
 11
78.6400970386635
 21
79.05149850949948
 31
0.0
  0
LINE
  5
145E
330
2
100
AcDbEntity
  8
0
100
AcDbLine
 10
78.6400970386635
 20
79.05149850949948
 30
0.0
 11
78.6400970386635
 21
86.05149850949947
 31
0.0
  0
LINE
  5
145F
330
2
100
AcDbEntity
  8
0
100
AcDbLine
 10
74.64009703866349
 20
85.53188326722903
 30
0.0
 11
74.64009703866349
 21
79.57111375177084
 31
0.0
  0
LINE
  5
1460
330
2
100
AcDbEntity
  8
0
100
AcDbLine
 10
74.94009703866322
 20
79.05149850949948
 30
0.0
 11
74.94009703866322
 21
86.05149850949947
 31
0.0
  0
LINE
  5
1461
330
2
100
AcDbEntity
  8
0
100
AcDbLine
 10
74.94009703866322
 20
79.05149850949948
 30
0.0
 11
78.6400970386635
 21
79.05149850949948
 31
0.0
  0
LINE
  5
1462
330
2
100
AcDbEntity
  8
0
100
AcDbLine
 10
74.94009703866322
 20
79.05149850949948
 30
0.0
 11
74.64009703866349
 21
79.57111375177084
 31
0.0
  0
LINE
  5
1463
330
2
100
AcDbEntity
  8
0
100
AcDbLine
 10
74.64009703866349
 20
85.53188326722903
 30
0.0
 11
74.94009703866322
 21
86.05149850949947
 31
0.0
  0
LINE
  5
1464
330
2
100
AcDbEntity
  8
0
100
AcDbLine
 10
78.6400970386635
 20
86.05149850949947
 30
0.0
 11
74.94009703866322
 21
86.05149850949947
 31
0.0
  0
LINE
  5
1465
330
2
100
AcDbEntity
  8
CENTER
  6
CENS
100
AcDbLine
 10
69.64009703866395
 20
136.2916138796779
 30
0.0
 11
92.640054128286
 21
136.2916138796779
 31
0.0
  0
LINE
  5
1466
330
2
100
AcDbEntity
  8
CENTER
  6
CENS
100
AcDbLine
 10
69.64009703866395
 20
82.55149850950038
 30
0.0
 11
92.64005412828646
 21
82.55149850950038
 31
0.0
  0
LINE
  5
1467
330
2
100
AcDbEntity
  8
0
100
AcDbLine
 10
56.71071074069004
 20
140.4932183332301
 30
0.0
 11
66.70918769225363
 21
140.6677423976032
 31
0.0
  0
ARC
  5
1468
330
2
100
AcDbEntity
  8
0
100
AcDbCircle
 10
66.77899731800289
 20
136.6683516169776
 30
0.0
 40
3.99999999999998
100
AcDbArc
 50
1.000000000001775
 51
90.99999999998875
  0
LINE
  5
1469
330
2
100
AcDbEntity
  8
0
100
AcDbLine
 10
70.77838809862851
 20
136.7381612427269
 30
0.0
 11
52.78112958581323
 21
136.4240179268552
 31
0.0
  0
ARC
  5
146A
330
2
100
AcDbEntity
  8
0
100
AcDbCircle
 10
56.78052036643885
 20
136.4938275526045
 30
0.0
 40
4.000000000000023
100
AcDbArc
 50
90.99999999998875
 51
181.0000000000017
  0
CIRCLE
  5
146B
330
2
100
AcDbEntity
  8
0
100
AcDbCircle
 10
974.8799721935432
 20
125.6850121618788
 30
0.0
 40
1.5
  0
CIRCLE
  5
146C
330
2
100
AcDbEntity
  8
HOJO
100
AcDbCircle
 10
974.8799721935432
 20
125.6850121618788
 30
0.0
 40
2.0
  0
LINE
  5
146D
330
2
100
AcDbEntity
  8
CENTER
100
AcDbLine
 10
974.8799721935432
 20
128.6850121618788
 30
0.0
 11
974.8799721935432
 21
122.6850121618788
 31
0.0
  0
LINE
  5
146E
330
2
100
AcDbEntity
  8
CENTER
100
AcDbLine
 10
971.8799721935431
 20
125.6850121618788
 30
0.0
 11
977.8799721935431
 21
125.6850121618788
 31
0.0
  0
CIRCLE
  5
146F
330
2
100
AcDbEntity
  8
HOJO
100
AcDbCircle
 10
942.353060258962
 20
125.6850121618788
 30
0.0
 40
2.0
  0
CIRCLE
  5
1470
330
2
100
AcDbEntity
  8
0
100
AcDbCircle
 10
942.353060258962
 20
125.6850121618788
 30
0.0
 40
1.5
  0
LINE
  5
1471
330
2
100
AcDbEntity
  8
CENTER
100
AcDbLine
 10
939.3530602589619
 20
125.6850121618788
 30
0.0
 11
945.3530602589619
 21
125.6850121618788
 31
0.0
  0
LINE
  5
1472
330
2
100
AcDbEntity
  8
CENTER
100
AcDbLine
 10
942.353060258962
 20
122.6850121618788
 30
0.0
 11
942.353060258962
 21
128.6850121618788
 31
0.0
  0
CIRCLE
  5
1473
330
2
100
AcDbEntity
  8
0
100
AcDbCircle
 10
942.353060258962
 20
93.15810022729767
 30
0.0
 40
1.5
  0
CIRCLE
  5
1474
330
2
100
AcDbEntity
  8
HOJO
100
AcDbCircle
 10
942.353060258962
 20
93.15810022729767
 30
0.0
 40
2.0
  0
LINE
  5
1475
330
2
100
AcDbEntity
  8
CENTER
100
AcDbLine
 10
942.353060258962
 20
90.15810022729766
 30
0.0
 11
942.353060258962
 21
96.15810022729768
 31
0.0
  0
LINE
  5
1476
330
2
100
AcDbEntity
  8
CENTER
100
AcDbLine
 10
945.3530602589619
 20
93.15810022729767
 30
0.0
 11
939.3530602589619
 21
93.15810022729767
 31
0.0
  0
LINE
  5
1477
330
2
100
AcDbEntity
  8
CENTER
100
AcDbLine
 10
977.8799721935431
 20
93.15810022729767
 30
0.0
 11
971.8799721935431
 21
93.15810022729767
 31
0.0
  0
CIRCLE
  5
1478
330
2
100
AcDbEntity
  8
0
100
AcDbCircle
 10
974.8799721935432
 20
93.15810022729767
 30
0.0
 40
1.5
  0
CIRCLE
  5
1479
330
2
100
AcDbEntity
  8
HOJO
100
AcDbCircle
 10
974.8799721935432
 20
93.15810022729767
 30
0.0
 40
2.0
  0
LINE
  5
147A
330
2
100
AcDbEntity
  8
CENTER
100
AcDbLine
 10
974.8799721935432
 20
96.15810022729768
 30
0.0
 11
974.8799721935432
 21
90.15810022729766
 31
0.0
  0
CIRCLE
  5
147B
330
2
100
AcDbEntity
  8
CENTER
100
AcDbCircle
 10
958.6165162262526
 20
109.4215561945882
 30
0.0
 40
23.00000000000006
  0
LINE
  5
147C
330
2
100
AcDbEntity
  8
0
100
AcDbLine
 10
945.8665162262521
 20
140.6715561945882
 30
0.0
 11
955.6165162262525
 21
140.6715561945882
 31
0.0
  0
ARC
  5
147D
330
2
100
AcDbEntity
  8
0
100
AcDbCircle
 10
945.8665162262521
 20
136.4215561945882
 30
0.0
 40
4.25
100
AcDbArc
 50
90.0
 51
180.0
  0
ARC
  5
147E
330
2
100
AcDbEntity
  8
0
100
AcDbCircle
 10
955.366516226252
 20
136.4215561945882
 30
0.0
 40
4.25
100
AcDbArc
 50
0.0
 51
90.0
  0
CIRCLE
  5
1E4B
330
2
100
AcDbEntity
  8
0
100
AcDbCircle
 10
958.6165162262547
 20
109.4215561945884
 30
0.0
 40
12.25
  0
ARC
  5
220E
330
2
100
AcDbEntity
  8
0
100
AcDbCircle
 10
217.2361404788532
 20
189.2023475065496
 30
0.0
 40
40.0
100
AcDbArc
 50
263.8230035951091
 51
283.3676742026292
  0
ARC
  5
220F
330
2
100
AcDbEntity
  8
0
100
AcDbCircle
 10
213.6400970386596
 20
128.4215561945882
 30
0.0
 40
12.0
100
AcDbArc
 50
0.0
 51
90.0
  0
ARC
  5
2210
330
2
100
AcDbEntity
  8
0
100
AcDbCircle
 10
213.6400970386596
 20
128.4215561945882
 30
0.0
 40
13.0
100
AcDbArc
 50
0.0
 51
90.0
  0
ARC
  5
2211
330
2
100
AcDbEntity
  8
0
100
AcDbCircle
 10
229.1400970386632
 20
143.9215561945882
 30
0.0
 40
7.0
100
AcDbArc
 50
180.0
 51
270.0
  0
LINE
  5
2212
330
2
100
AcDbEntity
  8
CENTER
100
AcDbLine
 10
237.8900970386632
 20
143.9215561945882
 30
0.0
 11
220.3900970386632
 21
143.9215561945882
 31
0.0
  0
CIRCLE
  5
2213
330
2
100
AcDbEntity
  8
0
100
AcDbCircle
 10
229.1400970386701
 20
143.9215561945882
 30
0.0
 40
4.307179676972509
  0
LINE
  5
2214
330
2
100
AcDbEntity
  8
CENTER
100
AcDbLine
 10
225.3464888743526
 20
132.4215561945882
 30
0.0
 11
233.9337052029729
 21
132.4215561945882
 31
0.0
  0
LINE
  5
2215
330
2
100
AcDbEntity
  8
CENTER
100
AcDbLine
 10
237.8900970386632
 20
74.92155619458827
 30
0.0
 11
220.3900970386632
 21
74.92155619458827
 31
0.0
  0
ARC
  5
2216
330
2
100
AcDbEntity
  8
0
100
AcDbCircle
 10
213.6400970386637
 20
90.42155619459192
 30
0.0
 40
12.0
100
AcDbArc
 50
270.0
 51
0.0
  0
ARC
  5
2217
330
2
100
AcDbEntity
  8
0
100
AcDbCircle
 10
213.6400970386637
 20
90.42155619459192
 30
0.0
 40
13.0
100
AcDbArc
 50
270.0
 51
0.0
  0
ARC
  5
2218
330
2
100
AcDbEntity
  8
0
100
AcDbCircle
 10
229.1400970386632
 20
74.92155619458827
 30
0.0
 40
7.0
100
AcDbArc
 50
90.0
 51
180.0
  0
ARC
  5
2219
330
2
100
AcDbEntity
  8
0
100
AcDbCircle
 10
217.2361404788528
 20
29.64076488262509
 30
0.0
 40
40.0
100
AcDbArc
 50
76.63232579737074
 51
96.17699640489085
  0
CIRCLE
  5
221A
330
2
100
AcDbEntity
  8
0
100
AcDbCircle
 10
229.1400970386701
 20
74.92155619458827
 30
0.0
 40
5.000000000000113
  0
CIRCLE
  5
221B
330
2
100
AcDbEntity
  8
0
100
AcDbCircle
 10
229.1400970386701
 20
74.92155619458827
 30
0.0
 40
4.307179676972509
  0
LINE
  5
221C
330
2
100
AcDbEntity
  8
CENTER
100
AcDbLine
 10
225.3464888743526
 20
86.42155619458828
 30
0.0
 11
233.9337052029729
 21
86.42155619458828
 31
0.0
  0
CIRCLE
  5
221D
330
2
100
AcDbEntity
  8
0
100
AcDbCircle
 10
229.1400970386701
 20
143.9215561945882
 30
0.0
 40
5.000000000000113
  0
LINE
  5
221F
330
2
100
AcDbEntity
  8
0
100
AcDbLine
 10
93.64009703866372
 20
140.4215561945882
 30
0.0
 11
87.64009703866372
 21
140.4215561945882
 31
0.0
  0
LINE
  5
2220
330
2
100
AcDbEntity
  8
0
100
AcDbLine
 10
93.64009703866372
 20
140.9215561945882
 30
0.0
 11
87.64009703866372
 21
140.9215561945882
 31
0.0
  0
LINE
  5
2221
330
2
100
AcDbEntity
  8
0
100
AcDbLine
 10
87.64009703866326
 20
78.42155619458828
 30
0.0
 11
93.64009703866328
 21
78.42155619458828
 31
0.0
  0
LINE
  5
2222
330
2
100
AcDbEntity
  8
0
100
AcDbLine
 10
87.64009703866326
 20
77.92155619458828
 30
0.0
 11
93.64009703866328
 21
77.92155619458828
 31
0.0
  0
LINE
  5
2224
330
2
100
AcDbEntity
  8
0
100
AcDbLine
 10
153.6400970386637
 20
73.42155619458281
 30
0.0
 11
153.6400970386637
 21
145.4215561945882
 31
0.0
  0
LINE
  5
2225
330
2
100
AcDbEntity
  8
0
100
AcDbLine
 10
163.6400970386637
 20
90.42155619459192
 30
0.0
 11
163.6400970386637
 21
128.4215561945846
 31
0.0
  0
LINE
  5
2226
330
2
100
AcDbEntity
  8
0
100
AcDbLine
 10
162.6400970386637
 20
90.42155619459192
 30
0.0
 11
162.6400970386637
 21
128.4215561945846
 31
0.0
  0
CIRCLE
  5
2227
330
2
100
AcDbEntity
  8
0
100
AcDbCircle
 10
194.6400970386637
 20
109.4215561945882
 30
0.0
 40
28.99999999999986
  0
CIRCLE
  5
2228
330
2
100
AcDbEntity
  8
0
100
AcDbCircle
 10
194.6400970386637
 20
109.4215561945882
 30
0.0
 40
28.49999999999985
  0
CIRCLE
  5
2229
330
2
100
AcDbEntity
  8
0
100
AcDbCircle
 10
194.6400970386637
 20
109.4215561945882
 30
0.0
 40
25.92259999999985
  0
CIRCLE
  5
222A
330
2
100
AcDbEntity
  8
0
100
AcDbCircle
 10
194.6400970386637
 20
109.4215561945882
 30
0.0
 40
23.5774
  0
CIRCLE
  5
222B
330
2
100
AcDbEntity
  8
0
100
AcDbCircle
 10
194.6400970386637
 20
109.4215561945882
 30
0.0
 40
26.49999999999986
  0
CIRCLE
  5
222C
330
2
100
AcDbEntity
  8
0
100
AcDbCircle
 10
194.6400970386637
 20
109.4215561945882
 30
0.0
 40
23.0
  0
LINE
  5
222D
330
2
100
AcDbEntity
  8
CENTER
100
AcDbLine
 10
194.6400970386637
 20
58.42155619458828
 30
0.0
 11
194.6400970386637
 21
160.4215561945882
 31
0.0
  0
LINE
  5
222E
330
2
100
AcDbEntity
  8
0
100
AcDbLine
 10
95.64009703866327
 20
79.92155619458827
 30
0.0
 11
95.64009703866373
 21
138.9215561945882
 31
0.0
  0
LINE
  5
222F
330
2
100
AcDbEntity
  8
0
100
AcDbLine
 10
107.127004075937
 20
87.42155619459737
 30
0.0
 11
107.127004075937
 21
131.4215561945955
 31
0.0
  0
LINE
  5
2230
330
2
100
AcDbEntity
  8
0
100
AcDbLine
 10
120.6400970386637
 20
135.4215561945901
 30
0.0
 11
120.6400970386637
 21
83.42155619458464
 31
0.0
  0
ARC
  5
2231
330
2
100
AcDbEntity
  8
0
100
AcDbCircle
 10
158.6400970386637
 20
73.42155619458828
 30
0.0
 40
5.0
100
AcDbArc
 50
180.0
 51
270.0
  0
ARC
  5
2232
330
2
100
AcDbEntity
  8
0
100
AcDbCircle
 10
122.6400970386637
 20
92.92155619458645
 30
0.0
 40
2.0
100
AcDbArc
 50
180.0
 51
270.0
  0
LINE
  5
2233
330
2
100
AcDbEntity
  8
CENTER
100
AcDbLine
 10
118.3900970386628
 20
83.92155619458646
 30
0.0
 11
135.8900970386628
 21
83.92155619458646
 31
0.0
  0
ARC
  5
2234
330
2
100
AcDbEntity
  8
0
100
AcDbCircle
 10
126.6400970386637
 20
83.42155619458464
 30
0.0
 40
6.0
100
AcDbArc
 50
180.0
 51
270.0
  0
CIRCLE
  5
2235
330
2
100
AcDbEntity
  8
0
100
AcDbCircle
 10
127.1400970386628
 20
83.92155619458646
 30
0.0
 40
5.000000000000113
  0
ARC
  5
2236
330
2
100
AcDbEntity
  8
0
100
AcDbCircle
 10
93.64009703866328
 20
80.42155619458828
 30
0.0
 40
2.0
100
AcDbArc
 50
270.0
 51
0.0
  0
ARC
  5
2237
330
2
100
AcDbEntity
  8
0
100
AcDbCircle
 10
118.6400970386537
 20
84.42155619459738
 30
0.0
 40
2.0
100
AcDbArc
 50
0.0
 51
90.0
  0
LINE
  5
2238
330
2
100
AcDbEntity
  8
0
100
AcDbLine
 10
115.6400970386637
 20
90.42155619459737
 30
0.0
 11
111.8729707683521
 21
90.42155619459737
 31
0.0
  0
ARC
  5
2239
330
2
100
AcDbEntity
  8
0
100
AcDbCircle
 10
108.127004075937
 20
84.42155619459738
 30
0.0
 40
2.0
100
AcDbArc
 50
90.0
 51
143.1301023541103
  0
LINE
  5
223A
330
2
100
AcDbEntity
  8
0
100
AcDbLine
 10
118.6400970386537
 20
86.42155619459737
 30
0.0
 11
108.127004075937
 21
86.42155619459737
 31
0.0
  0
LINE
  5
223B
330
2
100
AcDbEntity
  8
0
100
AcDbLine
 10
104.127004075937
 20
84.42155619459738
 30
0.0
 11
100.6222170605485
 21
84.42155619459738
 31
0.0
  0
ARC
  5
223C
330
2
100
AcDbEntity
  8
0
100
AcDbCircle
 10
104.127004075937
 20
87.42155619459737
 30
0.0
 40
3.0
100
AcDbArc
 50
270.0
 51
0.0
  0
ARC
  5
223D
330
2
100
AcDbEntity
  8
0
100
AcDbCircle
 10
115.6400970386637
 20
85.42155619459737
 30
0.0
 40
5.0
100
AcDbArc
 50
0.0
 51
90.0
  0
ARC
  5
223E
330
2
100
AcDbEntity
  8
0
100
AcDbCircle
 10
111.8729707683521
 20
85.42155619459737
 30
0.0
 40
5.0
100
AcDbArc
 50
90.0
 51
165.5224878140713
  0
ARC
  5
223F
330
2
100
AcDbEntity
  8
0
100
AcDbCircle
 10
93.64009703866328
 20
79.92155619458827
 30
0.0
 40
2.0
100
AcDbArc
 50
270.0
 51
0.0
  0
ARC
  5
2240
330
2
100
AcDbEntity
  8
0
100
AcDbCircle
 10
100.6222170605485
 20
79.42155619459737
 30
0.0
 40
5.0
100
AcDbArc
 50
90.0
 51
175.9039562419072
  0
CIRCLE
  5
2241
330
2
100
AcDbEntity
  8
HOJO
100
AcDbCircle
 10
138.6400970386632
 20
81.92155619458645
 30
0.0
 40
2.0
  0
LINE
  5
2242
330
2
100
AcDbEntity
  8
CENTER
100
AcDbLine
 10
138.6400970386632
 20
75.95348310090486
 30
0.0
 11
138.6400970386632
 21
87.09476127534328
 31
0.0
  0
LINE
  5
2243
330
2
100
AcDbEntity
  8
CENTER
100
AcDbLine
 10
127.1400970386628
 20
75.17155619458645
 30
0.0
 11
127.1400970386628
 21
92.67155619458646
 31
0.0
  0
LINE
  5
2244
330
2
100
AcDbEntity
  8
CENTER
100
AcDbLine
 10
133.4668919579064
 20
81.92155619458645
 30
0.0
 11
143.8133021194205
 21
81.92155619458645
 31
0.0
  0
CIRCLE
  5
2245
330
2
100
AcDbEntity
  8
0
100
AcDbCircle
 10
138.6400970386632
 20
81.92155619458645
 30
0.0
 40
2.5
  0
CIRCLE
  5
2246
330
2
100
AcDbEntity
  8
0
100
AcDbCircle
 10
138.6400970386632
 20
81.92155619458645
 30
0.0
 40
1.6
  0
CIRCLE
  5
2247
330
2
100
AcDbEntity
  8
0
100
AcDbCircle
 10
138.6400970386632
 20
81.92155619458645
 30
0.0
 40
3.0
  0
LINE
  5
2248
330
2
100
AcDbEntity
  8
0
100
AcDbLine
 10
134.1400970386628
 20
83.92155619458646
 30
0.0
 11
134.1400970386628
 21
79.42155619458464
 31
0.0
  0
ARC
  5
2249
330
2
100
AcDbEntity
  8
0
100
AcDbCircle
 10
127.1400970386628
 20
83.92155619458646
 30
0.0
 40
7.0
100
AcDbArc
 50
0.0
 51
90.0
  0
LINE
  5
224A
330
2
100
AcDbEntity
  8
0
100
AcDbLine
 10
126.6400970386628
 20
77.42155619458464
 30
0.0
 11
149.6400970386637
 21
77.42155619458282
 31
0.0
  0
ARC
  5
224B
330
2
100
AcDbEntity
  8
0
100
AcDbCircle
 10
149.6400970386637
 20
73.42155619458281
 30
0.0
 40
4.0
100
AcDbArc
 50
0.0
 51
90.0
  0
ARC
  5
224C
330
2
100
AcDbEntity
  8
0
100
AcDbCircle
 10
136.1400970386628
 20
79.42155619458464
 30
0.0
 40
2.0
100
AcDbArc
 50
180.0
 51
270.0
  0
LINE
  5
224D
330
2
100
AcDbEntity
  8
0
100
AcDbLine
 10
129.6400970386628
 20
85.36493186756052
 30
0.0
 11
129.6400970386628
 21
82.47818052161239
 31
0.0
  0
LINE
  5
224E
330
2
100
AcDbEntity
  8
0
100
AcDbLine
 10
127.1400970386628
 20
81.03480484863831
 30
0.0
 11
129.6400970386628
 21
82.47818052161239
 31
0.0
  0
LINE
  5
224F
330
2
100
AcDbEntity
  8
0
100
AcDbLine
 10
129.6400970386628
 20
85.36493186755871
 30
0.0
 11
127.1400970386628
 21
86.80830754053459
 31
0.0
  0
LINE
  5
2250
330
2
100
AcDbEntity
  8
0
100
AcDbLine
 10
124.6400970386628
 20
85.36493186755871
 30
0.0
 11
124.6400970386628
 21
82.47818052161239
 31
0.0
  0
LINE
  5
2251
330
2
100
AcDbEntity
  8
0
100
AcDbLine
 10
127.1400970386628
 20
81.03480484863831
 30
0.0
 11
124.6400970386628
 21
82.47818052161239
 31
0.0
  0
LINE
  5
2252
330
2
100
AcDbEntity
  8
0
100
AcDbLine
 10
124.6400970386628
 20
85.36493186755871
 30
0.0
 11
127.1400970386628
 21
86.80830754053278
 31
0.0
  0
LINE
  5
2253
330
2
100
AcDbEntity
  8
0
100
AcDbLine
 10
127.1400970386628
 20
90.92155619458646
 30
0.0
 11
122.6400970386637
 21
90.92155619458646
 31
0.0
  0
CIRCLE
  5
2254
330
2
100
AcDbEntity
  8
0
100
AcDbCircle
 10
127.1400970386628
 20
83.92155619458646
 30
0.0
 40
4.307179676972509
  0
LINE
  5
2255
330
2
100
AcDbEntity
  8
0
100
AcDbLine
 10
213.6400970386646
 20
78.42155619459191
 30
0.0
 11
175.6400970386687
 21
78.42155619458828
 31
0.0
  0
LINE
  5
2256
330
2
100
AcDbEntity
  8
0
100
AcDbLine
 10
213.6400970386646
 20
77.42155619459191
 30
0.0
 11
175.6400970386687
 21
77.42155619458827
 31
0.0
  0
ARC
  5
2257
330
2
100
AcDbEntity
  8
0
100
AcDbCircle
 10
194.6400970386637
 20
238.4215561945882
 30
0.0
 40
170.0
100
AcDbArc
 50
263.9172655502525
 51
276.1769964048908
  0
ARC
  5
2258
330
2
100
AcDbEntity
  8
0
100
AcDbCircle
 10
175.6400970386673
 20
90.42155619458828
 30
0.0
 40
12.0
100
AcDbArc
 50
180.0
 51
270.0
  0
ARC
  5
2259
330
2
100
AcDbEntity
  8
0
100
AcDbCircle
 10
175.6400970386673
 20
90.42155619458828
 30
0.0
 40
13.0
100
AcDbArc
 50
180.0
 51
270.0
  0
ARC
  5
225A
330
2
100
AcDbEntity
  8
0
100
AcDbCircle
 10
172.3875663135088
 20
29.60387285257349
 30
0.0
 40
40.0
100
AcDbArc
 50
83.91726555025249
 51
103.1629662673644
  0
LINE
  5
225B
330
2
100
AcDbEntity
  8
0
100
AcDbLine
 10
162.1400970386637
 20
68.42155619458828
 30
0.0
 11
158.6400970386637
 21
68.42155619458828
 31
0.0
  0
ARC
  5
225C
330
2
100
AcDbEntity
  8
0
100
AcDbCircle
 10
162.1400970386637
 20
73.42155619458828
 30
0.0
 40
5.0
100
AcDbArc
 50
270.0
 51
283.1629662673644
  0
LINE
  5
225D
330
2
100
AcDbEntity
  8
0
100
AcDbLine
 10
167.1548156644291
 20
81.93627482034827
 30
0.0
 11
166.4477088832429
 21
81.2291680391616
 31
0.0
  0
ARC
  5
225E
330
2
100
AcDbEntity
  8
0
100
AcDbCircle
 10
220.1400970386632
 20
71.5402521861568
 30
0.0
 40
2.0
100
AcDbArc
 50
266.0353021397911
 51
0.0
  0
LINE
  5
225F
330
2
100
AcDbEntity
  8
0
100
AcDbLine
 10
222.1400970386632
 20
74.92155619458827
 30
0.0
 11
222.1400970386632
 21
71.5402521861568
 31
0.0
  0
LINE
  5
2260
330
2
100
AcDbEntity
  8
0
100
AcDbLine
 10
222.8324851940894
 20
81.22916803916707
 30
0.0
 11
222.1253784129028
 21
81.93627482035372
 31
0.0
  0
ARC
  5
2261
330
2
100
AcDbEntity
  8
0
100
AcDbCircle
 10
158.6400970386637
 20
145.4215561945882
 30
0.0
 40
5.0
100
AcDbArc
 50
90.0
 51
180.0
  0
ARC
  5
2262
330
2
100
AcDbEntity
  8
0
100
AcDbCircle
 10
149.6400970386637
 20
145.4215561945937
 30
0.0
 40
4.0
100
AcDbArc
 50
270.0
 51
0.0
  0
ARC
  5
2263
330
2
100
AcDbEntity
  8
0
100
AcDbCircle
 10
122.6400970386637
 20
125.92155619459
 30
0.0
 40
2.0
100
AcDbArc
 50
90.0
 51
180.0
  0
LINE
  5
2264
330
2
100
AcDbEntity
  8
CENTER
100
AcDbLine
 10
118.3900970386628
 20
134.92155619459
 30
0.0
 11
135.8900970386628
 21
134.92155619459
 31
0.0
  0
ARC
  5
2265
330
2
100
AcDbEntity
  8
0
100
AcDbCircle
 10
126.6400970386637
 20
135.4215561945901
 30
0.0
 40
6.0
100
AcDbArc
 50
90.0
 51
180.0
  0
CIRCLE
  5
2266
330
2
100
AcDbEntity
  8
0
100
AcDbCircle
 10
127.1400970386628
 20
134.92155619459
 30
0.0
 40
5.000000000000113
  0
ARC
  5
2267
330
2
100
AcDbEntity
  8
0
100
AcDbCircle
 10
93.64009703866372
 20
138.4215561945882
 30
0.0
 40
2.0
100
AcDbArc
 50
0.0
 51
89.99999999994789
  0
ARC
  5
2268
330
2
100
AcDbEntity
  8
0
100
AcDbCircle
 10
118.6400970386537
 20
134.4215561945973
 30
0.0
 40
2.0
100
AcDbArc
 50
270.0
 51
0.0
  0
LINE
  5
2269
330
2
100
AcDbEntity
  8
0
100
AcDbLine
 10
117.6400970386537
 20
111.9215561945973
 30
0.0
 11
110.127004075937
 21
111.9215561945973
 31
0.0
  0
ARC
  5
226A
330
2
100
AcDbEntity
  8
0
100
AcDbCircle
 10
108.127004075937
 20
134.4215561945973
 30
0.0
 40
2.0
100
AcDbArc
 50
216.8698976458505
 51
270.0
  0
LINE
  5
226B
330
2
100
AcDbEntity
  8
0
100
AcDbLine
 10
118.6924582434665
 20
132.4215561945973
 30
0.0
 11
108.127004075937
 21
132.4215561945973
 31
0.0
  0
LINE
  5
226C
330
2
100
AcDbEntity
  8
0
100
AcDbLine
 10
104.127004075937
 20
134.4215561945973
 30
0.0
 11
100.6222170605471
 21
134.4215561945973
 31
0.0
  0
ARC
  5
226D
330
2
100
AcDbEntity
  8
0
100
AcDbCircle
 10
104.127004075937
 20
131.4215561945955
 30
0.0
 40
3.0
100
AcDbArc
 50
0.0
 51
90.0
  0
ARC
  5
226E
330
2
100
AcDbEntity
  8
0
100
AcDbCircle
 10
117.6400970386537
 20
114.9215561945973
 30
0.0
 40
3.0
100
AcDbArc
 50
270.0
 51
0.0
  0
ARC
  5
226F
330
2
100
AcDbEntity
  8
0
100
AcDbCircle
 10
110.127004075937
 20
114.9215561945973
 30
0.0
 40
3.0
100
AcDbArc
 50
180.0
 51
270.0
  0
ARC
  5
2270
330
2
100
AcDbEntity
  8
0
100
AcDbCircle
 10
115.6400970386632
 20
133.4215561945791
 30
0.0
 40
5.0
100
AcDbArc
 50
270.0
 51
0.0
  0
ARC
  5
2271
330
2
100
AcDbEntity
  8
0
100
AcDbCircle
 10
111.8729707683521
 20
133.4215561945791
 30
0.0
 40
5.0
100
AcDbArc
 50
194.4775121859286
 51
270.0
  0
LINE
  5
2272
330
2
100
AcDbEntity
  8
0
100
AcDbLine
 10
115.6400970386632
 20
128.4215561945791
 30
0.0
 11
111.8729707683521
 21
128.4215561945791
 31
0.0
  0
ARC
  5
2273
330
2
100
AcDbEntity
  8
0
100
AcDbCircle
 10
93.64009703866372
 20
138.9215561945882
 30
0.0
 40
2.0
100
AcDbArc
 50
0.0
 51
89.99999999994789
  0
ARC
  5
2274
330
2
100
AcDbEntity
  8
0
100
AcDbCircle
 10
100.6222170605471
 20
139.4215561945973
 30
0.0
 40
5.0
100
AcDbArc
 50
184.0960437581963
 51
270.0
  0
LINE
  5
2275
330
2
100
AcDbEntity
  8
0
100
AcDbLine
 10
117.6400970386537
 20
106.9215561945973
 30
0.0
 11
110.127004075937
 21
106.9215561945973
 31
0.0
  0
ARC
  5
2276
330
2
100
AcDbEntity
  8
0
100
AcDbCircle
 10
117.6400970386537
 20
103.9215561945973
 30
0.0
 40
3.0
100
AcDbArc
 50
0.0
 51
90.0
  0
ARC
  5
2277
330
2
100
AcDbEntity
  8
0
100
AcDbCircle
 10
110.127004075937
 20
103.9215561945973
 30
0.0
 40
3.0
100
AcDbArc
 50
90.0
 51
180.0
  0
LINE
  5
2278
330
2
100
AcDbEntity
  8
CENTER
100
AcDbLine
 10
127.1400970386628
 20
143.67155619459
 30
0.0
 11
127.1400970386628
 21
126.1715561945901
 31
0.0
  0
LINE
  5
2279
330
2
100
AcDbEntity
  8
CENTER
100
AcDbLine
 10
133.4668919579064
 20
136.92155619459
 30
0.0
 11
143.8133021194205
 21
136.92155619459
 31
0.0
  0
LINE
  5
227A
330
2
100
AcDbEntity
  8
CENTER
100
AcDbLine
 10
138.6400970386632
 20
142.0947612753469
 30
0.0
 11
138.6400970386632
 21
131.7483511138332
 31
0.0
  0
CIRCLE
  5
227B
330
2
100
AcDbEntity
  8
HOJO
100
AcDbCircle
 10
138.6400970386632
 20
136.92155619459
 30
0.0
 40
2.0
  0
ARC
  5
227C
330
2
100
AcDbEntity
  8
0
100
AcDbCircle
 10
127.1400970386628
 20
134.92155619459
 30
0.0
 40
7.0
100
AcDbArc
 50
270.0
 51
0.0
  0
LINE
  5
227D
330
2
100
AcDbEntity
  8
0
100
AcDbLine
 10
126.6400970386628
 20
141.42155619459
 30
0.0
 11
149.6400970386637
 21
141.4215561945937
 31
0.0
  0
CIRCLE
  5
227E
330
2
100
AcDbEntity
  8
0
100
AcDbCircle
 10
138.6400970386632
 20
136.92155619459
 30
0.0
 40
3.0
  0
CIRCLE
  5
227F
330
2
100
AcDbEntity
  8
0
100
AcDbCircle
 10
138.6400970386632
 20
136.92155619459
 30
0.0
 40
1.6
  0
CIRCLE
  5
2280
330
2
100
AcDbEntity
  8
0
100
AcDbCircle
 10
138.6400970386632
 20
136.92155619459
 30
0.0
 40
2.5
  0
LINE
  5
2281
330
2
100
AcDbEntity
  8
0
100
AcDbLine
 10
134.1400970386628
 20
134.92155619459
 30
0.0
 11
134.1400970386628
 21
139.4215561945919
 31
0.0
  0
ARC
  5
2282
330
2
100
AcDbEntity
  8
0
100
AcDbCircle
 10
136.1400970386628
 20
139.4215561945919
 30
0.0
 40
2.0
100
AcDbArc
 50
90.0
 51
180.0
  0
LINE
  5
2283
330
2
100
AcDbEntity
  8
0
100
AcDbLine
 10
129.6400970386628
 20
136.3649318675641
 30
0.0
 11
129.6400970386628
 21
133.478180521616
 31
0.0
  0
LINE
  5
2284
330
2
100
AcDbEntity
  8
0
100
AcDbLine
 10
127.1400970386628
 20
132.0348048486419
 30
0.0
 11
129.6400970386628
 21
133.478180521616
 31
0.0
  0
LINE
  5
2285
330
2
100
AcDbEntity
  8
0
100
AcDbLine
 10
129.6400970386628
 20
136.3649318675641
 30
0.0
 11
127.1400970386628
 21
137.8083075405382
 31
0.0
  0
LINE
  5
2286
330
2
100
AcDbEntity
  8
0
100
AcDbLine
 10
124.6400970386628
 20
136.3649318675641
 30
0.0
 11
124.6400970386628
 21
133.478180521616
 31
0.0
  0
LINE
  5
2287
330
2
100
AcDbEntity
  8
0
100
AcDbLine
 10
127.1400970386628
 20
132.0348048486419
 30
0.0
 11
124.6400970386628
 21
133.478180521616
 31
0.0
  0
LINE
  5
2288
330
2
100
AcDbEntity
  8
0
100
AcDbLine
 10
124.6400970386628
 20
136.3649318675641
 30
0.0
 11
127.1400970386628
 21
137.8083075405382
 31
0.0
  0
LINE
  5
2289
330
2
100
AcDbEntity
  8
0
100
AcDbLine
 10
127.1400970386628
 20
127.92155619459
 30
0.0
 11
122.6400970386637
 21
127.92155619459
 31
0.0
  0
CIRCLE
  5
228A
330
2
100
AcDbEntity
  8
0
100
AcDbCircle
 10
127.1400970386628
 20
134.92155619459
 30
0.0
 40
4.307179676972509
  0
LINE
  5
228B
330
2
100
AcDbEntity
  8
0
100
AcDbLine
 10
222.1400970386632
 20
143.9215561945882
 30
0.0
 11
222.1400970386632
 21
147.3028602030197
 31
0.0
  0
LINE
  5
228C
330
2
100
AcDbEntity
  8
0
100
AcDbLine
 10
213.6400970386646
 20
140.4215561945846
 30
0.0
 11
175.6400970386646
 21
140.4215561945882
 31
0.0
  0
LINE
  5
228D
330
2
100
AcDbEntity
  8
0
100
AcDbLine
 10
213.6400970386646
 20
141.4215561945846
 30
0.0
 11
175.6400970386646
 21
141.4215561945882
 31
0.0
  0
ARC
  5
228E
330
2
100
AcDbEntity
  8
0
100
AcDbCircle
 10
175.6400970386637
 20
128.4215561945846
 30
0.0
 40
12.0
100
AcDbArc
 50
90.0
 51
180.0
  0
ARC
  5
228F
330
2
100
AcDbEntity
  8
0
100
AcDbCircle
 10
175.6400970386637
 20
128.4215561945846
 30
0.0
 40
13.0
100
AcDbArc
 50
90.0
 51
180.0
  0
LINE
  5
2290
330
2
100
AcDbEntity
  8
0
100
AcDbLine
 10
167.1548156644246
 20
136.9068375688228
 30
0.0
 11
166.4477088832379
 21
137.6139443500094
 31
0.0
  0
LINE
  5
2291
330
2
100
AcDbEntity
  8
0
100
AcDbLine
 10
222.832485194084
 20
137.6139443500131
 30
0.0
 11
222.1253784128978
 21
136.9068375688264
 31
0.0
  0
ARC
  5
2292
330
2
100
AcDbEntity
  8
0
100
AcDbCircle
 10
194.6400970386637
 20
-19.57844380541172
 30
0.0
 40
170.0
100
AcDbArc
 50
83.82300359510916
 51
96.17699640489085
  0
ARC
  5
2293
330
2
100
AcDbEntity
  8
0
100
AcDbCircle
 10
172.0440535984741
 20
189.2023475065496
 30
0.0
 40
40.0
100
AcDbArc
 50
256.6323257973707
 51
276.1769964048908
  0
LINE
  5
2294
330
2
100
AcDbEntity
  8
0
100
AcDbLine
 10
161.6400970386637
 20
150.4215561945882
 30
0.0
 11
158.6400970386637
 21
150.4215561945882
 31
0.0
  0
ARC
  5
2295
330
2
100
AcDbEntity
  8
0
100
AcDbCircle
 10
161.6400970386637
 20
145.4215561945882
 30
0.0
 40
5.0
100
AcDbArc
 50
76.63232579737074
 51
90.0
  0
ARC
  5
2296
330
2
100
AcDbEntity
  8
0
100
AcDbCircle
 10
220.1400970386632
 20
147.3028602030197
 30
0.0
 40
2.0
100
AcDbArc
 50
0.0
 51
93.96469786020883
  0
LINE
  5
22A1
330
2
100
AcDbEntity
  8
0
100
AcDbLine
 10
324.2808511358937
 20
150.4244650848391
 30
0.0
 11
382.2808511358942
 21
149.9183067529753
 31
0.0
  0
LINE
  5
22A2
330
2
100
AcDbEntity
  8
0
100
AcDbLine
 10
324.2808511358941
 20
68.42155619458896
 30
0.0
 11
382.2808511358946
 21
68.92771452645281
 31
0.0
  0
LINE
  5
22A3
330
2
100
AcDbEntity
  8
0
100
AcDbLine
 10
324.2808511358941
 20
73.42155619458714
 30
0.0
 11
381.2808511358946
 21
73.42155619458714
 31
0.0
  0
LINE
  5
22A4
330
2
100
AcDbEntity
  8
0
100
AcDbLine
 10
324.2808511358941
 20
76.42155619458714
 30
0.0
 11
381.2808511358946
 21
76.42155619458714
 31
0.0
  0
LINE
  5
22A5
330
2
100
AcDbEntity
  8
0
100
AcDbLine
 10
324.2808511358941
 20
91.12952102871856
 30
0.0
 11
381.2808511358946
 21
91.12952102871856
 31
0.0
  0
LINE
  5
22A6
330
2
100
AcDbEntity
  8
0
100
AcDbLine
 10
324.2808511358946
 20
145.4215561945889
 30
0.0
 11
381.2808511358946
 21
145.4215561945889
 31
0.0
  0
LINE
  5
22A7
330
2
100
AcDbEntity
  8
0
100
AcDbLine
 10
324.2808511358946
 20
142.4215561945889
 30
0.0
 11
381.2808511358946
 21
142.4215561945889
 31
0.0
  0
LINE
  5
22A8
330
2
100
AcDbEntity
  8
0
100
AcDbLine
 10
324.2808511358946
 20
127.7135913604575
 30
0.0
 11
381.2808511358946
 21
127.7135913604575
 31
0.0
  0
LINE
  5
22A9
330
2
100
AcDbEntity
  8
CENTER
100
AcDbLine
 10
292.2808511358905
 20
109.4215561945894
 30
0.0
 11
442.2808511358946
 21
109.4215561945864
 31
0.0
  0
LINE
  5
22AB
330
2
100
AcDbEntity
  8
0
100
AcDbLine
 10
304.7808511358946
 20
83.12155619458787
 30
0.0
 11
304.7808511358946
 21
135.7215561945882
 31
0.0
  0
LINE
  5
22AC
330
2
100
AcDbEntity
  8
0
100
AcDbLine
 10
310.2808511358928
 20
137.9215561945889
 30
0.0
 11
310.2808511358928
 21
80.92155619459077
 31
0.0
  0
LINE
  5
22AD
330
2
100
AcDbEntity
  8
0
100
AcDbLine
 10
311.7808511358896
 20
79.92155619458896
 30
0.0
 11
311.7808511358896
 21
138.9215561945889
 31
0.0
  0
LINE
  5
22AE
330
2
100
AcDbEntity
  8
0
100
AcDbLine
 10
310.7808511358878
 20
79.92155619458896
 30
0.0
 11
310.7808511358878
 21
138.9215561945889
 31
0.0
  0
LINE
  5
22AF
330
2
100
AcDbEntity
  8
0
100
AcDbLine
 10
302.280851135891
 20
83.49890646377895
 30
0.0
 11
302.28085113589
 21
135.3442059253971
 31
0.0
  0
LINE
  5
22B0
330
2
100
AcDbEntity
  8
0
100
AcDbLine
 10
306.7808511358928
 20
135.7215561945882
 30
0.0
 11
306.7808511358532
 21
83.1215561946297
 31
0.0
  0
LINE
  5
22B1
330
2
100
AcDbEntity
  8
0
100
AcDbLine
 10
303.2808511358946
 20
82.92155619458714
 30
0.0
 11
303.2808511358928
 21
135.9215561945889
 31
0.0
  0
LINE
  5
22B2
330
2
100
AcDbEntity
  8
0
100
AcDbLine
 10
306.9808511358926
 20
135.9215561945889
 30
0.0
 11
306.9808511358944
 21
82.92155619458714
 31
0.0
  0
LINE
  5
22B3
330
2
100
AcDbEntity
  8
0
100
AcDbLine
 10
324.2808511358919
 20
150.4215561945889
 30
0.0
 11
324.2808511358969
 21
68.42155619458896
 31
0.0
  0
ARC
  5
22B4
330
2
100
AcDbEntity
  8
0
100
AcDbCircle
 10
65.64009703866327
 20
109.4215561945882
 30
0.0
 40
170.0
100
AcDbArc
 50
353.8230035951094
 51
6.176996404890589
  0
LINE
  5
22B5
330
2
100
AcDbEntity
  8
0
100
AcDbLine
 10
225.6400970386637
 20
90.42155619459192
 30
0.0
 11
225.6400970386637
 21
128.4215561945882
 31
0.0
  0
LINE
  5
22B6
330
2
100
AcDbEntity
  8
0
100
AcDbLine
 10
226.6400970386637
 20
90.42155619459192
 30
0.0
 11
226.6400970386637
 21
128.4215561945882
 31
0.0
  0
CIRCLE
  5
22B7
330
2
100
AcDbEntity
  8
HOJO
100
AcDbCircle
 10
229.6400970386628
 20
86.42155619458828
 30
0.0
 40
2.0
  0
ARC
  5
22B8
330
2
100
AcDbEntity
  8
0
100
AcDbCircle
 10
232.5214010470947
 20
83.92155619458828
 30
0.0
 40
2.0
100
AcDbArc
 50
270.0
 51
3.964697860208077
  0
ARC
  5
22B9
330
2
100
AcDbEntity
  8
0
100
AcDbCircle
 10
274.420888350625
 20
86.82551275439875
 30
0.0
 40
40.0
100
AcDbArc
 50
173.8230035951094
 51
193.3676742026306
  0
ARC
  5
22BA
330
2
100
AcDbEntity
  8
0
100
AcDbCircle
 10
230.6400970386632
 20
73.42155619458828
 30
0.0
 40
5.0
100
AcDbArc
 50
270.0
 51
0.0
  0
ARC
  5
22BB
330
2
100
AcDbEntity
  8
0
100
AcDbCircle
 10
230.6400970386632
 20
76.42155619458828
 30
0.0
 40
5.0
100
AcDbArc
 50
0.0
 51
13.3676742026306
  0
LINE
  5
22BC
330
2
100
AcDbEntity
  8
0
100
AcDbLine
 10
235.6400970386637
 20
73.42155619458828
 30
0.0
 11
235.6400970386637
 21
76.42155619458828
 31
0.0
  0
CIRCLE
  5
22BD
330
2
100
AcDbEntity
  8
0
100
AcDbCircle
 10
229.6400970386628
 20
86.42155619458828
 30
0.0
 40
3.0
  0
CIRCLE
  5
22BE
330
2
100
AcDbEntity
  8
0
100
AcDbCircle
 10
229.6400970386628
 20
86.42155619458828
 30
0.0
 40
1.6
  0
CIRCLE
  5
22BF
330
2
100
AcDbEntity
  8
0
100
AcDbCircle
 10
229.6400970386628
 20
86.42155619458828
 30
0.0
 40
2.5
  0
LINE
  5
22C0
330
2
100
AcDbEntity
  8
0
100
AcDbLine
 10
229.1400970386632
 20
81.92155619458828
 30
0.0
 11
232.5214010470947
 21
81.92155619458828
 31
0.0
  0
ARC
  5
22C1
330
2
100
AcDbEntity
  8
0
100
AcDbCircle
 10
227.6400970386632
 20
73.42155619458828
 30
0.0
 40
5.0
100
AcDbArc
 50
256.6323257973707
 51
270.0
  0
LINE
  5
22C2
330
2
100
AcDbEntity
  8
0
100
AcDbLine
 10
230.6400970386632
 20
68.42155619458828
 30
0.0
 11
227.6400970386632
 21
68.42155619458828
 31
0.0
  0
LINE
  5
22C3
330
2
100
AcDbEntity
  8
0
100
AcDbLine
 10
231.6400970386701
 20
76.36493186756235
 30
0.0
 11
231.6400970386701
 21
73.47818052161421
 31
0.0
  0
LINE
  5
22C4
330
2
100
AcDbEntity
  8
0
100
AcDbLine
 10
229.1400970386696
 20
72.03480484864013
 30
0.0
 11
231.6400970386701
 21
73.47818052161421
 31
0.0
  0
LINE
  5
22C5
330
2
100
AcDbEntity
  8
0
100
AcDbLine
 10
231.6400970386701
 20
76.36493186756235
 30
0.0
 11
229.1400970386701
 21
77.80830754053642
 31
0.0
  0
LINE
  5
22C6
330
2
100
AcDbEntity
  8
0
100
AcDbLine
 10
226.6400970386701
 20
76.36493186756235
 30
0.0
 11
226.6400970386701
 21
73.47818052161421
 31
0.0
  0
LINE
  5
22C7
330
2
100
AcDbEntity
  8
0
100
AcDbLine
 10
229.1400970386696
 20
72.03480484864013
 30
0.0
 11
226.6400970386701
 21
73.47818052161421
 31
0.0
  0
LINE
  5
22C8
330
2
100
AcDbEntity
  8
0
100
AcDbLine
 10
226.6400970386701
 20
76.36493186756235
 30
0.0
 11
229.1400970386701
 21
77.80830754053642
 31
0.0
  0
LINE
  5
22C9
330
2
100
AcDbEntity
  8
CENTER
100
AcDbLine
 10
229.6400970386628
 20
90.71516435889753
 30
0.0
 11
229.6400970386628
 21
82.12794803027719
 31
0.0
  0
LINE
  5
22CA
330
2
100
AcDbEntity
  8
CENTER
100
AcDbLine
 10
229.1400970386714
 20
66.17155619459373
 30
0.0
 11
229.1400970386682
 21
83.67155619459373
 31
0.0
  0
LINE
  5
22CB
330
2
100
AcDbEntity
  8
0
100
AcDbLine
 10
324.2808511358969
 20
68.42155619458896
 30
0.0
 11
312.7721246003914
 21
68.52199132950369
 31
0.0
  0
LINE
  5
22CC
330
2
100
AcDbEntity
  8
0
100
AcDbLine
 10
324.2808511358955
 20
91.12952102872037
 30
0.0
 11
312.78085113589
 21
91.12952102872037
 31
0.0
  0
LINE
  5
22CD
330
2
100
AcDbEntity
  8
0
100
AcDbLine
 10
312.7721246003909
 20
81.95653982107392
 30
0.0
 11
316.2852144036376
 21
81.92588155082336
 31
0.0
  0
LINE
  5
22CE
330
2
100
AcDbEntity
  8
0
100
AcDbLine
 10
316.7808511358882
 20
79.92155619458896
 30
0.0
 11
309.6808511358883
 21
79.92155619458896
 31
0.0
  0
LINE
  5
22CF
330
2
100
AcDbEntity
  8
0
100
AcDbLine
 10
316.7808511358882
 20
69.92155619458896
 30
0.0
 11
309.6808511358883
 21
69.92155619458896
 31
0.0
  0
LINE
  5
22D0
330
2
100
AcDbEntity
  8
CENTER
100
AcDbLine
 10
304.7021832257921
 20
74.92155619458896
 30
0.0
 11
329.2650369021737
 21
74.92155619458896
 31
0.0
  0
LINE
  5
22D1
330
2
100
AcDbEntity
  8
HIDS
100
AcDbLine
 10
311.4879579170758
 20
77.71444941340047
 30
0.0
 11
311.0737443547034
 21
78.12866297577198
 31
0.0
  0
LINE
  5
22D2
330
2
100
AcDbEntity
  8
0
100
AcDbLine
 10
310.2808511358928
 20
80.92155619459077
 30
0.0
 11
310.7808511358955
 21
80.42155619458895
 31
0.0
  0
LINE
  5
22D3
330
2
100
AcDbEntity
  8
0
100
AcDbLine
 10
311.7808511358896
 20
69.52195325256758
 30
0.0
 11
311.7808511358896
 21
69.92155619458896
 31
0.0
  0
LINE
  5
22D4
330
2
100
AcDbEntity
  8
HIDS
100
AcDbLine
 10
311.7808511358891
 20
69.92155619458896
 30
0.0
 11
311.7808511358896
 21
79.92155619458896
 31
0.0
  0
ARC
  5
22D5
330
2
100
AcDbEntity
  8
0
100
AcDbCircle
 10
312.7808511358896
 20
69.52195325256758
 30
0.0
 40
1.0
100
AcDbArc
 50
180.0
 51
269.5000000000345
  0
LINE
  5
22D6
330
2
100
AcDbEntity
  8
HIDS
100
AcDbLine
 10
310.7808511358878
 20
78.83576975695866
 30
0.0
 11
310.7808511358882
 21
79.92155619458896
 31
0.0
  0
ARC
  5
22D7
330
2
100
AcDbEntity
  8
HIDS
100
AcDbCircle
 10
311.7808511358901
 20
78.83576975695866
 30
0.0
 40
1.0
100
AcDbArc
 50
180.0
 51
224.9999999999908
  0
ARC
  5
22D8
330
2
100
AcDbEntity
  8
HIDS
100
AcDbCircle
 10
310.78085113589
 20
77.00734263221381
 30
0.0
 40
1.0
100
AcDbArc
 50
0.0
 51
44.99999999999078
  0
ARC
  5
22D9
330
2
100
AcDbEntity
  8
0
100
AcDbCircle
 10
312.7808511358892
 20
82.95650174414147
 30
0.0
 40
1.0
100
AcDbArc
 50
180.0
 51
269.5000000000345
  0
LINE
  5
22DA
330
2
100
AcDbEntity
  8
0
100
AcDbLine
 10
309.6808511358883
 20
79.92155619458896
 30
0.0
 11
309.2808511358882
 21
79.22873587156169
 31
0.0
  0
LINE
  5
22DB
330
2
100
AcDbEntity
  8
0
100
AcDbLine
 10
309.6808511358883
 20
79.92155619458896
 30
0.0
 11
309.6808511358883
 21
69.92155619458896
 31
0.0
  0
LINE
  5
22DC
330
2
100
AcDbEntity
  8
0
100
AcDbLine
 10
309.6808511358883
 20
69.92155619458896
 30
0.0
 11
309.2808511358882
 21
70.61437651761622
 31
0.0
  0
LINE
  5
22DD
330
2
100
AcDbEntity
  8
0
100
AcDbLine
 10
309.2808511358882
 20
79.22873587156169
 30
0.0
 11
309.2808511358882
 21
70.61437651761622
 31
0.0
  0
LINE
  5
22DE
330
2
100
AcDbEntity
  8
0
100
AcDbLine
 10
309.6808511358924
 20
82.92155619458805
 30
0.0
 11
309.6808511358883
 21
79.92155619458896
 31
0.0
  0
LINE
  5
22DF
330
2
100
AcDbEntity
  8
0
100
AcDbLine
 10
309.3921760012942
 20
79.42155619459078
 30
0.0
 11
309.2808511358923
 21
79.61437651761349
 31
0.0
  0
LINE
  5
22E0
330
2
100
AcDbEntity
  8
0
100
AcDbLine
 10
309.2808511358928
 20
82.92155619458805
 30
0.0
 11
309.2808511358923
 21
79.61437651761349
 31
0.0
  0
LINE
  5
22E1
330
2
100
AcDbEntity
  8
0
100
AcDbLine
 10
303.2808511358946
 20
82.92155619458714
 30
0.0
 11
302.2808511358946
 21
83.49890646377714
 31
0.0
  0
LINE
  5
22E2
330
2
100
AcDbEntity
  8
0
100
AcDbLine
 10
304.9808511358944
 20
83.62155619458787
 30
0.0
 11
306.5808511358948
 21
83.62155619458787
 31
0.0
  0
LINE
  5
22E3
330
2
100
AcDbEntity
  8
0
100
AcDbLine
 10
306.7808511358946
 20
83.12155619458787
 30
0.0
 11
306.9808511358944
 21
82.92155619458714
 31
0.0
  0
LINE
  5
22E4
330
2
100
AcDbEntity
  8
0
100
AcDbLine
 10
303.2808511358946
 20
82.92155619458714
 30
0.0
 11
304.5808511358948
 21
82.92155619458714
 31
0.0
  0
ARC
  5
22E5
330
2
100
AcDbEntity
  8
0
100
AcDbCircle
 10
304.5808511358948
 20
83.12155619458787
 30
0.0
 40
0.2
100
AcDbArc
 50
270.0
 51
0.0
  0
ARC
  5
22E6
330
2
100
AcDbEntity
  8
0
100
AcDbCircle
 10
304.9808511358944
 20
83.42155619458713
 30
0.0
 40
0.2
100
AcDbArc
 50
90.0
 51
180.0
  0
ARC
  5
22E7
330
2
100
AcDbEntity
  8
0
100
AcDbCircle
 10
306.5808511358948
 20
83.42155619458713
 30
0.0
 40
0.2
100
AcDbArc
 50
0.0
 51
90.0
  0
LINE
  5
22E8
330
2
100
AcDbEntity
  8
0
100
AcDbLine
 10
306.9808511358944
 20
82.92155619458714
 30
0.0
 11
310.2808511358946
 21
82.92155619458895
 31
0.0
  0
LINE
  5
22E9
330
2
100
AcDbEntity
  8
0
100
AcDbLine
 10
324.2808511358964
 20
73.42155619458896
 30
0.0
 11
317.77212460039
 21
73.42155619458896
 31
0.0
  0
LINE
  5
22EA
330
2
100
AcDbEntity
  8
0
100
AcDbLine
 10
324.2808511358964
 20
76.42155619458896
 30
0.0
 11
317.77212460039
 21
76.42155619458896
 31
0.0
  0
LINE
  5
22EB
330
2
100
AcDbEntity
  8
0
100
AcDbLine
 10
316.7808511358882
 20
81.4259005892905
 30
0.0
 11
316.7808511358882
 21
69.47831891361381
 31
0.0
  0
ARC
  5
22EC
330
2
100
AcDbEntity
  8
0
100
AcDbCircle
 10
316.2808511358887
 20
81.42590058929233
 30
0.0
 40
0.5
100
AcDbArc
 50
0.0
 51
89.5000000000345
  0
ARC
  5
22ED
330
2
100
AcDbEntity
  8
0
100
AcDbCircle
 10
317.7808511358882
 20
69.47831891361381
 30
0.0
 40
1.0
100
AcDbArc
 50
180.0
 51
269.5000000000345
  0
LINE
  5
22EE
330
2
100
AcDbEntity
  8
0
100
AcDbLine
 10
315.2808511358882
 20
79.92155619458896
 30
0.0
 11
315.2808511358882
 21
69.92155619458896
 31
0.0
  0
LINE
  5
22EF
330
2
100
AcDbEntity
  8
0
100
AcDbLine
 10
235.6400970386637
 20
142.4215561945882
 30
0.0
 11
235.6400970386637
 21
145.4215561945882
 31
0.0
  0
LINE
  5
22F0
330
2
100
AcDbEntity
  8
0
100
AcDbLine
 10
231.6400970386701
 20
145.3649318675623
 30
0.0
 11
231.6400970386701
 21
142.4781805216142
 31
0.0
  0
LINE
  5
22F1
330
2
100
AcDbEntity
  8
0
100
AcDbLine
 10
226.6400970386701
 20
145.3649318675623
 30
0.0
 11
226.6400970386701
 21
142.4781805216142
 31
0.0
  0
LINE
  5
22F2
330
2
100
AcDbEntity
  8
CENTER
100
AcDbLine
 10
229.1400970386714
 20
152.671556194581
 30
0.0
 11
229.1400970386682
 21
135.171556194581
 31
0.0
  0
CIRCLE
  5
22F3
330
2
100
AcDbEntity
  8
HOJO
100
AcDbCircle
 10
229.6400970386628
 20
132.4215561945882
 30
0.0
 40
2.0
  0
ARC
  5
22F4
330
2
100
AcDbEntity
  8
0
100
AcDbCircle
 10
232.5214010470947
 20
134.9215561945882
 30
0.0
 40
2.0
100
AcDbArc
 50
356.0353021397919
 51
90.0
  0
ARC
  5
22F5
330
2
100
AcDbEntity
  8
0
100
AcDbCircle
 10
274.4208883506255
 20
132.0175996347778
 30
0.0
 40
40.0
100
AcDbArc
 50
166.6323257973694
 51
186.1769964048906
  0
ARC
  5
22F6
330
2
100
AcDbEntity
  8
0
100
AcDbCircle
 10
230.6400970386632
 20
142.4215561945882
 30
0.0
 40
5.0
100
AcDbArc
 50
346.6323257973694
 51
0.0
  0
CIRCLE
  5
22F7
330
2
100
AcDbEntity
  8
0
100
AcDbCircle
 10
229.6400970386628
 20
132.4215561945882
 30
0.0
 40
1.6
  0
CIRCLE
  5
22F8
330
2
100
AcDbEntity
  8
0
100
AcDbCircle
 10
229.6400970386628
 20
132.4215561945882
 30
0.0
 40
2.5
  0
CIRCLE
  5
22F9
330
2
100
AcDbEntity
  8
0
100
AcDbCircle
 10
229.6400970386628
 20
132.4215561945882
 30
0.0
 40
3.0
  0
LINE
  5
22FA
330
2
100
AcDbEntity
  8
0
100
AcDbLine
 10
229.1400970386632
 20
136.9215561945882
 30
0.0
 11
232.5214010470947
 21
136.9215561945882
 31
0.0
  0
LINE
  5
22FB
330
2
100
AcDbEntity
  8
0
100
AcDbLine
 10
229.1400970386696
 20
141.0348048486401
 30
0.0
 11
231.6400970386701
 21
142.4781805216142
 31
0.0
  0
LINE
  5
22FC
330
2
100
AcDbEntity
  8
0
100
AcDbLine
 10
229.1400970386696
 20
141.0348048486401
 30
0.0
 11
226.6400970386701
 21
142.4781805216142
 31
0.0
  0
LINE
  5
22FD
330
2
100
AcDbEntity
  8
CENTER
100
AcDbLine
 10
229.6400970386628
 20
128.1279480302772
 30
0.0
 11
229.6400970386628
 21
136.7151643588975
 31
0.0
  0
ARC
  5
22FE
330
2
100
AcDbEntity
  8
0
100
AcDbCircle
 10
227.6400970386632
 20
145.4215561945882
 30
0.0
 40
5.0
100
AcDbArc
 50
90.0
 51
103.3676742026292
  0
LINE
  5
22FF
330
2
100
AcDbEntity
  8
0
100
AcDbLine
 10
230.6400970386632
 20
150.4215561945882
 30
0.0
 11
227.6400970386632
 21
150.4215561945882
 31
0.0
  0
LINE
  5
2300
330
2
100
AcDbEntity
  8
0
100
AcDbLine
 10
231.6400970386701
 20
145.3649318675623
 30
0.0
 11
229.1400970386701
 21
146.8083075405364
 31
0.0
  0
LINE
  5
2301
330
2
100
AcDbEntity
  8
0
100
AcDbLine
 10
226.6400970386701
 20
145.3649318675623
 30
0.0
 11
229.1400970386701
 21
146.8083075405364
 31
0.0
  0
ARC
  5
2302
330
2
100
AcDbEntity
  8
0
100
AcDbCircle
 10
230.6400970386632
 20
145.4215561945882
 30
0.0
 40
5.0
100
AcDbArc
 50
0.0
 51
90.0
  0
LINE
  5
2303
330
2
100
AcDbEntity
  8
0
100
AcDbLine
 10
309.2808511358882
 20
139.6143765176162
 30
0.0
 11
309.2808511358882
 21
148.2287358715616
 31
0.0
  0
LINE
  5
2304
330
2
100
AcDbEntity
  8
0
100
AcDbLine
 10
324.2808511358937
 20
140.5183303881363
 30
0.0
 11
324.2808511358937
 21
150.4244650848391
 31
0.0
  0
LINE
  5
2305
330
2
100
AcDbEntity
  8
HIDS
100
AcDbLine
 10
311.7808511358896
 20
138.9215561945889
 30
0.0
 11
311.7808511358896
 21
148.9215561945889
 31
0.0
  0
LINE
  5
2306
330
2
100
AcDbEntity
  8
0
100
AcDbLine
 10
316.7808511358882
 20
137.4172117998855
 30
0.0
 11
316.7808511358882
 21
149.3647934755623
 31
0.0
  0
LINE
  5
2307
330
2
100
AcDbEntity
  8
0
100
AcDbLine
 10
315.2808511358882
 20
138.9215561945889
 30
0.0
 11
315.2808511358882
 21
148.9215561945889
 31
0.0
  0
LINE
  5
2308
330
2
100
AcDbEntity
  8
0
100
AcDbLine
 10
309.6808511358883
 20
138.9215561945889
 30
0.0
 11
309.6808511358883
 21
148.9215561945889
 31
0.0
  0
LINE
  5
2309
330
2
100
AcDbEntity
  8
0
100
AcDbLine
 10
316.7808511358882
 20
148.9215561945889
 30
0.0
 11
316.7808511358882
 21
138.9215561945889
 31
0.0
  0
LINE
  5
230A
330
2
100
AcDbEntity
  8
0
100
AcDbLine
 10
324.2808511358937
 20
127.7135913604575
 30
0.0
 11
312.78085113589
 21
127.7135913604575
 31
0.0
  0
LINE
  5
230B
330
2
100
AcDbEntity
  8
0
100
AcDbLine
 10
312.7721246003909
 20
136.8865725681039
 30
0.0
 11
316.2852144036376
 21
136.9172308383527
 31
0.0
  0
LINE
  5
230C
330
2
100
AcDbEntity
  8
0
100
AcDbLine
 10
316.7808511358882
 20
138.9215561945889
 30
0.0
 11
309.6808511358883
 21
138.9215561945889
 31
0.0
  0
LINE
  5
230D
330
2
100
AcDbEntity
  8
CENTER
100
AcDbLine
 10
304.7021832257926
 20
143.9215561945889
 30
0.0
 11
329.2650369021742
 21
143.9215561945889
 31
0.0
  0
LINE
  5
230E
330
2
100
AcDbEntity
  8
0
100
AcDbLine
 10
310.2808511358882
 20
135.9215561945889
 30
0.0
 11
310.2808511358882
 21
137.9215561945835
 31
0.0
  0
LINE
  5
230F
330
2
100
AcDbEntity
  8
0
100
AcDbLine
 10
310.2808511358928
 20
137.9215561945889
 30
0.0
 11
310.7808511358928
 21
138.4215561945889
 31
0.0
  0
LINE
  5
2310
330
2
100
AcDbEntity
  8
HIDS
100
AcDbLine
 10
311.4879579170758
 20
141.1286629757756
 30
0.0
 11
311.0737443547016
 21
140.7144494134023
 31
0.0
  0
LINE
  5
2311
330
2
100
AcDbEntity
  8
HIDS
100
AcDbLine
 10
310.7808511358878
 20
138.9215561945889
 30
0.0
 11
310.7808511358878
 21
140.0073426322156
 31
0.0
  0
ARC
  5
2312
330
2
100
AcDbEntity
  8
HIDS
100
AcDbCircle
 10
311.7808511358878
 20
140.0073426322156
 30
0.0
 40
1.0
100
AcDbArc
 50
135.0000000000092
 51
180.0
  0
ARC
  5
2313
330
2
100
AcDbEntity
  8
HIDS
100
AcDbCircle
 10
310.78085113589
 20
141.8357697569641
 30
0.0
 40
1.0
100
AcDbArc
 50
315.0000000000092
 51
0.0
  0
ARC
  5
2314
330
2
100
AcDbEntity
  8
0
100
AcDbCircle
 10
312.7808511358892
 20
135.8866106450346
 30
0.0
 40
1.0
100
AcDbArc
 50
90.49999999996549
 51
180.0
  0
LINE
  5
2315
330
2
100
AcDbEntity
  8
0
100
AcDbLine
 10
309.6808511358883
 20
138.9215561945889
 30
0.0
 11
309.2808511358882
 21
139.6143765176162
 31
0.0
  0
LINE
  5
2316
330
2
100
AcDbEntity
  8
0
100
AcDbLine
 10
309.6808511358924
 20
135.9215561945889
 30
0.0
 11
309.6808511358883
 21
138.9215561945889
 31
0.0
  0
LINE
  5
2317
330
2
100
AcDbEntity
  8
0
100
AcDbLine
 10
309.3921760012947
 20
139.4215561945862
 30
0.0
 11
309.2808511358923
 21
139.2287358715626
 31
0.0
  0
LINE
  5
2318
330
2
100
AcDbEntity
  8
0
100
AcDbLine
 10
309.2808511358928
 20
135.9215561945889
 30
0.0
 11
309.2808511358923
 21
139.2287358715626
 31
0.0
  0
LINE
  5
2319
330
2
100
AcDbEntity
  8
0
100
AcDbLine
 10
303.2808511358928
 20
135.9215561945889
 30
0.0
 11
304.5808511358929
 21
135.9215561945889
 31
0.0
  0
LINE
  5
231A
330
2
100
AcDbEntity
  8
0
100
AcDbLine
 10
306.7808511358928
 20
135.7215561945882
 30
0.0
 11
306.9808511358926
 21
135.9215561945889
 31
0.0
  0
LINE
  5
231B
330
2
100
AcDbEntity
  8
0
100
AcDbLine
 10
304.9808511358926
 20
135.2215561945882
 30
0.0
 11
306.5808511358929
 21
135.2215561945882
 31
0.0
  0
LINE
  5
231C
330
2
100
AcDbEntity
  8
0
100
AcDbLine
 10
303.2808511358928
 20
135.9215561945889
 30
0.0
 11
302.2808511358928
 21
135.3442059253989
 31
0.0
  0
ARC
  5
231D
330
2
100
AcDbEntity
  8
0
100
AcDbCircle
 10
304.5808511358929
 20
135.7215561945882
 30
0.0
 40
0.2
100
AcDbArc
 50
0.0
 51
90.0
  0
ARC
  5
231E
330
2
100
AcDbEntity
  8
0
100
AcDbCircle
 10
304.9808511358926
 20
135.4215561945889
 30
0.0
 40
0.2
100
AcDbArc
 50
180.0
 51
270.0
  0
ARC
  5
231F
330
2
100
AcDbEntity
  8
0
100
AcDbCircle
 10
306.5808511358929
 20
135.4215561945889
 30
0.0
 40
0.2
100
AcDbArc
 50
270.0
 51
0.0
  0
LINE
  5
2320
330
2
100
AcDbEntity
  8
0
100
AcDbLine
 10
306.9808511358926
 20
135.9215561945889
 30
0.0
 11
310.2808511358928
 21
135.9215561945889
 31
0.0
  0
LINE
  5
2321
330
2
100
AcDbEntity
  8
0
100
AcDbLine
 10
324.2808511358928
 20
142.4215561945889
 30
0.0
 11
317.7721246003905
 21
142.4215561945889
 31
0.0
  0
ARC
  5
2322
330
2
100
AcDbEntity
  8
0
100
AcDbCircle
 10
316.2808511358887
 20
137.4172117998855
 30
0.0
 40
0.5
100
AcDbArc
 50
270.4999999999654
 51
0.0
  0
LINE
  5
2323
330
2
100
AcDbEntity
  8
0
100
AcDbLine
 10
324.2808511358919
 20
150.4215561945889
 30
0.0
 11
312.7721246003914
 21
150.3211210596724
 31
0.0
  0
LINE
  5
2324
330
2
100
AcDbEntity
  8
0
100
AcDbLine
 10
316.7808511358882
 20
148.9215561945889
 30
0.0
 11
309.6808511358883
 21
148.9215561945889
 31
0.0
  0
LINE
  5
2325
330
2
100
AcDbEntity
  8
0
100
AcDbLine
 10
311.7808511358901
 20
148.9215561945889
 30
0.0
 11
311.7808511358901
 21
149.3211591366085
 31
0.0
  0
ARC
  5
2326
330
2
100
AcDbEntity
  8
0
100
AcDbCircle
 10
312.7808511358896
 20
149.3211591366085
 30
0.0
 40
1.0
100
AcDbArc
 50
90.49999999996549
 51
180.0
  0
LINE
  5
2327
330
2
100
AcDbEntity
  8
0
100
AcDbLine
 10
309.6808511358883
 20
148.9215561945889
 30
0.0
 11
309.2808511358882
 21
148.2287358715616
 31
0.0
  0
ARC
  5
2328
330
2
100
AcDbEntity
  8
0
100
AcDbCircle
 10
317.7808511358882
 20
149.3647934755623
 30
0.0
 40
1.0
100
AcDbArc
 50
90.49999999996549
 51
180.0
  0
LINE
  5
2329
330
2
100
AcDbEntity
  8
0
100
AcDbLine
 10
324.2808511358919
 20
145.4215561945889
 30
0.0
 11
317.77212460039
 21
145.4215561945889
 31
0.0
  0
LINE
  5
232E
330
2
100
AcDbEntity
  8
0
100
AcDbLine
 10
387.2808511358937
 20
74.42155619458896
 30
0.0
 11
387.2808511358937
 21
144.4215561945889
 31
0.0
  0
LINE
  5
232F
330
2
100
AcDbEntity
  8
0
100
AcDbLine
 10
400.2808511358955
 20
83.35293374420468
 30
0.0
 11
400.2808511358937
 21
135.4901786449732
 31
0.0
  0
LINE
  5
2332
330
2
100
AcDbEntity
  8
0
100
AcDbLine
 10
382.2808511358946
 20
68.92771452645281
 30
0.0
 11
382.2808511358942
 21
149.9183067529753
 31
0.0
  0
LINE
  5
2333
330
2
100
AcDbEntity
  8
CENTER
100
AcDbLine
 10
349.2808511358946
 20
58.63972788935786
 30
0.0
 11
349.280851135895
 21
160.2062933900702
 31
0.0
  0
LINE
  5
2335
330
2
100
AcDbEntity
  8
0
100
AcDbLine
 10
382.2808511358946
 20
74.42155619458896
 30
0.0
 11
387.2808511358946
 21
74.42155619458896
 31
0.0
  0
ARC
  5
2336
330
2
100
AcDbEntity
  8
0
100
AcDbCircle
 10
389.2808511358937
 20
79.03620864158217
 30
0.0
 40
2.0
100
AcDbArc
 50
92.00000000000365
 51
180.0
  0
ARC
  5
2337
330
2
100
AcDbEntity
  8
0
100
AcDbCircle
 10
398.2808511358946
 20
83.35293374420468
 30
0.0
 40
2.0
100
AcDbArc
 50
272.0000000000036
 51
0.0
  0
LINE
  5
2338
330
2
100
AcDbEntity
  8
0
100
AcDbLine
 10
398.3506501292997
 20
81.35415209016679
 30
0.0
 11
389.2110521424886
 21
81.03499029562005
 31
0.0
  0
LINE
  5
2340
330
2
100
AcDbEntity
  8
0
100
AcDbLine
 10
382.2808511358946
 20
144.4215561945889
 30
0.0
 11
387.2808511358946
 21
144.4215561945889
 31
0.0
  0
ARC
  5
2341
330
2
100
AcDbEntity
  8
0
100
AcDbCircle
 10
389.2808511358937
 20
139.8069037475957
 30
0.0
 40
2.0
100
AcDbArc
 50
180.0
 51
267.9999999999963
  0
ARC
  5
2342
330
2
100
AcDbEntity
  8
0
100
AcDbCircle
 10
398.2808511358946
 20
135.4901786449732
 30
0.0
 40
2.0
100
AcDbArc
 50
0.0
 51
87.99999999999636
  0
LINE
  5
2343
330
2
100
AcDbEntity
  8
0
100
AcDbLine
 10
398.3506501292997
 20
137.4889602990129
 30
0.0
 11
389.2110521424886
 21
137.8081220935578
 31
0.0
  0
CIRCLE
  5
234A
330
2
100
AcDbEntity
  8
0
100
AcDbCircle
 10
613.4848237678432
 20
109.4215561945882
 30
0.0
 40
28.0
  0
CIRCLE
  5
234B
330
2
100
AcDbEntity
  8
0
100
AcDbCircle
 10
613.4848237678422
 20
109.4215561945882
 30
0.0
 40
35.00000000000011
  0
ARC
  5
234C
330
2
100
AcDbEntity
  8
0
100
AcDbCircle
 10
636.0808672080309
 20
189.2023475065496
 30
0.0
 40
40.0
100
AcDbArc
 50
263.8230035951091
 51
283.3676742026292
  0
ARC
  5
234D
330
2
100
AcDbEntity
  8
0
100
AcDbCircle
 10
636.0808672080309
 20
29.64076488262691
 30
0.0
 40
40.0
100
AcDbArc
 50
76.63232579737074
 51
96.17699640489085
  0
CIRCLE
  5
234F
330
2
100
AcDbEntity
  8
CENTER
100
AcDbCircle
 10
613.4848237678413
 20
109.4215561945882
 30
0.0
 40
49.0
  0
LINE
  5
2350
330
2
100
AcDbEntity
  8
CENTER
100
AcDbLine
 10
568.9995423936027
 20
153.9068375688266
 30
0.0
 11
657.9701051420808
 21
64.93627482034987
 31
0.0
  0
LINE
  5
2351
330
2
100
AcDbEntity
  8
CENTER
100
AcDbLine
 10
657.9701051420804
 20
153.9068375688264
 30
0.0
 11
568.9995423936031
 21
64.93627482034963
 31
0.0
  0
CIRCLE
  5
2352
330
2
100
AcDbEntity
  8
0
100
AcDbCircle
 10
613.4848237678418
 20
109.4215561945882
 30
0.0
 40
23.0
  0
ARC
  5
2353
330
2
100
AcDbEntity
  8
0
100
AcDbCircle
 10
742.4848237678413
 20
109.4215561945864
 30
0.0
 40
170.0
100
AcDbArc
 50
173.8230035951094
 51
186.1769964048906
  0
LINE
  5
2357
330
2
100
AcDbEntity
  8
CENTER
100
AcDbLine
 10
613.4848237678413
 20
50.42155619458828
 30
0.0
 11
613.4848237678413
 21
168.4215561945882
 31
0.0
  0
ARC
  5
2358
330
2
100
AcDbEntity
  8
0
100
AcDbCircle
 10
613.4848237678418
 20
238.4215561945882
 30
0.0
 40
170.0
100
AcDbArc
 50
263.8230035951091
 51
276.1769964048908
  0
CIRCLE
  5
2359
330
2
100
AcDbEntity
  8
HOJO
100
AcDbCircle
 10
578.8365914897005
 20
74.77332391644705
 30
0.0
 40
3.0
  0
LINE
  5
235A
330
2
100
AcDbEntity
  8
CENTER
100
AcDbLine
 10
578.836591489701
 20
67.77332391644705
 30
0.0
 11
578.836591489701
 21
81.77332391644705
 31
0.0
  0
LINE
  5
235B
330
2
100
AcDbEntity
  8
CENTER
100
AcDbLine
 10
571.836591489701
 20
74.77332391644705
 30
0.0
 11
585.836591489701
 21
74.77332391644705
 31
0.0
  0
CIRCLE
  5
235C
330
2
100
AcDbEntity
  8
0
100
AcDbCircle
 10
578.836591489701
 20
74.77332391644705
 30
0.0
 40
2.399999999999999
  0
CIRCLE
  5
235D
330
2
100
AcDbEntity
  8
HOJO
100
AcDbCircle
 10
578.836591489701
 20
74.77332391644705
 30
0.0
 40
3.0
  0
ARC
  5
235E
330
2
100
AcDbEntity
  8
0
100
AcDbCircle
 10
533.7040324558786
 20
86.82551275440056
 30
0.0
 40
40.0
100
AcDbArc
 50
346.6323257973694
 51
6.176996404890589
  0
ARC
  5
235F
330
2
100
AcDbEntity
  8
0
100
AcDbCircle
 10
577.4848237678404
 20
76.42155619458828
 30
0.0
 40
5.0
100
AcDbArc
 50
166.6323257973694
 51
180.0
  0
LINE
  5
2360
330
2
100
AcDbEntity
  8
0
100
AcDbLine
 10
572.4848237678404
 20
73.42155619458828
 30
0.0
 11
572.4848237678404
 21
76.42155619458828
 31
0.0
  0
ARC
  5
2361
330
2
100
AcDbEntity
  8
0
100
AcDbCircle
 10
577.4848237678413
 20
73.42155619458828
 30
0.0
 40
5.0
100
AcDbArc
 50
180.0
 51
270.0
  0
LINE
  5
2362
330
2
100
AcDbEntity
  8
0
100
AcDbLine
 10
577.4848237678413
 20
68.42155619458828
 30
0.0
 11
580.4848237678418
 21
68.42155619458828
 31
0.0
  0
ARC
  5
2363
330
2
100
AcDbEntity
  8
0
100
AcDbCircle
 10
590.8887803276522
 20
29.64076488262691
 30
0.0
 40
40.0
100
AcDbArc
 50
83.82300359510916
 51
103.3676742026292
  0
ARC
  5
2364
330
2
100
AcDbEntity
  8
0
100
AcDbCircle
 10
580.4848237678418
 20
73.42155619458828
 30
0.0
 40
5.0
100
AcDbArc
 50
270.0
 51
283.3676742026292
  0
LINE
  5
2365
330
2
100
AcDbEntity
  8
0
100
AcDbLine
 10
610.2823396833266
 20
75.24842981698458
 30
0.0
 11
611.5423402264029
 21
75.24842981698458
 31
0.0
  0
LINE
  5
2366
330
2
100
AcDbEntity
  8
0
100
AcDbLine
 10
612.0323396833207
 20
78.74842981697367
 30
0.0
 11
610.2823396833266
 21
75.24842981698458
 31
0.0
  0
ARC
  5
2367
330
2
100
AcDbEntity
  8
0
100
AcDbCircle
 10
614.9373078508103
 20
77.55842981697679
 30
0.0
 40
1.189999999995825
100
AcDbArc
 50
307.5189678668195
 51
90.0
  0
LINE
  5
2368
330
2
100
AcDbEntity
  8
0
100
AcDbLine
 10
615.6620464544082
 20
76.6145792162759
 30
0.0
 11
616.5313890893401
 21
75.24842981698458
 31
0.0
  0
LINE
  5
2369
330
2
100
AcDbEntity
  8
0
100
AcDbLine
 10
615.2713885462637
 20
75.24842981698458
 30
0.0
 11
616.5313890893401
 21
75.24842981698458
 31
0.0
  0
LINE
  5
236A
330
2
100
AcDbEntity
  8
0
100
AcDbLine
 10
612.697339683318
 20
75.24842981698458
 30
0.0
 11
613.7473078508143
 21
75.24842981698458
 31
0.0
  0
LINE
  5
236B
330
2
100
AcDbEntity
  8
0
100
AcDbLine
 10
611.8048402264023
 20
75.7734298169824
 30
0.0
 11
611.5423402264029
 21
75.24842981698458
 31
0.0
  0
LINE
  5
236C
330
2
100
AcDbEntity
  8
0
100
AcDbLine
 10
611.8048402264023
 20
75.7734298169824
 30
0.0
 11
612.697339683318
 21
75.7734298169824
 31
0.0
  0
LINE
  5
236D
330
2
100
AcDbEntity
  8
0
100
AcDbLine
 10
612.697339683318
 20
75.7734298169824
 30
0.0
 11
612.697339683318
 21
75.24842981698458
 31
0.0
  0
LINE
  5
236E
330
2
100
AcDbEntity
  8
0
100
AcDbLine
 10
612.3648402264004
 20
76.89342981697956
 30
0.0
 11
612.697339683318
 21
76.89342981697956
 31
0.0
  0
LINE
  5
236F
330
2
100
AcDbEntity
  8
0
100
AcDbLine
 10
612.697339683318
 20
77.55842873081457
 30
0.0
 11
612.697339683318
 21
76.89342981697956
 31
0.0
  0
LINE
  5
2370
330
2
100
AcDbEntity
  8
0
100
AcDbLine
 10
612.697339683318
 20
77.55842873081457
 30
0.0
 11
612.3648402264004
 21
76.89342981697956
 31
0.0
  0
LINE
  5
2371
330
2
100
AcDbEntity
  8
0
100
AcDbLine
 10
613.8960896833139
 20
77.40967981697832
 30
0.0
 11
615.2713885462637
 21
75.24842981698458
 31
0.0
  0
LINE
  5
2372
330
2
100
AcDbEntity
  8
0
100
AcDbLine
 10
613.7473078508143
 20
77.55842981697679
 30
0.0
 11
613.7473078508143
 21
75.24842981698458
 31
0.0
  0
LINE
  5
2373
330
2
100
AcDbEntity
  8
0
100
AcDbLine
 10
613.7473078508143
 20
77.55842981697679
 30
0.0
 11
614.8629646833103
 21
77.55842981697679
 31
0.0
  0
LINE
  5
2374
330
2
100
AcDbEntity
  8
0
100
AcDbLine
 10
613.8960896833139
 20
77.40967981697832
 30
0.0
 11
614.8629646833103
 21
77.40967981697832
 31
0.0
  0
ARC
  5
2375
330
2
100
AcDbEntity
  8
0
100
AcDbCircle
 10
614.8629646833103
 20
77.48405481697665
 30
0.0
 40
0.0743749999997391
100
AcDbArc
 50
270.0
 51
90.0
  0
LINE
  5
2376
330
2
100
AcDbEntity
  8
0
100
AcDbLine
 10
612.0323396833207
 20
78.74842981697367
 30
0.0
 11
614.9373078508103
 21
78.74842981697367
 31
0.0
  0
CIRCLE
  5
2377
330
2
100
AcDbEntity
  8
HOJO
100
AcDbCircle
 10
578.836591489701
 20
144.0697884727295
 30
0.0
 40
3.0
  0
CIRCLE
  5
2378
330
2
100
AcDbEntity
  8
0
100
AcDbCircle
 10
578.836591489701
 20
144.0697884727276
 30
0.0
 40
2.399999999999999
  0
CIRCLE
  5
2379
330
2
100
AcDbEntity
  8
HOJO
100
AcDbCircle
 10
578.836591489701
 20
144.0697884727276
 30
0.0
 40
3.0
  0
LINE
  5
237A
330
2
100
AcDbEntity
  8
0
100
AcDbLine
 10
572.4848237678417
 20
145.4215561945882
 30
0.0
 11
572.4848237678417
 21
142.4215561945882
 31
0.0
  0
LINE
  5
237B
330
2
100
AcDbEntity
  8
CENTER
100
AcDbLine
 10
578.836591489701
 20
151.0697884727294
 30
0.0
 11
578.8365914897005
 21
137.0697884727295
 31
0.0
  0
LINE
  5
237C
330
2
100
AcDbEntity
  8
CENTER
100
AcDbLine
 10
571.836591489701
 20
144.0697884727295
 30
0.0
 11
585.836591489701
 21
144.0697884727295
 31
0.0
  0
ARC
  5
237D
330
2
100
AcDbEntity
  8
0
100
AcDbCircle
 10
533.70403245588
 20
132.0175996347778
 30
0.0
 40
40.0
100
AcDbArc
 50
353.8230035951094
 51
13.3676742026306
  0
ARC
  5
237E
330
2
100
AcDbEntity
  8
0
100
AcDbCircle
 10
577.4848237678418
 20
142.4215561945882
 30
0.0
 40
5.0
100
AcDbArc
 50
180.0
 51
193.3676742026306
  0
ARC
  5
237F
330
2
100
AcDbEntity
  8
0
100
AcDbCircle
 10
613.4848237678418
 20
-19.57844380541172
 30
0.0
 40
170.0
100
AcDbArc
 50
83.82300359510916
 51
96.17699640489085
  0
ARC
  5
2380
330
2
100
AcDbEntity
  8
0
100
AcDbCircle
 10
590.8887803276522
 20
189.2023475065496
 30
0.0
 40
40.0
100
AcDbArc
 50
256.6323257973707
 51
276.1769964048908
  0
ARC
  5
2381
330
2
100
AcDbEntity
  8
0
100
AcDbCircle
 10
580.4848237678418
 20
145.4215561945882
 30
0.0
 40
5.0
100
AcDbArc
 50
76.63232579737074
 51
90.0
  0
LINE
  5
2382
330
2
100
AcDbEntity
  8
0
100
AcDbLine
 10
577.4848237678413
 20
150.4215561945882
 30
0.0
 11
580.4848237678418
 21
150.4215561945882
 31
0.0
  0
ARC
  5
2383
330
2
100
AcDbEntity
  8
0
100
AcDbCircle
 10
577.4848237678413
 20
145.4215561945882
 30
0.0
 40
5.0
100
AcDbArc
 50
90.0
 51
180.0
  0
LINE
  5
2384
330
2
100
AcDbEntity
  8
0
100
AcDbLine
 10
712.4848237678386
 20
79.92155619458827
 30
0.0
 11
712.4848237678386
 21
138.9215561945882
 31
0.0
  0
LINE
  5
2386
330
2
100
AcDbEntity
  8
0
100
AcDbLine
 10
654.4848237678422
 20
73.42155619458281
 30
0.0
 11
654.4848237678422
 21
145.4215561945882
 31
0.0
  0
LINE
  5
2387
330
2
100
AcDbEntity
  8
0
100
AcDbLine
 10
687.4848237678418
 20
135.4215561945901
 30
0.0
 11
687.4848237678422
 21
83.42155619458464
 31
0.0
  0
LINE
  5
2388
330
2
100
AcDbEntity
  8
0
100
AcDbLine
 10
700.997916730558
 20
131.4215561945882
 30
0.0
 11
700.997916730558
 21
87.42155619458827
 31
0.0
  0
LINE
  5
2389
330
2
100
AcDbEntity
  8
0
100
AcDbLine
 10
703.997916730558
 20
84.42155619458828
 30
0.0
 11
707.5027037459542
 21
84.42155619458828
 31
0.0
  0
LINE
  5
238A
330
2
100
AcDbEntity
  8
0
100
AcDbLine
 10
681.4848237678427
 20
77.42155619458464
 30
0.0
 11
658.4848237678418
 21
77.42155619458282
 31
0.0
  0
CIRCLE
  5
238B
330
2
100
AcDbEntity
  8
HOJO
100
AcDbCircle
 10
648.1330560459825
 20
74.77332391644705
 30
0.0
 40
3.0
  0
LINE
  5
238C
330
2
100
AcDbEntity
  8
CENTER
100
AcDbLine
 10
655.1330560459826
 20
74.77332391644705
 30
0.0
 11
641.1330560459825
 21
74.77332391644705
 31
0.0
  0
LINE
  5
238D
330
2
100
AcDbEntity
  8
CENTER
100
AcDbLine
 10
648.1330560459825
 20
67.77332391644705
 30
0.0
 11
648.1330560459825
 21
81.77332391644705
 31
0.0
  0
CIRCLE
  5
238E
330
2
100
AcDbEntity
  8
0
100
AcDbCircle
 10
648.1330560459825
 20
74.77332391644705
 30
0.0
 40
2.399999999999999
  0
CIRCLE
  5
238F
330
2
100
AcDbEntity
  8
HOJO
100
AcDbCircle
 10
648.1330560459825
 20
74.77332391644705
 30
0.0
 40
3.0
  0
ARC
  5
2390
330
2
100
AcDbEntity
  8
0
100
AcDbCircle
 10
649.4848237678422
 20
73.42155619458828
 30
0.0
 40
5.0
100
AcDbArc
 50
270.0
 51
0.0
  0
ARC
  5
2391
330
2
100
AcDbEntity
  8
0
100
AcDbCircle
 10
646.4848237678418
 20
73.42155619458828
 30
0.0
 40
5.0
100
AcDbArc
 50
256.6323257973707
 51
270.0
  0
LINE
  5
2392
330
2
100
AcDbEntity
  8
0
100
AcDbLine
 10
649.4848237678418
 20
68.42155619458828
 30
0.0
 11
646.4848237678418
 21
68.42155619458828
 31
0.0
  0
ARC
  5
2393
330
2
100
AcDbEntity
  8
0
100
AcDbCircle
 10
658.4848237678422
 20
73.42155619458281
 30
0.0
 40
4.0
100
AcDbArc
 50
90.0
 51
180.0
  0
ARC
  5
2394
330
2
100
AcDbEntity
  8
0
100
AcDbCircle
 10
681.4848237678423
 20
83.42155619458464
 30
0.0
 40
6.0
100
AcDbArc
 50
270.0
 51
0.0
  0
ARC
  5
2395
330
2
100
AcDbEntity
  8
0
100
AcDbCircle
 10
692.4848237678323
 20
85.42155619460647
 30
0.0
 40
5.0
100
AcDbArc
 50
90.0
 51
180.0
  0
LINE
  5
2396
330
2
100
AcDbEntity
  8
0
100
AcDbLine
 10
692.4848237678323
 20
90.42155619460647
 30
0.0
 11
696.2519500381438
 21
90.42155619460647
 31
0.0
  0
ARC
  5
2397
330
2
100
AcDbEntity
  8
0
100
AcDbCircle
 10
696.2519500381438
 20
85.42155619460647
 30
0.0
 40
5.0
100
AcDbArc
 50
14.47751218592866
 51
90.0
  0
LINE
  5
2398
330
2
100
AcDbEntity
  8
0
100
AcDbLine
 10
689.4324625630286
 20
86.42155619458828
 30
0.0
 11
699.997916730558
 21
86.42155619458828
 31
0.0
  0
ARC
  5
2399
330
2
100
AcDbEntity
  8
0
100
AcDbCircle
 10
699.997916730558
 20
84.42155619458828
 30
0.0
 40
2.0
100
AcDbArc
 50
36.86989764585053
 51
90.0
  0
ARC
  5
239A
330
2
100
AcDbEntity
  8
0
100
AcDbCircle
 10
703.997916730558
 20
87.42155619458827
 30
0.0
 40
3.0
100
AcDbArc
 50
180.0
 51
270.0
  0
ARC
  5
239B
330
2
100
AcDbEntity
  8
0
100
AcDbCircle
 10
689.4848237678413
 20
84.42155619458828
 30
0.0
 40
2.0
100
AcDbArc
 50
90.0
 51
180.0
  0
LINE
  5
239C
330
2
100
AcDbEntity
  8
0
100
AcDbLine
 10
720.4848237678386
 20
78.42155619458828
 30
0.0
 11
714.4848237678386
 21
78.42155619458828
 31
0.0
  0
ARC
  5
239D
330
2
100
AcDbEntity
  8
0
100
AcDbCircle
 10
714.4848237678386
 20
80.42155619458828
 30
0.0
 40
2.0
100
AcDbArc
 50
180.0
 51
270.0
  0
ARC
  5
239E
330
2
100
AcDbEntity
  8
0
100
AcDbCircle
 10
714.4848237678386
 20
79.92155619458827
 30
0.0
 40
2.0
100
AcDbArc
 50
180.0
 51
270.0
  0
LINE
  5
239F
330
2
100
AcDbEntity
  8
0
100
AcDbLine
 10
720.4848237678386
 20
77.92155619458828
 30
0.0
 11
714.4848237678386
 21
77.92155619458828
 31
0.0
  0
ARC
  5
23A0
330
2
100
AcDbEntity
  8
0
100
AcDbCircle
 10
707.5027037459542
 20
79.42155619458827
 30
0.0
 40
5.0
100
AcDbArc
 50
4.096043758196321
 51
90.0
  0
LINE
  5
23A1
330
2
100
AcDbEntity
  8
0
100
AcDbLine
 10
703.997916730558
 20
134.4215561945882
 30
0.0
 11
707.5027037459542
 21
134.4215561945882
 31
0.0
  0
CIRCLE
  5
23A2
330
2
100
AcDbEntity
  8
HOJO
100
AcDbCircle
 10
648.1330560459825
 20
144.0697884727295
 30
0.0
 40
3.0
  0
CIRCLE
  5
23A3
330
2
100
AcDbEntity
  8
0
100
AcDbCircle
 10
648.1330560459825
 20
144.0697884727276
 30
0.0
 40
2.399999999999999
  0
CIRCLE
  5
23A4
330
2
100
AcDbEntity
  8
HOJO
100
AcDbCircle
 10
648.1330560459825
 20
144.0697884727276
 30
0.0
 40
3.0
  0
ARC
  5
23A5
330
2
100
AcDbEntity
  8
0
100
AcDbCircle
 10
658.4848237678422
 20
145.4215561945919
 30
0.0
 40
4.0
100
AcDbArc
 50
180.0
 51
270.0
  0
LINE
  5
23A6
330
2
100
AcDbEntity
  8
CENTER
100
AcDbLine
 10
648.1330560459825
 20
151.0697884727294
 30
0.0
 11
648.1330560459825
 21
137.0697884727295
 31
0.0
  0
LINE
  5
23A7
330
2
100
AcDbEntity
  8
0
100
AcDbLine
 10
681.4848237678423
 20
141.42155619459
 30
0.0
 11
658.4848237678413
 21
141.4215561945919
 31
0.0
  0
LINE
  5
23A8
330
2
100
AcDbEntity
  8
CENTER
100
AcDbLine
 10
655.1330560459826
 20
144.0697884727295
 30
0.0
 11
641.1330560459825
 21
144.0697884727295
 31
0.0
  0
ARC
  5
23A9
330
2
100
AcDbEntity
  8
0
100
AcDbCircle
 10
681.4848237678418
 20
135.4215561945901
 30
0.0
 40
6.0
100
AcDbArc
 50
0.0
 51
89.99999999994789
  0
LINE
  5
23AA
330
2
100
AcDbEntity
  8
0
100
AcDbLine
 10
689.4848237678413
 20
132.4215561945882
 30
0.0
 11
699.997916730558
 21
132.4215561945882
 31
0.0
  0
ARC
  5
23AB
330
2
100
AcDbEntity
  8
0
100
AcDbCircle
 10
703.997916730558
 20
131.4215561945882
 30
0.0
 40
3.0
100
AcDbArc
 50
90.0
 51
180.0
  0
ARC
  5
23AC
330
2
100
AcDbEntity
  8
0
100
AcDbCircle
 10
699.997916730558
 20
134.4215561945882
 30
0.0
 40
2.0
100
AcDbArc
 50
270.0
 51
323.1301023541494
  0
ARC
  5
23AD
330
2
100
AcDbEntity
  8
0
100
AcDbCircle
 10
692.4848237678323
 20
133.4215561945882
 30
0.0
 40
5.0
100
AcDbArc
 50
180.0
 51
270.0
  0
ARC
  5
23AE
330
2
100
AcDbEntity
  8
0
100
AcDbCircle
 10
696.2519500381433
 20
133.4215561945882
 30
0.0
 40
5.0
100
AcDbArc
 50
270.0
 51
345.5224878140713
  0
LINE
  5
23AF
330
2
100
AcDbEntity
  8
0
100
AcDbLine
 10
692.4848237678323
 20
128.4215561945882
 30
0.0
 11
696.2519500381433
 21
128.4215561945882
 31
0.0
  0
ARC
  5
23B0
330
2
100
AcDbEntity
  8
0
100
AcDbCircle
 10
689.4848237678413
 20
134.4215561945882
 30
0.0
 40
2.0
100
AcDbArc
 50
180.0
 51
270.0
  0
LINE
  5
23B1
330
2
100
AcDbEntity
  8
0
100
AcDbLine
 10
690.4848237678414
 20
111.9215561945882
 30
0.0
 11
697.997916730558
 21
111.9215561945882
 31
0.0
  0
ARC
  5
23B2
330
2
100
AcDbEntity
  8
0
100
AcDbCircle
 10
690.4848237678414
 20
114.9215561945882
 30
0.0
 40
3.0
100
AcDbArc
 50
180.0
 51
270.0
  0
ARC
  5
23B3
330
2
100
AcDbEntity
  8
0
100
AcDbCircle
 10
697.997916730558
 20
114.9215561945882
 30
0.0
 40
3.0
100
AcDbArc
 50
270.0
 51
0.0
  0
LINE
  5
23B4
330
2
100
AcDbEntity
  8
0
100
AcDbLine
 10
690.4848237678414
 20
106.9215561945882
 30
0.0
 11
697.997916730558
 21
106.9215561945882
 31
0.0
  0
ARC
  5
23B5
330
2
100
AcDbEntity
  8
0
100
AcDbCircle
 10
690.4848237678414
 20
103.9215561945882
 30
0.0
 40
3.0
100
AcDbArc
 50
90.0
 51
180.0
  0
ARC
  5
23B6
330
2
100
AcDbEntity
  8
0
100
AcDbCircle
 10
697.997916730558
 20
103.9215561945882
 30
0.0
 40
3.0
100
AcDbArc
 50
0.0
 51
90.0
  0
LINE
  5
23B7
330
2
100
AcDbEntity
  8
0
100
AcDbLine
 10
649.4848237678418
 20
150.4215561945882
 30
0.0
 11
646.4848237678413
 21
150.4215561945882
 31
0.0
  0
ARC
  5
23B8
330
2
100
AcDbEntity
  8
0
100
AcDbCircle
 10
646.4848237678413
 20
145.4215561945882
 30
0.0
 40
5.0
100
AcDbArc
 50
90.0
 51
103.3676742026292
  0
ARC
  5
23B9
330
2
100
AcDbEntity
  8
0
100
AcDbCircle
 10
649.4848237678418
 20
145.4215561945882
 30
0.0
 40
5.0
100
AcDbArc
 50
0.0
 51
90.0
  0
LINE
  5
23BA
330
2
100
AcDbEntity
  8
0
100
AcDbLine
 10
714.4848237678386
 20
140.4215561945882
 30
0.0
 11
720.4848237678386
 21
140.4215561945882
 31
0.0
  0
ARC
  5
23BB
330
2
100
AcDbEntity
  8
0
100
AcDbCircle
 10
714.4848237678386
 20
138.4215561945882
 30
0.0
 40
2.0
100
AcDbArc
 50
90.0
 51
180.0
  0
LINE
  5
23BC
330
2
100
AcDbEntity
  8
0
100
AcDbLine
 10
714.4848237678386
 20
140.9215561945882
 30
0.0
 11
720.4848237678386
 21
140.9215561945882
 31
0.0
  0
ARC
  5
23BD
330
2
100
AcDbEntity
  8
0
100
AcDbCircle
 10
714.4848237678386
 20
138.9215561945882
 30
0.0
 40
2.0
100
AcDbArc
 50
90.0
 51
180.0
  0
ARC
  5
23BE
330
2
100
AcDbEntity
  8
0
100
AcDbCircle
 10
707.5027037459542
 20
139.4215561945882
 30
0.0
 40
5.0
100
AcDbArc
 50
270.0
 51
355.9039562418037
  0
LINE
  5
23BF
330
2
100
AcDbEntity
  8
0
100
AcDbLine
 10
578.4848237678418
 20
338.0537322187842
 30
0.0
 11
648.4848237678418
 21
338.0537322187842
 31
0.0
  0
LINE
  5
23C0
330
2
100
AcDbEntity
  8
0
100
AcDbLine
 10
572.9909820997061
 20
343.0537322187842
 30
0.0
 11
653.9743020020816
 21
343.0537322187842
 31
0.0
  0
LINE
  5
23C1
330
2
100
AcDbEntity
  8
0
100
AcDbLine
 10
587.416201317457
 20
325.0537322187824
 30
0.0
 11
639.5534462182265
 21
325.0537322187842
 31
0.0
  0
LINE
  5
23CA
330
2
100
AcDbEntity
  8
0
100
AcDbLine
 10
578.4848237678422
 20
338.053732218786
 30
0.0
 11
583.1960930456
 21
338.053732218786
 31
0.0
  0
LINE
  5
23CB
330
2
100
AcDbEntity
  8
0
100
AcDbLine
 10
578.4848237678418
 20
343.0537322187842
 30
0.0
 11
578.4848237678418
 21
338.0537322187842
 31
0.0
  0
ARC
  5
23CC
330
2
100
AcDbEntity
  8
0
100
AcDbCircle
 10
583.0994762148354
 20
336.0537322187842
 30
0.0
 40
2.0
100
AcDbArc
 50
2.000000000003725
 51
90.0
  0
ARC
  5
23CD
330
2
100
AcDbEntity
  8
0
100
AcDbCircle
 10
587.416201317457
 20
327.0537322187842
 30
0.0
 40
2.0
100
AcDbArc
 50
182.0000000000037
 51
270.0
  0
LINE
  5
23CE
330
2
100
AcDbEntity
  8
0
100
AcDbLine
 10
585.4174196634192
 20
326.9839332253791
 30
0.0
 11
585.0982578688733
 21
336.1235312121893
 31
0.0
  0
LINE
  5
23D7
330
2
100
AcDbEntity
  8
0
100
AcDbLine
 10
648.4848237678423
 20
338.053732218786
 30
0.0
 11
643.7735544900845
 21
338.053732218786
 31
0.0
  0
LINE
  5
23D8
330
2
100
AcDbEntity
  8
0
100
AcDbLine
 10
648.4848237678418
 20
343.0537322187842
 30
0.0
 11
648.4848237678418
 21
338.0537322187842
 31
0.0
  0
ARC
  5
23D9
330
2
100
AcDbEntity
  8
0
100
AcDbCircle
 10
643.8701713208481
 20
336.0537322187842
 30
0.0
 40
2.0
100
AcDbArc
 50
90.0
 51
177.9999999999962
  0
ARC
  5
23DA
330
2
100
AcDbEntity
  8
0
100
AcDbCircle
 10
639.5534462182265
 20
327.0537322187842
 30
0.0
 40
2.0
100
AcDbArc
 50
270.0
 51
357.9999999999962
  0
LINE
  5
23DB
330
2
100
AcDbEntity
  8
0
100
AcDbLine
 10
641.5522278722654
 20
326.9839332253791
 30
0.0
 11
641.8713896668102
 21
336.1235312121893
 31
0.0
  0
LINE
  5
246F
330
2
100
AcDbEntity
  8
0
100
AcDbLine
 10
700.9083224056815
 20
398.1322630633326
 30
0.0
 11
700.3301757286269
 21
376.0537322187842
 31
0.0
  0
LINE
  5
2470
330
2
100
AcDbEntity
  8
0
100
AcDbLine
 10
712.4338228597341
 20
405.1060861153996
 30
0.0
 11
711.6730601991918
 21
376.0537322187842
 31
0.0
  0
LINE
  5
2471
330
2
100
AcDbEntity
  8
0
100
AcDbLine
 10
681.4979167286262
 20
401.0537322187842
 30
0.0
 11
682.1270643138025
 21
377.0275552704765
 31
0.0
  0
LINE
  5
2472
330
2
100
AcDbEntity
  8
0
100
AcDbLine
 10
649.4848237678427
 20
401.0537322187842
 30
0.0
 11
649.4848237678427
 21
344.5537322187842
 31
0.0
  0
LINE
  5
2473
330
2
100
AcDbEntity
  8
0
100
AcDbLine
 10
646.4848237678418
 20
401.0537322187842
 30
0.0
 11
646.4848237678418
 21
344.5537322187842
 31
0.0
  0
LINE
  5
2474
330
2
100
AcDbEntity
  8
0
100
AcDbLine
 10
654.480460333945
 20
401.0537322187842
 30
0.0
 11
653.9743020020816
 21
343.0537322187842
 31
0.0
  0
LINE
  5
2475
330
2
100
AcDbEntity
  8
0
100
AcDbLine
 10
687.4848237678418
 20
401.0537322187842
 30
0.0
 11
687.7029954625907
 21
376.0537322187842
 31
0.0
  0
LINE
  5
2476
330
2
100
AcDbEntity
  8
0
100
AcDbLine
 10
572.4848237678417
 20
401.0537322187842
 30
0.0
 11
572.9909820997061
 21
343.0537322187842
 31
0.0
  0
LINE
  5
2477
330
2
100
AcDbEntity
  8
0
100
AcDbLine
 10
631.7768589337104
 20
401.0537322187842
 30
0.0
 11
631.7768589337104
 21
344.5537322187842
 31
0.0
  0
LINE
  5
2478
330
2
100
AcDbEntity
  8
0
100
AcDbLine
 10
595.1927886019777
 20
401.0537322187842
 30
0.0
 11
595.1927886019777
 21
344.5537322187842
 31
0.0
  0
LINE
  5
2479
330
2
100
AcDbEntity
  8
0
100
AcDbLine
 10
580.4848237678426
 20
401.0537322187842
 30
0.0
 11
580.4848237678436
 21
344.5537322187842
 31
0.0
  0
LINE
  5
247A
330
2
100
AcDbEntity
  8
0
100
AcDbLine
 10
577.4848237678427
 20
401.0537322187842
 30
0.0
 11
577.4848237678427
 21
344.5537322187842
 31
0.0
  0
LINE
  5
247B
330
2
100
AcDbEntity
  8
CENTER
100
AcDbLine
 10
613.4848237678422
 20
433.0537322187878
 30
0.0
 11
613.4848237678418
 21
283.053732218784
 31
0.0
  0
LINE
  5
247D
330
2
100
AcDbEntity
  8
0
100
AcDbLine
 10
703.907294380607
 20
351.0537322191589
 30
0.0
 11
707.5049342793557
 21
351.0537322191589
 31
0.0
  0
LINE
  5
247E
330
2
100
AcDbEntity
  8
0
100
AcDbLine
 10
687.4497639860353
 20
347.036279147785
 30
0.0
 11
687.7029954626107
 21
376.0537322187842
 31
0.0
  0
LINE
  5
247F
330
2
100
AcDbEntity
  8
0
100
AcDbLine
 10
685.4498401399076
 20
345.0537322187824
 30
0.0
 11
655.4787225535553
 21
345.0537322187788
 31
0.0
  0
ARC
  5
2480
330
2
100
AcDbEntity
  8
0
100
AcDbCircle
 10
655.4787225535558
 20
343.5537322187788
 30
0.0
 40
1.5
100
AcDbArc
 50
90.0
 51
179.5000000000344
  0
ARC
  5
2481
330
2
100
AcDbEntity
  8
0
100
AcDbCircle
 10
685.4498401399076
 20
347.0537322187824
 30
0.0
 40
2.0
100
AcDbArc
 50
270.0
 51
359.5000000000345
  0
ARC
  5
2482
330
2
100
AcDbEntity
  8
0
100
AcDbCircle
 10
689.4848237678417
 20
351.0537322187824
 30
0.0
 40
2.0
100
AcDbArc
 50
90.0
 51
180.0
  0
LINE
  5
2483
330
2
100
AcDbEntity
  8
0
100
AcDbLine
 10
699.9072943808889
 20
353.0537322187824
 30
0.0
 11
689.4848999246116
 21
353.0537322187824
 31
0.0
  0
ARC
  5
2484
330
2
100
AcDbEntity
  8
0
100
AcDbCircle
 10
692.4848237678418
 20
352.0537322187824
 30
0.0
 40
5.0
100
AcDbArc
 50
90.0
 51
180.0
  0
LINE
  5
2485
330
2
100
AcDbEntity
  8
0
100
AcDbLine
 10
696.1613276882892
 20
357.0537322187824
 30
0.0
 11
692.4848237678422
 21
357.0537322187824
 31
0.0
  0
ARC
  5
2486
330
2
100
AcDbEntity
  8
0
100
AcDbCircle
 10
696.1613276882892
 20
352.0537322187824
 30
0.0
 40
5.0
100
AcDbArc
 50
14.4775121887298
 51
90.0
  0
ARC
  5
2487
330
2
100
AcDbEntity
  8
0
100
AcDbCircle
 10
699.9072943808889
 20
351.0537322187824
 30
0.0
 40
2.0
100
AcDbArc
 50
36.86989765121137
 51
90.0
  0
ARC
  5
2488
330
2
100
AcDbEntity
  8
0
100
AcDbCircle
 10
703.907294380607
 20
354.0537322191589
 30
0.0
 40
3.0
100
AcDbArc
 50
181.4999999999896
 51
270.0
  0
LINE
  5
2489
330
2
100
AcDbEntity
  8
0
100
AcDbLine
 10
700.9083224056815
 20
353.9752013742358
 30
0.0
 11
700.3301757286269
 21
376.0537322187842
 31
0.0
  0
ARC
  5
248A
330
2
100
AcDbEntity
  8
0
100
AcDbCircle
 10
697.4731699197839
 20
370.5537322187842
 30
0.0
 40
3.0
100
AcDbArc
 50
1.499999999989629
 51
90.0
  0
ARC
  5
248B
330
2
100
AcDbEntity
  8
0
100
AcDbCircle
 10
697.4731699197839
 20
381.5537322187842
 30
0.0
 40
3.0
100
AcDbArc
 50
270.0
 51
358.5000000000103
  0
LINE
  5
248C
330
2
100
AcDbEntity
  8
0
100
AcDbLine
 10
690.6551119249186
 20
373.5537322187842
 30
0.0
 11
697.4731699197839
 21
373.5537322187842
 31
0.0
  0
LINE
  5
248D
330
2
100
AcDbEntity
  8
0
100
AcDbLine
 10
690.6551119249031
 20
378.5537322187842
 30
0.0
 11
697.4731699197843
 21
378.5537322187842
 31
0.0
  0
ARC
  5
248E
330
2
100
AcDbEntity
  8
0
100
AcDbCircle
 10
683.126721638778
 20
377.0537322187842
 30
0.0
 40
1.0
100
AcDbArc
 50
181.4999999999896
 51
270.0
  0
LINE
  5
248F
330
2
100
AcDbEntity
  8
0
100
AcDbLine
 10
683.126721638778
 20
376.0537322187842
 30
0.0
 11
687.4848237678418
 21
376.0537322187842
 31
0.0
  0
ARC
  5
2490
330
2
100
AcDbEntity
  8
0
100
AcDbCircle
 10
690.6551119249186
 20
370.5537322187842
 30
0.0
 40
3.0
100
AcDbArc
 50
90.0
 51
179.5000000000344
  0
ARC
  5
2491
330
2
100
AcDbEntity
  8
0
100
AcDbCircle
 10
690.6551119249031
 20
381.5537322187842
 30
0.0
 40
3.0
100
AcDbArc
 50
180.4999999999655
 51
270.0
  0
ARC
  5
2492
330
2
100
AcDbEntity
  8
0
100
AcDbCircle
 10
707.5049342793557
 20
346.0537322191589
 30
0.0
 40
5.0
100
AcDbArc
 50
8.213210698669898
 51
90.0
  0
LINE
  5
2493
330
2
100
AcDbEntity
  8
0
100
AcDbLine
 10
712.4338228597341
 20
347.001378322167
 30
0.0
 11
711.6730601991918
 21
376.0537322187842
 31
0.0
  0
ARC
  5
2494
330
2
100
AcDbEntity
  8
0
100
AcDbCircle
 10
714.4331375096856
 20
347.0537322187842
 30
0.0
 40
2.0
100
AcDbArc
 50
181.4999999999896
 51
270.0
  0
LINE
  5
2495
330
2
100
AcDbEntity
  8
0
100
AcDbLine
 10
720.4848237678422
 20
345.0537322187842
 30
0.0
 11
714.4331375096856
 21
345.0537322187842
 31
0.0
  0
LINE
  5
2496
330
2
100
AcDbEntity
  8
0
100
AcDbLine
 10
711.6730601991918
 20
376.0537322187842
 30
0.0
 11
720.4848237648154
 21
376.0537322187842
 31
0.0
  0
LINE
  5
2497
330
2
100
AcDbEntity
  8
0
100
AcDbLine
 10
587.1848237678412
 20
420.5537322187842
 30
0.0
 11
639.7848237678419
 21
420.5537322187842
 31
0.0
  0
LINE
  5
2498
330
2
100
AcDbEntity
  8
0
100
AcDbLine
 10
641.9848237678418
 20
415.0537322187861
 30
0.0
 11
584.9848237678441
 21
415.0537322187861
 31
0.0
  0
LINE
  5
2499
330
2
100
AcDbEntity
  8
0
100
AcDbLine
 10
583.9848237678336
 20
413.5537322187879
 30
0.0
 11
653.4848237678418
 21
413.5537322187879
 31
0.0
  0
LINE
  5
249A
330
2
100
AcDbEntity
  8
0
100
AcDbLine
 10
583.9848237678336
 20
414.5537322187896
 30
0.0
 11
644.0706102054689
 21
414.5537322187896
 31
0.0
  0
LINE
  5
249B
330
2
100
AcDbEntity
  8
0
100
AcDbLine
 10
587.5621740370327
 20
423.0537322187879
 30
0.0
 11
639.4074734986514
 21
423.0537322187879
 31
0.0
  0
LINE
  5
249C
330
2
100
AcDbEntity
  8
0
100
AcDbLine
 10
639.7848237678419
 20
418.553732218786
 30
0.0
 11
587.184823767883
 21
418.5537322188243
 31
0.0
  0
LINE
  5
249D
330
2
100
AcDbEntity
  8
0
100
AcDbLine
 10
687.4848237678418
 20
401.0537322187897
 30
0.0
 11
572.4848237678417
 21
401.0537322187806
 31
0.0
  0
LINE
  5
249E
330
2
100
AcDbEntity
  8
0
100
AcDbLine
 10
586.9848237678409
 20
422.0537322187842
 30
0.0
 11
639.9848237678423
 21
422.053732218786
 31
0.0
  0
LINE
  5
249F
330
2
100
AcDbEntity
  8
0
100
AcDbLine
 10
639.9848237678423
 20
418.3537322187853
 30
0.0
 11
586.9848237678414
 21
418.3537322187835
 31
0.0
  0
LINE
  5
24A0
330
2
100
AcDbEntity
  8
0
100
AcDbLine
 10
586.9848237678414
 20
418.3537322187835
 30
0.0
 11
586.9848237678418
 21
415.0537322187842
 31
0.0
  0
LINE
  5
24A1
330
2
100
AcDbEntity
  8
HIDS
100
AcDbLine
 10
581.7777169866538
 20
413.846625437603
 30
0.0
 11
582.1919305490257
 21
414.2608389999745
 31
0.0
  0
LINE
  5
24A2
330
2
100
AcDbEntity
  8
0
100
AcDbLine
 10
584.9848237678441
 20
415.0537322187861
 30
0.0
 11
584.4848237678422
 21
414.5537322187824
 31
0.0
  0
LINE
  5
24A3
330
2
100
AcDbEntity
  8
0
100
AcDbLine
 10
586.9848237678409
 20
422.0537322187842
 30
0.0
 11
587.5621740370304
 21
423.0537322187842
 31
0.0
  0
LINE
  5
24A4
330
2
100
AcDbEntity
  8
0
100
AcDbLine
 10
587.6848237678411
 20
420.3537322187835
 30
0.0
 11
587.6848237678411
 21
418.7537322187831
 31
0.0
  0
LINE
  5
24A5
330
2
100
AcDbEntity
  8
0
100
AcDbLine
 10
587.1848237678416
 20
418.5537322187842
 30
0.0
 11
586.9848237678414
 21
418.3537322187835
 31
0.0
  0
LINE
  5
24A6
330
2
100
AcDbEntity
  8
0
100
AcDbLine
 10
586.9848237678409
 20
422.0537322187842
 30
0.0
 11
586.9848237678414
 21
420.7537322187831
 31
0.0
  0
LINE
  5
24A7
330
2
100
AcDbEntity
  8
0
100
AcDbLine
 10
573.5852208258213
 20
413.5537322187879
 30
0.0
 11
573.9848237678336
 21
413.5537322187879
 31
0.0
  0
LINE
  5
24A8
330
2
100
AcDbEntity
  8
HIDS
100
AcDbLine
 10
573.9848237678336
 20
413.5537322187879
 30
0.0
 11
583.9848237678336
 21
413.5537322187879
 31
0.0
  0
ARC
  5
24A9
330
2
100
AcDbEntity
  8
0
100
AcDbCircle
 10
573.5852208258213
 20
412.5537322187879
 30
0.0
 40
1.0
100
AcDbArc
 50
90.0
 51
179.5000000000344
  0
LINE
  5
24AA
330
2
100
AcDbEntity
  8
HIDS
100
AcDbLine
 10
582.8990373302124
 20
414.5537322187896
 30
0.0
 11
583.9848237678336
 21
414.5537322187896
 31
0.0
  0
LINE
  5
24AB
330
2
100
AcDbEntity
  8
0
100
AcDbLine
 10
572.4848237678417
 20
401.0537322187806
 30
0.0
 11
572.5852589027574
 21
412.5624587542874
 31
0.0
  0
ARC
  5
24AC
330
2
100
AcDbEntity
  8
HIDS
100
AcDbCircle
 10
582.8990373302124
 20
413.5537322187879
 30
0.0
 40
1.0
100
AcDbArc
 50
90.0
 51
135.0000000000092
  0
ARC
  5
24AD
330
2
100
AcDbEntity
  8
HIDS
100
AcDbCircle
 10
581.0706102054666
 20
414.5537322187879
 30
0.0
 40
1.0
100
AcDbArc
 50
270.0
 51
315.0000000000092
  0
ARC
  5
24AE
330
2
100
AcDbEntity
  8
0
100
AcDbCircle
 10
587.1848237678412
 20
420.7537322187831
 30
0.0
 40
0.2
100
AcDbArc
 50
180.0
 51
270.0
  0
ARC
  5
24AF
330
2
100
AcDbEntity
  8
0
100
AcDbCircle
 10
587.4848237678413
 20
420.3537322187835
 30
0.0
 40
0.2
100
AcDbArc
 50
0.0
 51
90.0
  0
ARC
  5
24B0
330
2
100
AcDbEntity
  8
0
100
AcDbCircle
 10
587.4848237678413
 20
418.7537322187831
 30
0.0
 40
0.2
100
AcDbArc
 50
270.0
 51
0.0
  0
LINE
  5
24B1
330
2
100
AcDbEntity
  8
0
100
AcDbLine
 10
577.4848237678423
 20
401.0537322187824
 30
0.0
 11
577.4848237678423
 21
407.5624587542875
 31
0.0
  0
LINE
  5
24B2
330
2
100
AcDbEntity
  8
0
100
AcDbLine
 10
580.4848237678422
 20
401.0537322187824
 30
0.0
 11
580.4848237678422
 21
407.5624587542875
 31
0.0
  0
LINE
  5
24B3
330
2
100
AcDbEntity
  8
0
100
AcDbLine
 10
595.1927886019745
 20
401.0537322187824
 30
0.0
 11
595.1927886019745
 21
412.5537322187879
 31
0.0
  0
LINE
  5
24B4
330
2
100
AcDbEntity
  8
0
100
AcDbLine
 10
586.0198073943267
 20
412.5624587542874
 30
0.0
 11
585.9891491240766
 21
409.0493689510399
 31
0.0
  0
LINE
  5
24B5
330
2
100
AcDbEntity
  8
0
100
AcDbLine
 10
585.4891681625447
 20
408.5537322187897
 30
0.0
 11
573.5415864868675
 21
408.5537322187897
 31
0.0
  0
ARC
  5
24B6
330
2
100
AcDbEntity
  8
0
100
AcDbCircle
 10
587.0197693173947
 20
412.5537322187897
 30
0.0
 40
1.0
100
AcDbArc
 50
90.0
 51
179.5000000000344
  0
ARC
  5
24B7
330
2
100
AcDbEntity
  8
0
100
AcDbCircle
 10
585.4891681625452
 20
409.0537322187897
 30
0.0
 40
0.5
100
AcDbArc
 50
269.9999999999478
 51
359.5000000000345
  0
ARC
  5
24B8
330
2
100
AcDbEntity
  8
0
100
AcDbCircle
 10
573.5415864868675
 20
407.5537322187897
 30
0.0
 40
1.0
100
AcDbArc
 50
90.0
 51
179.5000000000344
  0
LINE
  5
24B9
330
2
100
AcDbEntity
  8
CENTER
100
AcDbLine
 10
578.9848237678341
 20
398.0537322187842
 30
0.0
 11
578.9848237678336
 21
419.0537322187897
 31
0.0
  0
LINE
  5
24BA
330
2
100
AcDbEntity
  8
0
100
AcDbLine
 10
583.9848237678336
 20
415.65373221879
 30
0.0
 11
583.2920034448059
 21
416.0537322187897
 31
0.0
  0
LINE
  5
24BB
330
2
100
AcDbEntity
  8
0
100
AcDbLine
 10
583.9848237678336
 20
410.0537322187896
 30
0.0
 11
573.9848237678336
 21
410.0537322187896
 31
0.0
  0
LINE
  5
24BC
330
2
100
AcDbEntity
  8
0
100
AcDbLine
 10
583.9848237678336
 20
415.65373221879
 30
0.0
 11
573.9848237678336
 21
415.65373221879
 31
0.0
  0
LINE
  5
24BD
330
2
100
AcDbEntity
  8
0
100
AcDbLine
 10
583.9848237678336
 20
408.5537322187897
 30
0.0
 11
583.9848237678336
 21
415.65373221879
 31
0.0
  0
LINE
  5
24BE
330
2
100
AcDbEntity
  8
0
100
AcDbLine
 10
573.9848237678336
 20
408.5537322187897
 30
0.0
 11
573.9848237678336
 21
415.65373221879
 31
0.0
  0
LINE
  5
24BF
330
2
100
AcDbEntity
  8
0
100
AcDbLine
 10
573.9848237678336
 20
415.65373221879
 30
0.0
 11
574.6776440908613
 21
416.0537322187897
 31
0.0
  0
LINE
  5
24C0
330
2
100
AcDbEntity
  8
0
100
AcDbLine
 10
583.2920034448059
 20
416.0537322187897
 30
0.0
 11
574.6776440908608
 21
416.0537322187897
 31
0.0
  0
LINE
  5
24C1
330
2
100
AcDbEntity
  8
0
100
AcDbLine
 10
573.9848237678336
 20
408.5537322187897
 30
0.0
 11
583.9848237678336
 21
408.5537322187897
 31
0.0
  0
LINE
  5
24C2
330
2
100
AcDbEntity
  8
0
100
AcDbLine
 10
631.776858933709
 20
401.0537322187824
 30
0.0
 11
631.776858933709
 21
412.5537322187879
 31
0.0
  0
LINE
  5
24C3
330
2
100
AcDbEntity
  8
0
100
AcDbLine
 10
703.907294380607
 20
401.0537322184095
 30
0.0
 11
707.5049342793557
 21
401.0537322184095
 31
0.0
  0
LINE
  5
24C4
330
2
100
AcDbEntity
  8
0
100
AcDbLine
 10
655.4848237678418
 20
411.5537322187897
 30
0.0
 11
675.9848237678422
 21
411.5537322187897
 31
0.0
  0
LINE
  5
24C5
330
2
100
AcDbEntity
  8
0
100
AcDbLine
 10
639.9848237678423
 20
418.3537322187853
 30
0.0
 11
639.9848237678418
 21
415.0537322187861
 31
0.0
  0
LINE
  5
24C6
330
2
100
AcDbEntity
  8
0
100
AcDbLine
 10
639.9848237678423
 20
415.0537322187897
 30
0.0
 11
641.9848237678364
 21
415.0537322187897
 31
0.0
  0
LINE
  5
24C7
330
2
100
AcDbEntity
  8
0
100
AcDbLine
 10
641.9848237678418
 20
415.0537322187861
 30
0.0
 11
642.4848237678418
 21
414.5537322187861
 31
0.0
  0
LINE
  5
24C8
330
2
100
AcDbEntity
  8
0
100
AcDbLine
 10
645.1919305490299
 20
413.846625437603
 30
0.0
 11
644.7777169866561
 21
414.2608389999764
 31
0.0
  0
ARC
  5
24C9
330
2
100
AcDbEntity
  8
0
100
AcDbCircle
 10
655.4848237678418
 20
412.5537322187897
 30
0.0
 40
1.0
100
AcDbArc
 50
180.0
 51
270.0
  0
ARC
  5
24CA
330
2
100
AcDbEntity
  8
0
100
AcDbCircle
 10
653.4848237678418
 20
412.5537322187879
 30
0.0
 40
1.0
100
AcDbArc
 50
0.0
 51
90.0
  0
LINE
  5
24CB
330
2
100
AcDbEntity
  8
0
100
AcDbLine
 10
654.4848237678418
 20
412.5537322187897
 30
0.0
 11
654.4848237678418
 21
412.5537322187879
 31
0.0
  0
LINE
  5
24CC
330
2
100
AcDbEntity
  8
0
100
AcDbLine
 10
639.9848237678423
 20
422.053732218786
 30
0.0
 11
639.9848237678423
 21
420.753732218785
 31
0.0
  0
LINE
  5
24CD
330
2
100
AcDbEntity
  8
0
100
AcDbLine
 10
639.7848237678419
 20
418.553732218786
 30
0.0
 11
639.9848237678423
 21
418.3537322187853
 31
0.0
  0
LINE
  5
24CE
330
2
100
AcDbEntity
  8
0
100
AcDbLine
 10
639.2848237678424
 20
420.3537322187854
 30
0.0
 11
639.2848237678419
 21
418.7537322187849
 31
0.0
  0
LINE
  5
24CF
330
2
100
AcDbEntity
  8
0
100
AcDbLine
 10
639.9848237678423
 20
422.053732218786
 30
0.0
 11
639.4074734986527
 21
423.0537322187861
 31
0.0
  0
ARC
  5
24D0
330
2
100
AcDbEntity
  8
0
100
AcDbCircle
 10
644.0706102054689
 20
413.5537322187897
 30
0.0
 40
1.0
100
AcDbArc
 50
44.99999999999078
 51
90.0
  0
ARC
  5
24D1
330
2
100
AcDbEntity
  8
0
100
AcDbCircle
 10
645.8990373302169
 20
414.5537322187879
 30
0.0
 40
1.0
100
AcDbArc
 50
224.9999999999908
 51
270.0
  0
ARC
  5
24D2
330
2
100
AcDbEntity
  8
0
100
AcDbCircle
 10
639.7848237678419
 20
420.753732218785
 30
0.0
 40
0.2
100
AcDbArc
 50
270.0
 51
0.0
  0
ARC
  5
24D3
330
2
100
AcDbEntity
  8
0
100
AcDbCircle
 10
639.4848237678423
 20
420.3537322187854
 30
0.0
 40
0.2
100
AcDbArc
 50
90.0
 51
180.0
  0
ARC
  5
24D4
330
2
100
AcDbEntity
  8
0
100
AcDbCircle
 10
639.4848237678423
 20
418.7537322187849
 30
0.0
 40
0.2
100
AcDbArc
 50
180.0
 51
270.0
  0
LINE
  5
24D5
330
2
100
AcDbEntity
  8
0
100
AcDbLine
 10
654.4848237678418
 20
412.5537322187879
 30
0.0
 11
654.4848237678418
 21
401.053732218786
 31
0.0
  0
LINE
  5
24D6
330
2
100
AcDbEntity
  8
0
100
AcDbLine
 10
649.4848237678422
 20
401.0537322187824
 30
0.0
 11
649.4848237678422
 21
412.5537322187879
 31
0.0
  0
LINE
  5
24D7
330
2
100
AcDbEntity
  8
0
100
AcDbLine
 10
646.4848237678422
 20
401.0537322187824
 30
0.0
 11
646.4848237678422
 21
412.5537322187879
 31
0.0
  0
ARC
  5
24D8
330
2
100
AcDbEntity
  8
0
100
AcDbCircle
 10
703.907294380607
 20
398.0537322184095
 30
0.0
 40
3.0
100
AcDbArc
 50
90.0
 51
178.5000000000103
  0
ARC
  5
24D9
330
2
100
AcDbEntity
  8
0
100
AcDbCircle
 10
699.9072943808889
 20
401.0537322187842
 30
0.0
 40
2.0
100
AcDbArc
 50
270.0
 51
323.1301023487886
  0
LINE
  5
24DA
330
2
100
AcDbEntity
  8
0
100
AcDbLine
 10
699.9072943808889
 20
399.0537322187842
 30
0.0
 11
689.4848999246116
 21
399.0537322187842
 31
0.0
  0
ARC
  5
24DB
330
2
100
AcDbEntity
  8
0
100
AcDbCircle
 10
689.4848237678417
 20
401.0537322187842
 30
0.0
 40
2.0
100
AcDbArc
 50
180.0
 51
270.0
  0
ARC
  5
24DC
330
2
100
AcDbEntity
  8
0
100
AcDbCircle
 10
692.4848237678418
 20
400.0537322187843
 30
0.0
 40
5.0
100
AcDbArc
 50
180.0
 51
270.0
  0
LINE
  5
24DD
330
2
100
AcDbEntity
  8
0
100
AcDbLine
 10
696.1613276882892
 20
395.0537322187842
 30
0.0
 11
692.4848237678422
 21
395.0537322187842
 31
0.0
  0
ARC
  5
24DE
330
2
100
AcDbEntity
  8
0
100
AcDbCircle
 10
696.1613276882892
 20
400.0537322187843
 30
0.0
 40
5.0
100
AcDbArc
 50
270.0
 51
345.5224878112701
  0
LINE
  5
24DF
330
2
100
AcDbEntity
  8
0
100
AcDbLine
 10
685.9848237678423
 20
411.5537322187897
 30
0.0
 11
686.4018804454433
 21
411.5537322187897
 31
0.0
  0
LINE
  5
24E0
330
2
100
AcDbEntity
  8
0
100
AcDbLine
 10
674.4848237678422
 20
408.5537322187897
 30
0.0
 11
686.428061048816
 21
408.5537322187897
 31
0.0
  0
LINE
  5
24E1
330
2
100
AcDbEntity
  8
0
100
AcDbLine
 10
687.4848237678422
 20
401.0537322187879
 30
0.0
 11
687.4018423685076
 21
410.5624587542875
 31
0.0
  0
ARC
  5
24E2
330
2
100
AcDbEntity
  8
0
100
AcDbCircle
 10
686.428061048816
 20
407.5537322187897
 30
0.0
 40
1.0
100
AcDbArc
 50
0.499999999965521
 51
90.0
  0
ARC
  5
24E3
330
2
100
AcDbEntity
  8
0
100
AcDbCircle
 10
686.4018804454433
 20
410.5537322187897
 30
0.0
 40
1.0
100
AcDbArc
 50
0.499999999965521
 51
90.0
  0
LINE
  5
24E4
330
2
100
AcDbEntity
  8
0
100
AcDbLine
 10
687.4848237678418
 20
401.0537322187897
 30
0.0
 11
683.9848237678418
 21
401.0537322187879
 31
0.0
  0
LINE
  5
24E5
330
2
100
AcDbEntity
  8
0
100
AcDbLine
 10
673.9848237678423
 20
410.5537322187897
 30
0.0
 11
673.9848237678423
 21
409.0537322187897
 31
0.0
  0
ARC
  5
24E6
330
2
100
AcDbEntity
  8
0
100
AcDbCircle
 10
672.9848237678423
 20
410.5537322187897
 30
0.0
 40
1.0
100
AcDbArc
 50
0.0
 51
90.0
  0
ARC
  5
24E7
330
2
100
AcDbEntity
  8
0
100
AcDbCircle
 10
674.4848237678422
 20
409.0537322187897
 30
0.0
 40
0.5
100
AcDbArc
 50
180.0
 51
270.0
  0
LINE
  5
24E8
330
2
100
AcDbEntity
  8
CENTER
100
AcDbLine
 10
680.9848237678432
 20
398.0537322187842
 30
0.0
 11
680.9848237678423
 21
419.0537322187897
 31
0.0
  0
LINE
  5
24E9
330
2
100
AcDbEntity
  8
0
100
AcDbLine
 10
685.9848237678423
 20
415.65373221879
 30
0.0
 11
685.292003444815
 21
416.0537322187897
 31
0.0
  0
LINE
  5
24EA
330
2
100
AcDbEntity
  8
0
100
AcDbLine
 10
685.9848237678423
 20
410.0537322187896
 30
0.0
 11
675.9848237678422
 21
410.0537322187896
 31
0.0
  0
LINE
  5
24EB
330
2
100
AcDbEntity
  8
0
100
AcDbLine
 10
685.9848237678423
 20
415.65373221879
 30
0.0
 11
675.9848237678422
 21
415.65373221879
 31
0.0
  0
LINE
  5
24EC
330
2
100
AcDbEntity
  8
0
100
AcDbLine
 10
685.9848237678423
 20
408.5537322187897
 30
0.0
 11
685.9848237678423
 21
415.65373221879
 31
0.0
  0
LINE
  5
24ED
330
2
100
AcDbEntity
  8
0
100
AcDbLine
 10
675.9848237678422
 20
408.5537322187897
 30
0.0
 11
675.9848237678422
 21
415.65373221879
 31
0.0
  0
LINE
  5
24EE
330
2
100
AcDbEntity
  8
0
100
AcDbLine
 10
675.9848237678422
 20
415.65373221879
 30
0.0
 11
676.6776440908699
 21
416.0537322187897
 31
0.0
  0
LINE
  5
24EF
330
2
100
AcDbEntity
  8
0
100
AcDbLine
 10
685.292003444815
 20
416.0537322187897
 30
0.0
 11
676.6776440908695
 21
416.0537322187897
 31
0.0
  0
LINE
  5
24F0
330
2
100
AcDbEntity
  8
0
100
AcDbLine
 10
675.9848237678422
 20
408.5537322187897
 30
0.0
 11
685.9848237678423
 21
408.5537322187897
 31
0.0
  0
LINE
  5
24F1
330
2
100
AcDbEntity
  8
HIDS
100
AcDbLine
 10
675.9848237678422
 20
411.5537322187897
 30
0.0
 11
685.9848237678423
 21
411.5537322187897
 31
0.0
  0
ARC
  5
24F2
330
2
100
AcDbEntity
  8
0
100
AcDbCircle
 10
707.5049342793557
 20
406.0537322184095
 30
0.0
 40
5.0
100
AcDbArc
 50
270.0
 51
351.78678930133
  0
ARC
  5
24F3
330
2
100
AcDbEntity
  8
0
100
AcDbCircle
 10
714.4331375096856
 20
405.0537322187842
 30
0.0
 40
2.0
100
AcDbArc
 50
90.0
 51
178.5000000000103
  0
LINE
  5
24F4
330
2
100
AcDbEntity
  8
0
100
AcDbLine
 10
720.4848237678422
 20
407.0537322187842
 30
0.0
 11
714.4331375096856
 21
407.0537322187842
 31
0.0
  0
LINE
  5
3498
330
2
100
AcDbEntity
  8
0
100
AcDbLine
 10
431.7808511358964
 20
100.4216021945874
 30
0.0
 11
402.2808511358973
 21
100.4216021945874
 31
0.0
  0
LINE
  5
3499
330
2
100
AcDbEntity
  8
0
100
AcDbLine
 10
402.2808511358973
 20
118.4216021945874
 30
0.0
 11
431.7808511358964
 21
118.4216021945874
 31
0.0
  0
LINE
  5
349A
330
2
100
AcDbEntity
  8
0
100
AcDbLine
 10
408.2808511358355
 20
112.4215315301867
 30
0.0
 11
432.2808511358964
 21
112.4215561946012
 31
0.0
  0
LINE
  5
349B
330
2
100
AcDbEntity
  8
0
100
AcDbLine
 10
408.2808511358355
 20
106.4215315301585
 30
0.0
 11
432.2808511358964
 21
106.421556194573
 31
0.0
  0
LINE
  5
349D
330
2
100
AcDbEntity
  8
0
100
AcDbLine
 10
402.2808511358973
 20
119.421601905874
 30
0.0
 11
402.2808511358973
 21
99.42160190587177
 31
0.0
  0
LINE
  5
349E
330
2
100
AcDbEntity
  8
0
100
AcDbLine
 10
401.2808511358973
 20
123.1328810599925
 30
0.0
 11
401.2808511358973
 21
95.71023132918211
 31
0.0
  0
ARC
  5
349F
330
2
100
AcDbEntity
  8
0
100
AcDbCircle
 10
400.7808511358973
 20
123.1328810599925
 30
0.0
 40
0.5
100
AcDbArc
 50
0.0
 51
60.00000000000109
  0
LINE
  5
34A0
330
2
100
AcDbEntity
  8
0
100
AcDbLine
 10
402.2808511358973
 20
119.421601905874
 30
0.0
 11
401.2808511358973
 21
119.9989521750635
 31
0.0
  0
LINE
  5
34A1
330
2
100
AcDbEntity
  8
0
100
AcDbLine
 10
402.2808511358973
 20
99.42151048330041
 30
0.0
 11
401.2808511358973
 21
98.84416021411064
 31
0.0
  0
LINE
  5
34A2
330
2
100
AcDbEntity
  8
0
100
AcDbLine
 10
401.0308511358974
 20
123.5658937618846
 30
0.0
 11
400.8790129000464
 21
123.6535576082265
 31
0.0
  0
ARC
  5
34A3
330
2
100
AcDbEntity
  8
0
100
AcDbCircle
 10
399.8790129000465
 20
121.9215068006574
 30
0.0
 40
2.0
100
AcDbArc
 50
60.00000000000109
 51
78.40928831454826
  0
ARC
  5
34A4
330
2
100
AcDbEntity
  8
0
100
AcDbCircle
 10
400.7808511358973
 20
95.71023132918211
 30
0.0
 40
0.5
100
AcDbArc
 50
299.9999999999989
 51
0.0
  0
LINE
  5
34A5
330
2
100
AcDbEntity
  8
0
100
AcDbLine
 10
401.0308511358974
 20
95.27721862728984
 30
0.0
 11
400.8790129000464
 21
95.18955478094815
 31
0.0
  0
ARC
  5
34A6
330
2
100
AcDbEntity
  8
0
100
AcDbCircle
 10
399.8790129000465
 20
96.921605588517
 30
0.0
 40
2.0
100
AcDbArc
 50
281.5907116854517
 51
299.9999999999989
  0
ARC
  5
34A7
330
2
100
AcDbEntity
  8
0
100
AcDbCircle
 10
408.2808511358355
 20
109.4215315301726
 30
0.0
 40
3.000000000014103
100
AcDbArc
 50
90.0
 51
270.0
  0
LINE
  5
34A9
330
2
100
AcDbEntity
  8
0
100
AcDbLine
 10
622.484869767842
 20
323.0537322187806
 30
0.0
 11
622.484869767842
 21
293.5537322187815
 31
0.0
  0
LINE
  5
34AA
330
2
100
AcDbEntity
  8
0
100
AcDbLine
 10
601.9848697678465
 20
320.0537322187551
 30
0.0
 11
601.9848697678465
 21
293.0537322187815
 31
0.0
  0
LINE
  5
34AB
330
2
100
AcDbEntity
  8
0
100
AcDbLine
 10
604.9994936032857
 20
317.0537322188424
 30
0.0
 11
604.9994936032857
 21
293.0537322187815
 31
0.0
  0
LINE
  5
34AF
330
2
100
AcDbEntity
  8
0
100
AcDbLine
 10
432.2808511358964
 20
117.9216021945874
 30
0.0
 11
432.2808511358964
 21
100.9216021945874
 31
0.0
  0
LINE
  5
34B0
330
2
100
AcDbEntity
  8
0
100
AcDbLine
 10
431.7808511358964
 20
118.4216021945874
 30
0.0
 11
432.2808511358964
 21
117.9216021945874
 31
0.0
  0
LINE
  5
34B1
330
2
100
AcDbEntity
  8
0
100
AcDbLine
 10
432.2808511358964
 20
100.9216021945874
 30
0.0
 11
431.7808511358964
 21
100.4216021945874
 31
0.0
  0
LINE
  5
34B2
330
2
100
AcDbEntity
  8
0
100
AcDbLine
 10
431.7808511358964
 20
118.4216021945874
 30
0.0
 11
431.7808511358964
 21
112.4215556807594
 31
0.0
  0
LINE
  5
34B3
330
2
100
AcDbEntity
  8
0
100
AcDbLine
 10
431.7808511358964
 20
106.4215556807312
 30
0.0
 11
431.7808511358964
 21
100.4216021945874
 31
0.0
  0
ARC
  5
34B4
330
2
100
AcDbEntity
  8
0
100
AcDbCircle
 10
613.4848237678463
 20
109.4215561945878
 30
0.0
 40
9.000045999985673
100
AcDbArc
 50
199.4711170987082
 51
160.5288829012917
  0
ARC
  5
34B5
330
2
100
AcDbEntity
  8
0
100
AcDbCircle
 10
613.4848237678582
 20
109.421556194585
 30
0.0
 40
10.00004571127499
100
AcDbArc
 50
197.4575207583724
 51
162.5424792415863
  0
ARC
  5
34B6
330
2
100
AcDbEntity
  8
0
100
AcDbCircle
 10
613.4848237678582
 20
109.421556194585
 30
0.0
 40
10.57739598046464
100
AcDbArc
 50
196.4765970291204
 51
163.5234029708402
  0
CIRCLE
  5
34B7
330
2
100
AcDbEntity
  8
0
100
AcDbCircle
 10
613.4848237678582
 20
109.4215561945991
 30
0.0
 40
14.49995060603862
  0
LINE
  5
34B9
330
2
100
AcDbEntity
  8
0
100
AcDbLine
 10
601.9848697678319
 20
106.4215561945882
 30
0.0
 11
607.9848697678319
 21
106.4215561945882
 31
0.0
  0
LINE
  5
34BA
330
2
100
AcDbEntity
  8
0
100
AcDbLine
 10
601.9848697678319
 20
112.4215561945882
 30
0.0
 11
607.9848697678319
 21
112.4215561945882
 31
0.0
  0
LINE
  5
34BB
330
2
100
AcDbEntity
  8
0
100
AcDbLine
 10
607.9848697678319
 20
112.4215561945882
 30
0.0
 11
607.9848697678319
 21
106.4215561945882
 31
0.0
  0
LINE
  5
34BC
330
2
100
AcDbEntity
  8
0
100
AcDbLine
 10
601.9848697678319
 20
112.4215561945882
 30
0.0
 11
601.9848697678319
 21
106.4215561945882
 31
0.0
  0
LINE
  5
34BD
330
2
100
AcDbEntity
  8
0
100
AcDbLine
 10
621.984869767842
 20
293.0537322187815
 30
0.0
 11
601.9848697678465
 21
293.0537322187815
 31
0.0
  0
LINE
  5
34BE
330
2
100
AcDbEntity
  8
0
100
AcDbLine
 10
622.484869767842
 20
293.5537322187815
 30
0.0
 11
604.9994936032866
 21
293.5537322187815
 31
0.0
  0
LINE
  5
34BF
330
2
100
AcDbEntity
  8
0
100
AcDbLine
 10
622.484869767842
 20
293.5537322187815
 30
0.0
 11
621.984869767842
 21
293.0537322187815
 31
0.0
  0
LINE
  5
34C2
330
2
100
AcDbEntity
  8
0
100
AcDbLine
 10
876.1165162262514
 20
118.4215101945882
 30
0.0
 11
905.6165162262505
 21
118.4215101945882
 31
0.0
  0
LINE
  5
34C3
330
2
100
AcDbEntity
  8
0
100
AcDbLine
 10
905.6165162262505
 20
100.4215101945882
 30
0.0
 11
876.1165162262514
 21
100.4215101945882
 31
0.0
  0
LINE
  5
34C4
330
2
100
AcDbEntity
  8
0
100
AcDbLine
 10
875.6165162262513
 20
100.9215101945882
 30
0.0
 11
875.6165162262513
 21
117.9215101945882
 31
0.0
  0
LINE
  5
34C5
330
2
100
AcDbEntity
  8
0
100
AcDbLine
 10
876.1165162262514
 20
118.4215101945882
 30
0.0
 11
875.6165162262513
 21
117.9215101945882
 31
0.0
  0
LINE
  5
34C6
330
2
100
AcDbEntity
  8
0
100
AcDbLine
 10
876.1165162262514
 20
100.4215101945882
 30
0.0
 11
875.6165162262513
 21
100.9215101945882
 31
0.0
  0
LINE
  5
34C7
330
2
100
AcDbEntity
  8
0
100
AcDbLine
 10
876.1165162262514
 20
100.4215101945882
 30
0.0
 11
876.1165162262514
 21
118.4215101945882
 31
0.0
  0
LINE
  5
34C8
330
2
100
AcDbEntity
  8
0
100
AcDbLine
 10
905.6165162262505
 20
99.42151048330186
 30
0.0
 11
905.6165162262505
 21
119.4215104833036
 31
0.0
  0
LINE
  5
34C9
330
2
100
AcDbEntity
  8
0
100
AcDbLine
 10
906.6165162262505
 20
95.71023132918332
 30
0.0
 11
906.6165162262505
 21
123.1328810599942
 31
0.0
  0
ARC
  5
34CA
330
2
100
AcDbEntity
  8
0
100
AcDbCircle
 10
907.1165162262504
 20
95.71023132918332
 30
0.0
 40
0.5
100
AcDbArc
 50
180.0
 51
240.000000000001
  0
LINE
  5
34CB
330
2
100
AcDbEntity
  8
0
100
AcDbLine
 10
905.6165162262505
 20
99.42151048330186
 30
0.0
 11
906.6165162262505
 21
98.84416021411187
 31
0.0
  0
LINE
  5
34CC
330
2
100
AcDbEntity
  8
0
100
AcDbLine
 10
905.6165162262505
 20
119.4216019058757
 30
0.0
 11
906.6165162262505
 21
119.9989521750647
 31
0.0
  0
LINE
  5
34CD
330
2
100
AcDbEntity
  8
0
100
AcDbLine
 10
906.8665162262504
 20
95.27721862729128
 30
0.0
 11
907.0183544621013
 21
95.18955478094984
 31
0.0
  0
ARC
  5
34CE
330
2
100
AcDbEntity
  8
0
100
AcDbCircle
 10
908.0183544621013
 20
96.92160558851799
 30
0.0
 40
2.0
100
AcDbArc
 50
240.000000000001
 51
258.4092883145482
  0
ARC
  5
34CF
330
2
100
AcDbEntity
  8
0
100
AcDbCircle
 10
907.1165162262504
 20
123.1328810599942
 30
0.0
 40
0.5
100
AcDbArc
 50
119.9999999999989
 51
180.0
  0
LINE
  5
34D0
330
2
100
AcDbEntity
  8
0
100
AcDbLine
 10
906.8665162262504
 20
123.5658937618862
 30
0.0
 11
907.0183544621013
 21
123.6535576082277
 31
0.0
  0
ARC
  5
34D1
330
2
100
AcDbEntity
  8
0
100
AcDbCircle
 10
908.0183544621013
 20
121.9215068006586
 30
0.0
 40
2.0
100
AcDbArc
 50
101.5907116854517
 51
119.9999999999989
  0
LINE
  5
34D3
330
2
100
AcDbEntity
  8
0
100
AcDbLine
 10
623.4848694791284
 20
323.0537322187806
 30
0.0
 11
603.4848694791265
 21
323.0537322187806
 31
0.0
  0
LINE
  5
34D4
330
2
100
AcDbEntity
  8
0
100
AcDbLine
 10
627.1961486332469
 20
324.0537322187806
 30
0.0
 11
599.773498902436
 21
324.0537322187806
 31
0.0
  0
LINE
  5
34D5
330
2
100
AcDbEntity
  8
0
100
AcDbLine
 10
604.484869767842
 20
320.0537322187551
 30
0.0
 11
604.484869767842
 21
323.0537322187806
 31
0.0
  0
LINE
  5
34D6
330
2
100
AcDbEntity
  8
0
100
AcDbLine
 10
603.4847780565545
 20
323.0537322187806
 30
0.0
 11
602.9074277873654
 21
324.0537322187806
 31
0.0
  0
ARC
  5
34D7
330
2
100
AcDbEntity
  8
0
100
AcDbCircle
 10
599.773498902436
 20
324.5537322187806
 30
0.0
 40
0.5
100
AcDbArc
 50
209.9999999999977
 51
270.0
  0
LINE
  5
34D8
330
2
100
AcDbEntity
  8
0
100
AcDbLine
 10
599.340486200544
 20
324.3037322187806
 30
0.0
 11
599.2528223542024
 21
324.4555704546314
 31
0.0
  0
ARC
  5
34D9
330
2
100
AcDbEntity
  8
0
100
AcDbCircle
 10
600.9848731617715
 20
325.4555704546314
 30
0.0
 40
2.0
100
AcDbArc
 50
191.590711685451
 51
209.9999999999977
  0
LINE
  5
34DA
330
2
100
AcDbEntity
  8
0
100
AcDbLine
 10
601.9848697678465
 20
320.0537322187551
 30
0.0
 11
604.484869767842
 21
320.0537322187551
 31
0.0
  0
LINE
  5
34DB
330
2
100
AcDbEntity
  8
0
100
AcDbLine
 10
604.484869767842
 20
320.0537322187551
 30
0.0
 11
604.9994936032857
 21
317.0537322188424
 31
0.0
  0
ARC
  5
34DC
330
2
100
AcDbEntity
  8
0
100
AcDbCircle
 10
627.1961486332469
 20
324.5537322187806
 30
0.0
 40
0.5
100
AcDbArc
 50
270.0
 51
330.0000000000022
  0
LINE
  5
34DD
330
2
100
AcDbEntity
  8
0
100
AcDbLine
 10
623.4848694791284
 20
323.0537322187806
 30
0.0
 11
624.0622197483183
 21
324.0537322187806
 31
0.0
  0
LINE
  5
34DE
330
2
100
AcDbEntity
  8
0
100
AcDbLine
 10
627.6291613351389
 20
324.3037322187806
 30
0.0
 11
627.7168251814804
 21
324.4555704546314
 31
0.0
  0
ARC
  5
34DF
330
2
100
AcDbEntity
  8
0
100
AcDbCircle
 10
625.9847743739122
 20
325.4555704546314
 30
0.0
 40
2.0
100
AcDbArc
 50
330.0000000000022
 51
348.4092883145489
  0
CIRCLE
  5
37EA
330
2
100
AcDbEntity
  8
0
100
AcDbCircle
 10
613.4848237678582
 20
109.4215561945991
 30
0.0
 40
23.5774
  0
ENDSEC
  0
SECTION
  2
OBJECTS
  0
DICTIONARY
  5
7
330
0
100
AcDbDictionary
  3
ACAD_COLOR
350
1D3A
  3
ACAD_GROUP
350
75
  3
ACAD_LAYOUT
350
61
  3
ACAD_MATERIAL
350
1D10
  3
ACAD_MLEADERSTYLE
350
1D5F
  3
ACAD_MLINESTYLE
350
76
  3
ACAD_PLOTSETTINGS
350
77
  3
ACAD_PLOTSTYLENAME
350
6
  3
ACAD_SCALELIST
350
1D3D
  3
ACAD_TABLESTYLE
350
1D3B
  3
ACAD_VISUALSTYLE
350
1D29
  3
ACADDIM
350
480
  3
ACDB_RECOMPOSE_DATA
350
1E17
  3
ACDBHEADERROUNDTRIPXREC
350
3804
  3
ACDBVARIABLEDICTIONARY
350
102
  3
DWGPROPS
350
1E4D
  0
DICTIONARY
  5
1E20
330
6E
100
AcDbDictionary
280
     1
  3
ACAD_XREC_ROUNDTRIP
360
1E55
  0
DICTIONARY
  5
AF6
330
66
100
AcDbDictionary
280
     1
  3
ACAD_LAYERSTATES
360
AF7
  0
DICTIONARY
  5
1D8E
330
5E
100
AcDbDictionary
280
     1
  3
ACAD_XREC_ROUNDTRIP
360
1E50
  3
ADSK_XREC_LAYER_RECONCILED
360
1D8F
  0
DICTIONARY
  5
1D90
330
3E
100
AcDbDictionary
280
     1
  3
ACAD_XREC_ROUNDTRIP
360
1E4F
  3
ADSK_XREC_LAYER_RECONCILED
360
1D91
  0
DICTIONARY
  5
1D96
330
2B5
100
AcDbDictionary
280
     1
  3
ACAD_XREC_ROUNDTRIP
360
1E5B
  3
ADSK_XREC_LAYER_RECONCILED
360
1D97
  0
DICTIONARY
  5
1D98
330
2BA
100
AcDbDictionary
280
     1
  3
ACAD_XREC_ROUNDTRIP
360
1E5C
  3
ADSK_XREC_LAYER_RECONCILED
360
1D99
  0
DICTIONARY
  5
1D9C
330
3FA
100
AcDbDictionary
280
     1
  3
ACAD_XREC_ROUNDTRIP
360
1E5E
  3
ADSK_XREC_LAYER_RECONCILED
360
1D9D
  0
DICTIONARY
  5
3825
330
2
100
AcDbDictionary
280
     1
  3
ACAD_LAYOUTSELFREF
360
3826
  0
DICTIONARY
  5
3827
330
37FE
100
AcDbDictionary
280
     1
  3
ACAD_LAYOUTSELFREF
360
3828
  0
DICTIONARY
  5
1D3A
102
{ACAD_REACTORS
330
7
102
}
330
7
100
AcDbDictionary
  0
DICTIONARY
  5
75
102
{ACAD_REACTORS
330
7
102
}
330
7
100
AcDbDictionary
  0
DICTIONARY
  5
61
102
{ACAD_REACTORS
330
7
102
}
330
7
100
AcDbDictionary
  0
DICTIONARY
  5
1D10
102
{ACAD_REACTORS
330
7
102
}
330
7
100
AcDbDictionary
  3
BYBLOCK
350
1D19
  3
BYLAYER
350
1D11
  3
GLOBAL
350
1D21
  0
DICTIONARY
  5
1D5F
102
{ACAD_REACTORS
330
7
102
}
330
7
100
AcDbDictionary
  3
STANDARD
350
1D60
  0
DICTIONARY
  5
76
102
{ACAD_REACTORS
330
7
102
}
330
7
100
AcDbDictionary
  3
STANDARD
350
78
  0
DICTIONARY
  5
77
102
{ACAD_REACTORS
330
7
102
}
330
7
100
AcDbDictionary
  0
ACDBDICTIONARYWDFLT
  5
6
102
{ACAD_REACTORS
330
7
102
}
330
7
100
AcDbDictionary
281
     1
  3
Normal
350
5
100
AcDbDictionaryWithDefault
340
5
  0
DICTIONARY
  5
1D3D
102
{ACAD_REACTORS
330
7
102
}
330
7
100
AcDbDictionary
  3
A0
350
1D3E
  3
A1
350
1D3F
  3
A2
350
1D40
  3
A3
350
1D41
  3
A4
350
1D42
  3
A5
350
1D43
  3
A6
350
1D44
  3
A7
350
1D45
  3
A8
350
1D46
  3
A9
350
1D47
  3
B0
350
1D48
  3
B1
350
1D49
  3
B2
350
1D4A
  3
B3
350
1D4B
  3
B4
350
1D4C
  3
B5
350
1D4D
  3
B6
350
1D4E
  3
B7
350
1D4F
  3
B8
350
1D50
  3
B9
350
1D51
  3
C0
350
1D52
  3
C1
350
1D53
  3
C2
350
1D54
  3
C3
350
1D55
  3
C4
350
1D56
  3
C5
350
1D57
  3
C6
350
1D58
  3
C7
350
1D59
  3
C8
350
1D5A
  3
C9
350
1D5B
  3
D0
350
1D5C
  3
D1
350
1D5D
  3
D2
350
1D5E
  0
DICTIONARY
  5
1D3B
102
{ACAD_REACTORS
330
7
102
}
330
7
100
AcDbDictionary
  3
STANDARD
350
1D3C
  0
DICTIONARY
  5
1D29
102
{ACAD_REACTORS
330
7
102
}
330
7
100
AcDbDictionary
  3
2DWIREFRAME
350
1D2F
  3
3D_HIDDEN
350
1D31
  3
3DWIREFRAME
350
1D30
  3
BASIC
350
1D2E
  3
BRIGHTEN
350
1D35
  3
COLORCHANGE
350
1D39
  3
CONCEPTUAL
350
1D32
  3
DIM
350
1D34
  3
FACEPATTERN
350
1D38
  3
FLAT
350
1D2A
  3
FLATWITHEDGES
350
1D2B
  3
GOURAUD
350
1D2C
  3
GOURAUDWITHEDGES
350
1D2D
  3
LINEPATTERN
350
1D37
  3
REALISTIC
350
1D33
  3
THICKEN
350
1D36
  0
XRECORD
  5
480
102
{ACAD_REACTORS
330
7
102
}
330
7
100
AcDbXrecord
 90
   990106
  3

 60
     0
 61
     0
 62
     1
 63
     3
 64
     1
 65
     0
 66
     0
 67
     3
 68
     1
 69
     0
 70
     0
 71
     0
 72
     0
 40
0.0
170
     2
340
0
  0
XRECORD
  5
1E17
102
{ACAD_REACTORS
330
7
102
}
330
7
100
AcDbXrecord
 90
        1
330
1D3C
  0
DICTIONARY
  5
3804
102
{ACAD_REACTORS
330
7
102
}
330
7
100
AcDbDictionary
  3
CEPSNTYPE
350
380E
  3
DIMSTYLEDATA
350
3812
  3
FINGERPRINTGUID
350
380F
  3
HYPERLINKBASE
350
3807
  3
INSUNITS
350
380D
  3
LAYOUTDICT
350
3809
  3
LWETCUNION
350
380C
  3
PLOTSETDICT
350
380A
  3
PLOTSTYLNAMDICT
350
380B
  3
PSVPSCALE
350
3811
  3
PUCSBASE
350
3815
  3
PUCSORGBACK
350
381B
  3
PUCSORGBOTTOM
350
3817
  3
PUCSORGFRONT
350
381A
  3
PUCSORGLEFT
350
3818
  3
PUCSORGRIGHT
350
3819
  3
PUCSORGTOP
350
3816
  3
PUCSORTHOREF
350
3813
  3
PUCSORTHOVIEW
350
3814
  3
STYLESHEET
350
3808
  3
TSTACKALIGN
350
3805
  3
TSTACKSIZE
350
3806
  3
UCSBASE
350
381E
  3
UCSORGBACK
350
3824
  3
UCSORGBOTTOM
350
3820
  3
UCSORGFRONT
350
3823
  3
UCSORGLEFT
350
3821
  3
UCSORGRIGHT
350
3822
  3
UCSORGTOP
350
381F
  3
UCSORTHOREF
350
381C
  3
UCSORTHOVIEW
350
381D
  3
VERSIONGUID
350
3810
  0
DICTIONARY
  5
102
102
{ACAD_REACTORS
330
7
102
}
330
7
100
AcDbDictionary
  3
CANNOSCALE
350
1E3A
  3
CMLEADERSTYLE
350
1E39
  3
CTABLESTYLE
350
1E38
  3
DIMASSOC
350
103
  3
INDEXCTL
350
1E3B
  3
SORTENTS
350
549
  0
XRECORD
  5
1E4D
102
{ACAD_REACTORS
330
7
102
}
330
7
100
AcDbXrecord
  1
DWGPROPS COOKIE
  2

  3

  4

  6

  7

  8
ymorima
  9

300
=
301
=
302
=
303
=
304
=
305
=
306
=
307
=
308
=
309
=
 40
0.0118334027777778
 41
2454411.594523646
 42
2454412.448425741
  1

 90
        0
  0
XRECORD
  5
1E55
102
{ACAD_REACTORS
330
1E20
102
}
330
1E20
100
AcDbXrecord
102
VTR_0.000_0.000_1.000_1.000_VISUALSTYLE
340
1D2F
102
VTR_0.000_0.000_1.000_1.000_GRIDDISPLAY
 70
     3
102
VTR_0.000_0.000_1.000_1.000_GRIDMAJOR
 70
     5
102
VTR_0.000_0.000_1.000_1.000_DEFAULTLIGHTING
280
     1
102
VTR_0.000_0.000_1.000_1.000_DEFAULTLIGHTINGTYPE
 70
     1
102
VTR_0.000_0.000_1.000_1.000_BRIGHTNESS
141
0.0
102
VTR_0.000_0.000_1.000_1.000_CONTRAST
142
0.0
  0
DICTIONARY
  5
AF7
102
{ACAD_REACTORS
330
AF6
102
}
330
AF6
100
AcDbDictionary
  0
XRECORD
  5
1E50
102
{ACAD_REACTORS
330
1D8E
102
}
330
1D8E
100
AcDbXrecord
102
MATERIAL
340
1D21
  0
XRECORD
  5
1D8F
102
{ACAD_REACTORS
330
1D8E
102
}
330
1D8E
100
AcDbXrecord
290
     1
  0
XRECORD
  5
1E4F
102
{ACAD_REACTORS
330
1D90
102
}
330
1D90
100
AcDbXrecord
102
MATERIAL
340
1D21
  0
XRECORD
  5
1D91
102
{ACAD_REACTORS
330
1D90
102
}
330
1D90
100
AcDbXrecord
290
     1
  0
XRECORD
  5
1E5B
102
{ACAD_REACTORS
330
1D96
102
}
330
1D96
100
AcDbXrecord
102
MATERIAL
340
1D21
  0
XRECORD
  5
1D97
102
{ACAD_REACTORS
330
1D96
102
}
330
1D96
100
AcDbXrecord
290
     1
  0
XRECORD
  5
1E5C
102
{ACAD_REACTORS
330
1D98
102
}
330
1D98
100
AcDbXrecord
102
MATERIAL
340
1D21
  0
XRECORD
  5
1D99
102
{ACAD_REACTORS
330
1D98
102
}
330
1D98
100
AcDbXrecord
290
     1
  0
XRECORD
  5
1E5E
102
{ACAD_REACTORS
330
1D9C
102
}
330
1D9C
100
AcDbXrecord
102
MATERIAL
340
1D21
  0
XRECORD
  5
1D9D
102
{ACAD_REACTORS
330
1D9C
102
}
330
1D9C
100
AcDbXrecord
290
     1
  0
XRECORD
  5
3826
102
{ACAD_REACTORS
330
3825
102
}
330
3825
100
AcDbXrecord
340
2
  0
XRECORD
  5
3828
102
{ACAD_REACTORS
330
3827
102
}
330
3827
100
AcDbXrecord
340
37FE
  0
ACAD_PROXY_OBJECT
  5
1D19
102
{ACAD_XDICTIONARY
360
1D1A
102
}
102
{ACAD_REACTORS
330
1D10
102
}
330
1D10
100
AcDbProxyObject
 90
      499
 91
      510
 93
     1340
310
42109E509B1BD8DAC02004014080404555555555555953FAA155555555555654FEA9AA400014080404555555555555953FAA155555555555654FEA9AA400000000000000E03F4080404555555555555953FAA155555555555654FEA9AA4014080404555555555555953FAA155555555555654FEA9AA4010201011555555555
310
55654FEA8555555555555953FAA6A9005020101155555555555654FEA8555555555555953FAA6A9000
 94
        0
1001
ACAD
1000
AcadProxyRoundTripData
1071
      504
1071
   655383
1070
     0
  0
ACAD_PROXY_OBJECT
  5
1D11
102
{ACAD_XDICTIONARY
360
1D12
102
}
102
{ACAD_REACTORS
330
1D10
102
}
330
1D10
100
AcDbProxyObject
 90
      499
 91
      510
 93
     1340
310
42109E53185E595C802004014080404555555555555953FAA155555555555654FEA9AA400014080404555555555555953FAA155555555555654FEA9AA400000000000000E03F4080404555555555555953FAA155555555555654FEA9AA4014080404555555555555953FAA155555555555654FEA9AA4010201011555555555
310
55654FEA8555555555555953FAA6A9005020101155555555555654FEA8555555555555953FAA6A9000
 94
        0
1001
ACAD
1000
AcadProxyRoundTripData
1071
      504
1071
   655383
1070
     0
  0
ACAD_PROXY_OBJECT
  5
1D21
102
{ACAD_XDICTIONARY
360
1D22
102
}
102
{ACAD_REACTORS
330
1D10
102
}
330
1D10
100
AcDbProxyObject
 90
      499
 91
      510
 93
     1332
310
41D1DB1BD8985B002004014080404555555555555953FAA155555555555654FEA9AA400014080404555555555555953FAA155555555555654FEA9AA400000000000000E03F4080404555555555555953FAA155555555555654FEA9AA4014080404555555555555953FAA155555555555654FEA9AA401020101155555555555
310
654FEA8555555555555953FAA6A9005020101155555555555654FEA8555555555555953FAA6A9000
 94
        0
1001
ACAD
1000
AcadProxyRoundTripData
1071
      504
1071
   655383
1070
     0
  0
ACAD_PROXY_OBJECT
  5
1D60
102
{ACAD_REACTORS
330
1D5F
102
}
330
1D5F
100
AcDbProxyObject
 90
      499
 91
      510
 93
      618
310
40901902A4063FBFFFFFE056BD1B81E855B9FC0AD7A3703D0AD73F4254DD185B99185C990000AD7A3703D0AC73F90141901A02B5E8DC0F42B1CFC02B5E8DC0F42B1CFE5764000000000000300FC6
340
6A
340
0
340
16
340
0
 94
        0
1001
ACAD_MLEADERVER
1070
     2
1001
ACAD
1000
AcadProxyRoundTripData
1071
      508
1071
   655383
1070
     0
  0
MLINESTYLE
  5
78
102
{ACAD_REACTORS
330
76
102
}
330
76
100
AcDbMlineStyle
  2
STANDARD
 70
     0
  3

 62
     0
 51
90.0
 52
90.0
 71
     2
 49
0.5
 62
   256
  6
BYLAYER
 49
-0.5
 62
   256
  6
BYLAYER
  0
ACDBPLACEHOLDER
  5
5
102
{ACAD_REACTORS
330
6
102
}
330
6
100
AcDbPlaceHolder
280
     0
  0
ACAD_PROXY_OBJECT
  5
1D3E
102
{ACAD_REACTORS
330
1D3D
102
}
330
1D3D
100
AcDbProxyObject
 90
      499
 91
      510
 93
       49
310
904313A3100598
 94
        0
1001
ACAD
1000
AcadProxyRoundTripData
1071
      507
1071
   655383
1070
     0
  0
ACAD_PROXY_OBJECT
  5
1D3F
102
{ACAD_REACTORS
330
1D3D
102
}
330
1D3D
100
AcDbProxyObject
 90
      499
 91
      510
 93
      113
310
904313A3200400000000000000406B
 94
        0
1001
ACAD
1000
AcadProxyRoundTripData
1071
      507
1071
   655383
1070
     0
  0
ACAD_PROXY_OBJECT
  5
1D40
102
{ACAD_REACTORS
330
1D3D
102
}
330
1D3D
100
AcDbProxyObject
 90
      499
 91
      510
 93
      113
310
904313A3400400000000000010406B
 94
        0
1001
ACAD
1000
AcadProxyRoundTripData
1071
      507
1071
   655383
1070
     0
  0
ACAD_PROXY_OBJECT
  5
1D41
102
{ACAD_REACTORS
330
1D3D
102
}
330
1D3D
100
AcDbProxyObject
 90
      499
 91
      510
 93
      113
310
904313A3500400000000000014406B
 94
        0
1001
ACAD
1000
AcadProxyRoundTripData
1071
      507
1071
   655383
1070
     0
  0
ACAD_PROXY_OBJECT
  5
1D42
102
{ACAD_REACTORS
330
1D3D
102
}
330
1D3D
100
AcDbProxyObject
 90
      499
 91
      510
 93
      113
310
904313A3800400000000000020406B
 94
        0
1001
ACAD
1000
AcadProxyRoundTripData
1071
      507
1071
   655383
1070
     0
  0
ACAD_PROXY_OBJECT
  5
1D43
102
{ACAD_REACTORS
330
1D3D
102
}
330
1D3D
100
AcDbProxyObject
 90
      499
 91
      510
 93
      121
310
905313A3130004000000000000244051
 94
        0
1001
ACAD
1000
AcadProxyRoundTripData
1071
      507
1071
   655383
1070
     0
  0
ACAD_PROXY_OBJECT
  5
1D44
102
{ACAD_REACTORS
330
1D3D
102
}
330
1D3D
100
AcDbProxyObject
 90
      499
 91
      510
 93
      121
310
905313A3136004000000000000304051
 94
        0
1001
ACAD
1000
AcadProxyRoundTripData
1071
      507
1071
   655383
1070
     0
  0
ACAD_PROXY_OBJECT
  5
1D45
102
{ACAD_REACTORS
330
1D3D
102
}
330
1D3D
100
AcDbProxyObject
 90
      499
 91
      510
 93
      121
310
905313A3230004000000000000344051
 94
        0
1001
ACAD
1000
AcadProxyRoundTripData
1071
      507
1071
   655383
1070
     0
  0
ACAD_PROXY_OBJECT
  5
1D46
102
{ACAD_REACTORS
330
1D3D
102
}
330
1D3D
100
AcDbProxyObject
 90
      499
 91
      510
 93
      121
310
905313A33300040000000000003E4051
 94
        0
1001
ACAD
1000
AcadProxyRoundTripData
1071
      507
1071
   655383
1070
     0
  0
ACAD_PROXY_OBJECT
  5
1D47
102
{ACAD_REACTORS
330
1D3D
102
}
330
1D3D
100
AcDbProxyObject
 90
      499
 91
      510
 93
      121
310
905313A3430004000000000000444051
 94
        0
1001
ACAD
1000
AcadProxyRoundTripData
1071
      507
1071
   655383
1070
     0
  0
ACAD_PROXY_OBJECT
  5
1D48
102
{ACAD_REACTORS
330
1D3D
102
}
330
1D3D
100
AcDbProxyObject
 90
      499
 91
      510
 93
      121
310
905313A3530004000000000000494051
 94
        0
1001
ACAD
1000
AcadProxyRoundTripData
1071
      507
1071
   655383
1070
     0
  0
ACAD_PROXY_OBJECT
  5
1D49
102
{ACAD_REACTORS
330
1D3D
102
}
330
1D3D
100
AcDbProxyObject
 90
      499
 91
      510
 93
      129
310
906313A313030004000000000000594038
 94
        0
1001
ACAD
1000
AcadProxyRoundTripData
1071
      507
1071
   655383
1070
     0
  0
ACAD_PROXY_OBJECT
  5
1D4A
102
{ACAD_REACTORS
330
1D3D
102
}
330
1D3D
100
AcDbProxyObject
 90
      499
 91
      510
 93
      113
310
904323A31000000000000000010159
 94
        0
1001
ACAD
1000
AcadProxyRoundTripData
1071
      507
1071
   655383
1070
     0
  0
ACAD_PROXY_OBJECT
  5
1D4B
102
{ACAD_REACTORS
330
1D3D
102
}
330
1D3D
100
AcDbProxyObject
 90
      499
 91
      510
 93
      113
310
904343A31000000000000000410159
 94
        0
1001
ACAD
1000
AcadProxyRoundTripData
1071
      507
1071
   655383
1070
     0
  0
ACAD_PROXY_OBJECT
  5
1D4C
102
{ACAD_REACTORS
330
1D3D
102
}
330
1D3D
100
AcDbProxyObject
 90
      499
 91
      510
 93
      113
310
904383A31000000000000000810159
 94
        0
1001
ACAD
1000
AcadProxyRoundTripData
1071
      507
1071
   655383
1070
     0
  0
ACAD_PROXY_OBJECT
  5
1D4D
102
{ACAD_REACTORS
330
1D3D
102
}
330
1D3D
100
AcDbProxyObject
 90
      499
 91
      510
 93
      121
310
90531303A31000000000000000910140
 94
        0
1001
ACAD
1000
AcadProxyRoundTripData
1071
      507
1071
   655383
1070
     0
  0
ACAD_PROXY_OBJECT
  5
1D4E
102
{ACAD_REACTORS
330
1D3D
102
}
330
1D3D
100
AcDbProxyObject
 90
      499
 91
      510
 93
      129
310
9063130303A31000000000000001650138
 94
        0
1001
ACAD
1000
AcadProxyRoundTripData
1071
      507
1071
   655383
1070
     0
  0
ACAD_PROXY_OBJECT
  5
1D4F
102
{ACAD_REACTORS
330
1D3D
102
}
330
1D3D
100
AcDbProxyObject
 90
      499
 91
      510
 93
      265
310
90F312F31323822203D2031272D302200000000000000200FC00000000000028402B
 94
        0
1001
ACAD
1000
AcadProxyRoundTripData
1071
      507
1071
   655383
1070
     0
  0
ACAD_PROXY_OBJECT
  5
1D50
102
{ACAD_REACTORS
330
1D3D
102
}
330
1D3D
100
AcDbProxyObject
 90
      499
 91
      510
 93
      257
310
90E312F363422203D2031272D302200000000000000240FC000000000000284040
 94
        0
1001
ACAD
1000
AcadProxyRoundTripData
1071
      507
1071
   655383
1070
     0
  0
ACAD_PROXY_OBJECT
  5
1D51
102
{ACAD_REACTORS
330
1D3D
102
}
330
1D3D
100
AcDbProxyObject
 90
      499
 91
      510
 93
      257
310
90E312F333222203D2031272D302200000000000000280FC000000000000284040
 94
        0
1001
ACAD
1000
AcadProxyRoundTripData
1071
      507
1071
   655383
1070
     0
  0
ACAD_PROXY_OBJECT
  5
1D52
102
{ACAD_REACTORS
330
1D3D
102
}
330
1D3D
100
AcDbProxyObject
 90
      499
 91
      510
 93
      257
310
90E312F313622203D2031272D3022000000000000002C0FC000000000000284040
 94
        0
1001
ACAD
1000
AcadProxyRoundTripData
1071
      507
1071
   655383
1070
     0
  0
ACAD_PROXY_OBJECT
  5
1D53
102
{ACAD_REACTORS
330
1D3D
102
}
330
1D3D
100
AcDbProxyObject
 90
      499
 91
      510
 93
      257
310
90E332F333222203D2031272D3022000000000000002E0FC000000000000284040
 94
        0
1001
ACAD
1000
AcadProxyRoundTripData
1071
      507
1071
   655383
1070
     0
  0
ACAD_PROXY_OBJECT
  5
1D54
102
{ACAD_REACTORS
330
1D3D
102
}
330
1D3D
100
AcDbProxyObject
 90
      499
 91
      510
 93
      249
310
90D312F3822203D2031272D302200000000000000300FC000000000000284040
 94
        0
1001
ACAD
1000
AcadProxyRoundTripData
1071
      507
1071
   655383
1070
     0
  0
ACAD_PROXY_OBJECT
  5
1D55
102
{ACAD_REACTORS
330
1D3D
102
}
330
1D3D
100
AcDbProxyObject
 90
      499
 91
      510
 93
      257
310
90E332F313622203D2031272D302200000000000000320FC000000000000284040
 94
        0
1001
ACAD
1000
AcadProxyRoundTripData
1071
      507
1071
   655383
1070
     0
  0
ACAD_PROXY_OBJECT
  5
1D56
102
{ACAD_REACTORS
330
1D3D
102
}
330
1D3D
100
AcDbProxyObject
 90
      499
 91
      510
 93
      249
310
90D312F3422203D2031272D302200000000000000340FC000000000000284040
 94
        0
1001
ACAD
1000
AcadProxyRoundTripData
1071
      507
1071
   655383
1070
     0
  0
ACAD_PROXY_OBJECT
  5
1D57
102
{ACAD_REACTORS
330
1D3D
102
}
330
1D3D
100
AcDbProxyObject
 90
      499
 91
      510
 93
      249
310
90D332F3822203D2031272D302200000000000000360FC000000000000284040
 94
        0
1001
ACAD
1000
AcadProxyRoundTripData
1071
      507
1071
   655383
1070
     0
  0
ACAD_PROXY_OBJECT
  5
1D58
102
{ACAD_REACTORS
330
1D3D
102
}
330
1D3D
100
AcDbProxyObject
 90
      499
 91
      510
 93
      249
310
90D312F3222203D2031272D302200000000000000380FC000000000000284040
 94
        0
1001
ACAD
1000
AcadProxyRoundTripData
1071
      507
1071
   655383
1070
     0
  0
ACAD_PROXY_OBJECT
  5
1D59
102
{ACAD_REACTORS
330
1D3D
102
}
330
1D3D
100
AcDbProxyObject
 90
      499
 91
      510
 93
      249
310
90D332F3422203D2031272D3022000000000000003A0FC000000000000284040
 94
        0
1001
ACAD
1000
AcadProxyRoundTripData
1071
      507
1071
   655383
1070
     0
  0
ACAD_PROXY_OBJECT
  5
1D5A
102
{ACAD_REACTORS
330
1D3D
102
}
330
1D3D
100
AcDbProxyObject
 90
      499
 91
      510
 93
      169
310
90B3122203D2031272D3022004000000000000284020
 94
        0
1001
ACAD
1000
AcadProxyRoundTripData
1071
      507
1071
   655383
1070
     0
  0
ACAD_PROXY_OBJECT
  5
1D5B
102
{ACAD_REACTORS
330
1D3D
102
}
330
1D3D
100
AcDbProxyObject
 90
      499
 91
      510
 93
      265
310
90F312D312F3222203D2031272D3022000000000000003E0FC00000000000028402B
 94
        0
1001
ACAD
1000
AcadProxyRoundTripData
1071
      507
1071
   655383
1070
     0
  0
ACAD_PROXY_OBJECT
  5
1D5C
102
{ACAD_REACTORS
330
1D3D
102
}
330
1D3D
100
AcDbProxyObject
 90
      499
 91
      510
 93
      233
310
90B3322203D2031272D30220000000000000002100000000000000284000
 94
        0
1001
ACAD
1000
AcadProxyRoundTripData
1071
      507
1071
   655383
1070
     0
  0
ACAD_PROXY_OBJECT
  5
1D5D
102
{ACAD_REACTORS
330
1D3D
102
}
330
1D3D
100
AcDbProxyObject
 90
      499
 91
      510
 93
      233
310
90B3622203D2031272D30220000000000000006100000000000000284000
 94
        0
1001
ACAD
1000
AcadProxyRoundTripData
1071
      507
1071
   655383
1070
     0
  0
ACAD_PROXY_OBJECT
  5
1D5E
102
{ACAD_REACTORS
330
1D3D
102
}
330
1D3D
100
AcDbProxyObject
 90
      499
 91
      510
 93
      257
310
90E31272D3022203D2031272D3022000000000000000A100000000000000284040
 94
        0
1001
ACAD
1000
AcadProxyRoundTripData
1071
      507
1071
   655383
1070
     0
  0
ACAD_PROXY_OBJECT
  5
1D3C
102
{ACAD_XDICTIONARY
360
1E15
102
}
102
{ACAD_REACTORS
330
1D3B
102
}
330
1D3B
100
AcDbProxyObject
 90
      499
 91
      510
 93
     1849
310
4254DD185B99185C990028B81E85EB51B8AE3F2E07A17AD46E2B8FC02B5E8DC0F42B1CFD028000000C1008070000C3001FDFF8000000C1003FBFF000000182007F7FE00000030400FEFFC00000060801FDFF8000000C1003FBFF00000018200000000000000681FA0B0000001820100E000186003FBFF000000182007F7FE0
310
0000030400FEFFC00000060801FDFF8000000C1003FBFF000000182007F7FE000000304000AD7A3703D0AC73F4160000003040201C00030C007F7FE00000030400FEFFC00000060801FDFF8000000C1003FBFF000000182007F7FE00000030400FEFFC000000608000
340
16
340
16
340
16
 94
        0
1001
ACAD
1000
AcadProxyRoundTripData
1071
      506
1071
   655383
1070
     0
  0
ACAD_PROXY_OBJECT
  5
1D2F
102
{ACAD_REACTORS
330
1D29
102
}
330
1D29
100
AcDbProxyObject
 90
      499
 91
      510
 93
      444
310
430C9915DA5C99599C985B59401049028333333333333E3BF0000000000000FB0107901411070040501600405405064090741402480A0340
 94
        0
1001
ACAD
1000
AcDbSavedByObjectVersion
1070
     0
1000
AcadProxyRoundTripData
1071
      505
1071
   655383
1070
     0
  0
ACAD_PROXY_OBJECT
  5
1D31
102
{ACAD_REACTORS
330
1D29
102
}
330
1D29
100
AcDbProxyObject
 90
      499
 91
      510
 93
      508
310
428CD108121A5919195B8010640502408333333333333E3BF0000000000000FB01079024090700405020000000000001110200405405064090740C02480A0340
 94
        0
1001
ACAD
1000
AcDbSavedByObjectVersion
1070
     0
1000
AcadProxyRoundTripData
1071
      505
1071
   655383
1070
     0
  0
ACAD_PROXY_OBJECT
  5
1D30
102
{ACAD_REACTORS
330
1D29
102
}
330
1D29
100
AcDbProxyObject
 90
      499
 91
      510
 93
      444
310
430CD915DA5C99599C985B59401059028333333333333E3BF0000000000000FB0107901411070040501600405405064090741402480A0340
 94
        0
1001
ACAD
1000
AcDbSavedByObjectVersion
1070
     0
1000
AcadProxyRoundTripData
1071
      505
1071
   655383
1070
     0
  0
ACAD_PROXY_OBJECT
  5
1D2E
102
{ACAD_REACTORS
330
1D29
102
}
330
1D29
100
AcDbProxyObject
 90
      499
 91
      510
 93
      396
310
4190985CDA58C0107406404333333333333E3BF0000000000000FB0107A41107004050150841D405064090741402480A0356
 94
        0
1001
ACAD
1000
AcDbSavedByObjectVersion
1070
     0
1000
AcadProxyRoundTripData
1071
      505
1071
   655383
1070
     0
  0
ACAD_PROXY_OBJECT
  5
1D35
102
{ACAD_REACTORS
330
1D29
102
}
330
1D29
100
AcDbProxyObject
 90
      499
 91
      510
 93
      436
310
42509C9A59DA1D195B8010C409028333333333333E3BF0000000000000FB010790141107004050150841D405064090741402480A029956
 94
        0
1001
ACAD
1000
AcDbSavedByObjectVersion
1070
     0
1000
AcadProxyRoundTripData
1071
      505
1071
   655383
1070
     0
  0
ACAD_PROXY_OBJECT
  5
1D39
102
{ACAD_REACTORS
330
1D29
102
}
330
1D29
100
AcDbProxyObject
 90
      499
 91
      510
 93
      460
310
4310DBDB1BDC90DA185B99D9401104090240C333333333333E3BF0000000000000FB0108901411070040501508421405064090741402480A0354
 94
        0
1001
ACAD
1000
AcDbSavedByObjectVersion
1070
     0
1000
AcadProxyRoundTripData
1071
      505
1071
   655383
1070
     0
  0
ACAD_PROXY_OBJECT
  5
1D32
102
{ACAD_REACTORS
330
1D29
102
}
330
1D29
100
AcDbProxyObject
 90
      499
 91
      510
 93
      508
310
42D0DBDB98D95C1D1D585B0010940D028333333333333E3BF0000000000000FB0107902409070040501000000000000111010841D405064090740C02480A0340
 94
        0
1001
ACAD
1000
AcDbSavedByObjectVersion
1070
     0
1000
AcadProxyRoundTripData
1071
      505
1071
   655383
1070
     0
  0
ACAD_PROXY_OBJECT
  5
1D34
102
{ACAD_REACTORS
330
1D29
102
}
330
1D29
100
AcDbProxyObject
 90
      499
 91
      510
 93
      420
310
41111A5B4010B409028333333333333E3BF0000000000000FB010790141107004050150841D405064090741402480A02677FFFFFDB
 94
        0
1001
ACAD
1000
AcDbSavedByObjectVersion
1070
     0
1000
AcadProxyRoundTripData
1071
      505
1071
   655383
1070
     0
  0
ACAD_PROXY_OBJECT
  5
1D38
102
{ACAD_REACTORS
330
1D29
102
}
330
1D29
100
AcDbProxyObject
 90
      499
 91
      510
 93
      452
310
43119858D95C185D1D195C9B8010F409028333333333333E3BF0000000000000FB010790141107004050150841D405064090741402480A0350
 94
        0
1001
ACAD
1000
AcDbSavedByObjectVersion
1070
     0
1000
AcadProxyRoundTripData
1071
      505
1071
   655383
1070
     0
  0
ACAD_PROXY_OBJECT
  5
1D2A
102
{ACAD_REACTORS
330
1D29
102
}
330
1D29
100
AcDbProxyObject
 90
      499
 91
      510
 93
      396
310
41519B185D00240901404333333333333E3BF0000000000000F9010740A41107004050150841D405064090741402480A1B55
 94
        0
1001
ACAD
1000
AcDbSavedByObjectVersion
1070
     0
1000
AcadProxyRoundTripData
1071
      505
1071
   655383
1070
     0
  0
ACAD_PROXY_OBJECT
  5
1D2B
102
{ACAD_REACTORS
330
1D29
102
}
330
1D29
100
AcDbProxyObject
 90
      499
 91
      510
 93
      484
310
43919B185D15DA5D1A115919D95CC010140901404333333333333E3BF0000000000000F9010740901411070040501600405405064090741402480A1B50
 94
        0
1001
ACAD
1000
AcDbSavedByObjectVersion
1070
     0
1000
AcadProxyRoundTripData
1071
      505
1071
   655383
1070
     0
  0
ACAD_PROXY_OBJECT
  5
1D2C
102
{ACAD_REACTORS
330
1D29
102
}
330
1D29
100
AcDbProxyObject
 90
      499
 91
      510
 93
      420
310
4211DBDD5C985D590010240902404333333333333E3BF0000000000000F9010740A411070040501641D405064090741402480A1B50
 94
        0
1001
ACAD
1000
AcDbSavedByObjectVersion
1070
     0
1000
AcadProxyRoundTripData
1071
      505
1071
   655383
1070
     0
  0
ACAD_PROXY_OBJECT
  5
1D2D
102
{ACAD_REACTORS
330
1D29
102
}
330
1D29
100
AcDbProxyObject
 90
      499
 91
      510
 93
      508
310
4451DBDD5C985D5915DA5D1A115919D95CC010340902404333333333333E3BF0000000000000F9010740901411070040501600405405064090741402480A1B50
 94
        0
1001
ACAD
1000
AcDbSavedByObjectVersion
1070
     0
1000
AcadProxyRoundTripData
1071
      505
1071
   655383
1070
     0
  0
ACAD_PROXY_OBJECT
  5
1D37
102
{ACAD_REACTORS
330
1D29
102
}
330
1D29
100
AcDbProxyObject
 90
      499
 91
      510
 93
      452
310
43131A5B995C185D1D195C9B8010E409028333333333333E3BF0000000000000FB010790141107004050750841D405064090741402483A0350
 94
        0
1001
ACAD
1000
AcDbSavedByObjectVersion
1070
     0
1000
AcadProxyRoundTripData
1071
      505
1071
   655383
1070
     0
  0
ACAD_PROXY_OBJECT
  5
1D33
102
{ACAD_REACTORS
330
1D29
102
}
330
1D29
100
AcDbProxyObject
 90
      499
 91
      510
 93
      428
310
429499585B1A5CDD1A58C0108409028333333333333E3BF0000000000000FB01079019070040501508421405064090741402480A1B45
 94
        0
1001
ACAD
1000
AcDbSavedByObjectVersion
1070
     0
1000
AcadProxyRoundTripData
1071
      505
1071
   655383
1070
     0
  0
ACAD_PROXY_OBJECT
  5
1D36
102
{ACAD_REACTORS
330
1D29
102
}
330
1D29
100
AcDbProxyObject
 90
      499
 91
      510
 93
      420
310
42151A1A58DAD95B8010D409028333333333333E3BF0000000000000FB010790141107004050150C41D405064090741402480A0352
 94
        0
1001
ACAD
1000
AcDbSavedByObjectVersion
1070
     0
1000
AcadProxyRoundTripData
1071
      505
1071
   655383
1070
     0
  0
XRECORD
  5
380E
102
{ACAD_REACTORS
330
3804
102
}
330
3804
100
AcDbXrecord
 90
        0
  0
XRECORD
  5
3812
102
{ACAD_REACTORS
330
3804
102
}
330
3804
100
AcDbXrecord
1000
DSTYLE
1002
{
1070
   179
 70
     2
1070
   277
 70
     6
1002
}
  0
XRECORD
  5
380F
102
{ACAD_REACTORS
330
3804
102
}
330
3804
100
AcDbXrecord
  1
{6385560B-F4B1-4644-A7C2-A3E32AC3D232}
  0
XRECORD
  5
3807
102
{ACAD_REACTORS
330
3804
102
}
330
3804
100
AcDbXrecord
  1

  0
XRECORD
  5
380D
102
{ACAD_REACTORS
330
3804
102
}
330
3804
100
AcDbXrecord
 90
        0
  0
XRECORD
  5
3809
102
{ACAD_REACTORS
330
3804
102
}
330
3804
100
AcDbXrecord
340
61
  0
XRECORD
  5
380C
102
{ACAD_REACTORS
330
3804
102
}
330
3804
100
AcDbXrecord
 90
    10781
  0
XRECORD
  5
380A
102
{ACAD_REACTORS
330
3804
102
}
330
3804
100
AcDbXrecord
340
77
  0
XRECORD
  5
380B
102
{ACAD_REACTORS
330
3804
102
}
330
3804
100
AcDbXrecord
340
6
  0
XRECORD
  5
3811
102
{ACAD_REACTORS
330
3804
102
}
330
3804
100
AcDbXrecord
 40
0.0
  0
XRECORD
  5
3815
102
{ACAD_REACTORS
330
3804
102
}
330
3804
100
AcDbXrecord
340
0
  0
XRECORD
  5
381B
102
{ACAD_REACTORS
330
3804
102
}
330
3804
100
AcDbXrecord
 10
0.0
 20
0.0
 30
0.0
  0
XRECORD
  5
3817
102
{ACAD_REACTORS
330
3804
102
}
330
3804
100
AcDbXrecord
 10
0.0
 20
0.0
 30
0.0
  0
XRECORD
  5
381A
102
{ACAD_REACTORS
330
3804
102
}
330
3804
100
AcDbXrecord
 10
0.0
 20
0.0
 30
0.0
  0
XRECORD
  5
3818
102
{ACAD_REACTORS
330
3804
102
}
330
3804
100
AcDbXrecord
 10
0.0
 20
0.0
 30
0.0
  0
XRECORD
  5
3819
102
{ACAD_REACTORS
330
3804
102
}
330
3804
100
AcDbXrecord
 10
0.0
 20
0.0
 30
0.0
  0
XRECORD
  5
3816
102
{ACAD_REACTORS
330
3804
102
}
330
3804
100
AcDbXrecord
 10
0.0
 20
0.0
 30
0.0
  0
XRECORD
  5
3813
102
{ACAD_REACTORS
330
3804
102
}
330
3804
100
AcDbXrecord
340
0
  0
XRECORD
  5
3814
102
{ACAD_REACTORS
330
3804
102
}
330
3804
100
AcDbXrecord
 70
     0
  0
XRECORD
  5
3808
102
{ACAD_REACTORS
330
3804
102
}
330
3804
100
AcDbXrecord
  1
Sekkei.ctb
  0
XRECORD
  5
3805
102
{ACAD_REACTORS
330
3804
102
}
330
3804
100
AcDbXrecord
 90
        1
  0
XRECORD
  5
3806
102
{ACAD_REACTORS
330
3804
102
}
330
3804
100
AcDbXrecord
 90
       70
  0
XRECORD
  5
381E
102
{ACAD_REACTORS
330
3804
102
}
330
3804
100
AcDbXrecord
340
0
  0
XRECORD
  5
3824
102
{ACAD_REACTORS
330
3804
102
}
330
3804
100
AcDbXrecord
 10
0.0
 20
0.0
 30
0.0
  0
XRECORD
  5
3820
102
{ACAD_REACTORS
330
3804
102
}
330
3804
100
AcDbXrecord
 10
0.0
 20
0.0
 30
0.0
  0
XRECORD
  5
3823
102
{ACAD_REACTORS
330
3804
102
}
330
3804
100
AcDbXrecord
 10
0.0
 20
0.0
 30
0.0
  0
XRECORD
  5
3821
102
{ACAD_REACTORS
330
3804
102
}
330
3804
100
AcDbXrecord
 10
0.0
 20
0.0
 30
0.0
  0
XRECORD
  5
3822
102
{ACAD_REACTORS
330
3804
102
}
330
3804
100
AcDbXrecord
 10
0.0
 20
0.0
 30
0.0
  0
XRECORD
  5
381F
102
{ACAD_REACTORS
330
3804
102
}
330
3804
100
AcDbXrecord
 10
0.0
 20
0.0
 30
0.0
  0
XRECORD
  5
381C
102
{ACAD_REACTORS
330
3804
102
}
330
3804
100
AcDbXrecord
340
0
  0
XRECORD
  5
381D
102
{ACAD_REACTORS
330
3804
102
}
330
3804
100
AcDbXrecord
 70
     0
  0
XRECORD
  5
3810
102
{ACAD_REACTORS
330
3804
102
}
330
3804
100
AcDbXrecord
  1
{5F422B22-D64A-4901-9F33-0286E4577445}
  0
DICTIONARYVAR
  5
1E3A
102
{ACAD_REACTORS
330
102
102
}
330
102
100
DictionaryVariables
280
     0
  1
1:1
  0
DICTIONARYVAR
  5
1E39
102
{ACAD_REACTORS
330
102
102
}
330
102
100
DictionaryVariables
280
     0
  1
STANDARD
  0
DICTIONARYVAR
  5
1E38
102
{ACAD_REACTORS
330
102
102
}
330
102
100
DictionaryVariables
280
     0
  1
STANDARD
  0
DICTIONARYVAR
  5
103
102
{ACAD_REACTORS
330
102
102
}
330
102
100
DictionaryVariables
280
     0
  1
1
  0
DICTIONARYVAR
  5
1E3B
102
{ACAD_REACTORS
330
102
102
}
330
102
100
DictionaryVariables
280
     0
  1
0
  0
DICTIONARYVAR
  5
549
102
{ACAD_REACTORS
330
102
102
}
330
102
100
DictionaryVariables
280
     0
  1
96
  0
DICTIONARY
  5
1D1A
330
1D19
100
AcDbDictionary
280
     1
  3
ACAD_XREC_ROUNDTRIP
360
1E69
  3
BUMPTILE
360
1D1C
  3
DIFFUSETILE
360
1D1B
  3
OPACITYTILE
360
1D1F
  3
REFLECTIONTILE
360
1D1E
  3
REFRACTIONTILE
360
1D20
  3
SPECULARTILE
360
1D1D
  0
DICTIONARY
  5
1D12
330
1D11
100
AcDbDictionary
280
     1
  3
ACAD_XREC_ROUNDTRIP
360
1E68
  3
BUMPTILE
360
1D14
  3
DIFFUSETILE
360
1D13
  3
OPACITYTILE
360
1D17
  3
REFLECTIONTILE
360
1D16
  3
REFRACTIONTILE
360
1D18
  3
SPECULARTILE
360
1D15
  0
DICTIONARY
  5
1D22
330
1D21
100
AcDbDictionary
280
     1
  3
ACAD_XREC_ROUNDTRIP
360
1E6A
  3
BUMPTILE
360
1D24
  3
DIFFUSETILE
360
1D23
  3
OPACITYTILE
360
1D27
  3
REFLECTIONTILE
360
1D26
  3
REFRACTIONTILE
360
1D28
  3
SPECULARTILE
360
1D25
  0
DICTIONARY
  5
1E15
330
1D3C
100
AcDbDictionary
280
     1
  3
ACAD_ROUNDTRIP_2008_TABLES
360
1E4C
  3
ACAD_XREC_ROUNDTRIP
360
1E6B
  0
XRECORD
  5
1E69
102
{ACAD_REACTORS
330
1D1A
102
}
330
1D1A
100
AcDbXrecord
102
MATERIAL
148
0.0
149
0.0
149
0.0
 93
        0
 94
      127
282
     0
 72
     0
 77
     0
171
     0
175
     0
179
     0
273
     0
  0
XRECORD
  5
1D1C
102
{ACAD_REACTORS
330
1D1A
102
}
330
1D1A
100
AcDbXrecord
270
     1
271
     1
  0
XRECORD
  5
1D1B
102
{ACAD_REACTORS
330
1D1A
102
}
330
1D1A
100
AcDbXrecord
270
     1
271
     1
  0
XRECORD
  5
1D1F
102
{ACAD_REACTORS
330
1D1A
102
}
330
1D1A
100
AcDbXrecord
270
     1
271
     1
  0
XRECORD
  5
1D1E
102
{ACAD_REACTORS
330
1D1A
102
}
330
1D1A
100
AcDbXrecord
270
     1
271
     1
  0
XRECORD
  5
1D20
102
{ACAD_REACTORS
330
1D1A
102
}
330
1D1A
100
AcDbXrecord
270
     1
271
     1
  0
XRECORD
  5
1D1D
102
{ACAD_REACTORS
330
1D1A
102
}
330
1D1A
100
AcDbXrecord
270
     1
271
     1
  0
XRECORD
  5
1E68
102
{ACAD_REACTORS
330
1D12
102
}
330
1D12
100
AcDbXrecord
102
MATERIAL
148
0.0
149
0.0
149
0.0
 93
        0
 94
      127
282
     0
 72
     0
 77
     0
171
     0
175
     0
179
     0
273
     0
  0
XRECORD
  5
1D14
102
{ACAD_REACTORS
330
1D12
102
}
330
1D12
100
AcDbXrecord
270
     1
271
     1
  0
XRECORD
  5
1D13
102
{ACAD_REACTORS
330
1D12
102
}
330
1D12
100
AcDbXrecord
270
     1
271
     1
  0
XRECORD
  5
1D17
102
{ACAD_REACTORS
330
1D12
102
}
330
1D12
100
AcDbXrecord
270
     1
271
     1
  0
XRECORD
  5
1D16
102
{ACAD_REACTORS
330
1D12
102
}
330
1D12
100
AcDbXrecord
270
     1
271
     1
  0
XRECORD
  5
1D18
102
{ACAD_REACTORS
330
1D12
102
}
330
1D12
100
AcDbXrecord
270
     1
271
     1
  0
XRECORD
  5
1D15
102
{ACAD_REACTORS
330
1D12
102
}
330
1D12
100
AcDbXrecord
270
     1
271
     1
  0
XRECORD
  5
1E6A
102
{ACAD_REACTORS
330
1D22
102
}
330
1D22
100
AcDbXrecord
102
MATERIAL
148
0.0
149
0.0
149
0.0
 93
        0
 94
      127
282
     0
 72
     0
 77
     0
171
     0
175
     0
179
     0
273
     0
  0
XRECORD
  5
1D24
102
{ACAD_REACTORS
330
1D22
102
}
330
1D22
100
AcDbXrecord
270
     1
271
     1
  0
XRECORD
  5
1D23
102
{ACAD_REACTORS
330
1D22
102
}
330
1D22
100
AcDbXrecord
270
     1
271
     1
  0
XRECORD
  5
1D27
102
{ACAD_REACTORS
330
1D22
102
}
330
1D22
100
AcDbXrecord
270
     1
271
     1
  0
XRECORD
  5
1D26
102
{ACAD_REACTORS
330
1D22
102
}
330
1D22
100
AcDbXrecord
270
     1
271
     1
  0
XRECORD
  5
1D28
102
{ACAD_REACTORS
330
1D22
102
}
330
1D22
100
AcDbXrecord
270
     1
271
     1
  0
XRECORD
  5
1D25
102
{ACAD_REACTORS
330
1D22
102
}
330
1D22
100
AcDbXrecord
270
     1
271
     1
  0
ACAD_PROXY_OBJECT
  5
1E4C
102
{ACAD_REACTORS
330
1E15
102
}
330
1E15
100
AcDbProxyObject
 90
      499
 91
      510
 93
     1044
310
40D054060020000020000003200101A000080002A5058000000C100000000000000340FE901405075F5449544C450041501A8000000C800406800020000A9416000000304000AD7A3703D0AC73FA409014217D2115051115480105406A0000003200101A000080002A5028000000C10002B5E8DC0F42B1CFE903409065F444
310
15441004
340
16
340
16
340
16
 94
        0
1001
ACAD
1000
AcadProxyRoundTripData
1071
      509
1071
   655383
1070
     0
  0
XRECORD
  5
1E6B
102
{ACAD_REACTORS
330
1E15
102
}
330
1E15
100
AcDbXrecord
102
ACAD_ROUNDTRIP_PRE2007_TABLESTYLE
 90
      512
 91
        0
  1

 92
      512
 93
        0
  2

 94
      512
 95
        0
  3

  0
ENDSEC
  0
EOF
