  0
SECTION
  2
HEADER
  9
$ACADVER
  1
AC1014
  9
$ACADMAINTVER
 70
     9
  9
$DWGCODEPAGE
  3
ANSI_932
  9
$INSBASE
 10
0.0
 20
0.0
 30
0.0
  9
$EXTMIN
 10
34.64009703866372
 20
50.42155619458629
 30
0.0
  9
$EXTMAX
 10
1012.616516226257
 20
433.0537322187878
 30
0.0
  9
$LIMMIN
 10
0.0
 20
0.0
  9
$LIMMAX
 10
297.0
 20
210.0
  9
$ORTHOMODE
 70
     1
  9
$REGENMODE
 70
     1
  9
$FILLMODE
 70
     1
  9
$QTEXTMODE
 70
     0
  9
$MIRRTEXT
 70
     0
  9
$DRAGMODE
 70
     2
  9
$LTSCALE
 40
3.0
  9
$OSMODE
 70
    37
  9
$ATTMODE
 70
     1
  9
$TEXTSIZE
 40
2.0
  9
$TRACEWID
 40
1.0
  9
$TEXTSTYLE
  7
STANDARD
  9
$CLAYER
  8
0
  9
$CELTYPE
  6
BYLAYER
  9
$CECOLOR
 62
   256
  9
$CELTSCALE
 40
1.0
  9
$DELOBJ
 70
     1
  9
$DISPSILH
 70
     0
  9
$DIMSCALE
 40
3.0
  9
$DIMASZ
 40
1.8
  9
$DIMEXO
 40
0.625
  9
$DIMDLI
 40
3.75
  9
$DIMRND
 40
0.0
  9
$DIMDLE
 40
0.0
  9
$DIMEXE
 40
0.8
  9
$DIMTP
 40
0.0
  9
$DIMTM
 40
0.0
  9
$DIMTXT
 40
1.8
  9
$DIMCEN
 40
2.5
  9
$DIMTSZ
 40
0.0
  9
$DIMTOL
 70
     0
  9
$DIMLIM
 70
     0
  9
$DIMTIH
 70
     0
  9
$DIMTOH
 70
     0
  9
$DIMSE1
 70
     0
  9
$DIMSE2
 70
     0
  9
$DIMTAD
 70
     1
  9
$DIMZIN
 70
     8
  9
$DIMBLK
  1

  9
$DIMASO
 70
     1
  9
$DIMSHO
 70
     1
  9
$DIMPOST
  1

  9
$DIMAPOST
  1

  9
$DIMALT
 70
     0
  9
$DIMALTD
 70
     4
  9
$DIMALTF
 40
0.0394
  9
$DIMLFAC
 40
1.0
  9
$DIMTOFL
 70
     1
  9
$DIMTVP
 40
0.0
  9
$DIMTIX
 70
     0
  9
$DIMSOXD
 70
     0
  9
$DIMSAH
 70
     0
  9
$DIMBLK1
  1

  9
$DIMBLK2
  1

  9
$DIMSTYLE
  2
STANDARD
  9
$DIMCLRD
 70
     0
  9
$DIMCLRE
 70
     0
  9
$DIMCLRT
 70
     0
  9
$DIMTFAC
 40
1.0
  9
$DIMGAP
 40
0.75
  9
$DIMJUST
 70
     0
  9
$DIMSD1
 70
     0
  9
$DIMSD2
 70
     0
  9
$DIMTOLJ
 70
     1
  9
$DIMTZIN
 70
     0
  9
$DIMALTZ
 70
     0
  9
$DIMALTTZ
 70
     0
  9
$DIMFIT
 70
     3
  9
$DIMUPT
 70
     0
  9
$DIMUNIT
 70
     8
  9
$DIMDEC
 70
     2
  9
$DIMTDEC
 70
     2
  9
$DIMALTU
 70
     8
  9
$DIMALTTD
 70
     4
  9
$DIMTXSTY
  7
STANDARD
  9
$DIMAUNIT
 70
     0
  9
$LUNITS
 70
     2
  9
$LUPREC
 70
     3
  9
$SKETCHINC
 40
1.0
  9
$FILLETRAD
 40
10.0
  9
$AUNITS
 70
     0
  9
$AUPREC
 70
     2
  9
$MENU
  1
.
  9
$ELEVATION
 40
0.0
  9
$PELEVATION
 40
0.0
  9
$THICKNESS
 40
0.0
  9
$LIMCHECK
 70
     0
  9
$BLIPMODE
 70
     0
  9
$CHAMFERA
 40
0.0
  9
$CHAMFERB
 40
0.0
  9
$CHAMFERC
 40
20.0
  9
$CHAMFERD
 40
0.0
  9
$SKPOLY
 70
     0
  9
$TDCREATE
 40
2454411.659718414
  9
$TDUPDATE
 40
2454424.579678819
  9
$TDINDWG
 40
0.0469773611
  9
$TDUSRTIMER
 40
0.0469773611
  9
$USRTIMER
 70
     1
  9
$ANGBASE
 50
0.0
  9
$ANGDIR
 70
     0
  9
$PDMODE
 70
     0
  9
$PDSIZE
 40
-10.0
  9
$PLINEWID
 40
0.0
  9
$COORDS
 70
     0
  9
$SPLFRAME
 70
     0
  9
$SPLINETYPE
 70
     6
  9
$SPLINESEGS
 70
     8
  9
$ATTDIA
 70
     0
  9
$ATTREQ
 70
     1
  9
$HANDLING
 70
-16383
  9
$HANDSEED
  5
2865
  9
$SURFTAB1
 70
     6
  9
$SURFTAB2
 70
     6
  9
$SURFTYPE
 70
     6
  9
$SURFU
 70
     6
  9
$SURFV
 70
     6
  9
$UCSNAME
  2

  9
$UCSORG
 10
0.0
 20
0.0
 30
0.0
  9
$UCSXDIR
 10
1.0
 20
0.0
 30
0.0
  9
$UCSYDIR
 10
0.0
 20
1.0
 30
0.0
  9
$PUCSNAME
  2

  9
$PUCSORG
 10
0.0
 20
0.0
 30
0.0
  9
$PUCSXDIR
 10
1.0
 20
0.0
 30
0.0
  9
$PUCSYDIR
 10
0.0
 20
1.0
 30
0.0
  9
$USERI1
 70
     0
  9
$USERI2
 70
     0
  9
$USERI3
 70
     0
  9
$USERI4
 70
     0
  9
$USERI5
 70
     0
  9
$USERR1
 40
0.0
  9
$USERR2
 40
0.0
  9
$USERR3
 40
0.0
  9
$USERR4
 40
0.0
  9
$USERR5
 40
0.0
  9
$WORLDVIEW
 70
     1
  9
$SHADEDGE
 70
     3
  9
$SHADEDIF
 70
    70
  9
$TILEMODE
 70
     1
  9
$MAXACTVP
 70
    48
  9
$PINSBASE
 10
0.0
 20
0.0
 30
0.0
  9
$PLIMCHECK
 70
     0
  9
$PEXTMIN
 10
0.0
 20
0.0
 30
0.0
  9
$PEXTMAX
 10
0.0
 20
0.0
 30
0.0
  9
$PLIMMIN
 10
0.0
 20
0.0
  9
$PLIMMAX
 10
12.0
 20
9.0
  9
$UNITMODE
 70
     0
  9
$VISRETAIN
 70
     1
  9
$PLINEGEN
 70
     0
  9
$PSLTSCALE
 70
     1
  9
$TREEDEPTH
 70
  3020
  9
$PICKSTYLE
 70
     1
  9
$CMLSTYLE
  2
STANDARD
  9
$CMLJUST
 70
     0
  9
$CMLSCALE
 40
1.0
  9
$PROXYGRAPHICS
 70
     1
  9
$MEASUREMENT
 70
     0
  0
ENDSEC
  0
SECTION
  2
CLASSES
  0
CLASS
  1
DICTIONARYVAR
  2
AcDbDictionaryVar
  3
AutoCAD 2000
 90
        0
280
     0
281
     0
  0
CLASS
  1
ACDBDICTIONARYWDFLT
  2
AcDbDictionaryWithDefault
  3
AutoCAD 2000
 90
        0
280
     0
281
     0
  0
CLASS
  1
ACDBPLACEHOLDER
  2
AcDbPlaceHolder
  3
AutoCAD 2000
 90
        0
280
     0
281
     0
  0
CLASS
  1
LAYOUT
  2
AcDbLayout
  3
AutoCAD 2000
 90
        0
280
     0
281
     0
  0
CLASS
  1
MATERIAL
  2
AcDbMaterial
  3
ObjectDBX Classes
 90
     1153
280
     0
281
     0
  0
CLASS
  1
VISUALSTYLE
  2
AcDbVisualStyle
  3
ObjectDBX Classes
 90
     4095
280
     0
281
     0
  0
CLASS
  1
TABLESTYLE
  2
AcDbTableStyle
  3
ObjectDBX Classes
 90
     4095
280
     0
281
     0
  0
CLASS
  1
SCALE
  2
AcDbScale
  3
ObjectDBX Classes
 90
     1153
280
     0
281
     0
  0
CLASS
  1
MLEADERSTYLE
  2
AcDbMLeaderStyle
  3
ACDB_MLEADERSTYLE_CLASS
 90
     4095
280
     0
281
     0
  0
CLASS
  1
CELLSTYLEMAP
  2
AcDbCellStyleMap
  3
ObjectDBX Classes
 90
     1152
280
     0
281
     0
  0
CLASS
  1
ACAD_PROXY_OBJECT_WRAPPER
  2
AcDbProxyObjectWrapper
  3
AutoCAD 2000
 90
        0
280
     0
281
     0
  0
CLASS
  1
LONG_TRANSACTION
  2
AcDbLongTransaction
  3
AutoCAD 2000
 90
        0
280
     0
281
     0
  0
CLASS
  1
LWPOLYLINE
  2
AcDbPolyline
  3
AutoCAD 2000
 90
        0
280
     0
281
     1
  0
CLASS
  1
HATCH
  2
AcDbHatch
  3
AutoCAD 2000
 90
        0
280
     0
281
     1
  0
CLASS
  1
XRECORD
  2
AcDbXrecord
  3
AutoCAD 2000
 90
        0
280
     0
281
     0
  0
ENDSEC
  0
SECTION
  2
TABLES
  0
TABLE
  2
VPORT
  5
6E
102
{ACAD_XDICTIONARY
360
19AA
102
}
330
0
100
AcDbSymbolTable
 70
     2
  0
VPORT
  5
283F
330
6E
100
AcDbSymbolTableRecord
100
AcDbViewportTableRecord
  2
*ACTIVE
 70
     0
 10
0.0
 20
0.0
 11
1.0
 21
1.0
 12
597.343803564891
 22
233.6649157216049
 13
0.0
 23
0.0
 14
10.0
 24
10.0
 15
10.0
 25
10.0
 16
0.0
 26
0.0
 36
1.0
 17
0.0
 27
0.0
 37
0.0
 40
644.6613927712856
 41
1.753504672897196
 42
50.0
 43
0.0
 44
0.0
 50
0.0
 51
0.0
 71
     0
 72
   100
 73
     1
 74
     3
 75
     0
 76
     0
 77
     0
 78
     0
  0
ENDTAB
  0
TABLE
  2
LTYPE
  5
69
330
0
100
AcDbSymbolTable
 70
     5
  0
LTYPE
  5
6A
330
69
100
AcDbSymbolTableRecord
100
AcDbLinetypeTableRecord
  2
BYBLOCK
 70
     0
  3

 72
    65
 73
     0
 40
0.0
  0
LTYPE
  5
6B
330
69
100
AcDbSymbolTableRecord
100
AcDbLinetypeTableRecord
  2
BYLAYER
 70
     0
  3

 72
    65
 73
     0
 40
0.0
  0
LTYPE
  5
8
330
69
100
AcDbSymbolTableRecord
100
AcDbLinetypeTableRecord
  2
CONTINUOUS
 70
     0
  3
Solid line
 72
    65
 73
     0
 40
0.0
  0
LTYPE
  5
27C
330
69
100
AcDbSymbolTableRecord
100
AcDbLinetypeTableRecord
  2
SEKKEI_A2_
 70
     0
  3
center(A2)  ____ _ ____ _ ____ _ ____ _ ____ _ 
 72
    65
 73
     4
 40
14.28749999999999
 49
9.525
 74
     0
 49
-1.587499999999999
 74
     0
 49
1.587499999999999
 74
     0
 49
-1.587499999999999
 74
     0
  0
LTYPE
  5
7F0
330
69
100
AcDbSymbolTableRecord
100
AcDbLinetypeTableRecord
  2
HIDDEN3
 70
     0
  3
Hidden (.3x) _ _ _ _ _ _ _ _ _ _ _ _ _ _ _ _ _
 72
    65
 73
     2
 40
2.857499999999999
 49
1.905
 74
     0
 49
-0.9525
 74
     0
  0
LTYPE
  5
B12
330
69
100
AcDbSymbolTableRecord
100
AcDbLinetypeTableRecord
  2
CENS
 70
     0
  3
(一点鎖線１)---- - ---- - ---- - ---- - ---- - 
 72
    65
 73
     4
 40
7.0
 49
4.0
 74
     0
 49
-1.0
 74
     0
 49
1.0
 74
     0
 49
-1.0
 74
     0
  0
ENDTAB
  0
TABLE
  2
LAYER
  5
66
102
{ACAD_XDICTIONARY
360
B13
102
}
330
0
100
AcDbSymbolTable
 70
     9
  0
LAYER
  5
5E
102
{ACAD_XDICTIONARY
360
193E
102
}
330
66
100
AcDbSymbolTableRecord
100
AcDbLayerTableRecord
  2
0
 70
     0
 62
     7
  6
CONTINUOUS
  0
LAYER
  5
3E
102
{ACAD_XDICTIONARY
360
1940
102
}
330
66
100
AcDbSymbolTableRecord
100
AcDbLayerTableRecord
  2
CENTER
 70
     0
 62
     3
  6
SEKKEI_A2_
  0
LAYER
  5
2B5
102
{ACAD_XDICTIONARY
360
1946
102
}
330
66
100
AcDbSymbolTableRecord
100
AcDbLayerTableRecord
  2
HIDS
 70
     0
 62
     1
  6
HIDDEN3
  0
LAYER
  5
2BA
102
{ACAD_XDICTIONARY
360
1948
102
}
330
66
100
AcDbSymbolTableRecord
100
AcDbLayerTableRecord
  2
HOJO
 70
     0
 62
     4
  6
CONTINUOUS
  0
LAYER
  5
3FA
102
{ACAD_XDICTIONARY
360
194C
102
}
330
66
100
AcDbSymbolTableRecord
100
AcDbLayerTableRecord
  2
TITLE
 70
     0
 62
     4
  6
CONTINUOUS
  0
ENDTAB
  0
TABLE
  2
STYLE
  5
67
330
0
100
AcDbSymbolTable
 70
     2
  0
STYLE
  5
16
330
67
100
AcDbSymbolTableRecord
100
AcDbTextStyleTableRecord
  2
STANDARD
 70
     0
 40
0.0
 41
1.0
 50
0.0
 71
     0
 42
2.0
  3
simplex.shx
  4
extfont.shx
  0
ENDTAB
  0
TABLE
  2
VIEW
  5
6C
330
0
100
AcDbSymbolTable
 70
     0
  0
ENDTAB
  0
TABLE
  2
UCS
  5
6D
330
0
100
AcDbSymbolTable
 70
     0
  0
ENDTAB
  0
TABLE
  2
APPID
  5
70
330
0
100
AcDbSymbolTable
 70
     4
  0
APPID
  5
71
330
70
100
AcDbSymbolTableRecord
100
AcDbRegAppTableRecord
  2
ACAD
 70
     0
  0
APPID
  5
1919
330
70
100
AcDbSymbolTableRecord
100
AcDbRegAppTableRecord
  2
ACAD_MLEADERVER
 70
     0
  0
APPID
  5
191C
330
70
100
AcDbSymbolTableRecord
100
AcDbRegAppTableRecord
  2
ACAD_DSTYLE_DIMRADIAL_EXTENSION
 70
     0
  0
APPID
  5
19C8
330
70
100
AcDbSymbolTableRecord
100
AcDbRegAppTableRecord
  2
ACAD_EXEMPT_FROM_CAD_STANDARDS
 70
     0
  0
ENDTAB
  0
TABLE
  2
DIMSTYLE
  5
72
330
0
100
AcDbSymbolTable
 70
     1
  0
DIMSTYLE
105
73
330
72
100
AcDbSymbolTableRecord
100
AcDbDimStyleTableRecord
  2
STANDARD
 70
     0
  3

  4

  5

  6

  7

 40
3.0
 41
1.8
 42
0.625
 43
3.75
 44
0.8
 45
0.0
 46
0.0
 47
0.0
 48
0.0
140
1.8
141
2.5
142
0.0
143
0.0394
144
1.0
145
0.0
146
1.0
147
0.75
 71
     0
 72
     0
 73
     0
 74
     0
 75
     0
 76
     0
 77
     1
 78
     8
170
     0
171
     4
172
     1
173
     0
174
     0
175
     0
176
     0
177
     0
178
     0
270
     8
271
     2
272
     2
273
     8
274
     4
340
16
275
     0
280
     0
281
     0
282
     0
283
     1
284
     0
285
     0
286
     0
287
     3
288
     0
  0
ENDTAB
  0
TABLE
  2
BLOCK_RECORD
  5
1
330
0
100
AcDbSymbolTable
 70
    47
  0
BLOCK_RECORD
  5
2
102
{ACAD_XDICTIONARY
360
2861
102
}
330
1
100
AcDbSymbolTableRecord
100
AcDbBlockTableRecord
  2
*MODEL_SPACE
  0
BLOCK_RECORD
  5
283A
102
{ACAD_XDICTIONARY
360
2863
102
}
330
1
100
AcDbSymbolTableRecord
100
AcDbBlockTableRecord
  2
*PAPER_SPACE
  0
ENDTAB
  0
ENDSEC
  0
SECTION
  2
BLOCKS
  0
BLOCK
  5
5D
330
2
100
AcDbEntity
  8
0
100
AcDbBlockBegin
  2
*MODEL_SPACE
 70
     0
 10
0.0
 20
0.0
 30
0.0
  3
*MODEL_SPACE
  1

  0
ENDBLK
  5
5F
330
2
100
AcDbEntity
  8
0
100
AcDbBlockEnd
  0
BLOCK
  5
283C
330
283A
100
AcDbEntity
 67
     1
  8
0
100
AcDbBlockBegin
  2
*PAPER_SPACE
 70
     0
 10
0.0
 20
0.0
 30
0.0
  3
*PAPER_SPACE
  1

  0
ENDBLK
  5
283D
330
283A
100
AcDbEntity
 67
     1
  8
0
100
AcDbBlockEnd
  0
ENDSEC
  0
SECTION
  2
ENTITIES
  0
TEXT
  5
FED
330
2
100
AcDbEntity
  8
TITLE
100
AcDbText
 10
312.8147187774835
 20
372.9471807680051
 30
0.0
 40
7.5
  1
AFCZ18L-10~30M200S3
100
AcDbText
  0
TEXT
  5
FEE
330
2
100
AcDbEntity
  8
TITLE
100
AcDbText
 10
312.8147187774835
 20
361.9471807680051
 30
0.0
 40
7.5
  1
AFCZ18L-10~30L200S3
100
AcDbText
  0
LINE
  5
FF0
330
2
100
AcDbEntity
  8
CENTER
100
AcDbLine
 10
245.6400970386637
 20
109.4215561945901
 30
0.0
 11
34.64009703866372
 21
109.4215561945901
 31
0.0
  0
LINE
  5
FF3
330
2
100
AcDbEntity
  8
CENTER
100
AcDbLine
 10
548.9848237678399
 20
109.4215561945862
 30
0.0
 11
767.9848237678381
 21
109.4215561945862
 31
0.0
  0
LINE
  5
FF4
330
2
100
AcDbEntity
  8
CENTER
100
AcDbLine
 10
557.2029954626108
 20
376.0537322187844
 30
0.0
 11
767.9848237678392
 21
376.0537322187841
 31
0.0
  0
LINE
  5
1017
330
2
100
AcDbEntity
  8
0
100
AcDbLine
 10
714.9848237678382
 20
140.9215561945862
 30
0.0
 11
714.9848237678382
 21
77.92155619458629
 31
0.0
  0
LINE
  5
1023
330
2
100
AcDbEntity
  8
0
100
AcDbLine
 10
714.984823764816
 20
407.0537322187844
 30
0.0
 11
714.984823764816
 21
345.0537322187826
 31
0.0
  0
LINE
  5
1024
330
2
100
AcDbEntity
  8
0
100
AcDbLine
 10
714.984823764816
 20
407.0537322187844
 30
0.0
 11
714.984823764816
 21
345.0537322187844
 31
0.0
  0
LINE
  5
102D
330
2
100
AcDbEntity
  8
0
100
AcDbLine
 10
87.64009703866372
 20
78.4215561945901
 30
0.0
 11
87.64009703866372
 21
140.42155619459
 31
0.0
  0
LINE
  5
102E
330
2
100
AcDbEntity
  8
0
100
AcDbLine
 10
87.64009703866419
 20
77.92155619459009
 30
0.0
 11
87.64009703866372
 21
140.9215561945901
 31
0.0
  0
LINE
  5
1338
330
2
100
AcDbEntity
  8
CENTER
100
AcDbLine
 10
955.6165162262528
 20
160.2033844998218
 30
0.0
 11
955.6165162262528
 21
58.63681899910949
 31
0.0
  0
LINE
  5
1339
330
2
100
AcDbEntity
  8
0
100
AcDbLine
 10
917.6165162262545
 20
144.4215561945907
 30
0.0
 11
917.6165162262545
 21
74.42155619459078
 31
0.0
  0
LINE
  5
133A
330
2
100
AcDbEntity
  8
0
100
AcDbLine
 10
922.6165162262537
 20
149.9153978627269
 30
0.0
 11
922.6165162262546
 21
68.92480563620444
 31
0.0
  0
LINE
  5
133B
330
2
100
AcDbEntity
  8
0
100
AcDbLine
 10
922.6165162262528
 20
74.42155619459078
 30
0.0
 11
917.6165162262527
 21
74.42155619459078
 31
0.0
  0
LINE
  5
133C
330
2
100
AcDbEntity
  8
0
100
AcDbLine
 10
922.6165162262528
 20
144.4215561945907
 30
0.0
 11
917.6165162262527
 21
144.4215561945907
 31
0.0
  0
LINE
  5
133D
330
2
100
AcDbEntity
  8
0
100
AcDbLine
 10
980.6165162262546
 20
150.4215561945907
 30
0.0
 11
980.6165162262546
 21
140.5183303881399
 31
0.0
  0
LINE
  5
133E
330
2
100
AcDbEntity
  8
0
100
AcDbLine
 10
980.6165162262546
 20
150.4215561945907
 30
0.0
 11
922.6165162262537
 21
149.9153978627269
 31
0.0
  0
LINE
  5
133F
330
2
100
AcDbEntity
  8
0
100
AcDbLine
 10
980.6165162262546
 20
68.4186473043406
 30
0.0
 11
922.6165162262546
 21
68.92480563620444
 31
0.0
  0
LINE
  5
1340
330
2
100
AcDbEntity
  8
0
100
AcDbLine
 10
980.6165162262546
 20
78.32478200104339
 30
0.0
 11
980.6165162262546
 21
68.4186473043406
 31
0.0
  0
LINE
  5
1341
330
2
100
AcDbEntity
  8
0
100
AcDbLine
 10
980.6165162262546
 20
150.4215561945907
 30
0.0
 11
980.6165162262546
 21
140.5183303881399
 31
0.0
  0
LINE
  5
1342
330
2
100
AcDbEntity
  8
0
100
AcDbLine
 10
980.6165162262546
 20
78.32478200104339
 30
0.0
 11
980.6165162262546
 21
68.4186473043406
 31
0.0
  0
ARC
  5
1343
330
2
100
AcDbEntity
  8
0
100
AcDbCircle
 10
915.6165162262546
 20
79.03620864158398
 30
0.0
 40
2.0
100
AcDbArc
 50
0.0
 51
87.99999999999636
  0
ARC
  5
1344
330
2
100
AcDbEntity
  8
0
100
AcDbCircle
 10
906.6165162262537
 20
83.35293374420468
 30
0.0
 40
2.0
100
AcDbArc
 50
180.0
 51
267.9999999999963
  0
ARC
  5
1345
330
2
100
AcDbEntity
  8
0
100
AcDbCircle
 10
915.6165162262546
 20
139.8069037475957
 30
0.0
 40
2.0
100
AcDbArc
 50
272.0000000000036
 51
0.0
  0
ARC
  5
1346
330
2
100
AcDbEntity
  8
0
100
AcDbCircle
 10
906.6165162262528
 20
135.490178644975
 30
0.0
 40
2.0
100
AcDbArc
 50
92.00000000000365
 51
180.0
  0
LINE
  5
1347
330
2
100
AcDbEntity
  8
0
100
AcDbLine
 10
906.5467172328485
 20
81.35415209016679
 30
0.0
 11
915.6863152196597
 21
81.03499029562186
 31
0.0
  0
LINE
  5
1348
330
2
100
AcDbEntity
  8
0
100
AcDbLine
 10
906.5467172328476
 20
137.4889602990129
 30
0.0
 11
915.6863152196597
 21
137.8081220935578
 31
0.0
  0
LINE
  5
1349
330
2
100
AcDbEntity
  8
0
100
AcDbLine
 10
904.6165162262527
 20
135.490178644975
 30
0.0
 11
904.6165162262546
 21
83.35293374420468
 31
0.0
  0
LINE
  5
134A
330
2
100
AcDbEntity
  8
0
100
AcDbLine
 10
980.6165162262546
 20
77.42591962848161
 30
0.0
 11
926.5990631552572
 21
77.89732279982814
 31
0.0
  0
LINE
  5
134B
330
2
100
AcDbEntity
  8
0
100
AcDbLine
 10
980.6165162262546
 20
141.4171927606981
 30
0.0
 11
926.5990631552572
 21
140.9457895893552
 31
0.0
  0
LINE
  5
134C
330
2
100
AcDbEntity
  8
0
100
AcDbLine
 10
955.6165162262528
 20
77.92155619459077
 30
0.0
 11
927.5681354220983
 21
78.37394943336909
 31
0.0
  0
LINE
  5
134D
330
2
100
AcDbEntity
  8
0
100
AcDbLine
 10
955.6165162262528
 20
140.9215561945907
 30
0.0
 11
983.664897030408
 21
140.4691629558142
 31
0.0
  0
LINE
  5
134E
330
2
100
AcDbEntity
  8
0
100
AcDbLine
 10
927.5681354220992
 20
140.4691629558142
 30
0.0
 11
955.6165162262528
 21
140.9215561945907
 31
0.0
  0
LINE
  5
134F
330
2
100
AcDbEntity
  8
0
100
AcDbLine
 10
983.664897030408
 20
78.37394943336909
 30
0.0
 11
955.6165162262528
 21
77.92155619459077
 31
0.0
  0
LINE
  5
1350
330
2
100
AcDbEntity
  8
0
100
AcDbLine
 10
924.6165162262528
 20
138.9458657432274
 30
0.0
 11
924.6165162262528
 21
137.9560444722364
 31
0.0
  0
ARC
  5
1351
330
2
100
AcDbEntity
  8
0
100
AcDbCircle
 10
983.6165162262528
 20
137.4695530982185
 30
0.0
 40
3.0
100
AcDbArc
 50
44.35180024427537
 51
89.07595464723311
  0
ARC
  5
1352
330
2
100
AcDbEntity
  8
0
100
AcDbCircle
 10
983.6165162262528
 20
81.3735592909648
 30
0.0
 40
3.0
100
AcDbArc
 50
270.9240453527669
 51
315.6481997502385
  0
ARC
  5
1353
330
2
100
AcDbEntity
  8
0
100
AcDbCircle
 10
927.6165162262527
 20
81.3735592909648
 30
0.0
 40
3.0
100
AcDbArc
 50
224.3518002379489
 51
269.075954647207
  0
ARC
  5
1354
330
2
100
AcDbEntity
  8
0
100
AcDbCircle
 10
927.6165162262527
 20
137.4695530982185
 30
0.0
 40
3.0
100
AcDbArc
 50
90.9240453527669
 51
135.648199767535
  0
ARC
  5
1355
330
2
100
AcDbEntity
  8
0
100
AcDbCircle
 10
926.6165162262527
 20
138.9458657432274
 30
0.0
 40
2.0
100
AcDbArc
 50
90.49999999999155
 51
180.0
  0
ARC
  5
1356
330
2
100
AcDbEntity
  8
0
100
AcDbCircle
 10
926.6165162262527
 20
79.89724664595593
 30
0.0
 40
2.0
100
AcDbArc
 50
180.0
 51
269.5000000000084
  0
LINE
  5
1357
330
2
100
AcDbEntity
  8
0
100
AcDbLine
 10
923.6165162262528
 20
73.42155619459077
 30
0.0
 11
980.6165162262546
 21
73.42155619459077
 31
0.0
  0
LINE
  5
1358
330
2
100
AcDbEntity
  8
0
100
AcDbLine
 10
923.6165162262537
 20
145.4215561945907
 30
0.0
 11
980.6165162262546
 21
145.4215561945907
 31
0.0
  0
LINE
  5
1359
330
2
100
AcDbEntity
  8
0
100
AcDbLine
 10
997.9165162262539
 20
82.92155619459078
 30
0.0
 11
995.6165162262555
 21
82.92155619459078
 31
0.0
  0
LINE
  5
135A
330
2
100
AcDbEntity
  8
0
100
AcDbLine
 10
1001.616516226252
 20
82.92155619458895
 30
0.0
 11
1002.616516226253
 21
83.49890646377895
 31
0.0
  0
LINE
  5
135B
330
2
100
AcDbEntity
  8
0
100
AcDbLine
 10
999.9165162262539
 20
83.62155619458969
 30
0.0
 11
998.3165162262535
 21
83.62155619458969
 31
0.0
  0
LINE
  5
135C
330
2
100
AcDbEntity
  8
0
100
AcDbLine
 10
998.1165162262527
 20
83.12155619458968
 30
0.0
 11
997.9165162262539
 21
82.92155619459078
 31
0.0
  0
LINE
  5
135D
330
2
100
AcDbEntity
  8
0
100
AcDbLine
 10
1000.116516226252
 20
83.12155619458968
 30
0.0
 11
1000.116516226252
 21
135.72155619459
 31
0.0
  0
LINE
  5
135E
330
2
100
AcDbEntity
  8
0
100
AcDbLine
 10
1001.616516226252
 20
82.92155619458895
 30
0.0
 11
1000.316516226253
 21
82.92155619459078
 31
0.0
  0
LINE
  5
135F
330
2
100
AcDbEntity
  8
0
100
AcDbLine
 10
997.9165162262557
 20
135.9215561945907
 30
0.0
 11
995.6165162262555
 21
135.9215561945907
 31
0.0
  0
LINE
  5
1360
330
2
100
AcDbEntity
  8
0
100
AcDbLine
 10
994.6165162262545
 20
129.9215561945926
 30
0.0
 11
994.6165162262545
 21
88.92155619458895
 31
0.0
  0
LINE
  5
1361
330
2
100
AcDbEntity
  8
0
100
AcDbLine
 10
993.1165162262582
 20
69.52195325256941
 30
0.0
 11
993.1165162262582
 21
78.92155619458896
 31
0.0
  0
LINE
  5
1362
330
2
100
AcDbEntity
  8
0
100
AcDbLine
 10
993.1165162262582
 20
88.92155619458895
 30
0.0
 11
993.1165162262582
 21
129.9215561945926
 31
0.0
  0
LINE
  5
1363
330
2
100
AcDbEntity
  8
0
100
AcDbLine
 10
993.1165162262582
 20
139.9215561945925
 30
0.0
 11
993.1165162262582
 21
149.3211591366103
 31
0.0
  0
ARC
  5
1364
330
2
100
AcDbEntity
  8
0
100
AcDbCircle
 10
992.1165162262582
 20
69.52195325256941
 30
0.0
 40
1.0
100
AcDbArc
 50
270.5000000000175
 51
0.0
  0
LINE
  5
1365
330
2
100
AcDbEntity
  8
0
100
AcDbLine
 10
994.1165162262601
 20
88.92155619458895
 30
0.0
 11
994.1165162262601
 21
129.9215561945926
 31
0.0
  0
LINE
  5
1366
330
2
100
AcDbEntity
  8
0
100
AcDbLine
 10
1002.616516226257
 20
83.49890646378076
 30
0.0
 11
1002.616516226258
 21
135.3442059253989
 31
0.0
  0
LINE
  5
1367
330
2
100
AcDbEntity
  8
0
100
AcDbLine
 10
1001.616516226255
 20
135.9215561945907
 30
0.0
 11
1000.316516226255
 21
135.9215561945907
 31
0.0
  0
LINE
  5
1368
330
2
100
AcDbEntity
  8
0
100
AcDbLine
 10
998.1165162262545
 20
135.72155619459
 30
0.0
 11
997.9165162262557
 21
135.9215561945907
 31
0.0
  0
LINE
  5
1369
330
2
100
AcDbEntity
  8
0
100
AcDbLine
 10
998.1165162262545
 20
135.72155619459
 30
0.0
 11
998.1165162262946
 21
83.12155619463153
 31
0.0
  0
LINE
  5
136A
330
2
100
AcDbEntity
  8
0
100
AcDbLine
 10
999.9165162262556
 20
135.2215561945918
 30
0.0
 11
998.3165162262553
 21
135.22155619459
 31
0.0
  0
LINE
  5
136B
330
2
100
AcDbEntity
  8
0
100
AcDbLine
 10
1001.616516226254
 20
135.9215561945907
 30
0.0
 11
1002.616516226255
 21
135.3442059254007
 31
0.0
  0
LINE
  5
136C
330
2
100
AcDbEntity
  8
0
100
AcDbLine
 10
980.6165162262564
 20
150.4215561945907
 30
0.0
 11
980.6165162262564
 21
140.5183303881399
 31
0.0
  0
LINE
  5
136D
330
2
100
AcDbEntity
  8
0
100
AcDbLine
 10
980.6165162262528
 20
78.32478200104339
 30
0.0
 11
980.6165162262509
 21
68.42155619459077
 31
0.0
  0
LINE
  5
136E
330
2
100
AcDbEntity
  8
0
100
AcDbLine
 10
988.1165162262563
 20
140.3647934755677
 30
0.0
 11
988.1165162262545
 21
128.4433924032615
 31
0.0
  0
LINE
  5
136F
330
2
100
AcDbEntity
  8
0
100
AcDbLine
 10
991.1165162262564
 20
140.3386128721954
 30
0.0
 11
991.1165162262564
 21
139.9215561945925
 31
0.0
  0
LINE
  5
1370
330
2
100
AcDbEntity
  8
0
100
AcDbLine
 10
991.1165162262555
 20
129.9215561945926
 30
0.0
 11
991.1165162262527
 21
88.92155619458895
 31
0.0
  0
LINE
  5
1371
330
2
100
AcDbEntity
  8
0
100
AcDbLine
 10
991.1165162262527
 20
78.92155619458896
 30
0.0
 11
991.1165162262527
 21
78.50449951698607
 31
0.0
  0
ARC
  5
1372
330
2
100
AcDbEntity
  8
0
100
AcDbCircle
 10
990.1165162262527
 20
78.50449951698607
 30
0.0
 40
1.0
100
AcDbArc
 50
270.4999999999915
 51
0.0
  0
LINE
  5
1373
330
2
100
AcDbEntity
  8
0
100
AcDbLine
 10
980.6165162262509
 20
68.42155619459077
 30
0.0
 11
992.1252427617568
 21
68.52199132950551
 31
0.0
  0
ARC
  5
1374
330
2
100
AcDbEntity
  8
0
100
AcDbCircle
 10
1000.316516226255
 20
135.72155619459
 30
0.0
 40
0.2
100
AcDbArc
 50
90.0
 51
180.0
  0
ARC
  5
1375
330
2
100
AcDbEntity
  8
0
100
AcDbCircle
 10
999.9165162262556
 20
135.4215561945907
 30
0.0
 40
0.2
100
AcDbArc
 50
270.0
 51
0.0
  0
ARC
  5
1376
330
2
100
AcDbEntity
  8
0
100
AcDbCircle
 10
998.3165162262553
 20
135.4215561945907
 30
0.0
 40
0.2
100
AcDbArc
 50
180.0
 51
270.0
  0
ARC
  5
1377
330
2
100
AcDbEntity
  8
0
100
AcDbCircle
 10
1000.316516226253
 20
83.12155619458968
 30
0.0
 40
0.2
100
AcDbArc
 50
180.0
 51
269.9999999999739
  0
ARC
  5
1378
330
2
100
AcDbEntity
  8
0
100
AcDbCircle
 10
999.9165162262539
 20
83.42155619458896
 30
0.0
 40
0.2
100
AcDbArc
 50
0.0
 51
89.99999999997395
  0
ARC
  5
1379
330
2
100
AcDbEntity
  8
0
100
AcDbCircle
 10
998.3165162262535
 20
83.42155619459077
 30
0.0
 40
0.2
100
AcDbArc
 50
89.99999999997395
 51
180.0
  0
LINE
  5
137A
330
2
100
AcDbEntity
  8
0
100
AcDbLine
 10
1001.616516226252
 20
82.92155619458895
 30
0.0
 11
1001.616516226255
 21
135.9215561945907
 31
0.0
  0
LINE
  5
137B
330
2
100
AcDbEntity
  8
0
100
AcDbLine
 10
997.9165162262557
 20
135.9215561945907
 30
0.0
 11
997.9165162262539
 21
82.92155619459078
 31
0.0
  0
ARC
  5
137C
330
2
100
AcDbEntity
  8
0
100
AcDbCircle
 10
992.1165162262582
 20
149.3211591366103
 30
0.0
 40
1.0
100
AcDbArc
 50
0.0
 51
89.49999999998238
  0
LINE
  5
137D
330
2
100
AcDbEntity
  8
0
100
AcDbLine
 10
980.6165162262564
 20
150.4215561945907
 30
0.0
 11
992.1252427617568
 21
150.3211210596742
 31
0.0
  0
LINE
  5
137E
330
2
100
AcDbEntity
  8
0
100
AcDbLine
 10
980.6165162262564
 20
141.4215561945925
 30
0.0
 11
990.1252427617542
 21
141.3385747952593
 31
0.0
  0
ARC
  5
137F
330
2
100
AcDbEntity
  8
0
100
AcDbCircle
 10
987.1165162262563
 20
140.3647934755677
 30
0.0
 40
1.0
100
AcDbArc
 50
0.0
 51
89.50000000000846
  0
ARC
  5
1380
330
2
100
AcDbEntity
  8
0
100
AcDbCircle
 10
990.1165162262564
 20
140.3386128721954
 30
0.0
 40
1.0
100
AcDbArc
 50
0.0
 51
89.50000000000846
  0
LINE
  5
1381
330
2
100
AcDbEntity
  8
0
100
AcDbLine
 10
980.6165162262564
 20
77.42155619458896
 30
0.0
 11
990.1252427617505
 21
77.50453759392218
 31
0.0
  0
LINE
  5
1382
330
2
100
AcDbEntity
  8
0
100
AcDbLine
 10
988.6121529585066
 20
127.9434114417304
 30
0.0
 11
990.1252427617542
 21
127.9302069070614
 31
0.0
  0
ARC
  5
1383
330
2
100
AcDbEntity
  8
0
100
AcDbCircle
 10
988.6165162262546
 20
128.4433924032615
 30
0.0
 40
0.5
100
AcDbArc
 50
180.0
 51
269.4999999999824
  0
ARC
  5
1384
330
2
100
AcDbEntity
  8
0
100
AcDbCircle
 10
990.1165162262545
 20
126.9302449839975
 30
0.0
 40
1.0
100
AcDbArc
 50
0.0
 51
89.50000000000846
  0
LINE
  5
1385
330
2
100
AcDbEntity
  8
0
100
AcDbLine
 10
988.1165162262563
 20
78.4783189136138
 30
0.0
 11
988.1165162262545
 21
90.39971998591823
 31
0.0
  0
ARC
  5
1386
330
2
100
AcDbEntity
  8
0
100
AcDbCircle
 10
987.1165162262563
 20
78.4783189136138
 30
0.0
 40
1.0
100
AcDbArc
 50
270.4999999999915
 51
0.0
  0
LINE
  5
1387
330
2
100
AcDbEntity
  8
0
100
AcDbLine
 10
988.6121529585066
 20
90.8997009474511
 30
0.0
 11
990.1252427617542
 21
90.91290548212015
 31
0.0
  0
ARC
  5
1388
330
2
100
AcDbEntity
  8
0
100
AcDbCircle
 10
988.6165162262546
 20
90.39971998591823
 30
0.0
 40
0.5
100
AcDbArc
 50
90.50000000001761
 51
180.0
  0
ARC
  5
1389
330
2
100
AcDbEntity
  8
0
100
AcDbCircle
 10
990.1165162262545
 20
91.91286740518405
 30
0.0
 40
1.0
100
AcDbArc
 50
270.4999999999915
 51
0.0
  0
LINE
  5
138A
330
2
100
AcDbEntity
  8
0
100
AcDbLine
 10
995.2165162262549
 20
129.9215561945926
 30
0.0
 11
995.6165162262555
 21
130.6143765176198
 31
0.0
  0
LINE
  5
138B
330
2
100
AcDbEntity
  8
0
100
AcDbLine
 10
989.6165162262555
 20
129.9215561945926
 30
0.0
 11
989.6165162262555
 21
139.9215561945925
 31
0.0
  0
LINE
  5
138C
330
2
100
AcDbEntity
  8
0
100
AcDbLine
 10
995.2165162262549
 20
129.9215561945926
 30
0.0
 11
995.2165162262549
 21
139.9215561945925
 31
0.0
  0
LINE
  5
138D
330
2
100
AcDbEntity
  8
0
100
AcDbLine
 10
988.1165162262554
 20
129.9215561945926
 30
0.0
 11
995.2165162262549
 21
129.9215561945926
 31
0.0
  0
LINE
  5
138E
330
2
100
AcDbEntity
  8
0
100
AcDbLine
 10
988.1165162262554
 20
139.9215561945925
 30
0.0
 11
995.2165162262549
 21
139.9215561945925
 31
0.0
  0
LINE
  5
138F
330
2
100
AcDbEntity
  8
0
100
AcDbLine
 10
995.2165162262549
 20
139.9215561945925
 30
0.0
 11
995.6165162262555
 21
139.2287358715653
 31
0.0
  0
LINE
  5
1390
330
2
100
AcDbEntity
  8
0
100
AcDbLine
 10
995.6165162262555
 20
130.6143765176198
 30
0.0
 11
995.6165162262555
 21
139.2287358715653
 31
0.0
  0
LINE
  5
1391
330
2
100
AcDbEntity
  8
0
100
AcDbLine
 10
988.1165162262554
 20
139.9215561945925
 30
0.0
 11
988.1165162262554
 21
129.9215561945926
 31
0.0
  0
LINE
  5
1392
330
2
100
AcDbEntity
  8
0
100
AcDbLine
 10
995.2165162262549
 20
88.92155619458895
 30
0.0
 11
995.6165162262555
 21
88.2287358715617
 31
0.0
  0
LINE
  5
1393
330
2
100
AcDbEntity
  8
0
100
AcDbLine
 10
989.6165162262555
 20
88.92155619458895
 30
0.0
 11
989.6165162262555
 21
78.92155619458896
 31
0.0
  0
LINE
  5
1394
330
2
100
AcDbEntity
  8
0
100
AcDbLine
 10
995.2165162262549
 20
88.92155619458895
 30
0.0
 11
995.2165162262549
 21
78.92155619458896
 31
0.0
  0
LINE
  5
1395
330
2
100
AcDbEntity
  8
0
100
AcDbLine
 10
988.1165162262554
 20
88.92155619458895
 30
0.0
 11
995.2165162262549
 21
88.92155619458895
 31
0.0
  0
LINE
  5
1396
330
2
100
AcDbEntity
  8
0
100
AcDbLine
 10
988.1165162262554
 20
78.92155619458896
 30
0.0
 11
995.2165162262549
 21
78.92155619458896
 31
0.0
  0
LINE
  5
1397
330
2
100
AcDbEntity
  8
0
100
AcDbLine
 10
995.2165162262549
 20
78.92155619458896
 30
0.0
 11
995.6165162262555
 21
79.61437651761622
 31
0.0
  0
LINE
  5
1398
330
2
100
AcDbEntity
  8
0
100
AcDbLine
 10
995.6165162262555
 20
88.2287358715617
 30
0.0
 11
995.6165162262555
 21
79.61437651761622
 31
0.0
  0
LINE
  5
1399
330
2
100
AcDbEntity
  8
CENTER
  6
CENS
100
AcDbLine
 10
998.6165162262564
 20
134.9215561945926
 30
0.0
 11
977.6165162262509
 21
134.9215561945926
 31
0.0
  0
LINE
  5
139A
330
2
100
AcDbEntity
  8
CENTER
  6
CENS
100
AcDbLine
 10
998.6165162262555
 20
83.92155619458895
 30
0.0
 11
977.61651622625
 21
83.92155619458895
 31
0.0
  0
LINE
  5
139B
330
2
100
AcDbEntity
  8
CENTER
100
AcDbLine
 10
1012.616516226257
 20
109.4215561945907
 30
0.0
 11
862.6165162262534
 21
109.4215561945907
 31
0.0
  0
LINE
  5
13A2
330
2
100
AcDbEntity
  8
0
100
AcDbLine
 10
995.5051913608526
 20
139.4215561945889
 30
0.0
 11
995.61651622626
 21
139.6143765176189
 31
0.0
  0
LINE
  5
13A3
330
2
100
AcDbEntity
  8
0
100
AcDbLine
 10
995.2165162262595
 20
138.9215561945916
 30
0.0
 11
995.2165162262595
 21
148.9215561945916
 31
0.0
  0
LINE
  5
13A4
330
2
100
AcDbEntity
  8
0
100
AcDbLine
 10
993.1165162262582
 20
148.9215561945916
 30
0.0
 11
995.2165162262595
 21
148.9215561945916
 31
0.0
  0
LINE
  5
13A5
330
2
100
AcDbEntity
  8
0
100
AcDbLine
 10
995.2165162262595
 20
148.9215561945916
 30
0.0
 11
995.61651622626
 21
148.2287358715644
 31
0.0
  0
LINE
  5
13A6
330
2
100
AcDbEntity
  8
0
100
AcDbLine
 10
995.61651622626
 20
139.6143765176189
 30
0.0
 11
995.61651622626
 21
148.2287358715644
 31
0.0
  0
LINE
  5
13A7
330
2
100
AcDbEntity
  8
0
100
AcDbLine
 10
995.5051913608526
 20
79.42155619459441
 30
0.0
 11
995.61651622626
 21
79.22873587156442
 31
0.0
  0
LINE
  5
13A8
330
2
100
AcDbEntity
  8
0
100
AcDbLine
 10
995.2165162262595
 20
79.92155619459168
 30
0.0
 11
995.2165162262595
 21
69.92155619459168
 31
0.0
  0
LINE
  5
13A9
330
2
100
AcDbEntity
  8
0
100
AcDbLine
 10
993.1165162262582
 20
69.92155619459168
 30
0.0
 11
995.2165162262595
 21
69.92155619459168
 31
0.0
  0
LINE
  5
13AA
330
2
100
AcDbEntity
  8
0
100
AcDbLine
 10
995.2165162262595
 20
69.92155619459168
 30
0.0
 11
995.61651622626
 21
70.61437651761895
 31
0.0
  0
LINE
  5
13AB
330
2
100
AcDbEntity
  8
0
100
AcDbLine
 10
995.61651622626
 20
79.22873587156442
 30
0.0
 11
995.61651622626
 21
70.61437651761895
 31
0.0
  0
LINE
  5
13AC
330
2
100
AcDbEntity
  8
CENTER
  6
CENS
100
AcDbLine
 10
1000.195184136354
 20
143.9215561945916
 30
0.0
 11
975.6323304599732
 21
143.9215561945916
 31
0.0
  0
LINE
  5
13AD
330
2
100
AcDbEntity
  8
CENTER
  6
CENS
100
AcDbLine
 10
1000.195184136355
 20
74.92155619459168
 30
0.0
 11
975.6323304599741
 21
74.92155619459168
 31
0.0
  0
CIRCLE
  5
13AE
330
2
100
AcDbEntity
  8
HIDS
100
AcDbCircle
 10
955.6165162262637
 20
109.4215561945871
 30
0.0
 40
30.0
  0
LINE
  5
13AF
330
2
100
AcDbEntity
  8
0
100
AcDbLine
 10
925.6892807886684
 20
84.40701180524735
 30
0.0
 11
925.6165162262636
 21
109.4215561945871
 31
0.0
  0
LINE
  5
13B0
330
2
100
AcDbEntity
  8
0
100
AcDbLine
 10
985.5437516638589
 20
84.40701180524735
 30
0.0
 11
985.6165162262637
 21
109.4215561945871
 31
0.0
  0
LINE
  5
13B1
330
2
100
AcDbEntity
  8
0
100
AcDbLine
 10
986.6641229874872
 20
81.37317539043266
 30
0.0
 11
987.1165162262618
 21
109.4215561945907
 31
0.0
  0
LINE
  5
13B2
330
2
100
AcDbEntity
  8
0
100
AcDbLine
 10
924.5689094650401
 20
81.37317539043266
 30
0.0
 11
924.1165162262646
 21
109.4215561945907
 31
0.0
  0
CIRCLE
  5
13B3
330
2
100
AcDbEntity
  8
0
100
AcDbCircle
 10
955.6165162262637
 20
109.4215561945871
 30
0.0
 40
25.00000000345432
  0
LINE
  5
13B4
330
2
100
AcDbEntity
  8
0
100
AcDbLine
 10
930.6892596346974
 20
79.42155619458714
 30
0.0
 11
980.5437728178299
 21
79.42155619458714
 31
0.0
  0
LINE
  5
13B5
330
2
100
AcDbEntity
  8
0
100
AcDbLine
 10
927.5685193226358
 20
78.42155619458714
 30
0.0
 11
983.6645131298896
 21
78.42155619458714
 31
0.0
  0
ARC
  5
13B6
330
2
100
AcDbEntity
  8
0
100
AcDbCircle
 10
930.6892596346974
 20
84.42155619458715
 30
0.0
 40
5.0
100
AcDbArc
 50
180.166666660018
 51
270.0
  0
ARC
  5
13B7
330
2
100
AcDbEntity
  8
0
100
AcDbCircle
 10
927.5685193226358
 20
81.42155619458714
 30
0.0
 40
3.0
100
AcDbArc
 50
180.9240453527669
 51
270.0
  0
ARC
  5
13B8
330
2
100
AcDbEntity
  8
0
100
AcDbCircle
 10
980.5437728178299
 20
84.42155619458715
 30
0.0
 40
5.0
100
AcDbArc
 50
270.0
 51
359.833333340008
  0
ARC
  5
13B9
330
2
100
AcDbEntity
  8
0
100
AcDbCircle
 10
983.6645131298896
 20
81.42155619458714
 30
0.0
 40
3.0
100
AcDbArc
 50
270.0
 51
359.0759546472331
  0
LINE
  5
13BA
330
2
100
AcDbEntity
  8
HIDS
100
AcDbLine
 10
975.6508170903448
 20
81.38665138171342
 30
0.0
 11
975.7299456265304
 21
85.919922183673
 31
0.0
  0
ARC
  5
13BB
330
2
100
AcDbEntity
  8
HIDS
100
AcDbCircle
 10
973.651121700032
 20
81.42155619458714
 30
0.0
 40
2.0
100
AcDbArc
 50
270.0
 51
358.9999999999721
  0
ARC
  5
13BC
330
2
100
AcDbEntity
  8
HIDS
100
AcDbCircle
 10
978.7294887120001
 20
85.86756496436061
 30
0.0
 40
3.0
100
AcDbArc
 50
134.4585514346996
 51
178.9999999999982
  0
LINE
  5
13BD
330
2
100
AcDbEntity
  8
0
100
AcDbLine
 10
930.6892596346974
 20
139.4215561945871
 30
0.0
 11
980.5437728178299
 21
139.4215561945871
 31
0.0
  0
LINE
  5
13BE
330
2
100
AcDbEntity
  8
0
100
AcDbLine
 10
927.5685193226358
 20
140.4215561945871
 30
0.0
 11
936.243532880057
 21
140.4215561945871
 31
0.0
  0
LINE
  5
13BF
330
2
100
AcDbEntity
  8
0
100
AcDbLine
 10
953.9894995724731
 20
140.4215561945871
 30
0.0
 11
983.6645131298896
 21
140.4215561945871
 31
0.0
  0
LINE
  5
13C0
330
2
100
AcDbEntity
  8
0
100
AcDbLine
 10
925.6892807886684
 20
134.4361005839269
 30
0.0
 11
925.6165162262636
 21
109.4215561945871
 31
0.0
  0
LINE
  5
13C1
330
2
100
AcDbEntity
  8
0
100
AcDbLine
 10
924.5689094650401
 20
137.4699369987425
 30
0.0
 11
924.1165162262646
 21
109.4215561945907
 31
0.0
  0
LINE
  5
13C2
330
2
100
AcDbEntity
  8
HIDS
100
AcDbLine
 10
939.3665162262637
 20
139.4215561945871
 30
0.0
 11
939.6140843449407
 21
125.2383881745914
 31
0.0
  0
LINE
  5
13C3
330
2
100
AcDbEntity
  8
0
100
AcDbLine
 10
924.1165162262637
 20
109.4215561945871
 30
0.0
 11
925.6165162262636
 21
109.4215561945471
 31
0.0
  0
ARC
  5
13C4
330
2
100
AcDbEntity
  8
0
100
AcDbCircle
 10
930.6892596346974
 20
134.4215561945871
 30
0.0
 40
5.0
100
AcDbArc
 50
90.0
 51
179.8333333399819
  0
ARC
  5
13C5
330
2
100
AcDbEntity
  8
0
100
AcDbCircle
 10
927.5685193226358
 20
137.4215561945871
 30
0.0
 40
3.0
100
AcDbArc
 50
90.0
 51
179.075954647233
  0
LINE
  5
13C6
330
2
100
AcDbEntity
  8
HIDS
100
AcDbLine
 10
950.8665162262637
 20
139.4215561945871
 30
0.0
 11
950.7262146024181
 21
131.3836815477475
 31
0.0
  0
LINE
  5
13C7
330
2
100
AcDbEntity
  8
0
100
AcDbLine
 10
985.5437516638589
 20
134.4361005839278
 30
0.0
 11
985.6165162262637
 21
109.4215561945871
 31
0.0
  0
LINE
  5
13C8
330
2
100
AcDbEntity
  8
0
100
AcDbLine
 10
986.6641229874872
 20
137.4699369987425
 30
0.0
 11
987.1165162262618
 21
109.4215561945907
 31
0.0
  0
LINE
  5
13C9
330
2
100
AcDbEntity
  8
0
100
AcDbLine
 10
985.6165162262637
 20
109.4215561945744
 30
0.0
 11
987.1165162262636
 21
109.4215561945871
 31
0.0
  0
ARC
  5
13CA
330
2
100
AcDbEntity
  8
0
100
AcDbCircle
 10
980.5437728178299
 20
134.4215561945871
 30
0.0
 40
5.0
100
AcDbArc
 50
0.1666666599919691
 51
90.0
  0
ARC
  5
13CB
330
2
100
AcDbEntity
  8
0
100
AcDbCircle
 10
983.6645131298896
 20
137.4215561945871
 30
0.0
 40
3.0
100
AcDbArc
 50
0.9240453527669025
 51
90.0
  0
LINE
  5
13CC
330
2
100
AcDbEntity
  8
CENTER
100
AcDbLine
 10
930.867778884734
 20
137.6702935361168
 30
0.0
 11
930.867778884734
 21
130.6702935361168
 31
0.0
  0
LINE
  5
13CD
330
2
100
AcDbEntity
  8
CENTER
100
AcDbLine
 10
934.367778884734
 20
134.1702935361168
 30
0.0
 11
927.367778884734
 21
134.1702935361168
 31
0.0
  0
LINE
  5
13CE
330
2
100
AcDbEntity
  8
CENTER
100
AcDbLine
 10
927.367778884734
 20
84.67281885305835
 30
0.0
 11
934.367778884734
 21
84.67281885305835
 31
0.0
  0
LINE
  5
13CF
330
2
100
AcDbEntity
  8
CENTER
100
AcDbLine
 10
930.867778884734
 20
88.17281885305835
 30
0.0
 11
930.867778884734
 21
81.17281885305834
 31
0.0
  0
LINE
  5
13D0
330
2
100
AcDbEntity
  8
CENTER
100
AcDbLine
 10
980.3652535677924
 20
81.17281885305926
 30
0.0
 11
980.3652535677924
 21
88.17281885305925
 31
0.0
  0
LINE
  5
13D1
330
2
100
AcDbEntity
  8
CENTER
100
AcDbLine
 10
976.8652535677924
 20
84.67281885305926
 30
0.0
 11
983.8652535677924
 21
84.67281885305926
 31
0.0
  0
LINE
  5
13D2
330
2
100
AcDbEntity
  8
CENTER
100
AcDbLine
 10
983.8652535677924
 20
134.1702935361168
 30
0.0
 11
976.8652535677924
 21
134.1702935361168
 31
0.0
  0
LINE
  5
13D3
330
2
100
AcDbEntity
  8
CENTER
100
AcDbLine
 10
980.3652535677924
 20
130.6702935361168
 30
0.0
 11
980.3652535677924
 21
137.6702935361168
 31
0.0
  0
LINE
  5
13D4
330
2
100
AcDbEntity
  8
0
100
AcDbLine
 10
722.9848237648178
 20
399.4237322187852
 30
0.0
 11
722.984823764816
 21
352.6837322187854
 31
0.0
  0
LINE
  5
13D5
330
2
100
AcDbEntity
  8
0
100
AcDbLine
 10
747.984823764816
 20
379.0537322187844
 30
0.0
 11
747.984823764816
 21
402.0537322187844
 31
0.0
  0
ARC
  5
13D6
330
2
100
AcDbEntity
  8
0
100
AcDbCircle
 10
751.984823764816
 20
402.0537322187844
 30
0.0
 40
4.0
100
AcDbArc
 50
90.0
 51
180.0
  0
LINE
  5
13D7
330
2
100
AcDbEntity
  8
0
100
AcDbLine
 10
757.984823764816
 20
406.0537322187844
 30
0.0
 11
727.4905184970442
 21
406.0537322187844
 31
0.0
  0
LINE
  5
13D8
330
2
100
AcDbEntity
  8
0
100
AcDbLine
 10
721.9848237648179
 20
407.0537322187844
 30
0.0
 11
714.984823764816
 21
407.0537322187844
 31
0.0
  0
ARC
  5
13D9
330
2
100
AcDbEntity
  8
0
100
AcDbCircle
 10
724.6305750758814
 20
409.0537322187844
 30
0.0
 40
3.0
100
AcDbArc
 50
228.5903778907203
 51
241.2428429585923
  0
ARC
  5
13DA
330
2
100
AcDbEntity
  8
0
100
AcDbCircle
 10
721.9848237648179
 20
406.0537322187844
 30
0.0
 40
1.0
100
AcDbArc
 50
21.71561728325768
 51
90.0
  0
ARC
  5
13DB
330
2
100
AcDbEntity
  8
0
100
AcDbCircle
 10
751.984823764816
 20
350.0537322187844
 30
0.0
 40
4.0
100
AcDbArc
 50
180.0
 51
270.0
  0
ARC
  5
13DC
330
2
100
AcDbEntity
  8
0
100
AcDbCircle
 10
744.984823764816
 20
353.0537322187844
 30
0.0
 40
3.0
100
AcDbArc
 50
0.0
 51
90.0
  0
ARC
  5
13DD
330
2
100
AcDbEntity
  8
0
100
AcDbCircle
 10
744.984823764816
 20
379.0537322187844
 30
0.0
 40
3.0
100
AcDbArc
 50
270.0
 51
0.0
  0
LINE
  5
13DE
330
2
100
AcDbEntity
  8
0
100
AcDbLine
 10
733.984823764816
 20
359.0537322187844
 30
0.0
 11
733.984823764816
 21
373.0537322187844
 31
0.0
  0
LINE
  5
13DF
330
2
100
AcDbEntity
  8
0
100
AcDbLine
 10
744.984823764816
 20
376.0537322187844
 30
0.0
 11
736.984823764816
 21
376.0537322187844
 31
0.0
  0
ARC
  5
13E0
330
2
100
AcDbEntity
  8
0
100
AcDbCircle
 10
736.984823764816
 20
373.0537322187844
 30
0.0
 40
3.0
100
AcDbArc
 50
90.0
 51
180.0
  0
LINE
  5
13E1
330
2
100
AcDbEntity
  8
0
100
AcDbLine
 10
744.984823764816
 20
356.0537322187844
 30
0.0
 11
736.984823764816
 21
356.0537322187844
 31
0.0
  0
LINE
  5
13E2
330
2
100
AcDbEntity
  8
0
100
AcDbLine
 10
747.984823764816
 20
350.0537322187844
 30
0.0
 11
747.984823764816
 21
353.0537322187844
 31
0.0
  0
ARC
  5
13E3
330
2
100
AcDbEntity
  8
0
100
AcDbCircle
 10
736.984823764816
 20
359.0537322187844
 30
0.0
 40
3.0
100
AcDbArc
 50
180.0
 51
270.0
  0
LINE
  5
13E4
330
2
100
AcDbEntity
  8
0
100
AcDbLine
 10
757.984823764816
 20
346.0537322187844
 30
0.0
 11
727.4905184970451
 21
346.0537322187844
 31
0.0
  0
LINE
  5
13E5
330
2
100
AcDbEntity
  8
0
100
AcDbLine
 10
721.984823764816
 20
345.0537322187844
 30
0.0
 11
714.984823764816
 21
345.0537322187844
 31
0.0
  0
ARC
  5
13E6
330
2
100
AcDbEntity
  8
0
100
AcDbCircle
 10
724.6305750758814
 20
343.0537322187844
 30
0.0
 40
3.0
100
AcDbArc
 50
118.7571570414074
 51
131.4096221092842
  0
ARC
  5
13E7
330
2
100
AcDbEntity
  8
0
100
AcDbCircle
 10
721.984823764816
 20
346.0537322187844
 30
0.0
 40
1.0
100
AcDbArc
 50
270.0
 51
338.2843827167423
  0
LINE
  5
13E8
330
2
100
AcDbEntity
  8
0
100
AcDbLine
 10
757.984823764816
 20
346.0537322187844
 30
0.0
 11
757.984823764816
 21
406.0537322187844
 31
0.0
  0
CIRCLE
  5
13E9
330
2
100
AcDbEntity
  8
CENTER
100
AcDbCircle
 10
955.6165162262637
 20
109.4215561945871
 30
0.0
 40
35.00000000000006
  0
LINE
  5
13EA
330
2
100
AcDbEntity
  8
0
100
AcDbLine
 10
748.3899527130054
 20
132.6313779186972
 30
0.0
 11
748.4398739875225
 21
135.4913658203355
 31
0.0
  0
LINE
  5
13EB
330
2
100
AcDbEntity
  8
0
100
AcDbLine
 10
722.8561883894019
 20
116.7910720899314
 30
0.0
 11
722.460867187103
 21
139.4390086010249
 31
0.0
  0
LINE
  5
13EC
330
2
100
AcDbEntity
  8
0
100
AcDbLine
 10
714.9848237678382
 20
109.4215561945862
 30
0.0
 11
715.4448631210255
 21
109.4215561945863
 31
0.0
  0
ARC
  5
13ED
330
2
100
AcDbEntity
  8
0
100
AcDbCircle
 10
730.9012591431403
 20
134.6603226553603
 30
0.0
 40
3.0
100
AcDbArc
 50
270.0
 51
359.0000000000242
  0
LINE
  5
13EE
330
2
100
AcDbEntity
  8
0
100
AcDbLine
 10
745.3725458962037
 20
131.6603226553612
 30
0.0
 11
730.9012591431403
 21
131.6603226553612
 31
0.0
  0
LINE
  5
13EF
330
2
100
AcDbEntity
  8
0
100
AcDbLine
 10
727.4905185000664
 20
79.42155619458628
 30
0.0
 11
757.9848237678382
 21
79.42155619458628
 31
0.0
  0
LINE
  5
13F0
330
2
100
AcDbEntity
  8
0
100
AcDbLine
 10
750.9848237678381
 20
131.9215561945862
 30
0.0
 11
747.8841570962215
 21
131.9215561945862
 31
0.0
  0
LINE
  5
13F1
330
2
100
AcDbEntity
  8
0
100
AcDbLine
 10
747.9848237678382
 20
109.4215561945862
 30
0.0
 11
748.4398739875234
 21
83.35174656883703
 31
0.0
  0
ARC
  5
13F2
330
2
100
AcDbEntity
  8
0
100
AcDbCircle
 10
752.4392647681481
 20
83.42155619458628
 30
0.0
 40
4.0
100
AcDbArc
 50
181.0000000000017
 51
270.0
  0
ARC
  5
13F3
330
2
100
AcDbEntity
  8
0
100
AcDbCircle
 10
735.9502182940689
 20
137.4215561945862
 30
0.0
 40
2.0
100
AcDbArc
 50
90.0
 51
179.0000000000242
  0
LINE
  5
13F4
330
2
100
AcDbEntity
  8
0
100
AcDbLine
 10
733.950522903757
 20
137.4564610074618
 30
0.0
 11
733.9008022286109
 21
134.6079654360497
 31
0.0
  0
LINE
  5
13F5
330
2
100
AcDbEntity
  8
0
100
AcDbLine
 10
722.9848237678472
 20
109.4215561945862
 30
0.0
 11
722.4608671871049
 21
79.40410378814942
 31
0.0
  0
ARC
  5
13F6
330
2
100
AcDbEntity
  8
0
100
AcDbCircle
 10
724.1067708030116
 20
76.42155619458629
 30
0.0
 40
3.0
100
AcDbArc
 50
118.7571570414074
 51
131.4096221092796
  0
ARC
  5
13F7
330
2
100
AcDbEntity
  8
0
100
AcDbCircle
 10
721.461019491948
 20
79.42155619458628
 30
0.0
 40
1.0
100
AcDbArc
 50
270.0
 51
358.9999999999721
  0
LINE
  5
13F8
330
2
100
AcDbEntity
  8
0
100
AcDbLine
 10
714.9848237678382
 20
78.42155619458629
 30
0.0
 11
721.461019491948
 21
78.42155619458629
 31
0.0
  0
LINE
  5
13F9
330
2
100
AcDbEntity
  8
0
100
AcDbLine
 10
727.4905185000664
 20
139.4215561945862
 30
0.0
 11
757.9848237678382
 21
139.4215561945862
 31
0.0
  0
LINE
  5
13FA
330
2
100
AcDbEntity
  8
CENTER
  6
CENS
100
AcDbLine
 10
743.9848237678382
 20
148.4215561945899
 30
0.0
 11
743.9848237678382
 21
125.9391464768365
 31
0.0
  0
ARC
  5
13FB
330
2
100
AcDbEntity
  8
0
100
AcDbCircle
 10
752.4392647681472
 20
135.4215561945862
 30
0.0
 40
4.0
100
AcDbArc
 50
90.0
 51
178.9999999999982
  0
ARC
  5
13FC
330
2
100
AcDbEntity
  8
0
100
AcDbCircle
 10
724.1067708030116
 20
142.4215561945862
 30
0.0
 40
3.0
100
AcDbArc
 50
228.5903778907442
 51
241.2428429585923
  0
ARC
  5
13FD
330
2
100
AcDbEntity
  8
0
100
AcDbCircle
 10
721.4610194919462
 20
139.4215561945862
 30
0.0
 40
1.0
100
AcDbArc
 50
1.000000000001775
 51
90.0
  0
LINE
  5
13FE
330
2
100
AcDbEntity
  8
0
100
AcDbLine
 10
714.9848237678382
 20
140.4215561945862
 30
0.0
 11
721.4610194919462
 21
140.4215561945862
 31
0.0
  0
LINE
  5
13FF
330
2
100
AcDbEntity
  8
0
100
AcDbLine
 10
757.9848237678382
 20
139.4215561945862
 30
0.0
 11
757.9848237678382
 21
79.42155619458628
 31
0.0
  0
LINE
  5
1400
330
2
100
AcDbEntity
  8
0
100
AcDbLine
 10
723.5768989004666
 20
139.791556194587
 30
0.0
 11
722.5768989004666
 21
139.791556194587
 31
0.0
  0
LINE
  5
1401
330
2
100
AcDbEntity
  8
0
100
AcDbLine
 10
722.5768989004666
 20
139.791556194587
 30
0.0
 11
722.5768989004666
 21
132.791556194587
 31
0.0
  0
LINE
  5
1402
330
2
100
AcDbEntity
  8
0
100
AcDbLine
 10
722.5768989004666
 20
132.791556194587
 30
0.0
 11
723.5768989004666
 21
132.791556194587
 31
0.0
  0
LINE
  5
1403
330
2
100
AcDbEntity
  8
0
100
AcDbLine
 10
723.5768989004666
 20
132.791556194587
 30
0.0
 11
723.5768989004666
 21
139.791556194587
 31
0.0
  0
LINE
  5
1404
330
2
100
AcDbEntity
  8
0
100
AcDbLine
 10
727.5768989004666
 20
139.2719409523166
 30
0.0
 11
727.5768989004666
 21
133.3111714368575
 31
0.0
  0
LINE
  5
1405
330
2
100
AcDbEntity
  8
0
100
AcDbLine
 10
727.2768989004673
 20
132.791556194587
 30
0.0
 11
727.2768989004673
 21
139.791556194587
 31
0.0
  0
LINE
  5
1406
330
2
100
AcDbEntity
  8
0
100
AcDbLine
 10
727.2768989004673
 20
132.791556194587
 30
0.0
 11
723.5768989004666
 21
132.791556194587
 31
0.0
  0
LINE
  5
1407
330
2
100
AcDbEntity
  8
0
100
AcDbLine
 10
727.2768989004673
 20
132.791556194587
 30
0.0
 11
727.5768989004666
 21
133.3111714368575
 31
0.0
  0
LINE
  5
1408
330
2
100
AcDbEntity
  8
0
100
AcDbLine
 10
727.5768989004666
 20
139.2719409523166
 30
0.0
 11
727.2768989004673
 21
139.791556194587
 31
0.0
  0
LINE
  5
1409
330
2
100
AcDbEntity
  8
0
100
AcDbLine
 10
723.5768989004666
 20
139.791556194587
 30
0.0
 11
727.2768989004673
 21
139.791556194587
 31
0.0
  0
LINE
  5
140A
330
2
100
AcDbEntity
  8
CENTER
  6
CENS
100
AcDbLine
 10
732.5158061732166
 20
136.291556194587
 30
0.0
 11
709.5158490835949
 21
136.291556194587
 31
0.0
  0
LINE
  5
140B
330
2
100
AcDbEntity
  8
CENTER
  6
CENS
100
AcDbLine
 10
732.5158061732166
 20
82.55155619458639
 30
0.0
 11
709.5158490835949
 21
82.55155619458639
 31
0.0
  0
LINE
  5
140C
330
2
100
AcDbEntity
  8
CENTER
  6
CENS
100
AcDbLine
 10
732.5158061701944
 20
349.1837322187854
 30
0.0
 11
709.5158490805728
 21
349.1837322187854
 31
0.0
  0
LINE
  5
140D
330
2
100
AcDbEntity
  8
0
100
AcDbLine
 10
723.5768988974444
 20
345.6837322187854
 30
0.0
 11
722.5768988974444
 21
345.6837322187854
 31
0.0
  0
LINE
  5
140E
330
2
100
AcDbEntity
  8
0
100
AcDbLine
 10
722.5768988974444
 20
352.6837322187854
 30
0.0
 11
723.5768988974444
 21
352.6837322187854
 31
0.0
  0
LINE
  5
140F
330
2
100
AcDbEntity
  8
0
100
AcDbLine
 10
723.5768988974444
 20
352.6837322187854
 30
0.0
 11
723.5768988974444
 21
345.6837322187854
 31
0.0
  0
LINE
  5
1410
330
2
100
AcDbEntity
  8
0
100
AcDbLine
 10
727.5768988974444
 20
346.2033474610559
 30
0.0
 11
727.5768988974444
 21
352.164116976515
 31
0.0
  0
LINE
  5
1411
330
2
100
AcDbEntity
  8
0
100
AcDbLine
 10
727.2768988974452
 20
352.6837322187854
 30
0.0
 11
727.2768988974452
 21
345.6837322187854
 31
0.0
  0
LINE
  5
1412
330
2
100
AcDbEntity
  8
0
100
AcDbLine
 10
727.2768988974452
 20
352.6837322187854
 30
0.0
 11
723.5768988974444
 21
352.6837322187854
 31
0.0
  0
LINE
  5
1413
330
2
100
AcDbEntity
  8
0
100
AcDbLine
 10
727.2768988974452
 20
352.6837322187854
 30
0.0
 11
727.5768988974444
 21
352.164116976515
 31
0.0
  0
LINE
  5
1414
330
2
100
AcDbEntity
  8
0
100
AcDbLine
 10
727.5768988974444
 20
346.2033474610559
 30
0.0
 11
727.2768988974452
 21
345.6837322187854
 31
0.0
  0
LINE
  5
1415
330
2
100
AcDbEntity
  8
0
100
AcDbLine
 10
723.5768988974444
 20
345.6837322187854
 30
0.0
 11
727.2768988974452
 21
345.6837322187854
 31
0.0
  0
LINE
  5
1416
330
2
100
AcDbEntity
  8
0
100
AcDbLine
 10
722.5768988974444
 20
345.6837322187854
 30
0.0
 11
722.5768988974444
 21
352.6837322187854
 31
0.0
  0
LINE
  5
1417
330
2
100
AcDbEntity
  8
0
100
AcDbLine
 10
722.5768988974444
 20
352.6837322187854
 30
0.0
 11
722.5768988974444
 21
345.6837322187854
 31
0.0
  0
LINE
  5
1418
330
2
100
AcDbEntity
  8
CENTER
  6
CENS
100
AcDbLine
 10
732.5158061701944
 20
402.9237322187852
 30
0.0
 11
709.5158490805728
 21
402.9237322187852
 31
0.0
  0
LINE
  5
1419
330
2
100
AcDbEntity
  8
0
100
AcDbLine
 10
723.5768988974444
 20
406.4237322187852
 30
0.0
 11
722.5768988974444
 21
406.4237322187852
 31
0.0
  0
LINE
  5
141A
330
2
100
AcDbEntity
  8
0
100
AcDbLine
 10
722.5768988974444
 20
399.4237322187852
 30
0.0
 11
723.5768988974444
 21
399.4237322187852
 31
0.0
  0
LINE
  5
141B
330
2
100
AcDbEntity
  8
0
100
AcDbLine
 10
723.5768988974444
 20
399.4237322187852
 30
0.0
 11
723.5768988974444
 21
406.4237322187852
 31
0.0
  0
LINE
  5
141C
330
2
100
AcDbEntity
  8
0
100
AcDbLine
 10
727.5768988974444
 20
405.9041169765148
 30
0.0
 11
727.5768988974444
 21
399.9433474610556
 31
0.0
  0
LINE
  5
141D
330
2
100
AcDbEntity
  8
0
100
AcDbLine
 10
727.2768988974452
 20
399.4237322187852
 30
0.0
 11
727.2768988974452
 21
406.4237322187852
 31
0.0
  0
LINE
  5
141E
330
2
100
AcDbEntity
  8
0
100
AcDbLine
 10
727.2768988974452
 20
399.4237322187852
 30
0.0
 11
723.5768988974444
 21
399.4237322187852
 31
0.0
  0
LINE
  5
141F
330
2
100
AcDbEntity
  8
0
100
AcDbLine
 10
727.2768988974452
 20
399.4237322187852
 30
0.0
 11
727.5768988974444
 21
399.9433474610556
 31
0.0
  0
LINE
  5
1420
330
2
100
AcDbEntity
  8
0
100
AcDbLine
 10
727.5768988974444
 20
405.9041169765148
 30
0.0
 11
727.2768988974452
 21
406.4237322187852
 31
0.0
  0
LINE
  5
1421
330
2
100
AcDbEntity
  8
0
100
AcDbLine
 10
723.5768988974444
 20
406.4237322187852
 30
0.0
 11
727.2768988974452
 21
406.4237322187852
 31
0.0
  0
LINE
  5
1422
330
2
100
AcDbEntity
  8
0
100
AcDbLine
 10
722.5768988974444
 20
406.4237322187852
 30
0.0
 11
722.5768988974444
 21
399.4237322187852
 31
0.0
  0
LINE
  5
1423
330
2
100
AcDbEntity
  8
0
100
AcDbLine
 10
722.5768988974444
 20
399.4237322187852
 30
0.0
 11
722.5768988974444
 21
406.4237322187852
 31
0.0
  0
LINE
  5
1424
330
2
100
AcDbEntity
  8
0
100
AcDbLine
 10
723.5768989004666
 20
79.05155619458731
 30
0.0
 11
722.5768989004666
 21
79.05155619458731
 31
0.0
  0
LINE
  5
1425
330
2
100
AcDbEntity
  8
0
100
AcDbLine
 10
722.5768989004666
 20
79.05155619458731
 30
0.0
 11
722.5768989004666
 21
86.05155619458731
 31
0.0
  0
LINE
  5
1426
330
2
100
AcDbEntity
  8
0
100
AcDbLine
 10
722.5768989004666
 20
86.05155619458731
 30
0.0
 11
723.5768989004666
 21
86.05155619458731
 31
0.0
  0
LINE
  5
1427
330
2
100
AcDbEntity
  8
0
100
AcDbLine
 10
723.5768989004666
 20
86.05155619458731
 30
0.0
 11
723.5768989004666
 21
79.05155619458731
 31
0.0
  0
LINE
  5
1428
330
2
100
AcDbEntity
  8
0
100
AcDbLine
 10
727.5768989004666
 20
79.57117143685775
 30
0.0
 11
727.5768989004666
 21
85.53194095231686
 31
0.0
  0
LINE
  5
1429
330
2
100
AcDbEntity
  8
0
100
AcDbLine
 10
727.2768989004673
 20
86.05155619458731
 30
0.0
 11
727.2768989004673
 21
79.05155619458731
 31
0.0
  0
LINE
  5
142A
330
2
100
AcDbEntity
  8
0
100
AcDbLine
 10
727.2768989004673
 20
86.05155619458731
 30
0.0
 11
723.5768989004666
 21
86.05155619458731
 31
0.0
  0
LINE
  5
142B
330
2
100
AcDbEntity
  8
0
100
AcDbLine
 10
727.2768989004673
 20
86.05155619458731
 30
0.0
 11
727.5768989004666
 21
85.53194095231686
 31
0.0
  0
LINE
  5
142C
330
2
100
AcDbEntity
  8
0
100
AcDbLine
 10
727.5768989004666
 20
79.57117143685775
 30
0.0
 11
727.2768989004673
 21
79.05155619458731
 31
0.0
  0
LINE
  5
142D
330
2
100
AcDbEntity
  8
0
100
AcDbLine
 10
723.5768989004666
 20
79.05155619458731
 30
0.0
 11
727.2768989004673
 21
79.05155619458731
 31
0.0
  0
LINE
  5
142E
330
2
100
AcDbEntity
  8
0
100
AcDbLine
 10
748.484813158788
 20
114.9215561945871
 30
0.0
 11
738.484813158788
 21
114.9215561945871
 31
0.0
  0
LINE
  5
142F
330
2
100
AcDbEntity
  8
0
100
AcDbLine
 10
748.484813158788
 20
114.9215561945862
 30
0.0
 11
748.484813158788
 21
109.4215561945862
 31
0.0
  0
LINE
  5
1430
330
2
100
AcDbEntity
  8
0
100
AcDbLine
 10
750.484813158788
 20
116.0762567329662
 30
0.0
 11
748.484813158788
 21
114.9215561945862
 31
0.0
  0
LINE
  5
1431
330
2
100
AcDbEntity
  8
0
100
AcDbLine
 10
721.484813158788
 20
115.1715561945862
 30
0.0
 11
721.484813158788
 21
109.4215561945862
 31
0.0
  0
LINE
  5
1432
330
2
100
AcDbEntity
  8
0
100
AcDbLine
 10
748.484813158788
 20
114.9215561945862
 30
0.0
 11
738.484813158788
 21
114.9215561945862
 31
0.0
  0
LINE
  5
1433
330
2
100
AcDbEntity
  8
0
100
AcDbLine
 10
743.3970273374618
 20
124.1715561945862
 30
0.0
 11
750.484813158788
 21
124.1715561945862
 31
0.0
  0
LINE
  5
1434
330
2
100
AcDbEntity
  8
0
100
AcDbLine
 10
750.484813158788
 20
124.1715561945862
 30
0.0
 11
750.484813158788
 21
109.4215561945862
 31
0.0
  0
LINE
  5
1435
330
2
100
AcDbEntity
  8
0
100
AcDbLine
 10
736.484813158788
 20
119.7062373813101
 30
0.0
 11
736.484813158788
 21
109.4215561945862
 31
0.0
  0
LINE
  5
1436
330
2
100
AcDbEntity
  8
0
100
AcDbLine
 10
738.484813158788
 20
120.2316375287415
 30
0.0
 11
738.484813158788
 21
109.4215561945862
 31
0.0
  0
LINE
  5
1437
330
2
100
AcDbEntity
  8
0
100
AcDbLine
 10
729.484813158788
 20
115.1715561945862
 30
0.0
 11
721.484813158788
 21
115.1715561945862
 31
0.0
  0
LINE
  5
1438
330
2
100
AcDbEntity
  8
0
100
AcDbLine
 10
729.484813158788
 20
109.4215561945862
 30
0.0
 11
729.484813158788
 21
115.1715561945862
 31
0.0
  0
LINE
  5
1439
330
2
100
AcDbEntity
  8
0
100
AcDbLine
 10
736.484813158788
 20
114.9215561945862
 30
0.0
 11
729.484813158788
 21
114.9215561945862
 31
0.0
  0
LINE
  5
143A
330
2
100
AcDbEntity
  8
0
100
AcDbLine
 10
718.5980618128398
 20
109.4215561945862
 30
0.0
 11
721.484813158788
 21
114.4215561945862
 31
0.0
  0
LINE
  5
143B
330
2
100
AcDbEntity
  8
0
100
AcDbLine
 10
750.9848237678381
 20
134.4215561945862
 30
0.0
 11
750.984823767839
 21
109.4215561945862
 31
0.0
  0
LINE
  5
143C
330
2
100
AcDbEntity
  8
0
100
AcDbLine
 10
757.9848237678382
 20
134.4215561945862
 30
0.0
 11
750.9848237678381
 21
134.4215561945862
 31
0.0
  0
LINE
  5
143E
330
2
100
AcDbEntity
  8
0
100
AcDbLine
 10
940.8855963636092
 20
108.6715561945907
 30
0.0
 11
945.1165162262654
 21
108.6715561945907
 31
0.0
  0
LINE
  5
143F
330
2
100
AcDbEntity
  8
0
100
AcDbLine
 10
940.8855963636092
 20
110.1715561945907
 30
0.0
 11
945.1165162262654
 21
110.1715561945907
 31
0.0
  0
LINE
  5
1440
330
2
100
AcDbEntity
  8
0
100
AcDbLine
 10
969.6165162262655
 20
110.1715561945907
 30
0.0
 11
969.6165162262655
 21
108.6715561945907
 31
0.0
  0
LINE
  5
1441
330
2
100
AcDbEntity
  8
0
100
AcDbLine
 10
961.0651399056891
 20
110.1715561945907
 30
0.0
 11
969.6165162262655
 21
110.1715561945907
 31
0.0
  0
LINE
  5
1442
330
2
100
AcDbEntity
  8
0
100
AcDbLine
 10
969.6165162262655
 20
108.6715561945907
 30
0.0
 11
961.0651399056891
 21
108.6715561945907
 31
0.0
  0
LINE
  5
1443
330
2
100
AcDbEntity
  8
HIDS
100
AcDbLine
 10
949.1165162262655
 20
122.6621188714557
 30
0.0
 11
949.1165162262655
 21
114.4215561945907
 31
0.0
  0
LINE
  5
1444
330
2
100
AcDbEntity
  8
HIDS
100
AcDbLine
 10
946.7831828929316
 20
99.88822286125794
 30
0.0
 11
946.7831828929316
 21
97.60907456615093
 31
0.0
  0
LINE
  5
1445
330
2
100
AcDbEntity
  8
HIDS
100
AcDbLine
 10
947.1165162262655
 20
108.6715561945907
 30
0.0
 11
947.1165162262655
 21
97.36699274334894
 31
0.0
  0
LINE
  5
1446
330
2
100
AcDbEntity
  8
HIDS
100
AcDbLine
 10
942.6165162262655
 20
114.4215561945907
 30
0.0
 11
942.6165162262655
 21
110.1715561945907
 31
0.0
  0
LINE
  5
1447
330
2
100
AcDbEntity
  8
HIDS
100
AcDbLine
 10
947.6165162262654
 20
114.4215561945907
 30
0.0
 11
947.6165162262654
 21
110.1715561945907
 31
0.0
  0
LINE
  5
1448
330
2
100
AcDbEntity
  8
HIDS
100
AcDbLine
 10
941.7398271398875
 20
114.4215561945907
 30
0.0
 11
949.1165162262655
 21
114.4215561945907
 31
0.0
  0
LINE
  5
1449
330
2
100
AcDbEntity
  8
CENTER
  6
CENS
100
AcDbLine
 10
945.1165162262654
 20
148.4215561945907
 30
0.0
 11
945.1165162262654
 21
94.26985355499487
 31
0.0
  0
LINE
  5
144A
330
2
100
AcDbEntity
  8
HIDS
100
AcDbLine
 10
943.1165162262654
 20
114.4215561945907
 30
0.0
 11
943.1165162262654
 21
110.1715561945907
 31
0.0
  0
LINE
  5
144B
330
2
100
AcDbEntity
  8
HIDS
100
AcDbLine
 10
943.4498495595994
 20
112.7548895279247
 30
0.0
 11
943.4498495595994
 21
110.1715561945907
 31
0.0
  0
LINE
  5
144C
330
2
100
AcDbEntity
  8
HIDS
100
AcDbLine
 10
946.7831828929316
 20
112.7548895279247
 30
0.0
 11
946.7831828929316
 21
110.1715561945907
 31
0.0
  0
LINE
  5
144D
330
2
100
AcDbEntity
  8
HIDS
100
AcDbLine
 10
947.1165162262655
 20
114.4215561945907
 30
0.0
 11
947.1165162262655
 21
110.1715561945907
 31
0.0
  0
LINE
  5
144E
330
2
100
AcDbEntity
  8
HIDS
100
AcDbLine
 10
947.1165162262655
 20
100.22155619459
 30
0.0
 11
944.0873141723509
 21
100.22155619459
 31
0.0
  0
LINE
  5
144F
330
2
100
AcDbEntity
  8
HIDS
100
AcDbLine
 10
946.3165162262662
 20
99.42155619459079
 30
0.0
 11
944.7738920051646
 21
99.42155619459079
 31
0.0
  0
LINE
  5
1450
330
2
100
AcDbEntity
  8
0
100
AcDbLine
 10
943.9165162262648
 20
99.42155619459079
 30
0.0
 11
944.7738920051646
 21
99.42155619459079
 31
0.0
  0
LINE
  5
1451
330
2
100
AcDbEntity
  8
0
100
AcDbLine
 10
943.1165162262654
 20
100.22155619459
 30
0.0
 11
943.9165162262648
 21
99.42155619459079
 31
0.0
  0
LINE
  5
1452
330
2
100
AcDbEntity
  8
0
100
AcDbLine
 10
943.1165162262654
 20
100.22155619459
 30
0.0
 11
944.0873141723509
 21
100.22155619459
 31
0.0
  0
LINE
  5
1453
330
2
100
AcDbEntity
  8
HIDS
100
AcDbLine
 10
947.1165162262655
 20
100.22155619459
 30
0.0
 11
946.3165162262662
 21
99.42155619459079
 31
0.0
  0
LINE
  5
1454
330
2
100
AcDbEntity
  8
0
100
AcDbLine
 10
941.6165162262656
 20
114.4215561945907
 30
0.0
 11
941.7398271398875
 21
114.4215561945907
 31
0.0
  0
LINE
  5
1455
330
2
100
AcDbEntity
  8
HIDS
100
AcDbLine
 10
947.1165162262655
 20
112.7548895279247
 30
0.0
 11
943.1165162262654
 21
112.7548895279247
 31
0.0
  0
LINE
  5
1456
330
2
100
AcDbEntity
  8
0
100
AcDbLine
 10
941.6165162262656
 20
118.1215561945915
 30
0.0
 11
943.7054919210254
 21
118.1215561945915
 31
0.0
  0
LINE
  5
1457
330
2
100
AcDbEntity
  8
HIDS
100
AcDbLine
 10
948.0969009839951
 20
118.4215561945907
 30
0.0
 11
943.9305203337458
 21
118.4215561945907
 31
0.0
  0
LINE
  5
1458
330
2
100
AcDbEntity
  8
0
100
AcDbLine
 10
941.6165162262656
 20
118.1215561945915
 30
0.0
 11
941.6165162262656
 21
114.4215561945907
 31
0.0
  0
LINE
  5
1459
330
2
100
AcDbEntity
  8
HIDS
100
AcDbLine
 10
943.1165162262654
 20
114.4215561945907
 30
0.0
 11
943.4498495595994
 21
112.7548895279247
 31
0.0
  0
LINE
  5
145A
330
2
100
AcDbEntity
  8
0
100
AcDbLine
 10
941.6165162262656
 20
118.1215561945915
 30
0.0
 11
942.1361314685359
 21
118.4215561945907
 31
0.0
  0
LINE
  5
145B
330
2
100
AcDbEntity
  8
HIDS
100
AcDbLine
 10
948.6165162262654
 20
114.4215561945907
 30
0.0
 11
948.6165162262654
 21
118.1215561945915
 31
0.0
  0
LINE
  5
145C
330
2
100
AcDbEntity
  8
HIDS
100
AcDbLine
 10
947.1165162262655
 20
114.4215561945907
 30
0.0
 11
946.7831828929316
 21
112.7548895279247
 31
0.0
  0
LINE
  5
145D
330
2
100
AcDbEntity
  8
HIDS
100
AcDbLine
 10
948.0969009839951
 20
118.4215561945907
 30
0.0
 11
948.6165162262654
 21
118.1215561945915
 31
0.0
  0
LINE
  5
145F
330
2
100
AcDbEntity
  8
0
100
AcDbLine
 10
945.1165162262654
 20
110.1715561945907
 30
0.0
 11
950.1678925468418
 21
110.1715561945907
 31
0.0
  0
LINE
  5
1460
330
2
100
AcDbEntity
  8
0
100
AcDbLine
 10
945.1165162262654
 20
108.6715561945907
 30
0.0
 11
950.1678925468418
 21
108.6715561945907
 31
0.0
  0
LINE
  5
1462
330
2
100
AcDbEntity
  8
HIDS
100
AcDbLine
 10
943.7054919210254
 20
118.1215561945915
 30
0.0
 11
948.6165162262654
 21
118.1215561945915
 31
0.0
  0
LINE
  5
1463
330
2
100
AcDbEntity
  8
0
100
AcDbLine
 10
943.9305203337458
 20
118.4215561945907
 30
0.0
 11
942.1361314685359
 21
118.4215561945907
 31
0.0
  0
LINE
  5
1464
330
2
100
AcDbEntity
  8
HIDS
100
AcDbLine
 10
941.7398271398875
 20
114.4215561945907
 30
0.0
 11
948.6165162262654
 21
114.4215561945907
 31
0.0
  0
LINE
  5
1465
330
2
100
AcDbEntity
  8
0
100
AcDbLine
 10
947.1165162262655
 20
110.1715561945907
 30
0.0
 11
947.1165162262655
 21
108.6715561945907
 31
0.0
  0
LINE
  5
1466
330
2
100
AcDbEntity
  8
HOJO
100
AcDbLine
 10
946.7831828929316
 20
110.1715561945907
 30
0.0
 11
946.7831828929316
 21
108.6715561945907
 31
0.0
  0
LINE
  5
1467
330
2
100
AcDbEntity
  8
HOJO
100
AcDbLine
 10
943.4498495595994
 20
110.1715561945907
 30
0.0
 11
943.4498495595994
 21
108.6715561945907
 31
0.0
  0
LINE
  5
1468
330
2
100
AcDbEntity
  8
0
100
AcDbLine
 10
943.1165162262654
 20
110.1715561945907
 30
0.0
 11
943.1165162262654
 21
108.6715561945907
 31
0.0
  0
LINE
  5
1469
330
2
100
AcDbEntity
  8
HIDS
100
AcDbLine
 10
943.1165162262654
 20
108.6715561945907
 30
0.0
 11
943.1165162262654
 21
101.5913263129073
 31
0.0
  0
LINE
  5
146A
330
2
100
AcDbEntity
  8
HIDS
100
AcDbLine
 10
943.4498495595994
 20
108.6715561945907
 30
0.0
 11
943.4498495595994
 21
101.0828079538637
 31
0.0
  0
LINE
  5
146B
330
2
100
AcDbEntity
  8
HIDS
100
AcDbLine
 10
946.7831828929316
 20
108.6715561945907
 30
0.0
 11
946.7831828929316
 21
99.88822286125794
 31
0.0
  0
LINE
  5
146C
330
2
100
AcDbEntity
  8
HIDS
100
AcDbLine
 10
947.1165162262655
 20
108.6715561945907
 30
0.0
 11
947.1165162262655
 21
100.22155619459
 31
0.0
  0
LINE
  5
146D
330
2
100
AcDbEntity
  8
HOJO
100
AcDbLine
 10
943.4498495595994
 20
101.0828079538637
 30
0.0
 11
943.4498495595994
 21
99.88822286125794
 31
0.0
  0
LINE
  5
146E
330
2
100
AcDbEntity
  8
0
100
AcDbLine
 10
943.1165162262654
 20
101.5913263129073
 30
0.0
 11
943.1165162262654
 21
100.22155619459
 31
0.0
  0
CIRCLE
  5
146F
330
2
100
AcDbEntity
  8
0
100
AcDbCircle
 10
955.6165162262654
 20
109.4215561945907
 30
0.0
 40
5.499999999997157
  0
ARC
  5
1470
330
2
100
AcDbEntity
  8
0
100
AcDbCircle
 10
955.6165162262654
 20
109.4215561945907
 30
0.0
 40
6.654700538376232
100
AcDbArc
 50
6.471114411194036
 51
173.5288855888059
  0
ARC
  5
1471
330
2
100
AcDbEntity
  8
0
100
AcDbCircle
 10
955.6165162262654
 20
109.4215561945907
 30
0.0
 40
6.654700538376232
100
AcDbArc
 50
186.471114411194
 51
353.5288855888059
  0
SPLINE
  5
1472
330
2
100
AcDbEntity
  8
HOJO
100
AcDbSpline
210
0.0
220
0.0
230
1.0
 70
     8
 71
     3
 72
    20
 73
    16
 74
     0
 42
0.0000000001
 43
0.0000000001
 40
0.0
 40
0.0
 40
0.0
 40
0.0
 40
5.311626210389601
 40
7.954639692924123
 40
10.24579206730457
 40
14.18281221953265
 40
18.83794314114633
 40
26.54246833222011
 40
31.19712602527561
 40
34.95638115537181
 40
42.12378530287149
 40
45.78553747213095
 40
50.20353689726185
 40
53.26513166942802
 40
54.23175360515262
 40
54.23175360515262
 40
54.23175360515262
 40
54.23175360515262
 10
757.9848237678382
 20
136.1090049166028
 30
0.0
 10
756.27184460195
 20
136.0009628663761
 30
0.0
 10
753.706503682539
 20
135.8391601439731
 30
0.0
 10
749.9347497954625
 20
135.5870274718041
 30
0.0
 10
748.6156085793283
 20
132.654585986838
 30
0.0
 10
746.1803992110374
 20
130.0000771635428
 30
0.0
 10
744.3423508678882
 20
124.8487817303781
 30
0.0
 10
740.2175144584109
 20
120.139034378753
 30
0.0
 10
734.7398669554043
 20
119.5017029443339
 30
0.0
 10
729.8264814458382
 20
117.8153839976263
 30
0.0
 10
724.9924820990802
 20
117.1953969056518
 30
0.0
 10
719.9547553344411
 20
116.2401728879909
 30
0.0
 10
716.8836047130719
 20
113.7059610452403
 30
0.0
 10
715.8836304183462
 20
111.0277205243497
 30
0.0
 10
715.5275908931128
 20
109.7327074942792
 30
0.0
 10
715.4448631210255
 20
109.4215561945862
 30
0.0
  0
LINE
  5
1473
330
2
100
AcDbEntity
  8
0
100
AcDbLine
 10
748.9848237678382
 20
143.4215561945863
 30
0.0
 11
738.9848237678381
 21
143.4215561945863
 31
0.0
  0
ARC
  5
1474
330
2
100
AcDbEntity
  8
0
100
AcDbCircle
 10
738.9848237678381
 20
139.4215561945862
 30
0.0
 40
4.0
100
AcDbArc
 50
90.0
 51
180.0
  0
ARC
  5
1475
330
2
100
AcDbEntity
  8
0
100
AcDbCircle
 10
748.9848237678382
 20
139.4215561945862
 30
0.0
 40
4.000000000000028
100
AcDbArc
 50
0.0
 51
90.0
  0
LINE
  5
1476
330
2
100
AcDbEntity
  8
0
100
AcDbLine
 10
940.1165162262655
 20
143.4215561945907
 30
0.0
 11
950.1165162262655
 21
143.4215561945907
 31
0.0
  0
ARC
  5
1477
330
2
100
AcDbEntity
  8
0
100
AcDbCircle
 10
950.1165162262655
 20
139.4215561945907
 30
0.0
 40
3.999999999999971
100
AcDbArc
 50
359.9999999999478
 51
90.0
  0
ARC
  5
1478
330
2
100
AcDbEntity
  8
0
100
AcDbCircle
 10
940.1165162262655
 20
139.4215561945907
 30
0.0
 40
4.000000000000056
100
AcDbArc
 50
90.0
 51
180.0000000000521
  0
ARC
  5
1479
330
2
100
AcDbEntity
  8
0
100
AcDbCircle
 10
982.4640276012237
 20
136.3141503486218
 30
0.0
 40
3.499999999999717
100
AcDbArc
 50
331.4660973942784
 51
117.7026032046093
  0
ARC
  5
147A
330
2
100
AcDbEntity
  8
0
100
AcDbCircle
 10
982.4640276012237
 20
136.3141503486218
 30
0.0
 40
2.980384757729353
100
AcDbArc
 50
347.9891694961513
 51
101.1795311027486
  0
ARC
  5
147B
330
2
100
AcDbEntity
  8
0
100
AcDbCircle
 10
928.7239220722344
 20
136.269067569549
 30
0.0
 40
3.499999999999717
100
AcDbArc
 50
61.46609739427881
 51
207.7026032046107
  0
ARC
  5
147C
330
2
100
AcDbEntity
  8
0
100
AcDbCircle
 10
928.7239220722344
 20
136.269067569549
 30
0.0
 40
2.980384757729353
100
AcDbArc
 50
77.98916949612223
 51
191.1795311027489
  0
ARC
  5
147D
330
2
100
AcDbEntity
  8
0
100
AcDbCircle
 10
928.7690048513063
 20
82.52896204055975
 30
0.0
 40
3.499999999999717
100
AcDbArc
 50
151.4660973942784
 51
297.7026032046093
  0
ARC
  5
147E
330
2
100
AcDbEntity
  8
0
100
AcDbCircle
 10
928.7690048513063
 20
82.52896204055975
 30
0.0
 40
2.980384757729353
100
AcDbArc
 50
167.9891694961514
 51
281.1795311027486
  0
ARC
  5
147F
330
2
100
AcDbEntity
  8
0
100
AcDbCircle
 10
982.5091103802964
 20
82.57404481963254
 30
0.0
 40
3.499999999999717
100
AcDbArc
 50
241.4660973942788
 51
27.70260320461076
  0
ARC
  5
1480
330
2
100
AcDbEntity
  8
0
100
AcDbCircle
 10
982.5091103802964
 20
82.57404481963254
 30
0.0
 40
2.980384757729353
100
AcDbArc
 50
257.9891694961223
 51
11.17953110274902
  0
CIRCLE
  5
1481
330
2
100
AcDbEntity
  8
0
100
AcDbCircle
 10
743.984823764816
 20
365.5537322187844
 30
0.0
 40
9.0
  0
LINE
  5
1482
330
2
100
AcDbEntity
  8
CENTER
  6
CENS
100
AcDbLine
 10
743.984823764816
 20
354.0132213146613
 30
0.0
 11
743.984823764816
 21
377.0942431229093
 31
0.0
  0
LINE
  5
1483
330
2
100
AcDbEntity
  8
CENTER
  6
CENS
100
AcDbLine
 10
755.52533466894
 20
365.5537322187853
 30
0.0
 11
732.4443128606921
 21
365.5537322187853
 31
0.0
  0
CIRCLE
  5
1485
330
2
100
AcDbEntity
  8
HOJO
100
AcDbCircle
 10
980.3652535677933
 20
134.1702935361168
 30
0.0
 40
2.0
  0
CIRCLE
  5
1486
330
2
100
AcDbEntity
  8
0
100
AcDbCircle
 10
980.3652535677933
 20
134.1702935361168
 30
0.0
 40
1.6
  0
CIRCLE
  5
1487
330
2
100
AcDbEntity
  8
HOJO
100
AcDbCircle
 10
930.867778884734
 20
134.1702935361168
 30
0.0
 40
2.0
  0
CIRCLE
  5
1488
330
2
100
AcDbEntity
  8
0
100
AcDbCircle
 10
930.867778884734
 20
134.1702935361168
 30
0.0
 40
1.6
  0
CIRCLE
  5
1489
330
2
100
AcDbEntity
  8
HOJO
100
AcDbCircle
 10
930.867778884734
 20
84.67281885305835
 30
0.0
 40
2.0
  0
CIRCLE
  5
148A
330
2
100
AcDbEntity
  8
0
100
AcDbCircle
 10
930.867778884734
 20
84.67281885305835
 30
0.0
 40
1.6
  0
CIRCLE
  5
148B
330
2
100
AcDbEntity
  8
HOJO
100
AcDbCircle
 10
980.3652535677924
 20
84.67281885305926
 30
0.0
 40
2.0
  0
CIRCLE
  5
148C
330
2
100
AcDbEntity
  8
0
100
AcDbCircle
 10
980.3652535677924
 20
84.67281885305926
 30
0.0
 40
1.6
  0
LINE
  5
148D
330
2
100
AcDbEntity
  8
HIDS
100
AcDbLine
 10
935.5822153621861
 20
137.4564610074681
 30
0.0
 11
935.5030868260005
 21
132.9231902055085
 31
0.0
  0
ARC
  5
148E
330
2
100
AcDbEntity
  8
HIDS
100
AcDbCircle
 10
937.5819107524989
 20
137.4215561945944
 30
0.0
 40
2.0
100
AcDbArc
 50
90.0
 51
178.9999999999721
  0
ARC
  5
148F
330
2
100
AcDbEntity
  8
HIDS
100
AcDbCircle
 10
932.5035437405308
 20
132.9755474248209
 30
0.0
 40
3.0
100
AcDbArc
 50
314.458551434667
 51
359.0000000000242
  0
LINE
  5
1490
330
2
100
AcDbEntity
  8
0
100
AcDbLine
 10
54.64009703866555
 20
109.4215561945901
 30
0.0
 11
54.18504681898025
 21
135.4913658203393
 31
0.0
  0
LINE
  5
1491
330
2
100
AcDbEntity
  8
0
100
AcDbLine
 10
79.64009703865645
 20
109.4215561945901
 30
0.0
 11
80.16405361939883
 21
139.4390086010287
 31
0.0
  0
LINE
  5
1492
330
2
100
AcDbEntity
  8
0
100
AcDbLine
 10
87.64009703866372
 20
109.4215561945901
 30
0.0
 11
44.64009703866373
 21
109.4215561945901
 31
0.0
  0
ARC
  5
1493
330
2
100
AcDbEntity
  8
0
100
AcDbCircle
 10
71.72366166336155
 20
84.18278973381603
 30
0.0
 40
3.0
100
AcDbArc
 50
90.0
 51
179.0000000000242
  0
LINE
  5
1494
330
2
100
AcDbEntity
  8
0
100
AcDbLine
 10
57.25237491029997
 20
87.18278973381604
 30
0.0
 11
71.72366166336155
 21
87.18278973381604
 31
0.0
  0
LINE
  5
1495
330
2
100
AcDbEntity
  8
0
100
AcDbLine
 10
75.1344023064355
 20
79.42155619459009
 30
0.0
 11
44.64009703866373
 21
79.42155619459009
 31
0.0
  0
LINE
  5
1496
330
2
100
AcDbEntity
  8
0
100
AcDbLine
 10
54.64009703866373
 20
109.4215561945901
 30
0.0
 11
54.18504681898025
 21
83.35174656884083
 31
0.0
  0
ARC
  5
1497
330
2
100
AcDbEntity
  8
0
100
AcDbCircle
 10
50.18565603835464
 20
83.4215561945901
 30
0.0
 40
4.0
100
AcDbArc
 50
270.0
 51
358.9999999999982
  0
ARC
  5
1498
330
2
100
AcDbEntity
  8
0
100
AcDbCircle
 10
66.67470251243298
 20
81.42155619459009
 30
0.0
 40
2.0
100
AcDbArc
 50
270.0
 51
359.0000000000242
  0
LINE
  5
1499
330
2
100
AcDbEntity
  8
0
100
AcDbLine
 10
68.6743979027458
 20
81.38665138171637
 30
0.0
 11
68.7241185778928
 21
84.23514695312844
 31
0.0
  0
LINE
  5
149A
330
2
100
AcDbEntity
  8
0
100
AcDbLine
 10
79.64009703865645
 20
109.4215561945901
 30
0.0
 11
80.16405361939883
 21
79.40410378815323
 31
0.0
  0
ARC
  5
149B
330
2
100
AcDbEntity
  8
0
100
AcDbCircle
 10
78.51815000349029
 20
76.4215561945901
 30
0.0
 40
3.0
100
AcDbArc
 50
48.59037789072038
 51
61.24284295859256
  0
ARC
  5
149C
330
2
100
AcDbEntity
  8
0
100
AcDbCircle
 10
81.16390131455478
 20
79.42155619459009
 30
0.0
 40
1.0
100
AcDbArc
 50
181.0000000000017
 51
270.0
  0
LINE
  5
149D
330
2
100
AcDbEntity
  8
0
100
AcDbLine
 10
87.64009703866372
 20
78.4215561945901
 30
0.0
 11
81.16390131455478
 21
78.4215561945901
 31
0.0
  0
LINE
  5
149E
330
2
100
AcDbEntity
  8
0
100
AcDbLine
 10
75.1344023064355
 20
139.42155619459
 30
0.0
 11
44.64009703866373
 21
139.42155619459
 31
0.0
  0
LINE
  5
149F
330
2
100
AcDbEntity
  8
CENTER
  6
CENS
100
AcDbLine
 10
58.64009703866372
 20
148.4215561945937
 30
0.0
 11
58.64009703866372
 21
125.9391464768403
 31
0.0
  0
ARC
  5
14A0
330
2
100
AcDbEntity
  8
0
100
AcDbCircle
 10
50.18565603835464
 20
135.4215561945901
 30
0.0
 40
4.0
100
AcDbArc
 50
1.000000000001775
 51
90.0
  0
ARC
  5
14A1
330
2
100
AcDbEntity
  8
0
100
AcDbCircle
 10
78.51815000349211
 20
142.42155619459
 30
0.0
 40
3.0
100
AcDbArc
 50
298.7571570414076
 51
311.4096221092556
  0
ARC
  5
14A2
330
2
100
AcDbEntity
  8
0
100
AcDbCircle
 10
81.16390131455569
 20
139.42155619459
 30
0.0
 40
1.0
100
AcDbArc
 50
90.0
 51
178.9999999999982
  0
LINE
  5
14A3
330
2
100
AcDbEntity
  8
0
100
AcDbLine
 10
87.64009703866372
 20
140.42155619459
 30
0.0
 11
81.16390131455569
 21
140.42155619459
 31
0.0
  0
LINE
  5
14A4
330
2
100
AcDbEntity
  8
0
100
AcDbLine
 10
44.64009703866373
 20
139.42155619459
 30
0.0
 11
44.64009703866373
 21
79.42155619459009
 31
0.0
  0
LINE
  5
14A5
330
2
100
AcDbEntity
  8
0
100
AcDbLine
 10
79.04802190603527
 20
139.7915561945908
 30
0.0
 11
80.04802190603527
 21
139.7915561945908
 31
0.0
  0
LINE
  5
14A6
330
2
100
AcDbEntity
  8
0
100
AcDbLine
 10
80.04802190603527
 20
139.7915561945908
 30
0.0
 11
80.04802190603527
 21
132.7915561945909
 31
0.0
  0
LINE
  5
14A7
330
2
100
AcDbEntity
  8
0
100
AcDbLine
 10
80.04802190603527
 20
132.7915561945909
 30
0.0
 11
79.04802190603527
 21
132.7915561945909
 31
0.0
  0
LINE
  5
14A8
330
2
100
AcDbEntity
  8
0
100
AcDbLine
 10
79.04802190603527
 20
132.7915561945909
 30
0.0
 11
79.04802190603527
 21
139.7915561945908
 31
0.0
  0
LINE
  5
14A9
330
2
100
AcDbEntity
  8
0
100
AcDbLine
 10
75.04802190603527
 20
139.2719409523204
 30
0.0
 11
75.04802190603527
 21
133.3111714368613
 31
0.0
  0
LINE
  5
14AA
330
2
100
AcDbEntity
  8
0
100
AcDbLine
 10
75.34802190603636
 20
132.7915561945909
 30
0.0
 11
75.34802190603636
 21
139.7915561945908
 31
0.0
  0
LINE
  5
14AB
330
2
100
AcDbEntity
  8
0
100
AcDbLine
 10
75.34802190603636
 20
132.7915561945909
 30
0.0
 11
79.04802190603527
 21
132.7915561945909
 31
0.0
  0
LINE
  5
14AC
330
2
100
AcDbEntity
  8
0
100
AcDbLine
 10
75.34802190603636
 20
132.7915561945909
 30
0.0
 11
75.04802190603527
 21
133.3111714368613
 31
0.0
  0
LINE
  5
14AD
330
2
100
AcDbEntity
  8
0
100
AcDbLine
 10
75.04802190603527
 20
139.2719409523204
 30
0.0
 11
75.34802190603636
 21
139.7915561945908
 31
0.0
  0
LINE
  5
14AE
330
2
100
AcDbEntity
  8
0
100
AcDbLine
 10
79.04802190603527
 20
139.7915561945908
 30
0.0
 11
75.34802190603636
 21
139.7915561945908
 31
0.0
  0
LINE
  5
14AF
330
2
100
AcDbEntity
  8
CENTER
  6
CENS
100
AcDbLine
 10
70.10911463328534
 20
136.2915561945909
 30
0.0
 11
93.10907172290876
 21
136.2915561945909
 31
0.0
  0
LINE
  5
14B0
330
2
100
AcDbEntity
  8
CENTER
  6
CENS
100
AcDbLine
 10
70.10911463328534
 20
82.55155619459021
 30
0.0
 11
93.10907172290876
 21
82.55155619459021
 31
0.0
  0
LINE
  5
14B1
330
2
100
AcDbEntity
  8
0
100
AcDbLine
 10
79.04802190603527
 20
79.05155619459112
 30
0.0
 11
80.04802190603527
 21
79.05155619459112
 31
0.0
  0
LINE
  5
14B2
330
2
100
AcDbEntity
  8
0
100
AcDbLine
 10
80.04802190603527
 20
79.05155619459112
 30
0.0
 11
80.04802190603527
 21
86.05155619459111
 31
0.0
  0
LINE
  5
14B3
330
2
100
AcDbEntity
  8
0
100
AcDbLine
 10
80.04802190603527
 20
86.05155619459111
 30
0.0
 11
79.04802190603527
 21
86.05155619459111
 31
0.0
  0
LINE
  5
14B4
330
2
100
AcDbEntity
  8
0
100
AcDbLine
 10
79.04802190603527
 20
86.05155619459111
 30
0.0
 11
79.04802190603527
 21
79.05155619459112
 31
0.0
  0
LINE
  5
14B5
330
2
100
AcDbEntity
  8
0
100
AcDbLine
 10
75.04802190603527
 20
79.57117143686156
 30
0.0
 11
75.04802190603527
 21
85.53194095232067
 31
0.0
  0
LINE
  5
14B6
330
2
100
AcDbEntity
  8
0
100
AcDbLine
 10
75.34802190603636
 20
86.05155619459111
 30
0.0
 11
75.34802190603636
 21
79.05155619459112
 31
0.0
  0
LINE
  5
14B7
330
2
100
AcDbEntity
  8
0
100
AcDbLine
 10
75.34802190603636
 20
86.05155619459111
 30
0.0
 11
79.04802190603527
 21
86.05155619459111
 31
0.0
  0
LINE
  5
14B8
330
2
100
AcDbEntity
  8
0
100
AcDbLine
 10
75.34802190603636
 20
86.05155619459111
 30
0.0
 11
75.04802190603527
 21
85.53194095232067
 31
0.0
  0
LINE
  5
14B9
330
2
100
AcDbEntity
  8
0
100
AcDbLine
 10
75.04802190603527
 20
79.57117143686156
 30
0.0
 11
75.34802190603636
 21
79.05155619459112
 31
0.0
  0
LINE
  5
14BA
330
2
100
AcDbEntity
  8
0
100
AcDbLine
 10
79.04802190603527
 20
79.05155619459112
 30
0.0
 11
75.34802190603636
 21
79.05155619459112
 31
0.0
  0
LINE
  5
14BB
330
2
100
AcDbEntity
  8
0
100
AcDbLine
 10
53.64009703866372
 20
143.42155619459
 30
0.0
 11
63.64009703866372
 21
143.42155619459
 31
0.0
  0
ARC
  5
14BC
330
2
100
AcDbEntity
  8
0
100
AcDbCircle
 10
63.64009703866372
 20
139.42155619459
 30
0.0
 40
4.0
100
AcDbArc
 50
0.0
 51
90.0
  0
ARC
  5
14BD
330
2
100
AcDbEntity
  8
0
100
AcDbCircle
 10
53.64009703866372
 20
139.42155619459
 30
0.0
 40
4.000000000000028
100
AcDbArc
 50
90.0
 51
180.0
  0
CIRCLE
  5
14BE
330
2
100
AcDbEntity
  8
0
100
AcDbCircle
 10
955.6165162262654
 20
109.4215561945907
 30
0.0
 40
22.5
  0
LINE
  5
14C0
330
2
100
AcDbEntity
  8
0
100
AcDbLine
 10
924.6165162262528
 20
80.88706791693784
 30
0.0
 11
924.6165162262528
 21
79.89724664595593
 31
0.0
  0
CIRCLE
  5
19EF
330
2
100
AcDbEntity
  8
0
100
AcDbCircle
 10
955.6165162262528
 20
109.4215561945875
 30
0.0
 40
14.75
  0
ARC
  5
1E94
330
2
100
AcDbEntity
  8
0
100
AcDbCircle
 10
217.2361404788537
 20
189.2023475065514
 30
0.0
 40
40.0
100
AcDbArc
 50
263.823003595109
 51
283.367674202629
  0
ARC
  5
1E95
330
2
100
AcDbEntity
  8
0
100
AcDbCircle
 10
213.64009703866
 20
128.4215561945901
 30
0.0
 40
12.0
100
AcDbArc
 50
0.0
 51
90.0
  0
ARC
  5
1E96
330
2
100
AcDbEntity
  8
0
100
AcDbCircle
 10
213.64009703866
 20
128.4215561945901
 30
0.0
 40
13.0
100
AcDbArc
 50
0.0
 51
90.0
  0
ARC
  5
1E97
330
2
100
AcDbEntity
  8
0
100
AcDbCircle
 10
229.1400970386637
 20
143.9215561945901
 30
0.0
 40
7.0
100
AcDbArc
 50
180.0
 51
270.0
  0
LINE
  5
1E98
330
2
100
AcDbEntity
  8
CENTER
100
AcDbLine
 10
237.8900970386637
 20
143.9215561945901
 30
0.0
 11
220.3900970386637
 21
143.9215561945901
 31
0.0
  0
CIRCLE
  5
1E99
330
2
100
AcDbEntity
  8
0
100
AcDbCircle
 10
229.1400970386705
 20
143.9215561945901
 30
0.0
 40
4.307179676972509
  0
LINE
  5
1E9A
330
2
100
AcDbEntity
  8
CENTER
100
AcDbLine
 10
225.346488874353
 20
132.4215561945901
 30
0.0
 11
233.9337052029734
 21
132.4215561945901
 31
0.0
  0
LINE
  5
1E9B
330
2
100
AcDbEntity
  8
CENTER
100
AcDbLine
 10
237.8900970386637
 20
74.92155619459009
 30
0.0
 11
220.3900970386637
 21
74.92155619459009
 31
0.0
  0
ARC
  5
1E9C
330
2
100
AcDbEntity
  8
0
100
AcDbCircle
 10
213.6400970386641
 20
90.42155619459373
 30
0.0
 40
12.0
100
AcDbArc
 50
270.0
 51
0.0
  0
ARC
  5
1E9D
330
2
100
AcDbEntity
  8
0
100
AcDbCircle
 10
213.6400970386641
 20
90.42155619459373
 30
0.0
 40
13.0
100
AcDbArc
 50
270.0
 51
0.0
  0
ARC
  5
1E9E
330
2
100
AcDbEntity
  8
0
100
AcDbCircle
 10
229.1400970386637
 20
74.92155619459009
 30
0.0
 40
7.0
100
AcDbArc
 50
90.0
 51
180.0
  0
ARC
  5
1E9F
330
2
100
AcDbEntity
  8
0
100
AcDbCircle
 10
217.2361404788532
 20
29.64076488262691
 30
0.0
 40
40.0
100
AcDbArc
 50
76.63232579737094
 51
96.17699640489092
  0
CIRCLE
  5
1EA0
330
2
100
AcDbEntity
  8
0
100
AcDbCircle
 10
229.1400970386705
 20
74.92155619459009
 30
0.0
 40
5.000000000000113
  0
CIRCLE
  5
1EA1
330
2
100
AcDbEntity
  8
0
100
AcDbCircle
 10
229.1400970386705
 20
74.92155619459009
 30
0.0
 40
4.307179676972509
  0
LINE
  5
1EA2
330
2
100
AcDbEntity
  8
CENTER
100
AcDbLine
 10
225.346488874353
 20
86.42155619459009
 30
0.0
 11
233.9337052029734
 21
86.42155619459009
 31
0.0
  0
CIRCLE
  5
1EA3
330
2
100
AcDbEntity
  8
0
100
AcDbCircle
 10
229.1400970386705
 20
143.9215561945901
 30
0.0
 40
5.000000000000113
  0
LINE
  5
1EA6
330
2
100
AcDbEntity
  8
0
100
AcDbLine
 10
93.64009703866418
 20
140.42155619459
 30
0.0
 11
87.64009703866419
 21
140.42155619459
 31
0.0
  0
LINE
  5
1EA7
330
2
100
AcDbEntity
  8
0
100
AcDbLine
 10
93.64009703866418
 20
140.9215561945901
 30
0.0
 11
87.64009703866419
 21
140.9215561945901
 31
0.0
  0
LINE
  5
1EA8
330
2
100
AcDbEntity
  8
0
100
AcDbLine
 10
87.64009703866372
 20
78.4215561945901
 30
0.0
 11
93.64009703866372
 21
78.4215561945901
 31
0.0
  0
LINE
  5
1EA9
330
2
100
AcDbEntity
  8
0
100
AcDbLine
 10
87.64009703866372
 20
77.92155619459009
 30
0.0
 11
93.64009703866372
 21
77.92155619459009
 31
0.0
  0
LINE
  5
1EAB
330
2
100
AcDbEntity
  8
0
100
AcDbLine
 10
153.6400970386641
 20
73.42155619458464
 30
0.0
 11
153.6400970386641
 21
145.42155619459
 31
0.0
  0
LINE
  5
1EAC
330
2
100
AcDbEntity
  8
0
100
AcDbLine
 10
163.6400970386641
 20
90.42155619459373
 30
0.0
 11
163.6400970386641
 21
128.4215561945864
 31
0.0
  0
LINE
  5
1EAD
330
2
100
AcDbEntity
  8
0
100
AcDbLine
 10
162.6400970386641
 20
90.42155619459373
 30
0.0
 11
162.6400970386641
 21
128.4215561945864
 31
0.0
  0
CIRCLE
  5
1EAE
330
2
100
AcDbEntity
  8
0
100
AcDbCircle
 10
194.6400970386641
 20
109.4215561945901
 30
0.0
 40
28.99999999999986
  0
CIRCLE
  5
1EAF
330
2
100
AcDbEntity
  8
0
100
AcDbCircle
 10
194.6400970386641
 20
109.4215561945901
 30
0.0
 40
28.49999999999985
  0
CIRCLE
  5
1EB0
330
2
100
AcDbEntity
  8
0
100
AcDbCircle
 10
194.6400970386641
 20
109.4215561945901
 30
0.0
 40
25.92259999999985
  0
CIRCLE
  5
1EB1
330
2
100
AcDbEntity
  8
0
100
AcDbCircle
 10
194.6400970386641
 20
109.4215561945901
 30
0.0
 40
23.5774
  0
CIRCLE
  5
1EB2
330
2
100
AcDbEntity
  8
0
100
AcDbCircle
 10
194.6400970386641
 20
109.4215561945901
 30
0.0
 40
26.49999999999986
  0
CIRCLE
  5
1EB3
330
2
100
AcDbEntity
  8
0
100
AcDbCircle
 10
194.6400970386641
 20
109.4215561945901
 30
0.0
 40
23.0
  0
LINE
  5
1EB4
330
2
100
AcDbEntity
  8
CENTER
100
AcDbLine
 10
194.6400970386641
 20
58.4215561945901
 30
0.0
 11
194.6400970386641
 21
160.4215561945901
 31
0.0
  0
LINE
  5
1EB5
330
2
100
AcDbEntity
  8
0
100
AcDbLine
 10
95.64009703866373
 20
79.92155619459009
 30
0.0
 11
95.64009703866418
 21
138.9215561945901
 31
0.0
  0
LINE
  5
1EB6
330
2
100
AcDbEntity
  8
0
100
AcDbLine
 10
107.1270040759375
 20
87.4215561945992
 30
0.0
 11
107.1270040759375
 21
131.4215561945973
 31
0.0
  0
LINE
  5
1EB7
330
2
100
AcDbEntity
  8
0
100
AcDbLine
 10
120.6400970386641
 20
135.4215561945919
 30
0.0
 11
120.6400970386641
 21
83.42155619458646
 31
0.0
  0
ARC
  5
1EB8
330
2
100
AcDbEntity
  8
0
100
AcDbCircle
 10
158.6400970386641
 20
73.4215561945901
 30
0.0
 40
5.0
100
AcDbArc
 50
180.0
 51
270.0
  0
ARC
  5
1EB9
330
2
100
AcDbEntity
  8
0
100
AcDbCircle
 10
122.6400970386641
 20
92.92155619458828
 30
0.0
 40
2.0
100
AcDbArc
 50
180.0
 51
270.0
  0
LINE
  5
1EBA
330
2
100
AcDbEntity
  8
CENTER
100
AcDbLine
 10
118.3900970386632
 20
83.92155619458828
 30
0.0
 11
135.8900970386632
 21
83.92155619458828
 31
0.0
  0
ARC
  5
1EBB
330
2
100
AcDbEntity
  8
0
100
AcDbCircle
 10
126.6400970386641
 20
83.42155619458646
 30
0.0
 40
6.0
100
AcDbArc
 50
180.0
 51
270.0
  0
CIRCLE
  5
1EBC
330
2
100
AcDbEntity
  8
0
100
AcDbCircle
 10
127.1400970386632
 20
83.92155619458828
 30
0.0
 40
5.000000000000113
  0
ARC
  5
1EBD
330
2
100
AcDbEntity
  8
0
100
AcDbCircle
 10
93.64009703866372
 20
80.42155619459009
 30
0.0
 40
2.0
100
AcDbArc
 50
270.0
 51
0.0
  0
ARC
  5
1EBE
330
2
100
AcDbEntity
  8
0
100
AcDbCircle
 10
118.6400970386541
 20
84.42155619459919
 30
0.0
 40
2.0
100
AcDbArc
 50
0.0
 51
90.0
  0
LINE
  5
1EBF
330
2
100
AcDbEntity
  8
0
100
AcDbLine
 10
115.6400970386641
 20
90.42155619459919
 30
0.0
 11
111.8729707683526
 21
90.42155619459919
 31
0.0
  0
ARC
  5
1EC0
330
2
100
AcDbEntity
  8
0
100
AcDbCircle
 10
108.1270040759375
 20
84.42155619459919
 30
0.0
 40
2.0
100
AcDbArc
 50
90.0
 51
143.1301023541136
  0
LINE
  5
1EC1
330
2
100
AcDbEntity
  8
0
100
AcDbLine
 10
118.6400970386541
 20
86.42155619459918
 30
0.0
 11
108.1270040759375
 21
86.42155619459918
 31
0.0
  0
LINE
  5
1EC2
330
2
100
AcDbEntity
  8
0
100
AcDbLine
 10
104.1270040759375
 20
84.42155619459919
 30
0.0
 11
100.622217060549
 21
84.42155619459919
 31
0.0
  0
ARC
  5
1EC3
330
2
100
AcDbEntity
  8
0
100
AcDbCircle
 10
104.1270040759375
 20
87.4215561945992
 30
0.0
 40
3.0
100
AcDbArc
 50
270.0
 51
0.0
  0
ARC
  5
1EC4
330
2
100
AcDbEntity
  8
0
100
AcDbCircle
 10
115.6400970386641
 20
85.42155619459919
 30
0.0
 40
5.0
100
AcDbArc
 50
0.0
 51
90.0
  0
ARC
  5
1EC5
330
2
100
AcDbEntity
  8
0
100
AcDbCircle
 10
111.8729707683526
 20
85.42155619459919
 30
0.0
 40
5.0
100
AcDbArc
 50
90.0
 51
165.5224878140697
  0
ARC
  5
1EC6
330
2
100
AcDbEntity
  8
0
100
AcDbCircle
 10
93.64009703866372
 20
79.92155619459009
 30
0.0
 40
2.0
100
AcDbArc
 50
270.0
 51
0.0
  0
ARC
  5
1EC7
330
2
100
AcDbEntity
  8
0
100
AcDbCircle
 10
100.622217060549
 20
79.42155619459919
 30
0.0
 40
5.0
100
AcDbArc
 50
90.0
 51
175.9039562419072
  0
CIRCLE
  5
1EC8
330
2
100
AcDbEntity
  8
HOJO
100
AcDbCircle
 10
138.6400970386637
 20
81.92155619458828
 30
0.0
 40
2.0
  0
LINE
  5
1EC9
330
2
100
AcDbEntity
  8
CENTER
100
AcDbLine
 10
138.6400970386637
 20
75.95348310090668
 30
0.0
 11
138.6400970386637
 21
87.09476127534509
 31
0.0
  0
LINE
  5
1ECA
330
2
100
AcDbEntity
  8
CENTER
100
AcDbLine
 10
127.1400970386632
 20
75.17155619458828
 30
0.0
 11
127.1400970386632
 21
92.67155619458828
 31
0.0
  0
LINE
  5
1ECB
330
2
100
AcDbEntity
  8
CENTER
100
AcDbLine
 10
133.4668919579069
 20
81.92155619458828
 30
0.0
 11
143.813302119421
 21
81.92155619458828
 31
0.0
  0
CIRCLE
  5
1ECC
330
2
100
AcDbEntity
  8
0
100
AcDbCircle
 10
138.6400970386637
 20
81.92155619458828
 30
0.0
 40
2.5
  0
CIRCLE
  5
1ECD
330
2
100
AcDbEntity
  8
0
100
AcDbCircle
 10
138.6400970386637
 20
81.92155619458828
 30
0.0
 40
1.6
  0
CIRCLE
  5
1ECE
330
2
100
AcDbEntity
  8
0
100
AcDbCircle
 10
138.6400970386637
 20
81.92155619458828
 30
0.0
 40
3.0
  0
LINE
  5
1ECF
330
2
100
AcDbEntity
  8
0
100
AcDbLine
 10
134.1400970386632
 20
83.92155619458828
 30
0.0
 11
134.1400970386632
 21
79.42155619458645
 31
0.0
  0
ARC
  5
1ED0
330
2
100
AcDbEntity
  8
0
100
AcDbCircle
 10
127.1400970386632
 20
83.92155619458828
 30
0.0
 40
7.0
100
AcDbArc
 50
0.0
 51
90.0
  0
LINE
  5
1ED1
330
2
100
AcDbEntity
  8
0
100
AcDbLine
 10
126.6400970386632
 20
77.42155619458646
 30
0.0
 11
149.6400970386641
 21
77.42155619458464
 31
0.0
  0
ARC
  5
1ED2
330
2
100
AcDbEntity
  8
0
100
AcDbCircle
 10
149.6400970386641
 20
73.42155619458464
 30
0.0
 40
4.0
100
AcDbArc
 50
0.0
 51
90.0
  0
ARC
  5
1ED3
330
2
100
AcDbEntity
  8
0
100
AcDbCircle
 10
136.1400970386632
 20
79.42155619458645
 30
0.0
 40
2.0
100
AcDbArc
 50
180.0
 51
270.0
  0
LINE
  5
1ED4
330
2
100
AcDbEntity
  8
0
100
AcDbLine
 10
129.6400970386632
 20
85.36493186756235
 30
0.0
 11
129.6400970386632
 21
82.4781805216142
 31
0.0
  0
LINE
  5
1ED5
330
2
100
AcDbEntity
  8
0
100
AcDbLine
 10
127.1400970386632
 20
81.03480484864013
 30
0.0
 11
129.6400970386632
 21
82.4781805216142
 31
0.0
  0
LINE
  5
1ED6
330
2
100
AcDbEntity
  8
0
100
AcDbLine
 10
129.6400970386632
 20
85.36493186756052
 30
0.0
 11
127.1400970386632
 21
86.80830754053642
 31
0.0
  0
LINE
  5
1ED7
330
2
100
AcDbEntity
  8
0
100
AcDbLine
 10
124.6400970386632
 20
85.36493186756052
 30
0.0
 11
124.6400970386632
 21
82.4781805216142
 31
0.0
  0
LINE
  5
1ED8
330
2
100
AcDbEntity
  8
0
100
AcDbLine
 10
127.1400970386632
 20
81.03480484864013
 30
0.0
 11
124.6400970386632
 21
82.4781805216142
 31
0.0
  0
LINE
  5
1ED9
330
2
100
AcDbEntity
  8
0
100
AcDbLine
 10
124.6400970386632
 20
85.36493186756052
 30
0.0
 11
127.1400970386632
 21
86.80830754053459
 31
0.0
  0
LINE
  5
1EDA
330
2
100
AcDbEntity
  8
0
100
AcDbLine
 10
127.1400970386632
 20
90.92155619458827
 30
0.0
 11
122.6400970386641
 21
90.92155619458827
 31
0.0
  0
CIRCLE
  5
1EDB
330
2
100
AcDbEntity
  8
0
100
AcDbCircle
 10
127.1400970386632
 20
83.92155619458828
 30
0.0
 40
4.307179676972509
  0
LINE
  5
1EDC
330
2
100
AcDbEntity
  8
0
100
AcDbLine
 10
213.6400970386651
 20
78.42155619459373
 30
0.0
 11
175.6400970386691
 21
78.4215561945901
 31
0.0
  0
LINE
  5
1EDD
330
2
100
AcDbEntity
  8
0
100
AcDbLine
 10
213.6400970386651
 20
77.42155619459373
 30
0.0
 11
175.6400970386691
 21
77.42155619459009
 31
0.0
  0
ARC
  5
1EDE
330
2
100
AcDbEntity
  8
0
100
AcDbCircle
 10
194.6400970386641
 20
238.4215561945901
 30
0.0
 40
170.0
100
AcDbArc
 50
263.9172655502523
 51
276.1769964048909
  0
ARC
  5
1EDF
330
2
100
AcDbEntity
  8
0
100
AcDbCircle
 10
175.6400970386678
 20
90.42155619459009
 30
0.0
 40
12.0
100
AcDbArc
 50
180.0
 51
270.0
  0
ARC
  5
1EE0
330
2
100
AcDbEntity
  8
0
100
AcDbCircle
 10
175.6400970386678
 20
90.42155619459009
 30
0.0
 40
13.0
100
AcDbArc
 50
180.0
 51
270.0
  0
ARC
  5
1EE1
330
2
100
AcDbEntity
  8
0
100
AcDbCircle
 10
172.3875663135093
 20
29.6038728525753
 30
0.0
 40
40.0
100
AcDbArc
 50
83.91726555025231
 51
103.1629662673646
  0
LINE
  5
1EE2
330
2
100
AcDbEntity
  8
0
100
AcDbLine
 10
162.1400970386641
 20
68.4215561945901
 30
0.0
 11
158.6400970386641
 21
68.4215561945901
 31
0.0
  0
ARC
  5
1EE3
330
2
100
AcDbEntity
  8
0
100
AcDbCircle
 10
162.1400970386641
 20
73.4215561945901
 30
0.0
 40
5.0
100
AcDbArc
 50
270.0
 51
283.1629662673646
  0
LINE
  5
1EE4
330
2
100
AcDbEntity
  8
0
100
AcDbLine
 10
167.1548156644296
 20
81.9362748203501
 30
0.0
 11
166.4477088832434
 21
81.22916803916343
 31
0.0
  0
ARC
  5
1EE5
330
2
100
AcDbEntity
  8
0
100
AcDbCircle
 10
220.1400970386637
 20
71.54025218615863
 30
0.0
 40
2.0
100
AcDbArc
 50
266.0353021397911
 51
0.0
  0
LINE
  5
1EE6
330
2
100
AcDbEntity
  8
0
100
AcDbLine
 10
222.1400970386637
 20
74.92155619459009
 30
0.0
 11
222.1400970386637
 21
71.54025218615863
 31
0.0
  0
LINE
  5
1EE7
330
2
100
AcDbEntity
  8
0
100
AcDbLine
 10
222.8324851940899
 20
81.22916803916888
 30
0.0
 11
222.1253784129032
 21
81.93627482035555
 31
0.0
  0
ARC
  5
1EE8
330
2
100
AcDbEntity
  8
0
100
AcDbCircle
 10
158.6400970386641
 20
145.42155619459
 30
0.0
 40
5.0
100
AcDbArc
 50
90.0
 51
180.0
  0
ARC
  5
1EE9
330
2
100
AcDbEntity
  8
0
100
AcDbCircle
 10
149.6400970386641
 20
145.4215561945955
 30
0.0
 40
4.0
100
AcDbArc
 50
270.0
 51
0.0
  0
ARC
  5
1EEA
330
2
100
AcDbEntity
  8
0
100
AcDbCircle
 10
122.6400970386641
 20
125.9215561945919
 30
0.0
 40
2.0
100
AcDbArc
 50
90.0
 51
180.0
  0
LINE
  5
1EEB
330
2
100
AcDbEntity
  8
CENTER
100
AcDbLine
 10
118.3900970386632
 20
134.9215561945919
 30
0.0
 11
135.8900970386632
 21
134.9215561945919
 31
0.0
  0
ARC
  5
1EEC
330
2
100
AcDbEntity
  8
0
100
AcDbCircle
 10
126.6400970386641
 20
135.4215561945919
 30
0.0
 40
6.0
100
AcDbArc
 50
90.0
 51
180.0
  0
CIRCLE
  5
1EED
330
2
100
AcDbEntity
  8
0
100
AcDbCircle
 10
127.1400970386632
 20
134.9215561945919
 30
0.0
 40
5.000000000000113
  0
ARC
  5
1EEE
330
2
100
AcDbEntity
  8
0
100
AcDbCircle
 10
93.64009703866418
 20
138.42155619459
 30
0.0
 40
2.0
100
AcDbArc
 50
0.0
 51
89.99999999994789
  0
ARC
  5
1EEF
330
2
100
AcDbEntity
  8
0
100
AcDbCircle
 10
118.6400970386541
 20
134.4215561945991
 30
0.0
 40
2.0
100
AcDbArc
 50
270.0
 51
0.0
  0
LINE
  5
1EF0
330
2
100
AcDbEntity
  8
0
100
AcDbLine
 10
117.6400970386541
 20
111.9215561945992
 30
0.0
 11
110.1270040759375
 21
111.9215561945992
 31
0.0
  0
ARC
  5
1EF1
330
2
100
AcDbEntity
  8
0
100
AcDbCircle
 10
108.1270040759375
 20
134.4215561945991
 30
0.0
 40
2.0
100
AcDbArc
 50
216.8698976458538
 51
270.0
  0
LINE
  5
1EF2
330
2
100
AcDbEntity
  8
0
100
AcDbLine
 10
118.6924582434669
 20
132.4215561945991
 30
0.0
 11
108.1270040759375
 21
132.4215561945991
 31
0.0
  0
LINE
  5
1EF3
330
2
100
AcDbEntity
  8
0
100
AcDbLine
 10
104.1270040759375
 20
134.4215561945991
 30
0.0
 11
100.6222170605476
 21
134.4215561945991
 31
0.0
  0
ARC
  5
1EF4
330
2
100
AcDbEntity
  8
0
100
AcDbCircle
 10
104.1270040759375
 20
131.4215561945973
 30
0.0
 40
3.0
100
AcDbArc
 50
0.0
 51
90.0
  0
ARC
  5
1EF5
330
2
100
AcDbEntity
  8
0
100
AcDbCircle
 10
117.6400970386541
 20
114.9215561945991
 30
0.0
 40
3.0
100
AcDbArc
 50
270.0
 51
0.0
  0
ARC
  5
1EF6
330
2
100
AcDbEntity
  8
0
100
AcDbCircle
 10
110.1270040759375
 20
114.9215561945991
 30
0.0
 40
3.0
100
AcDbArc
 50
180.0
 51
270.0
  0
ARC
  5
1EF7
330
2
100
AcDbEntity
  8
0
100
AcDbCircle
 10
115.6400970386637
 20
133.421556194581
 30
0.0
 40
5.0
100
AcDbArc
 50
270.0
 51
0.0
  0
ARC
  5
1EF8
330
2
100
AcDbEntity
  8
0
100
AcDbCircle
 10
111.8729707683526
 20
133.421556194581
 30
0.0
 40
5.0
100
AcDbArc
 50
194.4775121859302
 51
270.0
  0
LINE
  5
1EF9
330
2
100
AcDbEntity
  8
0
100
AcDbLine
 10
115.6400970386637
 20
128.4215561945809
 30
0.0
 11
111.8729707683526
 21
128.4215561945809
 31
0.0
  0
ARC
  5
1EFA
330
2
100
AcDbEntity
  8
0
100
AcDbCircle
 10
93.64009703866418
 20
138.9215561945901
 30
0.0
 40
2.0
100
AcDbArc
 50
0.0
 51
89.99999999994789
  0
ARC
  5
1EFB
330
2
100
AcDbEntity
  8
0
100
AcDbCircle
 10
100.6222170605476
 20
139.4215561945991
 30
0.0
 40
5.0
100
AcDbArc
 50
184.0960437581971
 51
270.0
  0
LINE
  5
1EFC
330
2
100
AcDbEntity
  8
0
100
AcDbLine
 10
117.6400970386541
 20
106.9215561945991
 30
0.0
 11
110.1270040759375
 21
106.9215561945991
 31
0.0
  0
ARC
  5
1EFD
330
2
100
AcDbEntity
  8
0
100
AcDbCircle
 10
117.6400970386541
 20
103.9215561945991
 30
0.0
 40
3.0
100
AcDbArc
 50
0.0
 51
90.0
  0
ARC
  5
1EFE
330
2
100
AcDbEntity
  8
0
100
AcDbCircle
 10
110.1270040759375
 20
103.9215561945991
 30
0.0
 40
3.0
100
AcDbArc
 50
90.0
 51
180.0
  0
LINE
  5
1EFF
330
2
100
AcDbEntity
  8
CENTER
100
AcDbLine
 10
127.1400970386632
 20
143.6715561945919
 30
0.0
 11
127.1400970386632
 21
126.1715561945919
 31
0.0
  0
LINE
  5
1F00
330
2
100
AcDbEntity
  8
CENTER
100
AcDbLine
 10
133.4668919579069
 20
136.9215561945919
 30
0.0
 11
143.813302119421
 21
136.9215561945919
 31
0.0
  0
LINE
  5
1F01
330
2
100
AcDbEntity
  8
CENTER
100
AcDbLine
 10
138.6400970386637
 20
142.0947612753487
 30
0.0
 11
138.6400970386637
 21
131.748351113835
 31
0.0
  0
CIRCLE
  5
1F02
330
2
100
AcDbEntity
  8
HOJO
100
AcDbCircle
 10
138.6400970386637
 20
136.9215561945919
 30
0.0
 40
2.0
  0
ARC
  5
1F03
330
2
100
AcDbEntity
  8
0
100
AcDbCircle
 10
127.1400970386632
 20
134.9215561945919
 30
0.0
 40
7.0
100
AcDbArc
 50
270.0
 51
0.0
  0
LINE
  5
1F04
330
2
100
AcDbEntity
  8
0
100
AcDbLine
 10
126.6400970386632
 20
141.4215561945919
 30
0.0
 11
149.6400970386641
 21
141.4215561945955
 31
0.0
  0
CIRCLE
  5
1F05
330
2
100
AcDbEntity
  8
0
100
AcDbCircle
 10
138.6400970386637
 20
136.9215561945919
 30
0.0
 40
3.0
  0
CIRCLE
  5
1F06
330
2
100
AcDbEntity
  8
0
100
AcDbCircle
 10
138.6400970386637
 20
136.9215561945919
 30
0.0
 40
1.6
  0
CIRCLE
  5
1F07
330
2
100
AcDbEntity
  8
0
100
AcDbCircle
 10
138.6400970386637
 20
136.9215561945919
 30
0.0
 40
2.5
  0
LINE
  5
1F08
330
2
100
AcDbEntity
  8
0
100
AcDbLine
 10
134.1400970386632
 20
134.9215561945919
 30
0.0
 11
134.1400970386632
 21
139.4215561945937
 31
0.0
  0
ARC
  5
1F09
330
2
100
AcDbEntity
  8
0
100
AcDbCircle
 10
136.1400970386632
 20
139.4215561945937
 30
0.0
 40
2.0
100
AcDbArc
 50
90.0
 51
180.0
  0
LINE
  5
1F0A
330
2
100
AcDbEntity
  8
0
100
AcDbLine
 10
129.6400970386632
 20
136.3649318675659
 30
0.0
 11
129.6400970386632
 21
133.4781805216178
 31
0.0
  0
LINE
  5
1F0B
330
2
100
AcDbEntity
  8
0
100
AcDbLine
 10
127.1400970386632
 20
132.0348048486437
 30
0.0
 11
129.6400970386632
 21
133.4781805216178
 31
0.0
  0
LINE
  5
1F0C
330
2
100
AcDbEntity
  8
0
100
AcDbLine
 10
129.6400970386632
 20
136.3649318675659
 30
0.0
 11
127.1400970386632
 21
137.80830754054
 31
0.0
  0
LINE
  5
1F0D
330
2
100
AcDbEntity
  8
0
100
AcDbLine
 10
124.6400970386632
 20
136.3649318675659
 30
0.0
 11
124.6400970386632
 21
133.4781805216178
 31
0.0
  0
LINE
  5
1F0E
330
2
100
AcDbEntity
  8
0
100
AcDbLine
 10
127.1400970386632
 20
132.0348048486437
 30
0.0
 11
124.6400970386632
 21
133.4781805216178
 31
0.0
  0
LINE
  5
1F0F
330
2
100
AcDbEntity
  8
0
100
AcDbLine
 10
124.6400970386632
 20
136.3649318675659
 30
0.0
 11
127.1400970386632
 21
137.80830754054
 31
0.0
  0
LINE
  5
1F10
330
2
100
AcDbEntity
  8
0
100
AcDbLine
 10
127.1400970386632
 20
127.9215561945919
 30
0.0
 11
122.6400970386641
 21
127.9215561945919
 31
0.0
  0
CIRCLE
  5
1F11
330
2
100
AcDbEntity
  8
0
100
AcDbCircle
 10
127.1400970386632
 20
134.9215561945919
 30
0.0
 40
4.307179676972509
  0
LINE
  5
1F12
330
2
100
AcDbEntity
  8
0
100
AcDbLine
 10
222.1400970386637
 20
143.9215561945901
 30
0.0
 11
222.1400970386637
 21
147.3028602030215
 31
0.0
  0
LINE
  5
1F13
330
2
100
AcDbEntity
  8
0
100
AcDbLine
 10
213.6400970386651
 20
140.4215561945864
 30
0.0
 11
175.6400970386651
 21
140.42155619459
 31
0.0
  0
LINE
  5
1F14
330
2
100
AcDbEntity
  8
0
100
AcDbLine
 10
213.6400970386651
 20
141.4215561945864
 30
0.0
 11
175.6400970386651
 21
141.42155619459
 31
0.0
  0
ARC
  5
1F15
330
2
100
AcDbEntity
  8
0
100
AcDbCircle
 10
175.6400970386641
 20
128.4215561945864
 30
0.0
 40
12.0
100
AcDbArc
 50
90.0
 51
180.0
  0
ARC
  5
1F16
330
2
100
AcDbEntity
  8
0
100
AcDbCircle
 10
175.6400970386641
 20
128.4215561945864
 30
0.0
 40
13.0
100
AcDbArc
 50
90.0
 51
180.0
  0
LINE
  5
1F17
330
2
100
AcDbEntity
  8
0
100
AcDbLine
 10
167.154815664425
 20
136.9068375688246
 30
0.0
 11
166.4477088832384
 21
137.6139443500113
 31
0.0
  0
LINE
  5
1F18
330
2
100
AcDbEntity
  8
0
100
AcDbLine
 10
222.8324851940844
 20
137.6139443500149
 30
0.0
 11
222.1253784128982
 21
136.9068375688282
 31
0.0
  0
ARC
  5
1F19
330
2
100
AcDbEntity
  8
0
100
AcDbCircle
 10
194.6400970386641
 20
-19.5784438054099
 30
0.0
 40
170.0
100
AcDbArc
 50
83.82300359510905
 51
96.17699640489092
  0
ARC
  5
1F1A
330
2
100
AcDbEntity
  8
0
100
AcDbCircle
 10
172.0440535984746
 20
189.2023475065514
 30
0.0
 40
40.0
100
AcDbArc
 50
256.6323257973709
 51
276.1769964048909
  0
LINE
  5
1F1B
330
2
100
AcDbEntity
  8
0
100
AcDbLine
 10
161.6400970386641
 20
150.42155619459
 30
0.0
 11
158.6400970386641
 21
150.42155619459
 31
0.0
  0
ARC
  5
1F1C
330
2
100
AcDbEntity
  8
0
100
AcDbCircle
 10
161.6400970386641
 20
145.42155619459
 30
0.0
 40
5.0
100
AcDbArc
 50
76.63232579737094
 51
90.0
  0
ARC
  5
1F1D
330
2
100
AcDbEntity
  8
0
100
AcDbCircle
 10
220.1400970386637
 20
147.3028602030215
 30
0.0
 40
2.0
100
AcDbArc
 50
0.0
 51
93.96469786020889
  0
LINE
  5
1F28
330
2
100
AcDbEntity
  8
0
100
AcDbLine
 10
321.2808511358937
 20
150.4244650848391
 30
0.0
 11
379.2808511358941
 21
149.9183067529753
 31
0.0
  0
LINE
  5
1F29
330
2
100
AcDbEntity
  8
0
100
AcDbLine
 10
321.2808511358941
 20
68.42155619458896
 30
0.0
 11
379.2808511358946
 21
68.92771452645281
 31
0.0
  0
LINE
  5
1F2A
330
2
100
AcDbEntity
  8
0
100
AcDbLine
 10
321.2808511358941
 20
73.42155619458714
 30
0.0
 11
378.2808511358946
 21
73.42155619458714
 31
0.0
  0
LINE
  5
1F2B
330
2
100
AcDbEntity
  8
0
100
AcDbLine
 10
321.2808511358941
 20
76.42155619458714
 30
0.0
 11
378.2808511358946
 21
76.42155619458714
 31
0.0
  0
LINE
  5
1F2C
330
2
100
AcDbEntity
  8
0
100
AcDbLine
 10
321.2808511358941
 20
91.12952102871856
 30
0.0
 11
378.2808511358946
 21
91.12952102871856
 31
0.0
  0
LINE
  5
1F2D
330
2
100
AcDbEntity
  8
0
100
AcDbLine
 10
321.2808511358946
 20
145.4215561945889
 30
0.0
 11
378.2808511358946
 21
145.4215561945889
 31
0.0
  0
LINE
  5
1F2E
330
2
100
AcDbEntity
  8
0
100
AcDbLine
 10
321.2808511358946
 20
142.4215561945889
 30
0.0
 11
378.2808511358946
 21
142.4215561945889
 31
0.0
  0
LINE
  5
1F2F
330
2
100
AcDbEntity
  8
0
100
AcDbLine
 10
321.2808511358946
 20
127.7135913604575
 30
0.0
 11
378.2808511358946
 21
127.7135913604575
 31
0.0
  0
LINE
  5
1F30
330
2
100
AcDbEntity
  8
CENTER
100
AcDbLine
 10
289.2808511358905
 20
109.4215561945894
 30
0.0
 11
439.2808511358946
 21
109.4215561945864
 31
0.0
  0
LINE
  5
1F32
330
2
100
AcDbEntity
  8
0
100
AcDbLine
 10
301.7808511358946
 20
83.12155619458787
 30
0.0
 11
301.7808511358946
 21
135.7215561945882
 31
0.0
  0
LINE
  5
1F33
330
2
100
AcDbEntity
  8
0
100
AcDbLine
 10
307.2808511358928
 20
137.9215561945889
 30
0.0
 11
307.2808511358928
 21
80.92155619459077
 31
0.0
  0
LINE
  5
1F34
330
2
100
AcDbEntity
  8
0
100
AcDbLine
 10
308.7808511358896
 20
79.92155619458896
 30
0.0
 11
308.7808511358896
 21
138.9215561945889
 31
0.0
  0
LINE
  5
1F35
330
2
100
AcDbEntity
  8
0
100
AcDbLine
 10
307.7808511358878
 20
79.92155619458896
 30
0.0
 11
307.7808511358878
 21
138.9215561945889
 31
0.0
  0
LINE
  5
1F36
330
2
100
AcDbEntity
  8
0
100
AcDbLine
 10
299.280851135891
 20
83.49890646377895
 30
0.0
 11
299.2808511358901
 21
135.3442059253971
 31
0.0
  0
LINE
  5
1F37
330
2
100
AcDbEntity
  8
0
100
AcDbLine
 10
303.7808511358928
 20
135.7215561945882
 30
0.0
 11
303.7808511358532
 21
83.1215561946297
 31
0.0
  0
LINE
  5
1F38
330
2
100
AcDbEntity
  8
0
100
AcDbLine
 10
300.2808511358946
 20
82.92155619458714
 30
0.0
 11
300.2808511358928
 21
135.9215561945889
 31
0.0
  0
LINE
  5
1F39
330
2
100
AcDbEntity
  8
0
100
AcDbLine
 10
303.9808511358926
 20
135.9215561945889
 30
0.0
 11
303.9808511358944
 21
82.92155619458714
 31
0.0
  0
LINE
  5
1F3A
330
2
100
AcDbEntity
  8
0
100
AcDbLine
 10
321.2808511358919
 20
150.4215561945889
 30
0.0
 11
321.2808511358969
 21
68.42155619458896
 31
0.0
  0
ARC
  5
1F3B
330
2
100
AcDbEntity
  8
0
100
AcDbCircle
 10
65.64009703866372
 20
109.4215561945901
 30
0.0
 40
170.0
100
AcDbArc
 50
353.823003595109
 51
6.176996404890939
  0
LINE
  5
1F3C
330
2
100
AcDbEntity
  8
0
100
AcDbLine
 10
225.6400970386641
 20
90.42155619459373
 30
0.0
 11
225.6400970386641
 21
128.4215561945901
 31
0.0
  0
LINE
  5
1F3D
330
2
100
AcDbEntity
  8
0
100
AcDbLine
 10
226.6400970386641
 20
90.42155619459373
 30
0.0
 11
226.6400970386641
 21
128.4215561945901
 31
0.0
  0
CIRCLE
  5
1F3E
330
2
100
AcDbEntity
  8
HOJO
100
AcDbCircle
 10
229.6400970386632
 20
86.42155619459009
 30
0.0
 40
2.0
  0
ARC
  5
1F3F
330
2
100
AcDbEntity
  8
0
100
AcDbCircle
 10
232.5214010470951
 20
83.92155619459009
 30
0.0
 40
2.0
100
AcDbArc
 50
270.0
 51
3.964697860208891
  0
ARC
  5
1F40
330
2
100
AcDbEntity
  8
0
100
AcDbCircle
 10
274.4208883506255
 20
86.82551275440056
 30
0.0
 40
40.0
100
AcDbArc
 50
173.823003595109
 51
193.367674202629
  0
ARC
  5
1F41
330
2
100
AcDbEntity
  8
0
100
AcDbCircle
 10
230.6400970386637
 20
73.4215561945901
 30
0.0
 40
5.0
100
AcDbArc
 50
270.0
 51
0.0
  0
ARC
  5
1F42
330
2
100
AcDbEntity
  8
0
100
AcDbCircle
 10
230.6400970386637
 20
76.4215561945901
 30
0.0
 40
5.0
100
AcDbArc
 50
0.0
 51
13.36767420262906
  0
LINE
  5
1F43
330
2
100
AcDbEntity
  8
0
100
AcDbLine
 10
235.6400970386641
 20
73.4215561945901
 30
0.0
 11
235.6400970386641
 21
76.4215561945901
 31
0.0
  0
CIRCLE
  5
1F44
330
2
100
AcDbEntity
  8
0
100
AcDbCircle
 10
229.6400970386632
 20
86.42155619459009
 30
0.0
 40
3.0
  0
CIRCLE
  5
1F45
330
2
100
AcDbEntity
  8
0
100
AcDbCircle
 10
229.6400970386632
 20
86.42155619459009
 30
0.0
 40
1.6
  0
CIRCLE
  5
1F46
330
2
100
AcDbEntity
  8
0
100
AcDbCircle
 10
229.6400970386632
 20
86.42155619459009
 30
0.0
 40
2.5
  0
LINE
  5
1F47
330
2
100
AcDbEntity
  8
0
100
AcDbLine
 10
229.1400970386637
 20
81.92155619459009
 30
0.0
 11
232.5214010470951
 21
81.92155619459009
 31
0.0
  0
ARC
  5
1F48
330
2
100
AcDbEntity
  8
0
100
AcDbCircle
 10
227.6400970386637
 20
73.4215561945901
 30
0.0
 40
5.0
100
AcDbArc
 50
256.6323257973709
 51
270.0
  0
LINE
  5
1F49
330
2
100
AcDbEntity
  8
0
100
AcDbLine
 10
230.6400970386637
 20
68.4215561945901
 30
0.0
 11
227.6400970386637
 21
68.4215561945901
 31
0.0
  0
LINE
  5
1F4A
330
2
100
AcDbEntity
  8
0
100
AcDbLine
 10
231.6400970386705
 20
76.36493186756417
 30
0.0
 11
231.6400970386705
 21
73.47818052161603
 31
0.0
  0
LINE
  5
1F4B
330
2
100
AcDbEntity
  8
0
100
AcDbLine
 10
229.1400970386701
 20
72.03480484864195
 30
0.0
 11
231.6400970386705
 21
73.47818052161603
 31
0.0
  0
LINE
  5
1F4C
330
2
100
AcDbEntity
  8
0
100
AcDbLine
 10
231.6400970386705
 20
76.36493186756417
 30
0.0
 11
229.1400970386705
 21
77.80830754053823
 31
0.0
  0
LINE
  5
1F4D
330
2
100
AcDbEntity
  8
0
100
AcDbLine
 10
226.6400970386705
 20
76.36493186756417
 30
0.0
 11
226.6400970386705
 21
73.47818052161603
 31
0.0
  0
LINE
  5
1F4E
330
2
100
AcDbEntity
  8
0
100
AcDbLine
 10
229.1400970386701
 20
72.03480484864195
 30
0.0
 11
226.6400970386705
 21
73.47818052161603
 31
0.0
  0
LINE
  5
1F4F
330
2
100
AcDbEntity
  8
0
100
AcDbLine
 10
226.6400970386705
 20
76.36493186756417
 30
0.0
 11
229.1400970386705
 21
77.80830754053823
 31
0.0
  0
LINE
  5
1F50
330
2
100
AcDbEntity
  8
CENTER
100
AcDbLine
 10
229.6400970386632
 20
90.71516435889936
 30
0.0
 11
229.6400970386632
 21
82.12794803027902
 31
0.0
  0
LINE
  5
1F51
330
2
100
AcDbEntity
  8
CENTER
100
AcDbLine
 10
229.1400970386719
 20
66.17155619459555
 30
0.0
 11
229.1400970386687
 21
83.67155619459555
 31
0.0
  0
LINE
  5
1F52
330
2
100
AcDbEntity
  8
0
100
AcDbLine
 10
321.2808511358969
 20
68.42155619458896
 30
0.0
 11
309.7721246003914
 21
68.52199132950369
 31
0.0
  0
LINE
  5
1F53
330
2
100
AcDbEntity
  8
0
100
AcDbLine
 10
321.2808511358955
 20
91.12952102872037
 30
0.0
 11
309.7808511358901
 21
91.12952102872037
 31
0.0
  0
LINE
  5
1F54
330
2
100
AcDbEntity
  8
0
100
AcDbLine
 10
309.7721246003909
 20
81.95653982107392
 30
0.0
 11
313.2852144036376
 21
81.92588155082336
 31
0.0
  0
LINE
  5
1F55
330
2
100
AcDbEntity
  8
0
100
AcDbLine
 10
313.7808511358882
 20
79.92155619458896
 30
0.0
 11
306.6808511358883
 21
79.92155619458896
 31
0.0
  0
LINE
  5
1F56
330
2
100
AcDbEntity
  8
0
100
AcDbLine
 10
313.7808511358882
 20
69.92155619458896
 30
0.0
 11
306.6808511358883
 21
69.92155619458896
 31
0.0
  0
LINE
  5
1F57
330
2
100
AcDbEntity
  8
CENTER
100
AcDbLine
 10
301.7021832257921
 20
74.92155619458896
 30
0.0
 11
326.2650369021737
 21
74.92155619458896
 31
0.0
  0
LINE
  5
1F58
330
2
100
AcDbEntity
  8
HIDS
100
AcDbLine
 10
308.4879579170758
 20
77.71444941340047
 30
0.0
 11
308.0737443547034
 21
78.12866297577198
 31
0.0
  0
LINE
  5
1F59
330
2
100
AcDbEntity
  8
0
100
AcDbLine
 10
307.2808511358928
 20
80.92155619459077
 30
0.0
 11
307.7808511358955
 21
80.42155619458895
 31
0.0
  0
LINE
  5
1F5A
330
2
100
AcDbEntity
  8
0
100
AcDbLine
 10
308.7808511358896
 20
69.52195325256758
 30
0.0
 11
308.7808511358896
 21
69.92155619458896
 31
0.0
  0
LINE
  5
1F5B
330
2
100
AcDbEntity
  8
HIDS
100
AcDbLine
 10
308.7808511358892
 20
69.92155619458896
 30
0.0
 11
308.7808511358896
 21
79.92155619458896
 31
0.0
  0
ARC
  5
1F5C
330
2
100
AcDbEntity
  8
0
100
AcDbCircle
 10
309.7808511358896
 20
69.52195325256758
 30
0.0
 40
1.0
100
AcDbArc
 50
180.0
 51
269.5000000000345
  0
LINE
  5
1F5D
330
2
100
AcDbEntity
  8
HIDS
100
AcDbLine
 10
307.7808511358878
 20
78.83576975695866
 30
0.0
 11
307.7808511358882
 21
79.92155619458896
 31
0.0
  0
ARC
  5
1F5E
330
2
100
AcDbEntity
  8
HIDS
100
AcDbCircle
 10
308.78085113589
 20
78.83576975695866
 30
0.0
 40
1.0
100
AcDbArc
 50
180.0
 51
224.9999999999908
  0
ARC
  5
1F5F
330
2
100
AcDbEntity
  8
HIDS
100
AcDbCircle
 10
307.7808511358901
 20
77.00734263221381
 30
0.0
 40
1.0
100
AcDbArc
 50
0.0
 51
44.99999999999078
  0
ARC
  5
1F60
330
2
100
AcDbEntity
  8
0
100
AcDbCircle
 10
309.7808511358891
 20
82.95650174414147
 30
0.0
 40
1.0
100
AcDbArc
 50
180.0
 51
269.5000000000345
  0
LINE
  5
1F61
330
2
100
AcDbEntity
  8
0
100
AcDbLine
 10
306.6808511358883
 20
79.92155619458896
 30
0.0
 11
306.2808511358882
 21
79.22873587156169
 31
0.0
  0
LINE
  5
1F62
330
2
100
AcDbEntity
  8
0
100
AcDbLine
 10
306.6808511358883
 20
79.92155619458896
 30
0.0
 11
306.6808511358883
 21
69.92155619458896
 31
0.0
  0
LINE
  5
1F63
330
2
100
AcDbEntity
  8
0
100
AcDbLine
 10
306.6808511358883
 20
69.92155619458896
 30
0.0
 11
306.2808511358882
 21
70.61437651761622
 31
0.0
  0
LINE
  5
1F64
330
2
100
AcDbEntity
  8
0
100
AcDbLine
 10
306.2808511358882
 20
79.22873587156169
 30
0.0
 11
306.2808511358882
 21
70.61437651761622
 31
0.0
  0
LINE
  5
1F65
330
2
100
AcDbEntity
  8
0
100
AcDbLine
 10
306.6808511358924
 20
82.92155619458805
 30
0.0
 11
306.6808511358883
 21
79.92155619458896
 31
0.0
  0
LINE
  5
1F66
330
2
100
AcDbEntity
  8
0
100
AcDbLine
 10
306.3921760012942
 20
79.42155619459078
 30
0.0
 11
306.2808511358923
 21
79.61437651761349
 31
0.0
  0
LINE
  5
1F67
330
2
100
AcDbEntity
  8
0
100
AcDbLine
 10
306.2808511358928
 20
82.92155619458805
 30
0.0
 11
306.2808511358923
 21
79.61437651761349
 31
0.0
  0
LINE
  5
1F68
330
2
100
AcDbEntity
  8
0
100
AcDbLine
 10
300.2808511358946
 20
82.92155619458714
 30
0.0
 11
299.2808511358946
 21
83.49890646377714
 31
0.0
  0
LINE
  5
1F69
330
2
100
AcDbEntity
  8
0
100
AcDbLine
 10
301.9808511358944
 20
83.62155619458787
 30
0.0
 11
303.5808511358948
 21
83.62155619458787
 31
0.0
  0
LINE
  5
1F6A
330
2
100
AcDbEntity
  8
0
100
AcDbLine
 10
303.7808511358946
 20
83.12155619458787
 30
0.0
 11
303.9808511358944
 21
82.92155619458714
 31
0.0
  0
LINE
  5
1F6B
330
2
100
AcDbEntity
  8
0
100
AcDbLine
 10
300.2808511358946
 20
82.92155619458714
 30
0.0
 11
301.5808511358948
 21
82.92155619458714
 31
0.0
  0
ARC
  5
1F6C
330
2
100
AcDbEntity
  8
0
100
AcDbCircle
 10
301.5808511358948
 20
83.12155619458787
 30
0.0
 40
0.2
100
AcDbArc
 50
270.0
 51
0.0
  0
ARC
  5
1F6D
330
2
100
AcDbEntity
  8
0
100
AcDbCircle
 10
301.9808511358944
 20
83.42155619458713
 30
0.0
 40
0.2
100
AcDbArc
 50
90.0
 51
180.0
  0
ARC
  5
1F6E
330
2
100
AcDbEntity
  8
0
100
AcDbCircle
 10
303.5808511358948
 20
83.42155619458713
 30
0.0
 40
0.2
100
AcDbArc
 50
0.0
 51
90.0
  0
LINE
  5
1F6F
330
2
100
AcDbEntity
  8
0
100
AcDbLine
 10
303.9808511358944
 20
82.92155619458714
 30
0.0
 11
307.2808511358946
 21
82.92155619458895
 31
0.0
  0
LINE
  5
1F70
330
2
100
AcDbEntity
  8
0
100
AcDbLine
 10
321.2808511358964
 20
73.42155619458896
 30
0.0
 11
314.77212460039
 21
73.42155619458896
 31
0.0
  0
LINE
  5
1F71
330
2
100
AcDbEntity
  8
0
100
AcDbLine
 10
321.2808511358964
 20
76.42155619458896
 30
0.0
 11
314.77212460039
 21
76.42155619458896
 31
0.0
  0
LINE
  5
1F72
330
2
100
AcDbEntity
  8
0
100
AcDbLine
 10
313.7808511358882
 20
81.4259005892905
 30
0.0
 11
313.7808511358882
 21
69.47831891361381
 31
0.0
  0
ARC
  5
1F73
330
2
100
AcDbEntity
  8
0
100
AcDbCircle
 10
313.2808511358887
 20
81.42590058929233
 30
0.0
 40
0.5
100
AcDbArc
 50
0.0
 51
89.5000000000345
  0
ARC
  5
1F74
330
2
100
AcDbEntity
  8
0
100
AcDbCircle
 10
314.7808511358882
 20
69.47831891361381
 30
0.0
 40
1.0
100
AcDbArc
 50
180.0
 51
269.5000000000345
  0
LINE
  5
1F75
330
2
100
AcDbEntity
  8
0
100
AcDbLine
 10
312.2808511358882
 20
79.92155619458896
 30
0.0
 11
312.2808511358882
 21
69.92155619458896
 31
0.0
  0
LINE
  5
1F76
330
2
100
AcDbEntity
  8
0
100
AcDbLine
 10
235.6400970386641
 20
142.42155619459
 30
0.0
 11
235.6400970386641
 21
145.42155619459
 31
0.0
  0
LINE
  5
1F77
330
2
100
AcDbEntity
  8
0
100
AcDbLine
 10
231.6400970386705
 20
145.3649318675641
 30
0.0
 11
231.6400970386705
 21
142.478180521616
 31
0.0
  0
LINE
  5
1F78
330
2
100
AcDbEntity
  8
0
100
AcDbLine
 10
226.6400970386705
 20
145.3649318675641
 30
0.0
 11
226.6400970386705
 21
142.478180521616
 31
0.0
  0
LINE
  5
1F79
330
2
100
AcDbEntity
  8
CENTER
100
AcDbLine
 10
229.1400970386719
 20
152.6715561945828
 30
0.0
 11
229.1400970386687
 21
135.1715561945828
 31
0.0
  0
CIRCLE
  5
1F7A
330
2
100
AcDbEntity
  8
HOJO
100
AcDbCircle
 10
229.6400970386632
 20
132.4215561945901
 30
0.0
 40
2.0
  0
ARC
  5
1F7B
330
2
100
AcDbEntity
  8
0
100
AcDbCircle
 10
232.5214010470951
 20
134.92155619459
 30
0.0
 40
2.0
100
AcDbArc
 50
356.0353021397911
 51
90.0
  0
ARC
  5
1F7C
330
2
100
AcDbEntity
  8
0
100
AcDbCircle
 10
274.420888350626
 20
132.0175996347796
 30
0.0
 40
40.0
100
AcDbArc
 50
166.6323257973709
 51
186.1769964048909
  0
ARC
  5
1F7D
330
2
100
AcDbEntity
  8
0
100
AcDbCircle
 10
230.6400970386637
 20
142.42155619459
 30
0.0
 40
5.0
100
AcDbArc
 50
346.6323257973709
 51
0.0
  0
CIRCLE
  5
1F7E
330
2
100
AcDbEntity
  8
0
100
AcDbCircle
 10
229.6400970386632
 20
132.4215561945901
 30
0.0
 40
1.6
  0
CIRCLE
  5
1F7F
330
2
100
AcDbEntity
  8
0
100
AcDbCircle
 10
229.6400970386632
 20
132.4215561945901
 30
0.0
 40
2.5
  0
CIRCLE
  5
1F80
330
2
100
AcDbEntity
  8
0
100
AcDbCircle
 10
229.6400970386632
 20
132.4215561945901
 30
0.0
 40
3.0
  0
LINE
  5
1F81
330
2
100
AcDbEntity
  8
0
100
AcDbLine
 10
229.1400970386637
 20
136.92155619459
 30
0.0
 11
232.5214010470951
 21
136.92155619459
 31
0.0
  0
LINE
  5
1F82
330
2
100
AcDbEntity
  8
0
100
AcDbLine
 10
229.1400970386701
 20
141.0348048486419
 30
0.0
 11
231.6400970386705
 21
142.478180521616
 31
0.0
  0
LINE
  5
1F83
330
2
100
AcDbEntity
  8
0
100
AcDbLine
 10
229.1400970386701
 20
141.0348048486419
 30
0.0
 11
226.6400970386705
 21
142.478180521616
 31
0.0
  0
LINE
  5
1F84
330
2
100
AcDbEntity
  8
CENTER
100
AcDbLine
 10
229.6400970386632
 20
128.127948030279
 30
0.0
 11
229.6400970386632
 21
136.7151643588993
 31
0.0
  0
ARC
  5
1F85
330
2
100
AcDbEntity
  8
0
100
AcDbCircle
 10
227.6400970386637
 20
145.42155619459
 30
0.0
 40
5.0
100
AcDbArc
 50
90.0
 51
103.367674202629
  0
LINE
  5
1F86
330
2
100
AcDbEntity
  8
0
100
AcDbLine
 10
230.6400970386637
 20
150.42155619459
 30
0.0
 11
227.6400970386637
 21
150.42155619459
 31
0.0
  0
LINE
  5
1F87
330
2
100
AcDbEntity
  8
0
100
AcDbLine
 10
231.6400970386705
 20
145.3649318675641
 30
0.0
 11
229.1400970386705
 21
146.8083075405382
 31
0.0
  0
LINE
  5
1F88
330
2
100
AcDbEntity
  8
0
100
AcDbLine
 10
226.6400970386705
 20
145.3649318675641
 30
0.0
 11
229.1400970386705
 21
146.8083075405382
 31
0.0
  0
ARC
  5
1F89
330
2
100
AcDbEntity
  8
0
100
AcDbCircle
 10
230.6400970386637
 20
145.42155619459
 30
0.0
 40
5.0
100
AcDbArc
 50
0.0
 51
90.0
  0
LINE
  5
1F8A
330
2
100
AcDbEntity
  8
0
100
AcDbLine
 10
306.2808511358882
 20
139.6143765176162
 30
0.0
 11
306.2808511358882
 21
148.2287358715616
 31
0.0
  0
LINE
  5
1F8B
330
2
100
AcDbEntity
  8
0
100
AcDbLine
 10
321.2808511358937
 20
140.5183303881363
 30
0.0
 11
321.2808511358937
 21
150.4244650848391
 31
0.0
  0
LINE
  5
1F8C
330
2
100
AcDbEntity
  8
HIDS
100
AcDbLine
 10
308.7808511358896
 20
138.9215561945889
 30
0.0
 11
308.7808511358896
 21
148.9215561945889
 31
0.0
  0
LINE
  5
1F8D
330
2
100
AcDbEntity
  8
0
100
AcDbLine
 10
313.7808511358882
 20
137.4172117998855
 30
0.0
 11
313.7808511358882
 21
149.3647934755623
 31
0.0
  0
LINE
  5
1F8E
330
2
100
AcDbEntity
  8
0
100
AcDbLine
 10
312.2808511358882
 20
138.9215561945889
 30
0.0
 11
312.2808511358882
 21
148.9215561945889
 31
0.0
  0
LINE
  5
1F8F
330
2
100
AcDbEntity
  8
0
100
AcDbLine
 10
306.6808511358883
 20
138.9215561945889
 30
0.0
 11
306.6808511358883
 21
148.9215561945889
 31
0.0
  0
LINE
  5
1F90
330
2
100
AcDbEntity
  8
0
100
AcDbLine
 10
313.7808511358882
 20
148.9215561945889
 30
0.0
 11
313.7808511358882
 21
138.9215561945889
 31
0.0
  0
LINE
  5
1F91
330
2
100
AcDbEntity
  8
0
100
AcDbLine
 10
321.2808511358937
 20
127.7135913604575
 30
0.0
 11
309.7808511358901
 21
127.7135913604575
 31
0.0
  0
LINE
  5
1F92
330
2
100
AcDbEntity
  8
0
100
AcDbLine
 10
309.7721246003909
 20
136.8865725681039
 30
0.0
 11
313.2852144036376
 21
136.9172308383527
 31
0.0
  0
LINE
  5
1F93
330
2
100
AcDbEntity
  8
0
100
AcDbLine
 10
313.7808511358882
 20
138.9215561945889
 30
0.0
 11
306.6808511358883
 21
138.9215561945889
 31
0.0
  0
LINE
  5
1F94
330
2
100
AcDbEntity
  8
CENTER
100
AcDbLine
 10
301.7021832257926
 20
143.9215561945889
 30
0.0
 11
326.2650369021741
 21
143.9215561945889
 31
0.0
  0
LINE
  5
1F95
330
2
100
AcDbEntity
  8
0
100
AcDbLine
 10
307.2808511358882
 20
135.9215561945889
 30
0.0
 11
307.2808511358882
 21
137.9215561945835
 31
0.0
  0
LINE
  5
1F96
330
2
100
AcDbEntity
  8
0
100
AcDbLine
 10
307.2808511358928
 20
137.9215561945889
 30
0.0
 11
307.7808511358928
 21
138.4215561945889
 31
0.0
  0
LINE
  5
1F97
330
2
100
AcDbEntity
  8
HIDS
100
AcDbLine
 10
308.4879579170758
 20
141.1286629757756
 30
0.0
 11
308.0737443547016
 21
140.7144494134023
 31
0.0
  0
LINE
  5
1F98
330
2
100
AcDbEntity
  8
HIDS
100
AcDbLine
 10
307.7808511358878
 20
138.9215561945889
 30
0.0
 11
307.7808511358878
 21
140.0073426322156
 31
0.0
  0
ARC
  5
1F99
330
2
100
AcDbEntity
  8
HIDS
100
AcDbCircle
 10
308.7808511358878
 20
140.0073426322156
 30
0.0
 40
1.0
100
AcDbArc
 50
135.0000000000092
 51
180.0
  0
ARC
  5
1F9A
330
2
100
AcDbEntity
  8
HIDS
100
AcDbCircle
 10
307.7808511358901
 20
141.8357697569641
 30
0.0
 40
1.0
100
AcDbArc
 50
315.0000000000092
 51
0.0
  0
ARC
  5
1F9B
330
2
100
AcDbEntity
  8
0
100
AcDbCircle
 10
309.7808511358891
 20
135.8866106450346
 30
0.0
 40
1.0
100
AcDbArc
 50
90.49999999996549
 51
180.0
  0
LINE
  5
1F9C
330
2
100
AcDbEntity
  8
0
100
AcDbLine
 10
306.6808511358883
 20
138.9215561945889
 30
0.0
 11
306.2808511358882
 21
139.6143765176162
 31
0.0
  0
LINE
  5
1F9D
330
2
100
AcDbEntity
  8
0
100
AcDbLine
 10
306.6808511358924
 20
135.9215561945889
 30
0.0
 11
306.6808511358883
 21
138.9215561945889
 31
0.0
  0
LINE
  5
1F9E
330
2
100
AcDbEntity
  8
0
100
AcDbLine
 10
306.3921760012947
 20
139.4215561945862
 30
0.0
 11
306.2808511358923
 21
139.2287358715626
 31
0.0
  0
LINE
  5
1F9F
330
2
100
AcDbEntity
  8
0
100
AcDbLine
 10
306.2808511358928
 20
135.9215561945889
 30
0.0
 11
306.2808511358923
 21
139.2287358715626
 31
0.0
  0
LINE
  5
1FA0
330
2
100
AcDbEntity
  8
0
100
AcDbLine
 10
300.2808511358928
 20
135.9215561945889
 30
0.0
 11
301.580851135893
 21
135.9215561945889
 31
0.0
  0
LINE
  5
1FA1
330
2
100
AcDbEntity
  8
0
100
AcDbLine
 10
303.7808511358928
 20
135.7215561945882
 30
0.0
 11
303.9808511358926
 21
135.9215561945889
 31
0.0
  0
LINE
  5
1FA2
330
2
100
AcDbEntity
  8
0
100
AcDbLine
 10
301.9808511358926
 20
135.2215561945882
 30
0.0
 11
303.580851135893
 21
135.2215561945882
 31
0.0
  0
LINE
  5
1FA3
330
2
100
AcDbEntity
  8
0
100
AcDbLine
 10
300.2808511358928
 20
135.9215561945889
 30
0.0
 11
299.2808511358928
 21
135.3442059253989
 31
0.0
  0
ARC
  5
1FA4
330
2
100
AcDbEntity
  8
0
100
AcDbCircle
 10
301.580851135893
 20
135.7215561945882
 30
0.0
 40
0.2
100
AcDbArc
 50
0.0
 51
90.0
  0
ARC
  5
1FA5
330
2
100
AcDbEntity
  8
0
100
AcDbCircle
 10
301.9808511358926
 20
135.4215561945889
 30
0.0
 40
0.2
100
AcDbArc
 50
180.0
 51
270.0
  0
ARC
  5
1FA6
330
2
100
AcDbEntity
  8
0
100
AcDbCircle
 10
303.580851135893
 20
135.4215561945889
 30
0.0
 40
0.2
100
AcDbArc
 50
270.0
 51
0.0
  0
LINE
  5
1FA7
330
2
100
AcDbEntity
  8
0
100
AcDbLine
 10
303.9808511358926
 20
135.9215561945889
 30
0.0
 11
307.2808511358928
 21
135.9215561945889
 31
0.0
  0
LINE
  5
1FA8
330
2
100
AcDbEntity
  8
0
100
AcDbLine
 10
321.2808511358928
 20
142.4215561945889
 30
0.0
 11
314.7721246003905
 21
142.4215561945889
 31
0.0
  0
ARC
  5
1FA9
330
2
100
AcDbEntity
  8
0
100
AcDbCircle
 10
313.2808511358887
 20
137.4172117998855
 30
0.0
 40
0.5
100
AcDbArc
 50
270.4999999999654
 51
0.0
  0
LINE
  5
1FAA
330
2
100
AcDbEntity
  8
0
100
AcDbLine
 10
321.2808511358919
 20
150.4215561945889
 30
0.0
 11
309.7721246003914
 21
150.3211210596724
 31
0.0
  0
LINE
  5
1FAB
330
2
100
AcDbEntity
  8
0
100
AcDbLine
 10
313.7808511358882
 20
148.9215561945889
 30
0.0
 11
306.6808511358883
 21
148.9215561945889
 31
0.0
  0
LINE
  5
1FAC
330
2
100
AcDbEntity
  8
0
100
AcDbLine
 10
308.78085113589
 20
148.9215561945889
 30
0.0
 11
308.78085113589
 21
149.3211591366085
 31
0.0
  0
ARC
  5
1FAD
330
2
100
AcDbEntity
  8
0
100
AcDbCircle
 10
309.7808511358896
 20
149.3211591366085
 30
0.0
 40
1.0
100
AcDbArc
 50
90.49999999996549
 51
180.0
  0
LINE
  5
1FAE
330
2
100
AcDbEntity
  8
0
100
AcDbLine
 10
306.6808511358883
 20
148.9215561945889
 30
0.0
 11
306.2808511358882
 21
148.2287358715616
 31
0.0
  0
ARC
  5
1FAF
330
2
100
AcDbEntity
  8
0
100
AcDbCircle
 10
314.7808511358882
 20
149.3647934755623
 30
0.0
 40
1.0
100
AcDbArc
 50
90.49999999996549
 51
180.0
  0
LINE
  5
1FB0
330
2
100
AcDbEntity
  8
0
100
AcDbLine
 10
321.2808511358919
 20
145.4215561945889
 30
0.0
 11
314.77212460039
 21
145.4215561945889
 31
0.0
  0
LINE
  5
1FB5
330
2
100
AcDbEntity
  8
0
100
AcDbLine
 10
384.2808511358937
 20
74.42155619458896
 30
0.0
 11
384.2808511358937
 21
144.4215561945889
 31
0.0
  0
LINE
  5
1FB6
330
2
100
AcDbEntity
  8
0
100
AcDbLine
 10
397.2808511358955
 20
83.35293374420468
 30
0.0
 11
397.2808511358937
 21
135.4901786449732
 31
0.0
  0
LINE
  5
1FB9
330
2
100
AcDbEntity
  8
0
100
AcDbLine
 10
379.2808511358946
 20
68.92771452645281
 30
0.0
 11
379.2808511358941
 21
149.9183067529753
 31
0.0
  0
LINE
  5
1FBA
330
2
100
AcDbEntity
  8
CENTER
100
AcDbLine
 10
346.2808511358946
 20
58.63972788935786
 30
0.0
 11
346.2808511358951
 21
160.2062933900702
 31
0.0
  0
LINE
  5
1FBC
330
2
100
AcDbEntity
  8
0
100
AcDbLine
 10
379.2808511358946
 20
74.42155619458896
 30
0.0
 11
384.2808511358946
 21
74.42155619458896
 31
0.0
  0
ARC
  5
1FBD
330
2
100
AcDbEntity
  8
0
100
AcDbCircle
 10
386.2808511358937
 20
79.03620864158217
 30
0.0
 40
2.0
100
AcDbArc
 50
92.00000000000361
 51
180.0
  0
ARC
  5
1FBE
330
2
100
AcDbEntity
  8
0
100
AcDbCircle
 10
395.2808511358946
 20
83.35293374420468
 30
0.0
 40
2.0
100
AcDbArc
 50
272.0000000000035
 51
0.0
  0
LINE
  5
1FBF
330
2
100
AcDbEntity
  8
0
100
AcDbLine
 10
395.3506501292997
 20
81.35415209016679
 30
0.0
 11
386.2110521424885
 21
81.03499029562005
 31
0.0
  0
LINE
  5
1FC7
330
2
100
AcDbEntity
  8
0
100
AcDbLine
 10
379.2808511358946
 20
144.4215561945889
 30
0.0
 11
384.2808511358946
 21
144.4215561945889
 31
0.0
  0
ARC
  5
1FC8
330
2
100
AcDbEntity
  8
0
100
AcDbCircle
 10
386.2808511358937
 20
139.8069037475957
 30
0.0
 40
2.0
100
AcDbArc
 50
180.0
 51
267.9999999999963
  0
ARC
  5
1FC9
330
2
100
AcDbEntity
  8
0
100
AcDbCircle
 10
395.2808511358946
 20
135.4901786449732
 30
0.0
 40
2.0
100
AcDbArc
 50
0.0
 51
87.9999999999964
  0
LINE
  5
1FCA
330
2
100
AcDbEntity
  8
0
100
AcDbLine
 10
395.3506501292997
 20
137.4889602990129
 30
0.0
 11
386.2110521424885
 21
137.8081220935578
 31
0.0
  0
CIRCLE
  5
1FD1
330
2
100
AcDbEntity
  8
0
100
AcDbCircle
 10
607.9848237678427
 20
109.4215561945862
 30
0.0
 40
28.0
  0
CIRCLE
  5
1FD2
330
2
100
AcDbEntity
  8
0
100
AcDbCircle
 10
607.9848237678418
 20
109.4215561945862
 30
0.0
 40
35.00000000000011
  0
ARC
  5
1FD3
330
2
100
AcDbEntity
  8
0
100
AcDbCircle
 10
630.5808672080304
 20
189.2023475065476
 30
0.0
 40
40.0
100
AcDbArc
 50
263.823003595109
 51
283.367674202629
  0
ARC
  5
1FD4
330
2
100
AcDbEntity
  8
0
100
AcDbCircle
 10
630.5808672080304
 20
29.64076488262492
 30
0.0
 40
40.0
100
AcDbArc
 50
76.63232579737094
 51
96.17699640489092
  0
CIRCLE
  5
1FD6
330
2
100
AcDbEntity
  8
CENTER
100
AcDbCircle
 10
607.9848237678409
 20
109.4215561945862
 30
0.0
 40
49.0
  0
LINE
  5
1FD7
330
2
100
AcDbEntity
  8
CENTER
100
AcDbLine
 10
563.4995423936023
 20
153.9068375688247
 30
0.0
 11
652.4701051420804
 21
64.93627482034788
 31
0.0
  0
LINE
  5
1FD8
330
2
100
AcDbEntity
  8
CENTER
100
AcDbLine
 10
652.47010514208
 20
153.9068375688244
 30
0.0
 11
563.4995423936027
 21
64.93627482034765
 31
0.0
  0
CIRCLE
  5
1FD9
330
2
100
AcDbEntity
  8
0
100
AcDbCircle
 10
607.9848237678413
 20
109.4215561945862
 30
0.0
 40
23.0
  0
ARC
  5
1FDA
330
2
100
AcDbEntity
  8
0
100
AcDbCircle
 10
736.9848237678409
 20
109.4215561945844
 30
0.0
 40
170.0
100
AcDbArc
 50
173.823003595109
 51
186.1769964048909
  0
LINE
  5
1FDE
330
2
100
AcDbEntity
  8
CENTER
100
AcDbLine
 10
607.9848237678409
 20
50.42155619458629
 30
0.0
 11
607.9848237678409
 21
168.4215561945863
 31
0.0
  0
ARC
  5
1FDF
330
2
100
AcDbEntity
  8
0
100
AcDbCircle
 10
607.9848237678413
 20
238.4215561945862
 30
0.0
 40
170.0
100
AcDbArc
 50
263.823003595109
 51
276.1769964048909
  0
CIRCLE
  5
1FE0
330
2
100
AcDbEntity
  8
HOJO
100
AcDbCircle
 10
573.3365914897001
 20
74.77332391644506
 30
0.0
 40
3.0
  0
LINE
  5
1FE1
330
2
100
AcDbEntity
  8
CENTER
100
AcDbLine
 10
573.3365914897006
 20
67.77332391644506
 30
0.0
 11
573.3365914897006
 21
81.77332391644506
 31
0.0
  0
LINE
  5
1FE2
330
2
100
AcDbEntity
  8
CENTER
100
AcDbLine
 10
566.3365914897005
 20
74.77332391644506
 30
0.0
 11
580.3365914897006
 21
74.77332391644506
 31
0.0
  0
CIRCLE
  5
1FE3
330
2
100
AcDbEntity
  8
0
100
AcDbCircle
 10
573.3365914897006
 20
74.77332391644506
 30
0.0
 40
2.399999999999999
  0
CIRCLE
  5
1FE4
330
2
100
AcDbEntity
  8
HOJO
100
AcDbCircle
 10
573.3365914897006
 20
74.77332391644506
 30
0.0
 40
3.0
  0
ARC
  5
1FE5
330
2
100
AcDbEntity
  8
0
100
AcDbCircle
 10
528.2040324558781
 20
86.82551275439857
 30
0.0
 40
40.0
100
AcDbArc
 50
346.6323257973709
 51
6.176996404890939
  0
ARC
  5
1FE6
330
2
100
AcDbEntity
  8
0
100
AcDbCircle
 10
571.98482376784
 20
76.42155619458629
 30
0.0
 40
5.0
100
AcDbArc
 50
166.6323257973709
 51
180.0
  0
LINE
  5
1FE7
330
2
100
AcDbEntity
  8
0
100
AcDbLine
 10
566.98482376784
 20
73.42155619458629
 30
0.0
 11
566.98482376784
 21
76.42155619458629
 31
0.0
  0
ARC
  5
1FE8
330
2
100
AcDbEntity
  8
0
100
AcDbCircle
 10
571.9848237678409
 20
73.42155619458629
 30
0.0
 40
5.0
100
AcDbArc
 50
180.0
 51
270.0
  0
LINE
  5
1FE9
330
2
100
AcDbEntity
  8
0
100
AcDbLine
 10
571.9848237678409
 20
68.42155619458629
 30
0.0
 11
574.9848237678413
 21
68.42155619458629
 31
0.0
  0
ARC
  5
1FEA
330
2
100
AcDbEntity
  8
0
100
AcDbCircle
 10
585.3887803276518
 20
29.64076488262492
 30
0.0
 40
40.0
100
AcDbArc
 50
83.82300359510905
 51
103.367674202629
  0
ARC
  5
1FEB
330
2
100
AcDbEntity
  8
0
100
AcDbCircle
 10
574.9848237678413
 20
73.42155619458629
 30
0.0
 40
5.0
100
AcDbArc
 50
270.0
 51
283.367674202629
  0
LINE
  5
1FEC
330
2
100
AcDbEntity
  8
0
100
AcDbLine
 10
604.7823396833262
 20
75.2484298169826
 30
0.0
 11
606.0423402264025
 21
75.2484298169826
 31
0.0
  0
LINE
  5
1FED
330
2
100
AcDbEntity
  8
0
100
AcDbLine
 10
606.5323396833202
 20
78.74842981697168
 30
0.0
 11
604.7823396833262
 21
75.2484298169826
 31
0.0
  0
ARC
  5
1FEE
330
2
100
AcDbEntity
  8
0
100
AcDbCircle
 10
609.4373078508099
 20
77.5584298169748
 30
0.0
 40
1.189999999995825
100
AcDbArc
 50
307.5189678668174
 51
90.0
  0
LINE
  5
1FEF
330
2
100
AcDbEntity
  8
0
100
AcDbLine
 10
610.1620464544078
 20
76.61457921627391
 30
0.0
 11
611.0313890893396
 21
75.2484298169826
 31
0.0
  0
LINE
  5
1FF0
330
2
100
AcDbEntity
  8
0
100
AcDbLine
 10
609.7713885462633
 20
75.2484298169826
 30
0.0
 11
611.0313890893396
 21
75.2484298169826
 31
0.0
  0
LINE
  5
1FF1
330
2
100
AcDbEntity
  8
0
100
AcDbLine
 10
607.1973396833175
 20
75.2484298169826
 30
0.0
 11
608.2473078508139
 21
75.2484298169826
 31
0.0
  0
LINE
  5
1FF2
330
2
100
AcDbEntity
  8
0
100
AcDbLine
 10
606.3048402264018
 20
75.77342981698041
 30
0.0
 11
606.0423402264025
 21
75.2484298169826
 31
0.0
  0
LINE
  5
1FF3
330
2
100
AcDbEntity
  8
0
100
AcDbLine
 10
606.3048402264018
 20
75.77342981698041
 30
0.0
 11
607.1973396833175
 21
75.77342981698041
 31
0.0
  0
LINE
  5
1FF4
330
2
100
AcDbEntity
  8
0
100
AcDbLine
 10
607.1973396833175
 20
75.77342981698041
 30
0.0
 11
607.1973396833175
 21
75.2484298169826
 31
0.0
  0
LINE
  5
1FF5
330
2
100
AcDbEntity
  8
0
100
AcDbLine
 10
606.8648402264
 20
76.89342981697757
 30
0.0
 11
607.1973396833175
 21
76.89342981697757
 31
0.0
  0
LINE
  5
1FF6
330
2
100
AcDbEntity
  8
0
100
AcDbLine
 10
607.1973396833175
 20
77.55842873081258
 30
0.0
 11
607.1973396833175
 21
76.89342981697757
 31
0.0
  0
LINE
  5
1FF7
330
2
100
AcDbEntity
  8
0
100
AcDbLine
 10
607.1973396833175
 20
77.55842873081258
 30
0.0
 11
606.8648402264
 21
76.89342981697757
 31
0.0
  0
LINE
  5
1FF8
330
2
100
AcDbEntity
  8
0
100
AcDbLine
 10
608.3960896833134
 20
77.40967981697633
 30
0.0
 11
609.7713885462633
 21
75.2484298169826
 31
0.0
  0
LINE
  5
1FF9
330
2
100
AcDbEntity
  8
0
100
AcDbLine
 10
608.2473078508139
 20
77.5584298169748
 30
0.0
 11
608.2473078508139
 21
75.2484298169826
 31
0.0
  0
LINE
  5
1FFA
330
2
100
AcDbEntity
  8
0
100
AcDbLine
 10
608.2473078508139
 20
77.5584298169748
 30
0.0
 11
609.3629646833099
 21
77.5584298169748
 31
0.0
  0
LINE
  5
1FFB
330
2
100
AcDbEntity
  8
0
100
AcDbLine
 10
608.3960896833134
 20
77.40967981697633
 30
0.0
 11
609.3629646833099
 21
77.40967981697633
 31
0.0
  0
ARC
  5
1FFC
330
2
100
AcDbEntity
  8
0
100
AcDbCircle
 10
609.3629646833099
 20
77.48405481697466
 30
0.0
 40
0.0743749999997391
100
AcDbArc
 50
270.0
 51
90.0
  0
LINE
  5
1FFD
330
2
100
AcDbEntity
  8
0
100
AcDbLine
 10
606.5323396833202
 20
78.74842981697168
 30
0.0
 11
609.4373078508099
 21
78.74842981697168
 31
0.0
  0
CIRCLE
  5
1FFE
330
2
100
AcDbEntity
  8
HOJO
100
AcDbCircle
 10
573.3365914897006
 20
144.0697884727275
 30
0.0
 40
3.0
  0
CIRCLE
  5
1FFF
330
2
100
AcDbEntity
  8
0
100
AcDbCircle
 10
573.3365914897006
 20
144.0697884727256
 30
0.0
 40
2.399999999999999
  0
CIRCLE
  5
2000
330
2
100
AcDbEntity
  8
HOJO
100
AcDbCircle
 10
573.3365914897006
 20
144.0697884727256
 30
0.0
 40
3.0
  0
LINE
  5
2001
330
2
100
AcDbEntity
  8
0
100
AcDbLine
 10
566.9848237678413
 20
145.4215561945862
 30
0.0
 11
566.9848237678413
 21
142.4215561945862
 31
0.0
  0
LINE
  5
2002
330
2
100
AcDbEntity
  8
CENTER
100
AcDbLine
 10
573.3365914897006
 20
151.0697884727275
 30
0.0
 11
573.3365914897001
 21
137.0697884727275
 31
0.0
  0
LINE
  5
2003
330
2
100
AcDbEntity
  8
CENTER
100
AcDbLine
 10
566.3365914897005
 20
144.0697884727275
 30
0.0
 11
580.3365914897006
 21
144.0697884727275
 31
0.0
  0
ARC
  5
2004
330
2
100
AcDbEntity
  8
0
100
AcDbCircle
 10
528.2040324558795
 20
132.0175996347758
 30
0.0
 40
40.0
100
AcDbArc
 50
353.823003595109
 51
13.36767420262906
  0
ARC
  5
2005
330
2
100
AcDbEntity
  8
0
100
AcDbCircle
 10
571.9848237678413
 20
142.4215561945862
 30
0.0
 40
5.0
100
AcDbArc
 50
180.0
 51
193.367674202629
  0
ARC
  5
2006
330
2
100
AcDbEntity
  8
0
100
AcDbCircle
 10
607.9848237678413
 20
-19.57844380541371
 30
0.0
 40
170.0
100
AcDbArc
 50
83.82300359510905
 51
96.17699640489092
  0
ARC
  5
2007
330
2
100
AcDbEntity
  8
0
100
AcDbCircle
 10
585.3887803276518
 20
189.2023475065476
 30
0.0
 40
40.0
100
AcDbArc
 50
256.6323257973709
 51
276.1769964048909
  0
ARC
  5
2008
330
2
100
AcDbEntity
  8
0
100
AcDbCircle
 10
574.9848237678413
 20
145.4215561945862
 30
0.0
 40
5.0
100
AcDbArc
 50
76.63232579737094
 51
90.0
  0
LINE
  5
2009
330
2
100
AcDbEntity
  8
0
100
AcDbLine
 10
571.9848237678409
 20
150.4215561945862
 30
0.0
 11
574.9848237678413
 21
150.4215561945862
 31
0.0
  0
ARC
  5
200A
330
2
100
AcDbEntity
  8
0
100
AcDbCircle
 10
571.9848237678409
 20
145.4215561945862
 30
0.0
 40
5.0
100
AcDbArc
 50
90.0
 51
180.0
  0
LINE
  5
200B
330
2
100
AcDbEntity
  8
0
100
AcDbLine
 10
706.9848237678382
 20
79.92155619458628
 30
0.0
 11
706.9848237678382
 21
138.9215561945862
 31
0.0
  0
LINE
  5
200D
330
2
100
AcDbEntity
  8
0
100
AcDbLine
 10
648.9848237678418
 20
73.42155619458083
 30
0.0
 11
648.9848237678418
 21
145.4215561945862
 31
0.0
  0
LINE
  5
200E
330
2
100
AcDbEntity
  8
0
100
AcDbLine
 10
681.9848237678414
 20
135.4215561945881
 30
0.0
 11
681.9848237678418
 21
83.42155619458266
 31
0.0
  0
LINE
  5
200F
330
2
100
AcDbEntity
  8
0
100
AcDbLine
 10
695.4979167305575
 20
131.4215561945862
 30
0.0
 11
695.4979167305575
 21
87.42155619458628
 31
0.0
  0
LINE
  5
2010
330
2
100
AcDbEntity
  8
0
100
AcDbLine
 10
698.4979167305575
 20
84.42155619458629
 30
0.0
 11
702.0027037459538
 21
84.42155619458629
 31
0.0
  0
LINE
  5
2011
330
2
100
AcDbEntity
  8
0
100
AcDbLine
 10
675.9848237678422
 20
77.42155619458265
 30
0.0
 11
652.9848237678414
 21
77.42155619458083
 31
0.0
  0
CIRCLE
  5
2012
330
2
100
AcDbEntity
  8
HOJO
100
AcDbCircle
 10
642.6330560459821
 20
74.77332391644506
 30
0.0
 40
3.0
  0
LINE
  5
2013
330
2
100
AcDbEntity
  8
CENTER
100
AcDbLine
 10
649.6330560459821
 20
74.77332391644506
 30
0.0
 11
635.6330560459821
 21
74.77332391644506
 31
0.0
  0
LINE
  5
2014
330
2
100
AcDbEntity
  8
CENTER
100
AcDbLine
 10
642.6330560459821
 20
67.77332391644506
 30
0.0
 11
642.6330560459821
 21
81.77332391644506
 31
0.0
  0
CIRCLE
  5
2015
330
2
100
AcDbEntity
  8
0
100
AcDbCircle
 10
642.6330560459821
 20
74.77332391644506
 30
0.0
 40
2.399999999999999
  0
CIRCLE
  5
2016
330
2
100
AcDbEntity
  8
HOJO
100
AcDbCircle
 10
642.6330560459821
 20
74.77332391644506
 30
0.0
 40
3.0
  0
ARC
  5
2017
330
2
100
AcDbEntity
  8
0
100
AcDbCircle
 10
643.9848237678418
 20
73.42155619458629
 30
0.0
 40
5.0
100
AcDbArc
 50
270.0
 51
0.0
  0
ARC
  5
2018
330
2
100
AcDbEntity
  8
0
100
AcDbCircle
 10
640.9848237678414
 20
73.42155619458629
 30
0.0
 40
5.0
100
AcDbArc
 50
256.6323257973709
 51
270.0
  0
LINE
  5
2019
330
2
100
AcDbEntity
  8
0
100
AcDbLine
 10
643.9848237678413
 20
68.42155619458629
 30
0.0
 11
640.9848237678414
 21
68.42155619458629
 31
0.0
  0
ARC
  5
201A
330
2
100
AcDbEntity
  8
0
100
AcDbCircle
 10
652.9848237678418
 20
73.42155619458083
 30
0.0
 40
4.0
100
AcDbArc
 50
90.0
 51
180.0
  0
ARC
  5
201B
330
2
100
AcDbEntity
  8
0
100
AcDbCircle
 10
675.9848237678418
 20
83.42155619458266
 30
0.0
 40
6.0
100
AcDbArc
 50
270.0
 51
0.0
  0
ARC
  5
201C
330
2
100
AcDbEntity
  8
0
100
AcDbCircle
 10
686.9848237678318
 20
85.42155619460448
 30
0.0
 40
5.0
100
AcDbArc
 50
90.0
 51
180.0
  0
LINE
  5
201D
330
2
100
AcDbEntity
  8
0
100
AcDbLine
 10
686.9848237678318
 20
90.42155619460448
 30
0.0
 11
690.7519500381433
 21
90.42155619460448
 31
0.0
  0
ARC
  5
201E
330
2
100
AcDbEntity
  8
0
100
AcDbCircle
 10
690.7519500381433
 20
85.42155619460448
 30
0.0
 40
5.0
100
AcDbArc
 50
14.47751218593027
 51
90.0
  0
LINE
  5
201F
330
2
100
AcDbEntity
  8
0
100
AcDbLine
 10
683.9324625630281
 20
86.42155619458629
 30
0.0
 11
694.4979167305575
 21
86.42155619458629
 31
0.0
  0
ARC
  5
2020
330
2
100
AcDbEntity
  8
0
100
AcDbCircle
 10
694.4979167305575
 20
84.42155619458629
 30
0.0
 40
2.0
100
AcDbArc
 50
36.86989764585379
 51
90.0
  0
ARC
  5
2021
330
2
100
AcDbEntity
  8
0
100
AcDbCircle
 10
698.4979167305575
 20
87.42155619458628
 30
0.0
 40
3.0
100
AcDbArc
 50
180.0
 51
270.0
  0
ARC
  5
2022
330
2
100
AcDbEntity
  8
0
100
AcDbCircle
 10
683.9848237678409
 20
84.42155619458629
 30
0.0
 40
2.0
100
AcDbArc
 50
90.0
 51
180.0
  0
LINE
  5
2023
330
2
100
AcDbEntity
  8
0
100
AcDbLine
 10
714.9848237678382
 20
78.42155619458629
 30
0.0
 11
708.9848237678381
 21
78.42155619458629
 31
0.0
  0
ARC
  5
2024
330
2
100
AcDbEntity
  8
0
100
AcDbCircle
 10
708.9848237678381
 20
80.42155619458629
 30
0.0
 40
2.0
100
AcDbArc
 50
180.0
 51
270.0
  0
ARC
  5
2025
330
2
100
AcDbEntity
  8
0
100
AcDbCircle
 10
708.9848237678381
 20
79.92155619458628
 30
0.0
 40
2.0
100
AcDbArc
 50
180.0
 51
270.0
  0
LINE
  5
2026
330
2
100
AcDbEntity
  8
0
100
AcDbLine
 10
714.9848237678382
 20
77.92155619458629
 30
0.0
 11
708.9848237678381
 21
77.92155619458629
 31
0.0
  0
ARC
  5
2027
330
2
100
AcDbEntity
  8
0
100
AcDbCircle
 10
702.0027037459538
 20
79.42155619458628
 30
0.0
 40
5.0
100
AcDbArc
 50
4.096043758197134
 51
90.0
  0
LINE
  5
2028
330
2
100
AcDbEntity
  8
0
100
AcDbLine
 10
698.4979167305575
 20
134.4215561945862
 30
0.0
 11
702.0027037459538
 21
134.4215561945862
 31
0.0
  0
CIRCLE
  5
2029
330
2
100
AcDbEntity
  8
HOJO
100
AcDbCircle
 10
642.6330560459821
 20
144.0697884727275
 30
0.0
 40
3.0
  0
CIRCLE
  5
202A
330
2
100
AcDbEntity
  8
0
100
AcDbCircle
 10
642.6330560459821
 20
144.0697884727256
 30
0.0
 40
2.399999999999999
  0
CIRCLE
  5
202B
330
2
100
AcDbEntity
  8
HOJO
100
AcDbCircle
 10
642.6330560459821
 20
144.0697884727256
 30
0.0
 40
3.0
  0
ARC
  5
202C
330
2
100
AcDbEntity
  8
0
100
AcDbCircle
 10
652.9848237678418
 20
145.4215561945899
 30
0.0
 40
4.0
100
AcDbArc
 50
180.0
 51
270.0
  0
LINE
  5
202D
330
2
100
AcDbEntity
  8
CENTER
100
AcDbLine
 10
642.6330560459821
 20
151.0697884727275
 30
0.0
 11
642.6330560459821
 21
137.0697884727275
 31
0.0
  0
LINE
  5
202E
330
2
100
AcDbEntity
  8
0
100
AcDbLine
 10
675.9848237678418
 20
141.4215561945881
 30
0.0
 11
652.9848237678408
 21
141.4215561945899
 31
0.0
  0
LINE
  5
202F
330
2
100
AcDbEntity
  8
CENTER
100
AcDbLine
 10
649.6330560459821
 20
144.0697884727275
 30
0.0
 11
635.6330560459821
 21
144.0697884727275
 31
0.0
  0
ARC
  5
2030
330
2
100
AcDbEntity
  8
0
100
AcDbCircle
 10
675.9848237678413
 20
135.4215561945881
 30
0.0
 40
6.0
100
AcDbArc
 50
0.0
 51
89.99999999994789
  0
LINE
  5
2031
330
2
100
AcDbEntity
  8
0
100
AcDbLine
 10
683.9848237678409
 20
132.4215561945862
 30
0.0
 11
694.4979167305575
 21
132.4215561945862
 31
0.0
  0
ARC
  5
2032
330
2
100
AcDbEntity
  8
0
100
AcDbCircle
 10
698.4979167305575
 20
131.4215561945862
 30
0.0
 40
3.0
100
AcDbArc
 50
90.0
 51
180.0
  0
ARC
  5
2033
330
2
100
AcDbEntity
  8
0
100
AcDbCircle
 10
694.4979167305575
 20
134.4215561945862
 30
0.0
 40
2.0
100
AcDbArc
 50
270.0
 51
323.1301023541462
  0
ARC
  5
2034
330
2
100
AcDbEntity
  8
0
100
AcDbCircle
 10
686.9848237678318
 20
133.4215561945862
 30
0.0
 40
5.0
100
AcDbArc
 50
180.0
 51
270.0
  0
ARC
  5
2035
330
2
100
AcDbEntity
  8
0
100
AcDbCircle
 10
690.7519500381429
 20
133.4215561945862
 30
0.0
 40
5.0
100
AcDbArc
 50
270.0
 51
345.5224878140697
  0
LINE
  5
2036
330
2
100
AcDbEntity
  8
0
100
AcDbLine
 10
686.9848237678318
 20
128.4215561945862
 30
0.0
 11
690.7519500381429
 21
128.4215561945862
 31
0.0
  0
ARC
  5
2037
330
2
100
AcDbEntity
  8
0
100
AcDbCircle
 10
683.9848237678409
 20
134.4215561945862
 30
0.0
 40
2.0
100
AcDbArc
 50
180.0
 51
270.0
  0
LINE
  5
2038
330
2
100
AcDbEntity
  8
0
100
AcDbLine
 10
684.9848237678409
 20
111.9215561945862
 30
0.0
 11
692.4979167305576
 21
111.9215561945862
 31
0.0
  0
ARC
  5
2039
330
2
100
AcDbEntity
  8
0
100
AcDbCircle
 10
684.9848237678409
 20
114.9215561945862
 30
0.0
 40
3.0
100
AcDbArc
 50
180.0
 51
270.0
  0
ARC
  5
203A
330
2
100
AcDbEntity
  8
0
100
AcDbCircle
 10
692.4979167305576
 20
114.9215561945862
 30
0.0
 40
3.0
100
AcDbArc
 50
270.0
 51
0.0
  0
LINE
  5
203B
330
2
100
AcDbEntity
  8
0
100
AcDbLine
 10
684.9848237678409
 20
106.9215561945862
 30
0.0
 11
692.4979167305576
 21
106.9215561945862
 31
0.0
  0
ARC
  5
203C
330
2
100
AcDbEntity
  8
0
100
AcDbCircle
 10
684.9848237678409
 20
103.9215561945862
 30
0.0
 40
3.0
100
AcDbArc
 50
90.0
 51
180.0
  0
ARC
  5
203D
330
2
100
AcDbEntity
  8
0
100
AcDbCircle
 10
692.4979167305576
 20
103.9215561945862
 30
0.0
 40
3.0
100
AcDbArc
 50
0.0
 51
90.0
  0
LINE
  5
203E
330
2
100
AcDbEntity
  8
0
100
AcDbLine
 10
643.9848237678413
 20
150.4215561945862
 30
0.0
 11
640.9848237678409
 21
150.4215561945862
 31
0.0
  0
ARC
  5
203F
330
2
100
AcDbEntity
  8
0
100
AcDbCircle
 10
640.9848237678409
 20
145.4215561945862
 30
0.0
 40
5.0
100
AcDbArc
 50
90.0
 51
103.367674202629
  0
ARC
  5
2040
330
2
100
AcDbEntity
  8
0
100
AcDbCircle
 10
643.9848237678413
 20
145.4215561945862
 30
0.0
 40
5.0
100
AcDbArc
 50
0.0
 51
90.0
  0
LINE
  5
2041
330
2
100
AcDbEntity
  8
0
100
AcDbLine
 10
708.9848237678381
 20
140.4215561945862
 30
0.0
 11
714.9848237678382
 21
140.4215561945862
 31
0.0
  0
ARC
  5
2042
330
2
100
AcDbEntity
  8
0
100
AcDbCircle
 10
708.9848237678381
 20
138.4215561945862
 30
0.0
 40
2.0
100
AcDbArc
 50
90.0
 51
180.0
  0
LINE
  5
2043
330
2
100
AcDbEntity
  8
0
100
AcDbLine
 10
708.9848237678381
 20
140.9215561945862
 30
0.0
 11
714.9848237678382
 21
140.9215561945862
 31
0.0
  0
ARC
  5
2044
330
2
100
AcDbEntity
  8
0
100
AcDbCircle
 10
708.9848237678381
 20
138.9215561945862
 30
0.0
 40
2.0
100
AcDbArc
 50
90.0
 51
180.0
  0
ARC
  5
2045
330
2
100
AcDbEntity
  8
0
100
AcDbCircle
 10
702.0027037459538
 20
139.4215561945862
 30
0.0
 40
5.0
100
AcDbArc
 50
270.0
 51
355.9039562418028
  0
LINE
  5
2046
330
2
100
AcDbEntity
  8
0
100
AcDbLine
 10
581.9162013174576
 20
325.0537322187824
 30
0.0
 11
634.0534462182271
 21
325.0537322187842
 31
0.0
  0
ARC
  5
204F
330
2
100
AcDbEntity
  8
0
100
AcDbCircle
 10
581.9162013174576
 20
327.0537322187842
 30
0.0
 40
2.0
100
AcDbArc
 50
182.0000000000036
 51
270.0
  0
ARC
  5
2058
330
2
100
AcDbEntity
  8
0
100
AcDbCircle
 10
634.0534462182271
 20
327.0537322187842
 30
0.0
 40
2.0
100
AcDbArc
 50
270.0
 51
357.9999999999964
  0
LINE
  5
20EC
330
2
100
AcDbEntity
  8
0
100
AcDbLine
 10
695.408322405682
 20
398.1322630633326
 30
0.0
 11
694.8301757286275
 21
376.0537322187842
 31
0.0
  0
LINE
  5
20ED
330
2
100
AcDbEntity
  8
0
100
AcDbLine
 10
706.9338228597347
 20
405.1060861153996
 30
0.0
 11
706.1730601991925
 21
376.0537322187842
 31
0.0
  0
LINE
  5
20EE
330
2
100
AcDbEntity
  8
0
100
AcDbLine
 10
675.9979167286267
 20
401.0537322187842
 30
0.0
 11
676.6270643138031
 21
377.0275552704765
 31
0.0
  0
LINE
  5
20EF
330
2
100
AcDbEntity
  8
0
100
AcDbLine
 10
643.9848237678432
 20
401.0537322187842
 30
0.0
 11
643.9848237678432
 21
344.5537322187842
 31
0.0
  0
LINE
  5
20F0
330
2
100
AcDbEntity
  8
0
100
AcDbLine
 10
640.9848237678423
 20
401.0537322187842
 30
0.0
 11
640.9848237678423
 21
344.5537322187842
 31
0.0
  0
LINE
  5
20F1
330
2
100
AcDbEntity
  8
0
100
AcDbLine
 10
648.9804603339456
 20
401.0537322187842
 30
0.0
 11
648.4743020020822
 21
343.0537322187842
 31
0.0
  0
LINE
  5
20F2
330
2
100
AcDbEntity
  8
0
100
AcDbLine
 10
681.9848237678423
 20
401.0537322187842
 30
0.0
 11
682.2029954625913
 21
376.0537322187842
 31
0.0
  0
LINE
  5
20F3
330
2
100
AcDbEntity
  8
0
100
AcDbLine
 10
566.9848237678423
 20
401.0537322187842
 30
0.0
 11
567.4909820997067
 21
343.0537322187842
 31
0.0
  0
LINE
  5
20F4
330
2
100
AcDbEntity
  8
0
100
AcDbLine
 10
626.276858933711
 20
401.0537322187842
 30
0.0
 11
626.276858933711
 21
344.5537322187842
 31
0.0
  0
LINE
  5
20F5
330
2
100
AcDbEntity
  8
0
100
AcDbLine
 10
589.6927886019783
 20
401.0537322187842
 30
0.0
 11
589.6927886019783
 21
344.5537322187842
 31
0.0
  0
LINE
  5
20F6
330
2
100
AcDbEntity
  8
0
100
AcDbLine
 10
574.9848237678433
 20
401.0537322187842
 30
0.0
 11
574.9848237678442
 21
344.5537322187842
 31
0.0
  0
LINE
  5
20F7
330
2
100
AcDbEntity
  8
0
100
AcDbLine
 10
571.9848237678433
 20
401.0537322187842
 30
0.0
 11
571.9848237678433
 21
344.5537322187842
 31
0.0
  0
LINE
  5
20F8
330
2
100
AcDbEntity
  8
CENTER
100
AcDbLine
 10
607.9848237678428
 20
433.0537322187878
 30
0.0
 11
607.9848237678423
 21
283.053732218784
 31
0.0
  0
LINE
  5
20FA
330
2
100
AcDbEntity
  8
0
100
AcDbLine
 10
572.9848237678424
 20
338.0537322187842
 30
0.0
 11
642.9848237678424
 21
338.0537322187842
 31
0.0
  0
LINE
  5
20FB
330
2
100
AcDbEntity
  8
0
100
AcDbLine
 10
567.4909820997067
 20
343.0537322187842
 30
0.0
 11
648.4743020020822
 21
343.0537322187842
 31
0.0
  0
LINE
  5
20FC
330
2
100
AcDbEntity
  8
0
100
AcDbLine
 10
572.9848237678428
 20
338.053732218786
 30
0.0
 11
577.6960930456006
 21
338.053732218786
 31
0.0
  0
LINE
  5
20FD
330
2
100
AcDbEntity
  8
0
100
AcDbLine
 10
572.9848237678424
 20
343.0537322187842
 30
0.0
 11
572.9848237678424
 21
338.0537322187842
 31
0.0
  0
ARC
  5
20FE
330
2
100
AcDbEntity
  8
0
100
AcDbCircle
 10
577.599476214836
 20
336.0537322187842
 30
0.0
 40
2.0
100
AcDbArc
 50
2.000000000003612
 51
90.0
  0
LINE
  5
20FF
330
2
100
AcDbEntity
  8
0
100
AcDbLine
 10
579.9174196634197
 20
326.9839332253791
 30
0.0
 11
579.5982578688739
 21
336.1235312121893
 31
0.0
  0
LINE
  5
2100
330
2
100
AcDbEntity
  8
0
100
AcDbLine
 10
698.4072943806076
 20
351.0537322191589
 30
0.0
 11
702.0049342793562
 21
351.0537322191589
 31
0.0
  0
LINE
  5
2101
330
2
100
AcDbEntity
  8
0
100
AcDbLine
 10
681.9497639860359
 20
347.036279147785
 30
0.0
 11
682.2029954626112
 21
376.0537322187842
 31
0.0
  0
LINE
  5
2102
330
2
100
AcDbEntity
  8
0
100
AcDbLine
 10
679.9498401399081
 20
345.0537322187824
 30
0.0
 11
649.9787225535559
 21
345.0537322187788
 31
0.0
  0
LINE
  5
2103
330
2
100
AcDbEntity
  8
0
100
AcDbLine
 10
642.9848237678428
 20
338.053732218786
 30
0.0
 11
638.273554490085
 21
338.053732218786
 31
0.0
  0
LINE
  5
2104
330
2
100
AcDbEntity
  8
0
100
AcDbLine
 10
642.9848237678424
 20
343.0537322187842
 30
0.0
 11
642.9848237678424
 21
338.0537322187842
 31
0.0
  0
ARC
  5
2105
330
2
100
AcDbEntity
  8
0
100
AcDbCircle
 10
638.3701713208487
 20
336.0537322187842
 30
0.0
 40
2.0
100
AcDbArc
 50
90.0
 51
177.9999999999963
  0
LINE
  5
2106
330
2
100
AcDbEntity
  8
0
100
AcDbLine
 10
636.0522278722659
 20
326.9839332253791
 30
0.0
 11
636.3713896668108
 21
336.1235312121893
 31
0.0
  0
ARC
  5
2107
330
2
100
AcDbEntity
  8
0
100
AcDbCircle
 10
649.9787225535563
 20
343.5537322187788
 30
0.0
 40
1.5
100
AcDbArc
 50
90.0
 51
179.5000000000344
  0
ARC
  5
2108
330
2
100
AcDbEntity
  8
0
100
AcDbCircle
 10
679.9498401399081
 20
347.0537322187824
 30
0.0
 40
2.0
100
AcDbArc
 50
270.0
 51
359.5000000000345
  0
ARC
  5
2109
330
2
100
AcDbEntity
  8
0
100
AcDbCircle
 10
683.9848237678424
 20
351.0537322187824
 30
0.0
 40
2.0
100
AcDbArc
 50
90.0
 51
180.0
  0
LINE
  5
210A
330
2
100
AcDbEntity
  8
0
100
AcDbLine
 10
694.4072943808895
 20
353.0537322187824
 30
0.0
 11
683.9848999246122
 21
353.0537322187824
 31
0.0
  0
ARC
  5
210B
330
2
100
AcDbEntity
  8
0
100
AcDbCircle
 10
686.9848237678423
 20
352.0537322187824
 30
0.0
 40
5.0
100
AcDbArc
 50
90.0
 51
180.0
  0
LINE
  5
210C
330
2
100
AcDbEntity
  8
0
100
AcDbLine
 10
690.6613276882898
 20
357.0537322187824
 30
0.0
 11
686.9848237678428
 21
357.0537322187824
 31
0.0
  0
ARC
  5
210D
330
2
100
AcDbEntity
  8
0
100
AcDbCircle
 10
690.6613276882898
 20
352.0537322187824
 30
0.0
 40
5.0
100
AcDbArc
 50
14.4775121887282
 51
90.0
  0
ARC
  5
210E
330
2
100
AcDbEntity
  8
0
100
AcDbCircle
 10
694.4072943808895
 20
351.0537322187824
 30
0.0
 40
2.0
100
AcDbArc
 50
36.86989765121137
 51
90.0
  0
ARC
  5
210F
330
2
100
AcDbEntity
  8
0
100
AcDbCircle
 10
698.4072943806076
 20
354.0537322191589
 30
0.0
 40
3.0
100
AcDbArc
 50
181.4999999999897
 51
270.0
  0
LINE
  5
2110
330
2
100
AcDbEntity
  8
0
100
AcDbLine
 10
695.408322405682
 20
353.9752013742358
 30
0.0
 11
694.8301757286275
 21
376.0537322187842
 31
0.0
  0
ARC
  5
2111
330
2
100
AcDbEntity
  8
0
100
AcDbCircle
 10
691.9731699197845
 20
370.5537322187842
 30
0.0
 40
3.0
100
AcDbArc
 50
1.499999999989714
 51
90.0
  0
ARC
  5
2112
330
2
100
AcDbEntity
  8
0
100
AcDbCircle
 10
691.9731699197845
 20
381.5537322187842
 30
0.0
 40
3.0
100
AcDbArc
 50
270.0
 51
358.5000000000102
  0
LINE
  5
2113
330
2
100
AcDbEntity
  8
0
100
AcDbLine
 10
685.1551119249192
 20
373.5537322187842
 30
0.0
 11
691.9731699197845
 21
373.5537322187842
 31
0.0
  0
LINE
  5
2114
330
2
100
AcDbEntity
  8
0
100
AcDbLine
 10
685.1551119249037
 20
378.5537322187842
 30
0.0
 11
691.9731699197849
 21
378.5537322187842
 31
0.0
  0
ARC
  5
2115
330
2
100
AcDbEntity
  8
0
100
AcDbCircle
 10
677.6267216387785
 20
377.0537322187842
 30
0.0
 40
1.0
100
AcDbArc
 50
181.4999999999897
 51
270.0
  0
LINE
  5
2116
330
2
100
AcDbEntity
  8
0
100
AcDbLine
 10
677.6267216387785
 20
376.0537322187842
 30
0.0
 11
681.9848237678423
 21
376.0537322187842
 31
0.0
  0
ARC
  5
2117
330
2
100
AcDbEntity
  8
0
100
AcDbCircle
 10
685.1551119249192
 20
370.5537322187842
 30
0.0
 40
3.0
100
AcDbArc
 50
90.0
 51
179.5000000000344
  0
ARC
  5
2118
330
2
100
AcDbEntity
  8
0
100
AcDbCircle
 10
685.1551119249037
 20
381.5537322187842
 30
0.0
 40
3.0
100
AcDbArc
 50
180.4999999999655
 51
270.0
  0
ARC
  5
2119
330
2
100
AcDbEntity
  8
0
100
AcDbCircle
 10
702.0049342793562
 20
346.0537322191589
 30
0.0
 40
5.0
100
AcDbArc
 50
8.213210698669559
 51
90.0
  0
LINE
  5
211A
330
2
100
AcDbEntity
  8
0
100
AcDbLine
 10
706.9338228597347
 20
347.001378322167
 30
0.0
 11
706.1730601991925
 21
376.0537322187842
 31
0.0
  0
ARC
  5
211B
330
2
100
AcDbEntity
  8
0
100
AcDbCircle
 10
708.9331375096861
 20
347.0537322187842
 30
0.0
 40
2.0
100
AcDbArc
 50
181.4999999999897
 51
270.0
  0
LINE
  5
211C
330
2
100
AcDbEntity
  8
0
100
AcDbLine
 10
714.9848237678428
 20
345.0537322187842
 30
0.0
 11
708.9331375096861
 21
345.0537322187842
 31
0.0
  0
LINE
  5
211D
330
2
100
AcDbEntity
  8
0
100
AcDbLine
 10
706.1730601991925
 20
376.0537322187842
 30
0.0
 11
714.984823764816
 21
376.0537322187842
 31
0.0
  0
LINE
  5
211E
330
2
100
AcDbEntity
  8
0
100
AcDbLine
 10
581.6848237678417
 20
420.5537322187842
 30
0.0
 11
634.2848237678425
 21
420.5537322187842
 31
0.0
  0
LINE
  5
211F
330
2
100
AcDbEntity
  8
0
100
AcDbLine
 10
636.4848237678423
 20
415.0537322187861
 30
0.0
 11
579.4848237678446
 21
415.0537322187861
 31
0.0
  0
LINE
  5
2120
330
2
100
AcDbEntity
  8
0
100
AcDbLine
 10
578.4848237678342
 20
413.5537322187879
 30
0.0
 11
647.9848237678424
 21
413.5537322187879
 31
0.0
  0
LINE
  5
2121
330
2
100
AcDbEntity
  8
0
100
AcDbLine
 10
578.4848237678342
 20
414.5537322187896
 30
0.0
 11
638.5706102054695
 21
414.5537322187896
 31
0.0
  0
LINE
  5
2122
330
2
100
AcDbEntity
  8
0
100
AcDbLine
 10
582.0621740370333
 20
423.0537322187879
 30
0.0
 11
633.9074734986519
 21
423.0537322187879
 31
0.0
  0
LINE
  5
2123
330
2
100
AcDbEntity
  8
0
100
AcDbLine
 10
634.2848237678425
 20
418.553732218786
 30
0.0
 11
581.6848237678835
 21
418.5537322188243
 31
0.0
  0
LINE
  5
2124
330
2
100
AcDbEntity
  8
0
100
AcDbLine
 10
681.9848237678423
 20
401.0537322187897
 30
0.0
 11
566.9848237678423
 21
401.0537322187806
 31
0.0
  0
LINE
  5
2125
330
2
100
AcDbEntity
  8
0
100
AcDbLine
 10
581.4848237678415
 20
422.0537322187842
 30
0.0
 11
634.4848237678428
 21
422.053732218786
 31
0.0
  0
LINE
  5
2126
330
2
100
AcDbEntity
  8
0
100
AcDbLine
 10
634.4848237678428
 20
418.3537322187853
 30
0.0
 11
581.4848237678419
 21
418.3537322187835
 31
0.0
  0
LINE
  5
2127
330
2
100
AcDbEntity
  8
0
100
AcDbLine
 10
581.4848237678419
 20
418.3537322187835
 30
0.0
 11
581.4848237678424
 21
415.0537322187842
 31
0.0
  0
LINE
  5
2128
330
2
100
AcDbEntity
  8
HIDS
100
AcDbLine
 10
576.2777169866543
 20
413.846625437603
 30
0.0
 11
576.6919305490262
 21
414.2608389999745
 31
0.0
  0
LINE
  5
2129
330
2
100
AcDbEntity
  8
0
100
AcDbLine
 10
579.4848237678446
 20
415.0537322187861
 30
0.0
 11
578.9848237678428
 21
414.5537322187824
 31
0.0
  0
LINE
  5
212A
330
2
100
AcDbEntity
  8
0
100
AcDbLine
 10
581.4848237678415
 20
422.0537322187842
 30
0.0
 11
582.0621740370309
 21
423.0537322187842
 31
0.0
  0
LINE
  5
212B
330
2
100
AcDbEntity
  8
0
100
AcDbLine
 10
582.1848237678417
 20
420.3537322187835
 30
0.0
 11
582.1848237678417
 21
418.7537322187831
 31
0.0
  0
LINE
  5
212C
330
2
100
AcDbEntity
  8
0
100
AcDbLine
 10
581.6848237678422
 20
418.5537322187842
 30
0.0
 11
581.4848237678419
 21
418.3537322187835
 31
0.0
  0
LINE
  5
212D
330
2
100
AcDbEntity
  8
0
100
AcDbLine
 10
581.4848237678415
 20
422.0537322187842
 30
0.0
 11
581.4848237678419
 21
420.7537322187831
 31
0.0
  0
LINE
  5
212E
330
2
100
AcDbEntity
  8
0
100
AcDbLine
 10
568.0852208258219
 20
413.5537322187879
 30
0.0
 11
568.4848237678342
 21
413.5537322187879
 31
0.0
  0
LINE
  5
212F
330
2
100
AcDbEntity
  8
HIDS
100
AcDbLine
 10
568.4848237678342
 20
413.5537322187879
 30
0.0
 11
578.4848237678342
 21
413.5537322187879
 31
0.0
  0
ARC
  5
2130
330
2
100
AcDbEntity
  8
0
100
AcDbCircle
 10
568.0852208258219
 20
412.5537322187879
 30
0.0
 40
1.0
100
AcDbArc
 50
90.0
 51
179.5000000000344
  0
LINE
  5
2131
330
2
100
AcDbEntity
  8
HIDS
100
AcDbLine
 10
577.399037330213
 20
414.5537322187896
 30
0.0
 11
578.4848237678342
 21
414.5537322187896
 31
0.0
  0
LINE
  5
2132
330
2
100
AcDbEntity
  8
0
100
AcDbLine
 10
566.9848237678423
 20
401.0537322187806
 30
0.0
 11
567.085258902758
 21
412.5624587542874
 31
0.0
  0
ARC
  5
2133
330
2
100
AcDbEntity
  8
HIDS
100
AcDbCircle
 10
577.399037330213
 20
413.5537322187879
 30
0.0
 40
1.0
100
AcDbArc
 50
90.0
 51
135.0000000000092
  0
ARC
  5
2134
330
2
100
AcDbEntity
  8
HIDS
100
AcDbCircle
 10
575.5706102054672
 20
414.5537322187879
 30
0.0
 40
1.0
100
AcDbArc
 50
270.0
 51
315.0000000000092
  0
ARC
  5
2135
330
2
100
AcDbEntity
  8
0
100
AcDbCircle
 10
581.6848237678417
 20
420.7537322187831
 30
0.0
 40
0.2
100
AcDbArc
 50
180.0
 51
270.0
  0
ARC
  5
2136
330
2
100
AcDbEntity
  8
0
100
AcDbCircle
 10
581.9848237678419
 20
420.3537322187835
 30
0.0
 40
0.2
100
AcDbArc
 50
0.0
 51
90.0
  0
ARC
  5
2137
330
2
100
AcDbEntity
  8
0
100
AcDbCircle
 10
581.9848237678419
 20
418.7537322187831
 30
0.0
 40
0.2
100
AcDbArc
 50
270.0
 51
0.0
  0
LINE
  5
2138
330
2
100
AcDbEntity
  8
0
100
AcDbLine
 10
571.9848237678428
 20
401.0537322187824
 30
0.0
 11
571.9848237678428
 21
407.5624587542875
 31
0.0
  0
LINE
  5
2139
330
2
100
AcDbEntity
  8
0
100
AcDbLine
 10
574.9848237678428
 20
401.0537322187824
 30
0.0
 11
574.9848237678428
 21
407.5624587542875
 31
0.0
  0
LINE
  5
213A
330
2
100
AcDbEntity
  8
0
100
AcDbLine
 10
589.6927886019751
 20
401.0537322187824
 30
0.0
 11
589.6927886019751
 21
412.5537322187879
 31
0.0
  0
LINE
  5
213B
330
2
100
AcDbEntity
  8
0
100
AcDbLine
 10
580.5198073943273
 20
412.5624587542874
 30
0.0
 11
580.4891491240772
 21
409.0493689510399
 31
0.0
  0
LINE
  5
213C
330
2
100
AcDbEntity
  8
0
100
AcDbLine
 10
579.9891681625452
 20
408.5537322187897
 30
0.0
 11
568.0415864868681
 21
408.5537322187897
 31
0.0
  0
ARC
  5
213D
330
2
100
AcDbEntity
  8
0
100
AcDbCircle
 10
581.5197693173953
 20
412.5537322187897
 30
0.0
 40
1.0
100
AcDbArc
 50
90.0
 51
179.5000000000344
  0
ARC
  5
213E
330
2
100
AcDbEntity
  8
0
100
AcDbCircle
 10
579.9891681625457
 20
409.0537322187897
 30
0.0
 40
0.5
100
AcDbArc
 50
269.9999999999478
 51
359.5000000000345
  0
ARC
  5
213F
330
2
100
AcDbEntity
  8
0
100
AcDbCircle
 10
568.0415864868681
 20
407.5537322187897
 30
0.0
 40
1.0
100
AcDbArc
 50
90.0
 51
179.5000000000344
  0
LINE
  5
2140
330
2
100
AcDbEntity
  8
CENTER
100
AcDbLine
 10
573.4848237678346
 20
398.0537322187842
 30
0.0
 11
573.4848237678342
 21
419.0537322187897
 31
0.0
  0
LINE
  5
2141
330
2
100
AcDbEntity
  8
0
100
AcDbLine
 10
578.4848237678342
 20
415.65373221879
 30
0.0
 11
577.7920034448064
 21
416.0537322187897
 31
0.0
  0
LINE
  5
2142
330
2
100
AcDbEntity
  8
0
100
AcDbLine
 10
578.4848237678342
 20
410.0537322187896
 30
0.0
 11
568.4848237678342
 21
410.0537322187896
 31
0.0
  0
LINE
  5
2143
330
2
100
AcDbEntity
  8
0
100
AcDbLine
 10
578.4848237678342
 20
415.65373221879
 30
0.0
 11
568.4848237678342
 21
415.65373221879
 31
0.0
  0
LINE
  5
2144
330
2
100
AcDbEntity
  8
0
100
AcDbLine
 10
578.4848237678342
 20
408.5537322187897
 30
0.0
 11
578.4848237678342
 21
415.65373221879
 31
0.0
  0
LINE
  5
2145
330
2
100
AcDbEntity
  8
0
100
AcDbLine
 10
568.4848237678342
 20
408.5537322187897
 30
0.0
 11
568.4848237678342
 21
415.65373221879
 31
0.0
  0
LINE
  5
2146
330
2
100
AcDbEntity
  8
0
100
AcDbLine
 10
568.4848237678342
 20
415.65373221879
 30
0.0
 11
569.1776440908618
 21
416.0537322187897
 31
0.0
  0
LINE
  5
2147
330
2
100
AcDbEntity
  8
0
100
AcDbLine
 10
577.7920034448064
 20
416.0537322187897
 30
0.0
 11
569.1776440908614
 21
416.0537322187897
 31
0.0
  0
LINE
  5
2148
330
2
100
AcDbEntity
  8
0
100
AcDbLine
 10
568.4848237678342
 20
408.5537322187897
 30
0.0
 11
578.4848237678342
 21
408.5537322187897
 31
0.0
  0
LINE
  5
2149
330
2
100
AcDbEntity
  8
0
100
AcDbLine
 10
626.2768589337095
 20
401.0537322187824
 30
0.0
 11
626.2768589337095
 21
412.5537322187879
 31
0.0
  0
LINE
  5
214A
330
2
100
AcDbEntity
  8
0
100
AcDbLine
 10
698.4072943806076
 20
401.0537322184095
 30
0.0
 11
702.0049342793562
 21
401.0537322184095
 31
0.0
  0
LINE
  5
214B
330
2
100
AcDbEntity
  8
0
100
AcDbLine
 10
649.9848237678423
 20
411.5537322187897
 30
0.0
 11
670.4848237678428
 21
411.5537322187897
 31
0.0
  0
LINE
  5
214C
330
2
100
AcDbEntity
  8
0
100
AcDbLine
 10
634.4848237678428
 20
418.3537322187853
 30
0.0
 11
634.4848237678424
 21
415.0537322187861
 31
0.0
  0
LINE
  5
214D
330
2
100
AcDbEntity
  8
0
100
AcDbLine
 10
634.4848237678428
 20
415.0537322187897
 30
0.0
 11
636.4848237678369
 21
415.0537322187897
 31
0.0
  0
LINE
  5
214E
330
2
100
AcDbEntity
  8
0
100
AcDbLine
 10
636.4848237678423
 20
415.0537322187861
 30
0.0
 11
636.9848237678423
 21
414.5537322187861
 31
0.0
  0
LINE
  5
214F
330
2
100
AcDbEntity
  8
0
100
AcDbLine
 10
639.6919305490304
 20
413.846625437603
 30
0.0
 11
639.2777169866566
 21
414.2608389999764
 31
0.0
  0
ARC
  5
2150
330
2
100
AcDbEntity
  8
0
100
AcDbCircle
 10
649.9848237678423
 20
412.5537322187897
 30
0.0
 40
1.0
100
AcDbArc
 50
180.0
 51
270.0
  0
ARC
  5
2151
330
2
100
AcDbEntity
  8
0
100
AcDbCircle
 10
647.9848237678424
 20
412.5537322187879
 30
0.0
 40
1.0
100
AcDbArc
 50
0.0
 51
90.0
  0
LINE
  5
2152
330
2
100
AcDbEntity
  8
0
100
AcDbLine
 10
648.9848237678423
 20
412.5537322187897
 30
0.0
 11
648.9848237678423
 21
412.5537322187879
 31
0.0
  0
LINE
  5
2153
330
2
100
AcDbEntity
  8
0
100
AcDbLine
 10
634.4848237678428
 20
422.053732218786
 30
0.0
 11
634.4848237678428
 21
420.753732218785
 31
0.0
  0
LINE
  5
2154
330
2
100
AcDbEntity
  8
0
100
AcDbLine
 10
634.2848237678425
 20
418.553732218786
 30
0.0
 11
634.4848237678428
 21
418.3537322187853
 31
0.0
  0
LINE
  5
2155
330
2
100
AcDbEntity
  8
0
100
AcDbLine
 10
633.7848237678429
 20
420.3537322187854
 30
0.0
 11
633.7848237678425
 21
418.7537322187849
 31
0.0
  0
LINE
  5
2156
330
2
100
AcDbEntity
  8
0
100
AcDbLine
 10
634.4848237678428
 20
422.053732218786
 30
0.0
 11
633.9074734986533
 21
423.0537322187861
 31
0.0
  0
ARC
  5
2157
330
2
100
AcDbEntity
  8
0
100
AcDbCircle
 10
638.5706102054695
 20
413.5537322187897
 30
0.0
 40
1.0
100
AcDbArc
 50
44.99999999999078
 51
90.0
  0
ARC
  5
2158
330
2
100
AcDbEntity
  8
0
100
AcDbCircle
 10
640.3990373302175
 20
414.5537322187879
 30
0.0
 40
1.0
100
AcDbArc
 50
224.9999999999908
 51
270.0
  0
ARC
  5
2159
330
2
100
AcDbEntity
  8
0
100
AcDbCircle
 10
634.2848237678425
 20
420.753732218785
 30
0.0
 40
0.2
100
AcDbArc
 50
270.0
 51
0.0
  0
ARC
  5
215A
330
2
100
AcDbEntity
  8
0
100
AcDbCircle
 10
633.9848237678428
 20
420.3537322187854
 30
0.0
 40
0.2
100
AcDbArc
 50
90.0
 51
180.0
  0
ARC
  5
215B
330
2
100
AcDbEntity
  8
0
100
AcDbCircle
 10
633.9848237678428
 20
418.7537322187849
 30
0.0
 40
0.2
100
AcDbArc
 50
180.0
 51
270.0
  0
LINE
  5
215C
330
2
100
AcDbEntity
  8
0
100
AcDbLine
 10
648.9848237678423
 20
412.5537322187879
 30
0.0
 11
648.9848237678423
 21
401.053732218786
 31
0.0
  0
LINE
  5
215D
330
2
100
AcDbEntity
  8
0
100
AcDbLine
 10
643.9848237678428
 20
401.0537322187824
 30
0.0
 11
643.9848237678428
 21
412.5537322187879
 31
0.0
  0
LINE
  5
215E
330
2
100
AcDbEntity
  8
0
100
AcDbLine
 10
640.9848237678428
 20
401.0537322187824
 30
0.0
 11
640.9848237678428
 21
412.5537322187879
 31
0.0
  0
ARC
  5
215F
330
2
100
AcDbEntity
  8
0
100
AcDbCircle
 10
698.4072943806076
 20
398.0537322184095
 30
0.0
 40
3.0
100
AcDbArc
 50
90.0
 51
178.5000000000102
  0
ARC
  5
2160
330
2
100
AcDbEntity
  8
0
100
AcDbCircle
 10
694.4072943808895
 20
401.0537322187842
 30
0.0
 40
2.0
100
AcDbArc
 50
270.0
 51
323.1301023487886
  0
LINE
  5
2161
330
2
100
AcDbEntity
  8
0
100
AcDbLine
 10
694.4072943808895
 20
399.0537322187842
 30
0.0
 11
683.9848999246122
 21
399.0537322187842
 31
0.0
  0
ARC
  5
2162
330
2
100
AcDbEntity
  8
0
100
AcDbCircle
 10
683.9848237678424
 20
401.0537322187842
 30
0.0
 40
2.0
100
AcDbArc
 50
180.0
 51
270.0
  0
ARC
  5
2163
330
2
100
AcDbEntity
  8
0
100
AcDbCircle
 10
686.9848237678423
 20
400.0537322187843
 30
0.0
 40
5.0
100
AcDbArc
 50
180.0
 51
270.0
  0
LINE
  5
2164
330
2
100
AcDbEntity
  8
0
100
AcDbLine
 10
690.6613276882898
 20
395.0537322187842
 30
0.0
 11
686.9848237678428
 21
395.0537322187842
 31
0.0
  0
ARC
  5
2165
330
2
100
AcDbEntity
  8
0
100
AcDbCircle
 10
690.6613276882898
 20
400.0537322187843
 30
0.0
 40
5.0
100
AcDbArc
 50
270.0
 51
345.5224878112717
  0
LINE
  5
2166
330
2
100
AcDbEntity
  8
0
100
AcDbLine
 10
680.4848237678428
 20
411.5537322187897
 30
0.0
 11
680.9018804454439
 21
411.5537322187897
 31
0.0
  0
LINE
  5
2167
330
2
100
AcDbEntity
  8
0
100
AcDbLine
 10
668.9848237678428
 20
408.5537322187897
 30
0.0
 11
680.9280610488166
 21
408.5537322187897
 31
0.0
  0
LINE
  5
2168
330
2
100
AcDbEntity
  8
0
100
AcDbLine
 10
681.9848237678428
 20
401.0537322187879
 30
0.0
 11
681.9018423685082
 21
410.5624587542875
 31
0.0
  0
ARC
  5
2169
330
2
100
AcDbEntity
  8
0
100
AcDbCircle
 10
680.9280610488166
 20
407.5537322187897
 30
0.0
 40
1.0
100
AcDbArc
 50
0.4999999999654926
 51
90.0
  0
ARC
  5
216A
330
2
100
AcDbEntity
  8
0
100
AcDbCircle
 10
680.9018804454439
 20
410.5537322187897
 30
0.0
 40
1.0
100
AcDbArc
 50
0.4999999999654926
 51
90.0
  0
LINE
  5
216B
330
2
100
AcDbEntity
  8
0
100
AcDbLine
 10
681.9848237678423
 20
401.0537322187897
 30
0.0
 11
678.4848237678423
 21
401.0537322187879
 31
0.0
  0
LINE
  5
216C
330
2
100
AcDbEntity
  8
0
100
AcDbLine
 10
668.4848237678428
 20
410.5537322187897
 30
0.0
 11
668.4848237678428
 21
409.0537322187897
 31
0.0
  0
ARC
  5
216D
330
2
100
AcDbEntity
  8
0
100
AcDbCircle
 10
667.4848237678428
 20
410.5537322187897
 30
0.0
 40
1.0
100
AcDbArc
 50
0.0
 51
90.0
  0
ARC
  5
216E
330
2
100
AcDbEntity
  8
0
100
AcDbCircle
 10
668.9848237678428
 20
409.0537322187897
 30
0.0
 40
0.5
100
AcDbArc
 50
180.0
 51
270.0
  0
LINE
  5
216F
330
2
100
AcDbEntity
  8
CENTER
100
AcDbLine
 10
675.4848237678437
 20
398.0537322187842
 30
0.0
 11
675.4848237678428
 21
419.0537322187897
 31
0.0
  0
LINE
  5
2170
330
2
100
AcDbEntity
  8
0
100
AcDbLine
 10
680.4848237678428
 20
415.65373221879
 30
0.0
 11
679.7920034448155
 21
416.0537322187897
 31
0.0
  0
LINE
  5
2171
330
2
100
AcDbEntity
  8
0
100
AcDbLine
 10
680.4848237678428
 20
410.0537322187896
 30
0.0
 11
670.4848237678428
 21
410.0537322187896
 31
0.0
  0
LINE
  5
2172
330
2
100
AcDbEntity
  8
0
100
AcDbLine
 10
680.4848237678428
 20
415.65373221879
 30
0.0
 11
670.4848237678428
 21
415.65373221879
 31
0.0
  0
LINE
  5
2173
330
2
100
AcDbEntity
  8
0
100
AcDbLine
 10
680.4848237678428
 20
408.5537322187897
 30
0.0
 11
680.4848237678428
 21
415.65373221879
 31
0.0
  0
LINE
  5
2174
330
2
100
AcDbEntity
  8
0
100
AcDbLine
 10
670.4848237678428
 20
408.5537322187897
 30
0.0
 11
670.4848237678428
 21
415.65373221879
 31
0.0
  0
LINE
  5
2175
330
2
100
AcDbEntity
  8
0
100
AcDbLine
 10
670.4848237678428
 20
415.65373221879
 30
0.0
 11
671.1776440908705
 21
416.0537322187897
 31
0.0
  0
LINE
  5
2176
330
2
100
AcDbEntity
  8
0
100
AcDbLine
 10
679.7920034448155
 20
416.0537322187897
 30
0.0
 11
671.1776440908701
 21
416.0537322187897
 31
0.0
  0
LINE
  5
2177
330
2
100
AcDbEntity
  8
0
100
AcDbLine
 10
670.4848237678428
 20
408.5537322187897
 30
0.0
 11
680.4848237678428
 21
408.5537322187897
 31
0.0
  0
LINE
  5
2178
330
2
100
AcDbEntity
  8
HIDS
100
AcDbLine
 10
670.4848237678428
 20
411.5537322187897
 30
0.0
 11
680.4848237678428
 21
411.5537322187897
 31
0.0
  0
ARC
  5
2179
330
2
100
AcDbEntity
  8
0
100
AcDbCircle
 10
702.0049342793562
 20
406.0537322184095
 30
0.0
 40
5.0
100
AcDbArc
 50
270.0
 51
351.7867893013304
  0
ARC
  5
217A
330
2
100
AcDbEntity
  8
0
100
AcDbCircle
 10
708.9331375096861
 20
405.0537322187842
 30
0.0
 40
2.0
100
AcDbArc
 50
90.0
 51
178.5000000000102
  0
LINE
  5
217B
330
2
100
AcDbEntity
  8
0
100
AcDbLine
 10
714.9848237678428
 20
407.0537322187842
 30
0.0
 11
708.9331375096861
 21
407.0537322187842
 31
0.0
  0
LINE
  5
2465
330
2
100
AcDbEntity
  8
0
100
AcDbLine
 10
428.7808511358965
 20
100.4216021945874
 30
0.0
 11
399.2808511358973
 21
100.4216021945874
 31
0.0
  0
LINE
  5
2466
330
2
100
AcDbEntity
  8
0
100
AcDbLine
 10
399.2808511358973
 20
118.4216021945874
 30
0.0
 11
428.7808511358965
 21
118.4216021945874
 31
0.0
  0
LINE
  5
2467
330
2
100
AcDbEntity
  8
0
100
AcDbLine
 10
405.2808511358355
 20
112.4215315301867
 30
0.0
 11
429.2808511358964
 21
112.4215561946011
 31
0.0
  0
LINE
  5
2468
330
2
100
AcDbEntity
  8
0
100
AcDbLine
 10
405.2808511358355
 20
106.4215315301585
 30
0.0
 11
429.2808511358964
 21
106.4215561945729
 31
0.0
  0
LINE
  5
246A
330
2
100
AcDbEntity
  8
0
100
AcDbLine
 10
399.2808511358973
 20
119.421601905874
 30
0.0
 11
399.2808511358973
 21
99.42160190587173
 31
0.0
  0
LINE
  5
246B
330
2
100
AcDbEntity
  8
0
100
AcDbLine
 10
398.2808511358973
 20
123.1328810599925
 30
0.0
 11
398.2808511358973
 21
95.71023132918208
 31
0.0
  0
ARC
  5
246C
330
2
100
AcDbEntity
  8
0
100
AcDbCircle
 10
397.7808511358973
 20
123.1328810599925
 30
0.0
 40
0.5
100
AcDbArc
 50
0.0
 51
60.00000000000109
  0
LINE
  5
246D
330
2
100
AcDbEntity
  8
0
100
AcDbLine
 10
399.2808511358973
 20
119.421601905874
 30
0.0
 11
398.2808511358973
 21
119.9989521750635
 31
0.0
  0
LINE
  5
246E
330
2
100
AcDbEntity
  8
0
100
AcDbLine
 10
399.2808511358973
 20
99.42151048330039
 30
0.0
 11
398.2808511358973
 21
98.84416021411063
 31
0.0
  0
LINE
  5
246F
330
2
100
AcDbEntity
  8
0
100
AcDbLine
 10
398.0308511358973
 20
123.5658937618845
 30
0.0
 11
397.8790129000465
 21
123.6535576082264
 31
0.0
  0
ARC
  5
2470
330
2
100
AcDbEntity
  8
0
100
AcDbCircle
 10
396.8790129000465
 20
121.9215068006574
 30
0.0
 40
2.0
100
AcDbArc
 50
60.00000000000109
 51
78.40928831454857
  0
ARC
  5
2471
330
2
100
AcDbEntity
  8
0
100
AcDbCircle
 10
397.7808511358973
 20
95.71023132918208
 30
0.0
 40
0.5
100
AcDbArc
 50
299.9999999999989
 51
0.0
  0
LINE
  5
2472
330
2
100
AcDbEntity
  8
0
100
AcDbLine
 10
398.0308511358973
 20
95.27721862728981
 30
0.0
 11
397.8790129000465
 21
95.18955478094813
 31
0.0
  0
ARC
  5
2473
330
2
100
AcDbEntity
  8
0
100
AcDbCircle
 10
396.8790129000465
 20
96.92160558851696
 30
0.0
 40
2.0
100
AcDbArc
 50
281.5907116854513
 51
299.9999999999989
  0
ARC
  5
2474
330
2
100
AcDbEntity
  8
0
100
AcDbCircle
 10
405.2808511358355
 20
109.4215315301726
 30
0.0
 40
3.000000000014103
100
AcDbArc
 50
90.0
 51
270.0
  0
LINE
  5
2476
330
2
100
AcDbEntity
  8
0
100
AcDbLine
 10
616.9848697678426
 20
323.0537322187806
 30
0.0
 11
616.9848697678426
 21
293.5537322187815
 31
0.0
  0
LINE
  5
2477
330
2
100
AcDbEntity
  8
0
100
AcDbLine
 10
596.4848697678471
 20
320.0537322187551
 30
0.0
 11
596.4848697678471
 21
293.0537322187815
 31
0.0
  0
LINE
  5
2478
330
2
100
AcDbEntity
  8
0
100
AcDbLine
 10
599.4994936032862
 20
317.0537322188424
 30
0.0
 11
599.4994936032862
 21
293.0537322187815
 31
0.0
  0
LINE
  5
247C
330
2
100
AcDbEntity
  8
0
100
AcDbLine
 10
429.2808511358964
 20
117.9216021945874
 30
0.0
 11
429.2808511358964
 21
100.9216021945874
 31
0.0
  0
LINE
  5
247D
330
2
100
AcDbEntity
  8
0
100
AcDbLine
 10
428.7808511358965
 20
118.4216021945874
 30
0.0
 11
429.2808511358964
 21
117.9216021945874
 31
0.0
  0
LINE
  5
247E
330
2
100
AcDbEntity
  8
0
100
AcDbLine
 10
429.2808511358964
 20
100.9216021945874
 30
0.0
 11
428.7808511358965
 21
100.4216021945874
 31
0.0
  0
LINE
  5
247F
330
2
100
AcDbEntity
  8
0
100
AcDbLine
 10
428.7808511358965
 20
118.4216021945874
 30
0.0
 11
428.7808511358965
 21
112.4215556807594
 31
0.0
  0
LINE
  5
2480
330
2
100
AcDbEntity
  8
0
100
AcDbLine
 10
428.7808511358965
 20
106.4215556807312
 30
0.0
 11
428.7808511358965
 21
100.4216021945874
 31
0.0
  0
ARC
  5
2481
330
2
100
AcDbEntity
  8
0
100
AcDbCircle
 10
607.9848237678431
 20
109.4215561945828
 30
0.0
 40
9.000045999985673
100
AcDbArc
 50
199.4711170987098
 51
160.5288829012901
  0
ARC
  5
2482
330
2
100
AcDbEntity
  8
0
100
AcDbCircle
 10
607.9848237678549
 20
109.42155619458
 30
0.0
 40
10.00004571127499
100
AcDbArc
 50
197.4575207583709
 51
162.5424792415863
  0
ARC
  5
2483
330
2
100
AcDbEntity
  8
0
100
AcDbCircle
 10
607.9848237678549
 20
109.42155619458
 30
0.0
 40
10.57739598046464
100
AcDbArc
 50
196.4765970291204
 51
163.5234029708387
  0
CIRCLE
  5
2484
330
2
100
AcDbEntity
  8
0
100
AcDbCircle
 10
607.9848237678549
 20
109.4215561945941
 30
0.0
 40
14.49995060603862
  0
LINE
  5
2486
330
2
100
AcDbEntity
  8
0
100
AcDbLine
 10
596.4848697678287
 20
106.4215561945832
 30
0.0
 11
602.4848697678287
 21
106.4215561945832
 31
0.0
  0
LINE
  5
2487
330
2
100
AcDbEntity
  8
0
100
AcDbLine
 10
596.4848697678287
 20
112.4215561945832
 30
0.0
 11
602.4848697678287
 21
112.4215561945832
 31
0.0
  0
LINE
  5
2488
330
2
100
AcDbEntity
  8
0
100
AcDbLine
 10
602.4848697678287
 20
112.4215561945832
 30
0.0
 11
602.4848697678287
 21
106.4215561945832
 31
0.0
  0
LINE
  5
2489
330
2
100
AcDbEntity
  8
0
100
AcDbLine
 10
596.4848697678287
 20
112.4215561945832
 30
0.0
 11
596.4848697678287
 21
106.4215561945832
 31
0.0
  0
LINE
  5
248A
330
2
100
AcDbEntity
  8
0
100
AcDbLine
 10
616.4848697678426
 20
293.0537322187815
 30
0.0
 11
596.4848697678471
 21
293.0537322187815
 31
0.0
  0
LINE
  5
248B
330
2
100
AcDbEntity
  8
0
100
AcDbLine
 10
616.9848697678426
 20
293.5537322187815
 30
0.0
 11
599.4994936032871
 21
293.5537322187815
 31
0.0
  0
LINE
  5
248C
330
2
100
AcDbEntity
  8
0
100
AcDbLine
 10
616.9848697678426
 20
293.5537322187815
 30
0.0
 11
616.4848697678426
 21
293.0537322187815
 31
0.0
  0
LINE
  5
248F
330
2
100
AcDbEntity
  8
0
100
AcDbLine
 10
873.1165162262518
 20
118.4215101945906
 30
0.0
 11
902.6165162262509
 21
118.4215101945906
 31
0.0
  0
LINE
  5
2490
330
2
100
AcDbEntity
  8
0
100
AcDbLine
 10
902.6165162262509
 20
100.4215101945906
 30
0.0
 11
873.1165162262518
 21
100.4215101945906
 31
0.0
  0
LINE
  5
2491
330
2
100
AcDbEntity
  8
0
100
AcDbLine
 10
872.6165162262518
 20
100.9215101945906
 30
0.0
 11
872.6165162262518
 21
117.9215101945906
 31
0.0
  0
LINE
  5
2492
330
2
100
AcDbEntity
  8
0
100
AcDbLine
 10
873.1165162262518
 20
118.4215101945906
 30
0.0
 11
872.6165162262518
 21
117.9215101945906
 31
0.0
  0
LINE
  5
2493
330
2
100
AcDbEntity
  8
0
100
AcDbLine
 10
873.1165162262518
 20
100.4215101945906
 30
0.0
 11
872.6165162262518
 21
100.9215101945906
 31
0.0
  0
LINE
  5
2494
330
2
100
AcDbEntity
  8
0
100
AcDbLine
 10
873.1165162262518
 20
100.4215101945906
 30
0.0
 11
873.1165162262518
 21
118.4215101945906
 31
0.0
  0
LINE
  5
2495
330
2
100
AcDbEntity
  8
0
100
AcDbLine
 10
902.6165162262509
 20
99.4215104833043
 30
0.0
 11
902.6165162262509
 21
119.4215104833061
 31
0.0
  0
LINE
  5
2496
330
2
100
AcDbEntity
  8
0
100
AcDbLine
 10
903.6165162262509
 20
95.71023132918577
 30
0.0
 11
903.6165162262509
 21
123.1328810599966
 31
0.0
  0
ARC
  5
2497
330
2
100
AcDbEntity
  8
0
100
AcDbCircle
 10
904.116516226251
 20
95.71023132918577
 30
0.0
 40
0.5
100
AcDbArc
 50
180.0
 51
240.0000000000002
  0
LINE
  5
2498
330
2
100
AcDbEntity
  8
0
100
AcDbLine
 10
902.6165162262509
 20
99.4215104833043
 30
0.0
 11
903.6165162262509
 21
98.84416021411432
 31
0.0
  0
LINE
  5
2499
330
2
100
AcDbEntity
  8
0
100
AcDbLine
 10
902.6165162262509
 20
119.4216019058781
 30
0.0
 11
903.6165162262509
 21
119.9989521750672
 31
0.0
  0
LINE
  5
249A
330
2
100
AcDbEntity
  8
0
100
AcDbLine
 10
903.8665162262509
 20
95.27721862729373
 30
0.0
 11
904.0183544621017
 21
95.18955478095227
 31
0.0
  0
ARC
  5
249B
330
2
100
AcDbEntity
  8
0
100
AcDbCircle
 10
905.0183544621019
 20
96.92160558852044
 30
0.0
 40
2.0
100
AcDbArc
 50
240.0000000000002
 51
258.4092883145486
  0
ARC
  5
249C
330
2
100
AcDbEntity
  8
0
100
AcDbCircle
 10
904.116516226251
 20
123.1328810599966
 30
0.0
 40
0.5
100
AcDbArc
 50
119.9999999999997
 51
180.0
  0
LINE
  5
249D
330
2
100
AcDbEntity
  8
0
100
AcDbLine
 10
903.8665162262509
 20
123.5658937618887
 30
0.0
 11
904.0183544621017
 21
123.6535576082301
 31
0.0
  0
ARC
  5
249E
330
2
100
AcDbEntity
  8
0
100
AcDbCircle
 10
905.0183544621019
 20
121.9215068006611
 30
0.0
 40
2.0
100
AcDbArc
 50
101.5907116854514
 51
119.9999999999997
  0
LINE
  5
24A0
330
2
100
AcDbEntity
  8
0
100
AcDbLine
 10
617.984869479129
 20
323.0537322187806
 30
0.0
 11
597.9848694791272
 21
323.0537322187806
 31
0.0
  0
LINE
  5
24A1
330
2
100
AcDbEntity
  8
0
100
AcDbLine
 10
621.6961486332475
 20
324.0537322187806
 30
0.0
 11
594.2734989024366
 21
324.0537322187806
 31
0.0
  0
LINE
  5
24A2
330
2
100
AcDbEntity
  8
0
100
AcDbLine
 10
598.9848697678426
 20
320.0537322187551
 30
0.0
 11
598.9848697678426
 21
323.0537322187806
 31
0.0
  0
LINE
  5
24A3
330
2
100
AcDbEntity
  8
0
100
AcDbLine
 10
597.9847780565551
 20
323.0537322187806
 30
0.0
 11
597.407427787366
 21
324.0537322187806
 31
0.0
  0
ARC
  5
24A4
330
2
100
AcDbEntity
  8
0
100
AcDbCircle
 10
594.2734989024366
 20
324.5537322187806
 30
0.0
 40
0.5
100
AcDbArc
 50
209.9999999999991
 51
270.0
  0
LINE
  5
24A5
330
2
100
AcDbEntity
  8
0
100
AcDbLine
 10
593.8404862005445
 20
324.3037322187806
 30
0.0
 11
593.752822354203
 21
324.4555704546314
 31
0.0
  0
ARC
  5
24A6
330
2
100
AcDbEntity
  8
0
100
AcDbCircle
 10
595.4848731617722
 20
325.4555704546314
 30
0.0
 40
2.0
100
AcDbArc
 50
191.5907116854526
 51
209.9999999999991
  0
LINE
  5
24A7
330
2
100
AcDbEntity
  8
0
100
AcDbLine
 10
596.4848697678471
 20
320.0537322187551
 30
0.0
 11
598.9848697678426
 21
320.0537322187551
 31
0.0
  0
LINE
  5
24A8
330
2
100
AcDbEntity
  8
0
100
AcDbLine
 10
598.9848697678426
 20
320.0537322187551
 30
0.0
 11
599.4994936032862
 21
317.0537322188424
 31
0.0
  0
ARC
  5
24A9
330
2
100
AcDbEntity
  8
0
100
AcDbCircle
 10
621.6961486332475
 20
324.5537322187806
 30
0.0
 40
0.5
100
AcDbArc
 50
270.0
 51
330.0000000000008
  0
LINE
  5
24AA
330
2
100
AcDbEntity
  8
0
100
AcDbLine
 10
617.984869479129
 20
323.0537322187806
 30
0.0
 11
618.562219748319
 21
324.0537322187806
 31
0.0
  0
LINE
  5
24AB
330
2
100
AcDbEntity
  8
0
100
AcDbLine
 10
622.1291613351395
 20
324.3037322187806
 30
0.0
 11
622.2168251814809
 21
324.4555704546314
 31
0.0
  0
ARC
  5
24AC
330
2
100
AcDbEntity
  8
0
100
AcDbCircle
 10
620.4847743739128
 20
325.4555704546314
 30
0.0
 40
2.0
100
AcDbArc
 50
330.0000000000008
 51
348.4092883145473
  0
CIRCLE
  5
2826
330
2
100
AcDbEntity
  8
0
100
AcDbCircle
 10
607.9848237678549
 20
109.4215561945941
 30
0.0
 40
23.5774
  0
ENDSEC
  0
SECTION
  2
OBJECTS
  0
DICTIONARY
  5
7
330
0
100
AcDbDictionary
  3
ACAD_COLOR
350
18F2
  3
ACAD_GROUP
350
75
  3
ACAD_LAYOUT
350
61
  3
ACAD_MATERIAL
350
18C8
  3
ACAD_MLEADERSTYLE
350
1917
  3
ACAD_MLINESTYLE
350
76
  3
ACAD_PLOTSETTINGS
350
77
  3
ACAD_PLOTSTYLENAME
350
6
  3
ACAD_SCALELIST
350
18F5
  3
ACAD_TABLESTYLE
350
18F3
  3
ACAD_VISUALSTYLE
350
18E1
  3
ACADDIM
350
480
  3
ACDB_RECOMPOSE_DATA
350
19A1
  3
ACDBHEADERROUNDTRIPXREC
350
2840
  3
ACDBVARIABLEDICTIONARY
350
102
  3
DWGPROPS
350
19F1
  0
DICTIONARY
  5
19AA
330
6E
100
AcDbDictionary
280
     1
  3
ACAD_XREC_ROUNDTRIP
360
19F9
  0
DICTIONARY
  5
B13
330
66
100
AcDbDictionary
280
     1
  3
ACAD_LAYERSTATES
360
B14
  0
DICTIONARY
  5
193E
330
5E
100
AcDbDictionary
280
     1
  3
ACAD_XREC_ROUNDTRIP
360
19F4
  3
ADSK_XREC_LAYER_RECONCILED
360
193F
  0
DICTIONARY
  5
1940
330
3E
100
AcDbDictionary
280
     1
  3
ACAD_XREC_ROUNDTRIP
360
19F3
  3
ADSK_XREC_LAYER_RECONCILED
360
1941
  0
DICTIONARY
  5
1946
330
2B5
100
AcDbDictionary
280
     1
  3
ACAD_XREC_ROUNDTRIP
360
19FF
  3
ADSK_XREC_LAYER_RECONCILED
360
1947
  0
DICTIONARY
  5
1948
330
2BA
100
AcDbDictionary
280
     1
  3
ACAD_XREC_ROUNDTRIP
360
1A00
  3
ADSK_XREC_LAYER_RECONCILED
360
1949
  0
DICTIONARY
  5
194C
330
3FA
100
AcDbDictionary
280
     1
  3
ACAD_XREC_ROUNDTRIP
360
1A02
  3
ADSK_XREC_LAYER_RECONCILED
360
194D
  0
DICTIONARY
  5
2861
330
2
100
AcDbDictionary
280
     1
  3
ACAD_LAYOUTSELFREF
360
2862
  0
DICTIONARY
  5
2863
330
283A
100
AcDbDictionary
280
     1
  3
ACAD_LAYOUTSELFREF
360
2864
  0
DICTIONARY
  5
18F2
102
{ACAD_REACTORS
330
7
102
}
330
7
100
AcDbDictionary
  0
DICTIONARY
  5
75
102
{ACAD_REACTORS
330
7
102
}
330
7
100
AcDbDictionary
  0
DICTIONARY
  5
61
102
{ACAD_REACTORS
330
7
102
}
330
7
100
AcDbDictionary
  0
DICTIONARY
  5
18C8
102
{ACAD_REACTORS
330
7
102
}
330
7
100
AcDbDictionary
  3
BYBLOCK
350
18D1
  3
BYLAYER
350
18C9
  3
GLOBAL
350
18D9
  0
DICTIONARY
  5
1917
102
{ACAD_REACTORS
330
7
102
}
330
7
100
AcDbDictionary
  3
STANDARD
350
1918
  0
DICTIONARY
  5
76
102
{ACAD_REACTORS
330
7
102
}
330
7
100
AcDbDictionary
  3
STANDARD
350
78
  0
DICTIONARY
  5
77
102
{ACAD_REACTORS
330
7
102
}
330
7
100
AcDbDictionary
  0
ACDBDICTIONARYWDFLT
  5
6
102
{ACAD_REACTORS
330
7
102
}
330
7
100
AcDbDictionary
281
     1
  3
Normal
350
5
100
AcDbDictionaryWithDefault
340
5
  0
DICTIONARY
  5
18F5
102
{ACAD_REACTORS
330
7
102
}
330
7
100
AcDbDictionary
  3
A0
350
18F6
  3
A1
350
18F7
  3
A2
350
18F8
  3
A3
350
18F9
  3
A4
350
18FA
  3
A5
350
18FB
  3
A6
350
18FC
  3
A7
350
18FD
  3
A8
350
18FE
  3
A9
350
18FF
  3
B0
350
1900
  3
B1
350
1901
  3
B2
350
1902
  3
B3
350
1903
  3
B4
350
1904
  3
B5
350
1905
  3
B6
350
1906
  3
B7
350
1907
  3
B8
350
1908
  3
B9
350
1909
  3
C0
350
190A
  3
C1
350
190B
  3
C2
350
190C
  3
C3
350
190D
  3
C4
350
190E
  3
C5
350
190F
  3
C6
350
1910
  3
C7
350
1911
  3
C8
350
1912
  3
C9
350
1913
  3
D0
350
1914
  3
D1
350
1915
  3
D2
350
1916
  0
DICTIONARY
  5
18F3
102
{ACAD_REACTORS
330
7
102
}
330
7
100
AcDbDictionary
  3
STANDARD
350
18F4
  0
DICTIONARY
  5
18E1
102
{ACAD_REACTORS
330
7
102
}
330
7
100
AcDbDictionary
  3
2DWIREFRAME
350
18E7
  3
3D_HIDDEN
350
18E9
  3
3DWIREFRAME
350
18E8
  3
BASIC
350
18E6
  3
BRIGHTEN
350
18ED
  3
COLORCHANGE
350
18F1
  3
CONCEPTUAL
350
18EA
  3
DIM
350
18EC
  3
FACEPATTERN
350
18F0
  3
FLAT
350
18E2
  3
FLATWITHEDGES
350
18E3
  3
GOURAUD
350
18E4
  3
GOURAUDWITHEDGES
350
18E5
  3
LINEPATTERN
350
18EF
  3
REALISTIC
350
18EB
  3
THICKEN
350
18EE
  0
XRECORD
  5
480
102
{ACAD_REACTORS
330
7
102
}
330
7
100
AcDbXrecord
 90
   990106
  3

 60
     0
 61
     0
 62
     1
 63
     3
 64
     1
 65
     0
 66
     0
 67
     3
 68
     1
 69
     0
 70
     0
 71
     0
 72
     0
 40
0.0
170
     2
340
0
  0
XRECORD
  5
19A1
102
{ACAD_REACTORS
330
7
102
}
330
7
100
AcDbXrecord
 90
        1
330
18F4
  0
DICTIONARY
  5
2840
102
{ACAD_REACTORS
330
7
102
}
330
7
100
AcDbDictionary
  3
CEPSNTYPE
350
284A
  3
DIMSTYLEDATA
350
284E
  3
FINGERPRINTGUID
350
284B
  3
HYPERLINKBASE
350
2843
  3
INSUNITS
350
2849
  3
LAYOUTDICT
350
2845
  3
LWETCUNION
350
2848
  3
PLOTSETDICT
350
2846
  3
PLOTSTYLNAMDICT
350
2847
  3
PSVPSCALE
350
284D
  3
PUCSBASE
350
2851
  3
PUCSORGBACK
350
2857
  3
PUCSORGBOTTOM
350
2853
  3
PUCSORGFRONT
350
2856
  3
PUCSORGLEFT
350
2854
  3
PUCSORGRIGHT
350
2855
  3
PUCSORGTOP
350
2852
  3
PUCSORTHOREF
350
284F
  3
PUCSORTHOVIEW
350
2850
  3
STYLESHEET
350
2844
  3
TSTACKALIGN
350
2841
  3
TSTACKSIZE
350
2842
  3
UCSBASE
350
285A
  3
UCSORGBACK
350
2860
  3
UCSORGBOTTOM
350
285C
  3
UCSORGFRONT
350
285F
  3
UCSORGLEFT
350
285D
  3
UCSORGRIGHT
350
285E
  3
UCSORGTOP
350
285B
  3
UCSORTHOREF
350
2858
  3
UCSORTHOVIEW
350
2859
  3
VERSIONGUID
350
284C
  0
DICTIONARY
  5
102
102
{ACAD_REACTORS
330
7
102
}
330
7
100
AcDbDictionary
  3
CANNOSCALE
350
19C2
  3
CMLEADERSTYLE
350
19C1
  3
CTABLESTYLE
350
19C0
  3
DIMASSOC
350
103
  3
INDEXCTL
350
19C3
  3
SORTENTS
350
549
  0
XRECORD
  5
19F1
102
{ACAD_REACTORS
330
7
102
}
330
7
100
AcDbXrecord
  1
DWGPROPS COOKIE
  2

  3

  4

  6

  7

  8
ymorima
  9

300
=
301
=
302
=
303
=
304
=
305
=
306
=
307
=
308
=
309
=
 40
0.0033819791666667
 41
2454411.659718414
 42
2454412.447337963
  1

 90
        0
  0
XRECORD
  5
19F9
102
{ACAD_REACTORS
330
19AA
102
}
330
19AA
100
AcDbXrecord
102
VTR_0.000_0.000_1.000_1.000_VISUALSTYLE
340
18E7
102
VTR_0.000_0.000_1.000_1.000_GRIDDISPLAY
 70
     3
102
VTR_0.000_0.000_1.000_1.000_GRIDMAJOR
 70
     5
102
VTR_0.000_0.000_1.000_1.000_DEFAULTLIGHTING
280
     1
102
VTR_0.000_0.000_1.000_1.000_DEFAULTLIGHTINGTYPE
 70
     1
102
VTR_0.000_0.000_1.000_1.000_BRIGHTNESS
141
0.0
102
VTR_0.000_0.000_1.000_1.000_CONTRAST
142
0.0
  0
DICTIONARY
  5
B14
102
{ACAD_REACTORS
330
B13
102
}
330
B13
100
AcDbDictionary
  0
XRECORD
  5
19F4
102
{ACAD_REACTORS
330
193E
102
}
330
193E
100
AcDbXrecord
102
MATERIAL
340
18D9
  0
XRECORD
  5
193F
102
{ACAD_REACTORS
330
193E
102
}
330
193E
100
AcDbXrecord
290
     1
  0
XRECORD
  5
19F3
102
{ACAD_REACTORS
330
1940
102
}
330
1940
100
AcDbXrecord
102
MATERIAL
340
18D9
  0
XRECORD
  5
1941
102
{ACAD_REACTORS
330
1940
102
}
330
1940
100
AcDbXrecord
290
     1
  0
XRECORD
  5
19FF
102
{ACAD_REACTORS
330
1946
102
}
330
1946
100
AcDbXrecord
102
MATERIAL
340
18D9
  0
XRECORD
  5
1947
102
{ACAD_REACTORS
330
1946
102
}
330
1946
100
AcDbXrecord
290
     1
  0
XRECORD
  5
1A00
102
{ACAD_REACTORS
330
1948
102
}
330
1948
100
AcDbXrecord
102
MATERIAL
340
18D9
  0
XRECORD
  5
1949
102
{ACAD_REACTORS
330
1948
102
}
330
1948
100
AcDbXrecord
290
     1
  0
XRECORD
  5
1A02
102
{ACAD_REACTORS
330
194C
102
}
330
194C
100
AcDbXrecord
102
MATERIAL
340
18D9
  0
XRECORD
  5
194D
102
{ACAD_REACTORS
330
194C
102
}
330
194C
100
AcDbXrecord
290
     1
  0
XRECORD
  5
2862
102
{ACAD_REACTORS
330
2861
102
}
330
2861
100
AcDbXrecord
340
2
  0
XRECORD
  5
2864
102
{ACAD_REACTORS
330
2863
102
}
330
2863
100
AcDbXrecord
340
283A
  0
ACAD_PROXY_OBJECT
  5
18D1
102
{ACAD_XDICTIONARY
360
18D2
102
}
102
{ACAD_REACTORS
330
18C8
102
}
330
18C8
100
AcDbProxyObject
 90
      499
 91
      510
 93
     1340
310
42109E509B1BD8DAC02004014080404555555555555953FAA155555555555654FEA9AA400014080404555555555555953FAA155555555555654FEA9AA400000000000000E03F4080404555555555555953FAA155555555555654FEA9AA4014080404555555555555953FAA155555555555654FEA9AA4010201011555555555
310
55654FEA8555555555555953FAA6A9005020101155555555555654FEA8555555555555953FAA6A9001
 94
        0
1001
ACAD
1000
AcadProxyRoundTripData
1071
      504
1071
   655383
1070
     0
  0
ACAD_PROXY_OBJECT
  5
18C9
102
{ACAD_XDICTIONARY
360
18CA
102
}
102
{ACAD_REACTORS
330
18C8
102
}
330
18C8
100
AcDbProxyObject
 90
      499
 91
      510
 93
     1340
310
42109E53185E595C802004014080404555555555555953FAA155555555555654FEA9AA400014080404555555555555953FAA155555555555654FEA9AA400000000000000E03F4080404555555555555953FAA155555555555654FEA9AA4014080404555555555555953FAA155555555555654FEA9AA4010201011555555555
310
55654FEA8555555555555953FAA6A9005020101155555555555654FEA8555555555555953FAA6A9001
 94
        0
1001
ACAD
1000
AcadProxyRoundTripData
1071
      504
1071
   655383
1070
     0
  0
ACAD_PROXY_OBJECT
  5
18D9
102
{ACAD_XDICTIONARY
360
18DA
102
}
102
{ACAD_REACTORS
330
18C8
102
}
330
18C8
100
AcDbProxyObject
 90
      499
 91
      510
 93
     1332
310
41D1DB1BD8985B002004014080404555555555555953FAA155555555555654FEA9AA400014080404555555555555953FAA155555555555654FEA9AA400000000000000E03F4080404555555555555953FAA155555555555654FEA9AA4014080404555555555555953FAA155555555555654FEA9AA401020101155555555555
310
654FEA8555555555555953FAA6A9005020101155555555555654FEA8555555555555953FAA6A9000
 94
        0
1001
ACAD
1000
AcadProxyRoundTripData
1071
      504
1071
   655383
1070
     0
  0
ACAD_PROXY_OBJECT
  5
1918
102
{ACAD_REACTORS
330
1917
102
}
330
1917
100
AcDbProxyObject
 90
      499
 91
      510
 93
      618
310
40901902A4063FBFFFFFE056BD1B81E855B9FC0AD7A3703D0AD73F4254DD185B99185C990000AD7A3703D0AC73F90141901A02B5E8DC0F42B1CFC02B5E8DC0F42B1CFE5764000000000000300FC6
340
6A
340
0
340
16
340
0
 94
        0
1001
ACAD_MLEADERVER
1070
     2
1001
ACAD
1000
AcadProxyRoundTripData
1071
      508
1071
   655383
1070
     0
  0
MLINESTYLE
  5
78
102
{ACAD_REACTORS
330
76
102
}
330
76
100
AcDbMlineStyle
  2
STANDARD
 70
     0
  3

 62
     0
 51
90.0
 52
90.0
 71
     2
 49
0.5
 62
   256
  6
BYLAYER
 49
-0.5
 62
   256
  6
BYLAYER
  0
ACDBPLACEHOLDER
  5
5
102
{ACAD_REACTORS
330
6
102
}
330
6
100
AcDbPlaceHolder
280
     0
  0
ACAD_PROXY_OBJECT
  5
18F6
102
{ACAD_REACTORS
330
18F5
102
}
330
18F5
100
AcDbProxyObject
 90
      499
 91
      510
 93
       49
310
904313A3100598
 94
        0
1001
ACAD
1000
AcadProxyRoundTripData
1071
      507
1071
   655383
1070
     0
  0
ACAD_PROXY_OBJECT
  5
18F7
102
{ACAD_REACTORS
330
18F5
102
}
330
18F5
100
AcDbProxyObject
 90
      499
 91
      510
 93
      113
310
904313A3200400000000000000406B
 94
        0
1001
ACAD
1000
AcadProxyRoundTripData
1071
      507
1071
   655383
1070
     0
  0
ACAD_PROXY_OBJECT
  5
18F8
102
{ACAD_REACTORS
330
18F5
102
}
330
18F5
100
AcDbProxyObject
 90
      499
 91
      510
 93
      113
310
904313A3400400000000000010406B
 94
        0
1001
ACAD
1000
AcadProxyRoundTripData
1071
      507
1071
   655383
1070
     0
  0
ACAD_PROXY_OBJECT
  5
18F9
102
{ACAD_REACTORS
330
18F5
102
}
330
18F5
100
AcDbProxyObject
 90
      499
 91
      510
 93
      113
310
904313A3500400000000000014406B
 94
        0
1001
ACAD
1000
AcadProxyRoundTripData
1071
      507
1071
   655383
1070
     0
  0
ACAD_PROXY_OBJECT
  5
18FA
102
{ACAD_REACTORS
330
18F5
102
}
330
18F5
100
AcDbProxyObject
 90
      499
 91
      510
 93
      113
310
904313A3800400000000000020406B
 94
        0
1001
ACAD
1000
AcadProxyRoundTripData
1071
      507
1071
   655383
1070
     0
  0
ACAD_PROXY_OBJECT
  5
18FB
102
{ACAD_REACTORS
330
18F5
102
}
330
18F5
100
AcDbProxyObject
 90
      499
 91
      510
 93
      121
310
905313A3130004000000000000244051
 94
        0
1001
ACAD
1000
AcadProxyRoundTripData
1071
      507
1071
   655383
1070
     0
  0
ACAD_PROXY_OBJECT
  5
18FC
102
{ACAD_REACTORS
330
18F5
102
}
330
18F5
100
AcDbProxyObject
 90
      499
 91
      510
 93
      121
310
905313A3136004000000000000304051
 94
        0
1001
ACAD
1000
AcadProxyRoundTripData
1071
      507
1071
   655383
1070
     0
  0
ACAD_PROXY_OBJECT
  5
18FD
102
{ACAD_REACTORS
330
18F5
102
}
330
18F5
100
AcDbProxyObject
 90
      499
 91
      510
 93
      121
310
905313A3230004000000000000344051
 94
        0
1001
ACAD
1000
AcadProxyRoundTripData
1071
      507
1071
   655383
1070
     0
  0
ACAD_PROXY_OBJECT
  5
18FE
102
{ACAD_REACTORS
330
18F5
102
}
330
18F5
100
AcDbProxyObject
 90
      499
 91
      510
 93
      121
310
905313A33300040000000000003E4051
 94
        0
1001
ACAD
1000
AcadProxyRoundTripData
1071
      507
1071
   655383
1070
     0
  0
ACAD_PROXY_OBJECT
  5
18FF
102
{ACAD_REACTORS
330
18F5
102
}
330
18F5
100
AcDbProxyObject
 90
      499
 91
      510
 93
      121
310
905313A3430004000000000000444051
 94
        0
1001
ACAD
1000
AcadProxyRoundTripData
1071
      507
1071
   655383
1070
     0
  0
ACAD_PROXY_OBJECT
  5
1900
102
{ACAD_REACTORS
330
18F5
102
}
330
18F5
100
AcDbProxyObject
 90
      499
 91
      510
 93
      121
310
905313A3530004000000000000494051
 94
        0
1001
ACAD
1000
AcadProxyRoundTripData
1071
      507
1071
   655383
1070
     0
  0
ACAD_PROXY_OBJECT
  5
1901
102
{ACAD_REACTORS
330
18F5
102
}
330
18F5
100
AcDbProxyObject
 90
      499
 91
      510
 93
      129
310
906313A313030004000000000000594038
 94
        0
1001
ACAD
1000
AcadProxyRoundTripData
1071
      507
1071
   655383
1070
     0
  0
ACAD_PROXY_OBJECT
  5
1902
102
{ACAD_REACTORS
330
18F5
102
}
330
18F5
100
AcDbProxyObject
 90
      499
 91
      510
 93
      113
310
904323A31000000000000000010159
 94
        0
1001
ACAD
1000
AcadProxyRoundTripData
1071
      507
1071
   655383
1070
     0
  0
ACAD_PROXY_OBJECT
  5
1903
102
{ACAD_REACTORS
330
18F5
102
}
330
18F5
100
AcDbProxyObject
 90
      499
 91
      510
 93
      113
310
904343A31000000000000000410159
 94
        0
1001
ACAD
1000
AcadProxyRoundTripData
1071
      507
1071
   655383
1070
     0
  0
ACAD_PROXY_OBJECT
  5
1904
102
{ACAD_REACTORS
330
18F5
102
}
330
18F5
100
AcDbProxyObject
 90
      499
 91
      510
 93
      113
310
904383A31000000000000000810159
 94
        0
1001
ACAD
1000
AcadProxyRoundTripData
1071
      507
1071
   655383
1070
     0
  0
ACAD_PROXY_OBJECT
  5
1905
102
{ACAD_REACTORS
330
18F5
102
}
330
18F5
100
AcDbProxyObject
 90
      499
 91
      510
 93
      121
310
90531303A31000000000000000910140
 94
        0
1001
ACAD
1000
AcadProxyRoundTripData
1071
      507
1071
   655383
1070
     0
  0
ACAD_PROXY_OBJECT
  5
1906
102
{ACAD_REACTORS
330
18F5
102
}
330
18F5
100
AcDbProxyObject
 90
      499
 91
      510
 93
      129
310
9063130303A31000000000000001650138
 94
        0
1001
ACAD
1000
AcadProxyRoundTripData
1071
      507
1071
   655383
1070
     0
  0
ACAD_PROXY_OBJECT
  5
1907
102
{ACAD_REACTORS
330
18F5
102
}
330
18F5
100
AcDbProxyObject
 90
      499
 91
      510
 93
      265
310
90F312F31323822203D2031272D302200000000000000200FC00000000000028402B
 94
        0
1001
ACAD
1000
AcadProxyRoundTripData
1071
      507
1071
   655383
1070
     0
  0
ACAD_PROXY_OBJECT
  5
1908
102
{ACAD_REACTORS
330
18F5
102
}
330
18F5
100
AcDbProxyObject
 90
      499
 91
      510
 93
      257
310
90E312F363422203D2031272D302200000000000000240FC000000000000284040
 94
        0
1001
ACAD
1000
AcadProxyRoundTripData
1071
      507
1071
   655383
1070
     0
  0
ACAD_PROXY_OBJECT
  5
1909
102
{ACAD_REACTORS
330
18F5
102
}
330
18F5
100
AcDbProxyObject
 90
      499
 91
      510
 93
      257
310
90E312F333222203D2031272D302200000000000000280FC000000000000284040
 94
        0
1001
ACAD
1000
AcadProxyRoundTripData
1071
      507
1071
   655383
1070
     0
  0
ACAD_PROXY_OBJECT
  5
190A
102
{ACAD_REACTORS
330
18F5
102
}
330
18F5
100
AcDbProxyObject
 90
      499
 91
      510
 93
      257
310
90E312F313622203D2031272D3022000000000000002C0FC000000000000284040
 94
        0
1001
ACAD
1000
AcadProxyRoundTripData
1071
      507
1071
   655383
1070
     0
  0
ACAD_PROXY_OBJECT
  5
190B
102
{ACAD_REACTORS
330
18F5
102
}
330
18F5
100
AcDbProxyObject
 90
      499
 91
      510
 93
      257
310
90E332F333222203D2031272D3022000000000000002E0FC000000000000284040
 94
        0
1001
ACAD
1000
AcadProxyRoundTripData
1071
      507
1071
   655383
1070
     0
  0
ACAD_PROXY_OBJECT
  5
190C
102
{ACAD_REACTORS
330
18F5
102
}
330
18F5
100
AcDbProxyObject
 90
      499
 91
      510
 93
      249
310
90D312F3822203D2031272D302200000000000000300FC000000000000284040
 94
        0
1001
ACAD
1000
AcadProxyRoundTripData
1071
      507
1071
   655383
1070
     0
  0
ACAD_PROXY_OBJECT
  5
190D
102
{ACAD_REACTORS
330
18F5
102
}
330
18F5
100
AcDbProxyObject
 90
      499
 91
      510
 93
      257
310
90E332F313622203D2031272D302200000000000000320FC000000000000284040
 94
        0
1001
ACAD
1000
AcadProxyRoundTripData
1071
      507
1071
   655383
1070
     0
  0
ACAD_PROXY_OBJECT
  5
190E
102
{ACAD_REACTORS
330
18F5
102
}
330
18F5
100
AcDbProxyObject
 90
      499
 91
      510
 93
      249
310
90D312F3422203D2031272D302200000000000000340FC000000000000284040
 94
        0
1001
ACAD
1000
AcadProxyRoundTripData
1071
      507
1071
   655383
1070
     0
  0
ACAD_PROXY_OBJECT
  5
190F
102
{ACAD_REACTORS
330
18F5
102
}
330
18F5
100
AcDbProxyObject
 90
      499
 91
      510
 93
      249
310
90D332F3822203D2031272D302200000000000000360FC000000000000284040
 94
        0
1001
ACAD
1000
AcadProxyRoundTripData
1071
      507
1071
   655383
1070
     0
  0
ACAD_PROXY_OBJECT
  5
1910
102
{ACAD_REACTORS
330
18F5
102
}
330
18F5
100
AcDbProxyObject
 90
      499
 91
      510
 93
      249
310
90D312F3222203D2031272D302200000000000000380FC000000000000284040
 94
        0
1001
ACAD
1000
AcadProxyRoundTripData
1071
      507
1071
   655383
1070
     0
  0
ACAD_PROXY_OBJECT
  5
1911
102
{ACAD_REACTORS
330
18F5
102
}
330
18F5
100
AcDbProxyObject
 90
      499
 91
      510
 93
      249
310
90D332F3422203D2031272D3022000000000000003A0FC000000000000284040
 94
        0
1001
ACAD
1000
AcadProxyRoundTripData
1071
      507
1071
   655383
1070
     0
  0
ACAD_PROXY_OBJECT
  5
1912
102
{ACAD_REACTORS
330
18F5
102
}
330
18F5
100
AcDbProxyObject
 90
      499
 91
      510
 93
      169
310
90B3122203D2031272D3022004000000000000284020
 94
        0
1001
ACAD
1000
AcadProxyRoundTripData
1071
      507
1071
   655383
1070
     0
  0
ACAD_PROXY_OBJECT
  5
1913
102
{ACAD_REACTORS
330
18F5
102
}
330
18F5
100
AcDbProxyObject
 90
      499
 91
      510
 93
      265
310
90F312D312F3222203D2031272D3022000000000000003E0FC00000000000028402B
 94
        0
1001
ACAD
1000
AcadProxyRoundTripData
1071
      507
1071
   655383
1070
     0
  0
ACAD_PROXY_OBJECT
  5
1914
102
{ACAD_REACTORS
330
18F5
102
}
330
18F5
100
AcDbProxyObject
 90
      499
 91
      510
 93
      233
310
90B3322203D2031272D30220000000000000002100000000000000284000
 94
        0
1001
ACAD
1000
AcadProxyRoundTripData
1071
      507
1071
   655383
1070
     0
  0
ACAD_PROXY_OBJECT
  5
1915
102
{ACAD_REACTORS
330
18F5
102
}
330
18F5
100
AcDbProxyObject
 90
      499
 91
      510
 93
      233
310
90B3622203D2031272D30220000000000000006100000000000000284000
 94
        0
1001
ACAD
1000
AcadProxyRoundTripData
1071
      507
1071
   655383
1070
     0
  0
ACAD_PROXY_OBJECT
  5
1916
102
{ACAD_REACTORS
330
18F5
102
}
330
18F5
100
AcDbProxyObject
 90
      499
 91
      510
 93
      257
310
90E31272D3022203D2031272D3022000000000000000A100000000000000284040
 94
        0
1001
ACAD
1000
AcadProxyRoundTripData
1071
      507
1071
   655383
1070
     0
  0
ACAD_PROXY_OBJECT
  5
18F4
102
{ACAD_XDICTIONARY
360
199F
102
}
102
{ACAD_REACTORS
330
18F3
102
}
330
18F3
100
AcDbProxyObject
 90
      499
 91
      510
 93
     1849
310
4254DD185B99185C990028B81E85EB51B8AE3F2E07A17AD46E2B8FC02B5E8DC0F42B1CFD028000000C1008070000C3001FDFF8000000C1003FBFF000000182007F7FE00000030400FEFFC00000060801FDFF8000000C1003FBFF00000018200000000000000681FA0B0000001820100E000186003FBFF000000182007F7FE0
310
0000030400FEFFC00000060801FDFF8000000C1003FBFF000000182007F7FE000000304000AD7A3703D0AC73F4160000003040201C00030C007F7FE00000030400FEFFC00000060801FDFF8000000C1003FBFF000000182007F7FE00000030400FEFFC000000608006
340
16
340
16
340
16
 94
        0
1001
ACAD
1000
AcadProxyRoundTripData
1071
      506
1071
   655383
1070
     0
  0
ACAD_PROXY_OBJECT
  5
18E7
102
{ACAD_REACTORS
330
18E1
102
}
330
18E1
100
AcDbProxyObject
 90
      499
 91
      510
 93
      444
310
430C9915DA5C99599C985B59401049028333333333333E3BF0000000000000FB0107901411070040501600405405064090741402480A0340
 94
        0
1001
ACAD
1000
AcDbSavedByObjectVersion
1070
     0
1000
AcadProxyRoundTripData
1071
      505
1071
   655383
1070
     0
  0
ACAD_PROXY_OBJECT
  5
18E9
102
{ACAD_REACTORS
330
18E1
102
}
330
18E1
100
AcDbProxyObject
 90
      499
 91
      510
 93
      508
310
428CD108121A5919195B8010640502408333333333333E3BF0000000000000FB01079024090700405020000000000001110200405405064090740C02480A0340
 94
        0
1001
ACAD
1000
AcDbSavedByObjectVersion
1070
     0
1000
AcadProxyRoundTripData
1071
      505
1071
   655383
1070
     0
  0
ACAD_PROXY_OBJECT
  5
18E8
102
{ACAD_REACTORS
330
18E1
102
}
330
18E1
100
AcDbProxyObject
 90
      499
 91
      510
 93
      444
310
430CD915DA5C99599C985B59401059028333333333333E3BF0000000000000FB0107901411070040501600405405064090741402480A0340
 94
        0
1001
ACAD
1000
AcDbSavedByObjectVersion
1070
     0
1000
AcadProxyRoundTripData
1071
      505
1071
   655383
1070
     0
  0
ACAD_PROXY_OBJECT
  5
18E6
102
{ACAD_REACTORS
330
18E1
102
}
330
18E1
100
AcDbProxyObject
 90
      499
 91
      510
 93
      396
310
4190985CDA58C0107406404333333333333E3BF0000000000000FB0107A41107004050150841D405064090741402480A0356
 94
        0
1001
ACAD
1000
AcDbSavedByObjectVersion
1070
     0
1000
AcadProxyRoundTripData
1071
      505
1071
   655383
1070
     0
  0
ACAD_PROXY_OBJECT
  5
18ED
102
{ACAD_REACTORS
330
18E1
102
}
330
18E1
100
AcDbProxyObject
 90
      499
 91
      510
 93
      436
310
42509C9A59DA1D195B8010C409028333333333333E3BF0000000000000FB010790141107004050150841D405064090741402480A029956
 94
        0
1001
ACAD
1000
AcDbSavedByObjectVersion
1070
     0
1000
AcadProxyRoundTripData
1071
      505
1071
   655383
1070
     0
  0
ACAD_PROXY_OBJECT
  5
18F1
102
{ACAD_REACTORS
330
18E1
102
}
330
18E1
100
AcDbProxyObject
 90
      499
 91
      510
 93
      460
310
4310DBDB1BDC90DA185B99D9401104090240C333333333333E3BF0000000000000FB0108901411070040501508421405064090741402480A0354
 94
        0
1001
ACAD
1000
AcDbSavedByObjectVersion
1070
     0
1000
AcadProxyRoundTripData
1071
      505
1071
   655383
1070
     0
  0
ACAD_PROXY_OBJECT
  5
18EA
102
{ACAD_REACTORS
330
18E1
102
}
330
18E1
100
AcDbProxyObject
 90
      499
 91
      510
 93
      508
310
42D0DBDB98D95C1D1D585B0010940D028333333333333E3BF0000000000000FB0107902409070040501000000000000111010841D405064090740C02480A0340
 94
        0
1001
ACAD
1000
AcDbSavedByObjectVersion
1070
     0
1000
AcadProxyRoundTripData
1071
      505
1071
   655383
1070
     0
  0
ACAD_PROXY_OBJECT
  5
18EC
102
{ACAD_REACTORS
330
18E1
102
}
330
18E1
100
AcDbProxyObject
 90
      499
 91
      510
 93
      420
310
41111A5B4010B409028333333333333E3BF0000000000000FB010790141107004050150841D405064090741402480A02677FFFFFDB
 94
        0
1001
ACAD
1000
AcDbSavedByObjectVersion
1070
     0
1000
AcadProxyRoundTripData
1071
      505
1071
   655383
1070
     0
  0
ACAD_PROXY_OBJECT
  5
18F0
102
{ACAD_REACTORS
330
18E1
102
}
330
18E1
100
AcDbProxyObject
 90
      499
 91
      510
 93
      452
310
43119858D95C185D1D195C9B8010F409028333333333333E3BF0000000000000FB010790141107004050150841D405064090741402480A0350
 94
        0
1001
ACAD
1000
AcDbSavedByObjectVersion
1070
     0
1000
AcadProxyRoundTripData
1071
      505
1071
   655383
1070
     0
  0
ACAD_PROXY_OBJECT
  5
18E2
102
{ACAD_REACTORS
330
18E1
102
}
330
18E1
100
AcDbProxyObject
 90
      499
 91
      510
 93
      396
310
41519B185D00240901404333333333333E3BF0000000000000F9010740A41107004050150841D405064090741402480A1B55
 94
        0
1001
ACAD
1000
AcDbSavedByObjectVersion
1070
     0
1000
AcadProxyRoundTripData
1071
      505
1071
   655383
1070
     0
  0
ACAD_PROXY_OBJECT
  5
18E3
102
{ACAD_REACTORS
330
18E1
102
}
330
18E1
100
AcDbProxyObject
 90
      499
 91
      510
 93
      484
310
43919B185D15DA5D1A115919D95CC010140901404333333333333E3BF0000000000000F9010740901411070040501600405405064090741402480A1B50
 94
        0
1001
ACAD
1000
AcDbSavedByObjectVersion
1070
     0
1000
AcadProxyRoundTripData
1071
      505
1071
   655383
1070
     0
  0
ACAD_PROXY_OBJECT
  5
18E4
102
{ACAD_REACTORS
330
18E1
102
}
330
18E1
100
AcDbProxyObject
 90
      499
 91
      510
 93
      420
310
4211DBDD5C985D590010240902404333333333333E3BF0000000000000F9010740A411070040501641D405064090741402480A1B50
 94
        0
1001
ACAD
1000
AcDbSavedByObjectVersion
1070
     0
1000
AcadProxyRoundTripData
1071
      505
1071
   655383
1070
     0
  0
ACAD_PROXY_OBJECT
  5
18E5
102
{ACAD_REACTORS
330
18E1
102
}
330
18E1
100
AcDbProxyObject
 90
      499
 91
      510
 93
      508
310
4451DBDD5C985D5915DA5D1A115919D95CC010340902404333333333333E3BF0000000000000F9010740901411070040501600405405064090741402480A1B50
 94
        0
1001
ACAD
1000
AcDbSavedByObjectVersion
1070
     0
1000
AcadProxyRoundTripData
1071
      505
1071
   655383
1070
     0
  0
ACAD_PROXY_OBJECT
  5
18EF
102
{ACAD_REACTORS
330
18E1
102
}
330
18E1
100
AcDbProxyObject
 90
      499
 91
      510
 93
      452
310
43131A5B995C185D1D195C9B8010E409028333333333333E3BF0000000000000FB010790141107004050750841D405064090741402483A0350
 94
        0
1001
ACAD
1000
AcDbSavedByObjectVersion
1070
     0
1000
AcadProxyRoundTripData
1071
      505
1071
   655383
1070
     0
  0
ACAD_PROXY_OBJECT
  5
18EB
102
{ACAD_REACTORS
330
18E1
102
}
330
18E1
100
AcDbProxyObject
 90
      499
 91
      510
 93
      428
310
429499585B1A5CDD1A58C0108409028333333333333E3BF0000000000000FB01079019070040501508421405064090741402480A1B45
 94
        0
1001
ACAD
1000
AcDbSavedByObjectVersion
1070
     0
1000
AcadProxyRoundTripData
1071
      505
1071
   655383
1070
     0
  0
ACAD_PROXY_OBJECT
  5
18EE
102
{ACAD_REACTORS
330
18E1
102
}
330
18E1
100
AcDbProxyObject
 90
      499
 91
      510
 93
      420
310
42151A1A58DAD95B8010D409028333333333333E3BF0000000000000FB010790141107004050150C41D405064090741402480A0352
 94
        0
1001
ACAD
1000
AcDbSavedByObjectVersion
1070
     0
1000
AcadProxyRoundTripData
1071
      505
1071
   655383
1070
     0
  0
XRECORD
  5
284A
102
{ACAD_REACTORS
330
2840
102
}
330
2840
100
AcDbXrecord
 90
        0
  0
XRECORD
  5
284E
102
{ACAD_REACTORS
330
2840
102
}
330
2840
100
AcDbXrecord
1000
DSTYLE
1002
{
1070
   179
 70
     2
1070
   277
 70
     6
1002
}
  0
XRECORD
  5
284B
102
{ACAD_REACTORS
330
2840
102
}
330
2840
100
AcDbXrecord
  1
{6385560B-F4B1-4644-A7C2-A3E32AC3D232}
  0
XRECORD
  5
2843
102
{ACAD_REACTORS
330
2840
102
}
330
2840
100
AcDbXrecord
  1

  0
XRECORD
  5
2849
102
{ACAD_REACTORS
330
2840
102
}
330
2840
100
AcDbXrecord
 90
        0
  0
XRECORD
  5
2845
102
{ACAD_REACTORS
330
2840
102
}
330
2840
100
AcDbXrecord
340
61
  0
XRECORD
  5
2848
102
{ACAD_REACTORS
330
2840
102
}
330
2840
100
AcDbXrecord
 90
    10781
  0
XRECORD
  5
2846
102
{ACAD_REACTORS
330
2840
102
}
330
2840
100
AcDbXrecord
340
77
  0
XRECORD
  5
2847
102
{ACAD_REACTORS
330
2840
102
}
330
2840
100
AcDbXrecord
340
6
  0
XRECORD
  5
284D
102
{ACAD_REACTORS
330
2840
102
}
330
2840
100
AcDbXrecord
 40
0.0
  0
XRECORD
  5
2851
102
{ACAD_REACTORS
330
2840
102
}
330
2840
100
AcDbXrecord
340
0
  0
XRECORD
  5
2857
102
{ACAD_REACTORS
330
2840
102
}
330
2840
100
AcDbXrecord
 10
0.0
 20
0.0
 30
0.0
  0
XRECORD
  5
2853
102
{ACAD_REACTORS
330
2840
102
}
330
2840
100
AcDbXrecord
 10
0.0
 20
0.0
 30
0.0
  0
XRECORD
  5
2856
102
{ACAD_REACTORS
330
2840
102
}
330
2840
100
AcDbXrecord
 10
0.0
 20
0.0
 30
0.0
  0
XRECORD
  5
2854
102
{ACAD_REACTORS
330
2840
102
}
330
2840
100
AcDbXrecord
 10
0.0
 20
0.0
 30
0.0
  0
XRECORD
  5
2855
102
{ACAD_REACTORS
330
2840
102
}
330
2840
100
AcDbXrecord
 10
0.0
 20
0.0
 30
0.0
  0
XRECORD
  5
2852
102
{ACAD_REACTORS
330
2840
102
}
330
2840
100
AcDbXrecord
 10
0.0
 20
0.0
 30
0.0
  0
XRECORD
  5
284F
102
{ACAD_REACTORS
330
2840
102
}
330
2840
100
AcDbXrecord
340
0
  0
XRECORD
  5
2850
102
{ACAD_REACTORS
330
2840
102
}
330
2840
100
AcDbXrecord
 70
     0
  0
XRECORD
  5
2844
102
{ACAD_REACTORS
330
2840
102
}
330
2840
100
AcDbXrecord
  1
Sekkei.ctb
  0
XRECORD
  5
2841
102
{ACAD_REACTORS
330
2840
102
}
330
2840
100
AcDbXrecord
 90
        1
  0
XRECORD
  5
2842
102
{ACAD_REACTORS
330
2840
102
}
330
2840
100
AcDbXrecord
 90
       70
  0
XRECORD
  5
285A
102
{ACAD_REACTORS
330
2840
102
}
330
2840
100
AcDbXrecord
340
0
  0
XRECORD
  5
2860
102
{ACAD_REACTORS
330
2840
102
}
330
2840
100
AcDbXrecord
 10
0.0
 20
0.0
 30
0.0
  0
XRECORD
  5
285C
102
{ACAD_REACTORS
330
2840
102
}
330
2840
100
AcDbXrecord
 10
0.0
 20
0.0
 30
0.0
  0
XRECORD
  5
285F
102
{ACAD_REACTORS
330
2840
102
}
330
2840
100
AcDbXrecord
 10
0.0
 20
0.0
 30
0.0
  0
XRECORD
  5
285D
102
{ACAD_REACTORS
330
2840
102
}
330
2840
100
AcDbXrecord
 10
0.0
 20
0.0
 30
0.0
  0
XRECORD
  5
285E
102
{ACAD_REACTORS
330
2840
102
}
330
2840
100
AcDbXrecord
 10
0.0
 20
0.0
 30
0.0
  0
XRECORD
  5
285B
102
{ACAD_REACTORS
330
2840
102
}
330
2840
100
AcDbXrecord
 10
0.0
 20
0.0
 30
0.0
  0
XRECORD
  5
2858
102
{ACAD_REACTORS
330
2840
102
}
330
2840
100
AcDbXrecord
340
0
  0
XRECORD
  5
2859
102
{ACAD_REACTORS
330
2840
102
}
330
2840
100
AcDbXrecord
 70
     0
  0
XRECORD
  5
284C
102
{ACAD_REACTORS
330
2840
102
}
330
2840
100
AcDbXrecord
  1
{7AEF1B4B-E6C8-44A3-8501-D7309C8B7147}
  0
DICTIONARYVAR
  5
19C2
102
{ACAD_REACTORS
330
102
102
}
330
102
100
DictionaryVariables
280
     0
  1
1:1
  0
DICTIONARYVAR
  5
19C1
102
{ACAD_REACTORS
330
102
102
}
330
102
100
DictionaryVariables
280
     0
  1
STANDARD
  0
DICTIONARYVAR
  5
19C0
102
{ACAD_REACTORS
330
102
102
}
330
102
100
DictionaryVariables
280
     0
  1
STANDARD
  0
DICTIONARYVAR
  5
103
102
{ACAD_REACTORS
330
102
102
}
330
102
100
DictionaryVariables
280
     0
  1
1
  0
DICTIONARYVAR
  5
19C3
102
{ACAD_REACTORS
330
102
102
}
330
102
100
DictionaryVariables
280
     0
  1
0
  0
DICTIONARYVAR
  5
549
102
{ACAD_REACTORS
330
102
102
}
330
102
100
DictionaryVariables
280
     0
  1
96
  0
DICTIONARY
  5
18D2
330
18D1
100
AcDbDictionary
280
     1
  3
ACAD_XREC_ROUNDTRIP
360
1A0B
  3
BUMPTILE
360
18D4
  3
DIFFUSETILE
360
18D3
  3
OPACITYTILE
360
18D7
  3
REFLECTIONTILE
360
18D6
  3
REFRACTIONTILE
360
18D8
  3
SPECULARTILE
360
18D5
  0
DICTIONARY
  5
18CA
330
18C9
100
AcDbDictionary
280
     1
  3
ACAD_XREC_ROUNDTRIP
360
1A0A
  3
BUMPTILE
360
18CC
  3
DIFFUSETILE
360
18CB
  3
OPACITYTILE
360
18CF
  3
REFLECTIONTILE
360
18CE
  3
REFRACTIONTILE
360
18D0
  3
SPECULARTILE
360
18CD
  0
DICTIONARY
  5
18DA
330
18D9
100
AcDbDictionary
280
     1
  3
ACAD_XREC_ROUNDTRIP
360
1A0C
  3
BUMPTILE
360
18DC
  3
DIFFUSETILE
360
18DB
  3
OPACITYTILE
360
18DF
  3
REFLECTIONTILE
360
18DE
  3
REFRACTIONTILE
360
18E0
  3
SPECULARTILE
360
18DD
  0
DICTIONARY
  5
199F
330
18F4
100
AcDbDictionary
280
     1
  3
ACAD_ROUNDTRIP_2008_TABLES
360
19F0
  3
ACAD_XREC_ROUNDTRIP
360
1A0D
  0
XRECORD
  5
1A0B
102
{ACAD_REACTORS
330
18D2
102
}
330
18D2
100
AcDbXrecord
102
MATERIAL
148
0.0
149
0.0
149
0.0
 93
        0
 94
      127
282
     0
 72
     0
 77
     0
171
     0
175
     0
179
     0
273
     0
  0
XRECORD
  5
18D4
102
{ACAD_REACTORS
330
18D2
102
}
330
18D2
100
AcDbXrecord
270
     1
271
     1
  0
XRECORD
  5
18D3
102
{ACAD_REACTORS
330
18D2
102
}
330
18D2
100
AcDbXrecord
270
     1
271
     1
  0
XRECORD
  5
18D7
102
{ACAD_REACTORS
330
18D2
102
}
330
18D2
100
AcDbXrecord
270
     1
271
     1
  0
XRECORD
  5
18D6
102
{ACAD_REACTORS
330
18D2
102
}
330
18D2
100
AcDbXrecord
270
     1
271
     1
  0
XRECORD
  5
18D8
102
{ACAD_REACTORS
330
18D2
102
}
330
18D2
100
AcDbXrecord
270
     1
271
     1
  0
XRECORD
  5
18D5
102
{ACAD_REACTORS
330
18D2
102
}
330
18D2
100
AcDbXrecord
270
     1
271
     1
  0
XRECORD
  5
1A0A
102
{ACAD_REACTORS
330
18CA
102
}
330
18CA
100
AcDbXrecord
102
MATERIAL
148
0.0
149
0.0
149
0.0
 93
        0
 94
      127
282
     0
 72
     0
 77
     0
171
     0
175
     0
179
     0
273
     0
  0
XRECORD
  5
18CC
102
{ACAD_REACTORS
330
18CA
102
}
330
18CA
100
AcDbXrecord
270
     1
271
     1
  0
XRECORD
  5
18CB
102
{ACAD_REACTORS
330
18CA
102
}
330
18CA
100
AcDbXrecord
270
     1
271
     1
  0
XRECORD
  5
18CF
102
{ACAD_REACTORS
330
18CA
102
}
330
18CA
100
AcDbXrecord
270
     1
271
     1
  0
XRECORD
  5
18CE
102
{ACAD_REACTORS
330
18CA
102
}
330
18CA
100
AcDbXrecord
270
     1
271
     1
  0
XRECORD
  5
18D0
102
{ACAD_REACTORS
330
18CA
102
}
330
18CA
100
AcDbXrecord
270
     1
271
     1
  0
XRECORD
  5
18CD
102
{ACAD_REACTORS
330
18CA
102
}
330
18CA
100
AcDbXrecord
270
     1
271
     1
  0
XRECORD
  5
1A0C
102
{ACAD_REACTORS
330
18DA
102
}
330
18DA
100
AcDbXrecord
102
MATERIAL
148
0.0
149
0.0
149
0.0
 93
        0
 94
      127
282
     0
 72
     0
 77
     0
171
     0
175
     0
179
     0
273
     0
  0
XRECORD
  5
18DC
102
{ACAD_REACTORS
330
18DA
102
}
330
18DA
100
AcDbXrecord
270
     1
271
     1
  0
XRECORD
  5
18DB
102
{ACAD_REACTORS
330
18DA
102
}
330
18DA
100
AcDbXrecord
270
     1
271
     1
  0
XRECORD
  5
18DF
102
{ACAD_REACTORS
330
18DA
102
}
330
18DA
100
AcDbXrecord
270
     1
271
     1
  0
XRECORD
  5
18DE
102
{ACAD_REACTORS
330
18DA
102
}
330
18DA
100
AcDbXrecord
270
     1
271
     1
  0
XRECORD
  5
18E0
102
{ACAD_REACTORS
330
18DA
102
}
330
18DA
100
AcDbXrecord
270
     1
271
     1
  0
XRECORD
  5
18DD
102
{ACAD_REACTORS
330
18DA
102
}
330
18DA
100
AcDbXrecord
270
     1
271
     1
  0
ACAD_PROXY_OBJECT
  5
19F0
102
{ACAD_REACTORS
330
199F
102
}
330
199F
100
AcDbProxyObject
 90
      499
 91
      510
 93
     1044
310
40D054060020000020000003200101A000080002A5058000000C100000000000000340FE901405075F5449544C450041501A8000000C800406800020000A9416000000304000AD7A3703D0AC73FA409014217D2115051115480105406A0000003200101A000080002A5028000000C10002B5E8DC0F42B1CFE903409065F444
310
15441004
340
16
340
16
340
16
 94
        0
1001
ACAD
1000
AcadProxyRoundTripData
1071
      509
1071
   655383
1070
     0
  0
XRECORD
  5
1A0D
102
{ACAD_REACTORS
330
199F
102
}
330
199F
100
AcDbXrecord
102
ACAD_ROUNDTRIP_PRE2007_TABLESTYLE
 90
      512
 91
        0
  1

 92
      512
 93
        0
  2

 94
      512
 95
        0
  3

  0
ENDSEC
  0
EOF
