  0
SECTION
  2
HEADER
  9
$ACADVER
  1
AC1014
  9
$ACADMAINTVER
 70
     9
  9
$DWGCODEPAGE
  3
ANSI_932
  9
$INSBASE
 10
0.0
 20
0.0
 30
0.0
  9
$EXTMIN
 10
29.86246554553008
 20
57.58037930482186
 30
0.0
  9
$EXTMAX
 10
1011.980485618876
 20
464.4776468282847
 30
0.0
  9
$LIMMIN
 10
0.0
 20
0.0
  9
$LIMMAX
 10
297.0
 20
210.0
  9
$ORTHOMODE
 70
     1
  9
$REGENMODE
 70
     1
  9
$FILLMODE
 70
     1
  9
$QTEXTMODE
 70
     0
  9
$MIRRTEXT
 70
     0
  9
$DRAGMODE
 70
     2
  9
$LTSCALE
 40
3.0
  9
$OSMODE
 70
    37
  9
$ATTMODE
 70
     1
  9
$TEXTSIZE
 40
2.0
  9
$TRACEWID
 40
1.0
  9
$TEXTSTYLE
  7
STANDARD
  9
$CLAYER
  8
0
  9
$CELTYPE
  6
BYLAYER
  9
$CECOLOR
 62
   256
  9
$CELTSCALE
 40
1.0
  9
$DELOBJ
 70
     1
  9
$DISPSILH
 70
     0
  9
$DIMSCALE
 40
3.0
  9
$DIMASZ
 40
1.8
  9
$DIMEXO
 40
0.625
  9
$DIMDLI
 40
3.75
  9
$DIMRND
 40
0.0
  9
$DIMDLE
 40
0.0
  9
$DIMEXE
 40
0.8
  9
$DIMTP
 40
0.0
  9
$DIMTM
 40
0.0
  9
$DIMTXT
 40
1.8
  9
$DIMCEN
 40
2.5
  9
$DIMTSZ
 40
0.0
  9
$DIMTOL
 70
     0
  9
$DIMLIM
 70
     0
  9
$DIMTIH
 70
     0
  9
$DIMTOH
 70
     0
  9
$DIMSE1
 70
     0
  9
$DIMSE2
 70
     0
  9
$DIMTAD
 70
     1
  9
$DIMZIN
 70
     8
  9
$DIMBLK
  1

  9
$DIMASO
 70
     1
  9
$DIMSHO
 70
     1
  9
$DIMPOST
  1

  9
$DIMAPOST
  1

  9
$DIMALT
 70
     0
  9
$DIMALTD
 70
     4
  9
$DIMALTF
 40
0.0394
  9
$DIMLFAC
 40
1.0
  9
$DIMTOFL
 70
     1
  9
$DIMTVP
 40
0.0
  9
$DIMTIX
 70
     0
  9
$DIMSOXD
 70
     0
  9
$DIMSAH
 70
     0
  9
$DIMBLK1
  1

  9
$DIMBLK2
  1

  9
$DIMSTYLE
  2
STANDARD
  9
$DIMCLRD
 70
     0
  9
$DIMCLRE
 70
     0
  9
$DIMCLRT
 70
     0
  9
$DIMTFAC
 40
1.0
  9
$DIMGAP
 40
0.75
  9
$DIMJUST
 70
     0
  9
$DIMSD1
 70
     0
  9
$DIMSD2
 70
     0
  9
$DIMTOLJ
 70
     1
  9
$DIMTZIN
 70
     0
  9
$DIMALTZ
 70
     0
  9
$DIMALTTZ
 70
     0
  9
$DIMFIT
 70
     3
  9
$DIMUPT
 70
     0
  9
$DIMUNIT
 70
     8
  9
$DIMDEC
 70
     2
  9
$DIMTDEC
 70
     2
  9
$DIMALTU
 70
     8
  9
$DIMALTTD
 70
     4
  9
$DIMTXSTY
  7
STANDARD
  9
$DIMAUNIT
 70
     0
  9
$LUNITS
 70
     2
  9
$LUPREC
 70
     3
  9
$SKETCHINC
 40
1.0
  9
$FILLETRAD
 40
0.0
  9
$AUNITS
 70
     0
  9
$AUPREC
 70
     2
  9
$MENU
  1
.
  9
$ELEVATION
 40
0.0
  9
$PELEVATION
 40
0.0
  9
$THICKNESS
 40
0.0
  9
$LIMCHECK
 70
     0
  9
$BLIPMODE
 70
     0
  9
$CHAMFERA
 40
0.0
  9
$CHAMFERB
 40
0.0
  9
$CHAMFERC
 40
20.0
  9
$CHAMFERD
 40
0.0
  9
$SKPOLY
 70
     0
  9
$TDCREATE
 40
2454410.674643182
  9
$TDUPDATE
 40
2454425.766030092
  9
$TDINDWG
 40
0.0465022685
  9
$TDUSRTIMER
 40
0.0465020949
  9
$USRTIMER
 70
     1
  9
$ANGBASE
 50
0.0
  9
$ANGDIR
 70
     0
  9
$PDMODE
 70
     0
  9
$PDSIZE
 40
-10.0
  9
$PLINEWID
 40
0.0
  9
$COORDS
 70
     0
  9
$SPLFRAME
 70
     0
  9
$SPLINETYPE
 70
     6
  9
$SPLINESEGS
 70
     8
  9
$ATTDIA
 70
     0
  9
$ATTREQ
 70
     1
  9
$HANDLING
 70
-16383
  9
$HANDSEED
  5
35F8
  9
$SURFTAB1
 70
     6
  9
$SURFTAB2
 70
     6
  9
$SURFTYPE
 70
     6
  9
$SURFU
 70
     6
  9
$SURFV
 70
     6
  9
$UCSNAME
  2

  9
$UCSORG
 10
0.0
 20
0.0
 30
0.0
  9
$UCSXDIR
 10
1.0
 20
0.0
 30
0.0
  9
$UCSYDIR
 10
0.0
 20
1.0
 30
0.0
  9
$PUCSNAME
  2

  9
$PUCSORG
 10
0.0
 20
0.0
 30
0.0
  9
$PUCSXDIR
 10
1.0
 20
0.0
 30
0.0
  9
$PUCSYDIR
 10
0.0
 20
1.0
 30
0.0
  9
$USERI1
 70
     0
  9
$USERI2
 70
     0
  9
$USERI3
 70
     0
  9
$USERI4
 70
     0
  9
$USERI5
 70
     0
  9
$USERR1
 40
0.0
  9
$USERR2
 40
0.0
  9
$USERR3
 40
0.0
  9
$USERR4
 40
0.0
  9
$USERR5
 40
0.0
  9
$WORLDVIEW
 70
     1
  9
$SHADEDGE
 70
     3
  9
$SHADEDIF
 70
    70
  9
$TILEMODE
 70
     1
  9
$MAXACTVP
 70
    48
  9
$PINSBASE
 10
0.0
 20
0.0
 30
0.0
  9
$PLIMCHECK
 70
     0
  9
$PEXTMIN
 10
0.0
 20
0.0
 30
0.0
  9
$PEXTMAX
 10
0.0
 20
0.0
 30
0.0
  9
$PLIMMIN
 10
0.0
 20
0.0
  9
$PLIMMAX
 10
12.0
 20
9.0
  9
$UNITMODE
 70
     0
  9
$VISRETAIN
 70
     1
  9
$PLINEGEN
 70
     0
  9
$PSLTSCALE
 70
     1
  9
$TREEDEPTH
 70
  3020
  9
$PICKSTYLE
 70
     1
  9
$CMLSTYLE
  2
STANDARD
  9
$CMLJUST
 70
     0
  9
$CMLSCALE
 40
1.0
  9
$PROXYGRAPHICS
 70
     1
  9
$MEASUREMENT
 70
     0
  0
ENDSEC
  0
SECTION
  2
CLASSES
  0
CLASS
  1
DICTIONARYVAR
  2
AcDbDictionaryVar
  3
AutoCAD 2000
 90
        0
280
     0
281
     0
  0
CLASS
  1
ACDBDICTIONARYWDFLT
  2
AcDbDictionaryWithDefault
  3
AutoCAD 2000
 90
        0
280
     0
281
     0
  0
CLASS
  1
ACDBPLACEHOLDER
  2
AcDbPlaceHolder
  3
AutoCAD 2000
 90
        0
280
     0
281
     0
  0
CLASS
  1
LAYOUT
  2
AcDbLayout
  3
AutoCAD 2000
 90
        0
280
     0
281
     0
  0
CLASS
  1
MATERIAL
  2
AcDbMaterial
  3
ObjectDBX Classes
 90
     1153
280
     0
281
     0
  0
CLASS
  1
VISUALSTYLE
  2
AcDbVisualStyle
  3
ObjectDBX Classes
 90
     4095
280
     0
281
     0
  0
CLASS
  1
TABLESTYLE
  2
AcDbTableStyle
  3
ObjectDBX Classes
 90
     4095
280
     0
281
     0
  0
CLASS
  1
SCALE
  2
AcDbScale
  3
ObjectDBX Classes
 90
     1153
280
     0
281
     0
  0
CLASS
  1
MLEADERSTYLE
  2
AcDbMLeaderStyle
  3
ACDB_MLEADERSTYLE_CLASS
 90
     4095
280
     0
281
     0
  0
CLASS
  1
SORTENTSTABLE
  2
AcDbSortentsTable
  3
AutoCAD 2000
 90
        0
280
     0
281
     0
  0
CLASS
  1
CELLSTYLEMAP
  2
AcDbCellStyleMap
  3
ObjectDBX Classes
 90
     1152
280
     0
281
     0
  0
CLASS
  1
ACAD_PROXY_OBJECT_WRAPPER
  2
AcDbProxyObjectWrapper
  3
AutoCAD 2000
 90
        0
280
     0
281
     0
  0
CLASS
  1
LONG_TRANSACTION
  2
AcDbLongTransaction
  3
AutoCAD 2000
 90
        0
280
     0
281
     0
  0
CLASS
  1
LWPOLYLINE
  2
AcDbPolyline
  3
AutoCAD 2000
 90
        0
280
     0
281
     1
  0
CLASS
  1
HATCH
  2
AcDbHatch
  3
AutoCAD 2000
 90
        0
280
     0
281
     1
  0
CLASS
  1
XRECORD
  2
AcDbXrecord
  3
AutoCAD 2000
 90
        0
280
     0
281
     0
  0
ENDSEC
  0
SECTION
  2
TABLES
  0
TABLE
  2
VPORT
  5
6E
102
{ACAD_XDICTIONARY
360
357A
102
}
330
0
100
AcDbSymbolTable
 70
     2
  0
VPORT
  5
35D3
330
6E
100
AcDbSymbolTableRecord
100
AcDbViewportTableRecord
  2
*ACTIVE
 70
     0
 10
0.0
 20
0.0
 11
1.0
 21
1.0
 12
527.9799503815693
 22
251.8746740835071
 13
0.0
 23
0.0
 14
10.0
 24
10.0
 15
10.0
 25
10.0
 16
0.0
 26
0.0
 36
1.0
 17
0.0
 27
0.0
 37
0.0
 40
570.4083679619061
 41
1.753504672897196
 42
50.0
 43
0.0
 44
0.0
 50
0.0
 51
0.0
 71
     0
 72
   100
 73
     1
 74
     3
 75
     0
 76
     0
 77
     0
 78
     0
  0
ENDTAB
  0
TABLE
  2
LTYPE
  5
69
330
0
100
AcDbSymbolTable
 70
     5
  0
LTYPE
  5
6A
330
69
100
AcDbSymbolTableRecord
100
AcDbLinetypeTableRecord
  2
BYBLOCK
 70
     0
  3

 72
    65
 73
     0
 40
0.0
  0
LTYPE
  5
6B
330
69
100
AcDbSymbolTableRecord
100
AcDbLinetypeTableRecord
  2
BYLAYER
 70
     0
  3

 72
    65
 73
     0
 40
0.0
  0
LTYPE
  5
8
330
69
100
AcDbSymbolTableRecord
100
AcDbLinetypeTableRecord
  2
CONTINUOUS
 70
     0
  3
Solid line
 72
    65
 73
     0
 40
0.0
  0
LTYPE
  5
27C
330
69
100
AcDbSymbolTableRecord
100
AcDbLinetypeTableRecord
  2
SEKKEI_A2_
 70
     0
  3
center(A2)  ____ _ ____ _ ____ _ ____ _ ____ _ 
 72
    65
 73
     4
 40
14.28749999999999
 49
9.525
 74
     0
 49
-1.587499999999999
 74
     0
 49
1.587499999999999
 74
     0
 49
-1.587499999999999
 74
     0
  0
LTYPE
  5
7F0
330
69
100
AcDbSymbolTableRecord
100
AcDbLinetypeTableRecord
  2
HIDDEN3
 70
     0
  3
Hidden (.3x) _ _ _ _ _ _ _ _ _ _ _ _ _ _ _ _ _
 72
    65
 73
     2
 40
2.857499999999999
 49
1.905
 74
     0
 49
-0.9525
 74
     0
  0
LTYPE
  5
AE3
330
69
100
AcDbSymbolTableRecord
100
AcDbLinetypeTableRecord
  2
CENS
 70
     0
  3
(一点鎖線１)---- - ---- - ---- - ---- - ---- - 
 72
    65
 73
     4
 40
7.0
 49
4.0
 74
     0
 49
-1.0
 74
     0
 49
1.0
 74
     0
 49
-1.0
 74
     0
  0
ENDTAB
  0
TABLE
  2
LAYER
  5
66
102
{ACAD_XDICTIONARY
360
AE4
102
}
330
0
100
AcDbSymbolTable
 70
     9
  0
LAYER
  5
5E
102
{ACAD_XDICTIONARY
360
355F
102
}
330
66
100
AcDbSymbolTableRecord
100
AcDbLayerTableRecord
  2
0
 70
     0
 62
     7
  6
CONTINUOUS
  0
LAYER
  5
3E
102
{ACAD_XDICTIONARY
360
3561
102
}
330
66
100
AcDbSymbolTableRecord
100
AcDbLayerTableRecord
  2
CENTER
 70
     0
 62
     3
  6
SEKKEI_A2_
  0
LAYER
  5
2B5
102
{ACAD_XDICTIONARY
360
3567
102
}
330
66
100
AcDbSymbolTableRecord
100
AcDbLayerTableRecord
  2
HIDS
 70
     0
 62
     1
  6
HIDDEN3
  0
LAYER
  5
2BA
102
{ACAD_XDICTIONARY
360
3569
102
}
330
66
100
AcDbSymbolTableRecord
100
AcDbLayerTableRecord
  2
HOJO
 70
     0
 62
     4
  6
CONTINUOUS
  0
LAYER
  5
3FA
102
{ACAD_XDICTIONARY
360
356D
102
}
330
66
100
AcDbSymbolTableRecord
100
AcDbLayerTableRecord
  2
TITLE
 70
     0
 62
     4
  6
CONTINUOUS
  0
ENDTAB
  0
TABLE
  2
STYLE
  5
67
330
0
100
AcDbSymbolTable
 70
     2
  0
STYLE
  5
16
330
67
100
AcDbSymbolTableRecord
100
AcDbTextStyleTableRecord
  2
STANDARD
 70
     0
 40
0.0
 41
1.0
 50
0.0
 71
     0
 42
2.0
  3
simplex.shx
  4
extfont.shx
  0
ENDTAB
  0
TABLE
  2
VIEW
  5
6C
330
0
100
AcDbSymbolTable
 70
     0
  0
ENDTAB
  0
TABLE
  2
UCS
  5
6D
330
0
100
AcDbSymbolTable
 70
     0
  0
ENDTAB
  0
TABLE
  2
APPID
  5
70
330
0
100
AcDbSymbolTable
 70
     2
  0
APPID
  5
71
330
70
100
AcDbSymbolTableRecord
100
AcDbRegAppTableRecord
  2
ACAD
 70
     0
  0
APPID
  5
1D08
330
70
100
AcDbSymbolTableRecord
100
AcDbRegAppTableRecord
  2
ACAD_MLEADERVER
 70
     0
  0
ENDTAB
  0
TABLE
  2
DIMSTYLE
  5
72
330
0
100
AcDbSymbolTable
 70
     1
  0
DIMSTYLE
105
73
330
72
100
AcDbSymbolTableRecord
100
AcDbDimStyleTableRecord
  2
STANDARD
 70
     0
  3

  4

  5

  6

  7

 40
3.0
 41
1.8
 42
0.625
 43
3.75
 44
0.8
 45
0.0
 46
0.0
 47
0.0
 48
0.0
140
1.8
141
2.5
142
0.0
143
0.0394
144
1.0
145
0.0
146
1.0
147
0.75
 71
     0
 72
     0
 73
     0
 74
     0
 75
     0
 76
     0
 77
     1
 78
     8
170
     0
171
     4
172
     1
173
     0
174
     0
175
     0
176
     0
177
     0
178
     0
270
     8
271
     2
272
     2
273
     8
274
     4
340
16
275
     0
280
     0
281
     0
282
     0
283
     1
284
     0
285
     0
286
     0
287
     3
288
     0
  0
ENDTAB
  0
TABLE
  2
BLOCK_RECORD
  5
1
330
0
100
AcDbSymbolTable
 70
    48
  0
BLOCK_RECORD
  5
2
102
{ACAD_XDICTIONARY
360
353F
102
}
330
1
100
AcDbSymbolTableRecord
100
AcDbBlockTableRecord
  2
*MODEL_SPACE
  0
BLOCK_RECORD
  5
35CE
102
{ACAD_XDICTIONARY
360
35F6
102
}
330
1
100
AcDbSymbolTableRecord
100
AcDbBlockTableRecord
  2
*PAPER_SPACE
  0
BLOCK_RECORD
  5
8DB
330
1
100
AcDbSymbolTableRecord
100
AcDbBlockTableRecord
  2
A$C79D50562
  0
ENDTAB
  0
ENDSEC
  0
SECTION
  2
BLOCKS
  0
BLOCK
  5
5D
330
2
100
AcDbEntity
  8
0
100
AcDbBlockBegin
  2
*MODEL_SPACE
 70
     0
 10
0.0
 20
0.0
 30
0.0
  3
*MODEL_SPACE
  1

  0
ENDBLK
  5
5F
330
2
100
AcDbEntity
  8
0
100
AcDbBlockEnd
  0
BLOCK
  5
35D0
330
35CE
100
AcDbEntity
 67
     1
  8
0
100
AcDbBlockBegin
  2
*PAPER_SPACE
 70
     0
 10
0.0
 20
0.0
 30
0.0
  3
*PAPER_SPACE
  1

  0
ENDBLK
  5
35D1
330
35CE
100
AcDbEntity
 67
     1
  8
0
100
AcDbBlockEnd
  0
BLOCK
  5
8DE
330
8DB
100
AcDbEntity
  8
0
100
AcDbBlockBegin
  2
A$C79D50562
 70
     0
 10
0.0
 20
0.0
 30
0.0
  3
A$C79D50562
  1

  0
LINE
  5
8DC
330
8DB
100
AcDbEntity
  8
CENTER
100
AcDbLine
 10
0.0
 20
7.659444835277668
 30
0.0
 11
0.0
 21
-7.659444835277668
 31
0.0
  0
LINE
  5
8DD
330
8DB
100
AcDbEntity
  8
CENTER
100
AcDbLine
 10
-7.659444835277668
 20
0.0
 30
0.0
 11
7.659444835277668
 21
0.0
 31
0.0
  0
ENDBLK
  5
8DF
330
8DB
100
AcDbEntity
  8
0
100
AcDbBlockEnd
  0
ENDSEC
  0
SECTION
  2
ENTITIES
  0
LINE
  5
F07
330
2
100
AcDbEntity
  8
CENTER
100
AcDbLine
 10
218.8624655455299
 20
116.5803793048208
 30
0.0
 11
29.86246554553008
 21
116.5803793048208
 31
0.0
  0
LINE
  5
F08
330
2
100
AcDbEntity
  8
CENTER
100
AcDbLine
 10
1011.980485618876
 20
116.5803793048076
 30
0.0
 11
855.9804856188721
 21
116.5803793048081
 31
0.0
  0
LINE
  5
F09
330
2
100
AcDbEntity
  8
CENTER
100
AcDbLine
 10
958.9804856188804
 20
168.0803793048231
 30
0.0
 11
958.9804856188804
 21
65.08037930482356
 31
0.0
  0
LINE
  5
F0D
330
2
100
AcDbEntity
  8
CENTER
100
AcDbLine
 10
546.2034988437579
 20
411.4776468309496
 30
0.0
 11
734.9984174506988
 21
411.4776468309505
 31
0.0
  0
LINE
  5
F26
330
2
100
AcDbEntity
  8
0
100
AcDbLine
 10
681.9984174506989
 20
158.0803793048203
 30
0.0
 11
681.9984174506989
 21
75.08037930482038
 31
0.0
  0
LINE
  5
F31
330
2
100
AcDbEntity
  8
0
100
AcDbLine
 10
82.86246554553008
 20
75.08037930482038
 30
0.0
 11
82.86246554553008
 21
158.0803793048203
 31
0.0
  0
LINE
  5
F46
330
2
100
AcDbEntity
  8
0
100
AcDbLine
 10
681.9984174463296
 20
452.4776468309501
 30
0.0
 11
681.9984174463296
 21
370.4776468309501
 31
0.0
  0
LINE
  5
F47
330
2
100
AcDbEntity
  8
0
100
AcDbLine
 10
915.9804856188769
 20
156.9956791628415
 30
0.0
 11
915.9804856188751
 21
76.16507944677739
 31
0.0
  0
LINE
  5
F48
330
2
100
AcDbEntity
  8
0
100
AcDbLine
 10
910.9804856188777
 20
151.580379304803
 30
0.0
 11
910.9804856188777
 21
81.58037930480309
 31
0.0
  0
LINE
  5
F92
330
2
100
AcDbEntity
  8
0
100
AcDbLine
 10
909.0502846122829
 20
144.9669452037711
 30
0.0
 11
899.9106866254734
 21
144.647783409227
 31
0.0
  0
ARC
  5
F93
330
2
100
AcDbEntity
  8
0
100
AcDbCircle
 10
908.9804856188777
 20
146.965726857809
 30
0.0
 40
2.0
100
AcDbArc
 50
272.000000000004
 51
0.0
  0
LINE
  5
F94
330
2
100
AcDbEntity
  8
0
100
AcDbLine
 10
897.9804856188795
 20
142.6490017551882
 30
0.0
 11
897.9804856188778
 21
90.51175685441791
 31
0.0
  0
ARC
  5
F95
330
2
100
AcDbEntity
  8
0
100
AcDbCircle
 10
899.9804856188777
 20
142.6490017551882
 30
0.0
 40
2.0
100
AcDbArc
 50
92.00000000000406
 51
180.0
  0
ARC
  5
F96
330
2
100
AcDbEntity
  8
0
100
AcDbCircle
 10
899.9804856188777
 20
90.51175685441791
 30
0.0
 40
2.0
100
AcDbArc
 50
180.0
 51
267.9999999999959
  0
LINE
  5
F97
330
2
100
AcDbEntity
  8
0
100
AcDbLine
 10
909.0502846122829
 20
88.19381340583419
 30
0.0
 11
899.9106866254726
 21
88.51297520037912
 31
0.0
  0
ARC
  5
F98
330
2
100
AcDbEntity
  8
0
100
AcDbCircle
 10
908.9804856188777
 20
86.1950317517954
 30
0.0
 40
2.0
100
AcDbArc
 50
0.0
 51
87.99999999999595
  0
LINE
  5
FC1
330
2
100
AcDbEntity
  8
0
100
AcDbLine
 10
999.9804856188795
 20
152.6409831259039
 30
0.0
 11
999.9804856188795
 21
80.51977548374413
 31
0.0
  0
LINE
  5
FC2
330
2
100
AcDbEntity
  8
0
100
AcDbLine
 10
917.9804856188795
 20
152.6409831259021
 30
0.0
 11
917.9804856188795
 21
80.51977548374594
 31
0.0
  0
LINE
  5
FC3
330
2
100
AcDbEntity
  8
0
100
AcDbLine
 10
995.0414566949641
 20
75.52014724477664
 30
0.0
 11
958.9804856188795
 21
75.08037930482402
 31
0.0
  0
LINE
  5
FC4
330
2
100
AcDbEntity
  8
0
100
AcDbLine
 10
922.919514542794
 20
75.52014724477846
 30
0.0
 11
958.9804856188786
 21
75.08037930482402
 31
0.0
  0
LINE
  5
FC5
330
2
100
AcDbEntity
  8
0
100
AcDbLine
 10
922.919514542794
 20
157.6406113648696
 30
0.0
 11
958.9804856188786
 21
158.0803793048231
 31
0.0
  0
ARC
  5
FC6
330
2
100
AcDbEntity
  8
0
100
AcDbCircle
 10
994.9804856188796
 20
152.6409831259039
 30
0.0
 40
5.0
100
AcDbArc
 50
0.0
 51
89.30130561700025
  0
ARC
  5
FC7
330
2
100
AcDbEntity
  8
0
100
AcDbCircle
 10
922.9804856188795
 20
152.6409831259021
 30
0.0
 40
5.0
100
AcDbArc
 50
90.69869438299972
 51
180.0
  0
ARC
  5
FC8
330
2
100
AcDbEntity
  8
0
100
AcDbCircle
 10
922.9804856188795
 20
80.51977548374594
 30
0.0
 40
5.0
100
AcDbArc
 50
180.0
 51
269.3013056170002
  0
ARC
  5
FC9
330
2
100
AcDbEntity
  8
0
100
AcDbCircle
 10
994.9804856188796
 20
80.51977548374413
 30
0.0
 40
5.0
100
AcDbArc
 50
270.6986943829997
 51
0.0
  0
LINE
  5
FCA
330
2
100
AcDbEntity
  8
0
100
AcDbLine
 10
995.0414566949641
 20
157.6406113648713
 30
0.0
 11
958.9804856188795
 21
158.0803793048231
 31
0.0
  0
LINE
  5
FCB
330
2
100
AcDbEntity
  8
0
100
AcDbLine
 10
920.5963361305323
 20
76.12479752962423
 30
0.0
 11
915.9804856188751
 21
76.16507944677739
 31
0.0
  0
LINE
  5
FCC
330
2
100
AcDbEntity
  8
0
100
AcDbLine
 10
920.5963361304869
 20
157.0359610799983
 30
0.0
 11
915.9804856188769
 21
156.9956791628415
 31
0.0
  0
LINE
  5
FED
330
2
100
AcDbEntity
  8
0
100
AcDbLine
 10
915.9804856188777
 20
151.580379304803
 30
0.0
 11
910.9804856188777
 21
151.580379304803
 31
0.0
  0
LINE
  5
FEE
330
2
100
AcDbEntity
  8
0
100
AcDbLine
 10
915.9804856188777
 20
81.58037930480309
 30
0.0
 11
910.9804856188777
 21
81.58037930480309
 31
0.0
  0
LINE
  5
FF8
330
2
100
AcDbEntity
  8
CENTER
100
AcDbLine
 10
537.9984174507016
 20
116.5803793048167
 30
0.0
 11
734.9984174506988
 21
116.5803793048171
 31
0.0
  0
LINE
  5
1103
330
2
100
AcDbEntity
  8
0
100
AcDbLine
 10
1000.980485618872
 20
143.0803793048058
 30
0.0
 11
999.9804856188795
 21
143.0803793048058
 31
0.0
  0
LINE
  5
1104
330
2
100
AcDbEntity
  8
0
100
AcDbLine
 10
1000.980485618871
 20
143.0803793048058
 30
0.0
 11
1001.980485618872
 21
142.5030290356167
 31
0.0
  0
LINE
  5
1105
330
2
100
AcDbEntity
  8
0
100
AcDbLine
 10
1001.980485618876
 20
90.65772957399628
 30
0.0
 11
1001.980485618876
 21
142.503029035614
 31
0.0
  0
LINE
  5
1106
330
2
100
AcDbEntity
  8
0
100
AcDbLine
 10
1000.980485618871
 20
90.08037930480446
 30
0.0
 11
1001.980485618872
 21
90.65772957399401
 31
0.0
  0
LINE
  5
1107
330
2
100
AcDbEntity
  8
0
100
AcDbLine
 10
1000.980485618872
 20
90.08037930480446
 30
0.0
 11
999.9804856188795
 21
90.08037930480446
 31
0.0
  0
LINE
  5
1108
330
2
100
AcDbEntity
  8
0
100
AcDbLine
 10
1000.980485618872
 20
90.08037930480446
 30
0.0
 11
1000.980485618871
 21
143.0803793048058
 31
0.0
  0
LINE
  5
11E1
330
2
100
AcDbEntity
  8
CENTER
100
AcDbLine
 10
993.6287178970236
 20
89.59159186194444
 30
0.0
 11
993.6287178970236
 21
74.27270219138932
 31
0.0
  0
INSERT
  5
11E2
330
2
100
AcDbEntity
  8
0
100
AcDbBlockReference
  2
A$C79D50562
 10
924.3322533407411
 20
81.93214702666688
 30
0.0
  0
ARC
  5
11E3
330
2
100
AcDbEntity
  8
0
100
AcDbCircle
 10
922.9804856188822
 20
80.58037930480764
 30
0.0
 40
5.0
100
AcDbArc
 50
180.0
 51
270.0
  0
ARC
  5
11E4
330
2
100
AcDbEntity
  8
0
100
AcDbCircle
 10
994.9804856188823
 20
80.58037930480764
 30
0.0
 40
5.0
100
AcDbArc
 50
270.0
 51
0.0
  0
LINE
  5
11E5
330
2
100
AcDbEntity
  8
CENTER
100
AcDbLine
 10
985.9692730617464
 20
151.2286115829484
 30
0.0
 11
1001.2881627323
 21
151.2286115829484
 31
0.0
  0
LINE
  5
11E6
330
2
100
AcDbEntity
  8
0
100
AcDbLine
 10
922.9804856188822
 20
157.5803793048076
 30
0.0
 11
994.9804856188823
 21
157.5803793048076
 31
0.0
  0
ARC
  5
11E7
330
2
100
AcDbEntity
  8
0
100
AcDbCircle
 10
983.9804856188823
 20
141.5803793048076
 30
0.0
 40
5.0
100
AcDbArc
 50
0.0
 51
90.0
  0
ARC
  5
11E8
330
2
100
AcDbEntity
  8
0
100
AcDbCircle
 10
983.9804856188823
 20
141.5803793048076
 30
0.0
 40
6.499999999999829
100
AcDbArc
 50
0.0
 51
90.0
  0
LINE
  5
11E9
330
2
100
AcDbEntity
  8
CENTER
100
AcDbLine
 10
985.9692730617464
 20
81.93214702666688
 30
0.0
 11
1001.2881627323
 21
81.93214702666688
 31
0.0
  0
ARC
  5
11EA
330
2
100
AcDbEntity
  8
0
100
AcDbCircle
 10
983.9804856188823
 20
91.58037930480764
 30
0.0
 40
5.0
100
AcDbArc
 50
270.0
 51
0.0
  0
ARC
  5
11EB
330
2
100
AcDbEntity
  8
0
100
AcDbCircle
 10
983.9804856188823
 20
91.58037930480764
 30
0.0
 40
6.499999999999829
100
AcDbArc
 50
270.0
 51
0.0
  0
LINE
  5
11EC
330
2
100
AcDbEntity
  8
0
100
AcDbLine
 10
988.9804856188822
 20
141.5803793048076
 30
0.0
 11
988.9804856188822
 21
91.58037930480764
 31
0.0
  0
LINE
  5
11ED
330
2
100
AcDbEntity
  8
0
100
AcDbLine
 10
928.9804856188823
 20
141.5803793048076
 30
0.0
 11
928.9804856188823
 21
91.58037930480764
 31
0.0
  0
LINE
  5
11EE
330
2
100
AcDbEntity
  8
0
100
AcDbLine
 10
927.4804856188822
 20
141.5803793048076
 30
0.0
 11
927.4804856188822
 21
91.58037930480764
 31
0.0
  0
CIRCLE
  5
11EF
330
2
100
AcDbEntity
  8
0
100
AcDbCircle
 10
958.9804856188823
 20
116.5803793048076
 30
0.0
 40
25.00000000482703
  0
LINE
  5
11F0
330
2
100
AcDbEntity
  8
0
100
AcDbLine
 10
983.9804856188823
 20
86.58037930480764
 30
0.0
 11
933.9804856188823
 21
86.58037930480764
 31
0.0
  0
LINE
  5
11F1
330
2
100
AcDbEntity
  8
0
100
AcDbLine
 10
983.9804856188823
 20
85.08037930480766
 30
0.0
 11
933.9804856188823
 21
85.08037930480766
 31
0.0
  0
ARC
  5
11F2
330
2
100
AcDbEntity
  8
0
100
AcDbCircle
 10
933.9804856188823
 20
91.58037930480764
 30
0.0
 40
5.0
100
AcDbArc
 50
180.0
 51
270.0
  0
ARC
  5
11F3
330
2
100
AcDbEntity
  8
0
100
AcDbCircle
 10
933.9804856188823
 20
91.58037930480764
 30
0.0
 40
6.499999999999829
100
AcDbArc
 50
180.0
 51
270.0
  0
LINE
  5
11F4
330
2
100
AcDbEntity
  8
CENTER
100
AcDbLine
 10
934.2317482773545
 20
95.28792468577973
 30
0.0
 11
934.2317482773545
 21
88.37535924077753
 31
0.0
  0
LINE
  5
11F5
330
2
100
AcDbEntity
  8
CENTER
100
AcDbLine
 10
930.7754655548526
 20
91.8316419632784
 30
0.0
 11
937.6880309998544
 21
91.8316419632784
 31
0.0
  0
LINE
  5
11F6
330
2
100
AcDbEntity
  8
CENTER
100
AcDbLine
 10
980.2729402379121
 20
91.8316419632784
 30
0.0
 11
987.1855056829119
 21
91.8316419632784
 31
0.0
  0
LINE
  5
11F7
330
2
100
AcDbEntity
  8
CENTER
100
AcDbLine
 10
983.729222960412
 20
95.28792468577927
 30
0.0
 11
983.729222960412
 21
88.37535924077753
 31
0.0
  0
LINE
  5
11F8
330
2
100
AcDbEntity
  8
0
100
AcDbLine
 10
933.9804856188823
 20
146.5803793048076
 30
0.0
 11
983.9804856188823
 21
146.5803793048076
 31
0.0
  0
LINE
  5
11F9
330
2
100
AcDbEntity
  8
0
100
AcDbLine
 10
933.9804856188823
 20
148.0803793048076
 30
0.0
 11
983.9804856188823
 21
148.0803793048076
 31
0.0
  0
ARC
  5
11FA
330
2
100
AcDbEntity
  8
0
100
AcDbCircle
 10
922.9804856188822
 20
152.5803793048076
 30
0.0
 40
5.0
100
AcDbArc
 50
180.0
 51
180.0
  0
LINE
  5
11FB
330
2
100
AcDbEntity
  8
CENTER
100
AcDbLine
 10
916.6728085054639
 20
151.2286115829484
 30
0.0
 11
931.9916981760199
 21
151.2286115829484
 31
0.0
  0
LINE
  5
11FC
330
2
100
AcDbEntity
  8
CENTER
100
AcDbLine
 10
924.3322533407411
 20
158.8880564182259
 30
0.0
 11
924.3322533407411
 21
143.5691667476708
 31
0.0
  0
ARC
  5
11FD
330
2
100
AcDbEntity
  8
0
100
AcDbCircle
 10
933.9804856188823
 20
141.5803793048076
 30
0.0
 40
5.0
100
AcDbArc
 50
90.0
 51
180.0
  0
ARC
  5
11FE
330
2
100
AcDbEntity
  8
0
100
AcDbCircle
 10
933.9804856188823
 20
141.5803793048076
 30
0.0
 40
6.499999999999829
100
AcDbArc
 50
90.0
 51
180.0
  0
LINE
  5
11FF
330
2
100
AcDbEntity
  8
CENTER
100
AcDbLine
 10
934.2317482773545
 20
144.7853993688377
 30
0.0
 11
934.2317482773545
 21
137.8728339238355
 31
0.0
  0
LINE
  5
1200
330
2
100
AcDbEntity
  8
CENTER
100
AcDbLine
 10
930.7754655548526
 20
141.3291166463364
 30
0.0
 11
937.6880309998544
 21
141.3291166463364
 31
0.0
  0
LINE
  5
1201
330
2
100
AcDbEntity
  8
CENTER
100
AcDbLine
 10
983.729222960412
 20
144.7853993688377
 30
0.0
 11
983.729222960412
 21
137.8728339238355
 31
0.0
  0
LINE
  5
1202
330
2
100
AcDbEntity
  8
CENTER
100
AcDbLine
 10
980.2729402379121
 20
141.3291166463368
 30
0.0
 11
987.1855056829119
 21
141.3291166463368
 31
0.0
  0
LINE
  5
1203
330
2
100
AcDbEntity
  8
0
100
AcDbLine
 10
990.4804856188823
 20
141.5803793048076
 30
0.0
 11
990.4804856188823
 21
91.58037930480764
 31
0.0
  0
LINE
  5
1204
330
2
100
AcDbEntity
  8
CENTER
100
AcDbLine
 10
993.6287178970236
 20
158.8880564182259
 30
0.0
 11
993.6287178970236
 21
143.5691667476708
 31
0.0
  0
ARC
  5
1205
330
2
100
AcDbEntity
  8
0
100
AcDbCircle
 10
994.9804856188823
 20
152.5803793048076
 30
0.0
 40
5.0
100
AcDbArc
 50
0.0
 51
90.0
  0
CIRCLE
  5
1206
330
2
100
AcDbEntity
  8
CENTER
100
AcDbCircle
 10
958.9804856188823
 20
116.5803793048076
 30
0.0
 40
35.00000000000003
  0
LINE
  5
1207
330
2
100
AcDbEntity
  8
HIDS
100
AcDbLine
 10
942.7304856188824
 20
148.0803793048076
 30
0.0
 11
942.7304856188824
 21
132.1427538022968
 31
0.0
  0
LINE
  5
1208
330
2
100
AcDbEntity
  8
HIDS
100
AcDbLine
 10
954.2304856188822
 20
148.0803793048076
 30
0.0
 11
954.2304856188822
 21
138.5732758852964
 31
0.0
  0
LINE
  5
1209
330
2
100
AcDbEntity
  8
0
100
AcDbLine
 10
994.9804856188823
 20
75.58037930480764
 30
0.0
 11
922.9804856188822
 21
75.58037930480764
 31
0.0
  0
LINE
  5
120A
330
2
100
AcDbEntity
  8
0
100
AcDbLine
 10
693.9984174463297
 20
371.8294145528088
 30
0.0
 11
693.9984174463297
 21
451.1258791090904
 31
0.0
  0
LINE
  5
120C
330
2
100
AcDbEntity
  8
0
100
AcDbLine
 10
681.9984174463296
 20
452.4776468309501
 30
0.0
 11
692.0158705173264
 21
452.390225842399
 31
0.0
  0
LINE
  5
120D
330
2
100
AcDbEntity
  8
0
100
AcDbLine
 10
700.9984174463296
 20
443.3180205970502
 30
0.0
 11
719.7110745041267
 21
442.991389953127
 31
0.0
  0
LINE
  5
120E
330
2
100
AcDbEntity
  8
0
100
AcDbLine
 10
721.9984174463296
 20
441.5300120257348
 30
0.0
 11
724.9984174463296
 21
441.4776468309501
 31
0.0
  0
LINE
  5
120F
330
2
100
AcDbEntity
  8
0
100
AcDbLine
 10
681.9984174463296
 20
370.4776468309501
 30
0.0
 11
692.0158705173263
 21
370.5650678195003
 31
0.0
  0
LINE
  5
1212
330
2
100
AcDbEntity
  8
0
100
AcDbLine
 10
721.9984174463296
 20
441.5300120257348
 30
0.0
 11
721.0650403807457
 21
442.4308047767541
 31
0.0
  0
LINE
  5
1213
330
2
100
AcDbEntity
  8
0
100
AcDbLine
 10
700.9984174463296
 20
379.6372730648495
 30
0.0
 11
719.7110745041268
 21
379.9639037087727
 31
0.0
  0
LINE
  5
1214
330
2
100
AcDbEntity
  8
0
100
AcDbLine
 10
721.9984174463296
 20
381.425281636165
 30
0.0
 11
724.9984174463296
 21
381.4776468309501
 31
0.0
  0
LINE
  5
1215
330
2
100
AcDbEntity
  8
0
100
AcDbLine
 10
721.9984174463296
 20
381.425281636165
 30
0.0
 11
721.0650403807457
 21
380.5244888851456
 31
0.0
  0
LINE
  5
1216
330
2
100
AcDbEntity
  8
0
100
AcDbLine
 10
724.9984174463296
 20
441.4776468309501
 30
0.0
 11
724.9984174463296
 21
381.4776468309501
 31
0.0
  0
LINE
  5
1217
330
2
100
AcDbEntity
  8
0
100
AcDbLine
 10
721.9984174463296
 20
381.425281636165
 30
0.0
 11
721.9984174463296
 21
441.5300120257348
 31
0.0
  0
CIRCLE
  5
1218
330
2
100
AcDbEntity
  8
0
100
AcDbCircle
 10
993.83189997276
 20
151.2286115829484
 30
0.0
 40
5.0
  0
CIRCLE
  5
1219
330
2
100
AcDbEntity
  8
0
100
AcDbCircle
 10
993.83189997276
 20
151.2286115829484
 30
0.0
 40
4.307179676972423
  0
CIRCLE
  5
121A
330
2
100
AcDbEntity
  8
0
100
AcDbCircle
 10
993.83189997276
 20
151.2286115829484
 30
0.0
 40
2.886751345948113
  0
LWPOLYLINE
  5
121B
330
2
100
AcDbEntity
  8
0
100
AcDbPolyline
 90
        6
 70
     1
 43
0.0
 10
996.3318999727601
 20
152.6719872559224
 10
993.83189997276
 20
154.1153629288965
 10
991.33189997276
 20
152.6719872559224
 10
991.33189997276
 20
149.7852359099743
 10
993.83189997276
 20
148.3418602370002
 10
996.3318999727601
 20
149.7852359099743
  0
CIRCLE
  5
121C
330
2
100
AcDbEntity
  8
0
100
AcDbCircle
 10
993.83189997276
 20
81.93214702666688
 30
0.0
 40
5.0
  0
CIRCLE
  5
121D
330
2
100
AcDbEntity
  8
0
100
AcDbCircle
 10
993.83189997276
 20
81.93214702666688
 30
0.0
 40
4.307179676972423
  0
CIRCLE
  5
121E
330
2
100
AcDbEntity
  8
0
100
AcDbCircle
 10
993.83189997276
 20
81.93214702666688
 30
0.0
 40
2.886751345948113
  0
LWPOLYLINE
  5
121F
330
2
100
AcDbEntity
  8
0
100
AcDbPolyline
 90
        6
 70
     1
 43
0.0
 10
996.3318999727601
 20
83.37552269964096
 10
993.83189997276
 20
84.81889837261503
 10
991.33189997276
 20
83.37552269964096
 10
991.33189997276
 20
80.48877135369281
 10
993.83189997276
 20
79.04539568071874
 10
996.3318999727601
 20
80.48877135369281
  0
CIRCLE
  5
1220
330
2
100
AcDbEntity
  8
0
100
AcDbCircle
 10
924.3322533407411
 20
81.93214702666688
 30
0.0
 40
5.0
  0
CIRCLE
  5
1221
330
2
100
AcDbEntity
  8
0
100
AcDbCircle
 10
924.3322533407411
 20
81.93214702666688
 30
0.0
 40
4.307179676972423
  0
CIRCLE
  5
1222
330
2
100
AcDbEntity
  8
0
100
AcDbCircle
 10
924.3322533407411
 20
81.93214702666688
 30
0.0
 40
2.886751345948113
  0
LWPOLYLINE
  5
1223
330
2
100
AcDbEntity
  8
0
100
AcDbPolyline
 90
        6
 70
     1
 43
0.0
 10
926.8322533407411
 20
83.37552269964096
 10
924.3322533407411
 20
84.81889837261503
 10
921.8322533407411
 20
83.37552269964096
 10
921.8322533407411
 20
80.48877135369281
 10
924.3322533407411
 20
79.04539568071874
 10
926.8322533407411
 20
80.48877135369281
  0
CIRCLE
  5
1224
330
2
100
AcDbEntity
  8
0
100
AcDbCircle
 10
924.3322533407411
 20
151.2286115829484
 30
0.0
 40
5.0
  0
CIRCLE
  5
1225
330
2
100
AcDbEntity
  8
0
100
AcDbCircle
 10
924.3322533407411
 20
151.2286115829484
 30
0.0
 40
4.307179676972423
  0
CIRCLE
  5
1226
330
2
100
AcDbEntity
  8
0
100
AcDbCircle
 10
924.3322533407411
 20
151.2286115829484
 30
0.0
 40
2.886751345948113
  0
LWPOLYLINE
  5
1227
330
2
100
AcDbEntity
  8
0
100
AcDbPolyline
 90
        6
 70
     1
 43
0.0
 10
926.8322533407411
 20
152.6719872559224
 10
924.3322533407411
 20
154.1153629288965
 10
921.8322533407411
 20
152.6719872559224
 10
921.8322533407411
 20
149.7852359099743
 10
924.3322533407411
 20
148.3418602370002
 10
926.8322533407411
 20
149.7852359099743
  0
LINE
  5
1228
330
2
100
AcDbEntity
  8
CENTER
  6
CENS
100
AcDbLine
 10
678.9984174463296
 20
376.8294145528088
 30
0.0
 11
705.9984174463296
 21
376.8294145528088
 31
0.0
  0
LINE
  5
1229
330
2
100
AcDbEntity
  8
0
100
AcDbLine
 10
700.59841744633
 20
381.8294145528088
 30
0.0
 11
700.59841744633
 21
371.8294145528088
 31
0.0
  0
LINE
  5
122A
330
2
100
AcDbEntity
  8
0
100
AcDbLine
 10
700.9984174463296
 20
372.5222348758366
 30
0.0
 11
700.9984174463296
 21
381.1365942297816
 31
0.0
  0
LINE
  5
122B
330
2
100
AcDbEntity
  8
0
100
AcDbLine
 10
694.9984174463296
 20
381.8294145528088
 30
0.0
 11
694.9984174463296
 21
371.8294145528088
 31
0.0
  0
LINE
  5
122C
330
2
100
AcDbEntity
  8
0
100
AcDbLine
 10
694.9984174463296
 20
371.8294145528088
 30
0.0
 11
693.9984174463297
 21
371.8294145528088
 31
0.0
  0
LINE
  5
122D
330
2
100
AcDbEntity
  8
0
100
AcDbLine
 10
693.9984174463297
 20
381.8294145528088
 30
0.0
 11
694.9984174463296
 21
381.8294145528088
 31
0.0
  0
LINE
  5
122E
330
2
100
AcDbEntity
  8
0
100
AcDbLine
 10
694.9984174463296
 20
381.8294145528088
 30
0.0
 11
694.9984174463296
 21
371.8294145528088
 31
0.0
  0
LINE
  5
122F
330
2
100
AcDbEntity
  8
0
100
AcDbLine
 10
700.59841744633
 20
381.8294145528088
 30
0.0
 11
694.9984174463296
 21
381.8294145528088
 31
0.0
  0
LINE
  5
1230
330
2
100
AcDbEntity
  8
0
100
AcDbLine
 10
694.9984174463296
 20
371.8294145528088
 30
0.0
 11
700.59841744633
 21
371.8294145528088
 31
0.0
  0
LINE
  5
1231
330
2
100
AcDbEntity
  8
0
100
AcDbLine
 10
700.59841744633
 20
371.8294145528088
 30
0.0
 11
700.9984174463296
 21
372.5222348758366
 31
0.0
  0
LINE
  5
1232
330
2
100
AcDbEntity
  8
CENTER
  6
CENS
100
AcDbLine
 10
678.9984174463296
 20
446.1258791090904
 30
0.0
 11
705.9984174463296
 21
446.1258791090904
 31
0.0
  0
LINE
  5
1233
330
2
100
AcDbEntity
  8
0
100
AcDbLine
 10
700.59841744633
 20
441.1258791090904
 30
0.0
 11
700.59841744633
 21
451.1258791090904
 31
0.0
  0
LINE
  5
1234
330
2
100
AcDbEntity
  8
0
100
AcDbLine
 10
700.9984174463296
 20
450.4330587860631
 30
0.0
 11
700.9984174463296
 21
441.8186994321185
 31
0.0
  0
LINE
  5
1235
330
2
100
AcDbEntity
  8
0
100
AcDbLine
 10
694.9984174463296
 20
441.1258791090904
 30
0.0
 11
694.9984174463296
 21
451.1258791090904
 31
0.0
  0
LINE
  5
1236
330
2
100
AcDbEntity
  8
0
100
AcDbLine
 10
694.9984174463296
 20
451.1258791090904
 30
0.0
 11
693.9984174463297
 21
451.1258791090904
 31
0.0
  0
LINE
  5
1237
330
2
100
AcDbEntity
  8
0
100
AcDbLine
 10
693.9984174463297
 20
441.1258791090904
 30
0.0
 11
694.9984174463296
 21
441.1258791090904
 31
0.0
  0
LINE
  5
1238
330
2
100
AcDbEntity
  8
0
100
AcDbLine
 10
694.9984174463296
 20
441.1258791090904
 30
0.0
 11
694.9984174463296
 21
451.1258791090904
 31
0.0
  0
LINE
  5
1239
330
2
100
AcDbEntity
  8
0
100
AcDbLine
 10
700.59841744633
 20
441.1258791090904
 30
0.0
 11
694.9984174463296
 21
441.1258791090904
 31
0.0
  0
LINE
  5
123A
330
2
100
AcDbEntity
  8
0
100
AcDbLine
 10
694.9984174463296
 20
451.1258791090904
 30
0.0
 11
700.59841744633
 21
451.1258791090904
 31
0.0
  0
LINE
  5
123B
330
2
100
AcDbEntity
  8
0
100
AcDbLine
 10
700.59841744633
 20
451.1258791090908
 30
0.0
 11
700.9984174463296
 21
450.4330587860631
 31
0.0
  0
LINE
  5
123C
330
2
100
AcDbEntity
  8
0
100
AcDbLine
 10
700.59841744633
 20
441.1258791090904
 30
0.0
 11
700.9984174463296
 21
441.8186994321181
 31
0.0
  0
LINE
  5
123D
330
2
100
AcDbEntity
  8
0
100
AcDbLine
 10
700.9984174463296
 20
381.1365942297816
 30
0.0
 11
700.59841744633
 21
381.8294145528088
 31
0.0
  0
LINE
  5
123E
330
2
100
AcDbEntity
  8
HIDS
100
AcDbLine
 10
950.4804856188822
 20
115.8303793048076
 30
0.0
 11
950.4804856188822
 21
107.3803793048078
 31
0.0
  0
LINE
  5
123F
330
2
100
AcDbEntity
  8
HIDS
100
AcDbLine
 10
950.1471522855501
 20
115.8303793048076
 30
0.0
 11
950.1471522855501
 21
107.0470459714743
 31
0.0
  0
LINE
  5
1240
330
2
100
AcDbEntity
  8
HIDS
100
AcDbLine
 10
946.8138189522163
 20
115.8303793048076
 30
0.0
 11
946.8138189522163
 21
108.2416310640806
 31
0.0
  0
LINE
  5
1241
330
2
100
AcDbEntity
  8
HIDS
100
AcDbLine
 10
946.4804856188823
 20
115.8303793048076
 30
0.0
 11
946.4804856188823
 21
108.7501494231247
 31
0.0
  0
LINE
  5
1242
330
2
100
AcDbEntity
  8
CENTER
  6
CENS
100
AcDbLine
 10
948.4804856188823
 20
155.5073132023713
 30
0.0
 11
948.4804856188823
 21
105.1281289602507
 31
0.0
  0
LINE
  5
1243
330
2
100
AcDbEntity
  8
HIDS
100
AcDbLine
 10
950.4804856188822
 20
115.8303793048076
 30
0.0
 11
950.4804856188822
 21
104.5258158535667
 31
0.0
  0
LINE
  5
1244
330
2
100
AcDbEntity
  8
HIDS
100
AcDbLine
 10
947.4512835649678
 20
107.3803793048078
 30
0.0
 11
948.4804856188823
 21
107.3803793048078
 31
0.0
  0
LINE
  5
1245
330
2
100
AcDbEntity
  8
0
100
AcDbLine
 10
947.2804856188815
 20
106.5803793048076
 30
0.0
 11
948.1378613977815
 21
106.5803793048076
 31
0.0
  0
LINE
  5
1246
330
2
100
AcDbEntity
  8
0
100
AcDbLine
 10
946.4804856188823
 20
108.7501494231247
 30
0.0
 11
946.4804856188823
 21
107.3803793048078
 31
0.0
  0
LINE
  5
1247
330
2
100
AcDbEntity
  8
HOJO
100
AcDbLine
 10
946.8138189522163
 20
108.2416310640806
 30
0.0
 11
946.8138189522163
 21
107.0470459714743
 31
0.0
  0
LINE
  5
1248
330
2
100
AcDbEntity
  8
0
100
AcDbLine
 10
946.4804856188823
 20
107.3803793048078
 30
0.0
 11
947.4512835649678
 21
107.3803793048078
 31
0.0
  0
LINE
  5
1249
330
2
100
AcDbEntity
  8
0
100
AcDbLine
 10
946.4804856188823
 20
107.3803793048078
 30
0.0
 11
947.2804856188815
 21
106.5803793048076
 31
0.0
  0
LINE
  5
124A
330
2
100
AcDbEntity
  8
HIDS
100
AcDbLine
 10
948.1378613977815
 20
106.5803793048076
 30
0.0
 11
948.4804856188823
 21
106.5803793048076
 31
0.0
  0
LINE
  5
124B
330
2
100
AcDbEntity
  8
HIDS
100
AcDbLine
 10
950.4804856188822
 20
107.3803793048078
 30
0.0
 11
949.680485618883
 21
106.5803793048076
 31
0.0
  0
LINE
  5
124C
330
2
100
AcDbEntity
  8
HIDS
100
AcDbLine
 10
949.680485618883
 20
106.5803793048076
 30
0.0
 11
948.4804856188823
 21
106.5803793048076
 31
0.0
  0
LINE
  5
124D
330
2
100
AcDbEntity
  8
HIDS
100
AcDbLine
 10
950.4804856188822
 20
107.3803793048078
 30
0.0
 11
948.4804856188823
 21
107.3803793048078
 31
0.0
  0
LINE
  5
124E
330
2
100
AcDbEntity
  8
HIDS
100
AcDbLine
 10
950.1471522855501
 20
107.0470459714743
 30
0.0
 11
950.1471522855501
 21
104.7678976763682
 31
0.0
  0
LINE
  5
124F
330
2
100
AcDbEntity
  8
HIDS
100
AcDbLine
 10
945.1037965325051
 20
121.5803793048076
 30
0.0
 11
951.9804856188823
 21
121.5803793048076
 31
0.0
  0
LINE
  5
1250
330
2
100
AcDbEntity
  8
HIDS
100
AcDbLine
 10
947.0694613136441
 20
125.2803793048074
 30
0.0
 11
951.9804856188823
 21
125.2803793048074
 31
0.0
  0
LINE
  5
1251
330
2
100
AcDbEntity
  8
HIDS
100
AcDbLine
 10
951.4608703766118
 20
125.5803793048076
 30
0.0
 11
947.2944897263626
 21
125.5803793048076
 31
0.0
  0
LINE
  5
1252
330
2
100
AcDbEntity
  8
HIDS
100
AcDbLine
 10
950.4804856188822
 20
119.9137126381406
 30
0.0
 11
946.4804856188823
 21
119.9137126381406
 31
0.0
  0
LINE
  5
1253
330
2
100
AcDbEntity
  8
HIDS
100
AcDbLine
 10
945.1037965325051
 20
121.5803793048076
 30
0.0
 11
952.4804856188822
 21
121.5803793048076
 31
0.0
  0
LINE
  5
1254
330
2
100
AcDbEntity
  8
0
100
AcDbLine
 10
944.249565756225
 20
117.3303793048076
 30
0.0
 11
948.4804856188823
 21
117.3303793048076
 31
0.0
  0
LINE
  5
1255
330
2
100
AcDbEntity
  8
0
100
AcDbLine
 10
944.249565756225
 20
115.8303793048076
 30
0.0
 11
948.4804856188823
 21
115.8303793048076
 31
0.0
  0
LINE
  5
1256
330
2
100
AcDbEntity
  8
0
100
AcDbLine
 10
944.9804856188823
 20
125.2803793048074
 30
0.0
 11
944.9804856188823
 21
121.5803793048076
 31
0.0
  0
LINE
  5
1257
330
2
100
AcDbEntity
  8
0
100
AcDbLine
 10
946.4804856188823
 20
117.3303793048076
 30
0.0
 11
946.4804856188823
 21
115.8303793048076
 31
0.0
  0
LINE
  5
1258
330
2
100
AcDbEntity
  8
HOJO
100
AcDbLine
 10
946.8138189522163
 20
117.3303793048076
 30
0.0
 11
946.8138189522163
 21
115.8303793048076
 31
0.0
  0
LINE
  5
1259
330
2
100
AcDbEntity
  8
HIDS
100
AcDbLine
 10
946.4804856188823
 20
121.5803793048076
 30
0.0
 11
946.8138189522163
 21
119.9137126381406
 31
0.0
  0
LINE
  5
125A
330
2
100
AcDbEntity
  8
0
100
AcDbLine
 10
944.9804856188823
 20
121.5803793048076
 30
0.0
 11
945.1037965325051
 21
121.5803793048076
 31
0.0
  0
LINE
  5
125B
330
2
100
AcDbEntity
  8
HIDS
100
AcDbLine
 10
946.8138189522163
 20
119.9137126381406
 30
0.0
 11
946.8138189522163
 21
117.3303793048076
 31
0.0
  0
LINE
  5
125C
330
2
100
AcDbEntity
  8
HIDS
100
AcDbLine
 10
946.4804856188823
 20
121.5803793048076
 30
0.0
 11
946.4804856188823
 21
117.3303793048076
 31
0.0
  0
LINE
  5
125D
330
2
100
AcDbEntity
  8
HIDS
100
AcDbLine
 10
945.9804856188823
 20
121.5803793048076
 30
0.0
 11
945.9804856188823
 21
117.3303793048076
 31
0.0
  0
LINE
  5
125E
330
2
100
AcDbEntity
  8
0
100
AcDbLine
 10
947.2944897263626
 20
125.5803793048076
 30
0.0
 11
945.5001008611528
 21
125.5803793048076
 31
0.0
  0
LINE
  5
125F
330
2
100
AcDbEntity
  8
0
100
AcDbLine
 10
944.9804856188823
 20
125.2803793048074
 30
0.0
 11
945.5001008611528
 21
125.5803793048076
 31
0.0
  0
LINE
  5
1260
330
2
100
AcDbEntity
  8
0
100
AcDbLine
 10
944.9804856188823
 20
125.2803793048074
 30
0.0
 11
947.0694613136441
 21
125.2803793048074
 31
0.0
  0
LINE
  5
1261
330
2
100
AcDbEntity
  8
HIDS
100
AcDbLine
 10
951.9804856188823
 20
121.5803793048076
 30
0.0
 11
951.9804856188823
 21
125.2803793048074
 31
0.0
  0
LINE
  5
1262
330
2
100
AcDbEntity
  8
HIDS
100
AcDbLine
 10
952.4804856188822
 20
129.8209419816731
 30
0.0
 11
952.4804856188822
 21
121.5803793048076
 31
0.0
  0
LINE
  5
1263
330
2
100
AcDbEntity
  8
HOJO
100
AcDbLine
 10
950.1471522855501
 20
117.3303793048076
 30
0.0
 11
950.1471522855501
 21
115.8303793048076
 31
0.0
  0
LINE
  5
1264
330
2
100
AcDbEntity
  8
0
100
AcDbLine
 10
950.4804856188822
 20
117.3303793048076
 30
0.0
 11
950.4804856188822
 21
115.8303793048076
 31
0.0
  0
LINE
  5
1265
330
2
100
AcDbEntity
  8
0
100
AcDbLine
 10
948.4804856188823
 20
115.8303793048076
 30
0.0
 11
952.0207801653453
 21
115.8303793048076
 31
0.0
  0
LINE
  5
1266
330
2
100
AcDbEntity
  8
0
100
AcDbLine
 10
948.4804856188823
 20
117.3303793048076
 30
0.0
 11
952.0207801653453
 21
117.3303793048076
 31
0.0
  0
LINE
  5
1267
330
2
100
AcDbEntity
  8
HIDS
100
AcDbLine
 10
950.4804856188822
 20
121.5803793048076
 30
0.0
 11
950.1471522855501
 21
119.9137126381406
 31
0.0
  0
LINE
  5
1268
330
2
100
AcDbEntity
  8
HIDS
100
AcDbLine
 10
950.4804856188822
 20
121.5803793048076
 30
0.0
 11
950.4804856188822
 21
117.3303793048076
 31
0.0
  0
LINE
  5
1269
330
2
100
AcDbEntity
  8
HIDS
100
AcDbLine
 10
950.1471522855501
 20
119.9137126381406
 30
0.0
 11
950.1471522855501
 21
117.3303793048076
 31
0.0
  0
LINE
  5
126A
330
2
100
AcDbEntity
  8
HIDS
100
AcDbLine
 10
950.9804856188823
 20
121.5803793048076
 30
0.0
 11
950.9804856188823
 21
117.3303793048076
 31
0.0
  0
LINE
  5
126B
330
2
100
AcDbEntity
  8
HIDS
100
AcDbLine
 10
951.4608703766118
 20
125.5803793048076
 30
0.0
 11
951.9804856188823
 21
125.2803793048074
 31
0.0
  0
LINE
  5
126C
330
2
100
AcDbEntity
  8
0
100
AcDbLine
 10
972.9804856188822
 20
115.8303793048076
 30
0.0
 11
965.9401910724193
 21
115.8303793048076
 31
0.0
  0
LINE
  5
126D
330
2
100
AcDbEntity
  8
0
100
AcDbLine
 10
965.9401910724193
 20
117.3303793048076
 30
0.0
 11
972.9804856188822
 21
117.3303793048076
 31
0.0
  0
LINE
  5
126E
330
2
100
AcDbEntity
  8
0
100
AcDbLine
 10
972.9804856188822
 20
117.3303793048076
 30
0.0
 11
972.9804856188822
 21
115.8303793048076
 31
0.0
  0
ARC
  5
126F
330
2
100
AcDbEntity
  8
0
100
AcDbCircle
 10
958.9804856188804
 20
116.580379304809
 30
0.0
 40
8.154700538378051
100
AcDbArc
 50
185.2770359348315
 51
354.7229640651684
  0
ARC
  5
1270
330
2
100
AcDbEntity
  8
0
100
AcDbCircle
 10
958.9804856188804
 20
116.580379304809
 30
0.0
 40
8.154700538378051
100
AcDbArc
 50
5.277035934805344
 51
174.7229640651946
  0
CIRCLE
  5
1271
330
2
100
AcDbEntity
  8
0
100
AcDbCircle
 10
958.9804856188823
 20
116.5803793048076
 30
0.0
 40
7.000000000000113
  0
CIRCLE
  5
1272
330
2
100
AcDbEntity
  8
0
100
AcDbCircle
 10
958.9804856188841
 20
116.5803793048076
 30
0.0
 40
14.75000000000022
  0
CIRCLE
  5
1273
330
2
100
AcDbEntity
  8
0
100
AcDbCircle
 10
710.9984068372795
 20
400.97764683095
 30
0.0
 40
9.0
  0
LINE
  5
1274
330
2
100
AcDbEntity
  8
CENTER
  6
CENS
100
AcDbLine
 10
710.9984068372776
 20
387.0742478164985
 30
0.0
 11
710.9984068372776
 21
414.8810458454007
 31
0.0
  0
LINE
  5
1275
330
2
100
AcDbEntity
  8
CENTER
  6
CENS
100
AcDbLine
 10
724.9018058517288
 20
400.9776468309496
 30
0.0
 11
697.0950078228265
 21
400.9776468309496
 31
0.0
  0
LINE
  5
1276
330
2
100
AcDbEntity
  8
0
100
AcDbLine
 10
943.6054856188823
 20
152.3328554196196
 30
0.0
 11
953.3554856188823
 21
152.3328554196196
 31
0.0
  0
ARC
  5
1277
330
2
100
AcDbEntity
  8
0
100
AcDbCircle
 10
943.6054856188823
 20
148.0828554196196
 30
0.0
 40
4.25
100
AcDbArc
 50
90.0
 51
179.9485848525427
  0
ARC
  5
1278
330
2
100
AcDbEntity
  8
0
100
AcDbCircle
 10
953.1054856188823
 20
148.0828554196196
 30
0.0
 40
4.25
100
AcDbArc
 50
0.0
 51
90.0
  0
ARC
  5
1279
330
2
100
AcDbEntity
  8
0
100
AcDbCircle
 10
922.9804856188787
 20
152.5803793048076
 30
0.0
 40
5.0
100
AcDbArc
 50
90.0
 51
180.0
  0
LINE
  5
127A
330
2
100
AcDbEntity
  8
0
100
AcDbLine
 10
70.86246554553008
 20
155.4930344701422
 30
0.0
 11
70.86246554553008
 21
76.93214702668007
 31
0.0
  0
LINE
  5
127B
330
2
100
AcDbEntity
  8
0
100
AcDbLine
 10
82.86246554553008
 20
75.58037930482083
 30
0.0
 11
72.84501247453327
 21
75.66780029337185
 31
0.0
  0
LINE
  5
127C
330
2
100
AcDbEntity
  8
0
100
AcDbLine
 10
63.86246554553008
 20
84.74000553872025
 30
0.0
 11
45.14980848773265
 21
85.06663618264392
 31
0.0
  0
LINE
  5
127D
330
2
100
AcDbEntity
  8
0
100
AcDbLine
 10
42.86246554553009
 20
86.5280141100357
 30
0.0
 11
39.86246554553008
 21
86.58037930482084
 31
0.0
  0
LINE
  5
127E
330
2
100
AcDbEntity
  8
0
100
AcDbLine
 10
82.86246554553008
 20
157.5803793048208
 30
0.0
 11
72.84501247453343
 21
157.4929583162706
 31
0.0
  0
LINE
  5
1281
330
2
100
AcDbEntity
  8
0
100
AcDbLine
 10
42.86246554553009
 20
86.5280141100357
 30
0.0
 11
43.79584261111403
 21
85.62722135901664
 31
0.0
  0
LINE
  5
1282
330
2
100
AcDbEntity
  8
0
100
AcDbLine
 10
63.86246554553008
 20
148.4207530709209
 30
0.0
 11
44.86384689817401
 21
148.089130948885
 31
0.0
  0
LINE
  5
1283
330
2
100
AcDbEntity
  8
0
100
AcDbLine
 10
42.86246554553009
 20
146.6327444996059
 30
0.0
 11
39.86246554553008
 21
146.5803793048208
 31
0.0
  0
LINE
  5
1284
330
2
100
AcDbEntity
  8
0
100
AcDbLine
 10
42.86246554553009
 20
146.6327444996059
 30
0.0
 11
43.79584261111399
 21
147.533537250625
 31
0.0
  0
LINE
  5
1285
330
2
100
AcDbEntity
  8
0
100
AcDbLine
 10
39.86246554553008
 20
86.58037930482084
 30
0.0
 11
39.86246554553008
 21
146.5803793048208
 31
0.0
  0
LINE
  5
1286
330
2
100
AcDbEntity
  8
CENTER
  6
CENS
100
AcDbLine
 10
85.86246554553008
 20
151.2286115829616
 30
0.0
 11
58.86246554553008
 21
151.2286115829616
 31
0.0
  0
LINE
  5
1287
330
2
100
AcDbEntity
  8
0
100
AcDbLine
 10
64.26246554552972
 20
146.2286115829616
 30
0.0
 11
64.26246554552972
 21
156.2286115829616
 31
0.0
  0
LINE
  5
1288
330
2
100
AcDbEntity
  8
0
100
AcDbLine
 10
63.86246554553008
 20
155.5357912599338
 30
0.0
 11
63.86246554553008
 21
146.9214319059893
 31
0.0
  0
LINE
  5
1289
330
2
100
AcDbEntity
  8
0
100
AcDbLine
 10
69.86246554553009
 20
146.2286115829616
 30
0.0
 11
69.86246554553009
 21
156.2286115829616
 31
0.0
  0
LINE
  5
128A
330
2
100
AcDbEntity
  8
0
100
AcDbLine
 10
69.86246554553009
 20
156.2286115829616
 30
0.0
 11
70.86246554553008
 21
156.2286115829616
 31
0.0
  0
LINE
  5
128B
330
2
100
AcDbEntity
  8
0
100
AcDbLine
 10
70.86246554553008
 20
156.2286115829616
 30
0.0
 11
70.86246554553008
 21
146.2286115829616
 31
0.0
  0
LINE
  5
128C
330
2
100
AcDbEntity
  8
0
100
AcDbLine
 10
70.86246554553008
 20
146.2286115829616
 30
0.0
 11
69.86246554553009
 21
146.2286115829616
 31
0.0
  0
LINE
  5
128D
330
2
100
AcDbEntity
  8
0
100
AcDbLine
 10
69.86246554553009
 20
146.2286115829616
 30
0.0
 11
69.86246554553009
 21
156.2286115829616
 31
0.0
  0
LINE
  5
128E
330
2
100
AcDbEntity
  8
0
100
AcDbLine
 10
64.26246554552972
 20
146.2286115829616
 30
0.0
 11
69.86246554553009
 21
146.2286115829616
 31
0.0
  0
LINE
  5
128F
330
2
100
AcDbEntity
  8
0
100
AcDbLine
 10
69.86246554553009
 20
156.2286115829616
 30
0.0
 11
64.26246554552972
 21
156.2286115829616
 31
0.0
  0
LINE
  5
1290
330
2
100
AcDbEntity
  8
0
100
AcDbLine
 10
64.26246554552972
 20
156.2286115829616
 30
0.0
 11
63.86246554553008
 21
155.5357912599338
 31
0.0
  0
LINE
  5
1291
330
2
100
AcDbEntity
  8
0
100
AcDbLine
 10
64.26246554552972
 20
146.2286115829616
 30
0.0
 11
63.86246554553008
 21
146.9214319059893
 31
0.0
  0
LINE
  5
1292
330
2
100
AcDbEntity
  8
CENTER
  6
CENS
100
AcDbLine
 10
85.86246554553008
 20
81.93214702668006
 30
0.0
 11
58.86246554553008
 21
81.93214702668006
 31
0.0
  0
LINE
  5
1293
330
2
100
AcDbEntity
  8
0
100
AcDbLine
 10
64.26246554552972
 20
86.93214702668006
 30
0.0
 11
64.26246554552972
 21
76.93214702668007
 31
0.0
  0
LINE
  5
1294
330
2
100
AcDbEntity
  8
0
100
AcDbLine
 10
63.86246554553008
 20
77.62496734970733
 30
0.0
 11
63.86246554553008
 21
86.23932670365235
 31
0.0
  0
LINE
  5
1295
330
2
100
AcDbEntity
  8
0
100
AcDbLine
 10
69.86246554553009
 20
86.93214702668006
 30
0.0
 11
69.86246554553009
 21
76.93214702668007
 31
0.0
  0
LINE
  5
1296
330
2
100
AcDbEntity
  8
0
100
AcDbLine
 10
69.86246554553009
 20
76.93214702668007
 30
0.0
 11
70.86246554553008
 21
76.93214702668007
 31
0.0
  0
LINE
  5
1297
330
2
100
AcDbEntity
  8
0
100
AcDbLine
 10
70.86246554553008
 20
86.93214702668006
 30
0.0
 11
69.86246554553009
 21
86.93214702668006
 31
0.0
  0
LINE
  5
1298
330
2
100
AcDbEntity
  8
0
100
AcDbLine
 10
69.86246554553009
 20
86.93214702668006
 30
0.0
 11
69.86246554553009
 21
76.93214702668007
 31
0.0
  0
LINE
  5
1299
330
2
100
AcDbEntity
  8
0
100
AcDbLine
 10
64.26246554552972
 20
86.93214702668006
 30
0.0
 11
69.86246554553009
 21
86.93214702668006
 31
0.0
  0
LINE
  5
129A
330
2
100
AcDbEntity
  8
0
100
AcDbLine
 10
69.86246554553009
 20
76.93214702668007
 30
0.0
 11
64.26246554552972
 21
76.93214702668007
 31
0.0
  0
LINE
  5
129B
330
2
100
AcDbEntity
  8
0
100
AcDbLine
 10
64.26246554552972
 20
76.93214702667962
 30
0.0
 11
63.86246554553008
 21
77.62496734970733
 31
0.0
  0
LINE
  5
129C
330
2
100
AcDbEntity
  8
0
100
AcDbLine
 10
64.26246554552972
 20
86.93214702668006
 30
0.0
 11
63.86246554553008
 21
86.23932670365235
 31
0.0
  0
LINE
  5
129D
330
2
100
AcDbEntity
  8
0
100
AcDbLine
 10
48.7934280530485
 20
152.1583313552601
 30
0.0
 11
58.79190500461345
 21
152.3328554196328
 31
0.0
  0
ARC
  5
129E
330
2
100
AcDbEntity
  8
0
100
AcDbCircle
 10
58.86171463036271
 20
148.3334646390072
 30
0.0
 40
4.000000000000023
100
AcDbArc
 50
1.000000000001775
 51
90.99999999997569
  0
ARC
  5
129F
330
2
100
AcDbEntity
  8
0
100
AcDbCircle
 10
48.86323767879957
 20
148.1589405746345
 30
0.0
 40
4.000000000000023
100
AcDbArc
 50
90.99999999997569
 51
181.000000000005
  0
LINE
  5
12A0
330
2
100
AcDbEntity
  8
CENTER
  6
CENS
100
AcDbLine
 10
53.86247615458024
 20
155.5073132023845
 30
0.0
 11
53.86247615458024
 21
134.32156745864
 31
0.0
  0
LINE
  5
12A2
330
2
100
AcDbEntity
  8
0
100
AcDbLine
 10
42.86246554553009
 20
86.5280141100357
 30
0.0
 11
42.86246554553009
 21
146.6327444996064
 31
0.0
  0
CIRCLE
  5
12A3
330
2
100
AcDbEntity
  8
0
100
AcDbCircle
 10
934.2317482773536
 20
141.3291166463382
 30
0.0
 40
2.0
  0
CIRCLE
  5
12A4
330
2
100
AcDbEntity
  8
HOJO
100
AcDbCircle
 10
934.2317482773536
 20
141.3291166463382
 30
0.0
 40
2.5
  0
CIRCLE
  5
12A5
330
2
100
AcDbEntity
  8
0
100
AcDbCircle
 10
983.7292229604074
 20
141.3291166463382
 30
0.0
 40
2.0
  0
CIRCLE
  5
12A6
330
2
100
AcDbEntity
  8
HOJO
100
AcDbCircle
 10
983.7292229604074
 20
141.3291166463382
 30
0.0
 40
2.5
  0
CIRCLE
  5
12A7
330
2
100
AcDbEntity
  8
0
100
AcDbCircle
 10
934.2317482773557
 20
91.8316419632775
 30
0.0
 40
2.0
  0
CIRCLE
  5
12A8
330
2
100
AcDbEntity
  8
HOJO
100
AcDbCircle
 10
934.2317482773557
 20
91.8316419632775
 30
0.0
 40
2.5
  0
CIRCLE
  5
12A9
330
2
100
AcDbEntity
  8
0
100
AcDbCircle
 10
983.7292229604097
 20
91.83164196328158
 30
0.0
 40
2.0
  0
CIRCLE
  5
12AA
330
2
100
AcDbEntity
  8
HOJO
100
AcDbCircle
 10
983.7292229604097
 20
91.83164196328158
 30
0.0
 40
2.5
  0
CIRCLE
  5
12AB
330
2
100
AcDbEntity
  8
0
100
AcDbCircle
 10
958.9804856188804
 20
116.580379304809
 30
0.0
 40
22.5
  0
TEXT
  5
12AC
330
2
100
AcDbEntity
  8
TITLE
100
AcDbText
 10
285.918962467394
 20
407.6282461087309
 30
0.0
 40
7.5
  1
AFCZ18L-7~10M400S1
100
AcDbText
  0
TEXT
  5
12AD
330
2
100
AcDbEntity
  8
TITLE
100
AcDbText
 10
285.918962467394
 20
396.1282461087309
 30
0.0
 40
7.5
  1
AFCZ18L-7~10L400S1
100
AcDbText
  0
LINE
  5
12AF
330
2
100
AcDbEntity
  8
0
100
AcDbLine
 10
693.998417450699
 20
155.4930344701381
 30
0.0
 11
693.9984174506989
 21
125.6195411982694
 31
0.0
  0
LINE
  5
12B0
330
2
100
AcDbEntity
  8
0
100
AcDbLine
 10
693.9984174506989
 20
116.5803793048167
 30
0.0
 11
693.9984174506987
 21
76.93214702667598
 31
0.0
  0
LINE
  5
12B2
330
2
100
AcDbEntity
  8
0
100
AcDbLine
 10
681.9984174506989
 20
75.58037930481674
 30
0.0
 11
692.0158705216955
 21
75.66780029336777
 31
0.0
  0
LINE
  5
12B3
330
2
100
AcDbEntity
  8
0
100
AcDbLine
 10
700.9984174506988
 20
84.74000553871617
 30
0.0
 11
719.7110745084962
 21
85.06663618263981
 31
0.0
  0
LINE
  5
12B4
330
2
100
AcDbEntity
  8
0
100
AcDbLine
 10
721.9984174506988
 20
86.52801411003162
 30
0.0
 11
724.9984174506988
 21
86.58037930481674
 31
0.0
  0
LINE
  5
12B5
330
2
100
AcDbEntity
  8
0
100
AcDbLine
 10
681.9984174506989
 20
157.5803793048167
 30
0.0
 11
692.0158705216956
 21
157.4929583162665
 31
0.0
  0
LINE
  5
12B8
330
2
100
AcDbEntity
  8
0
100
AcDbLine
 10
721.9984174506988
 20
86.52801411003162
 30
0.0
 11
721.0650403851149
 21
85.62722135901253
 31
0.0
  0
LINE
  5
12B9
330
2
100
AcDbEntity
  8
0
100
AcDbLine
 10
700.9984174506988
 20
148.4207530709168
 30
0.0
 11
719.9970360980548
 21
148.0891309488809
 31
0.0
  0
LINE
  5
12BA
330
2
100
AcDbEntity
  8
0
100
AcDbLine
 10
721.9984174506988
 20
146.6327444996018
 30
0.0
 11
724.9984174506988
 21
146.5803793048167
 31
0.0
  0
LINE
  5
12BB
330
2
100
AcDbEntity
  8
0
100
AcDbLine
 10
721.9984174506988
 20
146.6327444996018
 30
0.0
 11
721.0650403851148
 21
147.5335372506209
 31
0.0
  0
LINE
  5
12BC
330
2
100
AcDbEntity
  8
0
100
AcDbLine
 10
724.9984174506988
 20
86.58037930481674
 30
0.0
 11
724.9984174506988
 21
146.5803793048167
 31
0.0
  0
LINE
  5
12BD
330
2
100
AcDbEntity
  8
0
100
AcDbLine
 10
721.9984174506988
 20
146.6327444996018
 30
0.0
 11
721.9984174506988
 21
143.0776599069004
 31
0.0
  0
LINE
  5
12BE
330
2
100
AcDbEntity
  8
CENTER
  6
CENS
100
AcDbLine
 10
678.9984174506988
 20
151.2286115829575
 30
0.0
 11
705.9984174506988
 21
151.2286115829575
 31
0.0
  0
LINE
  5
12BF
330
2
100
AcDbEntity
  8
0
100
AcDbLine
 10
700.5984174506992
 20
146.2286115829575
 30
0.0
 11
700.5984174506992
 21
156.2286115829575
 31
0.0
  0
LINE
  5
12C0
330
2
100
AcDbEntity
  8
0
100
AcDbLine
 10
700.9984174506988
 20
155.5357912599298
 30
0.0
 11
700.9984174506988
 21
146.9214319059852
 31
0.0
  0
LINE
  5
12C1
330
2
100
AcDbEntity
  8
0
100
AcDbLine
 10
694.9984174506989
 20
146.2286115829575
 30
0.0
 11
694.9984174506989
 21
156.2286115829575
 31
0.0
  0
LINE
  5
12C2
330
2
100
AcDbEntity
  8
0
100
AcDbLine
 10
694.9984174506989
 20
156.2286115829575
 30
0.0
 11
693.9984174506989
 21
156.2286115829575
 31
0.0
  0
LINE
  5
12C3
330
2
100
AcDbEntity
  8
0
100
AcDbLine
 10
693.9984174506989
 20
156.2286115829575
 30
0.0
 11
693.9984174506989
 21
146.2286115829575
 31
0.0
  0
LINE
  5
12C4
330
2
100
AcDbEntity
  8
0
100
AcDbLine
 10
693.9984174506989
 20
146.2286115829575
 30
0.0
 11
694.9984174506989
 21
146.2286115829575
 31
0.0
  0
LINE
  5
12C5
330
2
100
AcDbEntity
  8
0
100
AcDbLine
 10
694.9984174506989
 20
146.2286115829575
 30
0.0
 11
694.9984174506989
 21
156.2286115829575
 31
0.0
  0
LINE
  5
12C6
330
2
100
AcDbEntity
  8
0
100
AcDbLine
 10
700.5984174506992
 20
146.2286115829575
 30
0.0
 11
694.9984174506989
 21
146.2286115829575
 31
0.0
  0
LINE
  5
12C7
330
2
100
AcDbEntity
  8
0
100
AcDbLine
 10
694.9984174506989
 20
156.2286115829575
 30
0.0
 11
700.5984174506992
 21
156.2286115829575
 31
0.0
  0
LINE
  5
12C8
330
2
100
AcDbEntity
  8
0
100
AcDbLine
 10
700.5984174506992
 20
156.2286115829575
 30
0.0
 11
700.9984174506988
 21
155.5357912599298
 31
0.0
  0
LINE
  5
12C9
330
2
100
AcDbEntity
  8
0
100
AcDbLine
 10
700.5984174506992
 20
146.2286115829575
 30
0.0
 11
700.9984174506988
 21
146.9214319059852
 31
0.0
  0
LINE
  5
12CA
330
2
100
AcDbEntity
  8
CENTER
  6
CENS
100
AcDbLine
 10
678.9984174506988
 20
81.93214702667598
 30
0.0
 11
705.9984174506988
 21
81.93214702667598
 31
0.0
  0
LINE
  5
12CB
330
2
100
AcDbEntity
  8
0
100
AcDbLine
 10
700.5984174506992
 20
86.93214702667598
 30
0.0
 11
700.5984174506992
 21
76.93214702667598
 31
0.0
  0
LINE
  5
12CC
330
2
100
AcDbEntity
  8
0
100
AcDbLine
 10
700.9984174506988
 20
77.62496734970324
 30
0.0
 11
700.9984174506988
 21
86.23932670364826
 31
0.0
  0
LINE
  5
12CD
330
2
100
AcDbEntity
  8
0
100
AcDbLine
 10
694.9984174506989
 20
86.93214702667598
 30
0.0
 11
694.9984174506989
 21
76.93214702667598
 31
0.0
  0
LINE
  5
12CE
330
2
100
AcDbEntity
  8
0
100
AcDbLine
 10
694.9984174506989
 20
76.93214702667598
 30
0.0
 11
693.9984174506987
 21
76.93214702667598
 31
0.0
  0
LINE
  5
12CF
330
2
100
AcDbEntity
  8
0
100
AcDbLine
 10
693.9984174506989
 20
86.93214702667598
 30
0.0
 11
694.9984174506989
 21
86.93214702667598
 31
0.0
  0
LINE
  5
12D0
330
2
100
AcDbEntity
  8
0
100
AcDbLine
 10
694.9984174506989
 20
86.93214702667598
 30
0.0
 11
694.9984174506989
 21
76.93214702667598
 31
0.0
  0
LINE
  5
12D1
330
2
100
AcDbEntity
  8
0
100
AcDbLine
 10
700.5984174506992
 20
86.93214702667598
 30
0.0
 11
694.9984174506989
 21
86.93214702667598
 31
0.0
  0
LINE
  5
12D2
330
2
100
AcDbEntity
  8
0
100
AcDbLine
 10
694.9984174506989
 20
76.93214702667598
 30
0.0
 11
700.5984174506992
 21
76.93214702667598
 31
0.0
  0
LINE
  5
12D3
330
2
100
AcDbEntity
  8
0
100
AcDbLine
 10
700.5984174506992
 20
76.93214702667552
 30
0.0
 11
700.9984174506988
 21
77.62496734970324
 31
0.0
  0
LINE
  5
12D4
330
2
100
AcDbEntity
  8
0
100
AcDbLine
 10
700.5984174506992
 20
86.93214702667598
 30
0.0
 11
700.9984174506988
 21
86.23932670364826
 31
0.0
  0
LINE
  5
12D5
330
2
100
AcDbEntity
  8
0
100
AcDbLine
 10
715.4984068416468
 20
123.5803793048172
 30
0.0
 11
705.4984068416469
 21
123.5803793048172
 31
0.0
  0
LINE
  5
12D6
330
2
100
AcDbEntity
  8
0
100
AcDbLine
 10
715.4984068416468
 20
123.5803793048167
 30
0.0
 11
715.4984068416468
 21
116.5803793048167
 31
0.0
  0
LINE
  5
12D7
330
2
100
AcDbEntity
  8
0
100
AcDbLine
 10
717.4984068416469
 20
124.7350798431962
 30
0.0
 11
715.4984068416468
 21
123.5803793048167
 31
0.0
  0
LINE
  5
12D8
330
2
100
AcDbEntity
  8
0
100
AcDbLine
 10
688.4984068416469
 20
123.8303793048167
 30
0.0
 11
688.4984068416469
 21
116.5803793048167
 31
0.0
  0
LINE
  5
12D9
330
2
100
AcDbEntity
  8
0
100
AcDbLine
 10
715.4984068416468
 20
123.5803793048167
 30
0.0
 11
705.4984068416469
 21
123.5803793048167
 31
0.0
  0
LINE
  5
12DA
330
2
100
AcDbEntity
  8
0
100
AcDbLine
 10
710.4106210203207
 20
131.3303793048167
 30
0.0
 11
717.4984068416469
 21
131.3303793048167
 31
0.0
  0
LINE
  5
12DB
330
2
100
AcDbEntity
  8
0
100
AcDbLine
 10
717.4984068416469
 20
131.3303793048167
 30
0.0
 11
717.4984068416469
 21
116.5803793048167
 31
0.0
  0
LINE
  5
12DC
330
2
100
AcDbEntity
  8
0
100
AcDbLine
 10
703.4984068416469
 20
126.8650604915397
 30
0.0
 11
703.4984068416469
 21
116.5803793048167
 31
0.0
  0
LINE
  5
12DD
330
2
100
AcDbEntity
  8
0
100
AcDbLine
 10
705.4984068416469
 20
127.390460638972
 30
0.0
 11
705.4984068416469
 21
116.5803793048167
 31
0.0
  0
LINE
  5
12DE
330
2
100
AcDbEntity
  8
0
100
AcDbLine
 10
696.4984068416469
 20
123.8303793048167
 30
0.0
 11
688.4984068416469
 21
123.8303793048167
 31
0.0
  0
LINE
  5
12DF
330
2
100
AcDbEntity
  8
0
100
AcDbLine
 10
696.4984068416469
 20
116.5803793048167
 30
0.0
 11
696.4984068416469
 21
123.8303793048167
 31
0.0
  0
LINE
  5
12E0
330
2
100
AcDbEntity
  8
0
100
AcDbLine
 10
703.4984068416469
 20
123.5803793048167
 30
0.0
 11
696.4984068416469
 21
123.5803793048167
 31
0.0
  0
LINE
  5
12E1
330
2
100
AcDbEntity
  8
0
100
AcDbLine
 10
684.7456300919146
 20
116.5803793048167
 30
0.0
 11
688.4984068416469
 21
123.0803793048167
 31
0.0
  0
LINE
  5
12E2
330
2
100
AcDbEntity
  8
0
100
AcDbLine
 10
717.9984174506988
 20
141.5803793048167
 30
0.0
 11
724.9984174506988
 21
141.5803793048167
 31
0.0
  0
LINE
  5
12E3
330
2
100
AcDbEntity
  8
0
100
AcDbLine
 10
717.9984174506988
 20
141.5803793048167
 30
0.0
 11
717.9984174506988
 21
116.5803793048167
 31
0.0
  0
SPLINE
  5
12E4
330
2
100
AcDbEntity
  8
HOJO
100
AcDbSpline
210
0.0
220
0.0
230
1.0
 70
     8
 71
     3
 72
    20
 73
    16
 74
     0
 42
0.0000000001
 43
0.0000000001
 40
0.0
 40
0.0
 40
0.0
 40
0.0
 40
5.311626210389601
 40
7.954639692924123
 40
10.24579206730457
 40
14.18281221953265
 40
18.83794314114633
 40
26.54246833222011
 40
31.19712602527561
 40
34.95638115537181
 40
42.12378530287149
 40
45.78553747213095
 40
50.20353689726185
 40
53.26513166942802
 40
54.23175360515262
 40
54.23175360515262
 40
54.23175360515262
 40
54.23175360515262
 10
724.9984174506988
 20
143.2678280268328
 30
0.0
 10
723.2854382848089
 20
143.1597859766066
 30
0.0
 10
720.7200973653979
 20
142.9979832542026
 30
0.0
 10
716.9483434783213
 20
142.7458505820346
 30
0.0
 10
715.6292022621872
 20
139.813409097068
 30
0.0
 10
713.1939928938971
 20
137.1589002737724
 30
0.0
 10
711.355944550747
 20
132.0076048406086
 30
0.0
 10
707.2311081412698
 20
127.297857488983
 30
0.0
 10
701.7534606382631
 20
126.6605260545634
 30
0.0
 10
696.8400751286971
 20
125.8065024230055
 30
0.0
 10
692.0060757819391
 20
125.4703619012344
 30
0.0
 10
686.9683490172991
 20
125.0669871523296
 30
0.0
 10
683.8971983959307
 20
120.8647841554698
 30
0.0
 10
682.8972241012051
 20
118.1865436345802
 30
0.0
 10
682.5411845759717
 20
116.8915306045092
 30
0.0
 10
682.4584568038844
 20
116.5803793048167
 30
0.0
  0
LINE
  5
12E5
330
2
100
AcDbEntity
  8
0
100
AcDbLine
 10
716.0674549431804
 20
152.158331355256
 30
0.0
 11
706.0689779916154
 21
152.3328554196287
 31
0.0
  0
ARC
  5
12E6
330
2
100
AcDbEntity
  8
0
100
AcDbCircle
 10
705.9991683658662
 20
148.3334646390031
 30
0.0
 40
4.000000000000023
100
AcDbArc
 50
89.0000000000243
 51
178.9999999999982
  0
ARC
  5
12E7
330
2
100
AcDbEntity
  8
0
100
AcDbCircle
 10
715.9976453174293
 20
148.1589405746304
 30
0.0
 40
4.000000000000023
100
AcDbArc
 50
358.999999999995
 51
89.0000000000243
  0
LINE
  5
12E8
330
2
100
AcDbEntity
  8
CENTER
  6
CENS
100
AcDbLine
 10
710.9984068416487
 20
155.5073132023804
 30
0.0
 11
710.9984068416487
 21
134.3215674586359
 31
0.0
  0
LINE
  5
12EA
330
2
100
AcDbEntity
  8
0
100
AcDbLine
 10
721.9984174506988
 20
86.52801411003162
 30
0.0
 11
721.9984174506988
 21
116.5803793048167
 31
0.0
  0
LINE
  5
12EB
330
2
100
AcDbEntity
  8
0
100
AcDbLine
 10
714.8977507790804
 20
139.0803793048167
 30
0.0
 11
717.9984174506992
 21
139.0803793048167
 31
0.0
  0
ARC
  5
26F1
330
2
100
AcDbEntity
  8
0
100
AcDbCircle
 10
185.3244063226588
 20
88.08037930482356
 30
0.0
 40
5.0
100
AcDbArc
 50
270.0
 51
315.0000000000186
  0
ARC
  5
26F2
330
2
100
AcDbEntity
  8
0
100
AcDbCircle
 10
185.3244063226588
 20
88.08037930482356
 30
0.0
 40
8.5
100
AcDbArc
 50
270.0
 51
315.0000000000186
  0
ARC
  5
26F3
330
2
100
AcDbEntity
  8
0
100
AcDbCircle
 10
185.3244063226588
 20
145.0803793048181
 30
0.0
 40
8.5
100
AcDbArc
 50
44.99999999998129
 51
90.0
  0
ARC
  5
26F4
330
2
100
AcDbEntity
  8
0
100
AcDbCircle
 10
185.3244063226588
 20
145.0803793048181
 30
0.0
 40
5.0
100
AcDbArc
 50
44.99999999998129
 51
90.0
  0
ARC
  5
26F5
330
2
100
AcDbEntity
  8
0
100
AcDbCircle
 10
190.4585089857205
 20
196.3611706167854
 30
0.0
 40
40.0
100
AcDbArc
 50
263.8230035951091
 51
283.3676742026291
  0
CIRCLE
  5
26F6
330
2
100
AcDbEntity
  8
0
100
AcDbCircle
 10
167.86246554553
 20
116.5803793048208
 30
0.0
 40
23.0
  0
CIRCLE
  5
26F7
330
2
100
AcDbEntity
  8
0
100
AcDbCircle
 10
167.86246554553
 20
116.5803793048208
 30
0.0
 40
29.0
  0
CIRCLE
  5
26F8
330
2
100
AcDbEntity
  8
0
100
AcDbCircle
 10
167.86246554553
 20
116.5803793048208
 30
0.0
 40
26.5
  0
CIRCLE
  5
26F9
330
2
100
AcDbEntity
  8
0
100
AcDbCircle
 10
167.86246554553
 20
116.5803793048208
 30
0.0
 40
28.5
  0
CIRCLE
  5
26FA
330
2
100
AcDbEntity
  8
0
100
AcDbCircle
 10
167.86246554553
 20
116.5803793048208
 30
0.0
 40
23.5774
  0
CIRCLE
  5
26FB
330
2
100
AcDbEntity
  8
0
100
AcDbCircle
 10
167.86246554553
 20
116.5803793048208
 30
0.0
 40
25.9226
  0
LINE
  5
26FC
330
2
100
AcDbEntity
  8
CENTER
100
AcDbLine
 10
212.347746919768
 20
161.0656606790591
 30
0.0
 11
123.3771841712914
 21
72.09509793058209
 31
0.0
  0
LINE
  5
26FD
330
2
100
AcDbEntity
  8
CENTER
100
AcDbLine
 10
123.3771841712919
 20
161.065660679059
 30
0.0
 11
212.3477469197687
 21
72.09509793058197
 31
0.0
  0
ARC
  5
26FE
330
2
100
AcDbEntity
  8
0
100
AcDbCircle
 10
190.4585089857196
 20
36.79958799286214
 30
0.0
 40
40.0
100
AcDbArc
 50
76.63232579737083
 51
96.17699640483847
  0
LINE
  5
2701
330
2
100
AcDbEntity
  8
CENTER
100
AcDbLine
 10
167.86246554553
 20
65.58037930482402
 30
0.0
 11
167.86246554553
 21
167.5803793048239
 31
0.0
  0
ARC
  5
2702
330
2
100
AcDbEntity
  8
0
100
AcDbCircle
 10
167.86246554553
 20
245.580379304824
 30
0.0
 40
170.0
100
AcDbArc
 50
263.8230035951091
 51
276.1769964048908
  0
ARC
  5
2703
330
2
100
AcDbEntity
  8
0
100
AcDbCircle
 10
131.86246554553
 20
80.58037930482038
 30
0.0
 40
5.0
100
AcDbArc
 50
180.0
 51
270.0
  0
ARC
  5
2704
330
2
100
AcDbEntity
  8
0
100
AcDbCircle
 10
132.2724655455299
 20
80.58037930482129
 30
0.0
 40
5.0
100
AcDbArc
 50
180.0
 51
270.0
  0
LINE
  5
2705
330
2
100
AcDbEntity
  8
CENTER
100
AcDbLine
 10
133.36246554553
 20
76.87108376994007
 30
0.0
 11
133.36246554553
 21
73.47442162756312
 31
0.0
  0
ARC
  5
2706
330
2
100
AcDbEntity
  8
0
100
AcDbCircle
 10
145.2664221053396
 20
36.79958799286237
 30
0.0
 40
40.0
100
AcDbArc
 50
83.8230035951091
 51
103.3676742026291
  0
ARC
  5
2708
330
2
100
AcDbEntity
  8
0
100
AcDbCircle
 10
92.86246554553191
 20
77.58037930482038
 30
0.0
 40
2.0
100
AcDbArc
 50
270.0
 51
0.0
  0
ARC
  5
2709
330
2
100
AcDbEntity
  8
0
100
AcDbCircle
 10
92.86246554553191
 20
77.08037930482039
 30
0.0
 40
2.0
100
AcDbArc
 50
270.0
 51
0.0
  0
LINE
  5
270A
330
2
100
AcDbEntity
  8
0
100
AcDbLine
 10
92.86246554553191
 20
75.58037930482038
 30
0.0
 11
82.86246554553008
 21
75.58037930482038
 31
0.0
  0
LINE
  5
270B
330
2
100
AcDbEntity
  8
0
100
AcDbLine
 10
92.86246554553191
 20
75.08037930482038
 30
0.0
 11
82.86246554553008
 21
75.08037930482038
 31
0.0
  0
ARC
  5
270C
330
2
100
AcDbEntity
  8
0
100
AcDbCircle
 10
134.86246554553
 20
80.5803793048247
 30
0.0
 40
5.0
100
AcDbArc
 50
270.0
 51
283.3676742026291
  0
LINE
  5
270D
330
2
100
AcDbEntity
  8
0
100
AcDbLine
 10
134.86246554553
 20
75.58037930482425
 30
0.0
 11
131.86246554553
 21
75.58037930482425
 31
0.0
  0
LINE
  5
270E
330
2
100
AcDbEntity
  8
0
100
AcDbLine
 10
134.86246554553
 20
75.58037930482129
 30
0.0
 11
132.2724655455299
 21
75.58037930482129
 31
0.0
  0
LINE
  5
270F
330
2
100
AcDbEntity
  8
CENTER
100
AcDbLine
 10
133.36246554553
 20
159.8303793048208
 30
0.0
 11
133.36246554553
 21
142.3303793048208
 31
0.0
  0
ARC
  5
2710
330
2
100
AcDbEntity
  8
0
100
AcDbCircle
 10
131.86246554553
 20
152.5803793048201
 30
0.0
 40
5.0
100
AcDbArc
 50
90.0
 51
180.0
  0
ARC
  5
2711
330
2
100
AcDbEntity
  8
0
100
AcDbCircle
 10
132.2724655455299
 20
152.5803793048208
 30
0.0
 40
5.0
100
AcDbArc
 50
90.0
 51
180.0
  0
ARC
  5
2712
330
2
100
AcDbEntity
  8
0
100
AcDbCircle
 10
92.86246554553008
 20
156.0803793048201
 30
0.0
 40
2.0
100
AcDbArc
 50
0.0
 51
90.0
  0
LINE
  5
2713
330
2
100
AcDbEntity
  8
0
100
AcDbLine
 10
112.3624655455282
 20
142.580379304703
 30
0.0
 11
121.86246554553
 21
142.580379304703
 31
0.0
  0
LINE
  5
2714
330
2
100
AcDbEntity
  8
0
100
AcDbLine
 10
107.3624655455282
 20
128.7047349578029
 30
0.0
 11
126.86246554553
 21
128.7047349578029
 31
0.0
  0
LINE
  5
2715
330
2
100
AcDbEntity
  8
0
100
AcDbLine
 10
123.86246554553
 20
148.5803793048256
 30
0.0
 11
108.3624655455309
 21
148.5803793048256
 31
0.0
  0
LINE
  5
2716
330
2
100
AcDbEntity
  8
0
100
AcDbLine
 10
112.3624655455246
 20
90.58037930493794
 30
0.0
 11
121.86246554553
 21
90.58037930493748
 31
0.0
  0
LINE
  5
2717
330
2
100
AcDbEntity
  8
0
100
AcDbLine
 10
107.3624655455255
 20
104.4560236518387
 30
0.0
 11
126.862465545531
 21
104.4560236518387
 31
0.0
  0
LINE
  5
2718
330
2
100
AcDbEntity
  8
0
100
AcDbLine
 10
123.86246554553
 20
84.58037930481584
 30
0.0
 11
108.3624655455309
 21
84.58037930481584
 31
0.0
  0
LINE
  5
2719
330
2
100
AcDbEntity
  8
0
100
AcDbLine
 10
94.86246554553463
 20
77.08037930482039
 30
0.0
 11
94.86246554553463
 21
156.0803793048201
 31
0.0
  0
LINE
  5
271A
330
2
100
AcDbEntity
  8
0
100
AcDbLine
 10
107.3624655455237
 20
85.58037930493725
 30
0.0
 11
107.3624655455282
 21
147.580379304703
 31
0.0
  0
ARC
  5
271B
330
2
100
AcDbEntity
  8
0
100
AcDbCircle
 10
112.3624655455246
 20
85.58037930493794
 30
0.0
 40
5.0
100
AcDbArc
 50
90.0
 51
180.0
  0
ARC
  5
271C
330
2
100
AcDbEntity
  8
0
100
AcDbCircle
 10
105.36246554553
 20
85.58037930493725
 30
0.0
 40
2.0
100
AcDbArc
 50
270.0
 51
0.0
  0
ARC
  5
271D
330
2
100
AcDbEntity
  8
0
100
AcDbCircle
 10
108.3624655455309
 20
81.58037930481583
 30
0.0
 40
3.0
100
AcDbArc
 50
90.0
 51
126.86989764587
  0
LINE
  5
271E
330
2
100
AcDbEntity
  8
0
100
AcDbLine
 10
99.86246554553463
 20
83.58037930493726
 30
0.0
 11
105.36246554553
 21
83.58037930493726
 31
0.0
  0
ARC
  5
271F
330
2
100
AcDbEntity
  8
0
100
AcDbCircle
 10
99.86246554553463
 20
78.58037930493726
 30
0.0
 40
5.0
100
AcDbArc
 50
90.0
 51
180.0
  0
LINE
  5
2720
330
2
100
AcDbEntity
  8
0
100
AcDbLine
 10
82.86246554553008
 20
157.5803793048201
 30
0.0
 11
92.86246554553008
 21
157.5803793048201
 31
0.0
  0
LINE
  5
2721
330
2
100
AcDbEntity
  8
0
100
AcDbLine
 10
82.86246554553008
 20
158.0803793048201
 30
0.0
 11
92.86246554553008
 21
158.0803793048201
 31
0.0
  0
ARC
  5
2722
330
2
100
AcDbEntity
  8
0
100
AcDbCircle
 10
92.86246554553008
 20
155.5803793048201
 30
0.0
 40
2.0
100
AcDbArc
 50
0.0
 51
90.0
  0
ARC
  5
2723
330
2
100
AcDbEntity
  8
0
100
AcDbCircle
 10
105.36246554553
 20
147.580379304703
 30
0.0
 40
2.0
100
AcDbArc
 50
0.0
 51
90.0
  0
ARC
  5
2724
330
2
100
AcDbEntity
  8
0
100
AcDbCircle
 10
108.3624655455309
 20
151.5803793048258
 30
0.0
 40
3.0
100
AcDbArc
 50
233.1301023541299
 51
270.0
  0
ARC
  5
2725
330
2
100
AcDbEntity
  8
0
100
AcDbCircle
 10
112.3624655455282
 20
147.580379304703
 30
0.0
 40
5.0
100
AcDbArc
 50
180.0
 51
270.0
  0
LINE
  5
2726
330
2
100
AcDbEntity
  8
0
100
AcDbLine
 10
99.86246554553009
 20
149.580379304703
 30
0.0
 11
105.36246554553
 21
149.580379304703
 31
0.0
  0
ARC
  5
2727
330
2
100
AcDbEntity
  8
0
100
AcDbCircle
 10
99.86246554553009
 20
154.580379304703
 30
0.0
 40
5.0
100
AcDbArc
 50
180.0
 51
270.0
  0
LINE
  5
2728
330
2
100
AcDbEntity
  8
0
100
AcDbLine
 10
126.86246554553
 20
80.58037930482038
 30
0.0
 11
126.86246554553
 21
152.5803793048201
 31
0.0
  0
LINE
  5
2729
330
2
100
AcDbEntity
  8
0
100
AcDbLine
 10
127.2724655455299
 20
80.58037930482129
 30
0.0
 11
127.2724655455299
 21
152.5803793048208
 31
0.0
  0
LINE
  5
272A
330
2
100
AcDbEntity
  8
0
100
AcDbLine
 10
126.3624655455309
 20
104.4560236518387
 30
0.0
 11
126.36246554553
 21
128.7047349578029
 31
0.0
  0
LINE
  5
272B
330
2
100
AcDbEntity
  8
0
100
AcDbLine
 10
134.3624655455328
 20
134.0423200819496
 30
0.0
 11
134.3624655455328
 21
99.1184385276925
 31
0.0
  0
LINE
  5
272C
330
2
100
AcDbEntity
  8
0
100
AcDbLine
 10
130.8624655455328
 20
134.0423200819496
 30
0.0
 11
130.8624655455328
 21
99.1184385276925
 31
0.0
  0
LINE
  5
272D
330
2
100
AcDbEntity
  8
0
100
AcDbLine
 10
150.4005247684021
 20
79.58037930482356
 30
0.0
 11
185.3244063226588
 21
79.58037930482356
 31
0.0
  0
LINE
  5
272E
330
2
100
AcDbEntity
  8
0
100
AcDbLine
 10
150.4005247684021
 20
83.08037930482356
 30
0.0
 11
185.3244063226588
 21
83.08037930482356
 31
0.0
  0
LINE
  5
272F
330
2
100
AcDbEntity
  8
CENTER
100
AcDbLine
 10
133.36246554553
 20
77.89613656065426
 30
0.0
 11
133.36246554553
 21
90.83037930482083
 31
0.0
  0
LINE
  5
2730
330
2
100
AcDbEntity
  8
0
100
AcDbLine
 10
133.352057905447
 20
93.10803088760719
 30
0.0
 11
144.3901171283164
 21
82.06997166473781
 31
0.0
  0
LINE
  5
2731
330
2
100
AcDbEntity
  8
0
100
AcDbLine
 10
135.8269316396004
 20
95.58290462176007
 30
0.0
 11
146.8649908624688
 21
84.54484539889113
 31
0.0
  0
ARC
  5
2732
330
2
100
AcDbEntity
  8
0
100
AcDbCircle
 10
121.86246554553
 20
85.58037930493748
 30
0.0
 40
5.0
100
AcDbArc
 50
0.0
 51
90.0
  0
CIRCLE
  5
2733
330
2
100
AcDbEntity
  8
0
100
AcDbCircle
 10
133.36246554553
 20
82.08037930482129
 30
0.0
 40
5.000000000000113
  0
CIRCLE
  5
2734
330
2
100
AcDbEntity
  8
0
100
AcDbCircle
 10
133.36246554553
 20
82.08037930482129
 30
0.0
 40
4.307179676972509
  0
ARC
  5
2735
330
2
100
AcDbEntity
  8
0
100
AcDbCircle
 10
150.4005247684021
 20
88.08037930482356
 30
0.0
 40
8.5
100
AcDbArc
 50
224.9999999999813
 51
270.0
  0
ARC
  5
2736
330
2
100
AcDbEntity
  8
0
100
AcDbCircle
 10
150.4005247684021
 20
88.08037930482356
 30
0.0
 40
5.0
100
AcDbArc
 50
224.9999999999813
 51
270.0
  0
LINE
  5
2737
330
2
100
AcDbEntity
  8
0
100
AcDbLine
 10
147.1477155932984
 20
80.22740327847765
 30
0.0
 11
148.487107606576
 21
83.4609816422672
 31
0.0
  0
LINE
  5
2738
330
2
100
AcDbEntity
  8
0
100
AcDbLine
 10
135.86246554553
 20
80.63700363184722
 30
0.0
 11
135.86246554553
 21
83.5237549777949
 31
0.0
  0
LINE
  5
2739
330
2
100
AcDbEntity
  8
0
100
AcDbLine
 10
130.862465545531
 20
80.63700363184722
 30
0.0
 11
130.862465545531
 21
83.52375497779537
 31
0.0
  0
LINE
  5
273A
330
2
100
AcDbEntity
  8
0
100
AcDbLine
 10
130.862465545531
 20
80.63700363184722
 30
0.0
 11
133.3624655455309
 21
79.19362795887315
 31
0.0
  0
LINE
  5
273B
330
2
100
AcDbEntity
  8
0
100
AcDbLine
 10
135.86246554553
 20
80.63700363184722
 30
0.0
 11
133.3624655455309
 21
79.19362795887315
 31
0.0
  0
LINE
  5
273C
330
2
100
AcDbEntity
  8
0
100
AcDbLine
 10
133.36246554553
 20
84.96713065076944
 30
0.0
 11
130.862465545531
 21
83.52375497779537
 31
0.0
  0
LINE
  5
273D
330
2
100
AcDbEntity
  8
0
100
AcDbLine
 10
133.36246554553
 20
84.96713065076944
 30
0.0
 11
135.86246554553
 21
83.5237549777949
 31
0.0
  0
ARC
  5
273E
330
2
100
AcDbEntity
  8
0
100
AcDbCircle
 10
123.86246554553
 20
81.58037930481583
 30
0.0
 40
3.0
100
AcDbArc
 50
0.0
 51
90.0
  0
LINE
  5
273F
330
2
100
AcDbEntity
  8
CENTER
100
AcDbLine
 10
124.61246554553
 20
82.08037930482129
 30
0.0
 11
142.11246554553
 21
82.08037930482129
 31
0.0
  0
LINE
  5
2740
330
2
100
AcDbEntity
  8
0
100
AcDbLine
 10
131.5094895191873
 20
95.86562935258923
 30
0.0
 11
134.7430678829764
 21
97.20502136586725
 31
0.0
  0
ARC
  5
2741
330
2
100
AcDbEntity
  8
0
100
AcDbCircle
 10
139.3624655455328
 20
99.1184385276925
 30
0.0
 40
5.0
100
AcDbArc
 50
180.0
 51
224.9999999999813
  0
ARC
  5
2742
330
2
100
AcDbEntity
  8
0
100
AcDbCircle
 10
139.3624655455328
 20
99.1184385276925
 30
0.0
 40
8.5
100
AcDbArc
 50
180.0
 51
224.9999999999813
  0
ARC
  5
2743
330
2
100
AcDbEntity
  8
0
100
AcDbCircle
 10
167.86246554553
 20
-12.41962069517603
 30
0.0
 40
170.0
100
AcDbArc
 50
83.8230035951091
 51
96.17699640483847
  0
LINE
  5
2744
330
2
100
AcDbEntity
  8
0
100
AcDbLine
 10
185.3244063226588
 20
153.5803793048181
 30
0.0
 11
150.4005247684021
 21
153.5803793048181
 31
0.0
  0
LINE
  5
2745
330
2
100
AcDbEntity
  8
0
100
AcDbLine
 10
185.3244063226588
 20
150.0803793048181
 30
0.0
 11
150.4005247684021
 21
150.0803793048181
 31
0.0
  0
ARC
  5
2746
330
2
100
AcDbEntity
  8
0
100
AcDbCircle
 10
134.86246554553
 20
152.5803793048237
 30
0.0
 40
5.0
100
AcDbArc
 50
76.63232579737083
 51
90.0
  0
LINE
  5
2747
330
2
100
AcDbEntity
  8
0
100
AcDbLine
 10
134.86246554553
 20
157.580379304824
 30
0.0
 11
131.86246554553
 21
157.580379304824
 31
0.0
  0
LINE
  5
2748
330
2
100
AcDbEntity
  8
0
100
AcDbLine
 10
134.86246554553
 20
157.5803793048208
 30
0.0
 11
132.2724655455299
 21
157.5803793048208
 31
0.0
  0
ARC
  5
2749
330
2
100
AcDbEntity
  8
0
100
AcDbCircle
 10
145.2664221053405
 20
196.3611706167858
 30
0.0
 40
40.0
100
AcDbArc
 50
256.6323257973708
 51
276.1769964048908
  0
ARC
  5
274A
330
2
100
AcDbEntity
  8
0
100
AcDbCircle
 10
150.4005247684021
 20
145.0803793048181
 30
0.0
 40
5.0
100
AcDbArc
 50
90.0
 51
135.0000000000187
  0
LINE
  5
274B
330
2
100
AcDbEntity
  8
0
100
AcDbLine
 10
130.86246554553
 20
149.6370036318467
 30
0.0
 11
133.36246554553
 21
148.1936279588726
 31
0.0
  0
LINE
  5
274C
330
2
100
AcDbEntity
  8
0
100
AcDbLine
 10
135.86246554553
 20
149.6370036318467
 30
0.0
 11
133.36246554553
 21
148.1936279588726
 31
0.0
  0
LINE
  5
274D
330
2
100
AcDbEntity
  8
0
100
AcDbLine
 10
133.352057905447
 20
140.0527277220354
 30
0.0
 11
144.3901171283164
 21
151.0907869449038
 31
0.0
  0
ARC
  5
274E
330
2
100
AcDbEntity
  8
0
100
AcDbCircle
 10
123.86246554553
 20
151.5803793048258
 30
0.0
 40
3.0
100
AcDbArc
 50
270.0
 51
0.0
  0
CIRCLE
  5
274F
330
2
100
AcDbEntity
  8
HOJO
100
AcDbCircle
 10
131.8624655455328
 20
143.0803793048208
 30
0.0
 40
2.0
  0
LINE
  5
2750
330
2
100
AcDbEntity
  8
CENTER
100
AcDbLine
 10
131.8624655455328
 20
148.2535843855781
 30
0.0
 11
131.8624655455328
 21
137.907174224064
 31
0.0
  0
ARC
  5
2751
330
2
100
AcDbEntity
  8
0
100
AcDbCircle
 10
139.3624655455328
 20
134.0423200819496
 30
0.0
 40
5.0
100
AcDbArc
 50
135.0000000000187
 51
180.0
  0
ARC
  5
2752
330
2
100
AcDbEntity
  8
0
100
AcDbCircle
 10
139.3624655455328
 20
134.0423200819496
 30
0.0
 40
8.5
100
AcDbArc
 50
135.0000000000187
 51
180.0
  0
LINE
  5
2753
330
2
100
AcDbEntity
  8
0
100
AcDbLine
 10
131.5094895191873
 20
137.2951292570529
 30
0.0
 11
134.7430678829764
 21
135.9557372437748
 31
0.0
  0
CIRCLE
  5
2754
330
2
100
AcDbEntity
  8
0
100
AcDbCircle
 10
131.8624655455328
 20
143.0803793048208
 30
0.0
 40
1.6
  0
LINE
  5
2755
330
2
100
AcDbEntity
  8
0
100
AcDbLine
 10
135.8269316396004
 20
137.577853987882
 30
0.0
 11
146.8649908624688
 21
148.6159132107509
 31
0.0
  0
ARC
  5
2756
330
2
100
AcDbEntity
  8
0
100
AcDbCircle
 10
121.86246554553
 20
147.580379304703
 30
0.0
 40
5.0
100
AcDbArc
 50
270.0
 51
0.0
  0
LINE
  5
2757
330
2
100
AcDbEntity
  8
CENTER
100
AcDbLine
 10
126.6892604647759
 20
143.0803793048208
 30
0.0
 11
137.0356706262905
 21
143.0803793048208
 31
0.0
  0
LINE
  5
2758
330
2
100
AcDbEntity
  8
0
100
AcDbLine
 10
147.1477155932984
 20
152.933355331164
 30
0.0
 11
148.487107606576
 21
149.6997769673744
 31
0.0
  0
LINE
  5
2759
330
2
100
AcDbEntity
  8
0
100
AcDbLine
 10
135.86246554553
 20
149.6370036318467
 30
0.0
 11
135.86246554553
 21
152.5237549777949
 31
0.0
  0
LINE
  5
275A
330
2
100
AcDbEntity
  8
0
100
AcDbLine
 10
130.86246554553
 20
149.6370036318467
 30
0.0
 11
130.86246554553
 21
152.5237549777949
 31
0.0
  0
LINE
  5
275B
330
2
100
AcDbEntity
  8
CENTER
100
AcDbLine
 10
124.61246554553
 20
151.0803793048208
 30
0.0
 11
142.11246554553
 21
151.0803793048208
 31
0.0
  0
CIRCLE
  5
275C
330
2
100
AcDbEntity
  8
0
100
AcDbCircle
 10
133.36246554553
 20
151.0803793048208
 30
0.0
 40
5.000000000000113
  0
CIRCLE
  5
275D
330
2
100
AcDbEntity
  8
0
100
AcDbCircle
 10
133.36246554553
 20
151.0803793048208
 30
0.0
 40
4.307179676972509
  0
ARC
  5
275E
330
2
100
AcDbEntity
  8
0
100
AcDbCircle
 10
150.4005247684021
 20
145.0803793048181
 30
0.0
 40
8.5
100
AcDbArc
 50
90.0
 51
135.0000000000187
  0
LINE
  5
275F
330
2
100
AcDbEntity
  8
0
100
AcDbLine
 10
133.36246554553
 20
153.9671306507689
 30
0.0
 11
130.86246554553
 21
152.5237549777949
 31
0.0
  0
LINE
  5
2760
330
2
100
AcDbEntity
  8
0
100
AcDbLine
 10
133.36246554553
 20
153.9671306507689
 30
0.0
 11
135.86246554553
 21
152.5237549777949
 31
0.0
  0
LINE
  5
2769
330
2
100
AcDbEntity
  8
CENTER
100
AcDbLine
 10
321.1027274601264
 20
168.0803793047861
 30
0.0
 11
321.1027274601264
 21
65.08037930478718
 31
0.0
  0
LINE
  5
276A
330
2
100
AcDbEntity
  8
0
100
AcDbLine
 10
364.1027274601345
 20
76.16507944676868
 30
0.0
 11
364.1027274601364
 21
156.9956791628328
 31
0.0
  0
LINE
  5
276B
330
2
100
AcDbEntity
  8
0
100
AcDbLine
 10
297.60272746013
 20
75.58474273868546
 30
0.0
 11
297.60272746013
 21
157.5760158708608
 31
0.0
  0
LINE
  5
276C
330
2
100
AcDbEntity
  8
CENTER
100
AcDbLine
 10
202.3624655455301
 20
76.87108376994007
 30
0.0
 11
202.3624655455301
 21
73.47442162756312
 31
0.0
  0
ARC
  5
276D
330
2
100
AcDbEntity
  8
0
100
AcDbCircle
 10
203.86246554553
 20
80.58037930482038
 30
0.0
 40
5.0
100
AcDbArc
 50
270.0
 51
0.0
  0
ARC
  5
276E
330
2
100
AcDbEntity
  8
0
100
AcDbCircle
 10
285.1027274601318
 20
80.51977548370633
 30
0.0
 40
5.0
100
AcDbArc
 50
180.0
 51
269.3013056170002
  0
ARC
  5
276F
330
2
100
AcDbEntity
  8
0
100
AcDbCircle
 10
291.1027274601337
 20
76.58037930480213
 30
0.0
 40
1.0
100
AcDbArc
 50
180.0
 51
270.0
  0
LINE
  5
2770
330
2
100
AcDbEntity
  8
0
100
AcDbLine
 10
357.1636985362173
 20
75.52014724474066
 30
0.0
 11
321.1027274601327
 21
75.08037930478713
 31
0.0
  0
LINE
  5
2771
330
2
100
AcDbEntity
  8
0
100
AcDbLine
 10
297.60272746013
 20
75.58474273868546
 30
0.0
 11
364.1027274601345
 21
76.16507944676868
 31
0.0
  0
ARC
  5
2772
330
2
100
AcDbEntity
  8
0
100
AcDbCircle
 10
200.86246554553
 20
80.58037930482425
 30
0.0
 40
5.0
100
AcDbArc
 50
256.6323257973708
 51
270.0
  0
LINE
  5
2773
330
2
100
AcDbEntity
  8
0
100
AcDbLine
 10
203.86246554553
 20
75.58037930482425
 30
0.0
 11
200.86246554553
 21
75.58037930482425
 31
0.0
  0
LINE
  5
2774
330
2
100
AcDbEntity
  8
0
100
AcDbLine
 10
285.0417563840472
 20
75.52014724473884
 30
0.0
 11
321.1027274601318
 21
75.08037930478713
 31
0.0
  0
LINE
  5
2775
330
2
100
AcDbEntity
  8
0
100
AcDbLine
 10
297.60272746013
 20
75.58037930480214
 30
0.0
 11
291.1027274601337
 21
75.58037930480214
 31
0.0
  0
ARC
  5
2776
330
2
100
AcDbEntity
  8
0
100
AcDbCircle
 10
357.1027274601318
 20
80.51977548370814
 30
0.0
 40
5.0
100
AcDbArc
 50
270.6986943829997
 51
298.4785614955825
  0
LINE
  5
2777
330
2
100
AcDbEntity
  8
0
100
AcDbLine
 10
364.1027274601364
 20
80.58037930478212
 30
0.0
 11
297.60272746013
 21
80.58037930478212
 31
0.0
  0
LINE
  5
2778
330
2
100
AcDbEntity
  8
0
100
AcDbLine
 10
364.1027274601364
 20
83.58037930478189
 30
0.0
 11
297.60272746013
 21
83.58037930478189
 31
0.0
  0
LINE
  5
2779
330
2
100
AcDbEntity
  8
0
100
AcDbLine
 10
357.1636985362173
 20
157.6406113648317
 30
0.0
 11
321.1027274601327
 21
158.0803793047862
 31
0.0
  0
LINE
  5
277A
330
2
100
AcDbEntity
  8
0
100
AcDbLine
 10
297.60272746013
 20
157.5760158708608
 30
0.0
 11
364.1027274601364
 21
156.9956791628328
 31
0.0
  0
LINE
  5
277B
330
2
100
AcDbEntity
  8
0
100
AcDbLine
 10
364.1027274601364
 20
152.5803793048221
 30
0.0
 11
297.60272746013
 21
152.5803793048221
 31
0.0
  0
LINE
  5
277C
330
2
100
AcDbEntity
  8
0
100
AcDbLine
 10
364.1027274601364
 20
149.5803793048223
 30
0.0
 11
297.60272746013
 21
149.5803793048223
 31
0.0
  0
LINE
  5
277D
330
2
100
AcDbEntity
  8
0
100
AcDbLine
 10
364.1027274601355
 20
134.8724144706864
 30
0.0
 11
297.60272746013
 21
134.8724144706864
 31
0.0
  0
LINE
  5
277E
330
2
100
AcDbEntity
  8
0
100
AcDbLine
 10
364.1027274601355
 20
98.28834413891787
 30
0.0
 11
297.60272746013
 21
98.28834413891787
 31
0.0
  0
LINE
  5
2780
330
2
100
AcDbEntity
  8
CENTER
100
AcDbLine
 10
268.10272746013
 20
116.5803793048021
 30
0.0
 11
424.1027274601345
 21
116.5803793048021
 31
0.0
  0
ARC
  5
2781
330
2
100
AcDbEntity
  8
0
100
AcDbCircle
 10
285.1027274601318
 20
152.6409831258661
 30
0.0
 40
5.0
100
AcDbArc
 50
90.69869438299972
 51
180.0
  0
LINE
  5
2784
330
2
100
AcDbEntity
  8
CENTER
100
AcDbLine
 10
202.3624655455301
 20
159.8303793048208
 30
0.0
 11
202.3624655455301
 21
142.3303793048208
 31
0.0
  0
ARC
  5
2785
330
2
100
AcDbEntity
  8
0
100
AcDbCircle
 10
203.86246554553
 20
152.5803793048201
 30
0.0
 40
5.0
100
AcDbArc
 50
0.0
 51
90.0
  0
ARC
  5
2787
330
2
100
AcDbEntity
  8
0
100
AcDbCircle
 10
38.86246554553008
 20
116.580379304824
 30
0.0
 40
170.0
100
AcDbArc
 50
353.8230035951337
 51
6.176996404866303
  0
LINE
  5
2788
330
2
100
AcDbEntity
  8
0
100
AcDbLine
 10
204.8624655455273
 20
99.1184385276925
 30
0.0
 11
204.8624655455273
 21
134.0423200819491
 31
0.0
  0
LINE
  5
2789
330
2
100
AcDbEntity
  8
0
100
AcDbLine
 10
201.3624655455273
 20
99.1184385276925
 30
0.0
 11
201.3624655455273
 21
134.0423200819496
 31
0.0
  0
LINE
  5
278A
330
2
100
AcDbEntity
  8
CENTER
100
AcDbLine
 10
203.8624655455273
 20
84.90717422406403
 30
0.0
 11
203.8624655455273
 21
95.25358438557811
 31
0.0
  0
LINE
  5
278B
330
2
100
AcDbEntity
  8
CENTER
100
AcDbLine
 10
202.3624655455301
 20
77.89613656065426
 30
0.0
 11
202.3624655455301
 21
90.83037930482083
 31
0.0
  0
ARC
  5
278C
330
2
100
AcDbEntity
  8
0
100
AcDbCircle
 10
247.6432568574914
 20
93.98433586463358
 30
0.0
 40
40.0
100
AcDbArc
 50
173.8230035951337
 51
193.3676742026243
  0
LINE
  5
278D
330
2
100
AcDbEntity
  8
0
100
AcDbLine
 10
202.3728731856131
 20
93.10803088760673
 30
0.0
 11
191.3348139627446
 21
82.06997166473826
 31
0.0
  0
LINE
  5
278E
330
2
100
AcDbEntity
  8
0
100
AcDbLine
 10
199.8979994514597
 20
95.58290462175961
 30
0.0
 11
188.8599402285913
 21
84.54484539889069
 31
0.0
  0
CIRCLE
  5
278F
330
2
100
AcDbEntity
  8
0
100
AcDbCircle
 10
202.3624655455301
 20
82.08037930482083
 30
0.0
 40
5.000000000000113
  0
CIRCLE
  5
2790
330
2
100
AcDbEntity
  8
0
100
AcDbCircle
 10
202.3624655455301
 20
82.08037930482083
 30
0.0
 40
4.307179676972509
  0
LINE
  5
2791
330
2
100
AcDbEntity
  8
0
100
AcDbLine
 10
208.86246554553
 20
80.58037930482425
 30
0.0
 11
208.86246554553
 21
83.58037930482401
 31
0.0
  0
ARC
  5
2792
330
2
100
AcDbEntity
  8
0
100
AcDbCircle
 10
203.8624655455291
 20
83.58037930482401
 30
0.0
 40
5.0
100
AcDbArc
 50
0.0
 51
13.36767420262435
  0
LINE
  5
2793
330
2
100
AcDbEntity
  8
0
100
AcDbLine
 10
204.86246554553
 20
80.63700363184677
 30
0.0
 11
204.86246554553
 21
83.5237549777949
 31
0.0
  0
LINE
  5
2794
330
2
100
AcDbEntity
  8
0
100
AcDbLine
 10
199.86246554553
 20
80.63700363184677
 30
0.0
 11
199.86246554553
 21
83.5237549777949
 31
0.0
  0
LINE
  5
2795
330
2
100
AcDbEntity
  8
0
100
AcDbLine
 10
199.86246554553
 20
80.63700363184677
 30
0.0
 11
202.3624655455301
 21
79.1936279588727
 31
0.0
  0
LINE
  5
2796
330
2
100
AcDbEntity
  8
0
100
AcDbLine
 10
204.86246554553
 20
80.63700363184677
 30
0.0
 11
202.3624655455301
 21
79.1936279588727
 31
0.0
  0
LINE
  5
2797
330
2
100
AcDbEntity
  8
0
100
AcDbLine
 10
202.3624655455301
 20
84.96713065076898
 30
0.0
 11
199.86246554553
 21
83.5237549777949
 31
0.0
  0
LINE
  5
2798
330
2
100
AcDbEntity
  8
0
100
AcDbLine
 10
202.3624655455301
 20
84.96713065076898
 30
0.0
 11
204.86246554553
 21
83.5237549777949
 31
0.0
  0
LINE
  5
2799
330
2
100
AcDbEntity
  8
CENTER
100
AcDbLine
 10
211.11246554553
 20
82.08037930482083
 30
0.0
 11
193.61246554553
 21
82.08037930482083
 31
0.0
  0
CIRCLE
  5
279A
330
2
100
AcDbEntity
  8
HOJO
100
AcDbCircle
 10
203.8624655455273
 20
90.08037930482084
 30
0.0
 40
2.0
  0
CIRCLE
  5
279B
330
2
100
AcDbEntity
  8
0
100
AcDbCircle
 10
203.8624655455273
 20
90.08037930482084
 30
0.0
 40
1.6
  0
ARC
  5
279C
330
2
100
AcDbEntity
  8
0
100
AcDbCircle
 10
196.3624655455273
 20
99.1184385276925
 30
0.0
 40
8.5
100
AcDbArc
 50
315.0000000000186
 51
0.0
  0
LINE
  5
279D
330
2
100
AcDbEntity
  8
0
100
AcDbLine
 10
204.2154415718728
 20
95.86562935258923
 30
0.0
 11
200.9818632080837
 21
97.20502136586681
 31
0.0
  0
ARC
  5
279E
330
2
100
AcDbEntity
  8
0
100
AcDbCircle
 10
196.3624655455273
 20
99.1184385276925
 30
0.0
 40
5.0
100
AcDbArc
 50
315.0000000000186
 51
0.0
  0
LINE
  5
279F
330
2
100
AcDbEntity
  8
CENTER
100
AcDbLine
 10
209.035670626285
 20
90.08037930482084
 30
0.0
 11
198.6892604647705
 21
90.08037930482084
 31
0.0
  0
LINE
  5
27A0
330
2
100
AcDbEntity
  8
0
100
AcDbLine
 10
188.5772154977626
 20
80.22740327847765
 30
0.0
 11
187.2378234844841
 21
83.4609816422672
 31
0.0
  0
LINE
  5
27A1
330
2
100
AcDbEntity
  8
0
100
AcDbLine
 10
203.86246554553
 20
157.580379304824
 30
0.0
 11
200.86246554553
 21
157.580379304824
 31
0.0
  0
ARC
  5
27A2
330
2
100
AcDbEntity
  8
0
100
AcDbCircle
 10
200.86246554553
 20
152.5803793048231
 30
0.0
 40
5.0
100
AcDbArc
 50
90.0
 51
103.3676742026291
  0
ARC
  5
27A3
330
2
100
AcDbEntity
  8
0
100
AcDbCircle
 10
203.86246554553
 20
149.580379304824
 30
0.0
 40
5.0
100
AcDbArc
 50
346.6323257973752
 51
0.0
  0
LINE
  5
27A4
330
2
100
AcDbEntity
  8
0
100
AcDbLine
 10
199.86246554553
 20
149.6370036318467
 30
0.0
 11
202.3624655455301
 21
148.1936279588726
 31
0.0
  0
LINE
  5
27A5
330
2
100
AcDbEntity
  8
0
100
AcDbLine
 10
204.86246554553
 20
149.6370036318467
 30
0.0
 11
202.3624655455301
 21
148.1936279588726
 31
0.0
  0
LINE
  5
27A6
330
2
100
AcDbEntity
  8
0
100
AcDbLine
 10
202.3728731856131
 20
140.0527277220349
 30
0.0
 11
191.3348139627446
 21
151.0907869449038
 31
0.0
  0
ARC
  5
27A7
330
2
100
AcDbEntity
  8
0
100
AcDbCircle
 10
196.3624655455273
 20
134.0423200819496
 30
0.0
 40
5.0
100
AcDbArc
 50
0.0
 51
44.99999999998129
  0
ARC
  5
27A8
330
2
100
AcDbEntity
  8
0
100
AcDbCircle
 10
196.3624655455273
 20
134.0423200819491
 30
0.0
 40
8.5
100
AcDbArc
 50
0.0
 51
44.99999999998129
  0
LINE
  5
27A9
330
2
100
AcDbEntity
  8
0
100
AcDbLine
 10
204.2154415718728
 20
137.2951292570524
 30
0.0
 11
200.9818632080846
 21
135.9557372437748
 31
0.0
  0
ARC
  5
27AA
330
2
100
AcDbEntity
  8
0
100
AcDbCircle
 10
247.6432568574923
 20
139.1764227450133
 30
0.0
 40
40.0
100
AcDbArc
 50
166.6323257973752
 51
186.1769964048663
  0
LINE
  5
27AB
330
2
100
AcDbEntity
  8
0
100
AcDbLine
 10
199.8979994514597
 20
137.577853987882
 30
0.0
 11
188.8599402285913
 21
148.6159132107509
 31
0.0
  0
LINE
  5
27AC
330
2
100
AcDbEntity
  8
0
100
AcDbLine
 10
208.86246554553
 20
149.580379304824
 30
0.0
 11
208.86246554553
 21
152.580379304824
 31
0.0
  0
LINE
  5
27AD
330
2
100
AcDbEntity
  8
0
100
AcDbLine
 10
204.86246554553
 20
149.6370036318467
 30
0.0
 11
204.86246554553
 21
152.5237549777949
 31
0.0
  0
LINE
  5
27AE
330
2
100
AcDbEntity
  8
0
100
AcDbLine
 10
199.86246554553
 20
149.6370036318467
 30
0.0
 11
199.86246554553
 21
152.5237549777949
 31
0.0
  0
LINE
  5
27AF
330
2
100
AcDbEntity
  8
CENTER
100
AcDbLine
 10
211.11246554553
 20
151.0803793048208
 30
0.0
 11
193.61246554553
 21
151.0803793048208
 31
0.0
  0
CIRCLE
  5
27B0
330
2
100
AcDbEntity
  8
0
100
AcDbCircle
 10
202.3624655455301
 20
151.0803793048208
 30
0.0
 40
5.000000000000113
  0
CIRCLE
  5
27B1
330
2
100
AcDbEntity
  8
0
100
AcDbCircle
 10
202.3624655455301
 20
151.0803793048208
 30
0.0
 40
4.307179676972509
  0
LINE
  5
27B2
330
2
100
AcDbEntity
  8
0
100
AcDbLine
 10
202.3624655455301
 20
153.9671306507689
 30
0.0
 11
199.86246554553
 21
152.5237549777949
 31
0.0
  0
LINE
  5
27B3
330
2
100
AcDbEntity
  8
0
100
AcDbLine
 10
202.3624655455301
 20
153.9671306507689
 30
0.0
 11
204.86246554553
 21
152.5237549777949
 31
0.0
  0
LINE
  5
27B4
330
2
100
AcDbEntity
  8
0
100
AcDbLine
 10
188.5772154977626
 20
152.933355331164
 30
0.0
 11
187.2378234844841
 21
149.6997769673744
 31
0.0
  0
LINE
  5
27B5
330
2
100
AcDbEntity
  8
0
100
AcDbLine
 10
290.1027274601327
 20
76.58037930480213
 30
0.0
 11
290.1027274601327
 21
156.5803793048021
 31
0.0
  0
LINE
  5
27B6
330
2
100
AcDbEntity
  8
0
100
AcDbLine
 10
286.60272746013
 20
146.0803793048207
 30
0.0
 11
286.60272746013
 21
87.08037930478349
 31
0.0
  0
LINE
  5
27B7
330
2
100
AcDbEntity
  8
0
100
AcDbLine
 10
278.10272746013
 20
142.503029035611
 30
0.0
 11
278.10272746013
 21
90.65772957399349
 31
0.0
  0
LINE
  5
27B8
330
2
100
AcDbEntity
  8
0
100
AcDbLine
 10
282.6027274601354
 20
142.8803793048025
 30
0.0
 11
282.6027274601354
 21
90.28037930480172
 31
0.0
  0
LINE
  5
27B9
330
2
100
AcDbEntity
  8
0
100
AcDbLine
 10
280.6027274601354
 20
142.880379304803
 30
0.0
 11
280.6027274602146
 21
90.28037930480172
 31
0.0
  0
LINE
  5
27BA
330
2
100
AcDbEntity
  8
0
100
AcDbLine
 10
286.1027274601309
 20
88.08037930480736
 30
0.0
 11
286.10272746013
 21
145.0803793047964
 31
0.0
  0
LINE
  5
27BB
330
2
100
AcDbEntity
  8
0
100
AcDbLine
 10
279.1027274601355
 20
143.0803793048028
 30
0.0
 11
279.1027274601355
 21
90.08037930480123
 31
0.0
  0
LINE
  5
27BC
330
2
100
AcDbEntity
  8
0
100
AcDbLine
 10
282.8027274601353
 20
90.08037930480169
 30
0.0
 11
282.8027274601353
 21
143.0803793048023
 31
0.0
  0
LINE
  5
27BD
330
2
100
AcDbEntity
  8
HIDS
100
AcDbLine
 10
289.5169410225051
 20
80.16616574242949
 30
0.0
 11
287.1885138977585
 21
82.49459286717479
 31
0.0
  0
LINE
  5
27BE
330
2
100
AcDbEntity
  8
0
100
AcDbLine
 10
288.6027274601336
 20
77.08037930478349
 30
0.0
 11
283.0027274601333
 21
77.08037930478349
 31
0.0
  0
LINE
  5
27BF
330
2
100
AcDbEntity
  8
CENTER
100
AcDbLine
 10
277.6027274601327
 20
82.08037930478349
 30
0.0
 11
302.6654742042791
 21
82.08037930478349
 31
0.0
  0
LINE
  5
27C0
330
2
100
AcDbEntity
  8
0
100
AcDbLine
 10
288.6027274601336
 20
87.08037930478349
 30
0.0
 11
283.0027274601333
 21
87.08037930478349
 31
0.0
  0
LINE
  5
27C1
330
2
100
AcDbEntity
  8
0
100
AcDbLine
 10
280.1027274601318
 20
80.51977548370633
 30
0.0
 11
280.1027274601318
 21
90.08037930480123
 31
0.0
  0
LINE
  5
27C2
330
2
100
AcDbEntity
  8
0
100
AcDbLine
 10
282.6027274601336
 20
77.7731996278112
 30
0.0
 11
282.6027274601327
 21
86.38755898175578
 31
0.0
  0
LINE
  5
27C3
330
2
100
AcDbEntity
  8
0
100
AcDbLine
 10
283.0027274601333
 20
77.08037930478349
 30
0.0
 11
283.0027274601333
 21
87.08037930478349
 31
0.0
  0
LINE
  5
27C4
330
2
100
AcDbEntity
  8
HIDS
100
AcDbLine
 10
286.60272746013
 20
87.08037930478349
 30
0.0
 11
286.60272746013
 21
83.90880642954858
 31
0.0
  0
ARC
  5
27C5
330
2
100
AcDbEntity
  8
HIDS
100
AcDbCircle
 10
288.60272746013
 20
83.90880642954858
 30
0.0
 40
2.0
100
AcDbArc
 50
180.0
 51
225.000000000055
  0
LINE
  5
27C6
330
2
100
AcDbEntity
  8
0
100
AcDbLine
 10
283.0027274601333
 20
77.08037930478349
 30
0.0
 11
282.6027274601336
 21
77.7731996278112
 31
0.0
  0
LINE
  5
27C7
330
2
100
AcDbEntity
  8
0
100
AcDbLine
 10
279.1027274601355
 20
90.08037930480123
 30
0.0
 11
280.4027274601347
 21
90.08037930480146
 31
0.0
  0
LINE
  5
27C8
330
2
100
AcDbEntity
  8
0
100
AcDbLine
 10
282.6027274601354
 20
90.28037930480172
 30
0.0
 11
282.8027274601353
 21
90.08037930480169
 31
0.0
  0
LINE
  5
27C9
330
2
100
AcDbEntity
  8
0
100
AcDbLine
 10
280.8027274601353
 20
90.78037930480126
 30
0.0
 11
282.4027274601347
 21
90.78037930480173
 31
0.0
  0
LINE
  5
27CA
330
2
100
AcDbEntity
  8
0
100
AcDbLine
 10
279.1027274601355
 20
90.08037930480123
 30
0.0
 11
278.1027274601354
 21
90.65772957399076
 31
0.0
  0
LINE
  5
27CB
330
2
100
AcDbEntity
  8
0
100
AcDbLine
 10
286.1027274601309
 20
88.08037930480736
 30
0.0
 11
286.6027274601354
 21
87.58037930480236
 31
0.0
  0
LINE
  5
27CC
330
2
100
AcDbEntity
  8
0
100
AcDbLine
 10
282.8027274601353
 20
90.08037930480169
 30
0.0
 11
286.1027274601354
 21
90.08037930480213
 31
0.0
  0
ARC
  5
27CD
330
2
100
AcDbEntity
  8
0
100
AcDbCircle
 10
280.4027274601347
 20
90.28037930480127
 30
0.0
 40
0.2
100
AcDbArc
 50
270.0
 51
0.0000000001042204
  0
ARC
  5
27CE
330
2
100
AcDbEntity
  8
0
100
AcDbCircle
 10
280.8027274601362
 20
90.58037930480145
 30
0.0
 40
0.2
100
AcDbArc
 50
90.0
 51
179.9999999998697
  0
ARC
  5
27CF
330
2
100
AcDbEntity
  8
0
100
AcDbCircle
 10
282.4027274601347
 20
90.58037930480145
 30
0.0
 40
0.2
100
AcDbArc
 50
0.0
 51
90.0
  0
LINE
  5
27D0
330
2
100
AcDbEntity
  8
0
100
AcDbLine
 10
283.0027274601333
 20
87.08037930478349
 30
0.0
 11
282.6027274601336
 21
86.38755898175578
 31
0.0
  0
LINE
  5
27D1
330
2
100
AcDbEntity
  8
0
100
AcDbLine
 10
288.6027274601336
 20
77.08037930478349
 30
0.0
 11
288.6027274601336
 21
87.08037930478326
 31
0.0
  0
ARC
  5
27D2
330
2
100
AcDbEntity
  8
HIDS
100
AcDbCircle
 10
288.1027274601327
 20
78.75195218005592
 30
0.0
 40
2.0
100
AcDbArc
 50
0.0
 51
45.00000000005498
  0
LINE
  5
27D3
330
2
100
AcDbEntity
  8
0
100
AcDbLine
 10
297.60272746013
 20
80.58037930478212
 30
0.0
 11
291.1027274601327
 21
80.58037930478212
 31
0.0
  0
LINE
  5
27D4
330
2
100
AcDbEntity
  8
0
100
AcDbLine
 10
297.60272746013
 20
83.58037930478189
 30
0.0
 11
291.1027274601327
 21
83.58037930478189
 31
0.0
  0
LINE
  5
27D5
330
2
100
AcDbEntity
  8
0
100
AcDbLine
 10
288.6027274601327
 20
77.08037930478349
 30
0.0
 11
290.1027274601327
 21
77.08037930478349
 31
0.0
  0
LINE
  5
27D6
330
2
100
AcDbEntity
  8
0
100
AcDbLine
 10
297.60272746013
 20
98.28834413891787
 30
0.0
 11
291.1027274601327
 21
98.28834413891787
 31
0.0
  0
LINE
  5
27D7
330
2
100
AcDbEntity
  8
0
100
AcDbLine
 10
288.6027274601327
 20
87.08037930478349
 30
0.0
 11
290.1027274601327
 21
87.08037930478349
 31
0.0
  0
LINE
  5
27D8
330
2
100
AcDbEntity
  8
0
100
AcDbLine
 10
288.6027274601336
 20
156.0803793048207
 30
0.0
 11
283.0027274601333
 21
156.0803793048207
 31
0.0
  0
LINE
  5
27D9
330
2
100
AcDbEntity
  8
0
100
AcDbLine
 10
285.0417563840472
 20
157.6406113648336
 30
0.0
 11
321.1027274601318
 21
158.0803793047862
 31
0.0
  0
LINE
  5
27DA
330
2
100
AcDbEntity
  8
0
100
AcDbLine
 10
288.6027274601336
 20
146.0803793048207
 30
0.0
 11
283.0027274601333
 21
146.0803793048207
 31
0.0
  0
LINE
  5
27DB
330
2
100
AcDbEntity
  8
HIDS
100
AcDbLine
 10
289.5169410225051
 20
152.9945928671745
 30
0.0
 11
287.1885138977576
 21
150.6661657424294
 31
0.0
  0
LINE
  5
27DC
330
2
100
AcDbEntity
  8
CENTER
100
AcDbLine
 10
277.6027274601327
 20
151.0803793048207
 30
0.0
 11
302.6654742042791
 21
151.0803793048207
 31
0.0
  0
LINE
  5
27DD
330
2
100
AcDbEntity
  8
0
100
AcDbLine
 10
283.0027274601333
 20
156.0803793048207
 30
0.0
 11
282.6027274601336
 21
155.387558981793
 31
0.0
  0
LINE
  5
27DE
330
2
100
AcDbEntity
  8
0
100
AcDbLine
 10
280.1027274601318
 20
143.0803793048025
 30
0.0
 11
280.1027274601318
 21
152.6409831258661
 31
0.0
  0
LINE
  5
27DF
330
2
100
AcDbEntity
  8
HIDS
100
AcDbLine
 10
286.60272746013
 20
146.0803793048207
 30
0.0
 11
286.60272746013
 21
149.2519521800556
 31
0.0
  0
LINE
  5
27E0
330
2
100
AcDbEntity
  8
0
100
AcDbLine
 10
279.1027274601355
 20
143.0803793048028
 30
0.0
 11
278.1027274601354
 21
142.5030290356132
 31
0.0
  0
LINE
  5
27E1
330
2
100
AcDbEntity
  8
0
100
AcDbLine
 10
280.8027274601353
 20
142.3803793048027
 30
0.0
 11
282.4027274601347
 21
142.3803793048025
 31
0.0
  0
LINE
  5
27E2
330
2
100
AcDbEntity
  8
0
100
AcDbLine
 10
282.6027274601354
 20
142.8803793048025
 30
0.0
 11
282.8027274601353
 21
143.0803793048023
 31
0.0
  0
LINE
  5
27E3
330
2
100
AcDbEntity
  8
0
100
AcDbLine
 10
279.1027274601355
 20
143.0803793048028
 30
0.0
 11
280.4027274601347
 21
143.0803793048025
 31
0.0
  0
LINE
  5
27E4
330
2
100
AcDbEntity
  8
0
100
AcDbLine
 10
286.1027274601354
 20
145.0803793048019
 30
0.0
 11
286.1027274601354
 21
143.0803793048019
 31
0.0
  0
LINE
  5
27E5
330
2
100
AcDbEntity
  8
0
100
AcDbLine
 10
286.1027274601354
 20
145.0803793048019
 30
0.0
 11
286.6027274601354
 21
145.5803793048019
 31
0.0
  0
LINE
  5
27E6
330
2
100
AcDbEntity
  8
0
100
AcDbLine
 10
282.8027274601353
 20
143.0803793048023
 30
0.0
 11
286.1027274601354
 21
143.0803793048019
 31
0.0
  0
ARC
  5
27E7
330
2
100
AcDbEntity
  8
0
100
AcDbCircle
 10
280.4027274601347
 20
142.8803793048025
 30
0.0
 40
0.2
100
AcDbArc
 50
0.0000000001302755
 51
90.0
  0
ARC
  5
27E8
330
2
100
AcDbEntity
  8
0
100
AcDbCircle
 10
280.8027274601353
 20
142.5803793048028
 30
0.0
 40
0.2
100
AcDbArc
 50
180.0000000001302
 51
270.0
  0
ARC
  5
27E9
330
2
100
AcDbEntity
  8
0
100
AcDbCircle
 10
282.4027274601347
 20
142.5803793048023
 30
0.0
 40
0.2
100
AcDbArc
 50
270.0
 51
0.0
  0
LINE
  5
27EA
330
2
100
AcDbEntity
  8
0
100
AcDbLine
 10
283.0027274601333
 20
146.0803793048207
 30
0.0
 11
282.6027274601336
 21
146.7731996278484
 31
0.0
  0
ARC
  5
27EB
330
2
100
AcDbEntity
  8
HIDS
100
AcDbCircle
 10
288.60272746013
 20
149.2519521800556
 30
0.0
 40
2.0
100
AcDbArc
 50
134.999999999945
 51
180.0
  0
LINE
  5
27EC
330
2
100
AcDbEntity
  8
0
100
AcDbLine
 10
282.6027274601336
 20
155.387558981793
 30
0.0
 11
282.6027274601327
 21
146.7731996278484
 31
0.0
  0
LINE
  5
27ED
330
2
100
AcDbEntity
  8
0
100
AcDbLine
 10
283.0027274601333
 20
156.0803793048207
 30
0.0
 11
283.0027274601333
 21
146.0803793048207
 31
0.0
  0
LINE
  5
27EE
330
2
100
AcDbEntity
  8
0
100
AcDbLine
 10
297.6027274601309
 20
157.5803793048019
 30
0.0
 11
291.1027274601327
 21
157.5803793048019
 31
0.0
  0
ARC
  5
27EF
330
2
100
AcDbEntity
  8
0
100
AcDbCircle
 10
291.1027274601327
 20
156.5803793048019
 30
0.0
 40
1.0
100
AcDbArc
 50
90.0
 51
180.0
  0
LINE
  5
27F0
330
2
100
AcDbEntity
  8
0
100
AcDbLine
 10
288.6027274601327
 20
156.0803793048207
 30
0.0
 11
290.1027274601327
 21
156.0803793048207
 31
0.0
  0
LINE
  5
27F1
330
2
100
AcDbEntity
  8
0
100
AcDbLine
 10
297.60272746013
 20
134.8724144706864
 30
0.0
 11
291.1027274601327
 21
134.8724144706864
 31
0.0
  0
LINE
  5
27F2
330
2
100
AcDbEntity
  8
0
100
AcDbLine
 10
288.6027274601327
 20
146.0803793048207
 30
0.0
 11
290.1027274601327
 21
146.0803793048207
 31
0.0
  0
LINE
  5
27F3
330
2
100
AcDbEntity
  8
0
100
AcDbLine
 10
297.60272746013
 20
152.5803793048221
 30
0.0
 11
291.1027274601327
 21
152.5803793048221
 31
0.0
  0
LINE
  5
27F4
330
2
100
AcDbEntity
  8
0
100
AcDbLine
 10
297.60272746013
 20
149.5803793048223
 30
0.0
 11
291.1027274601327
 21
149.5803793048223
 31
0.0
  0
LINE
  5
27F5
330
2
100
AcDbEntity
  8
0
100
AcDbLine
 10
288.6027274601336
 20
156.0803793048207
 30
0.0
 11
288.6027274601336
 21
146.080379304821
 31
0.0
  0
ARC
  5
27F6
330
2
100
AcDbEntity
  8
HIDS
100
AcDbCircle
 10
288.1027274601327
 20
154.4088064295483
 30
0.0
 40
2.0
100
AcDbArc
 50
314.9999999999449
 51
0.0
  0
LINE
  5
27FE
330
2
100
AcDbEntity
  8
0
100
AcDbLine
 10
369.1027274601336
 20
81.58037930480714
 30
0.0
 11
369.1027274601336
 21
151.5803793048071
 31
0.0
  0
LINE
  5
27FF
330
2
100
AcDbEntity
  8
0
100
AcDbLine
 10
382.1027274601318
 20
90.51175685442194
 30
0.0
 11
382.1027274601336
 21
142.6490017551923
 31
0.0
  0
LINE
  5
2802
330
2
100
AcDbEntity
  8
0
100
AcDbLine
 10
364.1027274601337
 20
81.58037930480714
 30
0.0
 11
369.1027274601336
 21
81.58037930480714
 31
0.0
  0
ARC
  5
2803
330
2
100
AcDbEntity
  8
0
100
AcDbCircle
 10
380.1027274601336
 20
90.51175685442194
 30
0.0
 40
2.0
100
AcDbArc
 50
272.0000000000036
 51
0.0
  0
LINE
  5
2808
330
2
100
AcDbEntity
  8
0
100
AcDbLine
 10
371.0329284667285
 20
88.19381340583914
 30
0.0
 11
380.1725264535379
 21
88.51297520038315
 31
0.0
  0
ARC
  5
2809
330
2
100
AcDbEntity
  8
0
100
AcDbCircle
 10
371.1027274601336
 20
86.19503175180126
 30
0.0
 40
2.0
100
AcDbArc
 50
92.00000000000365
 51
180.0
  0
ARC
  5
280B
330
2
100
AcDbEntity
  8
0
100
AcDbCircle
 10
357.1027274601318
 20
152.6409831258642
 30
0.0
 40
5.0
100
AcDbArc
 50
61.52143850501043
 51
89.30130561700025
  0
ARC
  5
280C
330
2
100
AcDbEntity
  8
0
100
AcDbCircle
 10
380.1027274601336
 20
142.6490017551923
 30
0.0
 40
2.0
100
AcDbArc
 50
0.0
 51
87.99999999999634
  0
LINE
  5
2810
330
2
100
AcDbEntity
  8
0
100
AcDbLine
 10
371.0329284667285
 20
144.966945203776
 30
0.0
 11
380.1725264535388
 21
144.6477834092311
 31
0.0
  0
ARC
  5
2811
330
2
100
AcDbEntity
  8
0
100
AcDbCircle
 10
371.1027274601336
 20
146.9657268578148
 30
0.0
 40
2.0
100
AcDbArc
 50
180.0
 51
267.9999999999963
  0
LINE
  5
2812
330
2
100
AcDbEntity
  8
0
100
AcDbLine
 10
364.1027274601337
 20
151.5803793048071
 30
0.0
 11
369.1027274601336
 21
151.5803793048071
 31
0.0
  0
ARC
  5
2817
330
2
100
AcDbEntity
  8
0
100
AcDbCircle
 10
671.9984174507016
 20
77.08037930482072
 30
0.0
 40
2.0
100
AcDbArc
 50
180.0
 51
270.0
  0
ARC
  5
2818
330
2
100
AcDbEntity
  8
0
100
AcDbCircle
 10
671.9984174507016
 20
77.58037930482072
 30
0.0
 40
2.0
100
AcDbArc
 50
180.0
 51
270.0
  0
ARC
  5
2819
330
2
100
AcDbEntity
  8
0
100
AcDbCircle
 10
632.9984174507016
 20
80.58037930482072
 30
0.0
 40
5.0
100
AcDbArc
 50
270.0
 51
0.0
  0
ARC
  5
281A
330
2
100
AcDbEntity
  8
0
100
AcDbCircle
 10
574.4023740105075
 20
36.79958799286112
 30
0.0
 40
40.0
100
AcDbArc
 50
83.8230035951091
 51
103.3676742026291
  0
ARC
  5
281B
330
2
100
AcDbEntity
  8
0
100
AcDbCircle
 10
596.998417450697
 20
245.580379304823
 30
0.0
 40
170.0
100
AcDbArc
 50
263.8230035951091
 51
276.1769964048908
  0
ARC
  5
281C
330
2
100
AcDbEntity
  8
0
100
AcDbCircle
 10
560.9984174507006
 20
80.58037930482072
 30
0.0
 40
5.0
100
AcDbArc
 50
180.0
 51
270.0
  0
ARC
  5
281D
330
2
100
AcDbEntity
  8
0
100
AcDbCircle
 10
619.5944608908866
 20
36.79958799286089
 30
0.0
 40
40.0
100
AcDbArc
 50
76.63232579737083
 51
96.17699640483847
  0
LINE
  5
281F
330
2
100
AcDbEntity
  8
CENTER
100
AcDbLine
 10
596.9984174507064
 20
175.5803793048205
 30
0.0
 11
596.9984174507061
 21
57.58037930482186
 31
0.0
  0
CIRCLE
  5
2820
330
2
100
AcDbEntity
  8
CENTER
100
AcDbCircle
 10
596.9984174507007
 20
116.5803793048211
 30
0.0
 40
48.99999999999932
  0
LINE
  5
2821
330
2
100
AcDbEntity
  8
CENTER
100
AcDbLine
 10
551.7723379841243
 20
161.8064587713964
 30
0.0
 11
642.2244969172751
 21
71.35429983824502
 31
0.0
  0
LINE
  5
2822
330
2
100
AcDbEntity
  8
CENTER
100
AcDbLine
 10
641.5461446654525
 20
161.1281065195744
 30
0.0
 11
552.450690235947
 21
72.03265209006952
 31
0.0
  0
LINE
  5
2823
330
2
100
AcDbEntity
  8
CENTER
100
AcDbLine
 10
562.3501851725595
 20
88.93214702667995
 30
0.0
 11
562.3501851725595
 21
74.93214702667995
 31
0.0
  0
LINE
  5
2824
330
2
100
AcDbEntity
  8
CENTER
100
AcDbLine
 10
631.6466497288419
 20
88.93214702667995
 30
0.0
 11
631.6466497288419
 21
74.93214702667995
 31
0.0
  0
ARC
  5
2826
330
2
100
AcDbEntity
  8
0
100
AcDbCircle
 10
563.998417450697
 20
80.58037930482345
 30
0.0
 40
5.0
100
AcDbArc
 50
270.0
 51
283.3676742026291
  0
LINE
  5
2827
330
2
100
AcDbEntity
  8
0
100
AcDbLine
 10
560.998417450697
 20
75.58037930482277
 30
0.0
 11
563.998417450697
 21
75.58037930482277
 31
0.0
  0
LINE
  5
2828
330
2
100
AcDbEntity
  8
0
100
AcDbLine
 10
629.998417450697
 20
75.58037930482277
 30
0.0
 11
632.998417450698
 21
75.58037930482277
 31
0.0
  0
ARC
  5
2829
330
2
100
AcDbEntity
  8
0
100
AcDbCircle
 10
629.998417450697
 20
80.58037930482299
 30
0.0
 40
5.0
100
AcDbArc
 50
256.6323257973708
 51
270.0
  0
LINE
  5
282A
330
2
100
AcDbEntity
  8
0
100
AcDbLine
 10
681.9984174506989
 20
75.08037930482072
 30
0.0
 11
671.9984174507016
 21
75.08037930482072
 31
0.0
  0
LINE
  5
282B
330
2
100
AcDbEntity
  8
0
100
AcDbLine
 10
681.9984174506989
 20
75.58037930482072
 30
0.0
 11
671.9984174507016
 21
75.58037930482072
 31
0.0
  0
ARC
  5
282C
330
2
100
AcDbEntity
  8
0
100
AcDbCircle
 10
619.5944608908884
 20
196.3611706167843
 30
0.0
 40
40.0
100
AcDbArc
 50
263.8230035951091
 51
283.3676742026291
  0
LINE
  5
282D
330
2
100
AcDbEntity
  8
CENTER
100
AcDbLine
 10
638.6466497288418
 20
151.2286115829624
 30
0.0
 11
624.6466497288419
 21
151.2286115829624
 31
0.0
  0
LINE
  5
282F
330
2
100
AcDbEntity
  8
CENTER
100
AcDbLine
 10
638.6466497288418
 20
81.93214702668496
 30
0.0
 11
624.6466497288419
 21
81.93214702668496
 31
0.0
  0
CIRCLE
  5
2830
330
2
100
AcDbEntity
  8
0
100
AcDbCircle
 10
596.9984174507007
 20
116.5803793048207
 30
0.0
 40
35.00000000000011
  0
LINE
  5
2831
330
2
100
AcDbEntity
  8
CENTER
100
AcDbLine
 10
562.3501851725595
 20
158.2286115829614
 30
0.0
 11
562.3501851725595
 21
144.2286115829614
 31
0.0
  0
ARC
  5
2832
330
2
100
AcDbEntity
  8
0
100
AcDbCircle
 10
560.9984174507006
 20
152.5803793048207
 30
0.0
 40
5.0
100
AcDbArc
 50
90.0
 51
180.0
  0
ARC
  5
2833
330
2
100
AcDbEntity
  8
0
100
AcDbCircle
 10
517.2176261387356
 20
139.1764227450129
 30
0.0
 40
40.0
100
AcDbArc
 50
353.8230035951337
 51
13.36767420262435
  0
LINE
  5
2834
330
2
100
AcDbEntity
  8
CENTER
100
AcDbLine
 10
569.3501851725604
 20
151.228611582961
 30
0.0
 11
555.3501851725603
 21
151.228611582961
 31
0.0
  0
LINE
  5
2835
330
2
100
AcDbEntity
  8
CENTER
100
AcDbLine
 10
569.3501851725604
 20
81.93214702668155
 30
0.0
 11
555.3501851725603
 21
81.93214702668155
 31
0.0
  0
ARC
  5
2836
330
2
100
AcDbEntity
  8
0
100
AcDbCircle
 10
517.2176261387356
 20
93.98433586463346
 30
0.0
 40
40.0
100
AcDbArc
 50
346.6323257973752
 51
6.176996404866303
  0
ARC
  5
2837
330
2
100
AcDbEntity
  8
0
100
AcDbCircle
 10
725.9984174506979
 20
116.5803793048227
 30
0.0
 40
170.0
100
AcDbArc
 50
173.8230035951337
 51
186.1769964048663
  0
ARC
  5
2838
330
2
100
AcDbEntity
  8
0
100
AcDbCircle
 10
560.9984174506979
 20
83.58037930482277
 30
0.0
 40
5.0
100
AcDbArc
 50
166.6323257973752
 51
180.0
  0
LINE
  5
2839
330
2
100
AcDbEntity
  8
0
100
AcDbLine
 10
555.998417450697
 20
83.58037930482277
 30
0.0
 11
555.998417450697
 21
80.58037930482276
 31
0.0
  0
LINE
  5
283A
330
2
100
AcDbEntity
  8
0
100
AcDbLine
 10
555.998417450697
 20
152.5803793048225
 30
0.0
 11
555.998417450697
 21
149.5803793048227
 31
0.0
  0
ARC
  5
283B
330
2
100
AcDbEntity
  8
0
100
AcDbCircle
 10
560.9984174506979
 20
149.5803793048227
 30
0.0
 40
5.0
100
AcDbArc
 50
180.0
 51
193.3676742026243
  0
CIRCLE
  5
2840
330
2
100
AcDbEntity
  8
0
100
AcDbCircle
 10
596.9984174507007
 20
116.5803793048207
 30
0.0
 40
27.99999999999875
  0
CIRCLE
  5
2841
330
2
100
AcDbEntity
  8
0
100
AcDbCircle
 10
596.9984174507007
 20
116.5803793048207
 30
0.0
 40
23.0
  0
CIRCLE
  5
2842
330
2
100
AcDbEntity
  8
0
100
AcDbCircle
 10
562.3501851725603
 20
81.93214702667996
 30
0.0
 40
2.399999999999999
  0
CIRCLE
  5
2843
330
2
100
AcDbEntity
  8
HOJO
100
AcDbCircle
 10
562.3501851725603
 20
81.93214702667996
 30
0.0
 40
3.0
  0
LINE
  5
2844
330
2
100
AcDbEntity
  8
0
100
AcDbLine
 10
595.5459333661773
 20
85.90725292720838
 30
0.0
 11
598.4509015336669
 21
85.90725292720838
 31
0.0
  0
ARC
  5
2845
330
2
100
AcDbEntity
  8
0
100
AcDbCircle
 10
598.3765583661669
 20
84.64287792721274
 30
0.0
 40
0.0743749999997391
100
AcDbArc
 50
270.0
 51
90.0
  0
LINE
  5
2846
330
2
100
AcDbEntity
  8
0
100
AcDbLine
 10
597.4096833661705
 20
84.56850292721304
 30
0.0
 11
598.3765583661669
 21
84.56850292721304
 31
0.0
  0
LINE
  5
2847
330
2
100
AcDbEntity
  8
0
100
AcDbLine
 10
597.2609015336709
 20
84.71725292721265
 30
0.0
 11
598.3765583661669
 21
84.71725292721265
 31
0.0
  0
LINE
  5
2848
330
2
100
AcDbEntity
  8
0
100
AcDbLine
 10
597.2609015336709
 20
84.71725292721265
 30
0.0
 11
597.2609015336709
 21
82.40725292722066
 31
0.0
  0
LINE
  5
2849
330
2
100
AcDbEntity
  8
0
100
AcDbLine
 10
597.4096833661705
 20
84.56850292721304
 30
0.0
 11
598.7849822291208
 21
82.40725292722066
 31
0.0
  0
LINE
  5
284A
330
2
100
AcDbEntity
  8
0
100
AcDbLine
 10
596.2109333661746
 20
84.71725184105043
 30
0.0
 11
595.878433909257
 21
84.05225292721496
 31
0.0
  0
LINE
  5
284B
330
2
100
AcDbEntity
  8
0
100
AcDbLine
 10
596.2109333661746
 20
84.71725184105043
 30
0.0
 11
596.2109333661746
 21
84.05225292721496
 31
0.0
  0
LINE
  5
284C
330
2
100
AcDbEntity
  8
0
100
AcDbLine
 10
595.878433909257
 20
84.05225292721496
 30
0.0
 11
596.2109333661746
 21
84.05225292721496
 31
0.0
  0
LINE
  5
284D
330
2
100
AcDbEntity
  8
0
100
AcDbLine
 10
596.2109333661746
 20
82.93225292721894
 30
0.0
 11
596.2109333661746
 21
82.40725292722066
 31
0.0
  0
LINE
  5
284E
330
2
100
AcDbEntity
  8
0
100
AcDbLine
 10
595.3184339092585
 20
82.93225292721894
 30
0.0
 11
596.2109333661746
 21
82.93225292721894
 31
0.0
  0
LINE
  5
284F
330
2
100
AcDbEntity
  8
0
100
AcDbLine
 10
595.3184339092585
 20
82.93225292721894
 30
0.0
 11
595.0559339092595
 21
82.40725292722066
 31
0.0
  0
LINE
  5
2850
330
2
100
AcDbEntity
  8
0
100
AcDbLine
 10
596.2109333661746
 20
82.40725292722066
 30
0.0
 11
597.2609015336709
 21
82.40725292722066
 31
0.0
  0
LINE
  5
2851
330
2
100
AcDbEntity
  8
0
100
AcDbLine
 10
598.7849822291208
 20
82.40725292722066
 30
0.0
 11
600.0449827721967
 21
82.40725292722066
 31
0.0
  0
LINE
  5
2852
330
2
100
AcDbEntity
  8
0
100
AcDbLine
 10
599.1756401372648
 20
83.77340232651063
 30
0.0
 11
600.0449827721967
 21
82.40725292722066
 31
0.0
  0
LINE
  5
2853
330
2
100
AcDbEntity
  8
0
100
AcDbLine
 10
593.7959333661837
 20
82.40725292722066
 30
0.0
 11
595.0559339092595
 21
82.40725292722066
 31
0.0
  0
ARC
  5
2854
330
2
100
AcDbEntity
  8
0
100
AcDbCircle
 10
598.4509015336669
 20
84.71725292721265
 30
0.0
 40
1.189999999995825
100
AcDbArc
 50
307.518967866804
 51
90.0
  0
LINE
  5
2855
330
2
100
AcDbEntity
  8
0
100
AcDbLine
 10
595.5459333661773
 20
85.90725292720838
 30
0.0
 11
593.7959333661837
 21
82.40725292722066
 31
0.0
  0
ARC
  5
2856
330
2
100
AcDbEntity
  8
0
100
AcDbCircle
 10
596.998417450697
 20
-12.41962069517751
 30
0.0
 40
170.0
100
AcDbArc
 50
83.8230035951091
 51
96.17699640483847
  0
CIRCLE
  5
2857
330
2
100
AcDbEntity
  8
HOJO
100
AcDbCircle
 10
562.3501851725603
 20
151.2286115829614
 30
0.0
 40
3.0
  0
CIRCLE
  5
2858
330
2
100
AcDbEntity
  8
0
100
AcDbCircle
 10
562.3501851725603
 20
151.2286115829614
 30
0.0
 40
2.399999999999999
  0
ARC
  5
2859
330
2
100
AcDbEntity
  8
0
100
AcDbCircle
 10
574.4023740105075
 20
196.3611706167848
 30
0.0
 40
40.0
100
AcDbArc
 50
256.6323257973708
 51
276.1769964048908
  0
LINE
  5
285A
330
2
100
AcDbEntity
  8
0
100
AcDbLine
 10
560.998417450697
 20
157.5803793048225
 30
0.0
 11
563.998417450697
 21
157.5803793048225
 31
0.0
  0
ARC
  5
285B
330
2
100
AcDbEntity
  8
0
100
AcDbCircle
 10
563.998417450697
 20
152.5803793048225
 30
0.0
 40
5.0
100
AcDbArc
 50
76.63232579737083
 51
90.0
  0
ARC
  5
285C
330
2
100
AcDbEntity
  8
0
100
AcDbCircle
 10
671.9984174506988
 20
156.0803793048207
 30
0.0
 40
2.0
100
AcDbArc
 50
90.0
 51
180.0
  0
ARC
  5
285D
330
2
100
AcDbEntity
  8
0
100
AcDbCircle
 10
632.9984174507006
 20
152.5803793048207
 30
0.0
 40
5.0
100
AcDbArc
 50
0.0
 51
90.0
  0
LINE
  5
285E
330
2
100
AcDbEntity
  8
CENTER
100
AcDbLine
 10
631.64664972884
 20
158.2286115829614
 30
0.0
 11
631.64664972884
 21
144.2286115829614
 31
0.0
  0
LINE
  5
285F
330
2
100
AcDbEntity
  8
0
100
AcDbLine
 10
637.9984174507007
 20
152.5803793048207
 30
0.0
 11
637.9984174507007
 21
80.58037930482072
 31
0.0
  0
LINE
  5
2860
330
2
100
AcDbEntity
  8
0
100
AcDbLine
 10
657.4984174507088
 20
147.5803793047047
 30
0.0
 11
657.4984174507079
 21
85.58037930493895
 31
0.0
  0
LINE
  5
2861
330
2
100
AcDbEntity
  8
0
100
AcDbLine
 10
669.9984174506989
 20
156.0803793048207
 30
0.0
 11
669.9984174507015
 21
77.08037930482072
 31
0.0
  0
LINE
  5
2862
330
2
100
AcDbEntity
  8
0
100
AcDbLine
 10
664.9984174506989
 20
83.58037930493782
 30
0.0
 11
659.4984174507043
 21
83.58037930493782
 31
0.0
  0
ARC
  5
2863
330
2
100
AcDbEntity
  8
0
100
AcDbCircle
 10
640.9984174507006
 20
111.0803793048216
 30
0.0
 40
3.0
100
AcDbArc
 50
90.0
 51
180.0
  0
ARC
  5
2864
330
2
100
AcDbEntity
  8
0
100
AcDbCircle
 10
654.4984174507079
 20
111.0803793048211
 30
0.0
 40
3.0
100
AcDbArc
 50
0.0
 51
90.0
  0
LINE
  5
2865
330
2
100
AcDbEntity
  8
0
100
AcDbLine
 10
652.4984174507088
 20
90.58037930493895
 30
0.0
 11
642.9984174507007
 21
90.58037930493895
 31
0.0
  0
LINE
  5
2866
330
2
100
AcDbEntity
  8
0
100
AcDbLine
 10
640.9984174507006
 20
114.0803793048216
 30
0.0
 11
654.4984174507079
 21
114.0803793048211
 31
0.0
  0
ARC
  5
2867
330
2
100
AcDbEntity
  8
0
100
AcDbCircle
 10
640.9984174507006
 20
81.58037930481937
 30
0.0
 40
3.0
100
AcDbArc
 50
90.0
 51
180.0
  0
CIRCLE
  5
2868
330
2
100
AcDbEntity
  8
0
100
AcDbCircle
 10
631.6466497288419
 20
81.93214702667996
 30
0.0
 40
2.399999999999999
  0
CIRCLE
  5
2869
330
2
100
AcDbEntity
  8
HOJO
100
AcDbCircle
 10
631.6466497288419
 20
81.93214702667996
 30
0.0
 40
3.0
  0
LINE
  5
286A
330
2
100
AcDbEntity
  8
0
100
AcDbLine
 10
640.9984174507006
 20
84.58037930481935
 30
0.0
 11
656.4984174506998
 21
84.58037930481935
 31
0.0
  0
ARC
  5
286B
330
2
100
AcDbEntity
  8
0
100
AcDbCircle
 10
656.4984174506998
 20
81.58037930481937
 30
0.0
 40
3.0
100
AcDbArc
 50
53.13010235412992
 51
90.0
  0
ARC
  5
286C
330
2
100
AcDbEntity
  8
0
100
AcDbCircle
 10
659.4984174507043
 20
85.58037930493895
 30
0.0
 40
2.0
100
AcDbArc
 50
180.0
 51
270.0
  0
ARC
  5
286D
330
2
100
AcDbEntity
  8
0
100
AcDbCircle
 10
642.9984174507007
 20
85.58037930493895
 30
0.0
 40
5.0
100
AcDbArc
 50
90.0
 51
180.0
  0
ARC
  5
286E
330
2
100
AcDbEntity
  8
0
100
AcDbCircle
 10
652.4984174507088
 20
85.58037930493895
 30
0.0
 40
5.0
100
AcDbArc
 50
0.0
 51
90.0
  0
ARC
  5
286F
330
2
100
AcDbEntity
  8
0
100
AcDbCircle
 10
664.9984174506989
 20
78.58037930493782
 30
0.0
 40
5.0
100
AcDbArc
 50
0.0
 51
90.0
  0
LINE
  5
2870
330
2
100
AcDbEntity
  8
0
100
AcDbLine
 10
664.9984174506989
 20
149.5803793047033
 30
0.0
 11
659.4984174507043
 21
149.5803793047036
 31
0.0
  0
CIRCLE
  5
2871
330
2
100
AcDbEntity
  8
HOJO
100
AcDbCircle
 10
631.6466497288419
 20
151.2286115829614
 30
0.0
 40
3.0
  0
ARC
  5
2872
330
2
100
AcDbEntity
  8
0
100
AcDbCircle
 10
642.9984174507007
 20
147.5803793047045
 30
0.0
 40
5.0
100
AcDbArc
 50
180.0
 51
270.0
  0
LINE
  5
2873
330
2
100
AcDbEntity
  8
0
100
AcDbLine
 10
640.9984174507006
 20
148.5803793048291
 30
0.0
 11
656.4984174506998
 21
148.5803793048291
 31
0.0
  0
LINE
  5
2874
330
2
100
AcDbEntity
  8
0
100
AcDbLine
 10
652.4984174507107
 20
142.5803793047038
 30
0.0
 11
642.9984174507007
 21
142.5803793047045
 31
0.0
  0
ARC
  5
2875
330
2
100
AcDbEntity
  8
0
100
AcDbCircle
 10
652.4984174507107
 20
147.5803793047038
 30
0.0
 40
5.0
100
AcDbArc
 50
270.0
 51
0.0
  0
ARC
  5
2876
330
2
100
AcDbEntity
  8
0
100
AcDbCircle
 10
640.9984174507006
 20
151.5803793048293
 30
0.0
 40
3.0
100
AcDbArc
 50
180.0
 51
270.0
  0
CIRCLE
  5
2877
330
2
100
AcDbEntity
  8
0
100
AcDbCircle
 10
631.6466497288419
 20
151.2286115829614
 30
0.0
 40
2.399999999999999
  0
ARC
  5
2878
330
2
100
AcDbEntity
  8
0
100
AcDbCircle
 10
656.4984174506998
 20
151.5803793048293
 30
0.0
 40
3.0
100
AcDbArc
 50
270.0
 51
306.86989764587
  0
ARC
  5
2879
330
2
100
AcDbEntity
  8
0
100
AcDbCircle
 10
659.4984174507043
 20
147.5803793047045
 30
0.0
 40
2.0
100
AcDbArc
 50
90.0
 51
180.0
  0
LINE
  5
287A
330
2
100
AcDbEntity
  8
0
100
AcDbLine
 10
629.998417450697
 20
157.5803793048225
 30
0.0
 11
632.998417450697
 21
157.5803793048225
 31
0.0
  0
ARC
  5
287B
330
2
100
AcDbEntity
  8
0
100
AcDbCircle
 10
629.998417450697
 20
152.580379304822
 30
0.0
 40
5.0
100
AcDbArc
 50
90.0
 51
103.3676742026291
  0
ARC
  5
287C
330
2
100
AcDbEntity
  8
0
100
AcDbCircle
 10
640.9984174507006
 20
122.0803793048211
 30
0.0
 40
3.0
100
AcDbArc
 50
180.0
 51
270.0
  0
LINE
  5
287D
330
2
100
AcDbEntity
  8
0
100
AcDbLine
 10
640.9984174507006
 20
119.0803793048211
 30
0.0
 11
654.4984174507089
 21
119.0803793048211
 31
0.0
  0
ARC
  5
287E
330
2
100
AcDbEntity
  8
0
100
AcDbCircle
 10
654.4984174507089
 20
122.0803793048211
 30
0.0
 40
3.0
100
AcDbArc
 50
270.0
 51
0.0
  0
ARC
  5
287F
330
2
100
AcDbEntity
  8
0
100
AcDbCircle
 10
664.9984174506989
 20
154.5803793047034
 30
0.0
 40
5.0
100
AcDbArc
 50
270.0
 51
0.0
  0
LINE
  5
2880
330
2
100
AcDbEntity
  8
0
100
AcDbLine
 10
671.9984174506988
 20
158.0803793048207
 30
0.0
 11
681.9984174506989
 21
158.0803793048207
 31
0.0
  0
LINE
  5
2881
330
2
100
AcDbEntity
  8
0
100
AcDbLine
 10
671.9984174506988
 20
157.5803793048207
 30
0.0
 11
681.9984174506989
 21
157.5803793048207
 31
0.0
  0
ARC
  5
2882
330
2
100
AcDbEntity
  8
0
100
AcDbCircle
 10
671.9984174506988
 20
155.5803793048207
 30
0.0
 40
2.0
100
AcDbArc
 50
90.0
 51
180.0
  0
LINE
  5
28C9
330
2
100
AcDbEntity
  8
CENTER
100
AcDbLine
 10
596.9984174506991
 20
464.4776468282847
 30
0.0
 11
596.9984174506995
 21
308.4776468309417
 31
0.0
  0
LINE
  5
28CB
330
2
100
AcDbEntity
  8
0
100
AcDbLine
 10
625.4984174506988
 20
446.4776468282797
 30
0.0
 11
625.9984174506988
 21
445.9776468282792
 31
0.0
  0
ARC
  5
28CC
330
2
100
AcDbEntity
  8
0
100
AcDbCircle
 10
627.3837650037066
 20
361.47764683095
 30
0.0
 40
2.0
100
AcDbArc
 50
90.0
 51
177.9999999999962
  0
LINE
  5
28CD
330
2
100
AcDbEntity
  8
0
100
AcDbLine
 10
555.9984174506988
 20
434.9776468282835
 30
0.0
 11
637.5833360576388
 21
434.977646828286
 31
0.0
  0
LINE
  5
28CE
330
2
100
AcDbEntity
  8
0
100
AcDbLine
 10
626.498417450717
 20
445.9776468282846
 30
0.0
 11
567.4984174506806
 21
445.9776468282846
 31
0.0
  0
LINE
  5
28CF
330
2
100
AcDbEntity
  8
0
100
AcDbLine
 10
557.0551801697255
 20
442.4776468282824
 30
0.0
 11
636.5316547316742
 21
442.4776468282827
 31
0.0
  0
LINE
  5
28D0
330
2
100
AcDbEntity
  8
0
100
AcDbLine
 10
561.9984174506988
 20
363.477646830951
 30
0.0
 11
631.9984174506989
 21
363.477646830951
 31
0.0
  0
LINE
  5
28D1
330
2
100
AcDbEntity
  8
0
100
AcDbLine
 10
556.5787541587614
 20
368.4776468309503
 30
0.0
 11
637.4131621356954
 21
368.4776468309489
 31
0.0
  0
LINE
  5
28D2
330
2
100
AcDbEntity
  8
0
100
AcDbLine
 10
615.2904526166393
 20
434.4776468309502
 30
0.0
 11
615.2904526166393
 21
369.9776277924822
 31
0.0
  0
LINE
  5
28D3
330
2
100
AcDbEntity
  8
0
100
AcDbLine
 10
555.9984174506988
 20
434.9776468282835
 30
0.0
 11
556.5787541587614
 21
368.4776468309503
 31
0.0
  0
LINE
  5
28D4
330
2
100
AcDbEntity
  8
0
100
AcDbLine
 10
578.7063822847584
 20
434.4776468309502
 30
0.0
 11
578.7063822847584
 21
369.9776277924822
 31
0.0
  0
LINE
  5
28D5
330
2
100
AcDbEntity
  8
0
100
AcDbLine
 10
563.9984174506998
 20
434.4776468309502
 30
0.0
 11
563.9984174506998
 21
369.9776277924822
 31
0.0
  0
LINE
  5
28D6
330
2
100
AcDbEntity
  8
0
100
AcDbLine
 10
560.9984174506979
 20
434.4776468309502
 30
0.0
 11
560.9984174506979
 21
369.9776277924822
 31
0.0
  0
LINE
  5
28D7
330
2
100
AcDbEntity
  8
0
100
AcDbLine
 10
570.9297950003136
 20
350.4776468309523
 30
0.0
 11
623.067039901084
 21
350.4776468309501
 31
0.0
  0
LINE
  5
28D8
330
2
100
AcDbEntity
  8
0
100
AcDbLine
 10
568.6118515517308
 20
361.5474458243552
 30
0.0
 11
568.9310133462749
 21
352.4078478375456
 31
0.0
  0
ARC
  5
28D9
330
2
100
AcDbEntity
  8
0
100
AcDbCircle
 10
566.6130698976929
 20
361.47764683095
 30
0.0
 40
2.0
100
AcDbArc
 50
2.000000000003725
 51
90.0
  0
LINE
  5
28DA
330
2
100
AcDbEntity
  8
0
100
AcDbLine
 10
561.9984174506988
 20
368.4776468309503
 30
0.0
 11
561.9984174506988
 21
363.4776468309503
 31
0.0
  0
ARC
  5
28DE
330
2
100
AcDbEntity
  8
0
100
AcDbCircle
 10
570.9297950003136
 20
352.4776468309503
 30
0.0
 40
2.0
100
AcDbArc
 50
182.0000000000037
 51
270.0
  0
LINE
  5
28DF
330
2
100
AcDbEntity
  8
0
100
AcDbLine
 10
625.3849833496677
 20
361.5474458243552
 30
0.0
 11
625.0658215551228
 21
352.4078478375451
 31
0.0
  0
ARC
  5
28E3
330
2
100
AcDbEntity
  8
0
100
AcDbCircle
 10
623.067039901084
 20
352.4776468309501
 30
0.0
 40
2.0
100
AcDbArc
 50
270.0
 51
357.9999999999962
  0
ARC
  5
28E4
330
2
100
AcDbEntity
  8
0
100
AcDbCircle
 10
557.0551801697255
 20
441.4776468282824
 30
0.0
 40
1.0
100
AcDbArc
 50
90.0
 51
179.5000000000084
  0
LINE
  5
28E5
330
2
100
AcDbEntity
  8
0
100
AcDbLine
 10
555.9984174506988
 20
434.9776468282847
 30
0.0
 11
556.0552182466607
 21
441.4863733637808
 31
0.0
  0
LINE
  5
28E6
330
2
100
AcDbEntity
  8
0
100
AcDbLine
 10
622.921067181507
 20
454.4776468282846
 30
0.0
 11
571.0757677198906
 21
454.4776468282846
 31
0.0
  0
LINE
  5
28E7
330
2
100
AcDbEntity
  8
0
100
AcDbLine
 10
623.2984174507
 20
449.9776468282801
 30
0.0
 11
570.6984174506978
 21
449.9776468282801
 31
0.0
  0
LINE
  5
28E8
330
2
100
AcDbEntity
  8
0
100
AcDbLine
 10
623.2984174507
 20
451.9776468282802
 30
0.0
 11
570.6984174506978
 21
451.9776468282006
 31
0.0
  0
LINE
  5
28E9
330
2
100
AcDbEntity
  8
0
100
AcDbLine
 10
568.4984174507043
 20
446.4776468282842
 30
0.0
 11
625.4984174506934
 21
446.4776468282847
 31
0.0
  0
LINE
  5
28EA
330
2
100
AcDbEntity
  8
0
100
AcDbLine
 10
623.4984174506989
 20
453.4776468282801
 30
0.0
 11
570.498417450698
 21
453.4776468282797
 31
0.0
  0
LINE
  5
28EB
330
2
100
AcDbEntity
  8
0
100
AcDbLine
 10
570.4984174506988
 20
449.7776468282799
 30
0.0
 11
623.4984174506989
 21
449.7776468282799
 31
0.0
  0
LINE
  5
28EC
330
2
100
AcDbEntity
  8
0
100
AcDbLine
 10
571.1984174506977
 20
451.7776468282798
 30
0.0
 11
571.1984174506977
 21
450.1776468282799
 31
0.0
  0
LINE
  5
28ED
330
2
100
AcDbEntity
  8
0
100
AcDbLine
 10
570.498417450698
 20
453.4776468282801
 30
0.0
 11
570.4984174506988
 21
452.1776468282804
 31
0.0
  0
LINE
  5
28EE
330
2
100
AcDbEntity
  8
0
100
AcDbLine
 10
570.6984174506978
 20
449.9776468282801
 30
0.0
 11
570.4984174506988
 21
449.7776468282799
 31
0.0
  0
LINE
  5
28EF
330
2
100
AcDbEntity
  8
0
100
AcDbLine
 10
568.4984174507043
 20
446.4776468282842
 30
0.0
 11
567.9984174506988
 21
445.9776468282792
 31
0.0
  0
LINE
  5
28F0
330
2
100
AcDbEntity
  8
0
100
AcDbLine
 10
570.4984174506988
 20
449.7776468282799
 30
0.0
 11
570.4984174506988
 21
446.4776468282797
 31
0.0
  0
LINE
  5
28F1
330
2
100
AcDbEntity
  8
HIDS
100
AcDbLine
 10
560.5842038883255
 20
443.06343326591
 30
0.0
 11
562.9126310130722
 21
445.3918603906571
 31
0.0
  0
ARC
  5
28F2
330
2
100
AcDbEntity
  8
HIDS
100
AcDbCircle
 10
559.1699903259522
 20
444.4776468282824
 30
0.0
 40
2.0
100
AcDbArc
 50
270.0
 51
315.0000000000186
  0
ARC
  5
28F3
330
2
100
AcDbEntity
  8
HIDS
100
AcDbCircle
 10
564.3268445754455
 20
443.9776468282847
 30
0.0
 40
2.0
100
AcDbArc
 50
90.0
 51
135.0000000000187
  0
ARC
  5
28F4
330
2
100
AcDbEntity
  8
0
100
AcDbCircle
 10
570.6984174506978
 20
452.17764682828
 30
0.0
 40
0.2
100
AcDbArc
 50
180.0
 51
270.0000000001042
  0
LINE
  5
28F5
330
2
100
AcDbEntity
  8
0
100
AcDbLine
 10
567.4984174506806
 20
443.9776468282819
 30
0.0
 11
567.4984174506806
 21
449.5776468282818
 31
0.0
  0
LINE
  5
28F6
330
2
100
AcDbEntity
  8
0
100
AcDbLine
 10
557.4984174506806
 20
443.9776468282819
 30
0.0
 11
557.4984174506806
 21
449.5776468282818
 31
0.0
  0
LINE
  5
28F7
330
2
100
AcDbEntity
  8
0
100
AcDbLine
 10
557.4984174506806
 20
443.9776468282819
 30
0.0
 11
567.4984174506806
 21
443.9776468282819
 31
0.0
  0
LINE
  5
28F8
330
2
100
AcDbEntity
  8
0
100
AcDbLine
 10
558.1912377737079
 20
449.977646828282
 30
0.0
 11
566.8055971276524
 21
449.9776468282824
 31
0.0
  0
LINE
  5
28F9
330
2
100
AcDbEntity
  8
0
100
AcDbLine
 10
557.4984174506806
 20
449.5776468282823
 30
0.0
 11
567.4984174506806
 21
449.5776468282818
 31
0.0
  0
LINE
  5
28FA
330
2
100
AcDbEntity
  8
0
100
AcDbLine
 10
557.4984174506806
 20
449.5776468282818
 30
0.0
 11
558.1912377737079
 21
449.977646828282
 31
0.0
  0
LINE
  5
28FB
330
2
100
AcDbEntity
  8
0
100
AcDbLine
 10
567.4984174506806
 20
449.5776468282818
 30
0.0
 11
566.8055971276524
 21
449.977646828282
 31
0.0
  0
LINE
  5
28FC
330
2
100
AcDbEntity
  8
0
100
AcDbLine
 10
557.4984174506806
 20
443.9776468282824
 30
0.0
 11
557.4984174506806
 21
442.4776468282824
 31
0.0
  0
LINE
  5
28FD
330
2
100
AcDbEntity
  8
0
100
AcDbLine
 10
567.4984174506806
 20
443.9776468282824
 30
0.0
 11
567.4984174506806
 21
442.4776468282824
 31
0.0
  0
LINE
  5
28FE
330
2
100
AcDbEntity
  8
HIDS
100
AcDbLine
 10
567.4984174506806
 20
445.9776468282846
 30
0.0
 11
564.3268445754455
 21
445.9776468282846
 31
0.0
  0
LINE
  5
28FF
330
2
100
AcDbEntity
  8
0
100
AcDbLine
 10
570.498417450698
 20
453.4776468282797
 30
0.0
 11
571.075767719887
 21
454.4776468282801
 31
0.0
  0
ARC
  5
2900
330
2
100
AcDbEntity
  8
0
100
AcDbCircle
 10
570.9984174506988
 20
451.7776468282794
 30
0.0
 40
0.2
100
AcDbArc
 50
0.0
 51
89.99999999984366
  0
ARC
  5
2901
330
2
100
AcDbEntity
  8
0
100
AcDbCircle
 10
570.9984174506988
 20
450.1776468282799
 30
0.0
 40
0.2
100
AcDbArc
 50
270.0
 51
0.0
  0
LINE
  5
2902
330
2
100
AcDbEntity
  8
0
100
AcDbLine
 10
560.9984174506788
 20
434.9776468282847
 30
0.0
 11
560.9984174506788
 21
442.4776468282824
 31
0.0
  0
LINE
  5
2903
330
2
100
AcDbEntity
  8
0
100
AcDbLine
 10
563.9984174506788
 20
434.9776468282847
 30
0.0
 11
563.9984174506788
 21
442.4776468282824
 31
0.0
  0
LINE
  5
2904
330
2
100
AcDbEntity
  8
0
100
AcDbLine
 10
578.7063822848138
 20
434.9776468282847
 30
0.0
 11
578.7063822848138
 21
442.4776468282824
 31
0.0
  0
LINE
  5
2905
330
2
100
AcDbEntity
  8
CENTER
100
AcDbLine
 10
562.4984174506806
 20
454.9776468282824
 30
0.0
 11
562.4984174506806
 21
429.914900084136
 31
0.0
  0
LINE
  5
2906
330
2
100
AcDbEntity
  8
0
100
AcDbLine
 10
623.4984174506989
 20
453.4776468282797
 30
0.0
 11
622.9210671815106
 21
454.4776468282801
 31
0.0
  0
LINE
  5
2907
330
2
100
AcDbEntity
  8
0
100
AcDbLine
 10
622.7984174507
 20
451.7776468282798
 30
0.0
 11
622.7984174507
 21
450.1776468282799
 31
0.0
  0
LINE
  5
2908
330
2
100
AcDbEntity
  8
0
100
AcDbLine
 10
623.2984174507
 20
449.9776468282801
 30
0.0
 11
623.4984174506989
 21
449.7776468282799
 31
0.0
  0
LINE
  5
2909
330
2
100
AcDbEntity
  8
0
100
AcDbLine
 10
623.4984174506989
 20
453.4776468282801
 30
0.0
 11
623.4984174506989
 21
452.1776468282804
 31
0.0
  0
LINE
  5
290A
330
2
100
AcDbEntity
  8
0
100
AcDbLine
 10
625.4984174506988
 20
446.4776468282797
 30
0.0
 11
623.4984174506989
 21
446.4776468282797
 31
0.0
  0
LINE
  5
290B
330
2
100
AcDbEntity
  8
0
100
AcDbLine
 10
623.4984174506989
 20
449.7776468282799
 30
0.0
 11
623.4984174506989
 21
446.4776468282797
 31
0.0
  0
ARC
  5
290C
330
2
100
AcDbEntity
  8
0
100
AcDbCircle
 10
623.2984174507
 20
452.1776468282804
 30
0.0
 40
0.2
100
AcDbArc
 50
270.0000000001042
 51
359.9999999999739
  0
ARC
  5
290D
330
2
100
AcDbEntity
  8
0
100
AcDbCircle
 10
622.9984174506988
 20
451.7776468282798
 30
0.0
 40
0.2
100
AcDbArc
 50
90.00000000010421
 51
179.9999999999739
  0
ARC
  5
290E
330
2
100
AcDbEntity
  8
0
100
AcDbCircle
 10
622.9984174506988
 20
450.1776468282799
 30
0.0
 40
0.2
100
AcDbArc
 50
179.9999999999739
 51
270.0
  0
LINE
  5
290F
330
2
100
AcDbEntity
  8
0
100
AcDbLine
 10
615.2904526165838
 20
434.9776468282847
 30
0.0
 11
615.2904526165838
 21
442.4776468282824
 31
0.0
  0
ARC
  5
2910
330
2
100
AcDbEntity
  8
0
100
AcDbCircle
 10
664.918145723538
 20
373.4776468309503
 30
0.0
 40
5.0
100
AcDbArc
 50
1.499999999989629
 51
90.0
  0
ARC
  5
2911
330
2
100
AcDbEntity
  8
0
100
AcDbCircle
 10
640.483091313179
 20
376.4776468309503
 30
0.0
 40
3.0
100
AcDbArc
 50
90.0
 51
179.5000000000084
  0
LINE
  5
2913
330
2
100
AcDbEntity
  8
0
100
AcDbLine
 10
669.9474165425908
 20
372.4252929343349
 30
0.0
 11
668.9247946663953
 21
411.4776468309503
 31
0.0
  0
LINE
  5
2914
330
2
100
AcDbEntity
  8
0
100
AcDbLine
 10
637.4131621356954
 20
368.4776468309489
 30
0.0
 11
637.7884174506988
 21
411.4776468309503
 31
0.0
  0
LINE
  5
2915
330
2
100
AcDbEntity
  8
0
100
AcDbLine
 10
629.9984174506979
 20
411.4776468309503
 30
0.0
 11
629.9984174506979
 21
369.9776277924822
 31
0.0
  0
LINE
  5
2916
330
2
100
AcDbEntity
  8
0
100
AcDbLine
 10
632.7889727898726
 20
434.9776468309502
 30
0.0
 11
632.7889727898726
 21
369.9776277924822
 31
0.0
  0
LINE
  5
2917
330
2
100
AcDbEntity
  8
0
100
AcDbLine
 10
631.9984174506989
 20
368.4776468309503
 30
0.0
 11
631.9984174506989
 21
363.4776468309503
 31
0.0
  0
ARC
  5
2918
330
2
100
AcDbEntity
  8
0
100
AcDbCircle
 10
671.9467311925408
 20
372.4776468309503
 30
0.0
 40
2.0
100
AcDbArc
 50
181.4999999999896
 51
270.0
  0
LINE
  5
2919
330
2
100
AcDbEntity
  8
0
100
AcDbLine
 10
671.9467311925408
 20
370.4776468309503
 30
0.0
 11
681.9984174463296
 21
370.4776468309503
 31
0.0
  0
LINE
  5
291A
330
2
100
AcDbEntity
  8
0
100
AcDbLine
 10
630.0115104115528
 20
434.9776468282856
 30
0.0
 11
630.601379114304
 21
412.4514698826426
 31
0.0
  0
LINE
  5
291B
330
2
100
AcDbEntity
  8
0
100
AcDbLine
 10
637.5833360576388
 20
434.9776468282859
 30
0.0
 11
637.7884174506988
 21
411.4776468309503
 31
0.0
  0
LINE
  5
291C
330
2
100
AcDbEntity
  8
0
100
AcDbLine
 10
669.9474165425908
 20
450.5300007275656
 30
0.0
 11
668.9247946663962
 21
411.4776468309503
 31
0.0
  0
LINE
  5
291D
330
2
100
AcDbEntity
  8
0
100
AcDbLine
 10
657.4474165425898
 20
442.5300007275658
 30
0.0
 11
656.6342820389216
 21
411.4776468309503
 31
0.0
  0
LINE
  5
291E
330
2
100
AcDbEntity
  8
0
100
AcDbLine
 10
659.4467311925408
 20
378.4776468309503
 30
0.0
 11
664.918145723538
 21
378.4776468309503
 31
0.0
  0
ARC
  5
291F
330
2
100
AcDbEntity
  8
0
100
AcDbCircle
 10
653.7772762300781
 20
416.9776468309501
 30
0.0
 40
3.0
100
AcDbArc
 50
270.0
 51
358.5000000000103
  0
ARC
  5
2920
330
2
100
AcDbEntity
  8
0
100
AcDbCircle
 10
653.7772762301773
 20
405.9776468309503
 30
0.0
 40
3.0
100
AcDbArc
 50
1.499999999781259
 51
90.0
  0
LINE
  5
2921
330
2
100
AcDbEntity
  8
0
100
AcDbLine
 10
640.7405339130072
 20
413.97764683095
 30
0.0
 11
653.7772762300781
 21
413.9776468309503
 31
0.0
  0
LINE
  5
2922
330
2
100
AcDbEntity
  8
0
100
AcDbLine
 10
640.7405339130072
 20
408.9776468309503
 30
0.0
 11
653.7772762301773
 21
408.9776468309503
 31
0.0
  0
ARC
  5
2923
330
2
100
AcDbEntity
  8
0
100
AcDbCircle
 10
631.6010364392795
 20
412.4776468309503
 30
0.0
 40
1.0
100
AcDbArc
 50
181.4999999999896
 51
270.0
  0
LINE
  5
2924
330
2
100
AcDbEntity
  8
0
100
AcDbLine
 10
631.6010364392795
 20
411.4776468309503
 30
0.0
 11
637.7884174506988
 21
411.4776468309503
 31
0.0
  0
ARC
  5
2925
330
2
100
AcDbEntity
  8
0
100
AcDbCircle
 10
640.7405339130072
 20
405.9776468309503
 30
0.0
 40
3.0
100
AcDbArc
 50
90.0
 51
179.5000000000084
  0
ARC
  5
2926
330
2
100
AcDbEntity
  8
0
100
AcDbCircle
 10
640.7405339130072
 20
416.97764683095
 30
0.0
 40
3.0
100
AcDbArc
 50
180.4999999999915
 51
270.0
  0
ARC
  5
2927
330
2
100
AcDbEntity
  8
0
100
AcDbCircle
 10
659.4467311925408
 20
380.4776468309503
 30
0.0
 40
2.0
100
AcDbArc
 50
181.5000000000418
 51
270.0
  0
ARC
  5
2928
330
2
100
AcDbEntity
  8
0
100
AcDbCircle
 10
652.444331645105
 20
380.4776468309503
 30
0.0
 40
5.0
100
AcDbArc
 50
1.500000000015675
 51
90.0
  0
ARC
  5
2929
330
2
100
AcDbEntity
  8
0
100
AcDbCircle
 10
656.4467311925408
 20
376.4776468309503
 30
0.0
 40
3.0
100
AcDbArc
 50
53.13010235412992
 51
90.0
  0
LINE
  5
292A
330
2
100
AcDbEntity
  8
0
100
AcDbLine
 10
640.5354525199235
 20
385.4776468309503
 30
0.0
 11
652.444331645105
 21
385.4776468309503
 31
0.0
  0
LINE
  5
292B
330
2
100
AcDbEntity
  8
0
100
AcDbLine
 10
640.483091313179
 20
379.4776468309503
 30
0.0
 11
656.4467311925408
 21
379.4776468309503
 31
0.0
  0
ARC
  5
292C
330
2
100
AcDbEntity
  8
0
100
AcDbCircle
 10
640.5354525199235
 20
382.4776468309503
 30
0.0
 40
3.0
100
AcDbArc
 50
90.0
 51
179.5000000000084
  0
LINE
  5
292D
330
2
100
AcDbEntity
  8
0
100
AcDbLine
 10
657.4474165425898
 20
380.4252929343345
 30
0.0
 11
656.6342820390426
 21
411.4776468309503
 31
0.0
  0
LINE
  5
292E
330
2
100
AcDbEntity
  8
0
100
AcDbLine
 10
668.9247946663962
 20
411.4776468309503
 30
0.0
 11
681.9984174463296
 21
411.4776468309503
 31
0.0
  0
LINE
  5
292F
330
2
100
AcDbEntity
  8
0
100
AcDbLine
 10
659.4467311925408
 20
444.4776468309502
 30
0.0
 11
664.9181457235371
 21
444.4776468309502
 31
0.0
  0
ARC
  5
2930
330
2
100
AcDbEntity
  8
0
100
AcDbCircle
 10
659.4467311925408
 20
442.4776468309501
 30
0.0
 40
2.0
100
AcDbArc
 50
90.0
 51
178.4999999999843
  0
LINE
  5
2931
330
2
100
AcDbEntity
  8
HIDS
100
AcDbLine
 10
633.4126310130713
 20
443.06343326591
 30
0.0
 11
631.0842038883255
 21
445.3918603906576
 31
0.0
  0
ARC
  5
2932
330
2
100
AcDbEntity
  8
HIDS
100
AcDbCircle
 10
634.8268445754455
 20
444.4776468282824
 30
0.0
 40
2.0
100
AcDbArc
 50
224.9999999999813
 51
270.0
  0
ARC
  5
2933
330
2
100
AcDbEntity
  8
HIDS
100
AcDbCircle
 10
629.6699903259522
 20
443.9776468282851
 30
0.0
 40
2.0
100
AcDbArc
 50
44.99999999998129
 51
90.0
  0
LINE
  5
2934
330
2
100
AcDbEntity
  8
0
100
AcDbLine
 10
626.498417450717
 20
443.9776468282819
 30
0.0
 11
626.498417450717
 21
449.5776468282818
 31
0.0
  0
LINE
  5
2935
330
2
100
AcDbEntity
  8
0
100
AcDbLine
 10
636.4984174507171
 20
443.9776468282819
 30
0.0
 11
636.4984174507171
 21
449.5776468282818
 31
0.0
  0
LINE
  5
2936
330
2
100
AcDbEntity
  8
0
100
AcDbLine
 10
636.4984174507171
 20
443.9776468282819
 30
0.0
 11
626.498417450717
 21
443.9776468282819
 31
0.0
  0
LINE
  5
2937
330
2
100
AcDbEntity
  8
0
100
AcDbLine
 10
635.8055971276898
 20
449.977646828282
 30
0.0
 11
627.1912377737452
 21
449.9776468282824
 31
0.0
  0
LINE
  5
2938
330
2
100
AcDbEntity
  8
0
100
AcDbLine
 10
636.4984174507171
 20
449.5776468282823
 30
0.0
 11
626.498417450717
 21
449.5776468282818
 31
0.0
  0
LINE
  5
2939
330
2
100
AcDbEntity
  8
0
100
AcDbLine
 10
636.4984174507171
 20
449.5776468282818
 30
0.0
 11
635.8055971276898
 21
449.977646828282
 31
0.0
  0
LINE
  5
293A
330
2
100
AcDbEntity
  8
0
100
AcDbLine
 10
626.498417450717
 20
449.5776468282818
 30
0.0
 11
627.1912377737452
 21
449.977646828282
 31
0.0
  0
LINE
  5
293B
330
2
100
AcDbEntity
  8
0
100
AcDbLine
 10
636.4984174507171
 20
443.9776468282824
 30
0.0
 11
636.4984174507171
 21
442.4776468282824
 31
0.0
  0
LINE
  5
293C
330
2
100
AcDbEntity
  8
0
100
AcDbLine
 10
626.498417450717
 20
443.9776468282824
 30
0.0
 11
626.498417450717
 21
442.4776468282824
 31
0.0
  0
LINE
  5
293D
330
2
100
AcDbEntity
  8
HIDS
100
AcDbLine
 10
626.498417450717
 20
445.9776468282846
 30
0.0
 11
629.6699903259522
 21
445.9776468282852
 31
0.0
  0
ARC
  5
293E
330
2
100
AcDbEntity
  8
0
100
AcDbCircle
 10
636.5316547316742
 20
441.4776468282826
 30
0.0
 40
1.0
100
AcDbArc
 50
0.4999999999915751
 51
90.0
  0
LINE
  5
293F
330
2
100
AcDbEntity
  8
0
100
AcDbLine
 10
637.5833360576388
 20
434.9776468282859
 30
0.0
 11
638.0833360576388
 21
434.4776468282858
 31
0.0
  0
LINE
  5
2940
330
2
100
AcDbEntity
  8
0
100
AcDbLine
 10
652.3657738759555
 20
434.4776468282831
 30
0.0
 11
638.0833360576406
 21
434.4776468282831
 31
0.0
  0
ARC
  5
2941
330
2
100
AcDbEntity
  8
0
100
AcDbCircle
 10
652.3657738803976
 20
439.4776468309502
 30
0.0
 40
5.0
100
AcDbArc
 50
270.0
 51
358.4999999999843
  0
LINE
  5
2942
330
2
100
AcDbEntity
  8
0
100
AcDbLine
 10
632.9984174507188
 20
434.9776468282847
 30
0.0
 11
632.9984174507188
 21
442.4776468282824
 31
0.0
  0
LINE
  5
2943
330
2
100
AcDbEntity
  8
0
100
AcDbLine
 10
629.9984174507188
 20
434.9776468282847
 30
0.0
 11
629.9984174507188
 21
442.4776468282824
 31
0.0
  0
LINE
  5
2944
330
2
100
AcDbEntity
  8
CENTER
100
AcDbLine
 10
631.498417450717
 20
454.9776468282824
 30
0.0
 11
631.498417450717
 21
429.914900084136
 31
0.0
  0
LINE
  5
2945
330
2
100
AcDbEntity
  8
0
100
AcDbLine
 10
637.531616654738
 20
441.4863733637808
 30
0.0
 11
637.588417450699
 21
434.9776468282859
 31
0.0
  0
ARC
  5
2946
330
2
100
AcDbEntity
  8
0
100
AcDbCircle
 10
671.9467311925408
 20
450.4776468309501
 30
0.0
 40
2.0
100
AcDbArc
 50
90.0
 51
178.5000000000103
  0
ARC
  5
2947
330
2
100
AcDbEntity
  8
0
100
AcDbCircle
 10
664.9181457235371
 20
449.4776468309502
 30
0.0
 40
5.0
100
AcDbArc
 50
270.0
 51
358.5000000000103
  0
LINE
  5
2948
330
2
100
AcDbEntity
  8
0
100
AcDbLine
 10
671.9467311925408
 20
452.4776468309502
 30
0.0
 11
681.9984174463296
 21
452.4776468309502
 31
0.0
  0
LINE
  5
32BC
330
2
100
AcDbEntity
  8
0
100
AcDbLine
 10
413.6027274601345
 20
107.5804253048022
 30
0.0
 11
384.1027274601355
 21
107.5804253048022
 31
0.0
  0
LINE
  5
32BD
330
2
100
AcDbEntity
  8
0
100
AcDbLine
 10
384.1027274601355
 20
125.5804253048022
 30
0.0
 11
413.6027274601345
 21
125.5804253048022
 31
0.0
  0
LINE
  5
32BE
330
2
100
AcDbEntity
  8
0
100
AcDbLine
 10
390.1027274600736
 20
119.5803546404017
 30
0.0
 11
414.1027274601346
 21
119.5803793048162
 31
0.0
  0
LINE
  5
32BF
330
2
100
AcDbEntity
  8
0
100
AcDbLine
 10
390.1027274600736
 20
113.5803546403735
 30
0.0
 11
414.1027274601346
 21
113.580379304788
 31
0.0
  0
LINE
  5
32C0
330
2
100
AcDbEntity
  8
0
100
AcDbLine
 10
384.1027274601355
 20
126.5804250160888
 30
0.0
 11
384.1027274601355
 21
106.5804250160867
 31
0.0
  0
LINE
  5
32C1
330
2
100
AcDbEntity
  8
0
100
AcDbLine
 10
383.1027274601355
 20
130.2917041702073
 30
0.0
 11
383.1027274601355
 21
102.8690544393969
 31
0.0
  0
ARC
  5
32C2
330
2
100
AcDbEntity
  8
0
100
AcDbCircle
 10
382.6027274601354
 20
130.2917041702073
 30
0.0
 40
0.5
100
AcDbArc
 50
0.0
 51
59.99999999999946
  0
LINE
  5
32C3
330
2
100
AcDbEntity
  8
0
100
AcDbLine
 10
384.1027274601355
 20
126.5804250160888
 30
0.0
 11
383.1027274601355
 21
127.1577752852786
 31
0.0
  0
LINE
  5
32C4
330
2
100
AcDbEntity
  8
0
100
AcDbLine
 10
384.1027274601355
 20
106.5803335935151
 30
0.0
 11
383.1027274601355
 21
106.0029833243256
 31
0.0
  0
LINE
  5
32C5
330
2
100
AcDbEntity
  8
0
100
AcDbLine
 10
382.8527274601355
 20
130.7247168720994
 30
0.0
 11
382.7008892242846
 21
130.8123807184413
 31
0.0
  0
ARC
  5
32C6
330
2
100
AcDbEntity
  8
0
100
AcDbCircle
 10
381.7008892242846
 20
129.0803299108722
 30
0.0
 40
2.0
100
AcDbArc
 50
59.99999999999946
 51
78.40928831454826
  0
ARC
  5
32C7
330
2
100
AcDbEntity
  8
0
100
AcDbCircle
 10
382.6027274601354
 20
102.8690544393969
 30
0.0
 40
0.5
100
AcDbArc
 50
300.0000000000005
 51
0.0
  0
LINE
  5
32C8
330
2
100
AcDbEntity
  8
0
100
AcDbLine
 10
382.8527274601355
 20
102.4360417375046
 30
0.0
 11
382.7008892242846
 21
102.3483778911629
 31
0.0
  0
ARC
  5
32C9
330
2
100
AcDbEntity
  8
0
100
AcDbCircle
 10
381.7008892242846
 20
104.0804286987317
 30
0.0
 40
2.0
100
AcDbArc
 50
281.5907116854517
 51
300.0000000000005
  0
ARC
  5
32CA
330
2
100
AcDbEntity
  8
0
100
AcDbCircle
 10
390.1027274600736
 20
116.5803546403876
 30
0.0
 40
3.000000000014103
100
AcDbArc
 50
90.0
 51
270.0
  0
LINE
  5
32CB
330
2
100
AcDbEntity
  8
0
100
AcDbLine
 10
414.1027274601346
 20
125.0804253048022
 30
0.0
 11
414.1027274601346
 21
108.0804253048022
 31
0.0
  0
LINE
  5
32CC
330
2
100
AcDbEntity
  8
0
100
AcDbLine
 10
413.6027274601345
 20
125.5804253048022
 30
0.0
 11
414.1027274601346
 21
125.0804253048022
 31
0.0
  0
LINE
  5
32CD
330
2
100
AcDbEntity
  8
0
100
AcDbLine
 10
414.1027274601346
 20
108.0804253048022
 30
0.0
 11
413.6027274601345
 21
107.5804253048022
 31
0.0
  0
LINE
  5
32CE
330
2
100
AcDbEntity
  8
0
100
AcDbLine
 10
413.6027274601345
 20
125.5804253048022
 30
0.0
 11
413.6027274601345
 21
119.5803787909742
 31
0.0
  0
LINE
  5
32CF
330
2
100
AcDbEntity
  8
0
100
AcDbLine
 10
413.6027274601345
 20
113.580378790946
 30
0.0
 11
413.6027274601345
 21
107.5804253048022
 31
0.0
  0
ARC
  5
32D3
330
2
100
AcDbEntity
  8
0
100
AcDbCircle
 10
596.9984174507052
 20
116.5803793048205
 30
0.0
 40
9.000045999985673
100
AcDbArc
 50
199.4711170987082
 51
160.5288829012917
  0
ARC
  5
32D4
330
2
100
AcDbEntity
  8
0
100
AcDbCircle
 10
596.998417450717
 20
116.5803793048177
 30
0.0
 40
10.00004571127499
100
AcDbArc
 50
197.4575207583693
 51
162.5424792415863
  0
ARC
  5
32D5
330
2
100
AcDbEntity
  8
0
100
AcDbCircle
 10
596.998417450717
 20
116.5803793048177
 30
0.0
 40
10.57739598046464
100
AcDbArc
 50
196.4765970291266
 51
163.5234029708434
  0
CIRCLE
  5
32D6
330
2
100
AcDbEntity
  8
0
100
AcDbCircle
 10
596.998417450717
 20
116.5803793048316
 30
0.0
 40
14.49995060603862
  0
LINE
  5
32D9
330
2
100
AcDbEntity
  8
0
100
AcDbLine
 10
585.4984634506908
 20
113.5803793048207
 30
0.0
 11
591.4984634506907
 21
113.5803793048207
 31
0.0
  0
LINE
  5
32DA
330
2
100
AcDbEntity
  8
0
100
AcDbLine
 10
585.4984634506908
 20
119.5803793048209
 30
0.0
 11
591.4984634506907
 21
119.5803793048207
 31
0.0
  0
LINE
  5
32DB
330
2
100
AcDbEntity
  8
0
100
AcDbLine
 10
591.4984634506907
 20
119.5803793048207
 30
0.0
 11
591.4984634506907
 21
113.5803793048207
 31
0.0
  0
LINE
  5
32DC
330
2
100
AcDbEntity
  8
0
100
AcDbLine
 10
585.4984634506908
 20
119.5803793048209
 30
0.0
 11
585.4984634506908
 21
113.5803793048207
 31
0.0
  0
LINE
  5
32DE
330
2
100
AcDbEntity
  8
0
100
AcDbLine
 10
866.4804856188768
 20
125.5803333048079
 30
0.0
 11
895.9804856188759
 21
125.5803333048079
 31
0.0
  0
LINE
  5
32DF
330
2
100
AcDbEntity
  8
0
100
AcDbLine
 10
895.9804856188759
 20
107.5803333048079
 30
0.0
 11
866.4804856188768
 21
107.5803333048079
 31
0.0
  0
LINE
  5
32E0
330
2
100
AcDbEntity
  8
0
100
AcDbLine
 10
865.9804856188769
 20
108.0803333048079
 30
0.0
 11
865.9804856188769
 21
125.0803333048079
 31
0.0
  0
LINE
  5
32E1
330
2
100
AcDbEntity
  8
0
100
AcDbLine
 10
866.4804856188768
 20
125.5803333048079
 30
0.0
 11
865.9804856188769
 21
125.0803333048079
 31
0.0
  0
LINE
  5
32E2
330
2
100
AcDbEntity
  8
0
100
AcDbLine
 10
866.4804856188768
 20
107.5803333048079
 30
0.0
 11
865.9804856188769
 21
108.0803333048079
 31
0.0
  0
LINE
  5
32E3
330
2
100
AcDbEntity
  8
0
100
AcDbLine
 10
866.4804856188768
 20
107.5803333048079
 30
0.0
 11
866.4804856188768
 21
125.5803333048079
 31
0.0
  0
LINE
  5
32E4
330
2
100
AcDbEntity
  8
0
100
AcDbLine
 10
895.9804856188759
 20
106.5803335935215
 30
0.0
 11
895.9804856188759
 21
126.5803335935233
 31
0.0
  0
LINE
  5
32E5
330
2
100
AcDbEntity
  8
0
100
AcDbLine
 10
896.9804856188758
 20
102.869054439403
 30
0.0
 11
896.9804856188758
 21
130.2917041702139
 31
0.0
  0
ARC
  5
32E6
330
2
100
AcDbEntity
  8
0
100
AcDbCircle
 10
897.4804856188759
 20
102.869054439403
 30
0.0
 40
0.5
100
AcDbArc
 50
180.0
 51
239.9999999999994
  0
LINE
  5
32E7
330
2
100
AcDbEntity
  8
0
100
AcDbLine
 10
895.9804856188759
 20
106.5803335935215
 30
0.0
 11
896.9804856188758
 21
106.0029833243315
 31
0.0
  0
LINE
  5
32E8
330
2
100
AcDbEntity
  8
0
100
AcDbLine
 10
895.9804856188759
 20
126.5804250160954
 30
0.0
 11
896.9804856188758
 21
127.1577752852845
 31
0.0
  0
LINE
  5
32E9
330
2
100
AcDbEntity
  8
0
100
AcDbLine
 10
897.230485618876
 20
102.4360417375109
 30
0.0
 11
897.3823238547268
 21
102.3483778911695
 31
0.0
  0
ARC
  5
32EA
330
2
100
AcDbEntity
  8
0
100
AcDbCircle
 10
898.3823238547268
 20
104.0804286987377
 30
0.0
 40
2.0
100
AcDbArc
 50
239.9999999999994
 51
258.4092883145482
  0
ARC
  5
32EB
330
2
100
AcDbEntity
  8
0
100
AcDbCircle
 10
897.4804856188759
 20
130.2917041702139
 30
0.0
 40
0.5
100
AcDbArc
 50
120.0000000000005
 51
180.0
  0
LINE
  5
32EC
330
2
100
AcDbEntity
  8
0
100
AcDbLine
 10
897.230485618876
 20
130.724716872106
 30
0.0
 11
897.3823238547268
 21
130.8123807184474
 31
0.0
  0
ARC
  5
32ED
330
2
100
AcDbEntity
  8
0
100
AcDbCircle
 10
898.3823238547268
 20
129.0803299108783
 30
0.0
 40
2.0
100
AcDbArc
 50
101.5907116854517
 51
120.0000000000005
  0
LINE
  5
32EF
330
2
100
AcDbEntity
  8
0
100
AcDbLine
 10
605.9984634506995
 20
348.4776468309485
 30
0.0
 11
605.9984634506995
 21
318.9776468309494
 31
0.0
  0
LINE
  5
32F0
330
2
100
AcDbEntity
  8
0
100
AcDbLine
 10
585.498463450704
 20
345.477646830923
 30
0.0
 11
585.498463450704
 21
318.4776468309494
 31
0.0
  0
LINE
  5
32F1
330
2
100
AcDbEntity
  8
0
100
AcDbLine
 10
588.5130872861432
 20
342.4776468310103
 30
0.0
 11
588.5130872861432
 21
318.4776468309494
 31
0.0
  0
LINE
  5
32F2
330
2
100
AcDbEntity
  8
0
100
AcDbLine
 10
605.4984634506995
 20
318.4776468309494
 30
0.0
 11
585.498463450704
 21
318.4776468309494
 31
0.0
  0
LINE
  5
32F3
330
2
100
AcDbEntity
  8
0
100
AcDbLine
 10
605.9984634506995
 20
318.9776468309494
 30
0.0
 11
588.5130872861441
 21
318.9776468309494
 31
0.0
  0
LINE
  5
32F4
330
2
100
AcDbEntity
  8
0
100
AcDbLine
 10
605.9984634506995
 20
318.9776468309494
 30
0.0
 11
605.4984634506995
 21
318.4776468309494
 31
0.0
  0
LINE
  5
32F6
330
2
100
AcDbEntity
  8
0
100
AcDbLine
 10
606.9984631619859
 20
348.4776468309485
 30
0.0
 11
586.9984631619841
 21
348.4776468309485
 31
0.0
  0
LINE
  5
32F7
330
2
100
AcDbEntity
  8
0
100
AcDbLine
 10
610.7097423161044
 20
349.4776468309485
 30
0.0
 11
583.2870925852935
 21
349.4776468309485
 31
0.0
  0
LINE
  5
32F8
330
2
100
AcDbEntity
  8
0
100
AcDbLine
 10
587.9984634506995
 20
345.477646830923
 30
0.0
 11
587.9984634506995
 21
348.4776468309485
 31
0.0
  0
LINE
  5
32F9
330
2
100
AcDbEntity
  8
0
100
AcDbLine
 10
586.998371739412
 20
348.4776468309485
 30
0.0
 11
586.421021470223
 21
349.4776468309485
 31
0.0
  0
ARC
  5
32FA
330
2
100
AcDbEntity
  8
0
100
AcDbCircle
 10
583.2870925852935
 20
349.9776468309485
 30
0.0
 40
0.5
100
AcDbArc
 50
209.9999999999916
 51
270.0
  0
LINE
  5
32FB
330
2
100
AcDbEntity
  8
0
100
AcDbLine
 10
582.8540798834015
 20
349.7276468309485
 30
0.0
 11
582.76641603706
 21
349.8794850667993
 31
0.0
  0
ARC
  5
32FC
330
2
100
AcDbEntity
  8
0
100
AcDbCircle
 10
584.4984668446291
 20
350.8794850667993
 30
0.0
 40
2.0
100
AcDbArc
 50
191.5907116854479
 51
209.9999999999916
  0
LINE
  5
32FD
330
2
100
AcDbEntity
  8
0
100
AcDbLine
 10
585.498463450704
 20
345.477646830923
 30
0.0
 11
587.9984634506995
 21
345.477646830923
 31
0.0
  0
LINE
  5
32FE
330
2
100
AcDbEntity
  8
0
100
AcDbLine
 10
587.9984634506995
 20
345.477646830923
 30
0.0
 11
588.5130872861432
 21
342.4776468310103
 31
0.0
  0
ARC
  5
32FF
330
2
100
AcDbEntity
  8
0
100
AcDbCircle
 10
610.7097423161044
 20
349.9776468309485
 30
0.0
 40
0.5
100
AcDbArc
 50
270.0
 51
330.0000000000083
  0
LINE
  5
3300
330
2
100
AcDbEntity
  8
0
100
AcDbLine
 10
606.9984631619859
 20
348.4776468309485
 30
0.0
 11
607.5758134311759
 21
349.4776468309485
 31
0.0
  0
LINE
  5
3301
330
2
100
AcDbEntity
  8
0
100
AcDbLine
 10
611.1427550179964
 20
349.7276468309485
 30
0.0
 11
611.2304188643379
 21
349.8794850667993
 31
0.0
  0
ARC
  5
3302
330
2
100
AcDbEntity
  8
0
100
AcDbCircle
 10
609.4983680567698
 20
350.8794850667993
 30
0.0
 40
2.0
100
AcDbArc
 50
330.0000000000083
 51
348.4092883145521
  0
CIRCLE
  5
34E8
330
2
100
AcDbEntity
  8
0
100
AcDbCircle
 10
596.998417450717
 20
116.5803793048314
 30
0.0
 40
23.5774
  0
ARC
  5
353E
330
2
100
AcDbEntity
  8
0
100
AcDbCircle
 10
691.9984174463296
 20
450.3903019962707
 30
0.0
 40
2.0
100
AcDbArc
 50
0.0
 51
89.49999999999816
  0
ARC
  5
3542
330
2
100
AcDbEntity
  8
0
100
AcDbCircle
 10
691.9984174463296
 20
372.5649916656286
 30
0.0
 40
2.0
100
AcDbArc
 50
270.4999999999971
 51
0.0
  0
ARC
  5
3543
330
2
100
AcDbEntity
  8
0
100
AcDbCircle
 10
691.9984174506989
 20
155.4930344701381
 30
0.0
 40
2.0
100
AcDbArc
 50
0.0
 51
89.50000000000288
  0
ARC
  5
3544
330
2
100
AcDbEntity
  8
0
100
AcDbCircle
 10
691.9984174506987
 20
77.66772413949611
 30
0.0
 40
2.0
100
AcDbArc
 50
270.5000000000018
 51
0.0
  0
ARC
  5
3545
330
2
100
AcDbEntity
  8
0
100
AcDbCircle
 10
72.86246554553009
 20
155.4930344701422
 30
0.0
 40
2.0
100
AcDbArc
 50
90.49999999999711
 51
180.0
  0
ARC
  5
3546
330
2
100
AcDbEntity
  8
0
100
AcDbCircle
 10
72.86246554553009
 20
77.66772413950019
 30
0.0
 40
2.0
100
AcDbArc
 50
180.0
 51
269.4999999999981
  0
ARC
  5
3547
330
2
100
AcDbEntity
  8
0
100
AcDbCircle
 10
719.6761696912521
 20
440.9916945628142
 30
0.0
 40
2.0
100
AcDbArc
 50
46.01776145272124
 51
89.00000000000034
  0
ARC
  5
3548
330
2
100
AcDbEntity
  8
0
100
AcDbCircle
 10
719.6761696912523
 20
381.9635990990855
 30
0.0
 40
2.0
100
AcDbArc
 50
270.9999999999996
 51
313.9822385472787
  0
ARC
  5
3549
330
2
100
AcDbEntity
  8
0
100
AcDbCircle
 10
719.6761696956216
 20
146.0944270366808
 30
0.0
 40
2.0
100
AcDbArc
 50
46.01776145273243
 51
89.00000000000034
  0
ARC
  5
354A
330
2
100
AcDbEntity
  8
0
100
AcDbCircle
 10
719.6761696956216
 20
87.06633157295259
 30
0.0
 40
2.0
100
AcDbArc
 50
271.000000000001
 51
313.9822385472697
  0
ARC
  5
355D
330
2
100
AcDbEntity
  8
0
100
AcDbCircle
 10
45.18471330060722
 20
146.0944270366849
 30
0.0
 40
2.0
100
AcDbArc
 50
90.99999999999965
 51
133.9822385472697
  0
ARC
  5
355E
330
2
100
AcDbEntity
  8
0
100
AcDbCircle
 10
45.18471330060726
 20
87.06633157295669
 30
0.0
 40
2.0
100
AcDbArc
 50
226.0177614527302
 51
268.9999999999989
  0
ENDSEC
  0
SECTION
  2
OBJECTS
  0
DICTIONARY
  5
7
330
0
100
AcDbDictionary
  3
ACAD_COLOR
350
3515
  3
ACAD_GROUP
350
75
  3
ACAD_LAYOUT
350
61
  3
ACAD_MATERIAL
350
34EB
  3
ACAD_MLEADERSTYLE
350
353A
  3
ACAD_MLINESTYLE
350
76
  3
ACAD_PLOTSETTINGS
350
77
  3
ACAD_PLOTSTYLENAME
350
6
  3
ACAD_SCALELIST
350
3518
  3
ACAD_TABLESTYLE
350
3516
  3
ACAD_VISUALSTYLE
350
3504
  3
ACADDIM
350
480
  3
ACDB_RECOMPOSE_DATA
350
3571
  3
ACDBHEADERROUNDTRIPXREC
350
35D4
  3
ACDBVARIABLEDICTIONARY
350
102
  3
DWGPROPS
350
35A1
  0
DICTIONARY
  5
357A
330
6E
100
AcDbDictionary
280
     1
  3
ACAD_XREC_ROUNDTRIP
360
35A8
  0
DICTIONARY
  5
AE4
330
66
100
AcDbDictionary
280
     1
  3
ACAD_LAYERSTATES
360
AE5
  0
DICTIONARY
  5
355F
330
5E
100
AcDbDictionary
280
     1
  3
ACAD_XREC_ROUNDTRIP
360
35A4
  3
ADSK_XREC_LAYER_RECONCILED
360
3560
  0
DICTIONARY
  5
3561
330
3E
100
AcDbDictionary
280
     1
  3
ACAD_XREC_ROUNDTRIP
360
35A3
  3
ADSK_XREC_LAYER_RECONCILED
360
3562
  0
DICTIONARY
  5
3567
330
2B5
100
AcDbDictionary
280
     1
  3
ACAD_XREC_ROUNDTRIP
360
35AE
  3
ADSK_XREC_LAYER_RECONCILED
360
3568
  0
DICTIONARY
  5
3569
330
2BA
100
AcDbDictionary
280
     1
  3
ACAD_XREC_ROUNDTRIP
360
35AF
  3
ADSK_XREC_LAYER_RECONCILED
360
356A
  0
DICTIONARY
  5
356D
330
3FA
100
AcDbDictionary
280
     1
  3
ACAD_XREC_ROUNDTRIP
360
35B1
  3
ADSK_XREC_LAYER_RECONCILED
360
356E
  0
DICTIONARY
  5
353F
330
2
100
AcDbDictionary
280
     1
  3
ACAD_LAYOUTSELFREF
360
35F5
  3
ACAD_SORTENTS
360
3540
  0
DICTIONARY
  5
35F6
330
35CE
100
AcDbDictionary
280
     1
  3
ACAD_LAYOUTSELFREF
360
35F7
  0
DICTIONARY
  5
3515
102
{ACAD_REACTORS
330
7
102
}
330
7
100
AcDbDictionary
  0
DICTIONARY
  5
75
102
{ACAD_REACTORS
330
7
102
}
330
7
100
AcDbDictionary
  0
DICTIONARY
  5
61
102
{ACAD_REACTORS
330
7
102
}
330
7
100
AcDbDictionary
  0
DICTIONARY
  5
34EB
102
{ACAD_REACTORS
330
7
102
}
330
7
100
AcDbDictionary
  3
BYBLOCK
350
34F4
  3
BYLAYER
350
34EC
  3
GLOBAL
350
34FC
  0
DICTIONARY
  5
353A
102
{ACAD_REACTORS
330
7
102
}
330
7
100
AcDbDictionary
  3
STANDARD
350
353B
  0
DICTIONARY
  5
76
102
{ACAD_REACTORS
330
7
102
}
330
7
100
AcDbDictionary
  3
STANDARD
350
78
  0
DICTIONARY
  5
77
102
{ACAD_REACTORS
330
7
102
}
330
7
100
AcDbDictionary
  0
ACDBDICTIONARYWDFLT
  5
6
102
{ACAD_REACTORS
330
7
102
}
330
7
100
AcDbDictionary
281
     1
  3
Normal
350
5
100
AcDbDictionaryWithDefault
340
5
  0
DICTIONARY
  5
3518
102
{ACAD_REACTORS
330
7
102
}
330
7
100
AcDbDictionary
  3
A0
350
3519
  3
A1
350
351A
  3
A2
350
351B
  3
A3
350
351C
  3
A4
350
351D
  3
A5
350
351E
  3
A6
350
351F
  3
A7
350
3520
  3
A8
350
3521
  3
A9
350
3522
  3
B0
350
3523
  3
B1
350
3524
  3
B2
350
3525
  3
B3
350
3526
  3
B4
350
3527
  3
B5
350
3528
  3
B6
350
3529
  3
B7
350
352A
  3
B8
350
352B
  3
B9
350
352C
  3
C0
350
352D
  3
C1
350
352E
  3
C2
350
352F
  3
C3
350
3530
  3
C4
350
3531
  3
C5
350
3532
  3
C6
350
3533
  3
C7
350
3534
  3
C8
350
3535
  3
C9
350
3536
  3
D0
350
3537
  3
D1
350
3538
  3
D2
350
3539
  0
DICTIONARY
  5
3516
102
{ACAD_REACTORS
330
7
102
}
330
7
100
AcDbDictionary
  3
STANDARD
350
3517
  0
DICTIONARY
  5
3504
102
{ACAD_REACTORS
330
7
102
}
330
7
100
AcDbDictionary
  3
2DWIREFRAME
350
350A
  3
3D_HIDDEN
350
350C
  3
3DWIREFRAME
350
350B
  3
BASIC
350
3509
  3
BRIGHTEN
350
3510
  3
COLORCHANGE
350
3514
  3
CONCEPTUAL
350
350D
  3
DIM
350
350F
  3
FACEPATTERN
350
3513
  3
FLAT
350
3505
  3
FLATWITHEDGES
350
3506
  3
GOURAUD
350
3507
  3
GOURAUDWITHEDGES
350
3508
  3
LINEPATTERN
350
3512
  3
REALISTIC
350
350E
  3
THICKEN
350
3511
  0
XRECORD
  5
480
102
{ACAD_REACTORS
330
7
102
}
330
7
100
AcDbXrecord
 90
   990106
  3

 60
     0
 61
     0
 62
     1
 63
     3
 64
     1
 65
     0
 66
     0
 67
     3
 68
     1
 69
     0
 70
     0
 71
     0
 72
     0
 40
0.0
170
     2
340
0
  0
XRECORD
  5
3571
102
{ACAD_REACTORS
330
7
102
}
330
7
100
AcDbXrecord
 90
        1
330
3517
  0
DICTIONARY
  5
35D4
102
{ACAD_REACTORS
330
7
102
}
330
7
100
AcDbDictionary
  3
CEPSNTYPE
350
35DE
  3
DIMSTYLEDATA
350
35E2
  3
FINGERPRINTGUID
350
35DF
  3
HYPERLINKBASE
350
35D7
  3
INSUNITS
350
35DD
  3
LAYOUTDICT
350
35D9
  3
LWETCUNION
350
35DC
  3
PLOTSETDICT
350
35DA
  3
PLOTSTYLNAMDICT
350
35DB
  3
PSVPSCALE
350
35E1
  3
PUCSBASE
350
35E5
  3
PUCSORGBACK
350
35EB
  3
PUCSORGBOTTOM
350
35E7
  3
PUCSORGFRONT
350
35EA
  3
PUCSORGLEFT
350
35E8
  3
PUCSORGRIGHT
350
35E9
  3
PUCSORGTOP
350
35E6
  3
PUCSORTHOREF
350
35E3
  3
PUCSORTHOVIEW
350
35E4
  3
STYLESHEET
350
35D8
  3
TSTACKALIGN
350
35D5
  3
TSTACKSIZE
350
35D6
  3
UCSBASE
350
35EE
  3
UCSORGBACK
350
35F4
  3
UCSORGBOTTOM
350
35F0
  3
UCSORGFRONT
350
35F3
  3
UCSORGLEFT
350
35F1
  3
UCSORGRIGHT
350
35F2
  3
UCSORGTOP
350
35EF
  3
UCSORTHOREF
350
35EC
  3
UCSORTHOVIEW
350
35ED
  3
VERSIONGUID
350
35E0
  0
DICTIONARY
  5
102
102
{ACAD_REACTORS
330
7
102
}
330
7
100
AcDbDictionary
  3
CANNOSCALE
350
3591
  3
CMLEADERSTYLE
350
3590
  3
CTABLESTYLE
350
358F
  3
DIMASSOC
350
103
  3
INDEXCTL
350
3592
  3
SORTENTS
350
549
  0
XRECORD
  5
35A1
102
{ACAD_REACTORS
330
7
102
}
330
7
100
AcDbXrecord
  1
DWGPROPS COOKIE
  2

  3

  4

  6

  7

  8
ymorima
  9

300
=
301
=
302
=
303
=
304
=
305
=
306
=
307
=
308
=
309
=
 40
0.0463179861111111
 41
2454410.674643182
 42
2454425.756629224
  1

 90
        0
  0
XRECORD
  5
35A8
102
{ACAD_REACTORS
330
357A
102
}
330
357A
100
AcDbXrecord
102
VTR_0.000_0.000_1.000_1.000_VISUALSTYLE
340
350A
102
VTR_0.000_0.000_1.000_1.000_GRIDDISPLAY
 70
     3
102
VTR_0.000_0.000_1.000_1.000_GRIDMAJOR
 70
     5
102
VTR_0.000_0.000_1.000_1.000_DEFAULTLIGHTING
280
     1
102
VTR_0.000_0.000_1.000_1.000_DEFAULTLIGHTINGTYPE
 70
     1
102
VTR_0.000_0.000_1.000_1.000_BRIGHTNESS
141
0.0
102
VTR_0.000_0.000_1.000_1.000_CONTRAST
142
0.0
  0
DICTIONARY
  5
AE5
102
{ACAD_REACTORS
330
AE4
102
}
330
AE4
100
AcDbDictionary
  0
XRECORD
  5
35A4
102
{ACAD_REACTORS
330
355F
102
}
330
355F
100
AcDbXrecord
102
MATERIAL
340
34FC
  0
XRECORD
  5
3560
102
{ACAD_REACTORS
330
355F
102
}
330
355F
100
AcDbXrecord
290
     1
  0
XRECORD
  5
35A3
102
{ACAD_REACTORS
330
3561
102
}
330
3561
100
AcDbXrecord
102
MATERIAL
340
34FC
  0
XRECORD
  5
3562
102
{ACAD_REACTORS
330
3561
102
}
330
3561
100
AcDbXrecord
290
     1
  0
XRECORD
  5
35AE
102
{ACAD_REACTORS
330
3567
102
}
330
3567
100
AcDbXrecord
102
MATERIAL
340
34FC
  0
XRECORD
  5
3568
102
{ACAD_REACTORS
330
3567
102
}
330
3567
100
AcDbXrecord
290
     1
  0
XRECORD
  5
35AF
102
{ACAD_REACTORS
330
3569
102
}
330
3569
100
AcDbXrecord
102
MATERIAL
340
34FC
  0
XRECORD
  5
356A
102
{ACAD_REACTORS
330
3569
102
}
330
3569
100
AcDbXrecord
290
     1
  0
XRECORD
  5
35B1
102
{ACAD_REACTORS
330
356D
102
}
330
356D
100
AcDbXrecord
102
MATERIAL
340
34FC
  0
XRECORD
  5
356E
102
{ACAD_REACTORS
330
356D
102
}
330
356D
100
AcDbXrecord
290
     1
  0
XRECORD
  5
35F5
102
{ACAD_REACTORS
330
353F
102
}
330
353F
100
AcDbXrecord
340
2
  0
SORTENTSTABLE
  5
3540
102
{ACAD_REACTORS
330
353F
102
}
330
353F
100
AcDbSortentsTable
330
2
331
11E4
  5
11E4
331
2812
  5
2823
331
12F9
  5
1305
331
2710
  5
271C
331
2823
  5
2831
331
11F5
  5
11F5
331
12D8
  5
12E4
331
27F1
  5
27FF
331
3545
  5
1280
331
1104
  5
1104
331
2802
  5
281A
331
27D0
  5
27DC
331
12C8
  5
12D4
331
FC3
  5
FC3
331
293D
  5
32BC
331
27E1
  5
27ED
331
F31
  5
F31
331
27B7
  5
27C3
331
12A7
  5
12B0
331
291C
  5
2928
331
27C0
  5
27CC
331
1284
  5
128C
331
2796
  5
27A2
331
292D
  5
2939
331
F09
  5
F09
331
1295
  5
129D
331
28FB
  5
2907
331
27A7
  5
27B3
331
2775
  5
2781
331
1263
  5
1267
331
290C
  5
2919
331
1274
  5
1278
331
2786
  5
2792
331
2754
  5
2760
331
1242
  5
1246
331
32E7
  5
32F4
331
28EB
  5
28F7
331
32F8
  5
34E8
331
2881
  5
28D4
331
1253
  5
1257
331
284F
  5
285B
331
32C6
  5
32D4
331
28D2
  5
28E4
331
1232
  5
1236
331
2860
  5
286C
331
2744
  5
2750
331
2723
  5
272F
331
1208
  5
1208
331
2871
  5
287D
331
2734
  5
2740
331
2702
  5
270F
331
1219
  5
121D
331
12FC
  5
131F
331
11E7
  5
11E7
331
2850
  5
285C
331
2713
  5
271F
331
11F8
  5
11F8
331
2826
  5
2833
331
3548
  5
1217
331
27F4
  5
2808
331
12DB
  5
12E7
331
FEE
  5
FEE
331
26F2
  5
26FE
331
12EC
  5
12FA
331
1107
  5
1107
331
27D3
  5
27DF
331
12BA
  5
12C5
331
27E4
  5
27F0
331
12CB
  5
12D7
331
FC6
  5
FC6
331
2940
  5
32BF
331
291F
  5
292B
331
27C3
  5
27CF
331
12AA
  5
12B3
331
1287
  5
128F
331
2799
  5
27A5
331
2930
  5
293C
331
1298
  5
12A0
331
28FE
  5
290A
331
27AA
  5
27B6
331
1266
  5
126A
331
2778
  5
2784
331
290F
  5
291C
331
1277
  5
127B
331
28E5
  5
28F1
331
2789
  5
2795
331
32EA
  5
32F8
331
1245
  5
1249
331
2757
  5
2763
331
1288
  5
1290
331
28EE
  5
28FA
331
32FB
  5
3543
331
1256
  5
125A
331
2768
  5
2774
331
32C9
  5
32D8
331
28D5
  5
28E7
331
32DA
  5
32E7
331
1235
  5
1239
331
2726
  5
2732
331
2863
  5
286F
331
2747
  5
2753
331
2737
  5
2743
331
2874
  5
2880
331
2842
  5
284E
331
2705
  5
2712
331
121C
  5
1220
331
12FF
  5
26F1
331
11EA
  5
11EA
331
2716
  5
2722
331
2853
  5
285F
331
11FB
  5
11FB
331
2829
  5
2836
331
12DE
  5
12EA
331
27F7
  5
280C
331
2832
  5
2842
331
26F5
  5
2703
331
12EF
  5
12FD
331
2808
  5
281C
331
12BD
  5
12C9
331
27D6
  5
27E2
331
2819
  5
2827
331
1300
  5
26F2
331
12CE
  5
12DA
331
FC9
  5
FC9
331
2943
  5
32C2
331
27E7
  5
27F3
331
27F8
  5
2810
331
12AD
  5
12B6
331
2922
  5
292E
331
27C6
  5
27D2
331
279C
  5
27A8
331
2933
  5
293F
331
27AD
  5
27B9
331
129B
  5
12A3
331
2901
  5
290D
331
277B
  5
2787
331
34C7
  5
355D
331
278C
  5
2798
331
127A
  5
127E
331
275A
  5
2769
331
32ED
  5
32FB
331
128B
  5
1293
331
28F1
  5
28FD
331
276B
  5
2777
331
1259
  5
125D
331
32FE
  5
3546
331
32CC
  5
32DB
331
28D8
  5
28EA
331
126A
  5
126E
331
1238
  5
123C
331
2866
  5
2872
331
274A
  5
2756
331
120E
  5
1210
331
1249
  5
124D
331
2877
  5
28C9
331
355E
  5
1285
331
273A
  5
2746
331
32BC
  5
32C8
331
121F
  5
1223
331
2845
  5
2851
331
11ED
  5
11ED
331
1228
  5
122C
331
2719
  5
2725
331
2856
  5
2862
331
11FE
  5
11FE
331
282C
  5
2839
331
272A
  5
2736
331
26F8
  5
2706
331
2835
  5
2845
331
280B
  5
281F
331
12F2
  5
1300
331
2709
  5
2715
331
1303
  5
26F5
331
281C
  5
282A
331
FCC
  5
FCC
331
2946
  5
32C5
331
27EA
  5
27F6
331
12D1
  5
12DD
331
27FB
  5
2817
331
12E2
  5
12EE
331
12B0
  5
12BC
331
F93
  5
F93
331
2925
  5
2931
331
27C9
  5
27D5
331
279F
  5
27AB
331
2936
  5
2942
331
27DA
  5
27E6
331
12C1
  5
12CD
331
129E
  5
12A6
331
2904
  5
2910
331
27B0
  5
27BC
331
277E
  5
278A
331
12A0
  5
12A9
331
2915
  5
2921
331
27B9
  5
27C5
331
127D
  5
1286
331
278F
  5
279B
331
275D
  5
276C
331
128E
  5
1296
331
28F4
  5
2900
331
27A0
  5
27AC
331
276E
  5
277A
331
3301
  5
3549
331
125C
  5
1260
331
32CF
  5
32DF
331
126D
  5
1271
331
274D
  5
2759
331
32E0
  5
32EC
331
2869
  5
2875
331
123B
  5
123F
331
32F1
  5
32FE
331
124C
  5
1250
331
273D
  5
2749
331
287A
  5
28CD
331
1222
  5
1226
331
2848
  5
2854
331
32BF
  5
32CB
331
32D0
  5
32E0
331
2859
  5
2865
331
271C
  5
2728
331
122B
  5
122F
331
1201
  5
1201
331
282F
  5
283B
331
272D
  5
2739
331
1212
  5
1214
331
2838
  5
2848
331
26FB
  5
270A
331
270C
  5
2718
331
1306
  5
26F8
331
11F1
  5
11F1
331
281F
  5
282C
331
12D4
  5
12E0
331
27ED
  5
27F9
331
12E5
  5
12F1
331
27FE
  5
2818
331
27CC
  5
27D8
331
12B3
  5
12BF
331
F96
  5
F96
331
12C4
  5
12D0
331
2939
  5
2945
331
27DD
  5
27E9
331
2907
  5
2914
331
27B3
  5
27BF
331
2918
  5
2924
331
27BC
  5
27C8
331
12A3
  5
12AB
331
2792
  5
279E
331
2929
  5
2935
331
1291
  5
1299
331
28F7
  5
2903
331
27A3
  5
27AF
331
125F
  5
1263
331
28CD
  5
28D9
331
2771
  5
277D
331
2908
  5
2915
331
1270
  5
1274
331
28DE
  5
28ED
331
2782
  5
278E
331
32E3
  5
32F0
331
123E
  5
1242
331
286C
  5
2878
331
2750
  5
275C
331
2761
  5
2770
331
124F
  5
1253
331
287D
  5
28D0
331
32F4
  5
3301
331
32C2
  5
32CE
331
1225
  5
1229
331
284B
  5
2857
331
32D3
  5
32E1
331
122E
  5
1232
331
271F
  5
272B
331
285C
  5
2868
331
2740
  5
274C
331
1204
  5
1204
331
2730
  5
273C
331
1215
  5
1219
331
26FE
  5
270D
331
283B
  5
284B
331
11E3
  5
11E3
331
2811
  5
2822
331
12F8
  5
1304
331
270F
  5
271B
331
2822
  5
2830
331
11F4
  5
11F4
331
12D7
  5
12E3
331
27F0
  5
27FE
331
3544
  5
12BE
331
1103
  5
1103
331
12E8
  5
12F6
331
27CF
  5
27DB
331
F07
  5
F07
331
12C7
  5
12D3
331
FC2
  5
FC2
331
293C
  5
2948
331
27E0
  5
27EC
331
27B6
  5
27C2
331
12A6
  5
12AF
331
291B
  5
2927
331
27BF
  5
27CB
331
2795
  5
27A1
331
1283
  5
128B
331
292C
  5
2938
331
F08
  5
F08
331
1294
  5
129C
331
28FA
  5
2906
331
27A6
  5
27B2
331
1262
  5
1266
331
2774
  5
2780
331
290B
  5
2918
331
2785
  5
2791
331
1273
  5
1277
331
2753
  5
275F
331
1241
  5
1245
331
286F
  5
287B
331
32E6
  5
32F3
331
28EA
  5
28F6
331
1252
  5
1256
331
2880
  5
28D3
331
32F7
  5
34C7
331
284E
  5
285A
331
32C5
  5
32D3
331
28D1
  5
28E3
331
2743
  5
274F
331
1231
  5
1235
331
285F
  5
286B
331
32D6
  5
32E4
331
2722
  5
272E
331
1207
  5
1207
331
2870
  5
287C
331
2733
  5
273F
331
2701
  5
270E
331
1218
  5
121C
331
12FB
  5
131E
331
11E6
  5
11E6
331
353E
  5
120C
331
2712
  5
271E
331
11F7
  5
11F7
331
3547
  5
1215
331
27F3
  5
2803
331
12DA
  5
12E6
331
FED
  5
FED
331
26F1
  5
26FD
331
12EB
  5
12F9
331
1106
  5
1106
331
27D2
  5
27DE
331
12B9
  5
12C4
331
293F
  5
32BE
331
27E3
  5
27EF
331
12CA
  5
12D6
331
FC5
  5
FC5
331
291E
  5
292A
331
27C2
  5
27CE
331
12A9
  5
12B2
331
1286
  5
128E
331
2798
  5
27A4
331
292F
  5
293B
331
1297
  5
129F
331
28FD
  5
2909
331
27A9
  5
27B5
331
1265
  5
1269
331
2777
  5
2783
331
290E
  5
291B
331
1276
  5
127A
331
28E4
  5
28F0
331
2788
  5
2794
331
2756
  5
2762
331
32E9
  5
32F7
331
1244
  5
1248
331
28ED
  5
28F9
331
32FA
  5
3542
331
1255
  5
1259
331
2767
  5
2773
331
32C8
  5
32D6
331
28D4
  5
28E6
331
2746
  5
2752
331
32D9
  5
32E6
331
2862
  5
286E
331
2725
  5
2731
331
1234
  5
1238
331
120A
  5
120A
331
2736
  5
2742
331
2873
  5
287F
331
121B
  5
121F
331
2841
  5
284D
331
2704
  5
2711
331
12FE
  5
1F74
331
11E9
  5
11E9
331
2817
  5
2824
331
2852
  5
285E
331
2715
  5
2721
331
131F
  5
26FA
331
11FA
  5
11FA
331
2828
  5
2835
331
354A
  5
12C0
331
12DD
  5
12E9
331
FF8
  5
FF8
331
27F6
  5
280B
331
2831
  5
2841
331
26F4
  5
2702
331
12EE
  5
12FC
331
12BC
  5
12C8
331
27D5
  5
27E1
331
2818
  5
2826
331
12CD
  5
12D9
331
FC8
  5
FC8
331
2942
  5
32C1
331
27E6
  5
27F2
331
12AC
  5
12B5
331
2921
  5
292D
331
27C5
  5
27D1
331
279B
  5
27A7
331
2932
  5
293E
331
27AC
  5
27B8
331
2900
  5
290C
331
129A
  5
12A2
331
277A
  5
2786
331
2911
  5
291E
331
1279
  5
127D
331
28E7
  5
28F3
331
278B
  5
2797
331
2759
  5
2768
331
1247
  5
124B
331
32EC
  5
32FA
331
28F0
  5
28FC
331
128A
  5
1292
331
276A
  5
2776
331
1258
  5
125C
331
32FD
  5
3545
331
32CB
  5
32DA
331
1269
  5
126D
331
28D7
  5
28E9
331
2749
  5
2755
331
1237
  5
123B
331
2865
  5
2871
331
32DC
  5
32E9
331
120D
  5
120F
331
1248
  5
124C
331
2739
  5
2745
331
2876
  5
2882
331
355D
  5
128A
331
121E
  5
1222
331
2844
  5
2850
331
11EC
  5
11EC
331
2718
  5
2724
331
2855
  5
2861
331
282B
  5
2838
331
11FD
  5
11FD
331
2729
  5
2735
331
26F7
  5
2705
331
2834
  5
2844
331
12F1
  5
12FF
331
12BF
  5
12CB
331
2708
  5
2714
331
281B
  5
2829
331
1302
  5
26F4
331
12D0
  5
12DC
331
FCB
  5
FCB
331
2945
  5
32C4
331
27E9
  5
27F5
331
27FA
  5
2812
331
12E1
  5
12ED
331
12AF
  5
12B7
331
F92
  5
F92
331
2924
  5
2930
331
27C8
  5
27D4
331
279E
  5
27AA
331
12C0
  5
12CC
331
2935
  5
2941
331
27D9
  5
27E5
331
129D
  5
12A5
331
2903
  5
290F
331
27AF
  5
27BB
331
277D
  5
2789
331
2914
  5
2920
331
27B8
  5
27C4
331
127C
  5
1283
331
278E
  5
279A
331
275C
  5
276B
331
32EF
  5
32FC
331
128D
  5
1295
331
28F3
  5
28FF
331
276D
  5
2779
331
3300
  5
3548
331
28C9
  5
28D6
331
125B
  5
125F
331
32CE
  5
32DE
331
126C
  5
1270
331
28DA
  5
28EC
331
274C
  5
2758
331
123A
  5
123E
331
2868
  5
2874
331
32DF
  5
32EB
331
32F0
  5
32FD
331
2879
  5
28CC
331
273C
  5
2748
331
124B
  5
124F
331
1221
  5
1225
331
2847
  5
2853
331
32BE
  5
32CA
331
11EF
  5
11EF
331
122A
  5
122E
331
2858
  5
2864
331
271B
  5
2727
331
1200
  5
1200
331
272C
  5
2738
331
26FA
  5
2709
331
2837
  5
2847
331
12F4
  5
1302
331
270B
  5
2717
331
1305
  5
26F7
331
11F0
  5
11F0
331
27EC
  5
27F8
331
12D3
  5
12DF
331
12E4
  5
12F0
331
F95
  5
F95
331
2927
  5
2933
331
27CB
  5
27D7
331
12B2
  5
12BD
331
27DC
  5
27E8
331
12C3
  5
12CF
331
2938
  5
2944
331
2906
  5
2913
331
27B2
  5
27BE
331
2917
  5
2923
331
27BB
  5
27C7
331
12A2
  5
12AA
331
2791
  5
279D
331
275F
  5
276E
331
2928
  5
2934
331
1290
  5
1298
331
28F6
  5
2902
331
27A2
  5
27AE
331
125E
  5
1262
331
28CC
  5
28D8
331
2770
  5
277C
331
126F
  5
1273
331
2781
  5
278D
331
32E2
  5
32EF
331
123D
  5
1241
331
286B
  5
2877
331
274F
  5
275B
331
32F3
  5
3300
331
124E
  5
1252
331
273F
  5
274B
331
287C
  5
28CF
331
2760
  5
276F
331
32C1
  5
32CD
331
284A
  5
2856
331
1224
  5
1228
331
122D
  5
1231
331
271E
  5
272A
331
285B
  5
2867
331
1203
  5
1203
331
272F
  5
273B
331
283A
  5
284A
331
26FD
  5
270C
331
1214
  5
1218
331
11E2
  5
11E2
331
2810
  5
2821
331
270E
  5
271A
331
11F3
  5
11F3
331
2821
  5
282F
331
1F74
  5
26FC
331
12D6
  5
12E2
331
27EF
  5
27FB
331
3543
  5
12BA
331
F47
  5
F47
331
12E7
  5
12F4
331
12B5
  5
12C2
331
F98
  5
F98
331
27CE
  5
27DA
331
12C6
  5
12D2
331
FC1
  5
FC1
331
293B
  5
2947
331
27DF
  5
27EB
331
27B5
  5
27C1
331
12A5
  5
12AD
331
F48
  5
F48
331
291A
  5
2926
331
27BE
  5
27CA
331
2794
  5
27A0
331
34E8
  5
355E
331
1282
  5
1289
331
292B
  5
2937
331
27A5
  5
27B1
331
1293
  5
129B
331
28F9
  5
2905
331
1261
  5
1265
331
28CF
  5
28DE
331
2773
  5
277F
331
290A
  5
2917
331
2784
  5
2790
331
1272
  5
1276
331
2752
  5
275E
331
1240
  5
1244
331
286E
  5
287A
331
32E5
  5
32F2
331
28E9
  5
28F5
331
2763
  5
2772
331
1251
  5
1255
331
287F
  5
28D2
331
32F6
  5
3302
331
32C4
  5
32D0
331
1227
  5
122B
331
284D
  5
2859
331
28D0
  5
28DF
331
2742
  5
274E
331
1230
  5
1234
331
2721
  5
272D
331
285E
  5
286A
331
32D5
  5
32E3
331
1206
  5
1206
331
2732
  5
273E
331
1217
  5
121B
331
12FA
  5
1306
331
11E5
  5
11E5
331
2711
  5
271D
331
11F6
  5
11F6
331
2824
  5
2832
331
3546
  5
127F
331
27F2
  5
2802
331
12D9
  5
12E5
331
2803
  5
281B
331
12EA
  5
12F8
331
1105
  5
1105
331
12B8
  5
12C3
331
27D1
  5
27DD
331
FC4
  5
FC4
331
293E
  5
32BD
331
27E2
  5
27EE
331
12C9
  5
12D5
331
12A8
  5
12B1
331
291D
  5
2929
331
27C1
  5
27CD
331
1285
  5
128D
331
2797
  5
27A3
331
292E
  5
293A
331
1296
  5
129E
331
28FC
  5
2908
331
27A8
  5
27B4
331
2776
  5
2782
331
1264
  5
1268
331
290D
  5
291A
331
1275
  5
1279
331
28E3
  5
28EF
331
2787
  5
2793
331
2755
  5
2761
331
32E8
  5
32F6
331
1243
  5
1247
331
28EC
  5
28F8
331
32F9
  5
353E
331
1254
  5
1258
331
2882
  5
28D5
331
32C7
  5
32D5
331
28D3
  5
28E5
331
2745
  5
2751
331
32D8
  5
32E5
331
2861
  5
286D
331
2724
  5
2730
331
1233
  5
1237
331
1209
  5
1209
331
2735
  5
2741
331
2872
  5
287E
331
121A
  5
121E
331
2840
  5
284C
331
2703
  5
2710
331
12FD
  5
1DE0
331
11E8
  5
11E8
331
2851
  5
285D
331
2714
  5
2720
331
131E
  5
26F9
331
11F9
  5
11F9
331
2827
  5
2834
331
3549
  5
12C7
331
12DC
  5
12E8
331
27F5
  5
2809
331
2830
  5
2840
331
26F3
  5
2701
331
12ED
  5
12FB
331
1108
  5
1108
331
27D4
  5
27E0
331
12BB
  5
12C6
331
12CC
  5
12D8
331
FC7
  5
FC7
331
2941
  5
32C0
331
27E5
  5
27F1
331
2920
  5
292C
331
27C4
  5
27D0
331
12AB
  5
12B4
331
279A
  5
27A6
331
2931
  5
293D
331
F0D
  5
F0D
331
1299
  5
12A1
331
28FF
  5
290B
331
27AB
  5
27B7
331
1267
  5
126B
331
2779
  5
2785
331
2910
  5
291D
331
1278
  5
127C
331
28E6
  5
28F2
331
278A
  5
2796
331
32EB
  5
32F9
331
1246
  5
124A
331
2758
  5
2767
331
1289
  5
1291
331
28EF
  5
28FB
331
2769
  5
2775
331
1257
  5
125B
331
32FC
  5
3544
331
32CA
  5
32D9
331
1268
  5
126C
331
28D6
  5
28E8
331
32DB
  5
32E8
331
1236
  5
123A
331
2727
  5
2733
331
2864
  5
2870
331
2748
  5
2754
331
120C
  5
120E
331
2738
  5
2744
331
2875
  5
2881
331
121D
  5
1221
331
2706
  5
2713
331
2843
  5
284F
331
11EB
  5
11EB
331
2717
  5
2723
331
2854
  5
2860
331
282A
  5
2837
331
11FC
  5
11FC
331
12DF
  5
12EB
331
2728
  5
2734
331
26F6
  5
2704
331
2833
  5
2843
331
2809
  5
281D
331
12F0
  5
12FE
331
12BE
  5
12CA
331
27D7
  5
27E3
331
281A
  5
2828
331
1301
  5
26F3
331
12CF
  5
12DB
331
FCA
  5
FCA
331
2944
  5
32C3
331
27E8
  5
27F4
331
27F9
  5
2811
331
12E0
  5
12EC
331
2923
  5
292F
331
27C7
  5
27D3
331
279D
  5
27A9
331
2934
  5
2940
331
27D8
  5
27E4
331
129C
  5
12A4
331
2902
  5
290E
331
27AE
  5
27BA
331
277C
  5
2788
331
2913
  5
291F
331
278D
  5
2799
331
127B
  5
1281
331
275B
  5
276A
331
128C
  5
1294
331
28F2
  5
28FE
331
276C
  5
2778
331
125A
  5
125E
331
32FF
  5
3547
331
32CD
  5
32DC
331
28D9
  5
28EB
331
126B
  5
126F
331
274B
  5
2757
331
1239
  5
123D
331
2867
  5
2873
331
32DE
  5
32EA
331
120F
  5
1211
331
124A
  5
124E
331
2878
  5
28CB
331
273B
  5
2747
331
1220
  5
1224
331
2846
  5
2852
331
32BD
  5
32C9
331
11EE
  5
11EE
331
1229
  5
122D
331
2857
  5
2863
331
271A
  5
2726
331
11FF
  5
11FF
331
282D
  5
283A
331
272B
  5
2737
331
26F9
  5
2708
331
2836
  5
2846
331
12F3
  5
1301
331
280C
  5
2820
331
270A
  5
2716
331
1304
  5
26F6
331
281D
  5
282B
331
2947
  5
32C6
331
27EB
  5
27F7
331
12D2
  5
12DE
331
12E3
  5
12EF
331
F94
  5
F94
331
2926
  5
2932
331
27CA
  5
27D6
331
1DE0
  5
26FB
331
2937
  5
2943
331
27DB
  5
27E7
331
12C2
  5
12CE
331
129F
  5
12A7
331
2905
  5
2911
331
27B1
  5
27BD
331
277F
  5
278B
331
2948
  5
32C7
331
2916
  5
2922
331
27BA
  5
27C6
331
127E
  5
1287
331
2790
  5
279C
331
275E
  5
276D
331
128F
  5
1297
331
28F5
  5
2901
331
27A1
  5
27AD
331
3302
  5
354A
331
125D
  5
1261
331
28CB
  5
28D7
331
276F
  5
277B
331
126E
  5
1272
331
2780
  5
278C
331
274E
  5
275A
331
32E1
  5
32ED
331
286A
  5
2876
331
123C
  5
1240
331
32F2
  5
32FF
331
124D
  5
1251
331
273E
  5
274A
331
287B
  5
28CE
331
1223
  5
1227
331
2849
  5
2855
331
32C0
  5
32CC
331
285A
  5
2866
331
271D
  5
2729
331
122C
  5
1230
331
1202
  5
1202
331
272E
  5
273A
331
1213
  5
1216
331
2839
  5
2849
331
26FC
  5
270B
331
12F6
  5
1303
331
11E1
  5
11E1
331
270D
  5
2719
331
11F2
  5
11F2
331
2820
  5
282D
331
3542
  5
120B
331
12D5
  5
12E1
331
27EE
  5
27FA
331
F46
  5
F46
331
12E6
  5
12F2
331
27FF
  5
2819
331
12B4
  5
12C1
331
F97
  5
F97
331
27CD
  5
27D9
331
12C5
  5
12D1
331
293A
  5
2946
331
27DE
  5
27EA
331
27B4
  5
27C0
331
F26
  5
F26
331
12A4
  5
12AC
331
2919
  5
2925
331
27BD
  5
27C9
331
1281
  5
1288
331
2793
  5
279F
331
292A
  5
2936
331
27A4
  5
27B0
331
28F8
  5
2904
331
1292
  5
129A
331
1260
  5
1264
331
28CE
  5
28DA
331
2772
  5
277E
331
2909
  5
2916
331
1271
  5
1275
331
28DF
  5
28EE
331
2783
  5
278F
331
2751
  5
275D
331
123F
  5
1243
331
286D
  5
2879
331
32E4
  5
32F1
331
28E8
  5
28F4
331
1250
  5
1254
331
287E
  5
28D1
331
2762
  5
2771
331
32C3
  5
32CF
331
1226
  5
122A
331
284C
  5
2858
331
2741
  5
274D
331
122F
  5
1233
331
2720
  5
272C
331
285D
  5
2869
331
32D4
  5
32E2
331
1205
  5
1205
331
2731
  5
273D
331
1216
  5
121A
  0
XRECORD
  5
35F7
102
{ACAD_REACTORS
330
35F6
102
}
330
35F6
100
AcDbXrecord
340
35CE
  0
ACAD_PROXY_OBJECT
  5
34F4
102
{ACAD_XDICTIONARY
360
34F5
102
}
102
{ACAD_REACTORS
330
34EB
102
}
330
34EB
100
AcDbProxyObject
 90
      499
 91
      511
 93
     1340
310
42109E509B1BD8DAC02004014080404555555555555953FAA155555555555654FEA9AA400014080404555555555555953FAA155555555555654FEA9AA400000000000000E03F4080404555555555555953FAA155555555555654FEA9AA4014080404555555555555953FAA155555555555654FEA9AA4010201011555555555
310
55654FEA8555555555555953FAA6A9005020101155555555555654FEA8555555555555953FAA6A9000
 94
        0
1001
ACAD
1000
AcadProxyRoundTripData
1071
      504
1071
   655383
1070
     0
  0
ACAD_PROXY_OBJECT
  5
34EC
102
{ACAD_XDICTIONARY
360
34ED
102
}
102
{ACAD_REACTORS
330
34EB
102
}
330
34EB
100
AcDbProxyObject
 90
      499
 91
      511
 93
     1340
310
42109E53185E595C802004014080404555555555555953FAA155555555555654FEA9AA400014080404555555555555953FAA155555555555654FEA9AA400000000000000E03F4080404555555555555953FAA155555555555654FEA9AA4014080404555555555555953FAA155555555555654FEA9AA4010201011555555555
310
55654FEA8555555555555953FAA6A9005020101155555555555654FEA8555555555555953FAA6A9000
 94
        0
1001
ACAD
1000
AcadProxyRoundTripData
1071
      504
1071
   655383
1070
     0
  0
ACAD_PROXY_OBJECT
  5
34FC
102
{ACAD_XDICTIONARY
360
34FD
102
}
102
{ACAD_REACTORS
330
34EB
102
}
330
34EB
100
AcDbProxyObject
 90
      499
 91
      511
 93
     1332
310
41D1DB1BD8985B002004014080404555555555555953FAA155555555555654FEA9AA400014080404555555555555953FAA155555555555654FEA9AA400000000000000E03F4080404555555555555953FAA155555555555654FEA9AA4014080404555555555555953FAA155555555555654FEA9AA401020101155555555555
310
654FEA8555555555555953FAA6A9005020101155555555555654FEA8555555555555953FAA6A9000
 94
        0
1001
ACAD
1000
AcadProxyRoundTripData
1071
      504
1071
   655383
1070
     0
  0
ACAD_PROXY_OBJECT
  5
353B
102
{ACAD_REACTORS
330
353A
102
}
330
353A
100
AcDbProxyObject
 90
      499
 91
      511
 93
      618
310
40901902A4063FBFFFFFE056BD1B81E855B9FC0AD7A3703D0AD73F4254DD185B99185C990000AD7A3703D0AC73F90141901A02B5E8DC0F42B1CFC02B5E8DC0F42B1CFE5764000000000000300FC6
340
6A
340
0
340
16
340
0
 94
        0
1001
ACAD_MLEADERVER
1070
     2
1001
ACAD
1000
AcadProxyRoundTripData
1071
      508
1071
   655383
1070
     0
  0
MLINESTYLE
  5
78
102
{ACAD_REACTORS
330
76
102
}
330
76
100
AcDbMlineStyle
  2
STANDARD
 70
     0
  3

 62
     0
 51
90.0
 52
90.0
 71
     2
 49
0.5
 62
   256
  6
BYLAYER
 49
-0.5
 62
   256
  6
BYLAYER
  0
ACDBPLACEHOLDER
  5
5
102
{ACAD_REACTORS
330
6
102
}
330
6
100
AcDbPlaceHolder
280
     0
  0
ACAD_PROXY_OBJECT
  5
3519
102
{ACAD_REACTORS
330
3518
102
}
330
3518
100
AcDbProxyObject
 90
      499
 91
      511
 93
       49
310
904313A3100598
 94
        0
1001
ACAD
1000
AcadProxyRoundTripData
1071
      507
1071
   655383
1070
     0
  0
ACAD_PROXY_OBJECT
  5
351A
102
{ACAD_REACTORS
330
3518
102
}
330
3518
100
AcDbProxyObject
 90
      499
 91
      511
 93
      113
310
904313A3200400000000000000406B
 94
        0
1001
ACAD
1000
AcadProxyRoundTripData
1071
      507
1071
   655383
1070
     0
  0
ACAD_PROXY_OBJECT
  5
351B
102
{ACAD_REACTORS
330
3518
102
}
330
3518
100
AcDbProxyObject
 90
      499
 91
      511
 93
      113
310
904313A3400400000000000010406B
 94
        0
1001
ACAD
1000
AcadProxyRoundTripData
1071
      507
1071
   655383
1070
     0
  0
ACAD_PROXY_OBJECT
  5
351C
102
{ACAD_REACTORS
330
3518
102
}
330
3518
100
AcDbProxyObject
 90
      499
 91
      511
 93
      113
310
904313A3500400000000000014406B
 94
        0
1001
ACAD
1000
AcadProxyRoundTripData
1071
      507
1071
   655383
1070
     0
  0
ACAD_PROXY_OBJECT
  5
351D
102
{ACAD_REACTORS
330
3518
102
}
330
3518
100
AcDbProxyObject
 90
      499
 91
      511
 93
      113
310
904313A3800400000000000020406B
 94
        0
1001
ACAD
1000
AcadProxyRoundTripData
1071
      507
1071
   655383
1070
     0
  0
ACAD_PROXY_OBJECT
  5
351E
102
{ACAD_REACTORS
330
3518
102
}
330
3518
100
AcDbProxyObject
 90
      499
 91
      511
 93
      121
310
905313A3130004000000000000244051
 94
        0
1001
ACAD
1000
AcadProxyRoundTripData
1071
      507
1071
   655383
1070
     0
  0
ACAD_PROXY_OBJECT
  5
351F
102
{ACAD_REACTORS
330
3518
102
}
330
3518
100
AcDbProxyObject
 90
      499
 91
      511
 93
      121
310
905313A3136004000000000000304051
 94
        0
1001
ACAD
1000
AcadProxyRoundTripData
1071
      507
1071
   655383
1070
     0
  0
ACAD_PROXY_OBJECT
  5
3520
102
{ACAD_REACTORS
330
3518
102
}
330
3518
100
AcDbProxyObject
 90
      499
 91
      511
 93
      121
310
905313A3230004000000000000344051
 94
        0
1001
ACAD
1000
AcadProxyRoundTripData
1071
      507
1071
   655383
1070
     0
  0
ACAD_PROXY_OBJECT
  5
3521
102
{ACAD_REACTORS
330
3518
102
}
330
3518
100
AcDbProxyObject
 90
      499
 91
      511
 93
      121
310
905313A33300040000000000003E4051
 94
        0
1001
ACAD
1000
AcadProxyRoundTripData
1071
      507
1071
   655383
1070
     0
  0
ACAD_PROXY_OBJECT
  5
3522
102
{ACAD_REACTORS
330
3518
102
}
330
3518
100
AcDbProxyObject
 90
      499
 91
      511
 93
      121
310
905313A3430004000000000000444051
 94
        0
1001
ACAD
1000
AcadProxyRoundTripData
1071
      507
1071
   655383
1070
     0
  0
ACAD_PROXY_OBJECT
  5
3523
102
{ACAD_REACTORS
330
3518
102
}
330
3518
100
AcDbProxyObject
 90
      499
 91
      511
 93
      121
310
905313A3530004000000000000494051
 94
        0
1001
ACAD
1000
AcadProxyRoundTripData
1071
      507
1071
   655383
1070
     0
  0
ACAD_PROXY_OBJECT
  5
3524
102
{ACAD_REACTORS
330
3518
102
}
330
3518
100
AcDbProxyObject
 90
      499
 91
      511
 93
      129
310
906313A313030004000000000000594038
 94
        0
1001
ACAD
1000
AcadProxyRoundTripData
1071
      507
1071
   655383
1070
     0
  0
ACAD_PROXY_OBJECT
  5
3525
102
{ACAD_REACTORS
330
3518
102
}
330
3518
100
AcDbProxyObject
 90
      499
 91
      511
 93
      113
310
904323A31000000000000000010159
 94
        0
1001
ACAD
1000
AcadProxyRoundTripData
1071
      507
1071
   655383
1070
     0
  0
ACAD_PROXY_OBJECT
  5
3526
102
{ACAD_REACTORS
330
3518
102
}
330
3518
100
AcDbProxyObject
 90
      499
 91
      511
 93
      113
310
904343A31000000000000000410159
 94
        0
1001
ACAD
1000
AcadProxyRoundTripData
1071
      507
1071
   655383
1070
     0
  0
ACAD_PROXY_OBJECT
  5
3527
102
{ACAD_REACTORS
330
3518
102
}
330
3518
100
AcDbProxyObject
 90
      499
 91
      511
 93
      113
310
904383A31000000000000000810159
 94
        0
1001
ACAD
1000
AcadProxyRoundTripData
1071
      507
1071
   655383
1070
     0
  0
ACAD_PROXY_OBJECT
  5
3528
102
{ACAD_REACTORS
330
3518
102
}
330
3518
100
AcDbProxyObject
 90
      499
 91
      511
 93
      121
310
90531303A31000000000000000910140
 94
        0
1001
ACAD
1000
AcadProxyRoundTripData
1071
      507
1071
   655383
1070
     0
  0
ACAD_PROXY_OBJECT
  5
3529
102
{ACAD_REACTORS
330
3518
102
}
330
3518
100
AcDbProxyObject
 90
      499
 91
      511
 93
      129
310
9063130303A31000000000000001650138
 94
        0
1001
ACAD
1000
AcadProxyRoundTripData
1071
      507
1071
   655383
1070
     0
  0
ACAD_PROXY_OBJECT
  5
352A
102
{ACAD_REACTORS
330
3518
102
}
330
3518
100
AcDbProxyObject
 90
      499
 91
      511
 93
      265
310
90F312F31323822203D2031272D302200000000000000200FC00000000000028402B
 94
        0
1001
ACAD
1000
AcadProxyRoundTripData
1071
      507
1071
   655383
1070
     0
  0
ACAD_PROXY_OBJECT
  5
352B
102
{ACAD_REACTORS
330
3518
102
}
330
3518
100
AcDbProxyObject
 90
      499
 91
      511
 93
      257
310
90E312F363422203D2031272D302200000000000000240FC000000000000284040
 94
        0
1001
ACAD
1000
AcadProxyRoundTripData
1071
      507
1071
   655383
1070
     0
  0
ACAD_PROXY_OBJECT
  5
352C
102
{ACAD_REACTORS
330
3518
102
}
330
3518
100
AcDbProxyObject
 90
      499
 91
      511
 93
      257
310
90E312F333222203D2031272D302200000000000000280FC000000000000284040
 94
        0
1001
ACAD
1000
AcadProxyRoundTripData
1071
      507
1071
   655383
1070
     0
  0
ACAD_PROXY_OBJECT
  5
352D
102
{ACAD_REACTORS
330
3518
102
}
330
3518
100
AcDbProxyObject
 90
      499
 91
      511
 93
      257
310
90E312F313622203D2031272D3022000000000000002C0FC000000000000284040
 94
        0
1001
ACAD
1000
AcadProxyRoundTripData
1071
      507
1071
   655383
1070
     0
  0
ACAD_PROXY_OBJECT
  5
352E
102
{ACAD_REACTORS
330
3518
102
}
330
3518
100
AcDbProxyObject
 90
      499
 91
      511
 93
      257
310
90E332F333222203D2031272D3022000000000000002E0FC000000000000284040
 94
        0
1001
ACAD
1000
AcadProxyRoundTripData
1071
      507
1071
   655383
1070
     0
  0
ACAD_PROXY_OBJECT
  5
352F
102
{ACAD_REACTORS
330
3518
102
}
330
3518
100
AcDbProxyObject
 90
      499
 91
      511
 93
      249
310
90D312F3822203D2031272D302200000000000000300FC000000000000284040
 94
        0
1001
ACAD
1000
AcadProxyRoundTripData
1071
      507
1071
   655383
1070
     0
  0
ACAD_PROXY_OBJECT
  5
3530
102
{ACAD_REACTORS
330
3518
102
}
330
3518
100
AcDbProxyObject
 90
      499
 91
      511
 93
      257
310
90E332F313622203D2031272D302200000000000000320FC000000000000284040
 94
        0
1001
ACAD
1000
AcadProxyRoundTripData
1071
      507
1071
   655383
1070
     0
  0
ACAD_PROXY_OBJECT
  5
3531
102
{ACAD_REACTORS
330
3518
102
}
330
3518
100
AcDbProxyObject
 90
      499
 91
      511
 93
      249
310
90D312F3422203D2031272D302200000000000000340FC000000000000284040
 94
        0
1001
ACAD
1000
AcadProxyRoundTripData
1071
      507
1071
   655383
1070
     0
  0
ACAD_PROXY_OBJECT
  5
3532
102
{ACAD_REACTORS
330
3518
102
}
330
3518
100
AcDbProxyObject
 90
      499
 91
      511
 93
      249
310
90D332F3822203D2031272D302200000000000000360FC000000000000284040
 94
        0
1001
ACAD
1000
AcadProxyRoundTripData
1071
      507
1071
   655383
1070
     0
  0
ACAD_PROXY_OBJECT
  5
3533
102
{ACAD_REACTORS
330
3518
102
}
330
3518
100
AcDbProxyObject
 90
      499
 91
      511
 93
      249
310
90D312F3222203D2031272D302200000000000000380FC000000000000284040
 94
        0
1001
ACAD
1000
AcadProxyRoundTripData
1071
      507
1071
   655383
1070
     0
  0
ACAD_PROXY_OBJECT
  5
3534
102
{ACAD_REACTORS
330
3518
102
}
330
3518
100
AcDbProxyObject
 90
      499
 91
      511
 93
      249
310
90D332F3422203D2031272D3022000000000000003A0FC000000000000284040
 94
        0
1001
ACAD
1000
AcadProxyRoundTripData
1071
      507
1071
   655383
1070
     0
  0
ACAD_PROXY_OBJECT
  5
3535
102
{ACAD_REACTORS
330
3518
102
}
330
3518
100
AcDbProxyObject
 90
      499
 91
      511
 93
      169
310
90B3122203D2031272D3022004000000000000284020
 94
        0
1001
ACAD
1000
AcadProxyRoundTripData
1071
      507
1071
   655383
1070
     0
  0
ACAD_PROXY_OBJECT
  5
3536
102
{ACAD_REACTORS
330
3518
102
}
330
3518
100
AcDbProxyObject
 90
      499
 91
      511
 93
      265
310
90F312D312F3222203D2031272D3022000000000000003E0FC00000000000028402B
 94
        0
1001
ACAD
1000
AcadProxyRoundTripData
1071
      507
1071
   655383
1070
     0
  0
ACAD_PROXY_OBJECT
  5
3537
102
{ACAD_REACTORS
330
3518
102
}
330
3518
100
AcDbProxyObject
 90
      499
 91
      511
 93
      233
310
90B3322203D2031272D30220000000000000002100000000000000284000
 94
        0
1001
ACAD
1000
AcadProxyRoundTripData
1071
      507
1071
   655383
1070
     0
  0
ACAD_PROXY_OBJECT
  5
3538
102
{ACAD_REACTORS
330
3518
102
}
330
3518
100
AcDbProxyObject
 90
      499
 91
      511
 93
      233
310
90B3622203D2031272D30220000000000000006100000000000000284000
 94
        0
1001
ACAD
1000
AcadProxyRoundTripData
1071
      507
1071
   655383
1070
     0
  0
ACAD_PROXY_OBJECT
  5
3539
102
{ACAD_REACTORS
330
3518
102
}
330
3518
100
AcDbProxyObject
 90
      499
 91
      511
 93
      257
310
90E31272D3022203D2031272D3022000000000000000A100000000000000284040
 94
        0
1001
ACAD
1000
AcadProxyRoundTripData
1071
      507
1071
   655383
1070
     0
  0
ACAD_PROXY_OBJECT
  5
3517
102
{ACAD_XDICTIONARY
360
356F
102
}
102
{ACAD_REACTORS
330
3516
102
}
330
3516
100
AcDbProxyObject
 90
      499
 91
      511
 93
     1849
310
4254DD185B99185C990028B81E85EB51B8AE3F2E07A17AD46E2B8FC02B5E8DC0F42B1CFD028000000C1008070000C3001FDFF8000000C1003FBFF000000182007F7FE00000030400FEFFC00000060801FDFF8000000C1003FBFF00000018200000000000000681FA0B0000001820100E000186003FBFF000000182007F7FE0
310
0000030400FEFFC00000060801FDFF8000000C1003FBFF000000182007F7FE000000304000AD7A3703D0AC73F4160000003040201C00030C007F7FE00000030400FEFFC00000060801FDFF8000000C1003FBFF000000182007F7FE00000030400FEFFC000000608000
340
16
340
16
340
16
 94
        0
1001
ACAD
1000
AcadProxyRoundTripData
1071
      506
1071
   655383
1070
     0
  0
ACAD_PROXY_OBJECT
  5
350A
102
{ACAD_REACTORS
330
3504
102
}
330
3504
100
AcDbProxyObject
 90
      499
 91
      511
 93
      444
310
430C9915DA5C99599C985B59401049028333333333333E3BF0000000000000FB0107901411070040501600405405064090741402480A0340
 94
        0
1001
ACAD
1000
AcDbSavedByObjectVersion
1070
     0
1000
AcadProxyRoundTripData
1071
      505
1071
   655383
1070
     0
  0
ACAD_PROXY_OBJECT
  5
350C
102
{ACAD_REACTORS
330
3504
102
}
330
3504
100
AcDbProxyObject
 90
      499
 91
      511
 93
      508
310
428CD108121A5919195B8010640502408333333333333E3BF0000000000000FB01079024090700405020000000000001110200405405064090740C02480A0340
 94
        0
1001
ACAD
1000
AcDbSavedByObjectVersion
1070
     0
1000
AcadProxyRoundTripData
1071
      505
1071
   655383
1070
     0
  0
ACAD_PROXY_OBJECT
  5
350B
102
{ACAD_REACTORS
330
3504
102
}
330
3504
100
AcDbProxyObject
 90
      499
 91
      511
 93
      444
310
430CD915DA5C99599C985B59401059028333333333333E3BF0000000000000FB0107901411070040501600405405064090741402480A0340
 94
        0
1001
ACAD
1000
AcDbSavedByObjectVersion
1070
     0
1000
AcadProxyRoundTripData
1071
      505
1071
   655383
1070
     0
  0
ACAD_PROXY_OBJECT
  5
3509
102
{ACAD_REACTORS
330
3504
102
}
330
3504
100
AcDbProxyObject
 90
      499
 91
      511
 93
      396
310
4190985CDA58C0107406404333333333333E3BF0000000000000FB0107A41107004050150841D405064090741402480A0356
 94
        0
1001
ACAD
1000
AcDbSavedByObjectVersion
1070
     0
1000
AcadProxyRoundTripData
1071
      505
1071
   655383
1070
     0
  0
ACAD_PROXY_OBJECT
  5
3510
102
{ACAD_REACTORS
330
3504
102
}
330
3504
100
AcDbProxyObject
 90
      499
 91
      511
 93
      436
310
42509C9A59DA1D195B8010C409028333333333333E3BF0000000000000FB010790141107004050150841D405064090741402480A029956
 94
        0
1001
ACAD
1000
AcDbSavedByObjectVersion
1070
     0
1000
AcadProxyRoundTripData
1071
      505
1071
   655383
1070
     0
  0
ACAD_PROXY_OBJECT
  5
3514
102
{ACAD_REACTORS
330
3504
102
}
330
3504
100
AcDbProxyObject
 90
      499
 91
      511
 93
      460
310
4310DBDB1BDC90DA185B99D9401104090240C333333333333E3BF0000000000000FB0108901411070040501508421405064090741402480A0354
 94
        0
1001
ACAD
1000
AcDbSavedByObjectVersion
1070
     0
1000
AcadProxyRoundTripData
1071
      505
1071
   655383
1070
     0
  0
ACAD_PROXY_OBJECT
  5
350D
102
{ACAD_REACTORS
330
3504
102
}
330
3504
100
AcDbProxyObject
 90
      499
 91
      511
 93
      508
310
42D0DBDB98D95C1D1D585B0010940D028333333333333E3BF0000000000000FB0107902409070040501000000000000111010841D405064090740C02480A0340
 94
        0
1001
ACAD
1000
AcDbSavedByObjectVersion
1070
     0
1000
AcadProxyRoundTripData
1071
      505
1071
   655383
1070
     0
  0
ACAD_PROXY_OBJECT
  5
350F
102
{ACAD_REACTORS
330
3504
102
}
330
3504
100
AcDbProxyObject
 90
      499
 91
      511
 93
      420
310
41111A5B4010B409028333333333333E3BF0000000000000FB010790141107004050150841D405064090741402480A02677FFFFFDB
 94
        0
1001
ACAD
1000
AcDbSavedByObjectVersion
1070
     0
1000
AcadProxyRoundTripData
1071
      505
1071
   655383
1070
     0
  0
ACAD_PROXY_OBJECT
  5
3513
102
{ACAD_REACTORS
330
3504
102
}
330
3504
100
AcDbProxyObject
 90
      499
 91
      511
 93
      452
310
43119858D95C185D1D195C9B8010F409028333333333333E3BF0000000000000FB010790141107004050150841D405064090741402480A0350
 94
        0
1001
ACAD
1000
AcDbSavedByObjectVersion
1070
     0
1000
AcadProxyRoundTripData
1071
      505
1071
   655383
1070
     0
  0
ACAD_PROXY_OBJECT
  5
3505
102
{ACAD_REACTORS
330
3504
102
}
330
3504
100
AcDbProxyObject
 90
      499
 91
      511
 93
      396
310
41519B185D00240901404333333333333E3BF0000000000000F9010740A41107004050150841D405064090741402480A1B55
 94
        0
1001
ACAD
1000
AcDbSavedByObjectVersion
1070
     0
1000
AcadProxyRoundTripData
1071
      505
1071
   655383
1070
     0
  0
ACAD_PROXY_OBJECT
  5
3506
102
{ACAD_REACTORS
330
3504
102
}
330
3504
100
AcDbProxyObject
 90
      499
 91
      511
 93
      484
310
43919B185D15DA5D1A115919D95CC010140901404333333333333E3BF0000000000000F9010740901411070040501600405405064090741402480A1B50
 94
        0
1001
ACAD
1000
AcDbSavedByObjectVersion
1070
     0
1000
AcadProxyRoundTripData
1071
      505
1071
   655383
1070
     0
  0
ACAD_PROXY_OBJECT
  5
3507
102
{ACAD_REACTORS
330
3504
102
}
330
3504
100
AcDbProxyObject
 90
      499
 91
      511
 93
      420
310
4211DBDD5C985D590010240902404333333333333E3BF0000000000000F9010740A411070040501641D405064090741402480A1B50
 94
        0
1001
ACAD
1000
AcDbSavedByObjectVersion
1070
     0
1000
AcadProxyRoundTripData
1071
      505
1071
   655383
1070
     0
  0
ACAD_PROXY_OBJECT
  5
3508
102
{ACAD_REACTORS
330
3504
102
}
330
3504
100
AcDbProxyObject
 90
      499
 91
      511
 93
      508
310
4451DBDD5C985D5915DA5D1A115919D95CC010340902404333333333333E3BF0000000000000F9010740901411070040501600405405064090741402480A1B50
 94
        0
1001
ACAD
1000
AcDbSavedByObjectVersion
1070
     0
1000
AcadProxyRoundTripData
1071
      505
1071
   655383
1070
     0
  0
ACAD_PROXY_OBJECT
  5
3512
102
{ACAD_REACTORS
330
3504
102
}
330
3504
100
AcDbProxyObject
 90
      499
 91
      511
 93
      452
310
43131A5B995C185D1D195C9B8010E409028333333333333E3BF0000000000000FB010790141107004050750841D405064090741402483A0350
 94
        0
1001
ACAD
1000
AcDbSavedByObjectVersion
1070
     0
1000
AcadProxyRoundTripData
1071
      505
1071
   655383
1070
     0
  0
ACAD_PROXY_OBJECT
  5
350E
102
{ACAD_REACTORS
330
3504
102
}
330
3504
100
AcDbProxyObject
 90
      499
 91
      511
 93
      428
310
429499585B1A5CDD1A58C0108409028333333333333E3BF0000000000000FB01079019070040501508421405064090741402480A1B45
 94
        0
1001
ACAD
1000
AcDbSavedByObjectVersion
1070
     0
1000
AcadProxyRoundTripData
1071
      505
1071
   655383
1070
     0
  0
ACAD_PROXY_OBJECT
  5
3511
102
{ACAD_REACTORS
330
3504
102
}
330
3504
100
AcDbProxyObject
 90
      499
 91
      511
 93
      420
310
42151A1A58DAD95B8010D409028333333333333E3BF0000000000000FB010790141107004050150C41D405064090741402480A0352
 94
        0
1001
ACAD
1000
AcDbSavedByObjectVersion
1070
     0
1000
AcadProxyRoundTripData
1071
      505
1071
   655383
1070
     0
  0
XRECORD
  5
35DE
102
{ACAD_REACTORS
330
35D4
102
}
330
35D4
100
AcDbXrecord
 90
        0
  0
XRECORD
  5
35E2
102
{ACAD_REACTORS
330
35D4
102
}
330
35D4
100
AcDbXrecord
1000
DSTYLE
1002
{
1070
   179
 70
     2
1070
   277
 70
     6
1002
}
  0
XRECORD
  5
35DF
102
{ACAD_REACTORS
330
35D4
102
}
330
35D4
100
AcDbXrecord
  1
{6385560B-F4B1-4644-A7C2-A3E32AC3D232}
  0
XRECORD
  5
35D7
102
{ACAD_REACTORS
330
35D4
102
}
330
35D4
100
AcDbXrecord
  1

  0
XRECORD
  5
35DD
102
{ACAD_REACTORS
330
35D4
102
}
330
35D4
100
AcDbXrecord
 90
        0
  0
XRECORD
  5
35D9
102
{ACAD_REACTORS
330
35D4
102
}
330
35D4
100
AcDbXrecord
340
61
  0
XRECORD
  5
35DC
102
{ACAD_REACTORS
330
35D4
102
}
330
35D4
100
AcDbXrecord
 90
    10781
  0
XRECORD
  5
35DA
102
{ACAD_REACTORS
330
35D4
102
}
330
35D4
100
AcDbXrecord
340
77
  0
XRECORD
  5
35DB
102
{ACAD_REACTORS
330
35D4
102
}
330
35D4
100
AcDbXrecord
340
6
  0
XRECORD
  5
35E1
102
{ACAD_REACTORS
330
35D4
102
}
330
35D4
100
AcDbXrecord
 40
0.0
  0
XRECORD
  5
35E5
102
{ACAD_REACTORS
330
35D4
102
}
330
35D4
100
AcDbXrecord
340
0
  0
XRECORD
  5
35EB
102
{ACAD_REACTORS
330
35D4
102
}
330
35D4
100
AcDbXrecord
 10
0.0
 20
0.0
 30
0.0
  0
XRECORD
  5
35E7
102
{ACAD_REACTORS
330
35D4
102
}
330
35D4
100
AcDbXrecord
 10
0.0
 20
0.0
 30
0.0
  0
XRECORD
  5
35EA
102
{ACAD_REACTORS
330
35D4
102
}
330
35D4
100
AcDbXrecord
 10
0.0
 20
0.0
 30
0.0
  0
XRECORD
  5
35E8
102
{ACAD_REACTORS
330
35D4
102
}
330
35D4
100
AcDbXrecord
 10
0.0
 20
0.0
 30
0.0
  0
XRECORD
  5
35E9
102
{ACAD_REACTORS
330
35D4
102
}
330
35D4
100
AcDbXrecord
 10
0.0
 20
0.0
 30
0.0
  0
XRECORD
  5
35E6
102
{ACAD_REACTORS
330
35D4
102
}
330
35D4
100
AcDbXrecord
 10
0.0
 20
0.0
 30
0.0
  0
XRECORD
  5
35E3
102
{ACAD_REACTORS
330
35D4
102
}
330
35D4
100
AcDbXrecord
340
0
  0
XRECORD
  5
35E4
102
{ACAD_REACTORS
330
35D4
102
}
330
35D4
100
AcDbXrecord
 70
     0
  0
XRECORD
  5
35D8
102
{ACAD_REACTORS
330
35D4
102
}
330
35D4
100
AcDbXrecord
  1
Sekkei.ctb
  0
XRECORD
  5
35D5
102
{ACAD_REACTORS
330
35D4
102
}
330
35D4
100
AcDbXrecord
 90
        1
  0
XRECORD
  5
35D6
102
{ACAD_REACTORS
330
35D4
102
}
330
35D4
100
AcDbXrecord
 90
       70
  0
XRECORD
  5
35EE
102
{ACAD_REACTORS
330
35D4
102
}
330
35D4
100
AcDbXrecord
340
0
  0
XRECORD
  5
35F4
102
{ACAD_REACTORS
330
35D4
102
}
330
35D4
100
AcDbXrecord
 10
0.0
 20
0.0
 30
0.0
  0
XRECORD
  5
35F0
102
{ACAD_REACTORS
330
35D4
102
}
330
35D4
100
AcDbXrecord
 10
0.0
 20
0.0
 30
0.0
  0
XRECORD
  5
35F3
102
{ACAD_REACTORS
330
35D4
102
}
330
35D4
100
AcDbXrecord
 10
0.0
 20
0.0
 30
0.0
  0
XRECORD
  5
35F1
102
{ACAD_REACTORS
330
35D4
102
}
330
35D4
100
AcDbXrecord
 10
0.0
 20
0.0
 30
0.0
  0
XRECORD
  5
35F2
102
{ACAD_REACTORS
330
35D4
102
}
330
35D4
100
AcDbXrecord
 10
0.0
 20
0.0
 30
0.0
  0
XRECORD
  5
35EF
102
{ACAD_REACTORS
330
35D4
102
}
330
35D4
100
AcDbXrecord
 10
0.0
 20
0.0
 30
0.0
  0
XRECORD
  5
35EC
102
{ACAD_REACTORS
330
35D4
102
}
330
35D4
100
AcDbXrecord
340
0
  0
XRECORD
  5
35ED
102
{ACAD_REACTORS
330
35D4
102
}
330
35D4
100
AcDbXrecord
 70
     0
  0
XRECORD
  5
35E0
102
{ACAD_REACTORS
330
35D4
102
}
330
35D4
100
AcDbXrecord
  1
{E53228C3-8B7B-4F5E-B3B3-CE9B7DA14B7B}
  0
DICTIONARYVAR
  5
3591
102
{ACAD_REACTORS
330
102
102
}
330
102
100
DictionaryVariables
280
     0
  1
1:1
  0
DICTIONARYVAR
  5
3590
102
{ACAD_REACTORS
330
102
102
}
330
102
100
DictionaryVariables
280
     0
  1
STANDARD
  0
DICTIONARYVAR
  5
358F
102
{ACAD_REACTORS
330
102
102
}
330
102
100
DictionaryVariables
280
     0
  1
STANDARD
  0
DICTIONARYVAR
  5
103
102
{ACAD_REACTORS
330
102
102
}
330
102
100
DictionaryVariables
280
     0
  1
1
  0
DICTIONARYVAR
  5
3592
102
{ACAD_REACTORS
330
102
102
}
330
102
100
DictionaryVariables
280
     0
  1
0
  0
DICTIONARYVAR
  5
549
102
{ACAD_REACTORS
330
102
102
}
330
102
100
DictionaryVariables
280
     0
  1
96
  0
DICTIONARY
  5
34F5
330
34F4
100
AcDbDictionary
280
     1
  3
ACAD_XREC_ROUNDTRIP
360
35B9
  3
BUMPTILE
360
34F7
  3
DIFFUSETILE
360
34F6
  3
OPACITYTILE
360
34FA
  3
REFLECTIONTILE
360
34F9
  3
REFRACTIONTILE
360
34FB
  3
SPECULARTILE
360
34F8
  0
DICTIONARY
  5
34ED
330
34EC
100
AcDbDictionary
280
     1
  3
ACAD_XREC_ROUNDTRIP
360
35B8
  3
BUMPTILE
360
34EF
  3
DIFFUSETILE
360
34EE
  3
OPACITYTILE
360
34F2
  3
REFLECTIONTILE
360
34F1
  3
REFRACTIONTILE
360
34F3
  3
SPECULARTILE
360
34F0
  0
DICTIONARY
  5
34FD
330
34FC
100
AcDbDictionary
280
     1
  3
ACAD_XREC_ROUNDTRIP
360
35BA
  3
BUMPTILE
360
34FF
  3
DIFFUSETILE
360
34FE
  3
OPACITYTILE
360
3502
  3
REFLECTIONTILE
360
3501
  3
REFRACTIONTILE
360
3503
  3
SPECULARTILE
360
3500
  0
DICTIONARY
  5
356F
330
3517
100
AcDbDictionary
280
     1
  3
ACAD_ROUNDTRIP_2008_TABLES
360
35A0
  3
ACAD_XREC_ROUNDTRIP
360
35BB
  0
XRECORD
  5
35B9
102
{ACAD_REACTORS
330
34F5
102
}
330
34F5
100
AcDbXrecord
102
MATERIAL
148
0.0
149
0.0
149
0.0
 93
        0
 94
      127
282
     0
 72
     0
 77
     0
171
     0
175
     0
179
     0
273
     0
  0
XRECORD
  5
34F7
102
{ACAD_REACTORS
330
34F5
102
}
330
34F5
100
AcDbXrecord
270
     1
271
     1
  0
XRECORD
  5
34F6
102
{ACAD_REACTORS
330
34F5
102
}
330
34F5
100
AcDbXrecord
270
     1
271
     1
  0
XRECORD
  5
34FA
102
{ACAD_REACTORS
330
34F5
102
}
330
34F5
100
AcDbXrecord
270
     1
271
     1
  0
XRECORD
  5
34F9
102
{ACAD_REACTORS
330
34F5
102
}
330
34F5
100
AcDbXrecord
270
     1
271
     1
  0
XRECORD
  5
34FB
102
{ACAD_REACTORS
330
34F5
102
}
330
34F5
100
AcDbXrecord
270
     1
271
     1
  0
XRECORD
  5
34F8
102
{ACAD_REACTORS
330
34F5
102
}
330
34F5
100
AcDbXrecord
270
     1
271
     1
  0
XRECORD
  5
35B8
102
{ACAD_REACTORS
330
34ED
102
}
330
34ED
100
AcDbXrecord
102
MATERIAL
148
0.0
149
0.0
149
0.0
 93
        0
 94
      127
282
     0
 72
     0
 77
     0
171
     0
175
     0
179
     0
273
     0
  0
XRECORD
  5
34EF
102
{ACAD_REACTORS
330
34ED
102
}
330
34ED
100
AcDbXrecord
270
     1
271
     1
  0
XRECORD
  5
34EE
102
{ACAD_REACTORS
330
34ED
102
}
330
34ED
100
AcDbXrecord
270
     1
271
     1
  0
XRECORD
  5
34F2
102
{ACAD_REACTORS
330
34ED
102
}
330
34ED
100
AcDbXrecord
270
     1
271
     1
  0
XRECORD
  5
34F1
102
{ACAD_REACTORS
330
34ED
102
}
330
34ED
100
AcDbXrecord
270
     1
271
     1
  0
XRECORD
  5
34F3
102
{ACAD_REACTORS
330
34ED
102
}
330
34ED
100
AcDbXrecord
270
     1
271
     1
  0
XRECORD
  5
34F0
102
{ACAD_REACTORS
330
34ED
102
}
330
34ED
100
AcDbXrecord
270
     1
271
     1
  0
XRECORD
  5
35BA
102
{ACAD_REACTORS
330
34FD
102
}
330
34FD
100
AcDbXrecord
102
MATERIAL
148
0.0
149
0.0
149
0.0
 93
        0
 94
      127
282
     0
 72
     0
 77
     0
171
     0
175
     0
179
     0
273
     0
  0
XRECORD
  5
34FF
102
{ACAD_REACTORS
330
34FD
102
}
330
34FD
100
AcDbXrecord
270
     1
271
     1
  0
XRECORD
  5
34FE
102
{ACAD_REACTORS
330
34FD
102
}
330
34FD
100
AcDbXrecord
270
     1
271
     1
  0
XRECORD
  5
3502
102
{ACAD_REACTORS
330
34FD
102
}
330
34FD
100
AcDbXrecord
270
     1
271
     1
  0
XRECORD
  5
3501
102
{ACAD_REACTORS
330
34FD
102
}
330
34FD
100
AcDbXrecord
270
     1
271
     1
  0
XRECORD
  5
3503
102
{ACAD_REACTORS
330
34FD
102
}
330
34FD
100
AcDbXrecord
270
     1
271
     1
  0
XRECORD
  5
3500
102
{ACAD_REACTORS
330
34FD
102
}
330
34FD
100
AcDbXrecord
270
     1
271
     1
  0
ACAD_PROXY_OBJECT
  5
35A0
102
{ACAD_REACTORS
330
356F
102
}
330
356F
100
AcDbProxyObject
 90
      499
 91
      511
 93
     1044
310
40D054060020000020000003200101A000080002A5058000000C100000000000000340FE901405075F5449544C450041501A8000000C800406800020000A9416000000304000AD7A3703D0AC73FA409014217D2115051115480105406A0000003200101A000080002A5028000000C10002B5E8DC0F42B1CFE903409065F444
310
15441002
340
16
340
16
340
16
 94
        0
1001
ACAD
1000
AcadProxyRoundTripData
1071
      510
1071
   655383
1070
     0
  0
XRECORD
  5
35BB
102
{ACAD_REACTORS
330
356F
102
}
330
356F
100
AcDbXrecord
102
ACAD_ROUNDTRIP_PRE2007_TABLESTYLE
 90
      512
 91
        0
  1

 92
      512
 93
        0
  2

 94
      512
 95
        0
  3

  0
ENDSEC
  0
EOF
