  0
SECTION
  2
HEADER
  9
$ACADVER
  1
AC1014
  9
$ACADMAINTVER
 70
     9
  9
$DWGCODEPAGE
  3
ANSI_932
  9
$INSBASE
 10
0.0
 20
0.0
 30
0.0
  9
$EXTMIN
 10
17.86246554554224
 20
57.58037930481908
 30
0.0
  9
$EXTMAX
 10
998.9807611735827
 20
464.4776468282781
 30
0.0
  9
$LIMMIN
 10
0.0
 20
0.0
  9
$LIMMAX
 10
297.0
 20
210.0
  9
$ORTHOMODE
 70
     1
  9
$REGENMODE
 70
     1
  9
$FILLMODE
 70
     1
  9
$QTEXTMODE
 70
     0
  9
$MIRRTEXT
 70
     0
  9
$DRAGMODE
 70
     2
  9
$LTSCALE
 40
3.0
  9
$OSMODE
 70
    37
  9
$ATTMODE
 70
     1
  9
$TEXTSIZE
 40
2.0
  9
$TRACEWID
 40
1.0
  9
$TEXTSTYLE
  7
STANDARD
  9
$CLAYER
  8
0
  9
$CELTYPE
  6
BYLAYER
  9
$CECOLOR
 62
   256
  9
$CELTSCALE
 40
1.0
  9
$DELOBJ
 70
     1
  9
$DISPSILH
 70
     0
  9
$DIMSCALE
 40
3.0
  9
$DIMASZ
 40
1.8
  9
$DIMEXO
 40
0.625
  9
$DIMDLI
 40
3.75
  9
$DIMRND
 40
0.0
  9
$DIMDLE
 40
0.0
  9
$DIMEXE
 40
0.8
  9
$DIMTP
 40
0.0
  9
$DIMTM
 40
0.0
  9
$DIMTXT
 40
1.8
  9
$DIMCEN
 40
2.5
  9
$DIMTSZ
 40
0.0
  9
$DIMTOL
 70
     0
  9
$DIMLIM
 70
     0
  9
$DIMTIH
 70
     0
  9
$DIMTOH
 70
     0
  9
$DIMSE1
 70
     0
  9
$DIMSE2
 70
     0
  9
$DIMTAD
 70
     1
  9
$DIMZIN
 70
     8
  9
$DIMBLK
  1

  9
$DIMASO
 70
     1
  9
$DIMSHO
 70
     1
  9
$DIMPOST
  1

  9
$DIMAPOST
  1

  9
$DIMALT
 70
     0
  9
$DIMALTD
 70
     4
  9
$DIMALTF
 40
0.0394
  9
$DIMLFAC
 40
1.0
  9
$DIMTOFL
 70
     1
  9
$DIMTVP
 40
0.0
  9
$DIMTIX
 70
     0
  9
$DIMSOXD
 70
     0
  9
$DIMSAH
 70
     0
  9
$DIMBLK1
  1

  9
$DIMBLK2
  1

  9
$DIMSTYLE
  2
STANDARD
  9
$DIMCLRD
 70
     0
  9
$DIMCLRE
 70
     0
  9
$DIMCLRT
 70
     0
  9
$DIMTFAC
 40
1.0
  9
$DIMGAP
 40
0.75
  9
$DIMJUST
 70
     0
  9
$DIMSD1
 70
     0
  9
$DIMSD2
 70
     0
  9
$DIMTOLJ
 70
     1
  9
$DIMTZIN
 70
     0
  9
$DIMALTZ
 70
     0
  9
$DIMALTTZ
 70
     0
  9
$DIMFIT
 70
     3
  9
$DIMUPT
 70
     0
  9
$DIMUNIT
 70
     8
  9
$DIMDEC
 70
     2
  9
$DIMTDEC
 70
     2
  9
$DIMALTU
 70
     8
  9
$DIMALTTD
 70
     4
  9
$DIMTXSTY
  7
STANDARD
  9
$DIMAUNIT
 70
     0
  9
$LUNITS
 70
     2
  9
$LUPREC
 70
     3
  9
$SKETCHINC
 40
1.0
  9
$FILLETRAD
 40
10.0
  9
$AUNITS
 70
     0
  9
$AUPREC
 70
     2
  9
$MENU
  1
.
  9
$ELEVATION
 40
0.0
  9
$PELEVATION
 40
0.0
  9
$THICKNESS
 40
0.0
  9
$LIMCHECK
 70
     0
  9
$BLIPMODE
 70
     0
  9
$CHAMFERA
 40
0.0
  9
$CHAMFERB
 40
0.0
  9
$CHAMFERC
 40
20.0
  9
$CHAMFERD
 40
0.0
  9
$SKPOLY
 70
     0
  9
$TDCREATE
 40
2454410.729626366
  9
$TDUPDATE
 40
2454425.765431493
  9
$TDINDWG
 40
0.0613094907
  9
$TDUSRTIMER
 40
0.0613094907
  9
$USRTIMER
 70
     1
  9
$ANGBASE
 50
0.0
  9
$ANGDIR
 70
     0
  9
$PDMODE
 70
     0
  9
$PDSIZE
 40
-10.0
  9
$PLINEWID
 40
0.0
  9
$COORDS
 70
     0
  9
$SPLFRAME
 70
     0
  9
$SPLINETYPE
 70
     6
  9
$SPLINESEGS
 70
     8
  9
$ATTDIA
 70
     0
  9
$ATTREQ
 70
     1
  9
$HANDLING
 70
-16383
  9
$HANDSEED
  5
2B40
  9
$SURFTAB1
 70
     6
  9
$SURFTAB2
 70
     6
  9
$SURFTYPE
 70
     6
  9
$SURFU
 70
     6
  9
$SURFV
 70
     6
  9
$UCSNAME
  2

  9
$UCSORG
 10
0.0
 20
0.0
 30
0.0
  9
$UCSXDIR
 10
1.0
 20
0.0
 30
0.0
  9
$UCSYDIR
 10
0.0
 20
1.0
 30
0.0
  9
$PUCSNAME
  2

  9
$PUCSORG
 10
0.0
 20
0.0
 30
0.0
  9
$PUCSXDIR
 10
1.0
 20
0.0
 30
0.0
  9
$PUCSYDIR
 10
0.0
 20
1.0
 30
0.0
  9
$USERI1
 70
     0
  9
$USERI2
 70
     0
  9
$USERI3
 70
     0
  9
$USERI4
 70
     0
  9
$USERI5
 70
     0
  9
$USERR1
 40
0.0
  9
$USERR2
 40
0.0
  9
$USERR3
 40
0.0
  9
$USERR4
 40
0.0
  9
$USERR5
 40
0.0
  9
$WORLDVIEW
 70
     1
  9
$SHADEDGE
 70
     3
  9
$SHADEDIF
 70
    70
  9
$TILEMODE
 70
     1
  9
$MAXACTVP
 70
    48
  9
$PINSBASE
 10
0.0
 20
0.0
 30
0.0
  9
$PLIMCHECK
 70
     0
  9
$PEXTMIN
 10
0.0
 20
0.0
 30
0.0
  9
$PEXTMAX
 10
0.0
 20
0.0
 30
0.0
  9
$PLIMMIN
 10
0.0
 20
0.0
  9
$PLIMMAX
 10
12.0
 20
9.0
  9
$UNITMODE
 70
     0
  9
$VISRETAIN
 70
     1
  9
$PLINEGEN
 70
     0
  9
$PSLTSCALE
 70
     1
  9
$TREEDEPTH
 70
  3020
  9
$PICKSTYLE
 70
     1
  9
$CMLSTYLE
  2
STANDARD
  9
$CMLJUST
 70
     0
  9
$CMLSCALE
 40
1.0
  9
$PROXYGRAPHICS
 70
     1
  9
$MEASUREMENT
 70
     0
  0
ENDSEC
  0
SECTION
  2
CLASSES
  0
CLASS
  1
DICTIONARYVAR
  2
AcDbDictionaryVar
  3
AutoCAD 2000
 90
        0
280
     0
281
     0
  0
CLASS
  1
ACDBDICTIONARYWDFLT
  2
AcDbDictionaryWithDefault
  3
AutoCAD 2000
 90
        0
280
     0
281
     0
  0
CLASS
  1
ACDBPLACEHOLDER
  2
AcDbPlaceHolder
  3
AutoCAD 2000
 90
        0
280
     0
281
     0
  0
CLASS
  1
LAYOUT
  2
AcDbLayout
  3
AutoCAD 2000
 90
        0
280
     0
281
     0
  0
CLASS
  1
MATERIAL
  2
AcDbMaterial
  3
ObjectDBX Classes
 90
     1153
280
     0
281
     0
  0
CLASS
  1
VISUALSTYLE
  2
AcDbVisualStyle
  3
ObjectDBX Classes
 90
     4095
280
     0
281
     0
  0
CLASS
  1
TABLESTYLE
  2
AcDbTableStyle
  3
ObjectDBX Classes
 90
     4095
280
     0
281
     0
  0
CLASS
  1
SCALE
  2
AcDbScale
  3
ObjectDBX Classes
 90
     1153
280
     0
281
     0
  0
CLASS
  1
MLEADERSTYLE
  2
AcDbMLeaderStyle
  3
ACDB_MLEADERSTYLE_CLASS
 90
     4095
280
     0
281
     0
  0
CLASS
  1
CELLSTYLEMAP
  2
AcDbCellStyleMap
  3
ObjectDBX Classes
 90
     1152
280
     0
281
     0
  0
CLASS
  1
ACAD_PROXY_OBJECT_WRAPPER
  2
AcDbProxyObjectWrapper
  3
AutoCAD 2000
 90
        0
280
     0
281
     0
  0
CLASS
  1
LONG_TRANSACTION
  2
AcDbLongTransaction
  3
AutoCAD 2000
 90
        0
280
     0
281
     0
  0
CLASS
  1
LWPOLYLINE
  2
AcDbPolyline
  3
AutoCAD 2000
 90
        0
280
     0
281
     1
  0
CLASS
  1
HATCH
  2
AcDbHatch
  3
AutoCAD 2000
 90
        0
280
     0
281
     1
  0
CLASS
  1
XRECORD
  2
AcDbXrecord
  3
AutoCAD 2000
 90
        0
280
     0
281
     0
  0
ENDSEC
  0
SECTION
  2
TABLES
  0
TABLE
  2
VPORT
  5
6E
102
{ACAD_XDICTIONARY
360
1E04
102
}
330
0
100
AcDbSymbolTable
 70
     2
  0
VPORT
  5
2B1A
330
6E
100
AcDbSymbolTableRecord
100
AcDbViewportTableRecord
  2
*ACTIVE
 70
     0
 10
0.0
 20
0.0
 11
1.0
 21
1.0
 12
578.3369099974058
 22
251.8708295494813
 13
0.0
 23
0.0
 14
10.0
 24
10.0
 15
10.0
 25
10.0
 16
0.0
 26
0.0
 36
1.0
 17
0.0
 27
0.0
 37
0.0
 40
642.167112480754
 41
1.753504672897196
 42
50.0
 43
0.0
 44
0.0
 50
0.0
 51
0.0
 71
     0
 72
   100
 73
     1
 74
     3
 75
     0
 76
     0
 77
     0
 78
     0
  0
ENDTAB
  0
TABLE
  2
LTYPE
  5
69
330
0
100
AcDbSymbolTable
 70
     5
  0
LTYPE
  5
6A
330
69
100
AcDbSymbolTableRecord
100
AcDbLinetypeTableRecord
  2
BYBLOCK
 70
     0
  3

 72
    65
 73
     0
 40
0.0
  0
LTYPE
  5
6B
330
69
100
AcDbSymbolTableRecord
100
AcDbLinetypeTableRecord
  2
BYLAYER
 70
     0
  3

 72
    65
 73
     0
 40
0.0
  0
LTYPE
  5
8
330
69
100
AcDbSymbolTableRecord
100
AcDbLinetypeTableRecord
  2
CONTINUOUS
 70
     0
  3
Solid line
 72
    65
 73
     0
 40
0.0
  0
LTYPE
  5
27C
330
69
100
AcDbSymbolTableRecord
100
AcDbLinetypeTableRecord
  2
SEKKEI_A2_
 70
     0
  3
center(A2)  ____ _ ____ _ ____ _ ____ _ ____ _ 
 72
    65
 73
     4
 40
14.28749999999999
 49
9.525
 74
     0
 49
-1.587499999999999
 74
     0
 49
1.587499999999999
 74
     0
 49
-1.587499999999999
 74
     0
  0
LTYPE
  5
7F0
330
69
100
AcDbSymbolTableRecord
100
AcDbLinetypeTableRecord
  2
HIDDEN3
 70
     0
  3
Hidden (.3x) _ _ _ _ _ _ _ _ _ _ _ _ _ _ _ _ _
 72
    65
 73
     2
 40
2.857499999999999
 49
1.905
 74
     0
 49
-0.9525
 74
     0
  0
LTYPE
  5
ADA
330
69
100
AcDbSymbolTableRecord
100
AcDbLinetypeTableRecord
  2
CENS
 70
     0
  3
(一点鎖線１)---- - ---- - ---- - ---- - ---- - 
 72
    65
 73
     4
 40
7.0
 49
4.0
 74
     0
 49
-1.0
 74
     0
 49
1.0
 74
     0
 49
-1.0
 74
     0
  0
ENDTAB
  0
TABLE
  2
LAYER
  5
66
102
{ACAD_XDICTIONARY
360
ADB
102
}
330
0
100
AcDbSymbolTable
 70
     9
  0
LAYER
  5
5E
102
{ACAD_XDICTIONARY
360
1DC3
102
}
330
66
100
AcDbSymbolTableRecord
100
AcDbLayerTableRecord
  2
0
 70
     0
 62
     7
  6
CONTINUOUS
  0
LAYER
  5
3E
102
{ACAD_XDICTIONARY
360
1DC5
102
}
330
66
100
AcDbSymbolTableRecord
100
AcDbLayerTableRecord
  2
CENTER
 70
     0
 62
     3
  6
SEKKEI_A2_
  0
LAYER
  5
2B5
102
{ACAD_XDICTIONARY
360
1DCB
102
}
330
66
100
AcDbSymbolTableRecord
100
AcDbLayerTableRecord
  2
HIDS
 70
     0
 62
     1
  6
HIDDEN3
  0
LAYER
  5
2BA
102
{ACAD_XDICTIONARY
360
1DCD
102
}
330
66
100
AcDbSymbolTableRecord
100
AcDbLayerTableRecord
  2
HOJO
 70
     0
 62
     4
  6
CONTINUOUS
  0
LAYER
  5
3FA
102
{ACAD_XDICTIONARY
360
1DD1
102
}
330
66
100
AcDbSymbolTableRecord
100
AcDbLayerTableRecord
  2
TITLE
 70
     0
 62
     4
  6
CONTINUOUS
  0
ENDTAB
  0
TABLE
  2
STYLE
  5
67
330
0
100
AcDbSymbolTable
 70
     2
  0
STYLE
  5
16
330
67
100
AcDbSymbolTableRecord
100
AcDbTextStyleTableRecord
  2
STANDARD
 70
     0
 40
0.0
 41
1.0
 50
0.0
 71
     0
 42
2.0
  3
simplex.shx
  4
extfont.shx
  0
ENDTAB
  0
TABLE
  2
VIEW
  5
6C
330
0
100
AcDbSymbolTable
 70
     0
  0
ENDTAB
  0
TABLE
  2
UCS
  5
6D
330
0
100
AcDbSymbolTable
 70
     0
  0
ENDTAB
  0
TABLE
  2
APPID
  5
70
330
0
100
AcDbSymbolTable
 70
     3
  0
APPID
  5
71
330
70
100
AcDbSymbolTableRecord
100
AcDbRegAppTableRecord
  2
ACAD
 70
     0
  0
APPID
  5
1DC0
330
70
100
AcDbSymbolTableRecord
100
AcDbRegAppTableRecord
  2
ACAD_MLEADERVER
 70
     0
  0
APPID
  5
1DF8
330
70
100
AcDbSymbolTableRecord
100
AcDbRegAppTableRecord
  2
ACAD_DSTYLE_DIMRADIAL_EXTENSION
 70
     0
  0
ENDTAB
  0
TABLE
  2
DIMSTYLE
  5
72
330
0
100
AcDbSymbolTable
 70
     1
  0
DIMSTYLE
105
73
330
72
100
AcDbSymbolTableRecord
100
AcDbDimStyleTableRecord
  2
STANDARD
 70
     0
  3

  4

  5

  6

  7

 40
3.0
 41
1.8
 42
0.625
 43
3.75
 44
0.8
 45
0.0
 46
0.0
 47
0.0
 48
0.0
140
1.8
141
2.5
142
0.0
143
0.0394
144
1.0
145
0.0
146
1.0
147
0.75
 71
     0
 72
     0
 73
     0
 74
     0
 75
     0
 76
     0
 77
     1
 78
     8
170
     0
171
     4
172
     1
173
     0
174
     0
175
     0
176
     0
177
     0
178
     0
270
     8
271
     2
272
     2
273
     8
274
     4
340
16
275
     0
280
     0
281
     0
282
     0
283
     1
284
     0
285
     0
286
     0
287
     3
288
     0
  0
ENDTAB
  0
TABLE
  2
BLOCK_RECORD
  5
1
330
0
100
AcDbSymbolTable
 70
    46
  0
BLOCK_RECORD
  5
2
102
{ACAD_XDICTIONARY
360
2B3C
102
}
330
1
100
AcDbSymbolTableRecord
100
AcDbBlockTableRecord
  2
*MODEL_SPACE
  0
BLOCK_RECORD
  5
2B15
102
{ACAD_XDICTIONARY
360
2B3E
102
}
330
1
100
AcDbSymbolTableRecord
100
AcDbBlockTableRecord
  2
*PAPER_SPACE
  0
ENDTAB
  0
ENDSEC
  0
SECTION
  2
BLOCKS
  0
BLOCK
  5
5D
330
2
100
AcDbEntity
  8
0
100
AcDbBlockBegin
  2
*MODEL_SPACE
 70
     0
 10
0.0
 20
0.0
 30
0.0
  3
*MODEL_SPACE
  1

  0
ENDBLK
  5
5F
330
2
100
AcDbEntity
  8
0
100
AcDbBlockEnd
  0
BLOCK
  5
2B17
330
2B15
100
AcDbEntity
 67
     1
  8
0
100
AcDbBlockBegin
  2
*PAPER_SPACE
 70
     0
 10
0.0
 20
0.0
 30
0.0
  3
*PAPER_SPACE
  1

  0
ENDBLK
  5
2B18
330
2B15
100
AcDbEntity
 67
     1
  8
0
100
AcDbBlockEnd
  0
ENDSEC
  0
SECTION
  2
ENTITIES
  0
LINE
  5
F05
330
2
100
AcDbEntity
  8
CENTER
100
AcDbLine
 10
998.9807611735827
 20
116.580379304796
 30
0.0
 11
840.9804856188621
 21
116.580379304796
 31
0.0
  0
LINE
  5
F06
330
2
100
AcDbEntity
  8
CENTER
100
AcDbLine
 10
943.9804856188708
 20
168.080379304811
 30
0.0
 11
943.9804856188708
 21
65.08037930481194
 31
0.0
  0
LINE
  5
F07
330
2
100
AcDbEntity
  8
0
100
AcDbLine
 10
900.9804856188672
 20
156.9956791628299
 30
0.0
 11
900.9804856188653
 21
76.16507944676531
 31
0.0
  0
LINE
  5
F08
330
2
100
AcDbEntity
  8
0
100
AcDbLine
 10
895.980485618868
 20
151.580379304791
 30
0.0
 11
895.980485618868
 21
81.58037930479101
 31
0.0
  0
LINE
  5
F09
330
2
100
AcDbEntity
  8
0
100
AcDbLine
 10
894.0502846122733
 20
144.966945203759
 30
0.0
 11
884.9106866254638
 21
144.6477834092149
 31
0.0
  0
ARC
  5
F0A
330
2
100
AcDbEntity
  8
0
100
AcDbCircle
 10
893.9804856188681
 20
146.9657268577969
 30
0.0
 40
2.0
100
AcDbArc
 50
272.0000000000036
 51
0.0
  0
LINE
  5
F0B
330
2
100
AcDbEntity
  8
0
100
AcDbLine
 10
882.9804856188699
 20
142.6490017551762
 30
0.0
 11
882.9804856188681
 21
90.51175685440583
 31
0.0
  0
ARC
  5
F0C
330
2
100
AcDbEntity
  8
0
100
AcDbCircle
 10
884.9804856188681
 20
142.6490017551762
 30
0.0
 40
2.0
100
AcDbArc
 50
92.00000000000365
 51
180.0
  0
ARC
  5
F0D
330
2
100
AcDbEntity
  8
0
100
AcDbCircle
 10
884.9804856188681
 20
90.51175685440583
 30
0.0
 40
2.0
100
AcDbArc
 50
180.0
 51
267.9999999999963
  0
LINE
  5
F0E
330
2
100
AcDbEntity
  8
0
100
AcDbLine
 10
894.0502846122733
 20
88.19381340582211
 30
0.0
 11
884.9106866254629
 21
88.51297520036704
 31
0.0
  0
ARC
  5
F0F
330
2
100
AcDbEntity
  8
0
100
AcDbCircle
 10
893.9804856188681
 20
86.19503175178332
 30
0.0
 40
2.0
100
AcDbArc
 50
0.0
 51
87.99999999999636
  0
LINE
  5
F10
330
2
100
AcDbEntity
  8
0
100
AcDbLine
 10
980.0414566949545
 20
75.52014724476456
 30
0.0
 11
943.9804856188699
 21
75.08037930481194
 31
0.0
  0
LINE
  5
F11
330
2
100
AcDbEntity
  8
0
100
AcDbLine
 10
907.9195145427844
 20
75.52014724476638
 30
0.0
 11
943.980485618869
 21
75.08037930481194
 31
0.0
  0
LINE
  5
F12
330
2
100
AcDbEntity
  8
0
100
AcDbLine
 10
907.9195145427844
 20
157.6406113648575
 30
0.0
 11
920.1677614480429
 21
157.7899802295565
 31
0.0
  0
ARC
  5
F13
330
2
100
AcDbEntity
  8
0
100
AcDbCircle
 10
979.9804856188698
 20
152.6409831258918
 30
0.0
 40
5.0
100
AcDbArc
 50
44.50893050042473
 51
89.30130561700025
  0
ARC
  5
F14
330
2
100
AcDbEntity
  8
0
100
AcDbCircle
 10
907.9804856188699
 20
152.64098312589
 30
0.0
 40
5.0
100
AcDbArc
 50
90.69869438299972
 51
135.4910694996584
  0
ARC
  5
F15
330
2
100
AcDbEntity
  8
0
100
AcDbCircle
 10
907.9804856188699
 20
80.51977548373386
 30
0.0
 40
5.0
100
AcDbArc
 50
224.5089305159469
 51
269.3013056170002
  0
ARC
  5
F16
330
2
100
AcDbEntity
  8
0
100
AcDbCircle
 10
979.9804856188698
 20
80.51977548373205
 30
0.0
 40
5.0
100
AcDbArc
 50
270.6986943829997
 51
315.4910694839697
  0
LINE
  5
F17
330
2
100
AcDbEntity
  8
0
100
AcDbLine
 10
980.0414566949545
 20
157.6406113648593
 30
0.0
 11
943.9804856188699
 21
158.080379304811
 31
0.0
  0
LINE
  5
F18
330
2
100
AcDbEntity
  8
0
100
AcDbLine
 10
905.5963361305227
 20
76.12479752961215
 30
0.0
 11
900.9804856188653
 21
76.16507944676531
 31
0.0
  0
LINE
  5
F19
330
2
100
AcDbEntity
  8
0
100
AcDbLine
 10
905.5963361304772
 20
157.0359610799862
 30
0.0
 11
900.9804856188672
 21
156.9956791628299
 31
0.0
  0
LINE
  5
F1A
330
2
100
AcDbEntity
  8
0
100
AcDbLine
 10
900.9804856188681
 20
151.580379304791
 30
0.0
 11
895.980485618868
 21
151.580379304791
 31
0.0
  0
LINE
  5
F1B
330
2
100
AcDbEntity
  8
0
100
AcDbLine
 10
900.9804856188681
 20
81.58037930479101
 30
0.0
 11
895.980485618868
 21
81.58037930479101
 31
0.0
  0
LINE
  5
F1C
330
2
100
AcDbEntity
  8
0
100
AcDbLine
 10
985.9804856188626
 20
143.0803793047942
 30
0.0
 11
985.1573148871608
 21
143.0803793047942
 31
0.0
  0
LINE
  5
F1D
330
2
100
AcDbEntity
  8
0
100
AcDbLine
 10
985.9804856188617
 20
143.0803793047942
 30
0.0
 11
986.9804856188626
 21
142.5030290356046
 31
0.0
  0
LINE
  5
F1E
330
2
100
AcDbEntity
  8
0
100
AcDbLine
 10
986.9804856188663
 20
90.6577295739842
 30
0.0
 11
986.9804856188663
 21
142.5030290356019
 31
0.0
  0
LINE
  5
F1F
330
2
100
AcDbEntity
  8
0
100
AcDbLine
 10
985.9804856188617
 20
90.08037930479238
 30
0.0
 11
986.9804856188626
 21
90.65772957398237
 31
0.0
  0
LINE
  5
F20
330
2
100
AcDbEntity
  8
0
100
AcDbLine
 10
985.9804856188626
 20
90.08037930479238
 30
0.0
 11
985.1573148871617
 21
90.08037930479284
 31
0.0
  0
LINE
  5
F21
330
2
100
AcDbEntity
  8
0
100
AcDbLine
 10
985.9804856188626
 20
90.08037930479238
 30
0.0
 11
985.9804856188617
 21
143.0803793047942
 31
0.0
  0
LINE
  5
F30
330
2
100
AcDbEntity
  8
CENTER
100
AcDbLine
 10
218.8624655455422
 20
116.5803793048084
 30
0.0
 11
17.86246554554224
 21
116.5803793048084
 31
0.0
  0
LINE
  5
F34
330
2
100
AcDbEntity
  8
CENTER
100
AcDbLine
 10
541.2034988437492
 20
411.4776468309429
 30
0.0
 11
741.9984174463195
 21
411.477646830944
 31
0.0
  0
LINE
  5
F4D
330
2
100
AcDbEntity
  8
0
100
AcDbLine
 10
676.9984174506946
 20
158.0803793048177
 30
0.0
 11
676.9984174506946
 21
75.08037930481776
 31
0.0
  0
LINE
  5
F58
330
2
100
AcDbEntity
  8
0
100
AcDbLine
 10
82.86246554554224
 20
75.08037930480802
 30
0.0
 11
82.86246554554224
 21
158.080379304808
 31
0.0
  0
LINE
  5
F6D
330
2
100
AcDbEntity
  8
0
100
AcDbLine
 10
676.9984174463209
 20
452.4776468309434
 30
0.0
 11
676.9984174463209
 21
370.4776468309434
 31
0.0
  0
LINE
  5
1008
330
2
100
AcDbEntity
  8
CENTER
100
AcDbLine
 10
532.9984174506973
 20
116.5803793048141
 30
0.0
 11
741.9984174463236
 21
116.5803793048143
 31
0.0
  0
LINE
  5
1217
330
2
100
AcDbEntity
  8
0
100
AcDbLine
 10
685.9984174463209
 20
441.1276468309434
 30
0.0
 11
685.9984174463227
 21
381.8276468309433
 31
0.0
  0
LINE
  5
1218
330
2
100
AcDbEntity
  8
0
100
AcDbLine
 10
707.9984174463208
 20
408.4776468309433
 30
0.0
 11
707.9984174463208
 21
389.4776468309434
 31
0.0
  0
LINE
  5
1219
330
2
100
AcDbEntity
  8
0
100
AcDbLine
 10
710.9984174463209
 20
411.4776468309433
 30
0.0
 11
718.9984174463191
 21
411.4776468309433
 31
0.0
  0
LINE
  5
121A
330
2
100
AcDbEntity
  8
0
100
AcDbLine
 10
687.6039687217855
 20
451.4776468309434
 30
0.0
 11
731.9984174463191
 21
451.4776468309434
 31
0.0
  0
LINE
  5
121B
330
2
100
AcDbEntity
  8
0
100
AcDbLine
 10
721.998417446319
 20
446.4776468309434
 30
0.0
 11
721.998417446319
 21
414.4776468309434
 31
0.0
  0
ARC
  5
121C
330
2
100
AcDbEntity
  8
0
100
AcDbCircle
 10
726.998417446319
 20
446.4776468309434
 30
0.0
 40
5.0
100
AcDbArc
 50
90.0
 51
180.0
  0
ARC
  5
121D
330
2
100
AcDbEntity
  8
0
100
AcDbCircle
 10
718.9984174463191
 20
414.4776468309434
 30
0.0
 40
3.0
100
AcDbArc
 50
270.0
 51
0.0
  0
LINE
  5
121E
330
2
100
AcDbEntity
  8
0
100
AcDbLine
 10
676.9984174463209
 20
452.4776468309434
 30
0.0
 11
683.9984174463227
 21
452.4776468309434
 31
0.0
  0
ARC
  5
121F
330
2
100
AcDbEntity
  8
0
100
AcDbCircle
 10
687.6039687217855
 20
456.4776468309434
 30
0.0
 40
5.0
100
AcDbArc
 50
238.9972808660705
 51
270.0
  0
ARC
  5
1220
330
2
100
AcDbEntity
  8
0
100
AcDbCircle
 10
683.9984174463227
 20
450.4776468309434
 30
0.0
 40
2.0
100
AcDbArc
 50
18.96557498886414
 51
90.0
  0
ARC
  5
1221
330
2
100
AcDbEntity
  8
0
100
AcDbCircle
 10
710.9984174463209
 20
408.4776468309433
 30
0.0
 40
3.0
100
AcDbArc
 50
90.0
 51
180.0
  0
LINE
  5
1222
330
2
100
AcDbEntity
  8
0
100
AcDbLine
 10
687.6039687217855
 20
371.4776468309433
 30
0.0
 11
731.9984174463191
 21
371.4776468309431
 31
0.0
  0
LINE
  5
1223
330
2
100
AcDbEntity
  8
0
100
AcDbLine
 10
710.9984174463209
 20
386.4776468309433
 30
0.0
 11
718.9984174463191
 21
386.4776468309433
 31
0.0
  0
LINE
  5
1224
330
2
100
AcDbEntity
  8
0
100
AcDbLine
 10
721.998417446319
 20
383.4776468309433
 30
0.0
 11
721.998417446319
 21
376.4776468309431
 31
0.0
  0
ARC
  5
1225
330
2
100
AcDbEntity
  8
0
100
AcDbCircle
 10
718.9984174463191
 20
383.4776468309433
 30
0.0
 40
3.0
100
AcDbArc
 50
0.0
 51
90.0
  0
ARC
  5
1226
330
2
100
AcDbEntity
  8
0
100
AcDbCircle
 10
726.998417446319
 20
376.4776468309434
 30
0.0
 40
5.0
100
AcDbArc
 50
180.0
 51
270.0
  0
ARC
  5
1227
330
2
100
AcDbEntity
  8
0
100
AcDbCircle
 10
710.9984174463209
 20
389.4776468309434
 30
0.0
 40
3.0
100
AcDbArc
 50
180.0
 51
270.0
  0
LINE
  5
1228
330
2
100
AcDbEntity
  8
0
100
AcDbLine
 10
676.9984174463209
 20
370.4776468309431
 30
0.0
 11
683.9984174463227
 21
370.4776468309434
 31
0.0
  0
ARC
  5
1229
330
2
100
AcDbEntity
  8
0
100
AcDbCircle
 10
687.6039687217855
 20
366.4776468309434
 30
0.0
 40
5.0
100
AcDbArc
 50
90.0
 51
121.0027191339292
  0
ARC
  5
122A
330
2
100
AcDbEntity
  8
0
100
AcDbCircle
 10
683.9984174463227
 20
372.4776468309434
 30
0.0
 40
2.0
100
AcDbArc
 50
270.0
 51
341.0344250111237
  0
LINE
  5
122B
330
2
100
AcDbEntity
  8
0
100
AcDbLine
 10
731.9984174463191
 20
451.4776468309434
 30
0.0
 11
731.9984174463191
 21
371.4776468309431
 31
0.0
  0
LINE
  5
122C
330
2
100
AcDbEntity
  8
0
100
AcDbLine
 10
907.91988179779
 20
157.5803793047953
 30
0.0
 11
920.1075022726632
 21
157.580379304796
 31
0.0
  0
LINE
  5
122D
330
2
100
AcDbEntity
  8
0
100
AcDbLine
 10
937.8534689650775
 20
157.5803793047976
 30
0.0
 11
980.0410894399517
 21
157.5803793048008
 31
0.0
  0
CIRCLE
  5
122E
330
2
100
AcDbEntity
  8
HIDS
100
AcDbCircle
 10
943.9804856188708
 20
116.5803793047955
 30
0.0
 40
40.0
  0
CIRCLE
  5
122F
330
2
100
AcDbEntity
  8
0
100
AcDbCircle
 10
943.9804856188708
 20
116.5803793047955
 30
0.0
 40
34.99999999543831
  0
LINE
  5
1230
330
2
100
AcDbEntity
  8
0
100
AcDbLine
 10
911.9804856188707
 20
156.5803793047955
 30
0.0
 11
975.9804856188708
 21
156.5803793047955
 31
0.0
  0
LINE
  5
1231
330
2
100
AcDbEntity
  8
0
100
AcDbLine
 10
911.9804856188707
 20
76.58037930479557
 30
0.0
 11
975.8873673203103
 21
76.58037930479579
 31
0.0
  0
LINE
  5
1232
330
2
100
AcDbEntity
  8
0
100
AcDbLine
 10
902.9202535588225
 20
80.51940822871078
 30
0.0
 11
902.4804856188799
 21
116.5803793047955
 31
0.0
  0
LINE
  5
1233
330
2
100
AcDbEntity
  8
0
100
AcDbLine
 10
904.07363776376
 20
84.55710829022908
 30
0.0
 11
903.9804856188707
 21
116.5803793047955
 31
0.0
  0
ARC
  5
1234
330
2
100
AcDbEntity
  8
0
100
AcDbCircle
 10
907.91988179779
 20
80.5803793047958
 30
0.0
 40
5.0
100
AcDbArc
 50
180.6986943829866
 51
270.0
  0
ARC
  5
1235
330
2
100
AcDbEntity
  8
0
100
AcDbCircle
 10
912.0736039174314
 20
84.58037930479557
 30
0.0
 40
7.999999999999998
100
AcDbArc
 50
180.1666665999998
 51
270.0
  0
LINE
  5
1236
330
2
100
AcDbEntity
  8
CENTER
100
AcDbLine
 10
912.160485618871
 20
90.26037930479564
 30
0.0
 11
912.160485618871
 21
79.26037930479563
 31
0.0
  0
LINE
  5
1237
330
2
100
AcDbEntity
  8
CENTER
100
AcDbLine
 10
906.660485618871
 20
84.76037930479563
 30
0.0
 11
917.6604856188712
 21
84.76037930479563
 31
0.0
  0
LINE
  5
1238
330
2
100
AcDbEntity
  8
0
100
AcDbLine
 10
902.9202535588225
 20
152.6413503808803
 30
0.0
 11
902.4804856188799
 21
116.5803793047955
 31
0.0
  0
LINE
  5
1239
330
2
100
AcDbEntity
  8
HIDS
100
AcDbLine
 10
923.230485618869
 20
156.5803793047955
 30
0.0
 11
923.5691072552304
 21
137.1807587502401
 31
0.0
  0
LINE
  5
123A
330
2
100
AcDbEntity
  8
HIDS
100
AcDbLine
 10
934.730485618869
 20
156.5803793047955
 30
0.0
 11
934.5107313356772
 21
143.9906648526687
 31
0.0
  0
LINE
  5
123B
330
2
100
AcDbEntity
  8
0
100
AcDbLine
 10
904.07363776376
 20
148.6036503193622
 30
0.0
 11
903.9804856188707
 21
116.5803793047955
 31
0.0
  0
LINE
  5
123C
330
2
100
AcDbEntity
  8
CENTER
100
AcDbLine
 10
912.160485618871
 20
153.9003793047957
 30
0.0
 11
912.160485618871
 21
142.9003793047957
 31
0.0
  0
ARC
  5
123D
330
2
100
AcDbEntity
  8
HIDS
100
AcDbCircle
 10
920.9458801451015
 20
154.5803793047955
 30
0.0
 40
2.0
100
AcDbArc
 50
90.0
 51
178.9999999999982
  0
ARC
  5
123E
330
2
100
AcDbEntity
  8
0
100
AcDbCircle
 10
907.91988179779
 20
152.5803793047953
 30
0.0
 40
5.0
100
AcDbArc
 50
90.0
 51
179.3013056170132
  0
ARC
  5
123F
330
2
100
AcDbEntity
  8
0
100
AcDbCircle
 10
912.0736039174314
 20
148.5803793047955
 30
0.0
 40
7.999999999999998
100
AcDbArc
 50
90.0
 51
179.8333334000001
  0
LINE
  5
1240
330
2
100
AcDbEntity
  8
CENTER
100
AcDbLine
 10
906.660485618871
 20
148.4003793047957
 30
0.0
 11
917.6604856188712
 21
148.4003793047957
 31
0.0
  0
LINE
  5
1241
330
2
100
AcDbEntity
  8
HIDS
100
AcDbLine
 10
918.9461847547896
 20
154.6152841176699
 30
0.0
 11
918.8490337925301
 21
149.0495092174035
 31
0.0
  0
ARC
  5
1242
330
2
100
AcDbEntity
  8
HIDS
100
AcDbCircle
 10
915.8494907070595
 20
149.1018664367157
 30
0.0
 40
3.0
100
AcDbArc
 50
310.8597132650736
 51
358.9999999999852
  0
LINE
  5
1243
330
2
100
AcDbEntity
  8
0
100
AcDbLine
 10
985.0407176789191
 20
80.51940822871054
 30
0.0
 11
985.4804856188618
 21
116.5803793047644
 31
0.0
  0
LINE
  5
1244
330
2
100
AcDbEntity
  8
0
100
AcDbLine
 10
983.8873334739815
 20
84.55710829022908
 30
0.0
 11
983.9804856188708
 21
116.5803793047955
 31
0.0
  0
ARC
  5
1245
330
2
100
AcDbEntity
  8
0
100
AcDbCircle
 10
980.0410894399517
 20
80.58037930479557
 30
0.0
 40
5.0
100
AcDbArc
 50
270.0
 51
359.3013056170132
  0
ARC
  5
1246
330
2
100
AcDbEntity
  8
0
100
AcDbCircle
 10
975.8873673203103
 20
84.58037930479557
 30
0.0
 40
8.0
100
AcDbArc
 50
270.0
 51
359.8333334000002
  0
LINE
  5
1247
330
2
100
AcDbEntity
  8
HIDS
100
AcDbLine
 10
969.0147864829519
 20
78.54547449192072
 30
0.0
 11
969.1119374452116
 21
84.11124939218737
 31
0.0
  0
LINE
  5
1248
330
2
100
AcDbEntity
  8
CENTER
100
AcDbLine
 10
975.8004856188705
 20
90.26037930479564
 30
0.0
 11
975.8004856188705
 21
79.26037930479563
 31
0.0
  0
ARC
  5
1249
330
2
100
AcDbEntity
  8
HIDS
100
AcDbCircle
 10
967.0150910926382
 20
78.58037930479579
 30
0.0
 40
2.0
100
AcDbArc
 50
270.0
 51
358.9999999999852
  0
LINE
  5
124A
330
2
100
AcDbEntity
  8
CENTER
100
AcDbLine
 10
970.3004856188705
 20
84.76037930479563
 30
0.0
 11
981.3004856188705
 21
84.76037930479563
 31
0.0
  0
ARC
  5
124B
330
2
100
AcDbEntity
  8
HIDS
100
AcDbCircle
 10
972.1114805306802
 20
84.05889217287475
 30
0.0
 40
3.0
100
AcDbArc
 50
130.8597132650735
 51
178.9999999999851
  0
LINE
  5
124C
330
2
100
AcDbEntity
  8
0
100
AcDbLine
 10
985.0407176789191
 20
152.6413503808806
 30
0.0
 11
985.4804856188618
 21
116.5803793047644
 31
0.0
  0
LINE
  5
124D
330
2
100
AcDbEntity
  8
0
100
AcDbLine
 10
983.8873334739815
 20
148.6036503193622
 30
0.0
 11
983.9804856188708
 21
116.5803793047955
 31
0.0
  0
LINE
  5
124E
330
2
100
AcDbEntity
  8
CENTER
100
AcDbLine
 10
975.8004856188705
 20
153.9003793047957
 30
0.0
 11
975.8004856188705
 21
142.9003793047957
 31
0.0
  0
ARC
  5
124F
330
2
100
AcDbEntity
  8
0
100
AcDbCircle
 10
975.8873673203103
 20
148.5803793047955
 30
0.0
 40
8.0
100
AcDbArc
 50
0.1666665999998381
 51
90.0
  0
LINE
  5
1250
330
2
100
AcDbEntity
  8
CENTER
100
AcDbLine
 10
970.3004856188705
 20
148.4003793047957
 30
0.0
 11
981.3004856188705
 21
148.4003793047957
 31
0.0
  0
ARC
  5
1251
330
2
100
AcDbEntity
  8
0
100
AcDbCircle
 10
980.0410894399517
 20
152.5803793047955
 30
0.0
 40
5.0
100
AcDbArc
 50
0.6986943829867131
 51
90.0
  0
CIRCLE
  5
1252
330
2
100
AcDbEntity
  8
0
100
AcDbCircle
 10
912.160485618871
 20
148.4003793047957
 30
0.0
 40
2.5
  0
CIRCLE
  5
1253
330
2
100
AcDbEntity
  8
HOJO
100
AcDbCircle
 10
912.160485618871
 20
148.4003793047957
 30
0.0
 40
3.0
  0
CIRCLE
  5
1254
330
2
100
AcDbEntity
  8
0
100
AcDbCircle
 10
975.8004856188705
 20
148.4003793047957
 30
0.0
 40
2.5
  0
CIRCLE
  5
1255
330
2
100
AcDbEntity
  8
HOJO
100
AcDbCircle
 10
975.8004856188705
 20
148.4003793047957
 30
0.0
 40
3.0
  0
CIRCLE
  5
1256
330
2
100
AcDbEntity
  8
0
100
AcDbCircle
 10
975.8004856188705
 20
84.76037930479563
 30
0.0
 40
2.5
  0
CIRCLE
  5
1257
330
2
100
AcDbEntity
  8
HOJO
100
AcDbCircle
 10
975.8004856188705
 20
84.76037930479563
 30
0.0
 40
3.0
  0
CIRCLE
  5
1258
330
2
100
AcDbEntity
  8
0
100
AcDbCircle
 10
912.160485618871
 20
84.76037930479563
 30
0.0
 40
2.5
  0
CIRCLE
  5
1259
330
2
100
AcDbEntity
  8
HOJO
100
AcDbCircle
 10
912.160485618871
 20
84.76037930479563
 30
0.0
 40
3.0
  0
ARC
  5
125A
330
2
100
AcDbEntity
  8
0
100
AcDbCircle
 10
966.5765290590567
 20
196.3611706167585
 30
0.0
 40
40.0
100
AcDbArc
 50
263.8230035951095
 51
263.9988421367181
  0
ARC
  5
125B
330
2
100
AcDbEntity
  8
0
100
AcDbCircle
 10
921.3844421786848
 20
36.79958799283232
 30
0.0
 40
40.0
100
AcDbArc
 50
83.82300359510955
 51
83.99884213682334
  0
LINE
  5
125C
330
2
100
AcDbEntity
  8
0
100
AcDbLine
 10
907.91988179779
 20
75.58037930479557
 30
0.0
 11
980.0410894399517
 21
75.58037930479557
 31
0.0
  0
ARC
  5
125D
330
2
100
AcDbEntity
  8
0
100
AcDbCircle
 10
966.5765290590567
 20
36.79958799283255
 30
0.0
 40
40.0
100
AcDbArc
 50
96.00115786317665
 51
96.17699640489044
  0
LINE
  5
125E
330
2
100
AcDbEntity
  8
CENTER
  6
CENS
100
AcDbLine
 10
670.3935994465484
 20
376.8276468309433
 30
0.0
 11
697.3935994465485
 21
376.8276468309433
 31
0.0
  0
LINE
  5
125F
330
2
100
AcDbEntity
  8
0
100
AcDbLine
 10
692.08087477118
 20
381.8276468309433
 30
0.0
 11
692.08087477118
 21
371.8276468309433
 31
0.0
  0
LINE
  5
1260
330
2
100
AcDbEntity
  8
0
100
AcDbLine
 10
692.4808747711797
 20
372.5204671539708
 30
0.0
 11
692.4808747711797
 21
381.1348265079156
 31
0.0
  0
LINE
  5
1261
330
2
100
AcDbEntity
  8
0
100
AcDbLine
 10
686.4808747711797
 20
381.8276468309433
 30
0.0
 11
686.4808747711797
 21
371.8276468309433
 31
0.0
  0
LINE
  5
1262
330
2
100
AcDbEntity
  8
0
100
AcDbLine
 10
686.4808747711797
 20
371.8276468309433
 30
0.0
 11
685.4808747711797
 21
371.8276468309433
 31
0.0
  0
LINE
  5
1263
330
2
100
AcDbEntity
  8
0
100
AcDbLine
 10
685.4808747711797
 20
371.8276468309433
 30
0.0
 11
685.4808747711797
 21
381.8276468309433
 31
0.0
  0
LINE
  5
1264
330
2
100
AcDbEntity
  8
0
100
AcDbLine
 10
685.4808747711797
 20
381.8276468309433
 30
0.0
 11
686.4808747711797
 21
381.8276468309433
 31
0.0
  0
LINE
  5
1265
330
2
100
AcDbEntity
  8
0
100
AcDbLine
 10
686.4808747711797
 20
381.8276468309433
 30
0.0
 11
686.4808747711797
 21
371.8276468309433
 31
0.0
  0
LINE
  5
1266
330
2
100
AcDbEntity
  8
0
100
AcDbLine
 10
692.08087477118
 20
381.8276468309433
 30
0.0
 11
686.4808747711797
 21
381.8276468309433
 31
0.0
  0
LINE
  5
1267
330
2
100
AcDbEntity
  8
0
100
AcDbLine
 10
686.4808747711797
 20
371.8276468309433
 30
0.0
 11
692.08087477118
 21
371.8276468309433
 31
0.0
  0
LINE
  5
1268
330
2
100
AcDbEntity
  8
0
100
AcDbLine
 10
692.08087477118
 20
371.8276468309433
 30
0.0
 11
692.4808747711797
 21
372.5204671539708
 31
0.0
  0
LINE
  5
1269
330
2
100
AcDbEntity
  8
0
100
AcDbLine
 10
692.08087477118
 20
381.8276468309435
 30
0.0
 11
692.4808747711797
 21
381.1348265079158
 31
0.0
  0
LINE
  5
126A
330
2
100
AcDbEntity
  8
CENTER
  6
CENS
100
AcDbLine
 10
670.3935994465484
 20
446.1276468309434
 30
0.0
 11
697.3935994465485
 21
446.1276468309434
 31
0.0
  0
LINE
  5
126B
330
2
100
AcDbEntity
  8
0
100
AcDbLine
 10
692.08087477118
 20
441.1276468309434
 30
0.0
 11
692.08087477118
 21
451.1276468309435
 31
0.0
  0
LINE
  5
126C
330
2
100
AcDbEntity
  8
0
100
AcDbLine
 10
692.4808747711797
 20
450.4348265079159
 30
0.0
 11
692.4808747711797
 21
441.8204671539712
 31
0.0
  0
LINE
  5
126D
330
2
100
AcDbEntity
  8
0
100
AcDbLine
 10
686.4808747711797
 20
441.1276468309434
 30
0.0
 11
686.4808747711797
 21
451.1276468309435
 31
0.0
  0
LINE
  5
126E
330
2
100
AcDbEntity
  8
0
100
AcDbLine
 10
686.4808747711797
 20
451.1276468309435
 30
0.0
 11
685.4808747711797
 21
451.1276468309435
 31
0.0
  0
LINE
  5
126F
330
2
100
AcDbEntity
  8
0
100
AcDbLine
 10
685.4808747711797
 20
451.1276468309435
 30
0.0
 11
685.4808747711797
 21
441.1276468309434
 31
0.0
  0
LINE
  5
1270
330
2
100
AcDbEntity
  8
0
100
AcDbLine
 10
685.4808747711797
 20
441.1276468309434
 30
0.0
 11
686.4808747711797
 21
441.1276468309434
 31
0.0
  0
LINE
  5
1271
330
2
100
AcDbEntity
  8
0
100
AcDbLine
 10
686.4808747711797
 20
441.1276468309434
 30
0.0
 11
686.4808747711797
 21
451.1276468309435
 31
0.0
  0
LINE
  5
1272
330
2
100
AcDbEntity
  8
0
100
AcDbLine
 10
692.08087477118
 20
441.1276468309434
 30
0.0
 11
686.4808747711797
 21
441.1276468309434
 31
0.0
  0
LINE
  5
1273
330
2
100
AcDbEntity
  8
0
100
AcDbLine
 10
686.4808747711797
 20
451.1276468309435
 30
0.0
 11
692.08087477118
 21
451.1276468309435
 31
0.0
  0
LINE
  5
1274
330
2
100
AcDbEntity
  8
0
100
AcDbLine
 10
692.08087477118
 20
451.1276468309435
 30
0.0
 11
692.4808747711797
 21
450.4348265079159
 31
0.0
  0
LINE
  5
1275
330
2
100
AcDbEntity
  8
0
100
AcDbLine
 10
692.08087477118
 20
441.1276468309432
 30
0.0
 11
692.4808747711797
 21
441.820467153971
 31
0.0
  0
LINE
  5
1277
330
2
100
AcDbEntity
  8
HIDS
100
AcDbLine
 10
933.9804856188708
 20
133.6116006350467
 30
0.0
 11
933.9804856188708
 21
121.5803793047955
 31
0.0
  0
LINE
  5
1278
330
2
100
AcDbEntity
  8
CENTER
  6
CENS
100
AcDbLine
 10
928.9804856188707
 20
165.7040637274983
 30
0.0
 11
928.9804856188707
 21
100.7327141472658
 31
0.0
  0
LINE
  5
1279
330
2
100
AcDbEntity
  8
0
100
AcDbLine
 10
924.2447312628806
 20
115.8303793047955
 30
0.0
 11
934.5101371564329
 21
115.8303793047955
 31
0.0
  0
LINE
  5
127A
330
2
100
AcDbEntity
  8
0
100
AcDbLine
 10
924.2447312628806
 20
117.3303793047955
 30
0.0
 11
934.5101371564329
 21
117.3303793047955
 31
0.0
  0
LINE
  5
127B
330
2
100
AcDbEntity
  8
0
100
AcDbLine
 10
961.1804856188697
 20
115.8303793047955
 30
0.0
 11
961.1804856188697
 21
117.3303793047955
 31
0.0
  0
LINE
  5
127C
330
2
100
AcDbEntity
  8
0
100
AcDbLine
 10
953.4508340813086
 20
115.8303793047955
 30
0.0
 11
961.1804856188697
 21
115.8303793047955
 31
0.0
  0
LINE
  5
127D
330
2
100
AcDbEntity
  8
0
100
AcDbLine
 10
953.4508340813086
 20
117.3303793047955
 30
0.0
 11
961.1804856188697
 21
117.3303793047955
 31
0.0
  0
LINE
  5
127E
330
2
100
AcDbEntity
  8
HIDS
100
AcDbLine
 10
931.4804856188708
 20
115.8303793047955
 30
0.0
 11
931.4804856188708
 21
101.2894506214224
 31
0.0
  0
LINE
  5
127F
330
2
100
AcDbEntity
  8
HIDS
100
AcDbLine
 10
931.0638189522048
 20
115.8303793047955
 30
0.0
 11
931.0638189522048
 21
101.6397560841189
 31
0.0
  0
LINE
  5
1280
330
2
100
AcDbEntity
  8
HIDS
100
AcDbLine
 10
926.8971522855368
 20
115.8303793047955
 30
0.0
 11
926.8971522855368
 21
106.6696668065831
 31
0.0
  0
LINE
  5
1281
330
2
100
AcDbEntity
  8
HIDS
100
AcDbLine
 10
926.4804856188709
 20
115.8303793047955
 30
0.0
 11
926.4804856188709
 21
107.4254625929952
 31
0.0
  0
LINE
  5
1282
330
2
100
AcDbEntity
  8
HIDS
100
AcDbLine
 10
931.9804856188708
 20
121.5803793047955
 30
0.0
 11
931.9804856188708
 21
117.3303793047955
 31
0.0
  0
LINE
  5
1283
330
2
100
AcDbEntity
  8
HIDS
100
AcDbLine
 10
925.9804856188708
 20
121.5803793047955
 30
0.0
 11
925.9804856188708
 21
117.3303793047955
 31
0.0
  0
LINE
  5
1284
330
2
100
AcDbEntity
  8
HIDS
100
AcDbLine
 10
924.8738768145864
 20
121.5803793047955
 30
0.0
 11
933.9804856188708
 21
121.5803793047955
 31
0.0
  0
LINE
  5
1285
330
2
100
AcDbEntity
  8
HIDS
100
AcDbLine
 10
933.2304856188708
 20
121.5803793047955
 30
0.0
 11
933.2304856188708
 21
126.2803793047956
 31
0.0
  0
LINE
  5
1286
330
2
100
AcDbEntity
  8
0
100
AcDbLine
 10
924.7304856188709
 20
126.2803793047956
 30
0.0
 11
924.7304856188709
 21
121.5803793047955
 31
0.0
  0
LINE
  5
1287
330
2
100
AcDbEntity
  8
HIDS
100
AcDbLine
 10
931.4804856188708
 20
107.5803793047955
 30
0.0
 11
930.4804856188708
 21
106.5803793047955
 31
0.0
  0
LINE
  5
1288
330
2
100
AcDbEntity
  8
HIDS
100
AcDbLine
 10
926.4804856188709
 20
107.5803793047955
 30
0.0
 11
927.4804856188708
 21
106.5803793047955
 31
0.0
  0
LINE
  5
1289
330
2
100
AcDbEntity
  8
HIDS
100
AcDbLine
 10
930.4804856188708
 20
106.5803793047955
 30
0.0
 11
928.9804856188707
 21
106.5803793047955
 31
0.0
  0
LINE
  5
128A
330
2
100
AcDbEntity
  8
HIDS
100
AcDbLine
 10
927.4804856188708
 20
106.5803793047955
 30
0.0
 11
928.9804856188707
 21
106.5803793047955
 31
0.0
  0
LINE
  5
128B
330
2
100
AcDbEntity
  8
HIDS
100
AcDbLine
 10
931.4804856188708
 20
121.5803793047955
 30
0.0
 11
931.4804856188708
 21
117.3303793047955
 31
0.0
  0
LINE
  5
128C
330
2
100
AcDbEntity
  8
HIDS
100
AcDbLine
 10
931.0638189522048
 20
119.497045971462
 30
0.0
 11
931.0638189522048
 21
117.3303793047955
 31
0.0
  0
LINE
  5
128D
330
2
100
AcDbEntity
  8
HIDS
100
AcDbLine
 10
926.8971522855368
 20
119.497045971462
 30
0.0
 11
926.8971522855368
 21
117.3303793047955
 31
0.0
  0
LINE
  5
128E
330
2
100
AcDbEntity
  8
HIDS
100
AcDbLine
 10
926.4804856188709
 20
121.5803793047955
 30
0.0
 11
926.4804856188709
 21
117.3303793047955
 31
0.0
  0
LINE
  5
128F
330
2
100
AcDbEntity
  8
HIDS
100
AcDbLine
 10
931.4804856188708
 20
107.5803793047955
 30
0.0
 11
928.9804856188707
 21
107.5803793047955
 31
0.0
  0
LINE
  5
1290
330
2
100
AcDbEntity
  8
HIDS
100
AcDbLine
 10
926.4804856188709
 20
107.5803793047955
 30
0.0
 11
928.9804856188707
 21
107.5803793047955
 31
0.0
  0
LINE
  5
1291
330
2
100
AcDbEntity
  8
HIDS
100
AcDbLine
 10
931.4804856188708
 20
119.497045971462
 30
0.0
 11
926.4804856188709
 21
119.497045971462
 31
0.0
  0
LINE
  5
1292
330
2
100
AcDbEntity
  8
0
100
AcDbLine
 10
924.7304856188709
 20
121.5803793047955
 30
0.0
 11
924.8738768145864
 21
121.5803793047955
 31
0.0
  0
LINE
  5
1293
330
2
100
AcDbEntity
  8
HIDS
100
AcDbLine
 10
926.4804856188709
 20
121.5803793047955
 30
0.0
 11
926.8971522855368
 21
119.497045971462
 31
0.0
  0
LINE
  5
1294
330
2
100
AcDbEntity
  8
HIDS
100
AcDbLine
 10
931.4804856188708
 20
121.5803793047955
 30
0.0
 11
931.0638189522048
 21
119.497045971462
 31
0.0
  0
LINE
  5
1295
330
2
100
AcDbEntity
  8
0
100
AcDbLine
 10
924.7304856188709
 20
126.2803793047956
 30
0.0
 11
926.7766343058662
 21
126.2803793047953
 31
0.0
  0
LINE
  5
1296
330
2
100
AcDbEntity
  8
HIDS
100
AcDbLine
 10
932.7108703766004
 20
126.5803793047955
 30
0.0
 11
926.9492642886195
 21
126.5803793047955
 31
0.0
  0
LINE
  5
1297
330
2
100
AcDbEntity
  8
0
100
AcDbLine
 10
924.7304856188709
 20
126.2803793047956
 30
0.0
 11
925.2501008611412
 21
126.5803793047955
 31
0.0
  0
LINE
  5
1298
330
2
100
AcDbEntity
  8
HIDS
100
AcDbLine
 10
932.7108703766004
 20
126.5803793047955
 30
0.0
 11
933.2304856188708
 21
126.2803793047956
 31
0.0
  0
LINE
  5
1299
330
2
100
AcDbEntity
  8
HIDS
100
AcDbLine
 10
924.8738768145864
 20
121.5803793047955
 30
0.0
 11
933.2304856188708
 21
121.5803793047955
 31
0.0
  0
LINE
  5
129A
330
2
100
AcDbEntity
  8
0
100
AcDbLine
 10
926.9492642886195
 20
126.5803793047955
 30
0.0
 11
925.2501008611412
 21
126.5803793047955
 31
0.0
  0
LINE
  5
129B
330
2
100
AcDbEntity
  8
HIDS
100
AcDbLine
 10
926.7766343058662
 20
126.2803793047956
 30
0.0
 11
933.2304856188708
 21
126.2803793047956
 31
0.0
  0
LINE
  5
129C
330
2
100
AcDbEntity
  8
0
100
AcDbLine
 10
931.4804856188708
 20
117.3303793047955
 30
0.0
 11
931.4804856188708
 21
115.8303793047955
 31
0.0
  0
LINE
  5
129D
330
2
100
AcDbEntity
  8
HOJO
100
AcDbLine
 10
931.0638189522048
 20
117.3303793047955
 30
0.0
 11
931.0638189522048
 21
115.8303793047955
 31
0.0
  0
LINE
  5
129E
330
2
100
AcDbEntity
  8
HOJO
100
AcDbLine
 10
926.8971522855368
 20
117.3303793047955
 30
0.0
 11
926.8971522855368
 21
115.8303793047955
 31
0.0
  0
LINE
  5
129F
330
2
100
AcDbEntity
  8
0
100
AcDbLine
 10
926.4804856188709
 20
117.3303793047955
 30
0.0
 11
926.4804856188709
 21
115.8303793047955
 31
0.0
  0
LINE
  5
12A0
330
2
100
AcDbEntity
  8
HIDS
100
AcDbLine
 10
926.4804856188709
 20
115.8303793047955
 30
0.0
 11
926.4804856188709
 21
107.5803793047955
 31
0.0
  0
LINE
  5
12A1
330
2
100
AcDbEntity
  8
HIDS
100
AcDbLine
 10
931.0638189522048
 20
115.8303793047955
 30
0.0
 11
931.0638189522048
 21
107.1637126381288
 31
0.0
  0
LINE
  5
12A2
330
2
100
AcDbEntity
  8
HIDS
100
AcDbLine
 10
931.4804856188708
 20
115.8303793047955
 30
0.0
 11
931.4804856188708
 21
107.5803793047955
 31
0.0
  0
LINE
  5
12A3
330
2
100
AcDbEntity
  8
HIDS
100
AcDbLine
 10
926.8971522855368
 20
115.8303793047955
 30
0.0
 11
926.8971522855368
 21
107.1637126381288
 31
0.0
  0
CIRCLE
  5
12A4
330
2
100
AcDbEntity
  8
0
100
AcDbCircle
 10
943.9804856188708
 20
116.5803793047955
 30
0.0
 40
19.75
  0
LINE
  5
12A5
330
2
100
AcDbEntity
  8
0
100
AcDbLine
 10
923.9804856188708
 20
160.5803793047953
 30
0.0
 11
933.9804856188708
 21
160.5803793047953
 31
0.0
  0
ARC
  5
12A6
330
2
100
AcDbEntity
  8
0
100
AcDbCircle
 10
933.9804856188708
 20
156.5803793047953
 30
0.0
 40
4.0
100
AcDbArc
 50
0.0
 51
90.0
  0
ARC
  5
12A7
330
2
100
AcDbEntity
  8
0
100
AcDbCircle
 10
923.9804856188708
 20
156.5803793047953
 30
0.0
 40
4.0
100
AcDbArc
 50
90.0
 51
180.0
  0
CIRCLE
  5
12A8
330
2
100
AcDbEntity
  8
0
100
AcDbCircle
 10
717.9984174463209
 20
396.4776468309434
 30
0.0
 40
9.0
  0
LINE
  5
12A9
330
2
100
AcDbEntity
  8
CENTER
  6
CENS
100
AcDbLine
 10
717.9984174463209
 20
382.5430796432541
 30
0.0
 11
717.9984174463209
 21
410.4122140186322
 31
0.0
  0
LINE
  5
12AA
330
2
100
AcDbEntity
  8
CENTER
  6
CENS
100
AcDbLine
 10
731.9329846340099
 20
396.4776468309431
 30
0.0
 11
704.0638502586318
 21
396.4776468309431
 31
0.0
  0
CIRCLE
  5
12AB
330
2
100
AcDbEntity
  8
CENTER
100
AcDbCircle
 10
943.9804856188708
 20
116.5803793047955
 30
0.0
 40
45.0002755547118
  0
LINE
  5
12AC
330
2
100
AcDbEntity
  8
0
100
AcDbLine
 10
903.9804856187634
 20
116.5803793047955
 30
0.0
 11
902.4804856188799
 21
116.5803793047955
 31
0.0
  0
LINE
  5
12AE
330
2
100
AcDbEntity
  8
0
100
AcDbLine
 10
73.86246554561683
 20
116.5803793048084
 30
0.0
 11
74.54382234351749
 21
155.6152841176794
 31
0.0
  0
LINE
  5
12AF
330
2
100
AcDbEntity
  8
0
100
AcDbLine
 10
37.25001510861682
 20
151.6676413369945
 30
0.0
 11
37.86246554555407
 21
116.5803793048084
 31
0.0
  0
ARC
  5
12B0
330
2
100
AcDbEntity
  8
0
100
AcDbCircle
 10
76.54351773382939
 20
77.58037930480802
 30
0.0
 40
2.0
100
AcDbArc
 50
181.0000000000017
 51
270.0
  0
LINE
  5
12B2
330
2
100
AcDbEntity
  8
0
100
AcDbLine
 10
73.86246554554225
 20
116.5803793048084
 30
0.0
 11
74.54382234351567
 21
77.54547449193362
 31
0.0
  0
LINE
  5
12B3
330
2
100
AcDbEntity
  8
0
100
AcDbLine
 10
37.25001510861682
 20
81.4931172726219
 30
0.0
 11
37.86246554554043
 21
116.5803793048084
 31
0.0
  0
LINE
  5
12B4
330
2
100
AcDbEntity
  8
0
100
AcDbLine
 10
27.86246554554224
 20
76.58037930480848
 30
0.0
 11
73.38124007366047
 21
76.58037930480825
 31
0.0
  0
ARC
  5
12B5
330
2
100
AcDbEntity
  8
0
100
AcDbCircle
 10
54.96590787886987
 20
82.48040600884904
 30
0.0
 40
3.0
100
AcDbArc
 50
90.0
 51
178.9999999999982
  0
LINE
  5
12B6
330
2
100
AcDbEntity
  8
0
100
AcDbLine
 10
54.96590787886987
 20
85.48040600884903
 30
0.0
 11
42.31961349239452
 21
85.48040600884949
 31
0.0
  0
ARC
  5
12B7
330
2
100
AcDbEntity
  8
0
100
AcDbCircle
 10
32.25077663283434
 20
81.58037930480825
 30
0.0
 40
5.0
100
AcDbArc
 50
270.0
 51
358.9999999999982
  0
ARC
  5
12B8
330
2
100
AcDbEntity
  8
0
100
AcDbCircle
 10
49.89707101930969
 20
78.58037930480825
 30
0.0
 40
2.0
100
AcDbArc
 50
270.0
 51
358.9999999999982
  0
LINE
  5
12B9
330
2
100
AcDbEntity
  8
0
100
AcDbLine
 10
51.96547050679862
 20
82.48152958302076
 30
0.0
 11
51.89676640962341
 21
78.54547449193361
 31
0.0
  0
LINE
  5
12BA
330
2
100
AcDbEntity
  8
0
100
AcDbLine
 10
82.86246554554224
 20
75.58037930480825
 30
0.0
 11
76.54351773382939
 21
75.58037930480825
 31
0.0
  0
ARC
  5
12BB
330
2
100
AcDbEntity
  8
0
100
AcDbCircle
 10
76.54351773382939
 20
155.5803793048086
 30
0.0
 40
2.0
100
AcDbArc
 50
90.0
 51
179.0000000001154
  0
LINE
  5
12BC
330
2
100
AcDbEntity
  8
0
100
AcDbLine
 10
27.86246554554224
 20
156.5803793048082
 30
0.0
 11
73.38124007366047
 21
156.5803793048084
 31
0.0
  0
ARC
  5
12BD
330
2
100
AcDbEntity
  8
0
100
AcDbCircle
 10
32.25077663283434
 20
151.5803793048082
 30
0.0
 40
5.0
100
AcDbArc
 50
1.000000000001775
 51
90.0
  0
LINE
  5
12BE
330
2
100
AcDbEntity
  8
0
100
AcDbLine
 10
82.86246554554043
 20
157.5803793048084
 30
0.0
 11
76.54351773382939
 21
157.5803793048087
 31
0.0
  0
LINE
  5
12BF
330
2
100
AcDbEntity
  8
0
100
AcDbLine
 10
27.86246554554224
 20
156.5803793048082
 30
0.0
 11
27.86246554554224
 21
76.58037930480848
 31
0.0
  0
ARC
  5
12C0
330
2
100
AcDbEntity
  8
0
100
AcDbCircle
 10
73.38124007366047
 20
160.0803793048084
 30
0.0
 40
3.5
100
AcDbArc
 50
270.0
 51
305.0968012276141
  0
ARC
  5
12C1
330
2
100
AcDbEntity
  8
0
100
AcDbCircle
 10
73.38124007366047
 20
73.08037930480825
 30
0.0
 40
3.5
100
AcDbArc
 50
54.9031987723857
 51
90.0
  0
LINE
  5
12C2
330
2
100
AcDbEntity
  8
CENTER
  6
CENS
100
AcDbLine
 10
89.46728354531286
 20
151.2303793048085
 30
0.0
 11
62.46728354531285
 21
151.2303793048085
 31
0.0
  0
LINE
  5
12C3
330
2
100
AcDbEntity
  8
0
100
AcDbLine
 10
67.78000822068122
 20
146.2303793048085
 30
0.0
 11
67.78000822068122
 21
156.2303793048085
 31
0.0
  0
LINE
  5
12C4
330
2
100
AcDbEntity
  8
0
100
AcDbLine
 10
67.38000822068158
 20
155.537558981781
 30
0.0
 11
67.38000822068158
 21
146.9231996278362
 31
0.0
  0
LINE
  5
12C5
330
2
100
AcDbEntity
  8
0
100
AcDbLine
 10
73.38000822068159
 20
146.2303793048085
 30
0.0
 11
73.38000822068159
 21
156.2303793048085
 31
0.0
  0
LINE
  5
12C6
330
2
100
AcDbEntity
  8
0
100
AcDbLine
 10
73.38000822068159
 20
156.2303793048085
 30
0.0
 11
74.38000822068159
 21
156.2303793048085
 31
0.0
  0
LINE
  5
12C7
330
2
100
AcDbEntity
  8
0
100
AcDbLine
 10
74.38000822068159
 20
156.2303793048085
 30
0.0
 11
74.38000822068159
 21
146.2303793048085
 31
0.0
  0
LINE
  5
12C8
330
2
100
AcDbEntity
  8
0
100
AcDbLine
 10
74.38000822068159
 20
146.2303793048085
 30
0.0
 11
73.38000822068159
 21
146.2303793048085
 31
0.0
  0
LINE
  5
12C9
330
2
100
AcDbEntity
  8
0
100
AcDbLine
 10
73.38000822068159
 20
146.2303793048085
 30
0.0
 11
73.38000822068159
 21
156.2303793048085
 31
0.0
  0
LINE
  5
12CA
330
2
100
AcDbEntity
  8
0
100
AcDbLine
 10
67.78000822068122
 20
146.2303793048085
 30
0.0
 11
73.38000822068159
 21
146.2303793048085
 31
0.0
  0
LINE
  5
12CB
330
2
100
AcDbEntity
  8
0
100
AcDbLine
 10
73.38000822068159
 20
156.2303793048085
 30
0.0
 11
67.78000822068122
 21
156.2303793048085
 31
0.0
  0
LINE
  5
12CC
330
2
100
AcDbEntity
  8
0
100
AcDbLine
 10
67.78000822068122
 20
156.2303793048085
 30
0.0
 11
67.38000822068158
 21
155.537558981781
 31
0.0
  0
LINE
  5
12CD
330
2
100
AcDbEntity
  8
0
100
AcDbLine
 10
67.78000822068122
 20
146.2303793048083
 30
0.0
 11
67.38000822068158
 21
146.923199627836
 31
0.0
  0
LINE
  5
12CE
330
2
100
AcDbEntity
  8
CENTER
  6
CENS
100
AcDbLine
 10
89.46728354531286
 20
81.93037930480839
 30
0.0
 11
62.46728354531285
 21
81.93037930480839
 31
0.0
  0
LINE
  5
12CF
330
2
100
AcDbEntity
  8
0
100
AcDbLine
 10
67.78000822068122
 20
86.93037930480839
 30
0.0
 11
67.78000822068122
 21
76.93037930480838
 31
0.0
  0
LINE
  5
12D0
330
2
100
AcDbEntity
  8
0
100
AcDbLine
 10
67.38000822068158
 20
77.62319962783587
 30
0.0
 11
67.38000822068158
 21
86.23755898178066
 31
0.0
  0
LINE
  5
12D1
330
2
100
AcDbEntity
  8
0
100
AcDbLine
 10
73.38000822068159
 20
86.93037930480839
 30
0.0
 11
73.38000822068159
 21
76.93037930480838
 31
0.0
  0
LINE
  5
12D2
330
2
100
AcDbEntity
  8
0
100
AcDbLine
 10
73.38000822068159
 20
76.93037930480838
 30
0.0
 11
74.38000822068159
 21
76.93037930480838
 31
0.0
  0
LINE
  5
12D3
330
2
100
AcDbEntity
  8
0
100
AcDbLine
 10
74.38000822068159
 20
76.93037930480838
 30
0.0
 11
74.38000822068159
 21
86.93037930480839
 31
0.0
  0
LINE
  5
12D4
330
2
100
AcDbEntity
  8
0
100
AcDbLine
 10
74.38000822068159
 20
86.93037930480839
 30
0.0
 11
73.38000822068159
 21
86.93037930480839
 31
0.0
  0
LINE
  5
12D5
330
2
100
AcDbEntity
  8
0
100
AcDbLine
 10
73.38000822068159
 20
86.93037930480839
 30
0.0
 11
73.38000822068159
 21
76.93037930480838
 31
0.0
  0
LINE
  5
12D6
330
2
100
AcDbEntity
  8
0
100
AcDbLine
 10
67.78000822068122
 20
86.93037930480839
 30
0.0
 11
73.38000822068159
 21
86.93037930480839
 31
0.0
  0
LINE
  5
12D7
330
2
100
AcDbEntity
  8
0
100
AcDbLine
 10
73.38000822068159
 20
76.93037930480838
 30
0.0
 11
67.78000822068122
 21
76.93037930480838
 31
0.0
  0
LINE
  5
12D8
330
2
100
AcDbEntity
  8
0
100
AcDbLine
 10
67.78000822068122
 20
76.93037930480838
 30
0.0
 11
67.38000822068158
 21
77.62319962783587
 31
0.0
  0
LINE
  5
12D9
330
2
100
AcDbEntity
  8
0
100
AcDbLine
 10
67.78000822068122
 20
86.9303793048086
 30
0.0
 11
67.38000822068158
 21
86.23755898178089
 31
0.0
  0
LINE
  5
12DA
330
2
100
AcDbEntity
  8
0
100
AcDbLine
 10
36.86246554557863
 20
160.5803793048082
 30
0.0
 11
46.86246554557863
 21
160.5803793048082
 31
0.0
  0
ARC
  5
12DB
330
2
100
AcDbEntity
  8
0
100
AcDbCircle
 10
46.86246554557863
 20
156.5803793048082
 30
0.0
 40
4.0
100
AcDbArc
 50
0.0
 51
90.0
  0
ARC
  5
12DC
330
2
100
AcDbEntity
  8
0
100
AcDbCircle
 10
36.86246554557863
 20
156.5803793048082
 30
0.0
 40
4.0
100
AcDbArc
 50
90.0
 51
180.0
  0
LINE
  5
12DD
330
2
100
AcDbEntity
  8
CENTER
  6
CENS
100
AcDbLine
 10
41.86246554557863
 20
165.7040637275135
 30
0.0
 11
41.86246554557863
 21
142.3441377251467
 31
0.0
  0
CIRCLE
  5
12DE
330
2
100
AcDbEntity
  8
0
100
AcDbCircle
 10
943.9804856188708
 20
116.5803793047955
 30
0.0
 40
9.5
  0
ARC
  5
12DF
330
2
100
AcDbEntity
  8
0
100
AcDbCircle
 10
943.9804856188708
 20
116.5803793047955
 30
0.0
 40
10.6547005383793
100
AcDbArc
 50
4.036472082737907
 51
175.9635279172621
  0
ARC
  5
12E0
330
2
100
AcDbEntity
  8
0
100
AcDbCircle
 10
943.9804856188708
 20
116.5803793047955
 30
0.0
 40
10.6547005383793
100
AcDbArc
 50
184.0364720827509
 51
355.963527917249
  0
CIRCLE
  5
12E1
330
2
100
AcDbEntity
  8
0
100
AcDbCircle
 10
943.9804856188708
 20
116.5803793047955
 30
0.0
 40
29.0
  0
LINE
  5
12E2
330
2
100
AcDbEntity
  8
0
100
AcDbLine
 10
685.808794056403
 20
127.4438962850023
 30
0.0
 11
685.3170606527194
 21
155.6152841176853
 31
0.0
  0
LINE
  5
12E3
330
2
100
AcDbEntity
  8
0
100
AcDbLine
 10
722.6108678876201
 20
151.6676413370004
 30
0.0
 11
722.5488341848151
 21
148.1137328835615
 31
0.0
  0
ARC
  5
12E4
330
2
100
AcDbEntity
  8
0
100
AcDbCircle
 10
683.3173652624075
 20
77.5803793048139
 30
0.0
 40
2.0
100
AcDbArc
 50
270.0
 51
358.9999999999982
  0
LINE
  5
12E6
330
2
100
AcDbEntity
  8
0
100
AcDbLine
 10
685.9984174506946
 20
116.5803793048143
 30
0.0
 11
685.3170606527212
 21
77.5454744919395
 31
0.0
  0
LINE
  5
12E7
330
2
100
AcDbEntity
  8
0
100
AcDbLine
 10
722.6108678876201
 20
81.49311727262778
 30
0.0
 11
721.9984174506964
 21
116.5803793048143
 31
0.0
  0
LINE
  5
12E8
330
2
100
AcDbEntity
  8
0
100
AcDbLine
 10
731.9984174506946
 20
76.58037930481436
 30
0.0
 11
686.4796429225764
 21
76.58037930481413
 31
0.0
  0
ARC
  5
12E9
330
2
100
AcDbEntity
  8
0
100
AcDbCircle
 10
727.6101063634025
 20
81.58037930481413
 30
0.0
 40
5.0
100
AcDbArc
 50
181.0000000000017
 51
270.0
  0
LINE
  5
12EA
330
2
100
AcDbEntity
  8
0
100
AcDbLine
 10
676.9984174506946
 20
75.58037930481413
 30
0.0
 11
683.3173652624075
 21
75.58037930481413
 31
0.0
  0
ARC
  5
12EB
330
2
100
AcDbEntity
  8
0
100
AcDbCircle
 10
683.3173652624075
 20
155.5803793048145
 30
0.0
 40
2.0
100
AcDbArc
 50
0.9999999998975358
 51
90.0
  0
LINE
  5
12EC
330
2
100
AcDbEntity
  8
0
100
AcDbLine
 10
731.9984174506946
 20
156.5803793048141
 30
0.0
 11
686.4796429225764
 21
156.5803793048143
 31
0.0
  0
ARC
  5
12ED
330
2
100
AcDbEntity
  8
0
100
AcDbCircle
 10
727.6101063634025
 20
151.5803793048141
 30
0.0
 40
5.0
100
AcDbArc
 50
90.0
 51
178.9999999999982
  0
LINE
  5
12EE
330
2
100
AcDbEntity
  8
0
100
AcDbLine
 10
676.9984174506965
 20
157.5803793048143
 30
0.0
 11
683.3173652624075
 21
157.5803793048145
 31
0.0
  0
LINE
  5
12EF
330
2
100
AcDbEntity
  8
0
100
AcDbLine
 10
731.9984174506946
 20
156.5803793048141
 30
0.0
 11
731.9984174506946
 21
76.58037930481436
 31
0.0
  0
ARC
  5
12F0
330
2
100
AcDbEntity
  8
0
100
AcDbCircle
 10
686.4796429225764
 20
160.0803793048143
 30
0.0
 40
3.5
100
AcDbArc
 50
234.9031987723859
 51
270.0
  0
ARC
  5
12F1
330
2
100
AcDbEntity
  8
0
100
AcDbCircle
 10
686.4796429225764
 20
73.08037930481413
 30
0.0
 40
3.5
100
AcDbArc
 50
90.0
 51
125.0968012276142
  0
LINE
  5
12F2
330
2
100
AcDbEntity
  8
CENTER
  6
CENS
100
AcDbLine
 10
670.393599450924
 20
151.2303793048144
 30
0.0
 11
697.393599450924
 21
151.2303793048144
 31
0.0
  0
LINE
  5
12F3
330
2
100
AcDbEntity
  8
0
100
AcDbLine
 10
692.0808747755557
 20
146.2303793048144
 30
0.0
 11
692.0808747755557
 21
156.2303793048144
 31
0.0
  0
LINE
  5
12F4
330
2
100
AcDbEntity
  8
0
100
AcDbLine
 10
692.4808747755553
 20
155.5375589817869
 30
0.0
 11
692.4808747755553
 21
146.9231996278421
 31
0.0
  0
LINE
  5
12F5
330
2
100
AcDbEntity
  8
0
100
AcDbLine
 10
686.4808747755553
 20
146.2303793048144
 30
0.0
 11
686.4808747755553
 21
156.2303793048144
 31
0.0
  0
LINE
  5
12F6
330
2
100
AcDbEntity
  8
0
100
AcDbLine
 10
686.4808747755553
 20
156.2303793048144
 30
0.0
 11
685.4808747755553
 21
156.2303793048144
 31
0.0
  0
LINE
  5
12F7
330
2
100
AcDbEntity
  8
0
100
AcDbLine
 10
685.4808747755553
 20
156.2303793048144
 30
0.0
 11
685.4808747755553
 21
146.2303793048144
 31
0.0
  0
LINE
  5
12F8
330
2
100
AcDbEntity
  8
0
100
AcDbLine
 10
685.4808747755553
 20
146.2303793048144
 30
0.0
 11
686.4808747755553
 21
146.2303793048144
 31
0.0
  0
LINE
  5
12F9
330
2
100
AcDbEntity
  8
0
100
AcDbLine
 10
686.4808747755553
 20
146.2303793048144
 30
0.0
 11
686.4808747755553
 21
156.2303793048144
 31
0.0
  0
LINE
  5
12FA
330
2
100
AcDbEntity
  8
0
100
AcDbLine
 10
692.0808747755557
 20
146.2303793048144
 30
0.0
 11
686.4808747755553
 21
146.2303793048144
 31
0.0
  0
LINE
  5
12FB
330
2
100
AcDbEntity
  8
0
100
AcDbLine
 10
686.4808747755553
 20
156.2303793048144
 30
0.0
 11
692.0808747755557
 21
156.2303793048144
 31
0.0
  0
LINE
  5
12FC
330
2
100
AcDbEntity
  8
0
100
AcDbLine
 10
692.0808747755557
 20
156.2303793048144
 30
0.0
 11
692.4808747755553
 21
155.5375589817869
 31
0.0
  0
LINE
  5
12FD
330
2
100
AcDbEntity
  8
0
100
AcDbLine
 10
692.0808747755557
 20
146.2303793048142
 30
0.0
 11
692.4808747755553
 21
146.9231996278419
 31
0.0
  0
LINE
  5
12FE
330
2
100
AcDbEntity
  8
CENTER
  6
CENS
100
AcDbLine
 10
670.393599450924
 20
81.93037930481427
 30
0.0
 11
697.393599450924
 21
81.93037930481427
 31
0.0
  0
LINE
  5
12FF
330
2
100
AcDbEntity
  8
0
100
AcDbLine
 10
692.0808747755557
 20
86.93037930481427
 30
0.0
 11
692.0808747755557
 21
76.93037930481427
 31
0.0
  0
LINE
  5
1300
330
2
100
AcDbEntity
  8
0
100
AcDbLine
 10
692.4808747755553
 20
77.62319962784175
 30
0.0
 11
692.4808747755553
 21
86.23755898178655
 31
0.0
  0
LINE
  5
1301
330
2
100
AcDbEntity
  8
0
100
AcDbLine
 10
686.4808747755553
 20
86.93037930481427
 30
0.0
 11
686.4808747755553
 21
76.93037930481427
 31
0.0
  0
LINE
  5
1302
330
2
100
AcDbEntity
  8
0
100
AcDbLine
 10
686.4808747755553
 20
76.93037930481427
 30
0.0
 11
685.4808747755553
 21
76.93037930481427
 31
0.0
  0
LINE
  5
1303
330
2
100
AcDbEntity
  8
0
100
AcDbLine
 10
685.4808747755553
 20
76.93037930481427
 30
0.0
 11
685.4808747755553
 21
86.93037930481427
 31
0.0
  0
LINE
  5
1304
330
2
100
AcDbEntity
  8
0
100
AcDbLine
 10
685.4808747755553
 20
86.93037930481427
 30
0.0
 11
686.4808747755553
 21
86.93037930481427
 31
0.0
  0
LINE
  5
1305
330
2
100
AcDbEntity
  8
0
100
AcDbLine
 10
686.4808747755553
 20
86.93037930481427
 30
0.0
 11
686.4808747755553
 21
76.93037930481427
 31
0.0
  0
LINE
  5
1306
330
2
100
AcDbEntity
  8
0
100
AcDbLine
 10
692.0808747755557
 20
86.93037930481427
 30
0.0
 11
686.4808747755553
 21
86.93037930481427
 31
0.0
  0
LINE
  5
1307
330
2
100
AcDbEntity
  8
0
100
AcDbLine
 10
686.4808747755553
 20
76.93037930481427
 30
0.0
 11
692.0808747755557
 21
76.93037930481427
 31
0.0
  0
LINE
  5
1308
330
2
100
AcDbEntity
  8
0
100
AcDbLine
 10
692.0808747755557
 20
76.93037930481427
 30
0.0
 11
692.4808747755553
 21
77.62319962784175
 31
0.0
  0
LINE
  5
1309
330
2
100
AcDbEntity
  8
0
100
AcDbLine
 10
692.0808747755557
 20
86.9303793048145
 30
0.0
 11
692.4808747755553
 21
86.23755898178677
 31
0.0
  0
LINE
  5
130A
330
2
100
AcDbEntity
  8
0
100
AcDbLine
 10
731.9984174506946
 20
151.5803793048143
 30
0.0
 11
724.9984174506947
 21
151.5803793048143
 31
0.0
  0
LINE
  5
130B
330
2
100
AcDbEntity
  8
0
100
AcDbLine
 10
724.9984174506947
 20
151.5803793048143
 30
0.0
 11
724.9984174506947
 21
116.5803793048143
 31
0.0
  0
LINE
  5
130C
330
2
100
AcDbEntity
  8
0
100
AcDbLine
 10
724.9984174506947
 20
136.3303793048143
 30
0.0
 11
724.9984174506964
 21
116.5803793048143
 31
0.0
  0
SPLINE
  5
130D
330
2
100
AcDbEntity
  8
HOJO
100
AcDbSpline
210
0.0
220
0.0
230
1.0
 70
     8
 71
     3
 72
    20
 73
    16
 74
     0
 42
0.0000000001
 43
0.0000000001
 40
1.102548511336045
 40
1.102548511336045
 40
1.102548511336045
 40
1.102548511336045
 40
5.647385924430076
 40
9.759277458584113
 40
14.59638394258456
 40
18.6386056126129
 40
22.25598020257161
 40
26.57819511411361
 40
31.00332353479096
 40
40.39337194914635
 40
45.49899296170218
 40
52.02718752358933
 40
57.17041693382338
 40
65.63449353306062
 40
69.3611614947018
 40
69.3611614947018
 40
69.3611614947018
 40
69.3611614947018
 10
728.4091693730036
 20
156.5803793048141
 30
0.0
 10
727.0003818526104
 20
155.851951855126
 30
0.0
 10
724.487695890851
 20
154.3212392329678
 30
0.0
 10
723.1667696447232
 20
149.7567165756135
 30
0.0
 10
722.0168603191752
 20
146.365147081095
 30
0.0
 10
718.5291039071865
 20
142.6913818698507
 30
0.0
 10
716.8572687308235
 20
139.1660217398716
 30
0.0
 10
714.8800221703688
 20
135.6153050423767
 30
0.0
 10
711.4922408578052
 20
130.0262604539224
 30
0.0
 10
703.96788181349
 20
130.201836901514
 30
0.0
 10
697.2395424568414
 20
129.0554663680163
 30
0.0
 10
691.896275911434
 20
128.318851284543
 30
0.0
 10
684.8974953970476
 20
128.5888303241285
 30
0.0
 10
681.1827625978232
 20
121.5146886468571
 30
0.0
 10
679.8609211590275
 20
117.7447821536811
 30
0.0
 10
679.4482483859185
 20
116.5803793048143
 30
0.0
  0
LINE
  5
130E
330
2
100
AcDbEntity
  8
0
100
AcDbLine
 10
722.9984174506583
 20
160.5803793048141
 30
0.0
 11
712.9984174506582
 21
160.5803793048141
 31
0.0
  0
ARC
  5
130F
330
2
100
AcDbEntity
  8
0
100
AcDbCircle
 10
712.9984174506582
 20
156.5803793048141
 30
0.0
 40
4.0
100
AcDbArc
 50
90.0
 51
180.0
  0
ARC
  5
1310
330
2
100
AcDbEntity
  8
0
100
AcDbCircle
 10
722.9984174506583
 20
156.5803793048141
 30
0.0
 40
4.0
100
AcDbArc
 50
0.0
 51
90.0
  0
LINE
  5
1311
330
2
100
AcDbEntity
  8
CENTER
  6
CENS
100
AcDbLine
 10
717.9984174506582
 20
165.7040637275194
 30
0.0
 11
717.9984174506582
 21
142.3441377251526
 31
0.0
  0
ARC
  5
1312
330
2
100
AcDbEntity
  8
0
100
AcDbCircle
 10
704.894975117367
 20
150.6803526007738
 30
0.0
 40
3.0
100
AcDbArc
 50
270.0
 51
358.9999999999982
  0
LINE
  5
1313
330
2
100
AcDbEntity
  8
0
100
AcDbLine
 10
704.894975117367
 20
147.6803526007738
 30
0.0
 11
717.5412695038423
 21
147.6803526007733
 31
0.0
  0
ARC
  5
1314
330
2
100
AcDbEntity
  8
0
100
AcDbCircle
 10
709.9638119769272
 20
154.5803793048145
 30
0.0
 40
2.0
100
AcDbArc
 50
90.0
 51
178.9999999999982
  0
LINE
  5
1315
330
2
100
AcDbEntity
  8
0
100
AcDbLine
 10
707.8954124894383
 20
150.679229026602
 30
0.0
 11
707.9641165866135
 21
154.6152841176892
 31
0.0
  0
LINE
  5
1316
330
2
100
AcDbEntity
  8
0
100
AcDbLine
 10
724.9984174506947
 20
151.5803793048143
 30
0.0
 11
724.9984174506947
 21
116.5803793048143
 31
0.0
  0
LINE
  5
1317
330
2
100
AcDbEntity
  8
0
100
AcDbLine
 10
724.9984174506947
 20
136.3303793048143
 30
0.0
 11
724.9984174506964
 21
116.5803793048143
 31
0.0
  0
LINE
  5
1318
330
2
100
AcDbEntity
  8
0
100
AcDbLine
 10
724.9984174506947
 20
136.3303793048143
 30
0.0
 11
715.2606128801774
 21
136.3303793048143
 31
0.0
  0
LINE
  5
1319
330
2
100
AcDbEntity
  8
0
100
AcDbLine
 10
722.9984174506946
 20
126.0803793048143
 30
0.0
 11
711.9984174506946
 21
126.0803793048143
 31
0.0
  0
LINE
  5
131A
330
2
100
AcDbEntity
  8
0
100
AcDbLine
 10
693.4984174506946
 20
126.3303793048143
 30
0.0
 11
693.4984174506946
 21
116.5803793048143
 31
0.0
  0
LINE
  5
131B
330
2
100
AcDbEntity
  8
0
100
AcDbLine
 10
693.4984174506946
 20
126.3303793048143
 30
0.0
 11
687.4984174506947
 21
126.3303793048143
 31
0.0
  0
LINE
  5
131C
330
2
100
AcDbEntity
  8
0
100
AcDbLine
 10
687.4984174506947
 20
126.3303793048143
 30
0.0
 11
687.4984174506947
 21
116.5803793048143
 31
0.0
  0
LINE
  5
131D
330
2
100
AcDbEntity
  8
0
100
AcDbLine
 10
709.9984174506946
 20
130.8557895255093
 30
0.0
 11
709.9984174506946
 21
116.5803793048143
 31
0.0
  0
LINE
  5
131E
330
2
100
AcDbEntity
  8
0
100
AcDbLine
 10
711.9984174506946
 20
131.9095228658911
 30
0.0
 11
711.9984174506946
 21
116.5803793048143
 31
0.0
  0
LINE
  5
131F
330
2
100
AcDbEntity
  8
0
100
AcDbLine
 10
709.9984174506946
 20
126.0803793048143
 30
0.0
 11
693.4984174506946
 21
126.0803793048143
 31
0.0
  0
LINE
  5
1320
330
2
100
AcDbEntity
  8
0
100
AcDbLine
 10
724.9984174506947
 20
127.2350798431936
 30
0.0
 11
722.9984174506946
 21
126.0803793048143
 31
0.0
  0
LINE
  5
1321
330
2
100
AcDbEntity
  8
0
100
AcDbLine
 10
722.9984174506946
 20
126.0803793048143
 30
0.0
 11
722.9984174506946
 21
116.5803793048143
 31
0.0
  0
LINE
  5
1322
330
2
100
AcDbEntity
  8
0
100
AcDbLine
 10
687.4984174506947
 20
125.5803793048143
 30
0.0
 11
682.3022650279884
 21
116.5803793048141
 31
0.0
  0
LINE
  5
1323
330
2
100
AcDbEntity
  8
0
100
AcDbLine
 10
724.9984174506947
 20
145.5803793048143
 30
0.0
 11
721.0887641019174
 21
145.5803793048143
 31
0.0
  0
LINE
  5
1324
330
2
100
AcDbEntity
  8
0
100
AcDbLine
 10
937.7185684085686
 20
158.0040144607828
 30
0.0
 11
943.980485618869
 21
158.080379304811
 31
0.0
  0
TEXT
  5
1325
330
2
100
AcDbEntity
  8
TITLE
100
AcDbText
 10
296.0390682748739
 20
405.4877293569051
 30
0.0
 40
7.5
  1
AFCZ18L-3~5M750S2
100
AcDbText
  0
TEXT
  5
1326
330
2
100
AcDbEntity
  8
TITLE
100
AcDbText
 10
296.0390682748739
 20
393.9877293569051
 30
0.0
 40
7.5
  1
AFCZ18L-3~5L750S2
100
AcDbText
  0
ARC
  5
223F
330
2
100
AcDbEntity
  8
0
100
AcDbCircle
 10
190.4585089857326
 20
196.361170616773
 30
0.0
 40
40.0
100
AcDbArc
 50
263.823003595109
 51
283.367674202629
  0
ARC
  5
2240
330
2
100
AcDbEntity
  8
0
100
AcDbCircle
 10
185.324406322671
 20
145.0803793048057
 30
0.0
 40
8.5
100
AcDbArc
 50
44.99999999998617
 51
90.0
  0
ARC
  5
2241
330
2
100
AcDbEntity
  8
0
100
AcDbCircle
 10
185.324406322671
 20
145.0803793048057
 30
0.0
 40
5.0
100
AcDbArc
 50
44.99999999998617
 51
90.0
  0
CIRCLE
  5
2242
330
2
100
AcDbEntity
  8
0
100
AcDbCircle
 10
167.8624655455422
 20
116.5803793048085
 30
0.0
 40
23.0
  0
CIRCLE
  5
2243
330
2
100
AcDbEntity
  8
0
100
AcDbCircle
 10
167.8624655455422
 20
116.5803793048085
 30
0.0
 40
29.0
  0
CIRCLE
  5
2244
330
2
100
AcDbEntity
  8
0
100
AcDbCircle
 10
167.8624655455422
 20
116.5803793048085
 30
0.0
 40
26.5
  0
CIRCLE
  5
2245
330
2
100
AcDbEntity
  8
0
100
AcDbCircle
 10
167.8624655455422
 20
116.5803793048085
 30
0.0
 40
28.5
  0
CIRCLE
  5
2246
330
2
100
AcDbEntity
  8
0
100
AcDbCircle
 10
167.8624655455422
 20
116.5803793048085
 30
0.0
 40
23.5774
  0
CIRCLE
  5
2247
330
2
100
AcDbEntity
  8
0
100
AcDbCircle
 10
167.8624655455422
 20
116.5803793048085
 30
0.0
 40
25.9226
  0
ARC
  5
2248
330
2
100
AcDbEntity
  8
0
100
AcDbCircle
 10
190.4585089857317
 20
36.79958799284975
 30
0.0
 40
40.0
100
AcDbArc
 50
76.63232579737094
 51
96.17699640483843
  0
ARC
  5
2249
330
2
100
AcDbEntity
  8
0
100
AcDbCircle
 10
185.324406322671
 20
88.08037930481123
 30
0.0
 40
8.5
100
AcDbArc
 50
270.0
 51
315.0000000000138
  0
ARC
  5
224A
330
2
100
AcDbEntity
  8
0
100
AcDbCircle
 10
185.324406322671
 20
88.08037930481123
 30
0.0
 40
5.0
100
AcDbArc
 50
270.0
 51
315.0000000000138
  0
LINE
  5
224C
330
2
100
AcDbEntity
  8
CENTER
100
AcDbLine
 10
212.3477469197804
 20
161.0656606790468
 30
0.0
 11
123.3771841713036
 21
72.09509793056975
 31
0.0
  0
LINE
  5
224D
330
2
100
AcDbEntity
  8
CENTER
100
AcDbLine
 10
123.377184171304
 20
161.0656606790467
 30
0.0
 11
212.3477469197808
 21
72.09509793056963
 31
0.0
  0
ARC
  5
224E
330
2
100
AcDbEntity
  8
0
100
AcDbCircle
 10
145.2664221053518
 20
36.79958799284998
 30
0.0
 40
40.0
100
AcDbArc
 50
83.82300359510905
 51
103.367674202629
  0
ARC
  5
224F
330
2
100
AcDbEntity
  8
0
100
AcDbCircle
 10
167.8624655455422
 20
245.5803793048116
 30
0.0
 40
170.0
100
AcDbArc
 50
263.823003595109
 51
276.1769964048909
  0
ARC
  5
2250
330
2
100
AcDbEntity
  8
0
100
AcDbCircle
 10
131.8624655455422
 20
80.58037930480805
 30
0.0
 40
5.0
100
AcDbArc
 50
180.0
 51
270.0
  0
ARC
  5
2251
330
2
100
AcDbEntity
  8
0
100
AcDbCircle
 10
132.2724655455421
 20
80.58037930480896
 30
0.0
 40
5.0
100
AcDbArc
 50
180.0
 51
270.0
  0
LINE
  5
2252
330
2
100
AcDbEntity
  8
CENTER
100
AcDbLine
 10
133.3624655455422
 20
76.87108376992774
 30
0.0
 11
133.3624655455422
 21
73.47442162755078
 31
0.0
  0
ARC
  5
2253
330
2
100
AcDbEntity
  8
0
100
AcDbCircle
 10
92.86246554554407
 20
77.58037930480805
 30
0.0
 40
2.0
100
AcDbArc
 50
270.0
 51
0.0
  0
ARC
  5
2254
330
2
100
AcDbEntity
  8
0
100
AcDbCircle
 10
92.86246554554407
 20
77.08037930480805
 30
0.0
 40
2.0
100
AcDbArc
 50
270.0
 51
0.0
  0
LINE
  5
2255
330
2
100
AcDbEntity
  8
CENTER
100
AcDbLine
 10
167.8624655455422
 20
65.58037930481169
 30
0.0
 11
167.8624655455422
 21
167.5803793048116
 31
0.0
  0
LINE
  5
2257
330
2
100
AcDbEntity
  8
0
100
AcDbLine
 10
92.86246554554407
 20
75.58037930480804
 30
0.0
 11
82.86246554554224
 21
75.58037930480804
 31
0.0
  0
LINE
  5
2258
330
2
100
AcDbEntity
  8
0
100
AcDbLine
 10
92.86246554554407
 20
75.08037930480805
 30
0.0
 11
82.86246554554224
 21
75.08037930480805
 31
0.0
  0
LINE
  5
2259
330
2
100
AcDbEntity
  8
0
100
AcDbLine
 10
134.8624655455422
 20
75.58037930481191
 30
0.0
 11
131.8624655455422
 21
75.58037930481191
 31
0.0
  0
LINE
  5
225A
330
2
100
AcDbEntity
  8
0
100
AcDbLine
 10
134.8624655455422
 20
75.58037930480896
 30
0.0
 11
132.2724655455421
 21
75.58037930480896
 31
0.0
  0
ARC
  5
225B
330
2
100
AcDbEntity
  8
0
100
AcDbCircle
 10
134.8624655455422
 20
80.58037930481237
 30
0.0
 40
5.0
100
AcDbArc
 50
270.0
 51
283.367674202629
  0
ARC
  5
225C
330
2
100
AcDbEntity
  8
0
100
AcDbCircle
 10
131.8624655455422
 20
152.5803793048078
 30
0.0
 40
5.0
100
AcDbArc
 50
90.0
 51
180.0
  0
ARC
  5
225D
330
2
100
AcDbEntity
  8
0
100
AcDbCircle
 10
132.2724655455421
 20
152.5803793048084
 30
0.0
 40
5.0
100
AcDbArc
 50
90.0
 51
180.0
  0
LINE
  5
225E
330
2
100
AcDbEntity
  8
CENTER
100
AcDbLine
 10
133.3624655455422
 20
159.8303793048085
 30
0.0
 11
133.3624655455422
 21
142.3303793048084
 31
0.0
  0
ARC
  5
225F
330
2
100
AcDbEntity
  8
0
100
AcDbCircle
 10
92.86246554554224
 20
156.0803793048078
 30
0.0
 40
2.0
100
AcDbArc
 50
0.0
 51
90.0
  0
LINE
  5
2260
330
2
100
AcDbEntity
  8
0
100
AcDbLine
 10
112.3624655455404
 20
142.5803793046907
 30
0.0
 11
121.8624655455422
 21
142.5803793046907
 31
0.0
  0
LINE
  5
2261
330
2
100
AcDbEntity
  8
0
100
AcDbLine
 10
107.3624655455404
 20
128.7047349577906
 30
0.0
 11
126.8624655455422
 21
128.7047349577906
 31
0.0
  0
LINE
  5
2262
330
2
100
AcDbEntity
  8
0
100
AcDbLine
 10
123.8624655455422
 20
148.5803793048132
 30
0.0
 11
108.3624655455431
 21
148.5803793048132
 31
0.0
  0
LINE
  5
2263
330
2
100
AcDbEntity
  8
0
100
AcDbLine
 10
112.3624655455367
 20
90.5803793049256
 30
0.0
 11
121.8624655455422
 21
90.58037930492515
 31
0.0
  0
LINE
  5
2264
330
2
100
AcDbEntity
  8
0
100
AcDbLine
 10
107.3624655455376
 20
104.4560236518264
 30
0.0
 11
126.8624655455431
 21
104.4560236518264
 31
0.0
  0
LINE
  5
2265
330
2
100
AcDbEntity
  8
0
100
AcDbLine
 10
123.8624655455422
 20
84.58037930480349
 30
0.0
 11
108.3624655455431
 21
84.58037930480349
 31
0.0
  0
LINE
  5
2266
330
2
100
AcDbEntity
  8
0
100
AcDbLine
 10
107.3624655455358
 20
85.58037930492492
 30
0.0
 11
107.3624655455404
 21
147.5803793046907
 31
0.0
  0
LINE
  5
2267
330
2
100
AcDbEntity
  8
0
100
AcDbLine
 10
94.8624655455468
 20
77.08037930480805
 30
0.0
 11
94.8624655455468
 21
156.0803793048078
 31
0.0
  0
ARC
  5
2268
330
2
100
AcDbEntity
  8
0
100
AcDbCircle
 10
112.3624655455367
 20
85.5803793049256
 30
0.0
 40
5.0
100
AcDbArc
 50
90.0
 51
180.0
  0
ARC
  5
2269
330
2
100
AcDbEntity
  8
0
100
AcDbCircle
 10
108.3624655455431
 20
81.5803793048035
 30
0.0
 40
3.0
100
AcDbArc
 50
90.0
 51
126.86989764587
  0
LINE
  5
226A
330
2
100
AcDbEntity
  8
0
100
AcDbLine
 10
99.8624655455468
 20
83.58037930492491
 30
0.0
 11
105.3624655455422
 21
83.58037930492491
 31
0.0
  0
ARC
  5
226B
330
2
100
AcDbEntity
  8
0
100
AcDbCircle
 10
99.8624655455468
 20
78.58037930492492
 30
0.0
 40
5.0
100
AcDbArc
 50
90.0
 51
180.0
  0
ARC
  5
226C
330
2
100
AcDbEntity
  8
0
100
AcDbCircle
 10
105.3624655455422
 20
85.58037930492492
 30
0.0
 40
2.0
100
AcDbArc
 50
270.0
 51
0.0
  0
LINE
  5
226D
330
2
100
AcDbEntity
  8
0
100
AcDbLine
 10
82.86246554554224
 20
157.5803793048078
 30
0.0
 11
92.86246554554224
 21
157.5803793048078
 31
0.0
  0
LINE
  5
226E
330
2
100
AcDbEntity
  8
0
100
AcDbLine
 10
82.86246554554224
 20
158.0803793048078
 30
0.0
 11
92.86246554554224
 21
158.0803793048078
 31
0.0
  0
ARC
  5
226F
330
2
100
AcDbEntity
  8
0
100
AcDbCircle
 10
105.3624655455422
 20
147.5803793046907
 30
0.0
 40
2.0
100
AcDbArc
 50
0.0
 51
90.0
  0
ARC
  5
2270
330
2
100
AcDbEntity
  8
0
100
AcDbCircle
 10
112.3624655455404
 20
147.5803793046907
 30
0.0
 40
5.0
100
AcDbArc
 50
180.0
 51
270.0
  0
ARC
  5
2271
330
2
100
AcDbEntity
  8
0
100
AcDbCircle
 10
108.3624655455431
 20
151.5803793048135
 30
0.0
 40
3.0
100
AcDbArc
 50
233.1301023541299
 51
270.0
  0
ARC
  5
2272
330
2
100
AcDbEntity
  8
0
100
AcDbCircle
 10
99.86246554554226
 20
154.5803793046907
 30
0.0
 40
5.0
100
AcDbArc
 50
180.0
 51
270.0
  0
ARC
  5
2273
330
2
100
AcDbEntity
  8
0
100
AcDbCircle
 10
92.86246554554224
 20
155.5803793048078
 30
0.0
 40
2.0
100
AcDbArc
 50
0.0
 51
90.0
  0
LINE
  5
2274
330
2
100
AcDbEntity
  8
0
100
AcDbLine
 10
99.86246554554226
 20
149.5803793046907
 30
0.0
 11
105.3624655455422
 21
149.5803793046907
 31
0.0
  0
LINE
  5
2275
330
2
100
AcDbEntity
  8
0
100
AcDbLine
 10
126.3624655455431
 20
104.4560236518264
 30
0.0
 11
126.3624655455422
 21
128.7047349577906
 31
0.0
  0
LINE
  5
2276
330
2
100
AcDbEntity
  8
0
100
AcDbLine
 10
134.3624655455449
 20
134.0423200819373
 30
0.0
 11
134.3624655455449
 21
99.11843852768015
 31
0.0
  0
LINE
  5
2277
330
2
100
AcDbEntity
  8
0
100
AcDbLine
 10
130.8624655455449
 20
134.0423200819373
 30
0.0
 11
130.8624655455449
 21
99.11843852768015
 31
0.0
  0
LINE
  5
2278
330
2
100
AcDbEntity
  8
0
100
AcDbLine
 10
126.8624655455422
 20
80.58037930480805
 30
0.0
 11
126.8624655455422
 21
152.5803793048078
 31
0.0
  0
LINE
  5
2279
330
2
100
AcDbEntity
  8
0
100
AcDbLine
 10
127.2724655455421
 20
80.58037930480896
 30
0.0
 11
127.2724655455421
 21
152.5803793048084
 31
0.0
  0
LINE
  5
227A
330
2
100
AcDbEntity
  8
0
100
AcDbLine
 10
150.4005247684143
 20
79.58037930481123
 30
0.0
 11
185.324406322671
 21
79.58037930481123
 31
0.0
  0
LINE
  5
227B
330
2
100
AcDbEntity
  8
0
100
AcDbLine
 10
150.4005247684143
 20
83.08037930481123
 30
0.0
 11
185.324406322671
 21
83.08037930481123
 31
0.0
  0
LINE
  5
227C
330
2
100
AcDbEntity
  8
0
100
AcDbLine
 10
135.8269316396125
 20
95.58290462174772
 30
0.0
 11
146.864990862481
 21
84.5448453988788
 31
0.0
  0
ARC
  5
227D
330
2
100
AcDbEntity
  8
0
100
AcDbCircle
 10
121.8624655455422
 20
85.58037930492515
 30
0.0
 40
5.0
100
AcDbArc
 50
0.0
 51
90.0
  0
LINE
  5
227E
330
2
100
AcDbEntity
  8
0
100
AcDbLine
 10
131.5094895191995
 20
95.86562935257688
 30
0.0
 11
134.7430678829886
 21
97.20502136585492
 31
0.0
  0
ARC
  5
227F
330
2
100
AcDbEntity
  8
0
100
AcDbCircle
 10
139.3624655455449
 20
99.11843852768015
 30
0.0
 40
8.5
100
AcDbArc
 50
180.0
 51
224.9999999999861
  0
ARC
  5
2280
330
2
100
AcDbEntity
  8
0
100
AcDbCircle
 10
139.3624655455449
 20
99.11843852768015
 30
0.0
 40
5.0
100
AcDbArc
 50
180.0
 51
224.9999999999861
  0
ARC
  5
2281
330
2
100
AcDbEntity
  8
0
100
AcDbCircle
 10
150.4005247684143
 20
88.08037930481123
 30
0.0
 40
8.5
100
AcDbArc
 50
224.9999999999861
 51
270.0
  0
LINE
  5
2282
330
2
100
AcDbEntity
  8
0
100
AcDbLine
 10
147.1477155933106
 20
80.22740327846532
 30
0.0
 11
148.4871076065882
 21
83.46098164225486
 31
0.0
  0
LINE
  5
2283
330
2
100
AcDbEntity
  8
0
100
AcDbLine
 10
135.8624655455422
 20
80.63700363183489
 30
0.0
 11
135.8624655455422
 21
83.52375497778258
 31
0.0
  0
LINE
  5
2284
330
2
100
AcDbEntity
  8
0
100
AcDbLine
 10
130.8624655455431
 20
80.63700363183489
 30
0.0
 11
130.8624655455431
 21
83.52375497778302
 31
0.0
  0
LINE
  5
2285
330
2
100
AcDbEntity
  8
0
100
AcDbLine
 10
130.8624655455431
 20
80.63700363183489
 30
0.0
 11
133.3624655455431
 21
79.19362795886081
 31
0.0
  0
LINE
  5
2286
330
2
100
AcDbEntity
  8
CENTER
100
AcDbLine
 10
124.6124655455422
 20
82.08037930480896
 30
0.0
 11
142.1124655455422
 21
82.08037930480896
 31
0.0
  0
LINE
  5
2287
330
2
100
AcDbEntity
  8
0
100
AcDbLine
 10
135.8624655455422
 20
80.63700363183489
 30
0.0
 11
133.3624655455431
 21
79.19362795886081
 31
0.0
  0
ARC
  5
2288
330
2
100
AcDbEntity
  8
0
100
AcDbCircle
 10
123.8624655455422
 20
81.5803793048035
 30
0.0
 40
3.0
100
AcDbArc
 50
0.0
 51
90.0
  0
LINE
  5
2289
330
2
100
AcDbEntity
  8
0
100
AcDbLine
 10
133.3520579054592
 20
93.10803088759485
 30
0.0
 11
144.3901171283286
 21
82.06997166472547
 31
0.0
  0
ARC
  5
228A
330
2
100
AcDbEntity
  8
0
100
AcDbCircle
 10
150.4005247684143
 20
88.08037930481123
 30
0.0
 40
5.0
100
AcDbArc
 50
224.9999999999861
 51
270.0
  0
LINE
  5
228B
330
2
100
AcDbEntity
  8
CENTER
100
AcDbLine
 10
133.3624655455422
 20
77.89613656064194
 30
0.0
 11
133.3624655455422
 21
90.8303793048085
 31
0.0
  0
CIRCLE
  5
228C
330
2
100
AcDbEntity
  8
0
100
AcDbCircle
 10
133.3624655455422
 20
82.08037930480896
 30
0.0
 40
5.000000000000113
  0
CIRCLE
  5
228D
330
2
100
AcDbEntity
  8
0
100
AcDbCircle
 10
133.3624655455422
 20
82.08037930480896
 30
0.0
 40
4.307179676972509
  0
LINE
  5
228E
330
2
100
AcDbEntity
  8
0
100
AcDbLine
 10
133.3624655455422
 20
84.96713065075709
 30
0.0
 11
130.8624655455431
 21
83.52375497778302
 31
0.0
  0
LINE
  5
228F
330
2
100
AcDbEntity
  8
0
100
AcDbLine
 10
133.3624655455422
 20
84.96713065075709
 30
0.0
 11
135.8624655455422
 21
83.52375497778258
 31
0.0
  0
ARC
  5
2290
330
2
100
AcDbEntity
  8
0
100
AcDbCircle
 10
167.8624655455422
 20
-12.41962069518842
 30
0.0
 40
170.0
100
AcDbArc
 50
83.82300359510905
 51
96.17699640483843
  0
LINE
  5
2291
330
2
100
AcDbEntity
  8
0
100
AcDbLine
 10
185.324406322671
 20
153.5803793048057
 30
0.0
 11
150.4005247684143
 21
153.5803793048057
 31
0.0
  0
LINE
  5
2292
330
2
100
AcDbEntity
  8
0
100
AcDbLine
 10
185.324406322671
 20
150.0803793048057
 30
0.0
 11
150.4005247684143
 21
150.0803793048057
 31
0.0
  0
ARC
  5
2293
330
2
100
AcDbEntity
  8
0
100
AcDbCircle
 10
145.2664221053527
 20
196.3611706167735
 30
0.0
 40
40.0
100
AcDbArc
 50
256.6323257973709
 51
276.1769964048909
  0
ARC
  5
2294
330
2
100
AcDbEntity
  8
0
100
AcDbCircle
 10
150.4005247684143
 20
145.0803793048057
 30
0.0
 40
8.5
100
AcDbArc
 50
90.0
 51
135.0000000000138
  0
LINE
  5
2295
330
2
100
AcDbEntity
  8
0
100
AcDbLine
 10
147.1477155933106
 20
152.9333553311516
 30
0.0
 11
148.4871076065882
 21
149.6997769673621
 31
0.0
  0
LINE
  5
2296
330
2
100
AcDbEntity
  8
0
100
AcDbLine
 10
135.8269316396125
 20
137.5778539878697
 30
0.0
 11
146.864990862481
 21
148.6159132107386
 31
0.0
  0
ARC
  5
2297
330
2
100
AcDbEntity
  8
0
100
AcDbCircle
 10
150.4005247684143
 20
145.0803793048057
 30
0.0
 40
5.0
100
AcDbArc
 50
90.0
 51
135.0000000000138
  0
LINE
  5
2298
330
2
100
AcDbEntity
  8
0
100
AcDbLine
 10
135.8624655455422
 20
149.6370036318344
 30
0.0
 11
135.8624655455422
 21
152.5237549777825
 31
0.0
  0
LINE
  5
2299
330
2
100
AcDbEntity
  8
0
100
AcDbLine
 10
134.8624655455422
 20
157.5803793048116
 30
0.0
 11
131.8624655455422
 21
157.5803793048116
 31
0.0
  0
ARC
  5
229A
330
2
100
AcDbEntity
  8
0
100
AcDbCircle
 10
121.8624655455422
 20
147.5803793046907
 30
0.0
 40
5.0
100
AcDbArc
 50
270.0
 51
0.0
  0
ARC
  5
229B
330
2
100
AcDbEntity
  8
0
100
AcDbCircle
 10
123.8624655455422
 20
151.5803793048135
 30
0.0
 40
3.0
100
AcDbArc
 50
270.0
 51
0.0
  0
CIRCLE
  5
229C
330
2
100
AcDbEntity
  8
HOJO
100
AcDbCircle
 10
131.8624655455449
 20
143.0803793048085
 30
0.0
 40
2.0
  0
LINE
  5
229D
330
2
100
AcDbEntity
  8
CENTER
100
AcDbLine
 10
131.8624655455449
 20
148.2535843855657
 30
0.0
 11
131.8624655455449
 21
137.9071742240516
 31
0.0
  0
ARC
  5
229E
330
2
100
AcDbEntity
  8
0
100
AcDbCircle
 10
139.3624655455449
 20
134.0423200819373
 30
0.0
 40
8.5
100
AcDbArc
 50
135.0000000000138
 51
180.0
  0
LINE
  5
229F
330
2
100
AcDbEntity
  8
0
100
AcDbLine
 10
131.5094895191995
 20
137.2951292570405
 30
0.0
 11
134.7430678829886
 21
135.9557372437625
 31
0.0
  0
LINE
  5
22A0
330
2
100
AcDbEntity
  8
0
100
AcDbLine
 10
134.8624655455422
 20
157.5803793048085
 30
0.0
 11
132.2724655455421
 21
157.5803793048085
 31
0.0
  0
CIRCLE
  5
22A1
330
2
100
AcDbEntity
  8
0
100
AcDbCircle
 10
131.8624655455449
 20
143.0803793048085
 30
0.0
 40
1.6
  0
LINE
  5
22A2
330
2
100
AcDbEntity
  8
0
100
AcDbLine
 10
130.8624655455422
 20
149.6370036318344
 30
0.0
 11
130.8624655455422
 21
152.5237549777825
 31
0.0
  0
LINE
  5
22A3
330
2
100
AcDbEntity
  8
0
100
AcDbLine
 10
130.8624655455422
 20
149.6370036318344
 30
0.0
 11
133.3624655455422
 21
148.1936279588603
 31
0.0
  0
LINE
  5
22A4
330
2
100
AcDbEntity
  8
0
100
AcDbLine
 10
133.3624655455422
 20
153.9671306507566
 30
0.0
 11
130.8624655455422
 21
152.5237549777825
 31
0.0
  0
ARC
  5
22A5
330
2
100
AcDbEntity
  8
0
100
AcDbCircle
 10
134.8624655455422
 20
152.5803793048114
 30
0.0
 40
5.0
100
AcDbArc
 50
76.63232579737094
 51
90.0
  0
LINE
  5
22A6
330
2
100
AcDbEntity
  8
CENTER
100
AcDbLine
 10
124.6124655455422
 20
151.0803793048085
 30
0.0
 11
142.1124655455422
 21
151.0803793048085
 31
0.0
  0
LINE
  5
22A7
330
2
100
AcDbEntity
  8
CENTER
100
AcDbLine
 10
126.6892604647881
 20
143.0803793048085
 30
0.0
 11
137.0356706263027
 21
143.0803793048085
 31
0.0
  0
ARC
  5
22A8
330
2
100
AcDbEntity
  8
0
100
AcDbCircle
 10
139.3624655455449
 20
134.0423200819373
 30
0.0
 40
5.0
100
AcDbArc
 50
135.0000000000138
 51
180.0
  0
LINE
  5
22A9
330
2
100
AcDbEntity
  8
0
100
AcDbLine
 10
133.3520579054592
 20
140.052727722023
 30
0.0
 11
144.3901171283286
 21
151.0907869448915
 31
0.0
  0
CIRCLE
  5
22AA
330
2
100
AcDbEntity
  8
0
100
AcDbCircle
 10
133.3624655455422
 20
151.0803793048085
 30
0.0
 40
5.000000000000113
  0
CIRCLE
  5
22AB
330
2
100
AcDbEntity
  8
0
100
AcDbCircle
 10
133.3624655455422
 20
151.0803793048085
 30
0.0
 40
4.307179676972509
  0
LINE
  5
22AC
330
2
100
AcDbEntity
  8
0
100
AcDbLine
 10
135.8624655455422
 20
149.6370036318344
 30
0.0
 11
133.3624655455422
 21
148.1936279588603
 31
0.0
  0
LINE
  5
22AD
330
2
100
AcDbEntity
  8
0
100
AcDbLine
 10
133.3624655455422
 20
153.9671306507566
 30
0.0
 11
135.8624655455422
 21
152.5237549777825
 31
0.0
  0
ARC
  5
22B8
330
2
100
AcDbEntity
  8
0
100
AcDbCircle
 10
285.1027274601221
 20
80.51977548369956
 30
0.0
 40
5.0
100
AcDbArc
 50
180.0
 51
269.3013056170002
  0
ARC
  5
22B9
330
2
100
AcDbEntity
  8
0
100
AcDbCircle
 10
291.102727460124
 20
76.58037930479537
 30
0.0
 40
1.0
100
AcDbArc
 50
180.0
 51
270.0
  0
LINE
  5
22BA
330
2
100
AcDbEntity
  8
0
100
AcDbLine
 10
364.1027274601249
 20
76.16507944676192
 30
0.0
 11
364.1027274601267
 21
156.9956791628261
 31
0.0
  0
LINE
  5
22BB
330
2
100
AcDbEntity
  8
0
100
AcDbLine
 10
297.6027274601203
 20
75.5847427386787
 30
0.0
 11
297.6027274601203
 21
157.576015870854
 31
0.0
  0
LINE
  5
22BC
330
2
100
AcDbEntity
  8
CENTER
100
AcDbLine
 10
321.1027274601167
 20
168.0803793047793
 30
0.0
 11
321.1027274601167
 21
65.08037930478036
 31
0.0
  0
LINE
  5
22BD
330
2
100
AcDbEntity
  8
CENTER
100
AcDbLine
 10
202.3624655455422
 20
76.87108376992774
 30
0.0
 11
202.3624655455422
 21
73.47442162755078
 31
0.0
  0
ARC
  5
22BE
330
2
100
AcDbEntity
  8
0
100
AcDbCircle
 10
203.8624655455422
 20
80.58037930480805
 30
0.0
 40
5.0
100
AcDbArc
 50
270.0
 51
0.0
  0
LINE
  5
22BF
330
2
100
AcDbEntity
  8
0
100
AcDbLine
 10
357.1636985362076
 20
75.52014724473389
 30
0.0
 11
321.1027274601231
 21
75.08037930478036
 31
0.0
  0
LINE
  5
22C0
330
2
100
AcDbEntity
  8
0
100
AcDbLine
 10
297.6027274601203
 20
75.5847427386787
 30
0.0
 11
364.1027274601249
 21
76.16507944676192
 31
0.0
  0
ARC
  5
22C1
330
2
100
AcDbEntity
  8
0
100
AcDbCircle
 10
200.8624655455422
 20
80.58037930481191
 30
0.0
 40
5.0
100
AcDbArc
 50
256.6323257973709
 51
270.0
  0
LINE
  5
22C2
330
2
100
AcDbEntity
  8
0
100
AcDbLine
 10
203.8624655455422
 20
75.58037930481191
 30
0.0
 11
200.8624655455422
 21
75.58037930481191
 31
0.0
  0
LINE
  5
22C3
330
2
100
AcDbEntity
  8
0
100
AcDbLine
 10
285.0417563840376
 20
75.52014724473207
 30
0.0
 11
321.1027274601221
 21
75.08037930478036
 31
0.0
  0
LINE
  5
22C4
330
2
100
AcDbEntity
  8
0
100
AcDbLine
 10
297.6027274601203
 20
75.58037930479537
 30
0.0
 11
291.102727460124
 21
75.58037930479537
 31
0.0
  0
ARC
  5
22C5
330
2
100
AcDbEntity
  8
0
100
AcDbCircle
 10
357.1027274601222
 20
80.51977548370137
 30
0.0
 40
5.0
100
AcDbArc
 50
270.6986943829998
 51
298.4785614955819
  0
LINE
  5
22C7
330
2
100
AcDbEntity
  8
0
100
AcDbLine
 10
357.1636985362076
 20
157.640611364825
 30
0.0
 11
321.1027274601231
 21
158.0803793047794
 31
0.0
  0
LINE
  5
22C8
330
2
100
AcDbEntity
  8
0
100
AcDbLine
 10
297.6027274601203
 20
157.576015870854
 30
0.0
 11
364.1027274601267
 21
156.9956791628261
 31
0.0
  0
LINE
  5
22C9
330
2
100
AcDbEntity
  8
CENTER
100
AcDbLine
 10
268.1027274601203
 20
116.5803793047953
 30
0.0
 11
424.1027274601249
 21
116.5803793047953
 31
0.0
  0
LINE
  5
22CA
330
2
100
AcDbEntity
  8
0
100
AcDbLine
 10
364.1027274601267
 20
152.5803793048153
 30
0.0
 11
297.6027274601203
 21
152.5803793048153
 31
0.0
  0
LINE
  5
22CB
330
2
100
AcDbEntity
  8
0
100
AcDbLine
 10
364.1027274601267
 20
149.5803793048156
 30
0.0
 11
297.6027274601203
 21
149.5803793048156
 31
0.0
  0
LINE
  5
22CC
330
2
100
AcDbEntity
  8
0
100
AcDbLine
 10
364.1027274601258
 20
134.8724144706796
 30
0.0
 11
297.6027274601203
 21
134.8724144706796
 31
0.0
  0
LINE
  5
22CD
330
2
100
AcDbEntity
  8
0
100
AcDbLine
 10
364.1027274601258
 20
98.2883441389111
 30
0.0
 11
297.6027274601203
 21
98.2883441389111
 31
0.0
  0
LINE
  5
22CE
330
2
100
AcDbEntity
  8
0
100
AcDbLine
 10
364.1027274601267
 20
80.58037930477537
 30
0.0
 11
297.6027274601203
 21
80.58037930477537
 31
0.0
  0
LINE
  5
22CF
330
2
100
AcDbEntity
  8
0
100
AcDbLine
 10
364.1027274601267
 20
83.58037930477513
 30
0.0
 11
297.6027274601203
 21
83.58037930477513
 31
0.0
  0
ARC
  5
22D0
330
2
100
AcDbEntity
  8
0
100
AcDbCircle
 10
285.1027274601221
 20
152.6409831258593
 30
0.0
 40
5.0
100
AcDbArc
 50
90.69869438299976
 51
180.0
  0
LINE
  5
22D3
330
2
100
AcDbEntity
  8
CENTER
100
AcDbLine
 10
202.3624655455422
 20
159.8303793048085
 30
0.0
 11
202.3624655455422
 21
142.3303793048084
 31
0.0
  0
ARC
  5
22D4
330
2
100
AcDbEntity
  8
0
100
AcDbCircle
 10
203.8624655455422
 20
152.5803793048078
 30
0.0
 40
5.0
100
AcDbArc
 50
0.0
 51
90.0
  0
ARC
  5
22D6
330
2
100
AcDbEntity
  8
0
100
AcDbCircle
 10
38.86246554554224
 20
116.5803793048116
 30
0.0
 40
170.0
100
AcDbArc
 50
353.8230035951353
 51
6.176996404864683
  0
LINE
  5
22D7
330
2
100
AcDbEntity
  8
0
100
AcDbLine
 10
204.8624655455395
 20
99.11843852768015
 30
0.0
 11
204.8624655455395
 21
134.0423200819368
 31
0.0
  0
LINE
  5
22D8
330
2
100
AcDbEntity
  8
0
100
AcDbLine
 10
201.3624655455395
 20
99.11843852768015
 30
0.0
 11
201.3624655455395
 21
134.0423200819373
 31
0.0
  0
ARC
  5
22D9
330
2
100
AcDbEntity
  8
0
100
AcDbCircle
 10
247.6432568575036
 20
93.98433586462124
 30
0.0
 40
40.0
100
AcDbArc
 50
173.8230035951353
 51
193.3676742026259
  0
LINE
  5
22DA
330
2
100
AcDbEntity
  8
0
100
AcDbLine
 10
208.8624655455422
 20
80.58037930481191
 30
0.0
 11
208.8624655455422
 21
83.58037930481168
 31
0.0
  0
LINE
  5
22DB
330
2
100
AcDbEntity
  8
0
100
AcDbLine
 10
204.8624655455422
 20
80.63700363183443
 30
0.0
 11
204.8624655455422
 21
83.52375497778258
 31
0.0
  0
ARC
  5
22DC
330
2
100
AcDbEntity
  8
0
100
AcDbCircle
 10
203.8624655455413
 20
83.58037930481168
 30
0.0
 40
5.0
100
AcDbArc
 50
0.0
 51
13.36767420262589
  0
LINE
  5
22DD
330
2
100
AcDbEntity
  8
CENTER
100
AcDbLine
 10
203.8624655455395
 20
84.90717422405168
 30
0.0
 11
203.8624655455395
 21
95.25358438556578
 31
0.0
  0
LINE
  5
22DE
330
2
100
AcDbEntity
  8
0
100
AcDbLine
 10
204.215441571885
 20
95.86562935257688
 30
0.0
 11
200.9818632080958
 21
97.20502136585446
 31
0.0
  0
LINE
  5
22DF
330
2
100
AcDbEntity
  8
0
100
AcDbLine
 10
199.8979994514719
 20
95.58290462174728
 30
0.0
 11
188.8599402286034
 21
84.54484539887834
 31
0.0
  0
ARC
  5
22E0
330
2
100
AcDbEntity
  8
0
100
AcDbCircle
 10
196.3624655455395
 20
99.11843852768015
 30
0.0
 40
5.0
100
AcDbArc
 50
315.0000000000138
 51
0.0
  0
LINE
  5
22E1
330
2
100
AcDbEntity
  8
0
100
AcDbLine
 10
188.5772154977747
 20
80.22740327846532
 30
0.0
 11
187.2378234844962
 21
83.46098164225486
 31
0.0
  0
LINE
  5
22E2
330
2
100
AcDbEntity
  8
0
100
AcDbLine
 10
199.8624655455422
 20
80.63700363183443
 30
0.0
 11
199.8624655455422
 21
83.52375497778258
 31
0.0
  0
LINE
  5
22E3
330
2
100
AcDbEntity
  8
0
100
AcDbLine
 10
199.8624655455422
 20
80.63700363183443
 30
0.0
 11
202.3624655455422
 21
79.19362795886036
 31
0.0
  0
LINE
  5
22E4
330
2
100
AcDbEntity
  8
0
100
AcDbLine
 10
202.3728731856252
 20
93.1080308875944
 30
0.0
 11
191.3348139627568
 21
82.06997166472593
 31
0.0
  0
LINE
  5
22E5
330
2
100
AcDbEntity
  8
CENTER
100
AcDbLine
 10
202.3624655455422
 20
77.89613656064194
 30
0.0
 11
202.3624655455422
 21
90.8303793048085
 31
0.0
  0
LINE
  5
22E6
330
2
100
AcDbEntity
  8
0
100
AcDbLine
 10
202.3624655455422
 20
84.96713065075665
 30
0.0
 11
199.8624655455422
 21
83.52375497778258
 31
0.0
  0
LINE
  5
22E7
330
2
100
AcDbEntity
  8
CENTER
100
AcDbLine
 10
211.1124655455422
 20
82.0803793048085
 30
0.0
 11
193.6124655455422
 21
82.0803793048085
 31
0.0
  0
LINE
  5
22E8
330
2
100
AcDbEntity
  8
CENTER
100
AcDbLine
 10
209.0356706262972
 20
90.08037930480851
 30
0.0
 11
198.6892604647827
 21
90.08037930480851
 31
0.0
  0
CIRCLE
  5
22E9
330
2
100
AcDbEntity
  8
HOJO
100
AcDbCircle
 10
203.8624655455395
 20
90.08037930480851
 30
0.0
 40
2.0
  0
CIRCLE
  5
22EA
330
2
100
AcDbEntity
  8
0
100
AcDbCircle
 10
203.8624655455395
 20
90.08037930480851
 30
0.0
 40
1.6
  0
ARC
  5
22EB
330
2
100
AcDbEntity
  8
0
100
AcDbCircle
 10
196.3624655455395
 20
99.11843852768015
 30
0.0
 40
8.5
100
AcDbArc
 50
315.0000000000138
 51
0.0
  0
CIRCLE
  5
22EC
330
2
100
AcDbEntity
  8
0
100
AcDbCircle
 10
202.3624655455422
 20
82.0803793048085
 30
0.0
 40
5.000000000000113
  0
CIRCLE
  5
22ED
330
2
100
AcDbEntity
  8
0
100
AcDbCircle
 10
202.3624655455422
 20
82.0803793048085
 30
0.0
 40
4.307179676972509
  0
LINE
  5
22EE
330
2
100
AcDbEntity
  8
0
100
AcDbLine
 10
204.8624655455422
 20
80.63700363183443
 30
0.0
 11
202.3624655455422
 21
79.19362795886036
 31
0.0
  0
LINE
  5
22EF
330
2
100
AcDbEntity
  8
0
100
AcDbLine
 10
202.3624655455422
 20
84.96713065075665
 30
0.0
 11
204.8624655455422
 21
83.52375497778258
 31
0.0
  0
ARC
  5
22F0
330
2
100
AcDbEntity
  8
0
100
AcDbCircle
 10
247.6432568575045
 20
139.1764227450009
 30
0.0
 40
40.0
100
AcDbArc
 50
166.6323257973741
 51
186.1769964048647
  0
LINE
  5
22F1
330
2
100
AcDbEntity
  8
0
100
AcDbLine
 10
208.8624655455422
 20
149.5803793048116
 30
0.0
 11
208.8624655455422
 21
152.5803793048116
 31
0.0
  0
ARC
  5
22F2
330
2
100
AcDbEntity
  8
0
100
AcDbCircle
 10
203.8624655455422
 20
149.5803793048116
 30
0.0
 40
5.0
100
AcDbArc
 50
346.6323257973741
 51
0.0
  0
LINE
  5
22F3
330
2
100
AcDbEntity
  8
0
100
AcDbLine
 10
204.8624655455422
 20
149.6370036318344
 30
0.0
 11
204.8624655455422
 21
152.5237549777825
 31
0.0
  0
LINE
  5
22F4
330
2
100
AcDbEntity
  8
0
100
AcDbLine
 10
203.8624655455422
 20
157.5803793048116
 30
0.0
 11
200.8624655455422
 21
157.5803793048116
 31
0.0
  0
ARC
  5
22F5
330
2
100
AcDbEntity
  8
0
100
AcDbCircle
 10
200.8624655455422
 20
152.5803793048107
 30
0.0
 40
5.0
100
AcDbArc
 50
90.0
 51
103.367674202629
  0
ARC
  5
22F6
330
2
100
AcDbEntity
  8
0
100
AcDbCircle
 10
196.3624655455395
 20
134.0423200819373
 30
0.0
 40
5.0
100
AcDbArc
 50
0.0
 51
44.99999999998617
  0
LINE
  5
22F7
330
2
100
AcDbEntity
  8
0
100
AcDbLine
 10
204.215441571885
 20
137.2951292570401
 30
0.0
 11
200.9818632080968
 21
135.9557372437625
 31
0.0
  0
LINE
  5
22F8
330
2
100
AcDbEntity
  8
0
100
AcDbLine
 10
188.5772154977747
 20
152.9333553311516
 30
0.0
 11
187.2378234844962
 21
149.6997769673621
 31
0.0
  0
LINE
  5
22F9
330
2
100
AcDbEntity
  8
0
100
AcDbLine
 10
202.3728731856252
 20
140.0527277220226
 30
0.0
 11
191.3348139627568
 21
151.0907869448915
 31
0.0
  0
LINE
  5
22FA
330
2
100
AcDbEntity
  8
0
100
AcDbLine
 10
199.8979994514719
 20
137.5778539878697
 30
0.0
 11
188.8599402286034
 21
148.6159132107386
 31
0.0
  0
LINE
  5
22FB
330
2
100
AcDbEntity
  8
0
100
AcDbLine
 10
199.8624655455422
 20
149.6370036318344
 30
0.0
 11
199.8624655455422
 21
152.5237549777825
 31
0.0
  0
LINE
  5
22FC
330
2
100
AcDbEntity
  8
0
100
AcDbLine
 10
199.8624655455422
 20
149.6370036318344
 30
0.0
 11
202.3624655455422
 21
148.1936279588603
 31
0.0
  0
LINE
  5
22FD
330
2
100
AcDbEntity
  8
0
100
AcDbLine
 10
202.3624655455422
 20
153.9671306507566
 30
0.0
 11
199.8624655455422
 21
152.5237549777825
 31
0.0
  0
LINE
  5
22FE
330
2
100
AcDbEntity
  8
CENTER
100
AcDbLine
 10
211.1124655455422
 20
151.0803793048085
 30
0.0
 11
193.6124655455422
 21
151.0803793048085
 31
0.0
  0
ARC
  5
22FF
330
2
100
AcDbEntity
  8
0
100
AcDbCircle
 10
196.3624655455395
 20
134.0423200819368
 30
0.0
 40
8.5
100
AcDbArc
 50
0.0
 51
44.99999999998617
  0
CIRCLE
  5
2300
330
2
100
AcDbEntity
  8
0
100
AcDbCircle
 10
202.3624655455422
 20
151.0803793048085
 30
0.0
 40
5.000000000000113
  0
CIRCLE
  5
2301
330
2
100
AcDbEntity
  8
0
100
AcDbCircle
 10
202.3624655455422
 20
151.0803793048085
 30
0.0
 40
4.307179676972509
  0
LINE
  5
2302
330
2
100
AcDbEntity
  8
0
100
AcDbLine
 10
204.8624655455422
 20
149.6370036318344
 30
0.0
 11
202.3624655455422
 21
148.1936279588603
 31
0.0
  0
LINE
  5
2303
330
2
100
AcDbEntity
  8
0
100
AcDbLine
 10
202.3624655455422
 20
153.9671306507566
 30
0.0
 11
204.8624655455422
 21
152.5237549777825
 31
0.0
  0
LINE
  5
2304
330
2
100
AcDbEntity
  8
0
100
AcDbLine
 10
286.6027274601203
 20
146.080379304814
 30
0.0
 11
286.6027274601203
 21
87.08037930477672
 31
0.0
  0
LINE
  5
2305
330
2
100
AcDbEntity
  8
0
100
AcDbLine
 10
278.1027274601203
 20
142.5030290356042
 30
0.0
 11
278.1027274601203
 21
90.65772957398673
 31
0.0
  0
LINE
  5
2306
330
2
100
AcDbEntity
  8
0
100
AcDbLine
 10
282.6027274601258
 20
142.8803793047957
 30
0.0
 11
282.6027274601258
 21
90.28037930479497
 31
0.0
  0
LINE
  5
2307
330
2
100
AcDbEntity
  8
0
100
AcDbLine
 10
280.6027274601258
 20
142.8803793047962
 30
0.0
 11
280.6027274602049
 21
90.28037930479497
 31
0.0
  0
LINE
  5
2308
330
2
100
AcDbEntity
  8
0
100
AcDbLine
 10
286.1027274601212
 20
88.08037930480059
 30
0.0
 11
286.1027274601203
 21
145.0803793047897
 31
0.0
  0
LINE
  5
2309
330
2
100
AcDbEntity
  8
0
100
AcDbLine
 10
279.1027274601258
 20
143.080379304796
 30
0.0
 11
279.1027274601258
 21
90.08037930479446
 31
0.0
  0
LINE
  5
230A
330
2
100
AcDbEntity
  8
0
100
AcDbLine
 10
282.8027274601256
 20
90.08037930479492
 30
0.0
 11
282.8027274601256
 21
143.0803793047956
 31
0.0
  0
LINE
  5
230B
330
2
100
AcDbEntity
  8
0
100
AcDbLine
 10
290.1027274601231
 20
76.58037930479537
 30
0.0
 11
290.1027274601231
 21
156.5803793047953
 31
0.0
  0
LINE
  5
230C
330
2
100
AcDbEntity
  8
0
100
AcDbLine
 10
288.602727460124
 20
87.08037930477672
 30
0.0
 11
283.0027274601236
 21
87.08037930477672
 31
0.0
  0
LINE
  5
230D
330
2
100
AcDbEntity
  8
HIDS
100
AcDbLine
 10
289.5169410224955
 20
80.16616574242272
 30
0.0
 11
287.1885138977488
 21
82.49459286716803
 31
0.0
  0
LINE
  5
230E
330
2
100
AcDbEntity
  8
CENTER
100
AcDbLine
 10
277.6027274601231
 20
82.08037930477672
 30
0.0
 11
302.6654742042694
 21
82.08037930477672
 31
0.0
  0
LINE
  5
230F
330
2
100
AcDbEntity
  8
0
100
AcDbLine
 10
288.602727460124
 20
77.08037930477672
 30
0.0
 11
283.0027274601236
 21
77.08037930477672
 31
0.0
  0
LINE
  5
2310
330
2
100
AcDbEntity
  8
0
100
AcDbLine
 10
279.1027274601258
 20
90.08037930479446
 30
0.0
 11
280.4027274601251
 21
90.08037930479469
 31
0.0
  0
LINE
  5
2311
330
2
100
AcDbEntity
  8
0
100
AcDbLine
 10
282.6027274601258
 20
90.28037930479497
 30
0.0
 11
282.8027274601256
 21
90.08037930479492
 31
0.0
  0
LINE
  5
2312
330
2
100
AcDbEntity
  8
0
100
AcDbLine
 10
280.8027274601256
 20
90.78037930479451
 30
0.0
 11
282.4027274601251
 21
90.78037930479496
 31
0.0
  0
LINE
  5
2313
330
2
100
AcDbEntity
  8
0
100
AcDbLine
 10
279.1027274601258
 20
90.08037930479446
 30
0.0
 11
278.1027274601258
 21
90.65772957398399
 31
0.0
  0
LINE
  5
2314
330
2
100
AcDbEntity
  8
0
100
AcDbLine
 10
286.1027274601212
 20
88.08037930480059
 30
0.0
 11
286.6027274601258
 21
87.58037930479559
 31
0.0
  0
LINE
  5
2315
330
2
100
AcDbEntity
  8
0
100
AcDbLine
 10
282.8027274601256
 20
90.08037930479492
 30
0.0
 11
286.1027274601258
 21
90.08037930479536
 31
0.0
  0
ARC
  5
2316
330
2
100
AcDbEntity
  8
0
100
AcDbCircle
 10
280.4027274601251
 20
90.28037930479451
 30
0.0
 40
0.2
100
AcDbArc
 50
270.0
 51
0.0000000001042204
  0
ARC
  5
2317
330
2
100
AcDbEntity
  8
0
100
AcDbCircle
 10
280.8027274601265
 20
90.5803793047947
 30
0.0
 40
0.2
100
AcDbArc
 50
90.0
 51
179.9999999998697
  0
ARC
  5
2318
330
2
100
AcDbEntity
  8
0
100
AcDbCircle
 10
282.4027274601251
 20
90.5803793047947
 30
0.0
 40
0.2
100
AcDbArc
 50
0.0
 51
90.0
  0
LINE
  5
2319
330
2
100
AcDbEntity
  8
0
100
AcDbLine
 10
283.0027274601236
 20
87.08037930477672
 30
0.0
 11
282.602727460124
 21
86.38755898174901
 31
0.0
  0
ARC
  5
231A
330
2
100
AcDbEntity
  8
HIDS
100
AcDbCircle
 10
288.6027274601203
 20
83.90880642954181
 30
0.0
 40
2.0
100
AcDbArc
 50
180.0
 51
225.0000000000598
  0
LINE
  5
231B
330
2
100
AcDbEntity
  8
0
100
AcDbLine
 10
283.0027274601236
 20
77.08037930477672
 30
0.0
 11
282.602727460124
 21
77.77319962780445
 31
0.0
  0
LINE
  5
231C
330
2
100
AcDbEntity
  8
0
100
AcDbLine
 10
280.1027274601222
 20
80.51977548369956
 30
0.0
 11
280.1027274601222
 21
90.08037930479446
 31
0.0
  0
LINE
  5
231D
330
2
100
AcDbEntity
  8
0
100
AcDbLine
 10
282.602727460124
 20
77.77319962780445
 30
0.0
 11
282.602727460123
 21
86.38755898174901
 31
0.0
  0
LINE
  5
231E
330
2
100
AcDbEntity
  8
0
100
AcDbLine
 10
283.0027274601236
 20
77.08037930477672
 30
0.0
 11
283.0027274601236
 21
87.08037930477672
 31
0.0
  0
LINE
  5
231F
330
2
100
AcDbEntity
  8
HIDS
100
AcDbLine
 10
286.6027274601203
 20
87.08037930477672
 30
0.0
 11
286.6027274601203
 21
83.90880642954181
 31
0.0
  0
LINE
  5
2320
330
2
100
AcDbEntity
  8
0
100
AcDbLine
 10
297.6027274601203
 20
98.2883441389111
 30
0.0
 11
291.102727460123
 21
98.2883441389111
 31
0.0
  0
LINE
  5
2321
330
2
100
AcDbEntity
  8
0
100
AcDbLine
 10
288.602727460123
 20
87.08037930477672
 30
0.0
 11
290.1027274601231
 21
87.08037930477672
 31
0.0
  0
ARC
  5
2322
330
2
100
AcDbEntity
  8
HIDS
100
AcDbCircle
 10
288.1027274601231
 20
78.75195218004916
 30
0.0
 40
2.0
100
AcDbArc
 50
0.0
 51
45.00000000005988
  0
LINE
  5
2323
330
2
100
AcDbEntity
  8
0
100
AcDbLine
 10
297.6027274601203
 20
80.58037930477537
 30
0.0
 11
291.102727460123
 21
80.58037930477537
 31
0.0
  0
LINE
  5
2324
330
2
100
AcDbEntity
  8
0
100
AcDbLine
 10
297.6027274601203
 20
83.58037930477513
 30
0.0
 11
291.102727460123
 21
83.58037930477513
 31
0.0
  0
LINE
  5
2325
330
2
100
AcDbEntity
  8
0
100
AcDbLine
 10
288.602727460123
 20
77.08037930477672
 30
0.0
 11
290.1027274601231
 21
77.08037930477672
 31
0.0
  0
LINE
  5
2326
330
2
100
AcDbEntity
  8
0
100
AcDbLine
 10
288.602727460124
 20
77.08037930477672
 30
0.0
 11
288.602727460124
 21
87.08037930477649
 31
0.0
  0
LINE
  5
2327
330
2
100
AcDbEntity
  8
HIDS
100
AcDbLine
 10
289.5169410224955
 20
152.9945928671677
 30
0.0
 11
287.1885138977479
 21
150.6661657424227
 31
0.0
  0
LINE
  5
2328
330
2
100
AcDbEntity
  8
CENTER
100
AcDbLine
 10
277.6027274601231
 20
151.080379304814
 30
0.0
 11
302.6654742042694
 21
151.080379304814
 31
0.0
  0
LINE
  5
2329
330
2
100
AcDbEntity
  8
0
100
AcDbLine
 10
288.602727460124
 20
146.080379304814
 30
0.0
 11
283.0027274601236
 21
146.080379304814
 31
0.0
  0
LINE
  5
232A
330
2
100
AcDbEntity
  8
0
100
AcDbLine
 10
288.602727460124
 20
156.080379304814
 30
0.0
 11
283.0027274601236
 21
156.080379304814
 31
0.0
  0
LINE
  5
232B
330
2
100
AcDbEntity
  8
0
100
AcDbLine
 10
285.0417563840376
 20
157.6406113648268
 30
0.0
 11
321.1027274601221
 21
158.0803793047794
 31
0.0
  0
LINE
  5
232C
330
2
100
AcDbEntity
  8
0
100
AcDbLine
 10
280.1027274601222
 20
143.0803793047958
 30
0.0
 11
280.1027274601222
 21
152.6409831258593
 31
0.0
  0
LINE
  5
232D
330
2
100
AcDbEntity
  8
0
100
AcDbLine
 10
279.1027274601258
 20
143.080379304796
 30
0.0
 11
278.1027274601258
 21
142.5030290356065
 31
0.0
  0
LINE
  5
232E
330
2
100
AcDbEntity
  8
0
100
AcDbLine
 10
280.8027274601256
 20
142.380379304796
 30
0.0
 11
282.4027274601251
 21
142.3803793047957
 31
0.0
  0
LINE
  5
232F
330
2
100
AcDbEntity
  8
0
100
AcDbLine
 10
282.6027274601258
 20
142.8803793047957
 30
0.0
 11
282.8027274601256
 21
143.0803793047956
 31
0.0
  0
LINE
  5
2330
330
2
100
AcDbEntity
  8
0
100
AcDbLine
 10
279.1027274601258
 20
143.080379304796
 30
0.0
 11
280.4027274601251
 21
143.0803793047958
 31
0.0
  0
LINE
  5
2331
330
2
100
AcDbEntity
  8
0
100
AcDbLine
 10
286.1027274601258
 20
145.0803793047951
 30
0.0
 11
286.1027274601258
 21
143.0803793047951
 31
0.0
  0
LINE
  5
2332
330
2
100
AcDbEntity
  8
0
100
AcDbLine
 10
286.1027274601258
 20
145.0803793047951
 30
0.0
 11
286.6027274601258
 21
145.5803793047951
 31
0.0
  0
LINE
  5
2333
330
2
100
AcDbEntity
  8
0
100
AcDbLine
 10
282.8027274601256
 20
143.0803793047956
 30
0.0
 11
286.1027274601258
 21
143.0803793047951
 31
0.0
  0
ARC
  5
2334
330
2
100
AcDbEntity
  8
HIDS
100
AcDbCircle
 10
288.6027274601203
 20
149.2519521800489
 30
0.0
 40
2.0
100
AcDbArc
 50
134.9999999999401
 51
180.0
  0
ARC
  5
2335
330
2
100
AcDbEntity
  8
0
100
AcDbCircle
 10
280.4027274601251
 20
142.8803793047957
 30
0.0
 40
0.2
100
AcDbArc
 50
0.0000000001302755
 51
90.0
  0
ARC
  5
2336
330
2
100
AcDbEntity
  8
0
100
AcDbCircle
 10
280.8027274601256
 20
142.580379304796
 30
0.0
 40
0.2
100
AcDbArc
 50
180.0000000001302
 51
270.0
  0
ARC
  5
2337
330
2
100
AcDbEntity
  8
0
100
AcDbCircle
 10
282.4027274601251
 20
142.5803793047956
 30
0.0
 40
0.2
100
AcDbArc
 50
270.0
 51
0.0
  0
LINE
  5
2338
330
2
100
AcDbEntity
  8
0
100
AcDbLine
 10
282.602727460124
 20
155.3875589817863
 30
0.0
 11
282.602727460123
 21
146.7731996278417
 31
0.0
  0
LINE
  5
2339
330
2
100
AcDbEntity
  8
0
100
AcDbLine
 10
283.0027274601236
 20
156.080379304814
 30
0.0
 11
283.0027274601236
 21
146.080379304814
 31
0.0
  0
LINE
  5
233A
330
2
100
AcDbEntity
  8
0
100
AcDbLine
 10
283.0027274601236
 20
156.080379304814
 30
0.0
 11
282.602727460124
 21
155.3875589817863
 31
0.0
  0
LINE
  5
233B
330
2
100
AcDbEntity
  8
0
100
AcDbLine
 10
283.0027274601236
 20
146.080379304814
 30
0.0
 11
282.602727460124
 21
146.7731996278417
 31
0.0
  0
LINE
  5
233C
330
2
100
AcDbEntity
  8
HIDS
100
AcDbLine
 10
286.6027274601203
 20
146.080379304814
 30
0.0
 11
286.6027274601203
 21
149.2519521800489
 31
0.0
  0
LINE
  5
233D
330
2
100
AcDbEntity
  8
0
100
AcDbLine
 10
297.6027274601213
 20
157.5803793047951
 30
0.0
 11
291.102727460123
 21
157.5803793047951
 31
0.0
  0
ARC
  5
233E
330
2
100
AcDbEntity
  8
0
100
AcDbCircle
 10
291.102727460123
 20
156.5803793047951
 30
0.0
 40
1.0
100
AcDbArc
 50
90.0
 51
180.0
  0
ARC
  5
233F
330
2
100
AcDbEntity
  8
HIDS
100
AcDbCircle
 10
288.1027274601231
 20
154.4088064295415
 30
0.0
 40
2.0
100
AcDbArc
 50
314.99999999994
 51
0.0
  0
LINE
  5
2340
330
2
100
AcDbEntity
  8
0
100
AcDbLine
 10
297.6027274601203
 20
152.5803793048153
 30
0.0
 11
291.102727460123
 21
152.5803793048153
 31
0.0
  0
LINE
  5
2341
330
2
100
AcDbEntity
  8
0
100
AcDbLine
 10
297.6027274601203
 20
149.5803793048156
 30
0.0
 11
291.102727460123
 21
149.5803793048156
 31
0.0
  0
LINE
  5
2342
330
2
100
AcDbEntity
  8
0
100
AcDbLine
 10
297.6027274601203
 20
134.8724144706796
 30
0.0
 11
291.102727460123
 21
134.8724144706796
 31
0.0
  0
LINE
  5
2343
330
2
100
AcDbEntity
  8
0
100
AcDbLine
 10
288.602727460124
 20
156.080379304814
 30
0.0
 11
288.602727460124
 21
146.0803793048142
 31
0.0
  0
LINE
  5
2344
330
2
100
AcDbEntity
  8
0
100
AcDbLine
 10
288.602727460123
 20
156.080379304814
 30
0.0
 11
290.1027274601231
 21
156.080379304814
 31
0.0
  0
LINE
  5
2345
330
2
100
AcDbEntity
  8
0
100
AcDbLine
 10
288.602727460123
 20
146.080379304814
 30
0.0
 11
290.1027274601231
 21
146.080379304814
 31
0.0
  0
LINE
  5
234D
330
2
100
AcDbEntity
  8
0
100
AcDbLine
 10
382.1027274601222
 20
90.51175685441519
 30
0.0
 11
382.102727460124
 21
142.6490017551855
 31
0.0
  0
LINE
  5
2350
330
2
100
AcDbEntity
  8
0
100
AcDbLine
 10
369.102727460124
 20
81.58037930480038
 30
0.0
 11
369.102727460124
 21
151.5803793048003
 31
0.0
  0
ARC
  5
2351
330
2
100
AcDbEntity
  8
0
100
AcDbCircle
 10
380.102727460124
 20
90.51175685441519
 30
0.0
 40
2.0
100
AcDbArc
 50
272.0000000000035
 51
0.0
  0
ARC
  5
2356
330
2
100
AcDbEntity
  8
0
100
AcDbCircle
 10
371.102727460124
 20
86.19503175179449
 30
0.0
 40
2.0
100
AcDbArc
 50
92.00000000000361
 51
180.0
  0
LINE
  5
2357
330
2
100
AcDbEntity
  8
0
100
AcDbLine
 10
371.0329284667189
 20
88.19381340583237
 30
0.0
 11
380.1725264535282
 21
88.51297520037638
 31
0.0
  0
LINE
  5
2358
330
2
100
AcDbEntity
  8
0
100
AcDbLine
 10
364.102727460124
 20
81.58037930480038
 30
0.0
 11
369.102727460124
 21
81.58037930480038
 31
0.0
  0
ARC
  5
2359
330
2
100
AcDbEntity
  8
0
100
AcDbCircle
 10
380.102727460124
 20
142.6490017551855
 30
0.0
 40
2.0
100
AcDbArc
 50
0.0
 51
87.9999999999964
  0
ARC
  5
235E
330
2
100
AcDbEntity
  8
0
100
AcDbCircle
 10
371.102727460124
 20
146.965726857808
 30
0.0
 40
2.0
100
AcDbArc
 50
180.0
 51
267.9999999999963
  0
ARC
  5
235F
330
2
100
AcDbEntity
  8
0
100
AcDbCircle
 10
357.1027274601222
 20
152.6409831258575
 30
0.0
 40
5.0
100
AcDbArc
 50
61.52143850501121
 51
89.30130561700023
  0
LINE
  5
2360
330
2
100
AcDbEntity
  8
0
100
AcDbLine
 10
364.102727460124
 20
151.5803793048003
 30
0.0
 11
369.102727460124
 21
151.5803793048003
 31
0.0
  0
LINE
  5
2361
330
2
100
AcDbEntity
  8
0
100
AcDbLine
 10
371.0329284667189
 20
144.9669452037692
 30
0.0
 11
380.1725264535291
 21
144.6477834092243
 31
0.0
  0
ARC
  5
2366
330
2
100
AcDbEntity
  8
0
100
AcDbCircle
 10
666.9984174506973
 20
77.58037930481794
 30
0.0
 40
2.0
100
AcDbArc
 50
180.0
 51
270.0
  0
ARC
  5
2367
330
2
100
AcDbEntity
  8
0
100
AcDbCircle
 10
666.9984174506973
 20
77.08037930481793
 30
0.0
 40
2.0
100
AcDbArc
 50
180.0
 51
270.0
  0
ARC
  5
2368
330
2
100
AcDbEntity
  8
0
100
AcDbCircle
 10
627.9984174506973
 20
80.58037930481793
 30
0.0
 40
5.0
100
AcDbArc
 50
270.0
 51
0.0
  0
ARC
  5
2369
330
2
100
AcDbEntity
  8
0
100
AcDbCircle
 10
614.5944608908823
 20
36.79958799285805
 30
0.0
 40
40.0
100
AcDbArc
 50
76.63232579737094
 51
96.17699640483843
  0
ARC
  5
236A
330
2
100
AcDbEntity
  8
0
100
AcDbCircle
 10
591.9984174506928
 20
245.5803793048202
 30
0.0
 40
170.0
100
AcDbArc
 50
263.823003595109
 51
276.1769964048909
  0
ARC
  5
236B
330
2
100
AcDbEntity
  8
0
100
AcDbCircle
 10
555.9984174506964
 20
80.58037930481793
 30
0.0
 40
5.0
100
AcDbArc
 50
180.0
 51
270.0
  0
ARC
  5
236C
330
2
100
AcDbEntity
  8
0
100
AcDbCircle
 10
569.4023740105032
 20
36.79958799285827
 30
0.0
 40
40.0
100
AcDbArc
 50
83.82300359510905
 51
103.367674202629
  0
LINE
  5
236D
330
2
100
AcDbEntity
  8
CENTER
100
AcDbLine
 10
636.5461446654482
 20
161.1281065195716
 30
0.0
 11
547.4506902359428
 21
72.03265209006668
 31
0.0
  0
LINE
  5
236E
330
2
100
AcDbEntity
  8
CENTER
100
AcDbLine
 10
546.7723379841202
 20
161.8064587713936
 30
0.0
 11
637.2244969172709
 21
71.35429983824224
 31
0.0
  0
CIRCLE
  5
236F
330
2
100
AcDbEntity
  8
CENTER
100
AcDbCircle
 10
591.9984174506964
 20
116.5803793048183
 30
0.0
 40
48.99999999999932
  0
LINE
  5
2370
330
2
100
AcDbEntity
  8
CENTER
100
AcDbLine
 10
557.3501851725552
 20
88.93214702667718
 30
0.0
 11
557.3501851725552
 21
74.93214702667717
 31
0.0
  0
LINE
  5
2371
330
2
100
AcDbEntity
  8
CENTER
100
AcDbLine
 10
626.6466497288377
 20
88.93214702667718
 30
0.0
 11
626.6466497288377
 21
74.93214702667717
 31
0.0
  0
LINE
  5
2373
330
2
100
AcDbEntity
  8
CENTER
100
AcDbLine
 10
591.9984174507024
 20
175.5803793048177
 30
0.0
 11
591.9984174507019
 21
57.58037930481908
 31
0.0
  0
LINE
  5
2375
330
2
100
AcDbEntity
  8
0
100
AcDbLine
 10
555.9984174506928
 20
75.58037930481998
 30
0.0
 11
558.9984174506928
 21
75.58037930481998
 31
0.0
  0
ARC
  5
2376
330
2
100
AcDbEntity
  8
0
100
AcDbCircle
 10
558.9984174506928
 20
80.58037930482067
 30
0.0
 40
5.0
100
AcDbArc
 50
270.0
 51
283.367674202629
  0
ARC
  5
2377
330
2
100
AcDbEntity
  8
0
100
AcDbCircle
 10
624.9984174506928
 20
80.5803793048202
 30
0.0
 40
5.0
100
AcDbArc
 50
256.6323257973709
 51
270.0
  0
LINE
  5
2378
330
2
100
AcDbEntity
  8
0
100
AcDbLine
 10
624.9984174506928
 20
75.58037930481998
 30
0.0
 11
627.9984174506937
 21
75.58037930481998
 31
0.0
  0
LINE
  5
2379
330
2
100
AcDbEntity
  8
0
100
AcDbLine
 10
676.9984174506946
 20
75.58037930481794
 30
0.0
 11
666.9984174506973
 21
75.58037930481794
 31
0.0
  0
LINE
  5
237A
330
2
100
AcDbEntity
  8
0
100
AcDbLine
 10
676.9984174506946
 20
75.08037930481794
 30
0.0
 11
666.9984174506973
 21
75.08037930481794
 31
0.0
  0
LINE
  5
237B
330
2
100
AcDbEntity
  8
CENTER
100
AcDbLine
 10
633.6466497288377
 20
151.2286115829596
 30
0.0
 11
619.6466497288376
 21
151.2286115829596
 31
0.0
  0
ARC
  5
237C
330
2
100
AcDbEntity
  8
0
100
AcDbCircle
 10
614.5944608908841
 20
196.3611706167815
 30
0.0
 40
40.0
100
AcDbArc
 50
263.823003595109
 51
283.367674202629
  0
LINE
  5
237E
330
2
100
AcDbEntity
  8
CENTER
100
AcDbLine
 10
633.6466497288377
 20
81.93214702668218
 30
0.0
 11
619.6466497288376
 21
81.93214702668218
 31
0.0
  0
CIRCLE
  5
237F
330
2
100
AcDbEntity
  8
0
100
AcDbCircle
 10
591.9984174506964
 20
116.5803793048179
 30
0.0
 40
35.00000000000011
  0
LINE
  5
2380
330
2
100
AcDbEntity
  8
CENTER
100
AcDbLine
 10
557.3501851725552
 20
158.2286115829587
 30
0.0
 11
557.3501851725552
 21
144.2286115829586
 31
0.0
  0
ARC
  5
2381
330
2
100
AcDbEntity
  8
0
100
AcDbCircle
 10
555.9984174506964
 20
152.5803793048179
 30
0.0
 40
5.0
100
AcDbArc
 50
90.0
 51
180.0
  0
LINE
  5
2382
330
2
100
AcDbEntity
  8
CENTER
100
AcDbLine
 10
564.3501851725561
 20
151.2286115829582
 30
0.0
 11
550.3501851725562
 21
151.2286115829582
 31
0.0
  0
ARC
  5
2383
330
2
100
AcDbEntity
  8
0
100
AcDbCircle
 10
512.2176261387314
 20
139.1764227450102
 30
0.0
 40
40.0
100
AcDbArc
 50
353.8230035951353
 51
13.36767420262589
  0
ARC
  5
2384
330
2
100
AcDbEntity
  8
0
100
AcDbCircle
 10
512.2176261387314
 20
93.98433586463069
 30
0.0
 40
40.0
100
AcDbArc
 50
346.6323257973741
 51
6.176996404864683
  0
LINE
  5
2385
330
2
100
AcDbEntity
  8
CENTER
100
AcDbLine
 10
564.3501851725561
 20
81.93214702667876
 30
0.0
 11
550.3501851725562
 21
81.93214702667876
 31
0.0
  0
ARC
  5
2386
330
2
100
AcDbEntity
  8
0
100
AcDbCircle
 10
720.9984174506937
 20
116.5803793048199
 30
0.0
 40
170.0
100
AcDbArc
 50
173.8230035951353
 51
186.1769964048647
  0
LINE
  5
2387
330
2
100
AcDbEntity
  8
0
100
AcDbLine
 10
550.9984174506928
 20
83.58037930481998
 30
0.0
 11
550.9984174506928
 21
80.58037930481999
 31
0.0
  0
ARC
  5
2388
330
2
100
AcDbEntity
  8
0
100
AcDbCircle
 10
555.9984174506937
 20
83.58037930481998
 30
0.0
 40
5.0
100
AcDbArc
 50
166.6323257973741
 51
180.0
  0
LINE
  5
2389
330
2
100
AcDbEntity
  8
0
100
AcDbLine
 10
550.9984174506928
 20
152.5803793048197
 30
0.0
 11
550.9984174506928
 21
149.5803793048199
 31
0.0
  0
ARC
  5
238A
330
2
100
AcDbEntity
  8
0
100
AcDbCircle
 10
555.9984174506937
 20
149.5803793048199
 30
0.0
 40
5.0
100
AcDbArc
 50
180.0
 51
193.3676742026259
  0
CIRCLE
  5
238F
330
2
100
AcDbEntity
  8
0
100
AcDbCircle
 10
591.9984174506964
 20
116.5803793048179
 30
0.0
 40
23.0
  0
CIRCLE
  5
2390
330
2
100
AcDbEntity
  8
0
100
AcDbCircle
 10
591.9984174506964
 20
116.5803793048179
 30
0.0
 40
27.99999999999875
  0
CIRCLE
  5
2391
330
2
100
AcDbEntity
  8
HOJO
100
AcDbCircle
 10
557.3501851725561
 20
81.93214702667717
 30
0.0
 40
3.0
  0
CIRCLE
  5
2392
330
2
100
AcDbEntity
  8
0
100
AcDbCircle
 10
557.3501851725561
 20
81.93214702667717
 30
0.0
 40
2.399999999999999
  0
LINE
  5
2393
330
2
100
AcDbEntity
  8
0
100
AcDbLine
 10
590.8784339092528
 20
84.05225292721217
 30
0.0
 11
591.2109333661703
 21
84.05225292721217
 31
0.0
  0
LINE
  5
2394
330
2
100
AcDbEntity
  8
0
100
AcDbLine
 10
591.2109333661703
 20
84.71725184104764
 30
0.0
 11
591.2109333661703
 21
84.05225292721217
 31
0.0
  0
LINE
  5
2395
330
2
100
AcDbEntity
  8
0
100
AcDbLine
 10
591.2109333661703
 20
84.71725184104764
 30
0.0
 11
590.8784339092528
 21
84.05225292721217
 31
0.0
  0
LINE
  5
2396
330
2
100
AcDbEntity
  8
0
100
AcDbLine
 10
592.2609015336668
 20
84.71725292720988
 30
0.0
 11
593.3765583661627
 21
84.71725292720988
 31
0.0
  0
LINE
  5
2397
330
2
100
AcDbEntity
  8
0
100
AcDbLine
 10
592.4096833661662
 20
84.56850292721027
 30
0.0
 11
593.3765583661627
 21
84.56850292721027
 31
0.0
  0
ARC
  5
2398
330
2
100
AcDbEntity
  8
0
100
AcDbCircle
 10
593.3765583661627
 20
84.64287792720995
 30
0.0
 40
0.0743749999997391
100
AcDbArc
 50
270.0
 51
90.0
  0
LINE
  5
2399
330
2
100
AcDbEntity
  8
0
100
AcDbLine
 10
590.5459333661731
 20
85.90725292720561
 30
0.0
 11
593.4509015336628
 21
85.90725292720561
 31
0.0
  0
LINE
  5
239A
330
2
100
AcDbEntity
  8
0
100
AcDbLine
 10
588.7959333661795
 20
82.40725292721789
 30
0.0
 11
590.0559339092553
 21
82.40725292721789
 31
0.0
  0
LINE
  5
239B
330
2
100
AcDbEntity
  8
0
100
AcDbLine
 10
594.1756401372606
 20
83.77340232650784
 30
0.0
 11
595.0449827721924
 21
82.40725292721789
 31
0.0
  0
LINE
  5
239C
330
2
100
AcDbEntity
  8
0
100
AcDbLine
 10
593.7849822291166
 20
82.40725292721789
 30
0.0
 11
595.0449827721924
 21
82.40725292721789
 31
0.0
  0
LINE
  5
239D
330
2
100
AcDbEntity
  8
0
100
AcDbLine
 10
591.2109333661703
 20
82.40725292721789
 30
0.0
 11
592.2609015336668
 21
82.40725292721789
 31
0.0
  0
LINE
  5
239E
330
2
100
AcDbEntity
  8
0
100
AcDbLine
 10
590.3184339092542
 20
82.93225292721615
 30
0.0
 11
590.0559339092553
 21
82.40725292721789
 31
0.0
  0
LINE
  5
239F
330
2
100
AcDbEntity
  8
0
100
AcDbLine
 10
590.3184339092542
 20
82.93225292721615
 30
0.0
 11
591.2109333661703
 21
82.93225292721615
 31
0.0
  0
LINE
  5
23A0
330
2
100
AcDbEntity
  8
0
100
AcDbLine
 10
591.2109333661703
 20
82.93225292721615
 30
0.0
 11
591.2109333661703
 21
82.40725292721789
 31
0.0
  0
LINE
  5
23A1
330
2
100
AcDbEntity
  8
0
100
AcDbLine
 10
590.5459333661731
 20
85.90725292720561
 30
0.0
 11
588.7959333661795
 21
82.40725292721789
 31
0.0
  0
ARC
  5
23A2
330
2
100
AcDbEntity
  8
0
100
AcDbCircle
 10
593.4509015336628
 20
84.71725292720988
 30
0.0
 40
1.189999999995825
100
AcDbArc
 50
307.5189678668038
 51
90.0
  0
LINE
  5
23A3
330
2
100
AcDbEntity
  8
0
100
AcDbLine
 10
592.4096833661662
 20
84.56850292721027
 30
0.0
 11
593.7849822291166
 21
82.40725292721789
 31
0.0
  0
LINE
  5
23A4
330
2
100
AcDbEntity
  8
0
100
AcDbLine
 10
592.2609015336668
 20
84.71725292720988
 30
0.0
 11
592.2609015336668
 21
82.40725292721789
 31
0.0
  0
ARC
  5
23A5
330
2
100
AcDbEntity
  8
0
100
AcDbCircle
 10
591.9984174506928
 20
-12.41962069518035
 30
0.0
 40
170.0
100
AcDbArc
 50
83.82300359510905
 51
96.17699640483843
  0
CIRCLE
  5
23A6
330
2
100
AcDbEntity
  8
0
100
AcDbCircle
 10
557.3501851725561
 20
151.2286115829587
 30
0.0
 40
2.399999999999999
  0
CIRCLE
  5
23A7
330
2
100
AcDbEntity
  8
HOJO
100
AcDbCircle
 10
557.3501851725561
 20
151.2286115829587
 30
0.0
 40
3.0
  0
ARC
  5
23A8
330
2
100
AcDbEntity
  8
0
100
AcDbCircle
 10
558.9984174506928
 20
152.5803793048197
 30
0.0
 40
5.0
100
AcDbArc
 50
76.63232579737094
 51
90.0
  0
LINE
  5
23A9
330
2
100
AcDbEntity
  8
0
100
AcDbLine
 10
555.9984174506928
 20
157.5803793048197
 30
0.0
 11
558.9984174506928
 21
157.5803793048197
 31
0.0
  0
ARC
  5
23AA
330
2
100
AcDbEntity
  8
0
100
AcDbCircle
 10
569.4023740105032
 20
196.361170616782
 30
0.0
 40
40.0
100
AcDbArc
 50
256.6323257973709
 51
276.1769964048909
  0
ARC
  5
23AB
330
2
100
AcDbEntity
  8
0
100
AcDbCircle
 10
666.9984174506947
 20
156.0803793048179
 30
0.0
 40
2.0
100
AcDbArc
 50
90.0
 51
180.0
  0
LINE
  5
23AC
330
2
100
AcDbEntity
  8
CENTER
100
AcDbLine
 10
626.6466497288359
 20
158.2286115829587
 30
0.0
 11
626.6466497288359
 21
144.2286115829586
 31
0.0
  0
ARC
  5
23AD
330
2
100
AcDbEntity
  8
0
100
AcDbCircle
 10
627.9984174506965
 20
152.5803793048179
 30
0.0
 40
5.0
100
AcDbArc
 50
0.0
 51
90.0
  0
LINE
  5
23AE
330
2
100
AcDbEntity
  8
0
100
AcDbLine
 10
652.4984174507046
 20
147.5803793047019
 30
0.0
 11
652.4984174507038
 21
85.58037930493616
 31
0.0
  0
LINE
  5
23AF
330
2
100
AcDbEntity
  8
0
100
AcDbLine
 10
632.9984174506964
 20
152.5803793048179
 30
0.0
 11
632.9984174506964
 21
80.58037930481793
 31
0.0
  0
LINE
  5
23B0
330
2
100
AcDbEntity
  8
0
100
AcDbLine
 10
664.9984174506946
 20
156.0803793048179
 30
0.0
 11
664.9984174506974
 21
77.08037930481793
 31
0.0
  0
LINE
  5
23B1
330
2
100
AcDbEntity
  8
0
100
AcDbLine
 10
659.9984174506946
 20
83.58037930493503
 30
0.0
 11
654.4984174507001
 21
83.58037930493503
 31
0.0
  0
ARC
  5
23B2
330
2
100
AcDbEntity
  8
0
100
AcDbCircle
 10
647.4984174507047
 20
85.58037930493616
 30
0.0
 40
5.0
100
AcDbArc
 50
0.0
 51
90.0
  0
ARC
  5
23B3
330
2
100
AcDbEntity
  8
0
100
AcDbCircle
 10
649.4984174507037
 20
111.0803793048183
 30
0.0
 40
3.0
100
AcDbArc
 50
0.0
 51
90.0
  0
ARC
  5
23B4
330
2
100
AcDbEntity
  8
0
100
AcDbCircle
 10
651.4984174506955
 20
81.58037930481658
 30
0.0
 40
3.0
100
AcDbArc
 50
53.13010235412992
 51
90.0
  0
ARC
  5
23B5
330
2
100
AcDbEntity
  8
0
100
AcDbCircle
 10
637.9984174506964
 20
85.58037930493616
 30
0.0
 40
5.0
100
AcDbArc
 50
90.0
 51
180.0
  0
ARC
  5
23B6
330
2
100
AcDbEntity
  8
0
100
AcDbCircle
 10
635.9984174506965
 20
111.0803793048188
 30
0.0
 40
3.0
100
AcDbArc
 50
90.0
 51
180.0
  0
LINE
  5
23B7
330
2
100
AcDbEntity
  8
0
100
AcDbLine
 10
647.4984174507047
 20
90.58037930493616
 30
0.0
 11
637.9984174506964
 21
90.58037930493616
 31
0.0
  0
LINE
  5
23B8
330
2
100
AcDbEntity
  8
0
100
AcDbLine
 10
635.9984174506965
 20
114.0803793048188
 30
0.0
 11
649.4984174507037
 21
114.0803793048184
 31
0.0
  0
LINE
  5
23B9
330
2
100
AcDbEntity
  8
0
100
AcDbLine
 10
635.9984174506965
 20
84.58037930481657
 30
0.0
 11
651.4984174506955
 21
84.58037930481657
 31
0.0
  0
CIRCLE
  5
23BA
330
2
100
AcDbEntity
  8
HOJO
100
AcDbCircle
 10
626.6466497288377
 20
81.93214702667717
 30
0.0
 40
3.0
  0
CIRCLE
  5
23BB
330
2
100
AcDbEntity
  8
0
100
AcDbCircle
 10
626.6466497288377
 20
81.93214702667717
 30
0.0
 40
2.399999999999999
  0
ARC
  5
23BC
330
2
100
AcDbEntity
  8
0
100
AcDbCircle
 10
654.4984174507001
 20
85.58037930493616
 30
0.0
 40
2.0
100
AcDbArc
 50
180.0
 51
270.0
  0
ARC
  5
23BD
330
2
100
AcDbEntity
  8
0
100
AcDbCircle
 10
635.9984174506965
 20
81.58037930481658
 30
0.0
 40
3.0
100
AcDbArc
 50
90.0
 51
180.0
  0
ARC
  5
23BE
330
2
100
AcDbEntity
  8
0
100
AcDbCircle
 10
659.9984174506946
 20
78.58037930493503
 30
0.0
 40
5.0
100
AcDbArc
 50
0.0
 51
90.0
  0
LINE
  5
23BF
330
2
100
AcDbEntity
  8
0
100
AcDbLine
 10
659.9984174506946
 20
149.5803793047006
 30
0.0
 11
654.4984174507001
 21
149.5803793047008
 31
0.0
  0
ARC
  5
23C0
330
2
100
AcDbEntity
  8
0
100
AcDbCircle
 10
654.4984174507001
 20
147.5803793047017
 30
0.0
 40
2.0
100
AcDbArc
 50
90.0
 51
180.0
  0
ARC
  5
23C1
330
2
100
AcDbEntity
  8
0
100
AcDbCircle
 10
647.4984174507064
 20
147.580379304701
 30
0.0
 40
5.0
100
AcDbArc
 50
270.0
 51
0.0
  0
ARC
  5
23C2
330
2
100
AcDbEntity
  8
0
100
AcDbCircle
 10
651.4984174506955
 20
151.5803793048265
 30
0.0
 40
3.0
100
AcDbArc
 50
270.0
 51
306.86989764587
  0
ARC
  5
23C3
330
2
100
AcDbEntity
  8
0
100
AcDbCircle
 10
649.4984174507046
 20
122.0803793048183
 30
0.0
 40
3.0
100
AcDbArc
 50
270.0
 51
0.0
  0
CIRCLE
  5
23C4
330
2
100
AcDbEntity
  8
HOJO
100
AcDbCircle
 10
626.6466497288377
 20
151.2286115829587
 30
0.0
 40
3.0
  0
CIRCLE
  5
23C5
330
2
100
AcDbEntity
  8
0
100
AcDbCircle
 10
626.6466497288377
 20
151.2286115829587
 30
0.0
 40
2.399999999999999
  0
ARC
  5
23C6
330
2
100
AcDbEntity
  8
0
100
AcDbCircle
 10
624.9984174506928
 20
152.5803793048193
 30
0.0
 40
5.0
100
AcDbArc
 50
90.0
 51
103.367674202629
  0
LINE
  5
23C7
330
2
100
AcDbEntity
  8
0
100
AcDbLine
 10
624.9984174506928
 20
157.5803793048197
 30
0.0
 11
627.9984174506928
 21
157.5803793048197
 31
0.0
  0
ARC
  5
23C8
330
2
100
AcDbEntity
  8
0
100
AcDbCircle
 10
637.9984174506964
 20
147.5803793047017
 30
0.0
 40
5.0
100
AcDbArc
 50
180.0
 51
270.0
  0
ARC
  5
23C9
330
2
100
AcDbEntity
  8
0
100
AcDbCircle
 10
635.9984174506965
 20
151.5803793048265
 30
0.0
 40
3.0
100
AcDbArc
 50
180.0
 51
270.0
  0
ARC
  5
23CA
330
2
100
AcDbEntity
  8
0
100
AcDbCircle
 10
635.9984174506965
 20
122.0803793048183
 30
0.0
 40
3.0
100
AcDbArc
 50
180.0
 51
270.0
  0
LINE
  5
23CB
330
2
100
AcDbEntity
  8
0
100
AcDbLine
 10
647.4984174507064
 20
142.580379304701
 30
0.0
 11
637.9984174506964
 21
142.5803793047017
 31
0.0
  0
LINE
  5
23CC
330
2
100
AcDbEntity
  8
0
100
AcDbLine
 10
635.9984174506965
 20
119.0803793048184
 30
0.0
 11
649.4984174507046
 21
119.0803793048184
 31
0.0
  0
LINE
  5
23CD
330
2
100
AcDbEntity
  8
0
100
AcDbLine
 10
635.9984174506965
 20
148.5803793048263
 30
0.0
 11
651.4984174506955
 21
148.5803793048263
 31
0.0
  0
ARC
  5
23CE
330
2
100
AcDbEntity
  8
0
100
AcDbCircle
 10
659.9984174506946
 20
154.5803793047006
 30
0.0
 40
5.0
100
AcDbArc
 50
270.0
 51
0.0
  0
LINE
  5
23CF
330
2
100
AcDbEntity
  8
0
100
AcDbLine
 10
666.9984174506947
 20
157.5803793048179
 30
0.0
 11
676.9984174506946
 21
157.5803793048179
 31
0.0
  0
ARC
  5
23D0
330
2
100
AcDbEntity
  8
0
100
AcDbCircle
 10
666.9984174506947
 20
155.5803793048179
 30
0.0
 40
2.0
100
AcDbArc
 50
90.0
 51
180.0
  0
LINE
  5
23D1
330
2
100
AcDbEntity
  8
0
100
AcDbLine
 10
666.9984174506947
 20
158.0803793048179
 30
0.0
 11
676.9984174506946
 21
158.0803793048179
 31
0.0
  0
LINE
  5
2413
330
2
100
AcDbEntity
  8
CENTER
100
AcDbLine
 10
591.9984174506906
 20
464.4776468282781
 30
0.0
 11
591.998417450691
 21
308.4776468309351
 31
0.0
  0
LINE
  5
2414
330
2
100
AcDbEntity
  8
0
100
AcDbLine
 10
550.9984174506901
 20
434.977646828277
 30
0.0
 11
632.58333605763
 21
434.9776468282795
 31
0.0
  0
LINE
  5
2415
330
2
100
AcDbEntity
  8
0
100
AcDbLine
 10
621.4984174507082
 20
445.9776468282781
 30
0.0
 11
562.4984174506719
 21
445.9776468282781
 31
0.0
  0
LINE
  5
2416
330
2
100
AcDbEntity
  8
0
100
AcDbLine
 10
552.0551801697167
 20
442.4776468282758
 30
0.0
 11
631.5316547316654
 21
442.477646828276
 31
0.0
  0
ARC
  5
2417
330
2
100
AcDbEntity
  8
0
100
AcDbCircle
 10
622.3837650036978
 20
361.4776468309435
 30
0.0
 40
2.0
100
AcDbArc
 50
90.0
 51
177.9999999999963
  0
LINE
  5
2418
330
2
100
AcDbEntity
  8
0
100
AcDbLine
 10
556.9984174506901
 20
363.4776468309444
 30
0.0
 11
626.9984174506901
 21
363.4776468309444
 31
0.0
  0
LINE
  5
2419
330
2
100
AcDbEntity
  8
0
100
AcDbLine
 10
551.5787541587526
 20
368.4776468309437
 30
0.0
 11
632.4131621356866
 21
368.4776468309423
 31
0.0
  0
LINE
  5
241B
330
2
100
AcDbEntity
  8
0
100
AcDbLine
 10
550.9984174506901
 20
434.977646828277
 30
0.0
 11
551.5787541587526
 21
368.4776468309437
 31
0.0
  0
LINE
  5
241C
330
2
100
AcDbEntity
  8
0
100
AcDbLine
 10
573.7063822847496
 20
434.4776468309436
 30
0.0
 11
573.7063822847496
 21
369.9776277924756
 31
0.0
  0
LINE
  5
241D
330
2
100
AcDbEntity
  8
0
100
AcDbLine
 10
558.998417450691
 20
434.4776468309436
 30
0.0
 11
558.998417450691
 21
369.9776277924756
 31
0.0
  0
LINE
  5
241E
330
2
100
AcDbEntity
  8
0
100
AcDbLine
 10
555.9984174506892
 20
434.4776468309436
 30
0.0
 11
555.9984174506892
 21
369.9776277924756
 31
0.0
  0
LINE
  5
241F
330
2
100
AcDbEntity
  8
0
100
AcDbLine
 10
610.2904526166305
 20
434.4776468309436
 30
0.0
 11
610.2904526166305
 21
369.9776277924756
 31
0.0
  0
LINE
  5
2421
330
2
100
AcDbEntity
  8
0
100
AcDbLine
 10
565.9297950003049
 20
350.4776468309457
 30
0.0
 11
618.0670399010753
 21
350.4776468309435
 31
0.0
  0
LINE
  5
2426
330
2
100
AcDbEntity
  8
0
100
AcDbLine
 10
563.6118515517221
 20
361.5474458243486
 30
0.0
 11
563.9310133462661
 21
352.407847837539
 31
0.0
  0
ARC
  5
2427
330
2
100
AcDbEntity
  8
0
100
AcDbCircle
 10
561.6130698976842
 20
361.4776468309435
 30
0.0
 40
2.0
100
AcDbArc
 50
2.000000000003612
 51
90.0
  0
LINE
  5
2428
330
2
100
AcDbEntity
  8
0
100
AcDbLine
 10
556.9984174506901
 20
368.4776468309437
 30
0.0
 11
556.9984174506901
 21
363.4776468309437
 31
0.0
  0
ARC
  5
2429
330
2
100
AcDbEntity
  8
0
100
AcDbCircle
 10
565.9297950003049
 20
352.4776468309437
 30
0.0
 40
2.0
100
AcDbArc
 50
182.0000000000036
 51
270.0
  0
LINE
  5
242A
330
2
100
AcDbEntity
  8
0
100
AcDbLine
 10
620.384983349659
 20
361.5474458243486
 30
0.0
 11
620.0658215551141
 21
352.4078478375386
 31
0.0
  0
ARC
  5
242F
330
2
100
AcDbEntity
  8
0
100
AcDbCircle
 10
618.0670399010753
 20
352.4776468309435
 30
0.0
 40
2.0
100
AcDbArc
 50
270.0
 51
357.9999999999964
  0
ARC
  5
2430
330
2
100
AcDbEntity
  8
0
100
AcDbCircle
 10
552.0551801697167
 20
441.4776468282759
 30
0.0
 40
1.0
100
AcDbArc
 50
90.0
 51
179.5000000000084
  0
LINE
  5
2431
330
2
100
AcDbEntity
  8
0
100
AcDbLine
 10
550.9984174506901
 20
434.9776468282781
 30
0.0
 11
551.0552182466519
 21
441.4863733637742
 31
0.0
  0
LINE
  5
2432
330
2
100
AcDbEntity
  8
0
100
AcDbLine
 10
617.9210671814983
 20
454.4776468282781
 30
0.0
 11
566.0757677198819
 21
454.4776468282781
 31
0.0
  0
LINE
  5
2433
330
2
100
AcDbEntity
  8
0
100
AcDbLine
 10
618.2984174506912
 20
449.9776468282735
 30
0.0
 11
565.698417450689
 21
449.9776468282735
 31
0.0
  0
LINE
  5
2434
330
2
100
AcDbEntity
  8
0
100
AcDbLine
 10
618.2984174506912
 20
451.9776468282735
 30
0.0
 11
565.698417450689
 21
451.9776468281939
 31
0.0
  0
LINE
  5
2435
330
2
100
AcDbEntity
  8
0
100
AcDbLine
 10
563.4984174506955
 20
446.4776468282776
 30
0.0
 11
620.4984174506846
 21
446.4776468282781
 31
0.0
  0
LINE
  5
2436
330
2
100
AcDbEntity
  8
0
100
AcDbLine
 10
618.4984174506901
 20
453.4776468282736
 30
0.0
 11
565.4984174506892
 21
453.4776468282731
 31
0.0
  0
LINE
  5
2437
330
2
100
AcDbEntity
  8
0
100
AcDbLine
 10
565.4984174506901
 20
449.7776468282733
 30
0.0
 11
618.4984174506901
 21
449.7776468282733
 31
0.0
  0
LINE
  5
2438
330
2
100
AcDbEntity
  8
0
100
AcDbLine
 10
573.7063822848051
 20
434.9776468282781
 30
0.0
 11
573.7063822848051
 21
442.4776468282758
 31
0.0
  0
LINE
  5
2439
330
2
100
AcDbEntity
  8
0
100
AcDbLine
 10
565.4984174506892
 20
453.4776468282736
 30
0.0
 11
565.4984174506901
 21
452.1776468282738
 31
0.0
  0
LINE
  5
243A
330
2
100
AcDbEntity
  8
0
100
AcDbLine
 10
565.698417450689
 20
449.9776468282735
 30
0.0
 11
565.4984174506901
 21
449.7776468282733
 31
0.0
  0
LINE
  5
243B
330
2
100
AcDbEntity
  8
0
100
AcDbLine
 10
566.198417450689
 20
451.7776468282733
 30
0.0
 11
566.198417450689
 21
450.1776468282733
 31
0.0
  0
LINE
  5
243C
330
2
100
AcDbEntity
  8
0
100
AcDbLine
 10
565.4984174506892
 20
453.4776468282731
 30
0.0
 11
566.0757677198782
 21
454.4776468282735
 31
0.0
  0
LINE
  5
243D
330
2
100
AcDbEntity
  8
0
100
AcDbLine
 10
563.4984174506955
 20
446.4776468282776
 30
0.0
 11
562.99841745069
 21
445.9776468282727
 31
0.0
  0
LINE
  5
243E
330
2
100
AcDbEntity
  8
0
100
AcDbLine
 10
565.4984174506901
 20
449.7776468282733
 30
0.0
 11
565.4984174506901
 21
446.4776468282731
 31
0.0
  0
LINE
  5
243F
330
2
100
AcDbEntity
  8
HIDS
100
AcDbLine
 10
555.5842038883167
 20
443.0634332659034
 30
0.0
 11
557.9126310130634
 21
445.3918603906505
 31
0.0
  0
ARC
  5
2440
330
2
100
AcDbEntity
  8
HIDS
100
AcDbCircle
 10
554.1699903259434
 20
444.4776468282758
 30
0.0
 40
2.0
100
AcDbArc
 50
270.0
 51
315.0000000000138
  0
ARC
  5
2441
330
2
100
AcDbEntity
  8
HIDS
100
AcDbCircle
 10
559.3268445754367
 20
443.9776468282781
 30
0.0
 40
2.0
100
AcDbArc
 50
90.0
 51
135.0000000000138
  0
ARC
  5
2442
330
2
100
AcDbEntity
  8
0
100
AcDbCircle
 10
565.698417450689
 20
452.1776468282734
 30
0.0
 40
0.2
100
AcDbArc
 50
180.0
 51
270.0000000001042
  0
ARC
  5
2443
330
2
100
AcDbEntity
  8
0
100
AcDbCircle
 10
565.9984174506901
 20
451.7776468282728
 30
0.0
 40
0.2
100
AcDbArc
 50
0.0
 51
89.99999999984366
  0
ARC
  5
2444
330
2
100
AcDbEntity
  8
0
100
AcDbCircle
 10
565.9984174506901
 20
450.1776468282733
 30
0.0
 40
0.2
100
AcDbArc
 50
270.0
 51
0.0
  0
LINE
  5
2445
330
2
100
AcDbEntity
  8
0
100
AcDbLine
 10
562.4984174506719
 20
443.9776468282754
 30
0.0
 11
562.4984174506719
 21
449.5776468282753
 31
0.0
  0
LINE
  5
2446
330
2
100
AcDbEntity
  8
0
100
AcDbLine
 10
552.4984174506719
 20
443.9776468282754
 30
0.0
 11
552.4984174506719
 21
449.5776468282753
 31
0.0
  0
LINE
  5
2447
330
2
100
AcDbEntity
  8
0
100
AcDbLine
 10
552.4984174506719
 20
443.9776468282754
 30
0.0
 11
562.4984174506719
 21
443.9776468282754
 31
0.0
  0
LINE
  5
2448
330
2
100
AcDbEntity
  8
0
100
AcDbLine
 10
553.1912377736992
 20
449.9776468282753
 30
0.0
 11
561.8055971276437
 21
449.9776468282759
 31
0.0
  0
LINE
  5
2449
330
2
100
AcDbEntity
  8
0
100
AcDbLine
 10
552.4984174506719
 20
449.5776468282757
 30
0.0
 11
562.4984174506719
 21
449.5776468282753
 31
0.0
  0
LINE
  5
244A
330
2
100
AcDbEntity
  8
0
100
AcDbLine
 10
552.4984174506719
 20
449.5776468282753
 30
0.0
 11
553.1912377736992
 21
449.9776468282753
 31
0.0
  0
LINE
  5
244B
330
2
100
AcDbEntity
  8
0
100
AcDbLine
 10
562.4984174506719
 20
449.5776468282753
 30
0.0
 11
561.8055971276437
 21
449.9776468282753
 31
0.0
  0
LINE
  5
244C
330
2
100
AcDbEntity
  8
0
100
AcDbLine
 10
552.4984174506719
 20
443.9776468282758
 30
0.0
 11
552.4984174506719
 21
442.4776468282758
 31
0.0
  0
LINE
  5
244D
330
2
100
AcDbEntity
  8
0
100
AcDbLine
 10
562.4984174506719
 20
443.9776468282758
 30
0.0
 11
562.4984174506719
 21
442.4776468282758
 31
0.0
  0
LINE
  5
244E
330
2
100
AcDbEntity
  8
HIDS
100
AcDbLine
 10
562.4984174506719
 20
445.9776468282781
 30
0.0
 11
559.3268445754367
 21
445.9776468282781
 31
0.0
  0
LINE
  5
244F
330
2
100
AcDbEntity
  8
0
100
AcDbLine
 10
555.9984174506701
 20
434.9776468282781
 30
0.0
 11
555.9984174506701
 21
442.4776468282758
 31
0.0
  0
LINE
  5
2450
330
2
100
AcDbEntity
  8
0
100
AcDbLine
 10
558.99841745067
 20
434.9776468282781
 30
0.0
 11
558.99841745067
 21
442.4776468282758
 31
0.0
  0
LINE
  5
2451
330
2
100
AcDbEntity
  8
CENTER
100
AcDbLine
 10
557.4984174506719
 20
454.9776468282758
 30
0.0
 11
557.4984174506719
 21
429.9149000841294
 31
0.0
  0
LINE
  5
2452
330
2
100
AcDbEntity
  8
0
100
AcDbLine
 10
618.4984174506901
 20
453.4776468282731
 30
0.0
 11
617.9210671815019
 21
454.4776468282735
 31
0.0
  0
LINE
  5
2453
330
2
100
AcDbEntity
  8
0
100
AcDbLine
 10
617.7984174506912
 20
451.7776468282733
 30
0.0
 11
617.7984174506912
 21
450.1776468282733
 31
0.0
  0
LINE
  5
2454
330
2
100
AcDbEntity
  8
0
100
AcDbLine
 10
618.2984174506912
 20
449.9776468282735
 30
0.0
 11
618.4984174506901
 21
449.7776468282733
 31
0.0
  0
LINE
  5
2455
330
2
100
AcDbEntity
  8
0
100
AcDbLine
 10
618.4984174506901
 20
453.4776468282736
 30
0.0
 11
618.4984174506901
 21
452.1776468282738
 31
0.0
  0
LINE
  5
2456
330
2
100
AcDbEntity
  8
0
100
AcDbLine
 10
620.49841745069
 20
446.4776468282731
 30
0.0
 11
618.4984174506901
 21
446.4776468282731
 31
0.0
  0
LINE
  5
2457
330
2
100
AcDbEntity
  8
0
100
AcDbLine
 10
618.4984174506901
 20
449.7776468282733
 30
0.0
 11
618.4984174506901
 21
446.4776468282731
 31
0.0
  0
ARC
  5
2458
330
2
100
AcDbEntity
  8
0
100
AcDbCircle
 10
618.2984174506912
 20
452.1776468282738
 30
0.0
 40
0.2
100
AcDbArc
 50
270.0000000001042
 51
359.9999999999739
  0
ARC
  5
2459
330
2
100
AcDbEntity
  8
0
100
AcDbCircle
 10
617.9984174506901
 20
451.7776468282733
 30
0.0
 40
0.2
100
AcDbArc
 50
90.00000000010421
 51
179.9999999999739
  0
ARC
  5
245A
330
2
100
AcDbEntity
  8
0
100
AcDbCircle
 10
617.9984174506901
 20
450.1776468282733
 30
0.0
 40
0.2
100
AcDbArc
 50
179.9999999999739
 51
270.0
  0
LINE
  5
245B
330
2
100
AcDbEntity
  8
0
100
AcDbLine
 10
620.49841745069
 20
446.4776468282731
 30
0.0
 11
620.99841745069
 21
445.9776468282727
 31
0.0
  0
LINE
  5
245C
330
2
100
AcDbEntity
  8
0
100
AcDbLine
 10
610.290452616575
 20
434.9776468282781
 30
0.0
 11
610.290452616575
 21
442.4776468282758
 31
0.0
  0
ARC
  5
245D
330
2
100
AcDbEntity
  8
0
100
AcDbCircle
 10
659.9181457235292
 20
373.4776468309437
 30
0.0
 40
5.0
100
AcDbArc
 50
1.499999999989714
 51
90.0
  0
LINE
  5
245F
330
2
100
AcDbEntity
  8
0
100
AcDbLine
 10
664.947416542582
 20
372.4252929343283
 30
0.0
 11
663.9247946663865
 21
411.4776468309437
 31
0.0
  0
ARC
  5
2460
330
2
100
AcDbEntity
  8
0
100
AcDbCircle
 10
635.4830913131702
 20
376.4776468309437
 30
0.0
 40
3.0
100
AcDbArc
 50
90.0
 51
179.5000000000084
  0
LINE
  5
2461
330
2
100
AcDbEntity
  8
0
100
AcDbLine
 10
632.4131621356866
 20
368.4776468309423
 30
0.0
 11
632.78841745069
 21
411.4776468309437
 31
0.0
  0
LINE
  5
2462
330
2
100
AcDbEntity
  8
0
100
AcDbLine
 10
624.9984174506892
 20
411.4776468309437
 30
0.0
 11
624.9984174506892
 21
369.9776277924756
 31
0.0
  0
LINE
  5
2463
330
2
100
AcDbEntity
  8
0
100
AcDbLine
 10
627.7889727898639
 20
434.9776468309435
 30
0.0
 11
627.7889727898639
 21
369.9776277924756
 31
0.0
  0
LINE
  5
2464
330
2
100
AcDbEntity
  8
0
100
AcDbLine
 10
626.9984174506901
 20
368.4776468309437
 30
0.0
 11
626.9984174506901
 21
363.4776468309437
 31
0.0
  0
LINE
  5
2465
330
2
100
AcDbEntity
  8
0
100
AcDbLine
 10
666.9467311925321
 20
370.4776468309437
 30
0.0
 11
676.9984174463209
 21
370.4776468309437
 31
0.0
  0
ARC
  5
2466
330
2
100
AcDbEntity
  8
0
100
AcDbCircle
 10
666.9467311925321
 20
372.4776468309437
 30
0.0
 40
2.0
100
AcDbArc
 50
181.4999999999897
 51
270.0
  0
LINE
  5
2467
330
2
100
AcDbEntity
  8
0
100
AcDbLine
 10
664.947416542582
 20
450.5300007275589
 30
0.0
 11
663.9247946663874
 21
411.4776468309437
 31
0.0
  0
LINE
  5
2468
330
2
100
AcDbEntity
  8
0
100
AcDbLine
 10
652.4474165425811
 20
442.5300007275592
 30
0.0
 11
651.6342820389129
 21
411.4776468309437
 31
0.0
  0
LINE
  5
2469
330
2
100
AcDbEntity
  8
0
100
AcDbLine
 10
625.0115104115441
 20
434.977646828279
 30
0.0
 11
625.6013791142952
 21
412.451469882636
 31
0.0
  0
LINE
  5
246A
330
2
100
AcDbEntity
  8
0
100
AcDbLine
 10
632.58333605763
 20
434.9776468282792
 30
0.0
 11
632.78841745069
 21
411.4776468309437
 31
0.0
  0
LINE
  5
246B
330
2
100
AcDbEntity
  8
0
100
AcDbLine
 10
654.4467311925321
 20
378.4776468309437
 30
0.0
 11
659.9181457235292
 21
378.4776468309437
 31
0.0
  0
ARC
  5
246C
330
2
100
AcDbEntity
  8
0
100
AcDbCircle
 10
648.7772762300694
 20
416.9776468309436
 30
0.0
 40
3.0
100
AcDbArc
 50
270.0
 51
358.5000000000102
  0
ARC
  5
246D
330
2
100
AcDbEntity
  8
0
100
AcDbCircle
 10
648.7772762301686
 20
405.9776468309437
 30
0.0
 40
3.0
100
AcDbArc
 50
1.499999999781174
 51
90.0
  0
ARC
  5
246E
330
2
100
AcDbEntity
  8
0
100
AcDbCircle
 10
654.4467311925321
 20
380.4776468309437
 30
0.0
 40
2.0
100
AcDbArc
 50
181.5000000000418
 51
270.0
  0
ARC
  5
246F
330
2
100
AcDbEntity
  8
0
100
AcDbCircle
 10
647.4443316450963
 20
380.4776468309437
 30
0.0
 40
5.0
100
AcDbArc
 50
1.500000000015761
 51
90.0
  0
ARC
  5
2470
330
2
100
AcDbEntity
  8
0
100
AcDbCircle
 10
651.446731192532
 20
376.4776468309437
 30
0.0
 40
3.0
100
AcDbArc
 50
53.13010235412992
 51
90.0
  0
LINE
  5
2471
330
2
100
AcDbEntity
  8
0
100
AcDbLine
 10
652.4474165425811
 20
380.4252929343279
 30
0.0
 11
651.6342820390339
 21
411.4776468309437
 31
0.0
  0
ARC
  5
2472
330
2
100
AcDbEntity
  8
0
100
AcDbCircle
 10
635.7405339129984
 20
405.9776468309437
 30
0.0
 40
3.0
100
AcDbArc
 50
90.0
 51
179.5000000000084
  0
ARC
  5
2473
330
2
100
AcDbEntity
  8
0
100
AcDbCircle
 10
626.6010364392707
 20
412.4776468309437
 30
0.0
 40
1.0
100
AcDbArc
 50
181.4999999999897
 51
270.0
  0
LINE
  5
2474
330
2
100
AcDbEntity
  8
0
100
AcDbLine
 10
626.6010364392707
 20
411.4776468309437
 30
0.0
 11
632.78841745069
 21
411.4776468309437
 31
0.0
  0
ARC
  5
2475
330
2
100
AcDbEntity
  8
0
100
AcDbCircle
 10
635.7405339129984
 20
416.9776468309434
 30
0.0
 40
3.0
100
AcDbArc
 50
180.4999999999915
 51
270.0
  0
ARC
  5
2476
330
2
100
AcDbEntity
  8
0
100
AcDbCircle
 10
635.5354525199147
 20
382.4776468309437
 30
0.0
 40
3.0
100
AcDbArc
 50
90.0
 51
179.5000000000084
  0
LINE
  5
2477
330
2
100
AcDbEntity
  8
0
100
AcDbLine
 10
635.5354525199147
 20
385.4776468309437
 30
0.0
 11
647.4443316450963
 21
385.4776468309437
 31
0.0
  0
LINE
  5
2478
330
2
100
AcDbEntity
  8
0
100
AcDbLine
 10
635.4830913131702
 20
379.4776468309437
 30
0.0
 11
651.446731192532
 21
379.4776468309437
 31
0.0
  0
LINE
  5
2479
330
2
100
AcDbEntity
  8
0
100
AcDbLine
 10
635.7405339129984
 20
413.9776468309435
 30
0.0
 11
648.7772762300694
 21
413.9776468309437
 31
0.0
  0
LINE
  5
247A
330
2
100
AcDbEntity
  8
0
100
AcDbLine
 10
635.7405339129984
 20
408.9776468309437
 30
0.0
 11
648.7772762301686
 21
408.9776468309437
 31
0.0
  0
LINE
  5
247B
330
2
100
AcDbEntity
  8
0
100
AcDbLine
 10
663.9247946663874
 20
411.4776468309437
 30
0.0
 11
676.9984174463209
 21
411.4776468309437
 31
0.0
  0
LINE
  5
247C
330
2
100
AcDbEntity
  8
0
100
AcDbLine
 10
654.4467311925321
 20
444.4776468309436
 30
0.0
 11
659.9181457235284
 21
444.4776468309436
 31
0.0
  0
ARC
  5
247D
330
2
100
AcDbEntity
  8
0
100
AcDbCircle
 10
654.4467311925321
 20
442.4776468309436
 30
0.0
 40
2.0
100
AcDbArc
 50
90.0
 51
178.4999999999842
  0
ARC
  5
247E
330
2
100
AcDbEntity
  8
0
100
AcDbCircle
 10
647.3657738803888
 20
439.4776468309436
 30
0.0
 40
5.0
100
AcDbArc
 50
270.0
 51
358.4999999999841
  0
LINE
  5
247F
330
2
100
AcDbEntity
  8
HIDS
100
AcDbLine
 10
628.4126310130625
 20
443.0634332659034
 30
0.0
 11
626.0842038883168
 21
445.391860390651
 31
0.0
  0
ARC
  5
2480
330
2
100
AcDbEntity
  8
HIDS
100
AcDbCircle
 10
629.8268445754367
 20
444.4776468282758
 30
0.0
 40
2.0
100
AcDbArc
 50
224.9999999999861
 51
270.0
  0
ARC
  5
2481
330
2
100
AcDbEntity
  8
HIDS
100
AcDbCircle
 10
624.6699903259434
 20
443.9776468282786
 30
0.0
 40
2.0
100
AcDbArc
 50
44.99999999998617
 51
90.0
  0
LINE
  5
2482
330
2
100
AcDbEntity
  8
0
100
AcDbLine
 10
621.4984174507082
 20
443.9776468282754
 30
0.0
 11
621.4984174507082
 21
449.5776468282753
 31
0.0
  0
LINE
  5
2483
330
2
100
AcDbEntity
  8
0
100
AcDbLine
 10
631.4984174507083
 20
443.9776468282754
 30
0.0
 11
631.4984174507083
 21
449.5776468282753
 31
0.0
  0
LINE
  5
2484
330
2
100
AcDbEntity
  8
0
100
AcDbLine
 10
631.4984174507083
 20
443.9776468282754
 30
0.0
 11
621.4984174507082
 21
443.9776468282754
 31
0.0
  0
LINE
  5
2485
330
2
100
AcDbEntity
  8
0
100
AcDbLine
 10
630.805597127681
 20
449.9776468282753
 30
0.0
 11
622.1912377737364
 21
449.9776468282759
 31
0.0
  0
LINE
  5
2486
330
2
100
AcDbEntity
  8
0
100
AcDbLine
 10
631.4984174507083
 20
449.5776468282757
 30
0.0
 11
621.4984174507082
 21
449.5776468282753
 31
0.0
  0
LINE
  5
2487
330
2
100
AcDbEntity
  8
0
100
AcDbLine
 10
631.4984174507083
 20
449.5776468282753
 30
0.0
 11
630.805597127681
 21
449.9776468282753
 31
0.0
  0
LINE
  5
2488
330
2
100
AcDbEntity
  8
0
100
AcDbLine
 10
621.4984174507082
 20
449.5776468282753
 30
0.0
 11
622.1912377737364
 21
449.9776468282753
 31
0.0
  0
LINE
  5
2489
330
2
100
AcDbEntity
  8
0
100
AcDbLine
 10
631.4984174507083
 20
443.9776468282758
 30
0.0
 11
631.4984174507083
 21
442.4776468282758
 31
0.0
  0
LINE
  5
248A
330
2
100
AcDbEntity
  8
0
100
AcDbLine
 10
621.4984174507082
 20
443.9776468282758
 30
0.0
 11
621.4984174507082
 21
442.4776468282758
 31
0.0
  0
LINE
  5
248B
330
2
100
AcDbEntity
  8
HIDS
100
AcDbLine
 10
621.4984174507082
 20
445.9776468282781
 30
0.0
 11
624.6699903259434
 21
445.9776468282785
 31
0.0
  0
ARC
  5
248C
330
2
100
AcDbEntity
  8
0
100
AcDbCircle
 10
631.5316547316654
 20
441.477646828276
 30
0.0
 40
1.0
100
AcDbArc
 50
0.4999999999915467
 51
90.0
  0
LINE
  5
248D
330
2
100
AcDbEntity
  8
0
100
AcDbLine
 10
632.58333605763
 20
434.9776468282792
 30
0.0
 11
633.08333605763
 21
434.4776468282792
 31
0.0
  0
LINE
  5
248E
330
2
100
AcDbEntity
  8
0
100
AcDbLine
 10
627.9984174507101
 20
434.9776468282781
 30
0.0
 11
627.9984174507101
 21
442.4776468282758
 31
0.0
  0
LINE
  5
248F
330
2
100
AcDbEntity
  8
0
100
AcDbLine
 10
624.9984174507101
 20
434.9776468282781
 30
0.0
 11
624.9984174507101
 21
442.4776468282758
 31
0.0
  0
LINE
  5
2490
330
2
100
AcDbEntity
  8
CENTER
100
AcDbLine
 10
626.4984174507083
 20
454.9776468282758
 30
0.0
 11
626.4984174507083
 21
429.9149000841294
 31
0.0
  0
LINE
  5
2491
330
2
100
AcDbEntity
  8
0
100
AcDbLine
 10
632.5316166547293
 20
441.4863733637742
 30
0.0
 11
632.5884174506902
 21
434.9776468282792
 31
0.0
  0
LINE
  5
2492
330
2
100
AcDbEntity
  8
0
100
AcDbLine
 10
647.3657738759468
 20
434.4776468282765
 30
0.0
 11
633.0833360576319
 21
434.4776468282765
 31
0.0
  0
LINE
  5
2493
330
2
100
AcDbEntity
  8
0
100
AcDbLine
 10
666.9467311925321
 20
452.4776468309436
 30
0.0
 11
676.9984174463209
 21
452.4776468309436
 31
0.0
  0
ARC
  5
2494
330
2
100
AcDbEntity
  8
0
100
AcDbCircle
 10
666.9467311925321
 20
450.4776468309436
 30
0.0
 40
2.0
100
AcDbArc
 50
90.0
 51
178.5000000000102
  0
ARC
  5
2495
330
2
100
AcDbEntity
  8
0
100
AcDbCircle
 10
659.9181457235284
 20
449.4776468309436
 30
0.0
 40
5.0
100
AcDbArc
 50
270.0
 51
358.5000000000102
  0
ARC
  5
273E
330
2
100
AcDbEntity
  8
0
100
AcDbCircle
 10
331.1027274601167
 20
156.5803793047946
 30
0.0
 40
4.0
100
AcDbArc
 50
90.0
 51
159.1508477649531
  0
LINE
  5
273F
330
2
100
AcDbEntity
  8
CENTER
  6
CENS
100
AcDbLine
 10
336.1027274601167
 20
165.7040637274977
 30
0.0
 11
336.1027274601167
 21
142.3441377251467
 31
0.0
  0
LINE
  5
2740
330
2
100
AcDbEntity
  8
0
100
AcDbLine
 10
341.1027274601167
 20
160.5803793047947
 30
0.0
 11
331.1027274601167
 21
160.5803793047947
 31
0.0
  0
ARC
  5
2741
330
2
100
AcDbEntity
  8
0
100
AcDbCircle
 10
341.1027274601167
 20
156.5803793047946
 30
0.0
 40
4.0
100
AcDbArc
 50
17.60182375628592
 51
90.0
  0
LINE
  5
2747
330
2
100
AcDbEntity
  8
0
100
AcDbLine
 10
983.9804856189781
 20
116.5803793047955
 30
0.0
 11
985.4804856188618
 21
116.5803793047955
 31
0.0
  0
LINE
  5
27E1
330
2
100
AcDbEntity
  8
0
100
AcDbLine
 10
413.6027274601249
 20
107.5804253047954
 30
0.0
 11
384.1027274601258
 21
107.5804253047954
 31
0.0
  0
LINE
  5
27E2
330
2
100
AcDbEntity
  8
0
100
AcDbLine
 10
384.1027274601258
 20
125.5804253047954
 30
0.0
 11
413.6027274601249
 21
125.5804253047954
 31
0.0
  0
LINE
  5
27E3
330
2
100
AcDbEntity
  8
0
100
AcDbLine
 10
390.102727460064
 20
119.580354640395
 30
0.0
 11
414.1027274601249
 21
119.5803793048094
 31
0.0
  0
LINE
  5
27E4
330
2
100
AcDbEntity
  8
0
100
AcDbLine
 10
390.102727460064
 20
113.5803546403667
 30
0.0
 11
414.1027274601249
 21
113.5803793047812
 31
0.0
  0
LINE
  5
27E5
330
2
100
AcDbEntity
  8
0
100
AcDbLine
 10
384.1027274601258
 20
126.580425016082
 30
0.0
 11
384.1027274601258
 21
106.58042501608
 31
0.0
  0
LINE
  5
27E6
330
2
100
AcDbEntity
  8
0
100
AcDbLine
 10
383.1027274601258
 20
130.2917041702005
 30
0.0
 11
383.1027274601258
 21
102.8690544393901
 31
0.0
  0
ARC
  5
27E7
330
2
100
AcDbEntity
  8
0
100
AcDbCircle
 10
382.6027274601258
 20
130.2917041702005
 30
0.0
 40
0.5
100
AcDbArc
 50
0.0
 51
59.99999999999946
  0
LINE
  5
27E8
330
2
100
AcDbEntity
  8
0
100
AcDbLine
 10
384.1027274601258
 20
126.580425016082
 30
0.0
 11
383.1027274601258
 21
127.1577752852718
 31
0.0
  0
LINE
  5
27E9
330
2
100
AcDbEntity
  8
0
100
AcDbLine
 10
384.1027274601258
 20
106.5803335935084
 30
0.0
 11
383.1027274601258
 21
106.0029833243189
 31
0.0
  0
LINE
  5
27EA
330
2
100
AcDbEntity
  8
0
100
AcDbLine
 10
382.8527274601258
 20
130.7247168720926
 30
0.0
 11
382.700889224275
 21
130.8123807184345
 31
0.0
  0
ARC
  5
27EB
330
2
100
AcDbEntity
  8
0
100
AcDbCircle
 10
381.7008892242749
 20
129.0803299108654
 30
0.0
 40
2.0
100
AcDbArc
 50
59.99999999999946
 51
78.40928831454826
  0
ARC
  5
27EC
330
2
100
AcDbEntity
  8
0
100
AcDbCircle
 10
382.6027274601258
 20
102.8690544393901
 30
0.0
 40
0.5
100
AcDbArc
 50
300.0000000000005
 51
0.0
  0
LINE
  5
27ED
330
2
100
AcDbEntity
  8
0
100
AcDbLine
 10
382.8527274601258
 20
102.4360417374978
 30
0.0
 11
382.700889224275
 21
102.3483778911561
 31
0.0
  0
ARC
  5
27EE
330
2
100
AcDbEntity
  8
0
100
AcDbCircle
 10
381.7008892242749
 20
104.080428698725
 30
0.0
 40
2.0
100
AcDbArc
 50
281.5907116854517
 51
300.0000000000005
  0
ARC
  5
27EF
330
2
100
AcDbEntity
  8
0
100
AcDbCircle
 10
390.102727460064
 20
116.5803546403809
 30
0.0
 40
3.000000000014103
100
AcDbArc
 50
90.0
 51
270.0
  0
LINE
  5
27F0
330
2
100
AcDbEntity
  8
0
100
AcDbLine
 10
414.1027274601249
 20
125.0804253047954
 30
0.0
 11
414.1027274601249
 21
108.0804253047954
 31
0.0
  0
LINE
  5
27F1
330
2
100
AcDbEntity
  8
0
100
AcDbLine
 10
413.6027274601249
 20
125.5804253047954
 30
0.0
 11
414.1027274601249
 21
125.0804253047954
 31
0.0
  0
LINE
  5
27F2
330
2
100
AcDbEntity
  8
0
100
AcDbLine
 10
414.1027274601249
 20
108.0804253047954
 30
0.0
 11
413.6027274601249
 21
107.5804253047954
 31
0.0
  0
LINE
  5
27F3
330
2
100
AcDbEntity
  8
0
100
AcDbLine
 10
413.6027274601249
 20
125.5804253047954
 30
0.0
 11
413.6027274601249
 21
119.5803787909674
 31
0.0
  0
LINE
  5
27F4
330
2
100
AcDbEntity
  8
0
100
AcDbLine
 10
413.6027274601249
 20
113.5803787909392
 30
0.0
 11
413.6027274601249
 21
107.5804253047954
 31
0.0
  0
ARC
  5
27F8
330
2
100
AcDbEntity
  8
0
100
AcDbCircle
 10
591.9984174506951
 20
116.5803793048139
 30
0.0
 40
9.000045999985673
100
AcDbArc
 50
199.4711170987082
 51
160.5288829012917
  0
ARC
  5
27F9
330
2
100
AcDbEntity
  8
0
100
AcDbCircle
 10
591.9984174507069
 20
116.5803793048112
 30
0.0
 40
10.00004571127499
100
AcDbArc
 50
197.4575207583693
 51
162.5424792415863
  0
ARC
  5
27FA
330
2
100
AcDbEntity
  8
0
100
AcDbCircle
 10
591.9984174507069
 20
116.5803793048112
 30
0.0
 40
10.57739598046464
100
AcDbArc
 50
196.4765970291266
 51
163.5234029708434
  0
CIRCLE
  5
27FB
330
2
100
AcDbEntity
  8
0
100
AcDbCircle
 10
591.9984174507069
 20
116.580379304825
 30
0.0
 40
14.49995060603862
  0
LINE
  5
27FE
330
2
100
AcDbEntity
  8
0
100
AcDbLine
 10
580.4984634506807
 20
113.5803793048141
 30
0.0
 11
586.4984634506806
 21
113.5803793048141
 31
0.0
  0
LINE
  5
27FF
330
2
100
AcDbEntity
  8
0
100
AcDbLine
 10
580.4984634506807
 20
119.5803793048144
 30
0.0
 11
586.4984634506806
 21
119.5803793048141
 31
0.0
  0
LINE
  5
2800
330
2
100
AcDbEntity
  8
0
100
AcDbLine
 10
586.4984634506806
 20
119.5803793048141
 30
0.0
 11
586.4984634506806
 21
113.5803793048141
 31
0.0
  0
LINE
  5
2801
330
2
100
AcDbEntity
  8
0
100
AcDbLine
 10
580.4984634506807
 20
119.5803793048144
 30
0.0
 11
580.4984634506807
 21
113.5803793048141
 31
0.0
  0
LINE
  5
2803
330
2
100
AcDbEntity
  8
0
100
AcDbLine
 10
851.4804856188671
 20
125.5803333047959
 30
0.0
 11
880.9804856188662
 21
125.5803333047959
 31
0.0
  0
LINE
  5
2804
330
2
100
AcDbEntity
  8
0
100
AcDbLine
 10
880.9804856188662
 20
107.5803333047959
 30
0.0
 11
851.4804856188671
 21
107.5803333047959
 31
0.0
  0
LINE
  5
2805
330
2
100
AcDbEntity
  8
0
100
AcDbLine
 10
850.9804856188672
 20
108.0803333047959
 30
0.0
 11
850.9804856188672
 21
125.0803333047959
 31
0.0
  0
LINE
  5
2806
330
2
100
AcDbEntity
  8
0
100
AcDbLine
 10
851.4804856188671
 20
125.5803333047959
 30
0.0
 11
850.9804856188672
 21
125.0803333047959
 31
0.0
  0
LINE
  5
2807
330
2
100
AcDbEntity
  8
0
100
AcDbLine
 10
851.4804856188671
 20
107.5803333047959
 30
0.0
 11
850.9804856188672
 21
108.0803333047959
 31
0.0
  0
LINE
  5
2808
330
2
100
AcDbEntity
  8
0
100
AcDbLine
 10
851.4804856188671
 20
107.5803333047959
 30
0.0
 11
851.4804856188671
 21
125.5803333047959
 31
0.0
  0
LINE
  5
2809
330
2
100
AcDbEntity
  8
0
100
AcDbLine
 10
880.9804856188662
 20
106.5803335935095
 30
0.0
 11
880.9804856188662
 21
126.5803335935113
 31
0.0
  0
LINE
  5
280A
330
2
100
AcDbEntity
  8
0
100
AcDbLine
 10
881.9804856188662
 20
102.869054439391
 30
0.0
 11
881.9804856188662
 21
130.2917041702019
 31
0.0
  0
ARC
  5
280B
330
2
100
AcDbEntity
  8
0
100
AcDbCircle
 10
882.4804856188663
 20
102.869054439391
 30
0.0
 40
0.5
100
AcDbArc
 50
180.0
 51
239.9999999999994
  0
LINE
  5
280C
330
2
100
AcDbEntity
  8
0
100
AcDbLine
 10
880.9804856188662
 20
106.5803335935095
 30
0.0
 11
881.9804856188662
 21
106.0029833243195
 31
0.0
  0
LINE
  5
280D
330
2
100
AcDbEntity
  8
0
100
AcDbLine
 10
880.9804856188662
 20
126.5804250160834
 30
0.0
 11
881.9804856188662
 21
127.1577752852725
 31
0.0
  0
LINE
  5
280E
330
2
100
AcDbEntity
  8
0
100
AcDbLine
 10
882.2304856188663
 20
102.4360417374989
 30
0.0
 11
882.3823238547172
 21
102.3483778911575
 31
0.0
  0
ARC
  5
280F
330
2
100
AcDbEntity
  8
0
100
AcDbCircle
 10
883.3823238547171
 20
104.0804286987256
 30
0.0
 40
2.0
100
AcDbArc
 50
239.9999999999994
 51
258.4092883145482
  0
ARC
  5
2810
330
2
100
AcDbEntity
  8
0
100
AcDbCircle
 10
882.4804856188663
 20
130.2917041702019
 30
0.0
 40
0.5
100
AcDbArc
 50
120.0000000000005
 51
180.0
  0
LINE
  5
2811
330
2
100
AcDbEntity
  8
0
100
AcDbLine
 10
882.2304856188663
 20
130.7247168720939
 30
0.0
 11
882.3823238547172
 21
130.8123807184354
 31
0.0
  0
ARC
  5
2812
330
2
100
AcDbEntity
  8
0
100
AcDbCircle
 10
883.3823238547171
 20
129.0803299108663
 30
0.0
 40
2.0
100
AcDbArc
 50
101.5907116854517
 51
120.0000000000005
  0
LINE
  5
2814
330
2
100
AcDbEntity
  8
0
100
AcDbLine
 10
600.998463450691
 20
348.4776468309419
 30
0.0
 11
600.998463450691
 21
318.9776468309428
 31
0.0
  0
LINE
  5
2815
330
2
100
AcDbEntity
  8
0
100
AcDbLine
 10
580.4984634506955
 20
345.4776468309164
 30
0.0
 11
580.4984634506955
 21
318.4776468309428
 31
0.0
  0
LINE
  5
2816
330
2
100
AcDbEntity
  8
0
100
AcDbLine
 10
583.5130872861347
 20
342.4776468310037
 30
0.0
 11
583.5130872861347
 21
318.4776468309428
 31
0.0
  0
LINE
  5
2817
330
2
100
AcDbEntity
  8
0
100
AcDbLine
 10
600.498463450691
 20
318.4776468309428
 30
0.0
 11
580.4984634506955
 21
318.4776468309428
 31
0.0
  0
LINE
  5
2818
330
2
100
AcDbEntity
  8
0
100
AcDbLine
 10
600.998463450691
 20
318.9776468309428
 30
0.0
 11
583.5130872861356
 21
318.9776468309428
 31
0.0
  0
LINE
  5
2819
330
2
100
AcDbEntity
  8
0
100
AcDbLine
 10
600.998463450691
 20
318.9776468309428
 30
0.0
 11
600.498463450691
 21
318.4776468309428
 31
0.0
  0
LINE
  5
281B
330
2
100
AcDbEntity
  8
0
100
AcDbLine
 10
601.9984631619774
 20
348.4776468309419
 30
0.0
 11
581.9984631619755
 21
348.4776468309419
 31
0.0
  0
LINE
  5
281C
330
2
100
AcDbEntity
  8
0
100
AcDbLine
 10
605.7097423160959
 20
349.4776468309419
 30
0.0
 11
578.287092585285
 21
349.4776468309419
 31
0.0
  0
LINE
  5
281D
330
2
100
AcDbEntity
  8
0
100
AcDbLine
 10
582.998463450691
 20
345.4776468309164
 30
0.0
 11
582.998463450691
 21
348.4776468309419
 31
0.0
  0
LINE
  5
281E
330
2
100
AcDbEntity
  8
0
100
AcDbLine
 10
581.9983717394035
 20
348.4776468309419
 30
0.0
 11
581.4210214702144
 21
349.4776468309419
 31
0.0
  0
ARC
  5
281F
330
2
100
AcDbEntity
  8
0
100
AcDbCircle
 10
578.287092585285
 20
349.9776468309419
 30
0.0
 40
0.5
100
AcDbArc
 50
209.9999999999916
 51
270.0
  0
LINE
  5
2820
330
2
100
AcDbEntity
  8
0
100
AcDbLine
 10
577.8540798833929
 20
349.7276468309419
 30
0.0
 11
577.7664160370514
 21
349.8794850667927
 31
0.0
  0
ARC
  5
2821
330
2
100
AcDbEntity
  8
0
100
AcDbCircle
 10
579.4984668446205
 20
350.8794850667927
 30
0.0
 40
2.0
100
AcDbArc
 50
191.5907116854479
 51
209.9999999999916
  0
LINE
  5
2822
330
2
100
AcDbEntity
  8
0
100
AcDbLine
 10
580.4984634506955
 20
345.4776468309164
 30
0.0
 11
582.998463450691
 21
345.4776468309164
 31
0.0
  0
LINE
  5
2823
330
2
100
AcDbEntity
  8
0
100
AcDbLine
 10
582.998463450691
 20
345.4776468309164
 30
0.0
 11
583.5130872861347
 21
342.4776468310037
 31
0.0
  0
ARC
  5
2824
330
2
100
AcDbEntity
  8
0
100
AcDbCircle
 10
605.7097423160959
 20
349.9776468309419
 30
0.0
 40
0.5
100
AcDbArc
 50
270.0
 51
330.0000000000083
  0
LINE
  5
2825
330
2
100
AcDbEntity
  8
0
100
AcDbLine
 10
601.9984631619774
 20
348.4776468309419
 30
0.0
 11
602.5758134311673
 21
349.4776468309419
 31
0.0
  0
LINE
  5
2826
330
2
100
AcDbEntity
  8
0
100
AcDbLine
 10
606.1427550179879
 20
349.7276468309419
 30
0.0
 11
606.2304188643294
 21
349.8794850667927
 31
0.0
  0
ARC
  5
2827
330
2
100
AcDbEntity
  8
0
100
AcDbCircle
 10
604.4983680567612
 20
350.8794850667927
 30
0.0
 40
2.0
100
AcDbArc
 50
330.0000000000083
 51
348.4092883145521
  0
CIRCLE
  5
2AD8
330
2
100
AcDbEntity
  8
0
100
AcDbCircle
 10
591.9984174507069
 20
116.5803793048249
 30
0.0
 40
23.5774
  0
ENDSEC
  0
SECTION
  2
OBJECTS
  0
DICTIONARY
  5
7
330
0
100
AcDbDictionary
  3
ACAD_COLOR
350
1D99
  3
ACAD_GROUP
350
75
  3
ACAD_LAYOUT
350
61
  3
ACAD_MATERIAL
350
1D6F
  3
ACAD_MLEADERSTYLE
350
1DBE
  3
ACAD_MLINESTYLE
350
76
  3
ACAD_PLOTSETTINGS
350
77
  3
ACAD_PLOTSTYLENAME
350
6
  3
ACAD_SCALELIST
350
1D9C
  3
ACAD_TABLESTYLE
350
1D9A
  3
ACAD_VISUALSTYLE
350
1D88
  3
ACADDIM
350
480
  3
ACDB_RECOMPOSE_DATA
350
1DFB
  3
ACDBHEADERROUNDTRIPXREC
350
2B1B
  3
ACDBVARIABLEDICTIONARY
350
102
  3
DWGPROPS
350
2AE8
  0
DICTIONARY
  5
1E04
330
6E
100
AcDbDictionary
280
     1
  3
ACAD_XREC_ROUNDTRIP
360
2AEF
  0
DICTIONARY
  5
ADB
330
66
100
AcDbDictionary
280
     1
  3
ACAD_LAYERSTATES
360
ADC
  0
DICTIONARY
  5
1DC3
330
5E
100
AcDbDictionary
280
     1
  3
ACAD_XREC_ROUNDTRIP
360
2AEB
  3
ADSK_XREC_LAYER_RECONCILED
360
1DC4
  0
DICTIONARY
  5
1DC5
330
3E
100
AcDbDictionary
280
     1
  3
ACAD_XREC_ROUNDTRIP
360
2AEA
  3
ADSK_XREC_LAYER_RECONCILED
360
1DC6
  0
DICTIONARY
  5
1DCB
330
2B5
100
AcDbDictionary
280
     1
  3
ACAD_XREC_ROUNDTRIP
360
2AF5
  3
ADSK_XREC_LAYER_RECONCILED
360
1DCC
  0
DICTIONARY
  5
1DCD
330
2BA
100
AcDbDictionary
280
     1
  3
ACAD_XREC_ROUNDTRIP
360
2AF6
  3
ADSK_XREC_LAYER_RECONCILED
360
1DCE
  0
DICTIONARY
  5
1DD1
330
3FA
100
AcDbDictionary
280
     1
  3
ACAD_XREC_ROUNDTRIP
360
2AF8
  3
ADSK_XREC_LAYER_RECONCILED
360
1DD2
  0
DICTIONARY
  5
2B3C
330
2
100
AcDbDictionary
280
     1
  3
ACAD_LAYOUTSELFREF
360
2B3D
  0
DICTIONARY
  5
2B3E
330
2B15
100
AcDbDictionary
280
     1
  3
ACAD_LAYOUTSELFREF
360
2B3F
  0
DICTIONARY
  5
1D99
102
{ACAD_REACTORS
330
7
102
}
330
7
100
AcDbDictionary
  0
DICTIONARY
  5
75
102
{ACAD_REACTORS
330
7
102
}
330
7
100
AcDbDictionary
  0
DICTIONARY
  5
61
102
{ACAD_REACTORS
330
7
102
}
330
7
100
AcDbDictionary
  0
DICTIONARY
  5
1D6F
102
{ACAD_REACTORS
330
7
102
}
330
7
100
AcDbDictionary
  3
BYBLOCK
350
1D78
  3
BYLAYER
350
1D70
  3
GLOBAL
350
1D80
  0
DICTIONARY
  5
1DBE
102
{ACAD_REACTORS
330
7
102
}
330
7
100
AcDbDictionary
  3
STANDARD
350
1DBF
  0
DICTIONARY
  5
76
102
{ACAD_REACTORS
330
7
102
}
330
7
100
AcDbDictionary
  3
STANDARD
350
78
  0
DICTIONARY
  5
77
102
{ACAD_REACTORS
330
7
102
}
330
7
100
AcDbDictionary
  0
ACDBDICTIONARYWDFLT
  5
6
102
{ACAD_REACTORS
330
7
102
}
330
7
100
AcDbDictionary
281
     1
  3
Normal
350
5
100
AcDbDictionaryWithDefault
340
5
  0
DICTIONARY
  5
1D9C
102
{ACAD_REACTORS
330
7
102
}
330
7
100
AcDbDictionary
  3
A0
350
1D9D
  3
A1
350
1D9E
  3
A2
350
1D9F
  3
A3
350
1DA0
  3
A4
350
1DA1
  3
A5
350
1DA2
  3
A6
350
1DA3
  3
A7
350
1DA4
  3
A8
350
1DA5
  3
A9
350
1DA6
  3
B0
350
1DA7
  3
B1
350
1DA8
  3
B2
350
1DA9
  3
B3
350
1DAA
  3
B4
350
1DAB
  3
B5
350
1DAC
  3
B6
350
1DAD
  3
B7
350
1DAE
  3
B8
350
1DAF
  3
B9
350
1DB0
  3
C0
350
1DB1
  3
C1
350
1DB2
  3
C2
350
1DB3
  3
C3
350
1DB4
  3
C4
350
1DB5
  3
C5
350
1DB6
  3
C6
350
1DB7
  3
C7
350
1DB8
  3
C8
350
1DB9
  3
C9
350
1DBA
  3
D0
350
1DBB
  3
D1
350
1DBC
  3
D2
350
1DBD
  0
DICTIONARY
  5
1D9A
102
{ACAD_REACTORS
330
7
102
}
330
7
100
AcDbDictionary
  3
STANDARD
350
1D9B
  0
DICTIONARY
  5
1D88
102
{ACAD_REACTORS
330
7
102
}
330
7
100
AcDbDictionary
  3
2DWIREFRAME
350
1D8E
  3
3D_HIDDEN
350
1D90
  3
3DWIREFRAME
350
1D8F
  3
BASIC
350
1D8D
  3
BRIGHTEN
350
1D94
  3
COLORCHANGE
350
1D98
  3
CONCEPTUAL
350
1D91
  3
DIM
350
1D93
  3
FACEPATTERN
350
1D97
  3
FLAT
350
1D89
  3
FLATWITHEDGES
350
1D8A
  3
GOURAUD
350
1D8B
  3
GOURAUDWITHEDGES
350
1D8C
  3
LINEPATTERN
350
1D96
  3
REALISTIC
350
1D92
  3
THICKEN
350
1D95
  0
XRECORD
  5
480
102
{ACAD_REACTORS
330
7
102
}
330
7
100
AcDbXrecord
 90
   990106
  3

 60
     0
 61
     0
 62
     1
 63
     3
 64
     1
 65
     0
 66
     0
 67
     3
 68
     1
 69
     0
 70
     0
 71
     0
 72
     0
 40
0.0
170
     2
340
0
  0
XRECORD
  5
1DFB
102
{ACAD_REACTORS
330
7
102
}
330
7
100
AcDbXrecord
 90
        1
330
1D9B
  0
DICTIONARY
  5
2B1B
102
{ACAD_REACTORS
330
7
102
}
330
7
100
AcDbDictionary
  3
CEPSNTYPE
350
2B25
  3
DIMSTYLEDATA
350
2B29
  3
FINGERPRINTGUID
350
2B26
  3
HYPERLINKBASE
350
2B1E
  3
INSUNITS
350
2B24
  3
LAYOUTDICT
350
2B20
  3
LWETCUNION
350
2B23
  3
PLOTSETDICT
350
2B21
  3
PLOTSTYLNAMDICT
350
2B22
  3
PSVPSCALE
350
2B28
  3
PUCSBASE
350
2B2C
  3
PUCSORGBACK
350
2B32
  3
PUCSORGBOTTOM
350
2B2E
  3
PUCSORGFRONT
350
2B31
  3
PUCSORGLEFT
350
2B2F
  3
PUCSORGRIGHT
350
2B30
  3
PUCSORGTOP
350
2B2D
  3
PUCSORTHOREF
350
2B2A
  3
PUCSORTHOVIEW
350
2B2B
  3
STYLESHEET
350
2B1F
  3
TSTACKALIGN
350
2B1C
  3
TSTACKSIZE
350
2B1D
  3
UCSBASE
350
2B35
  3
UCSORGBACK
350
2B3B
  3
UCSORGBOTTOM
350
2B37
  3
UCSORGFRONT
350
2B3A
  3
UCSORGLEFT
350
2B38
  3
UCSORGRIGHT
350
2B39
  3
UCSORGTOP
350
2B36
  3
UCSORTHOREF
350
2B33
  3
UCSORTHOVIEW
350
2B34
  3
VERSIONGUID
350
2B27
  0
DICTIONARY
  5
102
102
{ACAD_REACTORS
330
7
102
}
330
7
100
AcDbDictionary
  3
CANNOSCALE
350
1E1C
  3
CMLEADERSTYLE
350
1E1B
  3
CTABLESTYLE
350
1E1A
  3
DIMASSOC
350
103
  3
INDEXCTL
350
1E1D
  3
SORTENTS
350
549
  0
XRECORD
  5
2AE8
102
{ACAD_REACTORS
330
7
102
}
330
7
100
AcDbXrecord
  1
DWGPROPS COOKIE
  2

  3

  4

  6

  7

  8
ymorima
  9

300
=
301
=
302
=
303
=
304
=
305
=
306
=
307
=
308
=
309
=
 40
0.0611255671296296
 41
2454410.729626366
 42
2454425.756955648
  1

 90
        0
  0
XRECORD
  5
2AEF
102
{ACAD_REACTORS
330
1E04
102
}
330
1E04
100
AcDbXrecord
102
VTR_0.000_0.000_1.000_1.000_VISUALSTYLE
340
1D8E
102
VTR_0.000_0.000_1.000_1.000_GRIDDISPLAY
 70
     3
102
VTR_0.000_0.000_1.000_1.000_GRIDMAJOR
 70
     5
102
VTR_0.000_0.000_1.000_1.000_DEFAULTLIGHTING
280
     1
102
VTR_0.000_0.000_1.000_1.000_DEFAULTLIGHTINGTYPE
 70
     1
102
VTR_0.000_0.000_1.000_1.000_BRIGHTNESS
141
0.0
102
VTR_0.000_0.000_1.000_1.000_CONTRAST
142
0.0
  0
DICTIONARY
  5
ADC
102
{ACAD_REACTORS
330
ADB
102
}
330
ADB
100
AcDbDictionary
  0
XRECORD
  5
2AEB
102
{ACAD_REACTORS
330
1DC3
102
}
330
1DC3
100
AcDbXrecord
102
MATERIAL
340
1D80
  0
XRECORD
  5
1DC4
102
{ACAD_REACTORS
330
1DC3
102
}
330
1DC3
100
AcDbXrecord
290
     1
  0
XRECORD
  5
2AEA
102
{ACAD_REACTORS
330
1DC5
102
}
330
1DC5
100
AcDbXrecord
102
MATERIAL
340
1D80
  0
XRECORD
  5
1DC6
102
{ACAD_REACTORS
330
1DC5
102
}
330
1DC5
100
AcDbXrecord
290
     1
  0
XRECORD
  5
2AF5
102
{ACAD_REACTORS
330
1DCB
102
}
330
1DCB
100
AcDbXrecord
102
MATERIAL
340
1D80
  0
XRECORD
  5
1DCC
102
{ACAD_REACTORS
330
1DCB
102
}
330
1DCB
100
AcDbXrecord
290
     1
  0
XRECORD
  5
2AF6
102
{ACAD_REACTORS
330
1DCD
102
}
330
1DCD
100
AcDbXrecord
102
MATERIAL
340
1D80
  0
XRECORD
  5
1DCE
102
{ACAD_REACTORS
330
1DCD
102
}
330
1DCD
100
AcDbXrecord
290
     1
  0
XRECORD
  5
2AF8
102
{ACAD_REACTORS
330
1DD1
102
}
330
1DD1
100
AcDbXrecord
102
MATERIAL
340
1D80
  0
XRECORD
  5
1DD2
102
{ACAD_REACTORS
330
1DD1
102
}
330
1DD1
100
AcDbXrecord
290
     1
  0
XRECORD
  5
2B3D
102
{ACAD_REACTORS
330
2B3C
102
}
330
2B3C
100
AcDbXrecord
340
2
  0
XRECORD
  5
2B3F
102
{ACAD_REACTORS
330
2B3E
102
}
330
2B3E
100
AcDbXrecord
340
2B15
  0
ACAD_PROXY_OBJECT
  5
1D78
102
{ACAD_XDICTIONARY
360
1D79
102
}
102
{ACAD_REACTORS
330
1D6F
102
}
330
1D6F
100
AcDbProxyObject
 90
      499
 91
      510
 93
     1340
310
42109E509B1BD8DAC02004014080404555555555555953FAA155555555555654FEA9AA400014080404555555555555953FAA155555555555654FEA9AA400000000000000E03F4080404555555555555953FAA155555555555654FEA9AA4014080404555555555555953FAA155555555555654FEA9AA4010201011555555555
310
55654FEA8555555555555953FAA6A9005020101155555555555654FEA8555555555555953FAA6A9000
 94
        0
1001
ACAD
1000
AcadProxyRoundTripData
1071
      504
1071
   655383
1070
     0
  0
ACAD_PROXY_OBJECT
  5
1D70
102
{ACAD_XDICTIONARY
360
1D71
102
}
102
{ACAD_REACTORS
330
1D6F
102
}
330
1D6F
100
AcDbProxyObject
 90
      499
 91
      510
 93
     1340
310
42109E53185E595C802004014080404555555555555953FAA155555555555654FEA9AA400014080404555555555555953FAA155555555555654FEA9AA400000000000000E03F4080404555555555555953FAA155555555555654FEA9AA4014080404555555555555953FAA155555555555654FEA9AA4010201011555555555
310
55654FEA8555555555555953FAA6A9005020101155555555555654FEA8555555555555953FAA6A9000
 94
        0
1001
ACAD
1000
AcadProxyRoundTripData
1071
      504
1071
   655383
1070
     0
  0
ACAD_PROXY_OBJECT
  5
1D80
102
{ACAD_XDICTIONARY
360
1D81
102
}
102
{ACAD_REACTORS
330
1D6F
102
}
330
1D6F
100
AcDbProxyObject
 90
      499
 91
      510
 93
     1332
310
41D1DB1BD8985B002004014080404555555555555953FAA155555555555654FEA9AA400014080404555555555555953FAA155555555555654FEA9AA400000000000000E03F4080404555555555555953FAA155555555555654FEA9AA4014080404555555555555953FAA155555555555654FEA9AA401020101155555555555
310
654FEA8555555555555953FAA6A9005020101155555555555654FEA8555555555555953FAA6A9000
 94
        0
1001
ACAD
1000
AcadProxyRoundTripData
1071
      504
1071
   655383
1070
     0
  0
ACAD_PROXY_OBJECT
  5
1DBF
102
{ACAD_REACTORS
330
1DBE
102
}
330
1DBE
100
AcDbProxyObject
 90
      499
 91
      510
 93
      618
310
40901902A4063FBFFFFFE056BD1B81E855B9FC0AD7A3703D0AD73F4254DD185B99185C990000AD7A3703D0AC73F90141901A02B5E8DC0F42B1CFC02B5E8DC0F42B1CFE5764000000000000300FC6
340
6A
340
0
340
16
340
0
 94
        0
1001
ACAD_MLEADERVER
1070
     2
1001
ACAD
1000
AcadProxyRoundTripData
1071
      508
1071
   655383
1070
     0
  0
MLINESTYLE
  5
78
102
{ACAD_REACTORS
330
76
102
}
330
76
100
AcDbMlineStyle
  2
STANDARD
 70
     0
  3

 62
     0
 51
90.0
 52
90.0
 71
     2
 49
0.5
 62
   256
  6
BYLAYER
 49
-0.5
 62
   256
  6
BYLAYER
  0
ACDBPLACEHOLDER
  5
5
102
{ACAD_REACTORS
330
6
102
}
330
6
100
AcDbPlaceHolder
280
     0
  0
ACAD_PROXY_OBJECT
  5
1D9D
102
{ACAD_REACTORS
330
1D9C
102
}
330
1D9C
100
AcDbProxyObject
 90
      499
 91
      510
 93
       49
310
904313A3100598
 94
        0
1001
ACAD
1000
AcadProxyRoundTripData
1071
      507
1071
   655383
1070
     0
  0
ACAD_PROXY_OBJECT
  5
1D9E
102
{ACAD_REACTORS
330
1D9C
102
}
330
1D9C
100
AcDbProxyObject
 90
      499
 91
      510
 93
      113
310
904313A3200400000000000000406B
 94
        0
1001
ACAD
1000
AcadProxyRoundTripData
1071
      507
1071
   655383
1070
     0
  0
ACAD_PROXY_OBJECT
  5
1D9F
102
{ACAD_REACTORS
330
1D9C
102
}
330
1D9C
100
AcDbProxyObject
 90
      499
 91
      510
 93
      113
310
904313A3400400000000000010406B
 94
        0
1001
ACAD
1000
AcadProxyRoundTripData
1071
      507
1071
   655383
1070
     0
  0
ACAD_PROXY_OBJECT
  5
1DA0
102
{ACAD_REACTORS
330
1D9C
102
}
330
1D9C
100
AcDbProxyObject
 90
      499
 91
      510
 93
      113
310
904313A3500400000000000014406B
 94
        0
1001
ACAD
1000
AcadProxyRoundTripData
1071
      507
1071
   655383
1070
     0
  0
ACAD_PROXY_OBJECT
  5
1DA1
102
{ACAD_REACTORS
330
1D9C
102
}
330
1D9C
100
AcDbProxyObject
 90
      499
 91
      510
 93
      113
310
904313A3800400000000000020406B
 94
        0
1001
ACAD
1000
AcadProxyRoundTripData
1071
      507
1071
   655383
1070
     0
  0
ACAD_PROXY_OBJECT
  5
1DA2
102
{ACAD_REACTORS
330
1D9C
102
}
330
1D9C
100
AcDbProxyObject
 90
      499
 91
      510
 93
      121
310
905313A3130004000000000000244051
 94
        0
1001
ACAD
1000
AcadProxyRoundTripData
1071
      507
1071
   655383
1070
     0
  0
ACAD_PROXY_OBJECT
  5
1DA3
102
{ACAD_REACTORS
330
1D9C
102
}
330
1D9C
100
AcDbProxyObject
 90
      499
 91
      510
 93
      121
310
905313A3136004000000000000304051
 94
        0
1001
ACAD
1000
AcadProxyRoundTripData
1071
      507
1071
   655383
1070
     0
  0
ACAD_PROXY_OBJECT
  5
1DA4
102
{ACAD_REACTORS
330
1D9C
102
}
330
1D9C
100
AcDbProxyObject
 90
      499
 91
      510
 93
      121
310
905313A3230004000000000000344051
 94
        0
1001
ACAD
1000
AcadProxyRoundTripData
1071
      507
1071
   655383
1070
     0
  0
ACAD_PROXY_OBJECT
  5
1DA5
102
{ACAD_REACTORS
330
1D9C
102
}
330
1D9C
100
AcDbProxyObject
 90
      499
 91
      510
 93
      121
310
905313A33300040000000000003E4051
 94
        0
1001
ACAD
1000
AcadProxyRoundTripData
1071
      507
1071
   655383
1070
     0
  0
ACAD_PROXY_OBJECT
  5
1DA6
102
{ACAD_REACTORS
330
1D9C
102
}
330
1D9C
100
AcDbProxyObject
 90
      499
 91
      510
 93
      121
310
905313A3430004000000000000444051
 94
        0
1001
ACAD
1000
AcadProxyRoundTripData
1071
      507
1071
   655383
1070
     0
  0
ACAD_PROXY_OBJECT
  5
1DA7
102
{ACAD_REACTORS
330
1D9C
102
}
330
1D9C
100
AcDbProxyObject
 90
      499
 91
      510
 93
      121
310
905313A3530004000000000000494051
 94
        0
1001
ACAD
1000
AcadProxyRoundTripData
1071
      507
1071
   655383
1070
     0
  0
ACAD_PROXY_OBJECT
  5
1DA8
102
{ACAD_REACTORS
330
1D9C
102
}
330
1D9C
100
AcDbProxyObject
 90
      499
 91
      510
 93
      129
310
906313A313030004000000000000594038
 94
        0
1001
ACAD
1000
AcadProxyRoundTripData
1071
      507
1071
   655383
1070
     0
  0
ACAD_PROXY_OBJECT
  5
1DA9
102
{ACAD_REACTORS
330
1D9C
102
}
330
1D9C
100
AcDbProxyObject
 90
      499
 91
      510
 93
      113
310
904323A31000000000000000010159
 94
        0
1001
ACAD
1000
AcadProxyRoundTripData
1071
      507
1071
   655383
1070
     0
  0
ACAD_PROXY_OBJECT
  5
1DAA
102
{ACAD_REACTORS
330
1D9C
102
}
330
1D9C
100
AcDbProxyObject
 90
      499
 91
      510
 93
      113
310
904343A31000000000000000410159
 94
        0
1001
ACAD
1000
AcadProxyRoundTripData
1071
      507
1071
   655383
1070
     0
  0
ACAD_PROXY_OBJECT
  5
1DAB
102
{ACAD_REACTORS
330
1D9C
102
}
330
1D9C
100
AcDbProxyObject
 90
      499
 91
      510
 93
      113
310
904383A31000000000000000810159
 94
        0
1001
ACAD
1000
AcadProxyRoundTripData
1071
      507
1071
   655383
1070
     0
  0
ACAD_PROXY_OBJECT
  5
1DAC
102
{ACAD_REACTORS
330
1D9C
102
}
330
1D9C
100
AcDbProxyObject
 90
      499
 91
      510
 93
      121
310
90531303A31000000000000000910140
 94
        0
1001
ACAD
1000
AcadProxyRoundTripData
1071
      507
1071
   655383
1070
     0
  0
ACAD_PROXY_OBJECT
  5
1DAD
102
{ACAD_REACTORS
330
1D9C
102
}
330
1D9C
100
AcDbProxyObject
 90
      499
 91
      510
 93
      129
310
9063130303A31000000000000001650138
 94
        0
1001
ACAD
1000
AcadProxyRoundTripData
1071
      507
1071
   655383
1070
     0
  0
ACAD_PROXY_OBJECT
  5
1DAE
102
{ACAD_REACTORS
330
1D9C
102
}
330
1D9C
100
AcDbProxyObject
 90
      499
 91
      510
 93
      265
310
90F312F31323822203D2031272D302200000000000000200FC00000000000028402B
 94
        0
1001
ACAD
1000
AcadProxyRoundTripData
1071
      507
1071
   655383
1070
     0
  0
ACAD_PROXY_OBJECT
  5
1DAF
102
{ACAD_REACTORS
330
1D9C
102
}
330
1D9C
100
AcDbProxyObject
 90
      499
 91
      510
 93
      257
310
90E312F363422203D2031272D302200000000000000240FC000000000000284040
 94
        0
1001
ACAD
1000
AcadProxyRoundTripData
1071
      507
1071
   655383
1070
     0
  0
ACAD_PROXY_OBJECT
  5
1DB0
102
{ACAD_REACTORS
330
1D9C
102
}
330
1D9C
100
AcDbProxyObject
 90
      499
 91
      510
 93
      257
310
90E312F333222203D2031272D302200000000000000280FC000000000000284040
 94
        0
1001
ACAD
1000
AcadProxyRoundTripData
1071
      507
1071
   655383
1070
     0
  0
ACAD_PROXY_OBJECT
  5
1DB1
102
{ACAD_REACTORS
330
1D9C
102
}
330
1D9C
100
AcDbProxyObject
 90
      499
 91
      510
 93
      257
310
90E312F313622203D2031272D3022000000000000002C0FC000000000000284040
 94
        0
1001
ACAD
1000
AcadProxyRoundTripData
1071
      507
1071
   655383
1070
     0
  0
ACAD_PROXY_OBJECT
  5
1DB2
102
{ACAD_REACTORS
330
1D9C
102
}
330
1D9C
100
AcDbProxyObject
 90
      499
 91
      510
 93
      257
310
90E332F333222203D2031272D3022000000000000002E0FC000000000000284040
 94
        0
1001
ACAD
1000
AcadProxyRoundTripData
1071
      507
1071
   655383
1070
     0
  0
ACAD_PROXY_OBJECT
  5
1DB3
102
{ACAD_REACTORS
330
1D9C
102
}
330
1D9C
100
AcDbProxyObject
 90
      499
 91
      510
 93
      249
310
90D312F3822203D2031272D302200000000000000300FC000000000000284040
 94
        0
1001
ACAD
1000
AcadProxyRoundTripData
1071
      507
1071
   655383
1070
     0
  0
ACAD_PROXY_OBJECT
  5
1DB4
102
{ACAD_REACTORS
330
1D9C
102
}
330
1D9C
100
AcDbProxyObject
 90
      499
 91
      510
 93
      257
310
90E332F313622203D2031272D302200000000000000320FC000000000000284040
 94
        0
1001
ACAD
1000
AcadProxyRoundTripData
1071
      507
1071
   655383
1070
     0
  0
ACAD_PROXY_OBJECT
  5
1DB5
102
{ACAD_REACTORS
330
1D9C
102
}
330
1D9C
100
AcDbProxyObject
 90
      499
 91
      510
 93
      249
310
90D312F3422203D2031272D302200000000000000340FC000000000000284040
 94
        0
1001
ACAD
1000
AcadProxyRoundTripData
1071
      507
1071
   655383
1070
     0
  0
ACAD_PROXY_OBJECT
  5
1DB6
102
{ACAD_REACTORS
330
1D9C
102
}
330
1D9C
100
AcDbProxyObject
 90
      499
 91
      510
 93
      249
310
90D332F3822203D2031272D302200000000000000360FC000000000000284040
 94
        0
1001
ACAD
1000
AcadProxyRoundTripData
1071
      507
1071
   655383
1070
     0
  0
ACAD_PROXY_OBJECT
  5
1DB7
102
{ACAD_REACTORS
330
1D9C
102
}
330
1D9C
100
AcDbProxyObject
 90
      499
 91
      510
 93
      249
310
90D312F3222203D2031272D302200000000000000380FC000000000000284040
 94
        0
1001
ACAD
1000
AcadProxyRoundTripData
1071
      507
1071
   655383
1070
     0
  0
ACAD_PROXY_OBJECT
  5
1DB8
102
{ACAD_REACTORS
330
1D9C
102
}
330
1D9C
100
AcDbProxyObject
 90
      499
 91
      510
 93
      249
310
90D332F3422203D2031272D3022000000000000003A0FC000000000000284040
 94
        0
1001
ACAD
1000
AcadProxyRoundTripData
1071
      507
1071
   655383
1070
     0
  0
ACAD_PROXY_OBJECT
  5
1DB9
102
{ACAD_REACTORS
330
1D9C
102
}
330
1D9C
100
AcDbProxyObject
 90
      499
 91
      510
 93
      169
310
90B3122203D2031272D3022004000000000000284020
 94
        0
1001
ACAD
1000
AcadProxyRoundTripData
1071
      507
1071
   655383
1070
     0
  0
ACAD_PROXY_OBJECT
  5
1DBA
102
{ACAD_REACTORS
330
1D9C
102
}
330
1D9C
100
AcDbProxyObject
 90
      499
 91
      510
 93
      265
310
90F312D312F3222203D2031272D3022000000000000003E0FC00000000000028402B
 94
        0
1001
ACAD
1000
AcadProxyRoundTripData
1071
      507
1071
   655383
1070
     0
  0
ACAD_PROXY_OBJECT
  5
1DBB
102
{ACAD_REACTORS
330
1D9C
102
}
330
1D9C
100
AcDbProxyObject
 90
      499
 91
      510
 93
      233
310
90B3322203D2031272D30220000000000000002100000000000000284000
 94
        0
1001
ACAD
1000
AcadProxyRoundTripData
1071
      507
1071
   655383
1070
     0
  0
ACAD_PROXY_OBJECT
  5
1DBC
102
{ACAD_REACTORS
330
1D9C
102
}
330
1D9C
100
AcDbProxyObject
 90
      499
 91
      510
 93
      233
310
90B3622203D2031272D30220000000000000006100000000000000284000
 94
        0
1001
ACAD
1000
AcadProxyRoundTripData
1071
      507
1071
   655383
1070
     0
  0
ACAD_PROXY_OBJECT
  5
1DBD
102
{ACAD_REACTORS
330
1D9C
102
}
330
1D9C
100
AcDbProxyObject
 90
      499
 91
      510
 93
      257
310
90E31272D3022203D2031272D3022000000000000000A100000000000000284040
 94
        0
1001
ACAD
1000
AcadProxyRoundTripData
1071
      507
1071
   655383
1070
     0
  0
ACAD_PROXY_OBJECT
  5
1D9B
102
{ACAD_XDICTIONARY
360
1DF9
102
}
102
{ACAD_REACTORS
330
1D9A
102
}
330
1D9A
100
AcDbProxyObject
 90
      499
 91
      510
 93
     1849
310
4254DD185B99185C990028B81E85EB51B8AE3F2E07A17AD46E2B8FC02B5E8DC0F42B1CFD028000000C1008070000C3001FDFF8000000C1003FBFF000000182007F7FE00000030400FEFFC00000060801FDFF8000000C1003FBFF00000018200000000000000681FA0B0000001820100E000186003FBFF000000182007F7FE0
310
0000030400FEFFC00000060801FDFF8000000C1003FBFF000000182007F7FE000000304000AD7A3703D0AC73F4160000003040201C00030C007F7FE00000030400FEFFC00000060801FDFF8000000C1003FBFF000000182007F7FE00000030400FEFFC000000608000
340
16
340
16
340
16
 94
        0
1001
ACAD
1000
AcadProxyRoundTripData
1071
      506
1071
   655383
1070
     0
  0
ACAD_PROXY_OBJECT
  5
1D8E
102
{ACAD_REACTORS
330
1D88
102
}
330
1D88
100
AcDbProxyObject
 90
      499
 91
      510
 93
      444
310
430C9915DA5C99599C985B59401049028333333333333E3BF0000000000000FB0107901411070040501600405405064090741402480A0340
 94
        0
1001
ACAD
1000
AcDbSavedByObjectVersion
1070
     0
1000
AcadProxyRoundTripData
1071
      505
1071
   655383
1070
     0
  0
ACAD_PROXY_OBJECT
  5
1D90
102
{ACAD_REACTORS
330
1D88
102
}
330
1D88
100
AcDbProxyObject
 90
      499
 91
      510
 93
      508
310
428CD108121A5919195B8010640502408333333333333E3BF0000000000000FB01079024090700405020000000000001110200405405064090740C02480A0340
 94
        0
1001
ACAD
1000
AcDbSavedByObjectVersion
1070
     0
1000
AcadProxyRoundTripData
1071
      505
1071
   655383
1070
     0
  0
ACAD_PROXY_OBJECT
  5
1D8F
102
{ACAD_REACTORS
330
1D88
102
}
330
1D88
100
AcDbProxyObject
 90
      499
 91
      510
 93
      444
310
430CD915DA5C99599C985B59401059028333333333333E3BF0000000000000FB0107901411070040501600405405064090741402480A0340
 94
        0
1001
ACAD
1000
AcDbSavedByObjectVersion
1070
     0
1000
AcadProxyRoundTripData
1071
      505
1071
   655383
1070
     0
  0
ACAD_PROXY_OBJECT
  5
1D8D
102
{ACAD_REACTORS
330
1D88
102
}
330
1D88
100
AcDbProxyObject
 90
      499
 91
      510
 93
      396
310
4190985CDA58C0107406404333333333333E3BF0000000000000FB0107A41107004050150841D405064090741402480A0356
 94
        0
1001
ACAD
1000
AcDbSavedByObjectVersion
1070
     0
1000
AcadProxyRoundTripData
1071
      505
1071
   655383
1070
     0
  0
ACAD_PROXY_OBJECT
  5
1D94
102
{ACAD_REACTORS
330
1D88
102
}
330
1D88
100
AcDbProxyObject
 90
      499
 91
      510
 93
      436
310
42509C9A59DA1D195B8010C409028333333333333E3BF0000000000000FB010790141107004050150841D405064090741402480A029956
 94
        0
1001
ACAD
1000
AcDbSavedByObjectVersion
1070
     0
1000
AcadProxyRoundTripData
1071
      505
1071
   655383
1070
     0
  0
ACAD_PROXY_OBJECT
  5
1D98
102
{ACAD_REACTORS
330
1D88
102
}
330
1D88
100
AcDbProxyObject
 90
      499
 91
      510
 93
      460
310
4310DBDB1BDC90DA185B99D9401104090240C333333333333E3BF0000000000000FB0108901411070040501508421405064090741402480A0354
 94
        0
1001
ACAD
1000
AcDbSavedByObjectVersion
1070
     0
1000
AcadProxyRoundTripData
1071
      505
1071
   655383
1070
     0
  0
ACAD_PROXY_OBJECT
  5
1D91
102
{ACAD_REACTORS
330
1D88
102
}
330
1D88
100
AcDbProxyObject
 90
      499
 91
      510
 93
      508
310
42D0DBDB98D95C1D1D585B0010940D028333333333333E3BF0000000000000FB0107902409070040501000000000000111010841D405064090740C02480A0340
 94
        0
1001
ACAD
1000
AcDbSavedByObjectVersion
1070
     0
1000
AcadProxyRoundTripData
1071
      505
1071
   655383
1070
     0
  0
ACAD_PROXY_OBJECT
  5
1D93
102
{ACAD_REACTORS
330
1D88
102
}
330
1D88
100
AcDbProxyObject
 90
      499
 91
      510
 93
      420
310
41111A5B4010B409028333333333333E3BF0000000000000FB010790141107004050150841D405064090741402480A02677FFFFFDB
 94
        0
1001
ACAD
1000
AcDbSavedByObjectVersion
1070
     0
1000
AcadProxyRoundTripData
1071
      505
1071
   655383
1070
     0
  0
ACAD_PROXY_OBJECT
  5
1D97
102
{ACAD_REACTORS
330
1D88
102
}
330
1D88
100
AcDbProxyObject
 90
      499
 91
      510
 93
      452
310
43119858D95C185D1D195C9B8010F409028333333333333E3BF0000000000000FB010790141107004050150841D405064090741402480A0350
 94
        0
1001
ACAD
1000
AcDbSavedByObjectVersion
1070
     0
1000
AcadProxyRoundTripData
1071
      505
1071
   655383
1070
     0
  0
ACAD_PROXY_OBJECT
  5
1D89
102
{ACAD_REACTORS
330
1D88
102
}
330
1D88
100
AcDbProxyObject
 90
      499
 91
      510
 93
      396
310
41519B185D00240901404333333333333E3BF0000000000000F9010740A41107004050150841D405064090741402480A1B55
 94
        0
1001
ACAD
1000
AcDbSavedByObjectVersion
1070
     0
1000
AcadProxyRoundTripData
1071
      505
1071
   655383
1070
     0
  0
ACAD_PROXY_OBJECT
  5
1D8A
102
{ACAD_REACTORS
330
1D88
102
}
330
1D88
100
AcDbProxyObject
 90
      499
 91
      510
 93
      484
310
43919B185D15DA5D1A115919D95CC010140901404333333333333E3BF0000000000000F9010740901411070040501600405405064090741402480A1B50
 94
        0
1001
ACAD
1000
AcDbSavedByObjectVersion
1070
     0
1000
AcadProxyRoundTripData
1071
      505
1071
   655383
1070
     0
  0
ACAD_PROXY_OBJECT
  5
1D8B
102
{ACAD_REACTORS
330
1D88
102
}
330
1D88
100
AcDbProxyObject
 90
      499
 91
      510
 93
      420
310
4211DBDD5C985D590010240902404333333333333E3BF0000000000000F9010740A411070040501641D405064090741402480A1B50
 94
        0
1001
ACAD
1000
AcDbSavedByObjectVersion
1070
     0
1000
AcadProxyRoundTripData
1071
      505
1071
   655383
1070
     0
  0
ACAD_PROXY_OBJECT
  5
1D8C
102
{ACAD_REACTORS
330
1D88
102
}
330
1D88
100
AcDbProxyObject
 90
      499
 91
      510
 93
      508
310
4451DBDD5C985D5915DA5D1A115919D95CC010340902404333333333333E3BF0000000000000F9010740901411070040501600405405064090741402480A1B50
 94
        0
1001
ACAD
1000
AcDbSavedByObjectVersion
1070
     0
1000
AcadProxyRoundTripData
1071
      505
1071
   655383
1070
     0
  0
ACAD_PROXY_OBJECT
  5
1D96
102
{ACAD_REACTORS
330
1D88
102
}
330
1D88
100
AcDbProxyObject
 90
      499
 91
      510
 93
      452
310
43131A5B995C185D1D195C9B8010E409028333333333333E3BF0000000000000FB010790141107004050750841D405064090741402483A0350
 94
        0
1001
ACAD
1000
AcDbSavedByObjectVersion
1070
     0
1000
AcadProxyRoundTripData
1071
      505
1071
   655383
1070
     0
  0
ACAD_PROXY_OBJECT
  5
1D92
102
{ACAD_REACTORS
330
1D88
102
}
330
1D88
100
AcDbProxyObject
 90
      499
 91
      510
 93
      428
310
429499585B1A5CDD1A58C0108409028333333333333E3BF0000000000000FB01079019070040501508421405064090741402480A1B45
 94
        0
1001
ACAD
1000
AcDbSavedByObjectVersion
1070
     0
1000
AcadProxyRoundTripData
1071
      505
1071
   655383
1070
     0
  0
ACAD_PROXY_OBJECT
  5
1D95
102
{ACAD_REACTORS
330
1D88
102
}
330
1D88
100
AcDbProxyObject
 90
      499
 91
      510
 93
      420
310
42151A1A58DAD95B8010D409028333333333333E3BF0000000000000FB010790141107004050150C41D405064090741402480A0352
 94
        0
1001
ACAD
1000
AcDbSavedByObjectVersion
1070
     0
1000
AcadProxyRoundTripData
1071
      505
1071
   655383
1070
     0
  0
XRECORD
  5
2B25
102
{ACAD_REACTORS
330
2B1B
102
}
330
2B1B
100
AcDbXrecord
 90
        0
  0
XRECORD
  5
2B29
102
{ACAD_REACTORS
330
2B1B
102
}
330
2B1B
100
AcDbXrecord
1000
DSTYLE
1002
{
1070
   179
 70
     2
1070
   277
 70
     6
1002
}
  0
XRECORD
  5
2B26
102
{ACAD_REACTORS
330
2B1B
102
}
330
2B1B
100
AcDbXrecord
  1
{6385560B-F4B1-4644-A7C2-A3E32AC3D232}
  0
XRECORD
  5
2B1E
102
{ACAD_REACTORS
330
2B1B
102
}
330
2B1B
100
AcDbXrecord
  1

  0
XRECORD
  5
2B24
102
{ACAD_REACTORS
330
2B1B
102
}
330
2B1B
100
AcDbXrecord
 90
        0
  0
XRECORD
  5
2B20
102
{ACAD_REACTORS
330
2B1B
102
}
330
2B1B
100
AcDbXrecord
340
61
  0
XRECORD
  5
2B23
102
{ACAD_REACTORS
330
2B1B
102
}
330
2B1B
100
AcDbXrecord
 90
    10781
  0
XRECORD
  5
2B21
102
{ACAD_REACTORS
330
2B1B
102
}
330
2B1B
100
AcDbXrecord
340
77
  0
XRECORD
  5
2B22
102
{ACAD_REACTORS
330
2B1B
102
}
330
2B1B
100
AcDbXrecord
340
6
  0
XRECORD
  5
2B28
102
{ACAD_REACTORS
330
2B1B
102
}
330
2B1B
100
AcDbXrecord
 40
0.0
  0
XRECORD
  5
2B2C
102
{ACAD_REACTORS
330
2B1B
102
}
330
2B1B
100
AcDbXrecord
340
0
  0
XRECORD
  5
2B32
102
{ACAD_REACTORS
330
2B1B
102
}
330
2B1B
100
AcDbXrecord
 10
0.0
 20
0.0
 30
0.0
  0
XRECORD
  5
2B2E
102
{ACAD_REACTORS
330
2B1B
102
}
330
2B1B
100
AcDbXrecord
 10
0.0
 20
0.0
 30
0.0
  0
XRECORD
  5
2B31
102
{ACAD_REACTORS
330
2B1B
102
}
330
2B1B
100
AcDbXrecord
 10
0.0
 20
0.0
 30
0.0
  0
XRECORD
  5
2B2F
102
{ACAD_REACTORS
330
2B1B
102
}
330
2B1B
100
AcDbXrecord
 10
0.0
 20
0.0
 30
0.0
  0
XRECORD
  5
2B30
102
{ACAD_REACTORS
330
2B1B
102
}
330
2B1B
100
AcDbXrecord
 10
0.0
 20
0.0
 30
0.0
  0
XRECORD
  5
2B2D
102
{ACAD_REACTORS
330
2B1B
102
}
330
2B1B
100
AcDbXrecord
 10
0.0
 20
0.0
 30
0.0
  0
XRECORD
  5
2B2A
102
{ACAD_REACTORS
330
2B1B
102
}
330
2B1B
100
AcDbXrecord
340
0
  0
XRECORD
  5
2B2B
102
{ACAD_REACTORS
330
2B1B
102
}
330
2B1B
100
AcDbXrecord
 70
     0
  0
XRECORD
  5
2B1F
102
{ACAD_REACTORS
330
2B1B
102
}
330
2B1B
100
AcDbXrecord
  1
Sekkei.ctb
  0
XRECORD
  5
2B1C
102
{ACAD_REACTORS
330
2B1B
102
}
330
2B1B
100
AcDbXrecord
 90
        1
  0
XRECORD
  5
2B1D
102
{ACAD_REACTORS
330
2B1B
102
}
330
2B1B
100
AcDbXrecord
 90
       70
  0
XRECORD
  5
2B35
102
{ACAD_REACTORS
330
2B1B
102
}
330
2B1B
100
AcDbXrecord
340
0
  0
XRECORD
  5
2B3B
102
{ACAD_REACTORS
330
2B1B
102
}
330
2B1B
100
AcDbXrecord
 10
0.0
 20
0.0
 30
0.0
  0
XRECORD
  5
2B37
102
{ACAD_REACTORS
330
2B1B
102
}
330
2B1B
100
AcDbXrecord
 10
0.0
 20
0.0
 30
0.0
  0
XRECORD
  5
2B3A
102
{ACAD_REACTORS
330
2B1B
102
}
330
2B1B
100
AcDbXrecord
 10
0.0
 20
0.0
 30
0.0
  0
XRECORD
  5
2B38
102
{ACAD_REACTORS
330
2B1B
102
}
330
2B1B
100
AcDbXrecord
 10
0.0
 20
0.0
 30
0.0
  0
XRECORD
  5
2B39
102
{ACAD_REACTORS
330
2B1B
102
}
330
2B1B
100
AcDbXrecord
 10
0.0
 20
0.0
 30
0.0
  0
XRECORD
  5
2B36
102
{ACAD_REACTORS
330
2B1B
102
}
330
2B1B
100
AcDbXrecord
 10
0.0
 20
0.0
 30
0.0
  0
XRECORD
  5
2B33
102
{ACAD_REACTORS
330
2B1B
102
}
330
2B1B
100
AcDbXrecord
340
0
  0
XRECORD
  5
2B34
102
{ACAD_REACTORS
330
2B1B
102
}
330
2B1B
100
AcDbXrecord
 70
     0
  0
XRECORD
  5
2B27
102
{ACAD_REACTORS
330
2B1B
102
}
330
2B1B
100
AcDbXrecord
  1
{1A0A6A33-5307-4C99-893A-1064F7ED9A6B}
  0
DICTIONARYVAR
  5
1E1C
102
{ACAD_REACTORS
330
102
102
}
330
102
100
DictionaryVariables
280
     0
  1
1:1
  0
DICTIONARYVAR
  5
1E1B
102
{ACAD_REACTORS
330
102
102
}
330
102
100
DictionaryVariables
280
     0
  1
STANDARD
  0
DICTIONARYVAR
  5
1E1A
102
{ACAD_REACTORS
330
102
102
}
330
102
100
DictionaryVariables
280
     0
  1
STANDARD
  0
DICTIONARYVAR
  5
103
102
{ACAD_REACTORS
330
102
102
}
330
102
100
DictionaryVariables
280
     0
  1
1
  0
DICTIONARYVAR
  5
1E1D
102
{ACAD_REACTORS
330
102
102
}
330
102
100
DictionaryVariables
280
     0
  1
0
  0
DICTIONARYVAR
  5
549
102
{ACAD_REACTORS
330
102
102
}
330
102
100
DictionaryVariables
280
     0
  1
96
  0
DICTIONARY
  5
1D79
330
1D78
100
AcDbDictionary
280
     1
  3
ACAD_XREC_ROUNDTRIP
360
2AFA
  3
BUMPTILE
360
1D7B
  3
DIFFUSETILE
360
1D7A
  3
OPACITYTILE
360
1D7E
  3
REFLECTIONTILE
360
1D7D
  3
REFRACTIONTILE
360
1D7F
  3
SPECULARTILE
360
1D7C
  0
DICTIONARY
  5
1D71
330
1D70
100
AcDbDictionary
280
     1
  3
ACAD_XREC_ROUNDTRIP
360
2AF9
  3
BUMPTILE
360
1D73
  3
DIFFUSETILE
360
1D72
  3
OPACITYTILE
360
1D76
  3
REFLECTIONTILE
360
1D75
  3
REFRACTIONTILE
360
1D77
  3
SPECULARTILE
360
1D74
  0
DICTIONARY
  5
1D81
330
1D80
100
AcDbDictionary
280
     1
  3
ACAD_XREC_ROUNDTRIP
360
2AFB
  3
BUMPTILE
360
1D83
  3
DIFFUSETILE
360
1D82
  3
OPACITYTILE
360
1D86
  3
REFLECTIONTILE
360
1D85
  3
REFRACTIONTILE
360
1D87
  3
SPECULARTILE
360
1D84
  0
DICTIONARY
  5
1DF9
330
1D9B
100
AcDbDictionary
280
     1
  3
ACAD_ROUNDTRIP_2008_TABLES
360
2AE7
  3
ACAD_XREC_ROUNDTRIP
360
2AFC
  0
XRECORD
  5
2AFA
102
{ACAD_REACTORS
330
1D79
102
}
330
1D79
100
AcDbXrecord
102
MATERIAL
148
0.0
149
0.0
149
0.0
 93
        0
 94
      127
282
     0
 72
     0
 77
     0
171
     0
175
     0
179
     0
273
     0
  0
XRECORD
  5
1D7B
102
{ACAD_REACTORS
330
1D79
102
}
330
1D79
100
AcDbXrecord
270
     1
271
     1
  0
XRECORD
  5
1D7A
102
{ACAD_REACTORS
330
1D79
102
}
330
1D79
100
AcDbXrecord
270
     1
271
     1
  0
XRECORD
  5
1D7E
102
{ACAD_REACTORS
330
1D79
102
}
330
1D79
100
AcDbXrecord
270
     1
271
     1
  0
XRECORD
  5
1D7D
102
{ACAD_REACTORS
330
1D79
102
}
330
1D79
100
AcDbXrecord
270
     1
271
     1
  0
XRECORD
  5
1D7F
102
{ACAD_REACTORS
330
1D79
102
}
330
1D79
100
AcDbXrecord
270
     1
271
     1
  0
XRECORD
  5
1D7C
102
{ACAD_REACTORS
330
1D79
102
}
330
1D79
100
AcDbXrecord
270
     1
271
     1
  0
XRECORD
  5
2AF9
102
{ACAD_REACTORS
330
1D71
102
}
330
1D71
100
AcDbXrecord
102
MATERIAL
148
0.0
149
0.0
149
0.0
 93
        0
 94
      127
282
     0
 72
     0
 77
     0
171
     0
175
     0
179
     0
273
     0
  0
XRECORD
  5
1D73
102
{ACAD_REACTORS
330
1D71
102
}
330
1D71
100
AcDbXrecord
270
     1
271
     1
  0
XRECORD
  5
1D72
102
{ACAD_REACTORS
330
1D71
102
}
330
1D71
100
AcDbXrecord
270
     1
271
     1
  0
XRECORD
  5
1D76
102
{ACAD_REACTORS
330
1D71
102
}
330
1D71
100
AcDbXrecord
270
     1
271
     1
  0
XRECORD
  5
1D75
102
{ACAD_REACTORS
330
1D71
102
}
330
1D71
100
AcDbXrecord
270
     1
271
     1
  0
XRECORD
  5
1D77
102
{ACAD_REACTORS
330
1D71
102
}
330
1D71
100
AcDbXrecord
270
     1
271
     1
  0
XRECORD
  5
1D74
102
{ACAD_REACTORS
330
1D71
102
}
330
1D71
100
AcDbXrecord
270
     1
271
     1
  0
XRECORD
  5
2AFB
102
{ACAD_REACTORS
330
1D81
102
}
330
1D81
100
AcDbXrecord
102
MATERIAL
148
0.0
149
0.0
149
0.0
 93
        0
 94
      127
282
     0
 72
     0
 77
     0
171
     0
175
     0
179
     0
273
     0
  0
XRECORD
  5
1D83
102
{ACAD_REACTORS
330
1D81
102
}
330
1D81
100
AcDbXrecord
270
     1
271
     1
  0
XRECORD
  5
1D82
102
{ACAD_REACTORS
330
1D81
102
}
330
1D81
100
AcDbXrecord
270
     1
271
     1
  0
XRECORD
  5
1D86
102
{ACAD_REACTORS
330
1D81
102
}
330
1D81
100
AcDbXrecord
270
     1
271
     1
  0
XRECORD
  5
1D85
102
{ACAD_REACTORS
330
1D81
102
}
330
1D81
100
AcDbXrecord
270
     1
271
     1
  0
XRECORD
  5
1D87
102
{ACAD_REACTORS
330
1D81
102
}
330
1D81
100
AcDbXrecord
270
     1
271
     1
  0
XRECORD
  5
1D84
102
{ACAD_REACTORS
330
1D81
102
}
330
1D81
100
AcDbXrecord
270
     1
271
     1
  0
ACAD_PROXY_OBJECT
  5
2AE7
102
{ACAD_REACTORS
330
1DF9
102
}
330
1DF9
100
AcDbProxyObject
 90
      499
 91
      510
 93
     5304
310
40D054060020000020000003200101A000080002A5058000000C100000000000000340FD012E07A17AD46E2B8FCB81E85EB51B8AE3F2E07A17AD46E2B8FCB81E85EB51B8AE3F02B5E8DC0F42B1CFC0AD7A3703D0AC73F419019018000000C1003FBFFFFFE02B5E8DC0F42A9CFD029018000000C1003FBFFFFFE02B5E8DC0F4
310
2A9CFD049018000000C1003FBFFFFFE02B5E8DC0F42A9CFD089018000000C1003FBFFFFFE02B5E8DC0F42A9CFD109018000000C1003FBFFFFFE02B5E8DC0F42A9CFD209018000000C1003FBFFFFFE02B5E8DC0F42A9CFD01405075F5449544C450041501A8000000C800406800020000A9416000000304000AD7A3703D0AC7
310
3F404B81E85EB51B8AE3F2E07A17AD46E2B8FCB81E85EB51B8AE3F2E07A17AD46E2B8FC0AD7A3703D0AC73F02B5E8DC0F42B1CFD0640640600000030400FEFFFFFF80AD7A3703D0AA73F40A40600000030400FEFFFFFF80AD7A3703D0AA73F41240600000030400FEFFFFFF80AD7A3703D0AA73F42240600000030400FEFFF
310
FFF80AD7A3703D0AA73F44240600000030400FEFFFFFF80AD7A3703D0AA73F48240600000030400FEFFFFFF80AD7A3703D0AA73F409014217D2115051115480105406A0000003200101A000080002A5028000000C10002B5E8DC0F42B1CFD012E07A17AD46E2B8FCB81E85EB51B8AE3F2E07A17AD46E2B8FCB81E85EB51B8A
310
E3F02B5E8DC0F42B1CFC0AD7A3703D0AC73F419019018000000C1003FBFFFFFE02B5E8DC0F42A9CFD029018000000C1003FBFFFFFE02B5E8DC0F42A9CFD049018000000C1003FBFFFFFE02B5E8DC0F42A9CFD089018000000C1003FBFFFFFE02B5E8DC0F42A9CFD109018000000C1003FBFFFFFE02B5E8DC0F42A9CFD20901
310
8000000C1003FBFFFFFE02B5E8DC0F42A9CFD03409065F444154410000
340
16
340
0
340
0
340
0
340
0
340
0
340
0
340
16
340
0
340
0
340
0
340
0
340
0
340
0
340
16
340
0
340
0
340
0
340
0
340
0
340
0
 94
        0
1001
ACAD
1000
AcadProxyRoundTripData
1071
      509
1071
   655383
1070
     0
  0
XRECORD
  5
2AFC
102
{ACAD_REACTORS
330
1DF9
102
}
330
1DF9
100
AcDbXrecord
102
ACAD_ROUNDTRIP_PRE2007_TABLESTYLE
 90
      512
 91
        0
  1

 92
      512
 93
        0
  2

 94
      512
 95
        0
  3

  0
ENDSEC
  0
EOF
