  0
SECTION
  2
HEADER
  9
$ACADVER
  1
AC1014
  9
$ACADMAINTVER
 70
     9
  9
$DWGCODEPAGE
  3
ANSI_932
  9
$INSBASE
 10
0.0
 20
0.0
 30
0.0
  9
$EXTMIN
 10
17.86246554554224
 20
57.58037930481908
 30
0.0
  9
$EXTMAX
 10
998.9807611735827
 20
464.4776468282781
 30
0.0
  9
$LIMMIN
 10
0.0
 20
0.0
  9
$LIMMAX
 10
297.0
 20
210.0
  9
$ORTHOMODE
 70
     1
  9
$REGENMODE
 70
     1
  9
$FILLMODE
 70
     1
  9
$QTEXTMODE
 70
     0
  9
$MIRRTEXT
 70
     0
  9
$DRAGMODE
 70
     2
  9
$LTSCALE
 40
3.0
  9
$OSMODE
 70
    37
  9
$ATTMODE
 70
     1
  9
$TEXTSIZE
 40
2.0
  9
$TRACEWID
 40
1.0
  9
$TEXTSTYLE
  7
STANDARD
  9
$CLAYER
  8
0
  9
$CELTYPE
  6
BYLAYER
  9
$CECOLOR
 62
   256
  9
$CELTSCALE
 40
1.0
  9
$DELOBJ
 70
     1
  9
$DISPSILH
 70
     0
  9
$DIMSCALE
 40
3.0
  9
$DIMASZ
 40
1.8
  9
$DIMEXO
 40
0.625
  9
$DIMDLI
 40
3.75
  9
$DIMRND
 40
0.0
  9
$DIMDLE
 40
0.0
  9
$DIMEXE
 40
0.8
  9
$DIMTP
 40
0.0
  9
$DIMTM
 40
0.0
  9
$DIMTXT
 40
1.8
  9
$DIMCEN
 40
2.5
  9
$DIMTSZ
 40
0.0
  9
$DIMTOL
 70
     0
  9
$DIMLIM
 70
     0
  9
$DIMTIH
 70
     0
  9
$DIMTOH
 70
     0
  9
$DIMSE1
 70
     0
  9
$DIMSE2
 70
     0
  9
$DIMTAD
 70
     1
  9
$DIMZIN
 70
     8
  9
$DIMBLK
  1

  9
$DIMASO
 70
     1
  9
$DIMSHO
 70
     1
  9
$DIMPOST
  1

  9
$DIMAPOST
  1

  9
$DIMALT
 70
     0
  9
$DIMALTD
 70
     4
  9
$DIMALTF
 40
0.0394
  9
$DIMLFAC
 40
1.0
  9
$DIMTOFL
 70
     1
  9
$DIMTVP
 40
0.0
  9
$DIMTIX
 70
     0
  9
$DIMSOXD
 70
     0
  9
$DIMSAH
 70
     0
  9
$DIMBLK1
  1

  9
$DIMBLK2
  1

  9
$DIMSTYLE
  2
STANDARD
  9
$DIMCLRD
 70
     0
  9
$DIMCLRE
 70
     0
  9
$DIMCLRT
 70
     0
  9
$DIMTFAC
 40
1.0
  9
$DIMGAP
 40
0.75
  9
$DIMJUST
 70
     0
  9
$DIMSD1
 70
     0
  9
$DIMSD2
 70
     0
  9
$DIMTOLJ
 70
     1
  9
$DIMTZIN
 70
     0
  9
$DIMALTZ
 70
     0
  9
$DIMALTTZ
 70
     0
  9
$DIMFIT
 70
     3
  9
$DIMUPT
 70
     0
  9
$DIMUNIT
 70
     8
  9
$DIMDEC
 70
     2
  9
$DIMTDEC
 70
     2
  9
$DIMALTU
 70
     8
  9
$DIMALTTD
 70
     4
  9
$DIMTXSTY
  7
STANDARD
  9
$DIMAUNIT
 70
     0
  9
$LUNITS
 70
     2
  9
$LUPREC
 70
     3
  9
$SKETCHINC
 40
1.0
  9
$FILLETRAD
 40
10.0
  9
$AUNITS
 70
     0
  9
$AUPREC
 70
     2
  9
$MENU
  1
.
  9
$ELEVATION
 40
0.0
  9
$PELEVATION
 40
0.0
  9
$THICKNESS
 40
0.0
  9
$LIMCHECK
 70
     0
  9
$BLIPMODE
 70
     0
  9
$CHAMFERA
 40
0.0
  9
$CHAMFERB
 40
0.0
  9
$CHAMFERC
 40
20.0
  9
$CHAMFERD
 40
0.0
  9
$SKPOLY
 70
     0
  9
$TDCREATE
 40
2454410.731539351
  9
$TDUPDATE
 40
2454425.766229919
  9
$TDINDWG
 40
0.0602245949
  9
$TDUSRTIMER
 40
0.0602245949
  9
$USRTIMER
 70
     1
  9
$ANGBASE
 50
0.0
  9
$ANGDIR
 70
     0
  9
$PDMODE
 70
     0
  9
$PDSIZE
 40
-10.0
  9
$PLINEWID
 40
0.0
  9
$COORDS
 70
     0
  9
$SPLFRAME
 70
     0
  9
$SPLINETYPE
 70
     6
  9
$SPLINESEGS
 70
     8
  9
$ATTDIA
 70
     0
  9
$ATTREQ
 70
     1
  9
$HANDLING
 70
-16383
  9
$HANDSEED
  5
29DB
  9
$SURFTAB1
 70
     6
  9
$SURFTAB2
 70
     6
  9
$SURFTYPE
 70
     6
  9
$SURFU
 70
     6
  9
$SURFV
 70
     6
  9
$UCSNAME
  2

  9
$UCSORG
 10
0.0
 20
0.0
 30
0.0
  9
$UCSXDIR
 10
1.0
 20
0.0
 30
0.0
  9
$UCSYDIR
 10
0.0
 20
1.0
 30
0.0
  9
$PUCSNAME
  2

  9
$PUCSORG
 10
0.0
 20
0.0
 30
0.0
  9
$PUCSXDIR
 10
1.0
 20
0.0
 30
0.0
  9
$PUCSYDIR
 10
0.0
 20
1.0
 30
0.0
  9
$USERI1
 70
     0
  9
$USERI2
 70
     0
  9
$USERI3
 70
     0
  9
$USERI4
 70
     0
  9
$USERI5
 70
     0
  9
$USERR1
 40
0.0
  9
$USERR2
 40
0.0
  9
$USERR3
 40
0.0
  9
$USERR4
 40
0.0
  9
$USERR5
 40
0.0
  9
$WORLDVIEW
 70
     1
  9
$SHADEDGE
 70
     3
  9
$SHADEDIF
 70
    70
  9
$TILEMODE
 70
     1
  9
$MAXACTVP
 70
    48
  9
$PINSBASE
 10
0.0
 20
0.0
 30
0.0
  9
$PLIMCHECK
 70
     0
  9
$PEXTMIN
 10
0.0
 20
0.0
 30
0.0
  9
$PEXTMAX
 10
0.0
 20
0.0
 30
0.0
  9
$PLIMMIN
 10
0.0
 20
0.0
  9
$PLIMMAX
 10
12.0
 20
9.0
  9
$UNITMODE
 70
     0
  9
$VISRETAIN
 70
     1
  9
$PLINEGEN
 70
     0
  9
$PSLTSCALE
 70
     1
  9
$TREEDEPTH
 70
  3020
  9
$PICKSTYLE
 70
     1
  9
$CMLSTYLE
  2
STANDARD
  9
$CMLJUST
 70
     0
  9
$CMLSCALE
 40
1.0
  9
$PROXYGRAPHICS
 70
     1
  9
$MEASUREMENT
 70
     0
  0
ENDSEC
  0
SECTION
  2
CLASSES
  0
CLASS
  1
DICTIONARYVAR
  2
AcDbDictionaryVar
  3
AutoCAD 2000
 90
        0
280
     0
281
     0
  0
CLASS
  1
ACDBDICTIONARYWDFLT
  2
AcDbDictionaryWithDefault
  3
AutoCAD 2000
 90
        0
280
     0
281
     0
  0
CLASS
  1
ACDBPLACEHOLDER
  2
AcDbPlaceHolder
  3
AutoCAD 2000
 90
        0
280
     0
281
     0
  0
CLASS
  1
LAYOUT
  2
AcDbLayout
  3
AutoCAD 2000
 90
        0
280
     0
281
     0
  0
CLASS
  1
MATERIAL
  2
AcDbMaterial
  3
ObjectDBX Classes
 90
     1153
280
     0
281
     0
  0
CLASS
  1
VISUALSTYLE
  2
AcDbVisualStyle
  3
ObjectDBX Classes
 90
     4095
280
     0
281
     0
  0
CLASS
  1
TABLESTYLE
  2
AcDbTableStyle
  3
ObjectDBX Classes
 90
     4095
280
     0
281
     0
  0
CLASS
  1
SCALE
  2
AcDbScale
  3
ObjectDBX Classes
 90
     1153
280
     0
281
     0
  0
CLASS
  1
MLEADERSTYLE
  2
AcDbMLeaderStyle
  3
ACDB_MLEADERSTYLE_CLASS
 90
     4095
280
     0
281
     0
  0
CLASS
  1
CELLSTYLEMAP
  2
AcDbCellStyleMap
  3
ObjectDBX Classes
 90
     1152
280
     0
281
     0
  0
CLASS
  1
ACAD_PROXY_OBJECT_WRAPPER
  2
AcDbProxyObjectWrapper
  3
AutoCAD 2000
 90
        0
280
     0
281
     0
  0
CLASS
  1
LONG_TRANSACTION
  2
AcDbLongTransaction
  3
AutoCAD 2000
 90
        0
280
     0
281
     0
  0
CLASS
  1
LWPOLYLINE
  2
AcDbPolyline
  3
AutoCAD 2000
 90
        0
280
     0
281
     1
  0
CLASS
  1
HATCH
  2
AcDbHatch
  3
AutoCAD 2000
 90
        0
280
     0
281
     1
  0
CLASS
  1
XRECORD
  2
AcDbXrecord
  3
AutoCAD 2000
 90
        0
280
     0
281
     0
  0
ENDSEC
  0
SECTION
  2
TABLES
  0
TABLE
  2
VPORT
  5
6E
102
{ACAD_XDICTIONARY
360
1841
102
}
330
0
100
AcDbSymbolTable
 70
     2
  0
VPORT
  5
29B5
330
6E
100
AcDbSymbolTableRecord
100
AcDbViewportTableRecord
  2
*ACTIVE
 70
     0
 10
0.0
 20
0.0
 11
1.0
 21
1.0
 12
578.3283517354389
 22
251.8684844347506
 13
0.0
 23
0.0
 14
10.0
 24
10.0
 15
10.0
 25
10.0
 16
0.0
 26
0.0
 36
1.0
 17
0.0
 27
0.0
 37
0.0
 40
642.1293142475743
 41
1.753504672897196
 42
50.0
 43
0.0
 44
0.0
 50
0.0
 51
0.0
 71
     0
 72
   100
 73
     1
 74
     3
 75
     0
 76
     0
 77
     0
 78
     0
  0
ENDTAB
  0
TABLE
  2
LTYPE
  5
69
330
0
100
AcDbSymbolTable
 70
     5
  0
LTYPE
  5
6A
330
69
100
AcDbSymbolTableRecord
100
AcDbLinetypeTableRecord
  2
BYBLOCK
 70
     0
  3

 72
    65
 73
     0
 40
0.0
  0
LTYPE
  5
6B
330
69
100
AcDbSymbolTableRecord
100
AcDbLinetypeTableRecord
  2
BYLAYER
 70
     0
  3

 72
    65
 73
     0
 40
0.0
  0
LTYPE
  5
8
330
69
100
AcDbSymbolTableRecord
100
AcDbLinetypeTableRecord
  2
CONTINUOUS
 70
     0
  3
Solid line
 72
    65
 73
     0
 40
0.0
  0
LTYPE
  5
27C
330
69
100
AcDbSymbolTableRecord
100
AcDbLinetypeTableRecord
  2
SEKKEI_A2_
 70
     0
  3
center(A2)  ____ _ ____ _ ____ _ ____ _ ____ _ 
 72
    65
 73
     4
 40
14.28749999999999
 49
9.525
 74
     0
 49
-1.587499999999999
 74
     0
 49
1.587499999999999
 74
     0
 49
-1.587499999999999
 74
     0
  0
LTYPE
  5
7F0
330
69
100
AcDbSymbolTableRecord
100
AcDbLinetypeTableRecord
  2
HIDDEN3
 70
     0
  3
Hidden (.3x) _ _ _ _ _ _ _ _ _ _ _ _ _ _ _ _ _
 72
    65
 73
     2
 40
2.857499999999999
 49
1.905
 74
     0
 49
-0.9525
 74
     0
  0
LTYPE
  5
ADA
330
69
100
AcDbSymbolTableRecord
100
AcDbLinetypeTableRecord
  2
CENS
 70
     0
  3
(一点鎖線１)---- - ---- - ---- - ---- - ---- - 
 72
    65
 73
     4
 40
7.0
 49
4.0
 74
     0
 49
-1.0
 74
     0
 49
1.0
 74
     0
 49
-1.0
 74
     0
  0
ENDTAB
  0
TABLE
  2
LAYER
  5
66
102
{ACAD_XDICTIONARY
360
ADB
102
}
330
0
100
AcDbSymbolTable
 70
     9
  0
LAYER
  5
5E
102
{ACAD_XDICTIONARY
360
1826
102
}
330
66
100
AcDbSymbolTableRecord
100
AcDbLayerTableRecord
  2
0
 70
     0
 62
     7
  6
CONTINUOUS
  0
LAYER
  5
3E
102
{ACAD_XDICTIONARY
360
1828
102
}
330
66
100
AcDbSymbolTableRecord
100
AcDbLayerTableRecord
  2
CENTER
 70
     0
 62
     3
  6
SEKKEI_A2_
  0
LAYER
  5
2B5
102
{ACAD_XDICTIONARY
360
182E
102
}
330
66
100
AcDbSymbolTableRecord
100
AcDbLayerTableRecord
  2
HIDS
 70
     0
 62
     1
  6
HIDDEN3
  0
LAYER
  5
2BA
102
{ACAD_XDICTIONARY
360
1830
102
}
330
66
100
AcDbSymbolTableRecord
100
AcDbLayerTableRecord
  2
HOJO
 70
     0
 62
     4
  6
CONTINUOUS
  0
LAYER
  5
3FA
102
{ACAD_XDICTIONARY
360
1834
102
}
330
66
100
AcDbSymbolTableRecord
100
AcDbLayerTableRecord
  2
TITLE
 70
     0
 62
     4
  6
CONTINUOUS
  0
ENDTAB
  0
TABLE
  2
STYLE
  5
67
330
0
100
AcDbSymbolTable
 70
     2
  0
STYLE
  5
16
330
67
100
AcDbSymbolTableRecord
100
AcDbTextStyleTableRecord
  2
STANDARD
 70
     0
 40
0.0
 41
1.0
 50
0.0
 71
     0
 42
2.0
  3
simplex.shx
  4
extfont.shx
  0
ENDTAB
  0
TABLE
  2
VIEW
  5
6C
330
0
100
AcDbSymbolTable
 70
     0
  0
ENDTAB
  0
TABLE
  2
UCS
  5
6D
330
0
100
AcDbSymbolTable
 70
     0
  0
ENDTAB
  0
TABLE
  2
APPID
  5
70
330
0
100
AcDbSymbolTable
 70
     3
  0
APPID
  5
71
330
70
100
AcDbSymbolTableRecord
100
AcDbRegAppTableRecord
  2
ACAD
 70
     0
  0
APPID
  5
1823
330
70
100
AcDbSymbolTableRecord
100
AcDbRegAppTableRecord
  2
ACAD_MLEADERVER
 70
     0
  0
APPID
  5
1C7C
330
70
100
AcDbSymbolTableRecord
100
AcDbRegAppTableRecord
  2
ACAD_DSTYLE_DIMRADIAL_EXTENSION
 70
     0
  0
ENDTAB
  0
TABLE
  2
DIMSTYLE
  5
72
330
0
100
AcDbSymbolTable
 70
     1
  0
DIMSTYLE
105
73
330
72
100
AcDbSymbolTableRecord
100
AcDbDimStyleTableRecord
  2
STANDARD
 70
     0
  3

  4

  5

  6

  7

 40
3.0
 41
1.8
 42
0.625
 43
3.75
 44
0.8
 45
0.0
 46
0.0
 47
0.0
 48
0.0
140
1.8
141
2.5
142
0.0
143
0.0394
144
1.0
145
0.0
146
1.0
147
0.75
 71
     0
 72
     0
 73
     0
 74
     0
 75
     0
 76
     0
 77
     1
 78
     8
170
     0
171
     4
172
     1
173
     0
174
     0
175
     0
176
     0
177
     0
178
     0
270
     8
271
     2
272
     2
273
     8
274
     4
340
16
275
     0
280
     0
281
     0
282
     0
283
     1
284
     0
285
     0
286
     0
287
     3
288
     0
  0
ENDTAB
  0
TABLE
  2
BLOCK_RECORD
  5
1
330
0
100
AcDbSymbolTable
 70
    46
  0
BLOCK_RECORD
  5
2
102
{ACAD_XDICTIONARY
360
29D7
102
}
330
1
100
AcDbSymbolTableRecord
100
AcDbBlockTableRecord
  2
*MODEL_SPACE
  0
BLOCK_RECORD
  5
29B0
102
{ACAD_XDICTIONARY
360
29D9
102
}
330
1
100
AcDbSymbolTableRecord
100
AcDbBlockTableRecord
  2
*PAPER_SPACE
  0
ENDTAB
  0
ENDSEC
  0
SECTION
  2
BLOCKS
  0
BLOCK
  5
5D
330
2
100
AcDbEntity
  8
0
100
AcDbBlockBegin
  2
*MODEL_SPACE
 70
     0
 10
0.0
 20
0.0
 30
0.0
  3
*MODEL_SPACE
  1

  0
ENDBLK
  5
5F
330
2
100
AcDbEntity
  8
0
100
AcDbBlockEnd
  0
BLOCK
  5
29B2
330
29B0
100
AcDbEntity
 67
     1
  8
0
100
AcDbBlockBegin
  2
*PAPER_SPACE
 70
     0
 10
0.0
 20
0.0
 30
0.0
  3
*PAPER_SPACE
  1

  0
ENDBLK
  5
29B3
330
29B0
100
AcDbEntity
 67
     1
  8
0
100
AcDbBlockEnd
  0
ENDSEC
  0
SECTION
  2
ENTITIES
  0
LINE
  5
F05
330
2
100
AcDbEntity
  8
0
100
AcDbLine
 10
685.9984174463209
 20
441.1276468309434
 30
0.0
 11
685.9984174463227
 21
381.8276468309433
 31
0.0
  0
LINE
  5
F06
330
2
100
AcDbEntity
  8
0
100
AcDbLine
 10
707.9984174463208
 20
408.4776468309433
 30
0.0
 11
707.9984174463208
 21
389.4776468309434
 31
0.0
  0
LINE
  5
F07
330
2
100
AcDbEntity
  8
0
100
AcDbLine
 10
710.9984174463209
 20
411.4776468309433
 30
0.0
 11
718.9984174463191
 21
411.4776468309433
 31
0.0
  0
LINE
  5
F08
330
2
100
AcDbEntity
  8
0
100
AcDbLine
 10
687.6039687217855
 20
451.4776468309434
 30
0.0
 11
731.9984174463191
 21
451.4776468309434
 31
0.0
  0
LINE
  5
F09
330
2
100
AcDbEntity
  8
0
100
AcDbLine
 10
721.998417446319
 20
446.4776468309434
 30
0.0
 11
721.998417446319
 21
414.4776468309434
 31
0.0
  0
ARC
  5
F0A
330
2
100
AcDbEntity
  8
0
100
AcDbCircle
 10
726.998417446319
 20
446.4776468309434
 30
0.0
 40
5.0
100
AcDbArc
 50
90.0
 51
180.0
  0
ARC
  5
F0B
330
2
100
AcDbEntity
  8
0
100
AcDbCircle
 10
718.9984174463191
 20
414.4776468309434
 30
0.0
 40
3.0
100
AcDbArc
 50
270.0
 51
0.0
  0
LINE
  5
F0C
330
2
100
AcDbEntity
  8
0
100
AcDbLine
 10
676.9984174463209
 20
452.4776468309434
 30
0.0
 11
683.9984174463227
 21
452.4776468309434
 31
0.0
  0
ARC
  5
F0D
330
2
100
AcDbEntity
  8
0
100
AcDbCircle
 10
687.6039687217855
 20
456.4776468309434
 30
0.0
 40
5.0
100
AcDbArc
 50
238.9972808660705
 51
270.0
  0
ARC
  5
F0E
330
2
100
AcDbEntity
  8
0
100
AcDbCircle
 10
683.9984174463227
 20
450.4776468309434
 30
0.0
 40
2.0
100
AcDbArc
 50
18.96557498887199
 51
90.0
  0
ARC
  5
F0F
330
2
100
AcDbEntity
  8
0
100
AcDbCircle
 10
710.9984174463209
 20
408.4776468309433
 30
0.0
 40
3.0
100
AcDbArc
 50
90.0
 51
180.0
  0
LINE
  5
F10
330
2
100
AcDbEntity
  8
0
100
AcDbLine
 10
687.6039687217855
 20
371.4776468309433
 30
0.0
 11
731.9984174463191
 21
371.4776468309429
 31
0.0
  0
LINE
  5
F11
330
2
100
AcDbEntity
  8
0
100
AcDbLine
 10
710.9984174463209
 20
386.4776468309433
 30
0.0
 11
718.9984174463191
 21
386.4776468309433
 31
0.0
  0
LINE
  5
F12
330
2
100
AcDbEntity
  8
0
100
AcDbLine
 10
721.998417446319
 20
383.4776468309433
 30
0.0
 11
721.998417446319
 21
376.4776468309429
 31
0.0
  0
ARC
  5
F13
330
2
100
AcDbEntity
  8
0
100
AcDbCircle
 10
718.9984174463191
 20
383.4776468309433
 30
0.0
 40
3.0
100
AcDbArc
 50
0.0
 51
90.0
  0
ARC
  5
F14
330
2
100
AcDbEntity
  8
0
100
AcDbCircle
 10
726.998417446319
 20
376.4776468309434
 30
0.0
 40
5.0
100
AcDbArc
 50
180.0
 51
270.0
  0
ARC
  5
F15
330
2
100
AcDbEntity
  8
0
100
AcDbCircle
 10
710.9984174463209
 20
389.4776468309434
 30
0.0
 40
3.0
100
AcDbArc
 50
180.0
 51
270.0
  0
LINE
  5
F16
330
2
100
AcDbEntity
  8
0
100
AcDbLine
 10
676.9984174463209
 20
370.4776468309429
 30
0.0
 11
683.9984174463227
 21
370.4776468309434
 31
0.0
  0
ARC
  5
F17
330
2
100
AcDbEntity
  8
0
100
AcDbCircle
 10
687.6039687217855
 20
366.4776468309434
 30
0.0
 40
5.0
100
AcDbArc
 50
90.0
 51
121.0027191339292
  0
ARC
  5
F18
330
2
100
AcDbEntity
  8
0
100
AcDbCircle
 10
683.9984174463227
 20
372.4776468309434
 30
0.0
 40
2.0
100
AcDbArc
 50
270.0
 51
341.0344250111151
  0
LINE
  5
F19
330
2
100
AcDbEntity
  8
0
100
AcDbLine
 10
731.9984174463191
 20
451.4776468309434
 30
0.0
 11
731.9984174463191
 21
371.4776468309429
 31
0.0
  0
LINE
  5
F1A
330
2
100
AcDbEntity
  8
0
100
AcDbLine
 10
907.91988179779
 20
157.5803793047975
 30
0.0
 11
920.1075022726632
 21
157.5803793047984
 31
0.0
  0
LINE
  5
F1B
330
2
100
AcDbEntity
  8
0
100
AcDbLine
 10
937.8534689650775
 20
157.5803793047993
 30
0.0
 11
980.0410894399517
 21
157.5803793048029
 31
0.0
  0
CIRCLE
  5
F1C
330
2
100
AcDbEntity
  8
HIDS
100
AcDbCircle
 10
943.9804856188708
 20
116.5803793047975
 30
0.0
 40
40.0
  0
CIRCLE
  5
F1D
330
2
100
AcDbEntity
  8
0
100
AcDbCircle
 10
943.9804856188708
 20
116.5803793047975
 30
0.0
 40
34.99999999543831
  0
LINE
  5
F1E
330
2
100
AcDbEntity
  8
0
100
AcDbLine
 10
911.9804856188707
 20
156.5803793047975
 30
0.0
 11
975.9804856188708
 21
156.5803793047975
 31
0.0
  0
LINE
  5
F1F
330
2
100
AcDbEntity
  8
0
100
AcDbLine
 10
911.9804856188707
 20
76.58037930479753
 30
0.0
 11
975.8873673203103
 21
76.58037930479799
 31
0.0
  0
LINE
  5
F20
330
2
100
AcDbEntity
  8
0
100
AcDbLine
 10
902.9202535588225
 20
80.51940822871296
 30
0.0
 11
902.4804856188799
 21
116.5803793047975
 31
0.0
  0
LINE
  5
F21
330
2
100
AcDbEntity
  8
0
100
AcDbLine
 10
904.07363776376
 20
84.55710829023104
 30
0.0
 11
903.9804856188707
 21
116.5803793047975
 31
0.0
  0
ARC
  5
F22
330
2
100
AcDbEntity
  8
0
100
AcDbCircle
 10
907.91988179779
 20
80.58037930479798
 30
0.0
 40
5.0
100
AcDbArc
 50
180.6986943829866
 51
270.0
  0
ARC
  5
F23
330
2
100
AcDbEntity
  8
0
100
AcDbCircle
 10
912.0736039174314
 20
84.58037930479752
 30
0.0
 40
7.999999999999998
100
AcDbArc
 50
180.1666665999998
 51
270.0
  0
LINE
  5
F24
330
2
100
AcDbEntity
  8
CENTER
100
AcDbLine
 10
912.160485618871
 20
90.26037930479782
 30
0.0
 11
912.160485618871
 21
79.26037930479783
 31
0.0
  0
LINE
  5
F25
330
2
100
AcDbEntity
  8
CENTER
100
AcDbLine
 10
906.660485618871
 20
84.76037930479781
 30
0.0
 11
917.6604856188712
 21
84.76037930479781
 31
0.0
  0
LINE
  5
F26
330
2
100
AcDbEntity
  8
0
100
AcDbLine
 10
902.9202535588225
 20
152.6413503808825
 30
0.0
 11
902.4804856188799
 21
116.5803793047975
 31
0.0
  0
LINE
  5
F27
330
2
100
AcDbEntity
  8
HIDS
100
AcDbLine
 10
923.230485618869
 20
156.5803793047975
 30
0.0
 11
923.5691072552295
 21
137.180758750242
 31
0.0
  0
LINE
  5
F28
330
2
100
AcDbEntity
  8
HIDS
100
AcDbLine
 10
934.730485618869
 20
156.5803793047975
 30
0.0
 11
934.5107313356772
 21
143.9906648526707
 31
0.0
  0
LINE
  5
F29
330
2
100
AcDbEntity
  8
0
100
AcDbLine
 10
904.07363776376
 20
148.6036503193644
 30
0.0
 11
903.9804856188707
 21
116.5803793047975
 31
0.0
  0
LINE
  5
F2A
330
2
100
AcDbEntity
  8
CENTER
100
AcDbLine
 10
912.160485618871
 20
153.9003793047981
 30
0.0
 11
912.160485618871
 21
142.9003793047981
 31
0.0
  0
ARC
  5
F2B
330
2
100
AcDbEntity
  8
HIDS
100
AcDbCircle
 10
920.9458801451015
 20
154.5803793047975
 30
0.0
 40
2.0
100
AcDbArc
 50
90.0
 51
178.9999999999974
  0
ARC
  5
F2C
330
2
100
AcDbEntity
  8
0
100
AcDbCircle
 10
907.91988179779
 20
152.5803793047975
 30
0.0
 40
5.0
100
AcDbArc
 50
90.0
 51
179.3013056170132
  0
ARC
  5
F2D
330
2
100
AcDbEntity
  8
0
100
AcDbCircle
 10
912.0736039174314
 20
148.5803793047975
 30
0.0
 40
7.999999999999998
100
AcDbArc
 50
90.0
 51
179.8333334000001
  0
LINE
  5
F2E
330
2
100
AcDbEntity
  8
CENTER
100
AcDbLine
 10
906.660485618871
 20
148.4003793047981
 30
0.0
 11
917.6604856188712
 21
148.4003793047981
 31
0.0
  0
LINE
  5
F2F
330
2
100
AcDbEntity
  8
HIDS
100
AcDbLine
 10
918.9461847547896
 20
154.6152841176721
 30
0.0
 11
918.8490337925301
 21
149.0495092174055
 31
0.0
  0
ARC
  5
F30
330
2
100
AcDbEntity
  8
HIDS
100
AcDbCircle
 10
915.8494907070595
 20
149.1018664367179
 30
0.0
 40
3.0
100
AcDbArc
 50
310.8597132650929
 51
358.9999999999843
  0
LINE
  5
F31
330
2
100
AcDbEntity
  8
0
100
AcDbLine
 10
985.0407176789191
 20
80.51940822871296
 30
0.0
 11
985.4804856188618
 21
116.5803793047666
 31
0.0
  0
LINE
  5
F32
330
2
100
AcDbEntity
  8
0
100
AcDbLine
 10
983.8873334739815
 20
84.55710829023104
 30
0.0
 11
983.9804856188708
 21
116.5803793047975
 31
0.0
  0
ARC
  5
F33
330
2
100
AcDbEntity
  8
0
100
AcDbCircle
 10
980.0410894399517
 20
80.58037930479754
 30
0.0
 40
5.0
100
AcDbArc
 50
270.0
 51
359.3013056170132
  0
ARC
  5
F34
330
2
100
AcDbEntity
  8
0
100
AcDbCircle
 10
975.8873673203103
 20
84.58037930479752
 30
0.0
 40
8.0
100
AcDbArc
 50
270.0
 51
359.8333334000002
  0
LINE
  5
F35
330
2
100
AcDbEntity
  8
HIDS
100
AcDbLine
 10
969.0147864829519
 20
78.5454744919229
 30
0.0
 11
969.1119374452116
 21
84.11124939218955
 31
0.0
  0
LINE
  5
F36
330
2
100
AcDbEntity
  8
CENTER
100
AcDbLine
 10
975.8004856188705
 20
90.26037930479782
 30
0.0
 11
975.8004856188705
 21
79.26037930479783
 31
0.0
  0
ARC
  5
F37
330
2
100
AcDbEntity
  8
HIDS
100
AcDbCircle
 10
967.0150910926382
 20
78.58037930479799
 30
0.0
 40
2.0
100
AcDbArc
 50
270.0
 51
358.9999999999843
  0
LINE
  5
F38
330
2
100
AcDbEntity
  8
CENTER
100
AcDbLine
 10
970.3004856188705
 20
84.76037930479781
 30
0.0
 11
981.3004856188705
 21
84.76037930479781
 31
0.0
  0
ARC
  5
F39
330
2
100
AcDbEntity
  8
HIDS
100
AcDbCircle
 10
972.1114805306802
 20
84.05889217287716
 30
0.0
 40
3.0
100
AcDbArc
 50
130.8597132650931
 51
178.9999999999843
  0
LINE
  5
F3A
330
2
100
AcDbEntity
  8
0
100
AcDbLine
 10
985.0407176789191
 20
152.641350380883
 30
0.0
 11
985.4804856188618
 21
116.5803793047666
 31
0.0
  0
LINE
  5
F3B
330
2
100
AcDbEntity
  8
0
100
AcDbLine
 10
983.8873334739815
 20
148.6036503193644
 30
0.0
 11
983.9804856188708
 21
116.5803793047975
 31
0.0
  0
LINE
  5
F3C
330
2
100
AcDbEntity
  8
CENTER
100
AcDbLine
 10
975.8004856188705
 20
153.9003793047981
 30
0.0
 11
975.8004856188705
 21
142.9003793047981
 31
0.0
  0
ARC
  5
F3D
330
2
100
AcDbEntity
  8
0
100
AcDbCircle
 10
975.8873673203103
 20
148.5803793047975
 30
0.0
 40
8.0
100
AcDbArc
 50
0.1666665999998381
 51
90.0
  0
LINE
  5
F3E
330
2
100
AcDbEntity
  8
CENTER
100
AcDbLine
 10
970.3004856188705
 20
148.4003793047981
 30
0.0
 11
981.3004856188705
 21
148.4003793047981
 31
0.0
  0
ARC
  5
F3F
330
2
100
AcDbEntity
  8
0
100
AcDbCircle
 10
980.0410894399517
 20
152.5803793047975
 30
0.0
 40
5.0
100
AcDbArc
 50
0.6986943829867131
 51
90.0
  0
LINE
  5
F40
330
2
100
AcDbEntity
  8
0
100
AcDbLine
 10
685.8087940564021
 20
127.4438962850026
 30
0.0
 11
685.3170606527185
 21
155.6152841176853
 31
0.0
  0
LINE
  5
F41
330
2
100
AcDbEntity
  8
0
100
AcDbLine
 10
722.6108678876191
 20
151.6676413370004
 30
0.0
 11
722.5488341848143
 21
148.113732883562
 31
0.0
  0
ARC
  5
F42
330
2
100
AcDbEntity
  8
0
100
AcDbCircle
 10
683.3173652624066
 20
77.58037930481435
 30
0.0
 40
2.0
100
AcDbArc
 50
270.0
 51
358.9999999999974
  0
LINE
  5
F44
330
2
100
AcDbEntity
  8
0
100
AcDbLine
 10
685.9984174506937
 20
116.5803793048143
 30
0.0
 11
685.3170606527203
 21
77.54547449193973
 31
0.0
  0
LINE
  5
F45
330
2
100
AcDbEntity
  8
0
100
AcDbLine
 10
722.6108678876191
 20
81.49311727262825
 30
0.0
 11
721.9984174506955
 21
116.5803793048143
 31
0.0
  0
LINE
  5
F46
330
2
100
AcDbEntity
  8
0
100
AcDbLine
 10
731.9984174506937
 20
76.58037930481436
 30
0.0
 11
686.4796429225755
 21
76.58037930481436
 31
0.0
  0
ARC
  5
F47
330
2
100
AcDbEntity
  8
0
100
AcDbCircle
 10
727.6101063634016
 20
81.58037930481436
 30
0.0
 40
5.0
100
AcDbArc
 50
181.0000000000025
 51
270.0
  0
LINE
  5
F48
330
2
100
AcDbEntity
  8
0
100
AcDbLine
 10
676.9984174506937
 20
75.58037930481436
 30
0.0
 11
683.3173652624066
 21
75.58037930481436
 31
0.0
  0
ARC
  5
F49
330
2
100
AcDbEntity
  8
0
100
AcDbCircle
 10
683.3173652624066
 20
155.5803793048148
 30
0.0
 40
2.0
100
AcDbArc
 50
0.9999999998967215
 51
90.0
  0
LINE
  5
F4A
330
2
100
AcDbEntity
  8
0
100
AcDbLine
 10
731.9984174506937
 20
156.5803793048143
 30
0.0
 11
686.4796429225755
 21
156.5803793048143
 31
0.0
  0
ARC
  5
F4B
330
2
100
AcDbEntity
  8
0
100
AcDbCircle
 10
727.6101063634016
 20
151.5803793048143
 30
0.0
 40
5.0
100
AcDbArc
 50
90.0
 51
178.9999999999974
  0
LINE
  5
F4C
330
2
100
AcDbEntity
  8
0
100
AcDbLine
 10
676.9984174506955
 20
157.5803793048143
 30
0.0
 11
683.3173652624066
 21
157.5803793048148
 31
0.0
  0
LINE
  5
F4D
330
2
100
AcDbEntity
  8
0
100
AcDbLine
 10
731.9984174506937
 20
156.5803793048143
 30
0.0
 11
731.9984174506937
 21
76.58037930481436
 31
0.0
  0
ARC
  5
F4E
330
2
100
AcDbEntity
  8
0
100
AcDbCircle
 10
686.4796429225755
 20
160.0803793048143
 30
0.0
 40
3.5
100
AcDbArc
 50
234.9031987723859
 51
270.0
  0
ARC
  5
F4F
330
2
100
AcDbEntity
  8
0
100
AcDbCircle
 10
686.4796429225755
 20
73.08037930481436
 30
0.0
 40
3.5
100
AcDbArc
 50
90.0
 51
125.0968012276142
  0
ARC
  5
F50
330
2
100
AcDbEntity
  8
0
100
AcDbCircle
 10
966.5765290590567
 20
196.3611706167607
 30
0.0
 40
40.0
100
AcDbArc
 50
263.8230035951095
 51
263.9988421367181
  0
ARC
  5
F51
330
2
100
AcDbEntity
  8
0
100
AcDbCircle
 10
921.3844421786848
 20
36.79958799283435
 30
0.0
 40
40.0
100
AcDbArc
 50
83.82300359510955
 51
83.99884213682334
  0
LINE
  5
F52
330
2
100
AcDbEntity
  8
0
100
AcDbLine
 10
907.91988179779
 20
75.58037930479753
 30
0.0
 11
980.0410894399517
 21
75.58037930479753
 31
0.0
  0
ARC
  5
F53
330
2
100
AcDbEntity
  8
0
100
AcDbCircle
 10
966.5765290590567
 20
36.7995879928348
 30
0.0
 40
40.0
100
AcDbArc
 50
96.00115786317665
 51
96.17699640489044
  0
LINE
  5
F54
330
2
100
AcDbEntity
  8
CENTER
  6
CENS
100
AcDbLine
 10
670.3935994509231
 20
151.2303793048149
 30
0.0
 11
697.3935994509231
 21
151.2303793048149
 31
0.0
  0
LINE
  5
F55
330
2
100
AcDbEntity
  8
0
100
AcDbLine
 10
692.0808747755548
 20
146.2303793048149
 30
0.0
 11
692.0808747755548
 21
156.2303793048149
 31
0.0
  0
LINE
  5
F56
330
2
100
AcDbEntity
  8
0
100
AcDbLine
 10
692.4808747755544
 20
155.5375589817871
 30
0.0
 11
692.4808747755544
 21
146.9231996278421
 31
0.0
  0
LINE
  5
F57
330
2
100
AcDbEntity
  8
0
100
AcDbLine
 10
686.4808747755544
 20
146.2303793048149
 30
0.0
 11
686.4808747755544
 21
156.2303793048149
 31
0.0
  0
LINE
  5
F58
330
2
100
AcDbEntity
  8
0
100
AcDbLine
 10
686.4808747755544
 20
156.2303793048149
 30
0.0
 11
685.4808747755543
 21
156.2303793048149
 31
0.0
  0
LINE
  5
F59
330
2
100
AcDbEntity
  8
0
100
AcDbLine
 10
685.4808747755543
 20
156.2303793048149
 30
0.0
 11
685.4808747755543
 21
146.2303793048149
 31
0.0
  0
LINE
  5
F5A
330
2
100
AcDbEntity
  8
0
100
AcDbLine
 10
685.4808747755543
 20
146.2303793048149
 30
0.0
 11
686.4808747755544
 21
146.2303793048149
 31
0.0
  0
LINE
  5
F5B
330
2
100
AcDbEntity
  8
0
100
AcDbLine
 10
686.4808747755544
 20
146.2303793048149
 30
0.0
 11
686.4808747755544
 21
156.2303793048149
 31
0.0
  0
LINE
  5
F5C
330
2
100
AcDbEntity
  8
0
100
AcDbLine
 10
692.0808747755548
 20
146.2303793048149
 30
0.0
 11
686.4808747755544
 21
146.2303793048149
 31
0.0
  0
LINE
  5
F5D
330
2
100
AcDbEntity
  8
0
100
AcDbLine
 10
686.4808747755544
 20
156.2303793048149
 30
0.0
 11
692.0808747755548
 21
156.2303793048149
 31
0.0
  0
LINE
  5
F5E
330
2
100
AcDbEntity
  8
0
100
AcDbLine
 10
692.0808747755548
 20
156.2303793048149
 30
0.0
 11
692.4808747755544
 21
155.5375589817871
 31
0.0
  0
LINE
  5
F5F
330
2
100
AcDbEntity
  8
0
100
AcDbLine
 10
692.0808747755548
 20
146.2303793048144
 30
0.0
 11
692.4808747755544
 21
146.9231996278421
 31
0.0
  0
LINE
  5
F60
330
2
100
AcDbEntity
  8
CENTER
  6
CENS
100
AcDbLine
 10
670.3935994509231
 20
81.93037930481471
 30
0.0
 11
697.3935994509231
 21
81.93037930481471
 31
0.0
  0
LINE
  5
F61
330
2
100
AcDbEntity
  8
0
100
AcDbLine
 10
692.0808747755548
 20
86.93037930481471
 30
0.0
 11
692.0808747755548
 21
76.93037930481472
 31
0.0
  0
LINE
  5
F62
330
2
100
AcDbEntity
  8
0
100
AcDbLine
 10
692.4808747755544
 20
77.62319962784198
 30
0.0
 11
692.4808747755544
 21
86.23755898178655
 31
0.0
  0
LINE
  5
F63
330
2
100
AcDbEntity
  8
0
100
AcDbLine
 10
686.4808747755544
 20
86.93037930481471
 30
0.0
 11
686.4808747755544
 21
76.93037930481472
 31
0.0
  0
LINE
  5
F64
330
2
100
AcDbEntity
  8
0
100
AcDbLine
 10
686.4808747755544
 20
76.93037930481472
 30
0.0
 11
685.4808747755543
 21
76.93037930481472
 31
0.0
  0
LINE
  5
F65
330
2
100
AcDbEntity
  8
0
100
AcDbLine
 10
685.4808747755543
 20
76.93037930481472
 30
0.0
 11
685.4808747755543
 21
86.93037930481471
 31
0.0
  0
LINE
  5
F66
330
2
100
AcDbEntity
  8
0
100
AcDbLine
 10
685.4808747755543
 20
86.93037930481471
 30
0.0
 11
686.4808747755544
 21
86.93037930481471
 31
0.0
  0
LINE
  5
F67
330
2
100
AcDbEntity
  8
0
100
AcDbLine
 10
686.4808747755544
 20
86.93037930481471
 30
0.0
 11
686.4808747755544
 21
76.93037930481472
 31
0.0
  0
LINE
  5
F68
330
2
100
AcDbEntity
  8
0
100
AcDbLine
 10
692.0808747755548
 20
86.93037930481471
 30
0.0
 11
686.4808747755544
 21
86.93037930481471
 31
0.0
  0
LINE
  5
F69
330
2
100
AcDbEntity
  8
0
100
AcDbLine
 10
686.4808747755544
 20
76.93037930481472
 30
0.0
 11
692.0808747755548
 21
76.93037930481472
 31
0.0
  0
LINE
  5
F6A
330
2
100
AcDbEntity
  8
0
100
AcDbLine
 10
692.0808747755548
 20
76.93037930481472
 30
0.0
 11
692.4808747755544
 21
77.62319962784198
 31
0.0
  0
LINE
  5
F6B
330
2
100
AcDbEntity
  8
0
100
AcDbLine
 10
692.0808747755548
 20
86.93037930481471
 30
0.0
 11
692.4808747755544
 21
86.237558981787
 31
0.0
  0
LINE
  5
F6C
330
2
100
AcDbEntity
  8
CENTER
  6
CENS
100
AcDbLine
 10
670.3935994465484
 20
376.8276468309433
 30
0.0
 11
697.3935994465485
 21
376.8276468309433
 31
0.0
  0
LINE
  5
F6D
330
2
100
AcDbEntity
  8
0
100
AcDbLine
 10
692.08087477118
 20
381.8276468309433
 30
0.0
 11
692.08087477118
 21
371.8276468309433
 31
0.0
  0
LINE
  5
F6E
330
2
100
AcDbEntity
  8
0
100
AcDbLine
 10
692.4808747711797
 20
372.5204671539705
 30
0.0
 11
692.4808747711797
 21
381.1348265079156
 31
0.0
  0
LINE
  5
F6F
330
2
100
AcDbEntity
  8
0
100
AcDbLine
 10
686.4808747711797
 20
381.8276468309433
 30
0.0
 11
686.4808747711797
 21
371.8276468309433
 31
0.0
  0
LINE
  5
F70
330
2
100
AcDbEntity
  8
0
100
AcDbLine
 10
686.4808747711797
 20
371.8276468309433
 30
0.0
 11
685.4808747711797
 21
371.8276468309433
 31
0.0
  0
LINE
  5
F71
330
2
100
AcDbEntity
  8
0
100
AcDbLine
 10
685.4808747711797
 20
371.8276468309433
 30
0.0
 11
685.4808747711797
 21
381.8276468309433
 31
0.0
  0
LINE
  5
F72
330
2
100
AcDbEntity
  8
0
100
AcDbLine
 10
685.4808747711797
 20
381.8276468309433
 30
0.0
 11
686.4808747711797
 21
381.8276468309433
 31
0.0
  0
LINE
  5
F73
330
2
100
AcDbEntity
  8
0
100
AcDbLine
 10
686.4808747711797
 20
381.8276468309433
 30
0.0
 11
686.4808747711797
 21
371.8276468309433
 31
0.0
  0
LINE
  5
F74
330
2
100
AcDbEntity
  8
0
100
AcDbLine
 10
692.08087477118
 20
381.8276468309433
 30
0.0
 11
686.4808747711797
 21
381.8276468309433
 31
0.0
  0
LINE
  5
F75
330
2
100
AcDbEntity
  8
0
100
AcDbLine
 10
686.4808747711797
 20
371.8276468309433
 30
0.0
 11
692.08087477118
 21
371.8276468309433
 31
0.0
  0
LINE
  5
F76
330
2
100
AcDbEntity
  8
0
100
AcDbLine
 10
692.08087477118
 20
371.8276468309433
 30
0.0
 11
692.4808747711797
 21
372.5204671539705
 31
0.0
  0
LINE
  5
F77
330
2
100
AcDbEntity
  8
0
100
AcDbLine
 10
692.08087477118
 20
381.8276468309433
 30
0.0
 11
692.4808747711797
 21
381.134826507916
 31
0.0
  0
LINE
  5
F78
330
2
100
AcDbEntity
  8
CENTER
  6
CENS
100
AcDbLine
 10
670.3935994465484
 20
446.1276468309434
 30
0.0
 11
697.3935994465485
 21
446.1276468309434
 31
0.0
  0
LINE
  5
F79
330
2
100
AcDbEntity
  8
0
100
AcDbLine
 10
692.08087477118
 20
441.1276468309434
 30
0.0
 11
692.08087477118
 21
451.1276468309435
 31
0.0
  0
LINE
  5
F7A
330
2
100
AcDbEntity
  8
0
100
AcDbLine
 10
692.4808747711797
 20
450.4348265079162
 30
0.0
 11
692.4808747711797
 21
441.8204671539712
 31
0.0
  0
LINE
  5
F7B
330
2
100
AcDbEntity
  8
0
100
AcDbLine
 10
686.4808747711797
 20
441.1276468309434
 30
0.0
 11
686.4808747711797
 21
451.1276468309435
 31
0.0
  0
LINE
  5
F7C
330
2
100
AcDbEntity
  8
0
100
AcDbLine
 10
686.4808747711797
 20
451.1276468309435
 30
0.0
 11
685.4808747711797
 21
451.1276468309435
 31
0.0
  0
LINE
  5
F7D
330
2
100
AcDbEntity
  8
0
100
AcDbLine
 10
685.4808747711797
 20
451.1276468309435
 30
0.0
 11
685.4808747711797
 21
441.1276468309434
 31
0.0
  0
LINE
  5
F7E
330
2
100
AcDbEntity
  8
0
100
AcDbLine
 10
685.4808747711797
 20
441.1276468309434
 30
0.0
 11
686.4808747711797
 21
441.1276468309434
 31
0.0
  0
LINE
  5
F7F
330
2
100
AcDbEntity
  8
0
100
AcDbLine
 10
686.4808747711797
 20
441.1276468309434
 30
0.0
 11
686.4808747711797
 21
451.1276468309435
 31
0.0
  0
LINE
  5
F80
330
2
100
AcDbEntity
  8
0
100
AcDbLine
 10
692.08087477118
 20
441.1276468309434
 30
0.0
 11
686.4808747711797
 21
441.1276468309434
 31
0.0
  0
LINE
  5
F81
330
2
100
AcDbEntity
  8
0
100
AcDbLine
 10
686.4808747711797
 20
451.1276468309435
 30
0.0
 11
692.08087477118
 21
451.1276468309435
 31
0.0
  0
LINE
  5
F82
330
2
100
AcDbEntity
  8
0
100
AcDbLine
 10
692.08087477118
 20
451.1276468309435
 30
0.0
 11
692.4808747711797
 21
450.4348265079162
 31
0.0
  0
LINE
  5
F83
330
2
100
AcDbEntity
  8
0
100
AcDbLine
 10
692.08087477118
 20
441.1276468309434
 30
0.0
 11
692.4808747711797
 21
441.8204671539707
 31
0.0
  0
LINE
  5
F84
330
2
100
AcDbEntity
  8
0
100
AcDbLine
 10
731.9984174506937
 20
151.5803793048143
 30
0.0
 11
724.9984174506937
 21
151.5803793048143
 31
0.0
  0
LINE
  5
F85
330
2
100
AcDbEntity
  8
0
100
AcDbLine
 10
724.9984174506937
 20
151.5803793048143
 30
0.0
 11
724.9984174506937
 21
116.5803793048143
 31
0.0
  0
LINE
  5
F87
330
2
100
AcDbEntity
  8
0
100
AcDbLine
 10
724.9984174506937
 20
136.3303793048143
 30
0.0
 11
724.9984174506955
 21
116.5803793048143
 31
0.0
  0
SPLINE
  5
F88
330
2
100
AcDbEntity
  8
HOJO
100
AcDbSpline
210
0.0
220
0.0
230
1.0
 70
     8
 71
     3
 72
    20
 73
    16
 74
     0
 42
0.0000000001
 43
0.0000000001
 40
1.102548511336045
 40
1.102548511336045
 40
1.102548511336045
 40
1.102548511336045
 40
5.647385924430076
 40
9.759277458584113
 40
14.59638394258456
 40
18.6386056126129
 40
22.25598020257161
 40
26.57819511411361
 40
31.00332353479096
 40
40.39337194914635
 40
45.49899296170218
 40
52.02718752358933
 40
57.17041693382338
 40
65.63449353306062
 40
69.3611614947018
 40
69.3611614947018
 40
69.3611614947018
 40
69.3611614947018
 10
728.4091693730026
 20
156.5803793048143
 30
0.0
 10
727.0003818526094
 20
155.8519518551265
 30
0.0
 10
724.48769589085
 20
154.3212392329678
 30
0.0
 10
723.1667696447223
 20
149.7567165756135
 30
0.0
 10
722.0168603191743
 20
146.3651470810954
 30
0.0
 10
718.5291039071856
 20
142.6913818698512
 30
0.0
 10
716.8572687308226
 20
139.166021739872
 30
0.0
 10
714.8800221703679
 20
135.6153050423771
 30
0.0
 10
711.4922408578043
 20
130.0262604539229
 30
0.0
 10
703.9678818134891
 20
130.201836901514
 30
0.0
 10
697.2395424568405
 20
129.0554663680167
 30
0.0
 10
691.8962759114331
 20
128.3188512845435
 30
0.0
 10
684.8974953970467
 20
128.5888303241289
 30
0.0
 10
681.1827625978223
 20
121.5146886468573
 30
0.0
 10
679.8609211590266
 20
117.7447821536815
 30
0.0
 10
679.4482483859176
 20
116.5803793048143
 30
0.0
  0
LINE
  5
F89
330
2
100
AcDbEntity
  8
HIDS
100
AcDbLine
 10
933.9804856188708
 20
133.6116006350488
 30
0.0
 11
933.9804856188708
 21
121.5803793047975
 31
0.0
  0
LINE
  5
F8A
330
2
100
AcDbEntity
  8
CENTER
  6
CENS
100
AcDbLine
 10
928.9804856188707
 20
165.7040637275007
 30
0.0
 11
928.9804856188707
 21
100.7327141472682
 31
0.0
  0
LINE
  5
F8B
330
2
100
AcDbEntity
  8
0
100
AcDbLine
 10
924.2447312628806
 20
115.8303793047975
 30
0.0
 11
934.5101371564329
 21
115.8303793047975
 31
0.0
  0
LINE
  5
F8C
330
2
100
AcDbEntity
  8
0
100
AcDbLine
 10
924.2447312628806
 20
117.3303793047975
 30
0.0
 11
934.5101371564329
 21
117.3303793047975
 31
0.0
  0
LINE
  5
F8D
330
2
100
AcDbEntity
  8
0
100
AcDbLine
 10
961.1804856188697
 20
115.8303793047975
 30
0.0
 11
961.1804856188697
 21
117.3303793047975
 31
0.0
  0
LINE
  5
F8E
330
2
100
AcDbEntity
  8
0
100
AcDbLine
 10
953.4508340813086
 20
115.8303793047975
 30
0.0
 11
961.1804856188697
 21
115.8303793047975
 31
0.0
  0
LINE
  5
F8F
330
2
100
AcDbEntity
  8
0
100
AcDbLine
 10
953.4508340813086
 20
117.3303793047975
 30
0.0
 11
961.1804856188697
 21
117.3303793047975
 31
0.0
  0
LINE
  5
F90
330
2
100
AcDbEntity
  8
HIDS
100
AcDbLine
 10
931.4804856188708
 20
115.8303793047975
 30
0.0
 11
931.4804856188708
 21
101.2894506214246
 31
0.0
  0
LINE
  5
F91
330
2
100
AcDbEntity
  8
HIDS
100
AcDbLine
 10
931.0638189522048
 20
115.8303793047975
 30
0.0
 11
931.0638189522048
 21
101.6397560841209
 31
0.0
  0
LINE
  5
F92
330
2
100
AcDbEntity
  8
HIDS
100
AcDbLine
 10
926.8971522855368
 20
115.8303793047975
 30
0.0
 11
926.8971522855368
 21
106.6696668065855
 31
0.0
  0
LINE
  5
F93
330
2
100
AcDbEntity
  8
HIDS
100
AcDbLine
 10
926.4804856188709
 20
115.8303793047975
 30
0.0
 11
926.4804856188709
 21
107.4254625929974
 31
0.0
  0
LINE
  5
F94
330
2
100
AcDbEntity
  8
HIDS
100
AcDbLine
 10
931.9804856188708
 20
121.5803793047975
 30
0.0
 11
931.9804856188708
 21
117.3303793047975
 31
0.0
  0
LINE
  5
F95
330
2
100
AcDbEntity
  8
HIDS
100
AcDbLine
 10
925.9804856188708
 20
121.5803793047975
 30
0.0
 11
925.9804856188708
 21
117.3303793047975
 31
0.0
  0
LINE
  5
F96
330
2
100
AcDbEntity
  8
HIDS
100
AcDbLine
 10
924.8738768145864
 20
121.5803793047975
 30
0.0
 11
933.9804856188708
 21
121.5803793047975
 31
0.0
  0
LINE
  5
F97
330
2
100
AcDbEntity
  8
HIDS
100
AcDbLine
 10
933.2304856188708
 20
121.5803793047975
 30
0.0
 11
933.2304856188708
 21
126.2803793047978
 31
0.0
  0
LINE
  5
F98
330
2
100
AcDbEntity
  8
0
100
AcDbLine
 10
924.7304856188709
 20
126.2803793047978
 30
0.0
 11
924.7304856188709
 21
121.5803793047975
 31
0.0
  0
LINE
  5
F99
330
2
100
AcDbEntity
  8
HIDS
100
AcDbLine
 10
931.4804856188708
 20
107.5803793047975
 30
0.0
 11
930.4804856188708
 21
106.5803793047975
 31
0.0
  0
LINE
  5
F9A
330
2
100
AcDbEntity
  8
HIDS
100
AcDbLine
 10
926.4804856188709
 20
107.5803793047975
 30
0.0
 11
927.4804856188708
 21
106.5803793047975
 31
0.0
  0
LINE
  5
F9B
330
2
100
AcDbEntity
  8
HIDS
100
AcDbLine
 10
930.4804856188708
 20
106.5803793047975
 30
0.0
 11
928.9804856188707
 21
106.5803793047975
 31
0.0
  0
LINE
  5
F9C
330
2
100
AcDbEntity
  8
HIDS
100
AcDbLine
 10
927.4804856188708
 20
106.5803793047975
 30
0.0
 11
928.9804856188707
 21
106.5803793047975
 31
0.0
  0
LINE
  5
F9D
330
2
100
AcDbEntity
  8
HIDS
100
AcDbLine
 10
931.4804856188708
 20
121.5803793047975
 30
0.0
 11
931.4804856188708
 21
117.3303793047975
 31
0.0
  0
LINE
  5
F9E
330
2
100
AcDbEntity
  8
HIDS
100
AcDbLine
 10
931.0638189522048
 20
119.4970459714645
 30
0.0
 11
931.0638189522048
 21
117.3303793047975
 31
0.0
  0
LINE
  5
F9F
330
2
100
AcDbEntity
  8
HIDS
100
AcDbLine
 10
926.8971522855368
 20
119.4970459714645
 30
0.0
 11
926.8971522855368
 21
117.3303793047975
 31
0.0
  0
LINE
  5
FA0
330
2
100
AcDbEntity
  8
HIDS
100
AcDbLine
 10
926.4804856188709
 20
121.5803793047975
 30
0.0
 11
926.4804856188709
 21
117.3303793047975
 31
0.0
  0
LINE
  5
FA1
330
2
100
AcDbEntity
  8
HIDS
100
AcDbLine
 10
931.4804856188708
 20
107.5803793047975
 30
0.0
 11
928.9804856188707
 21
107.5803793047975
 31
0.0
  0
LINE
  5
FA2
330
2
100
AcDbEntity
  8
HIDS
100
AcDbLine
 10
926.4804856188709
 20
107.5803793047975
 30
0.0
 11
928.9804856188707
 21
107.5803793047975
 31
0.0
  0
LINE
  5
FA3
330
2
100
AcDbEntity
  8
HIDS
100
AcDbLine
 10
931.4804856188708
 20
119.4970459714645
 30
0.0
 11
926.4804856188709
 21
119.4970459714645
 31
0.0
  0
LINE
  5
FA4
330
2
100
AcDbEntity
  8
0
100
AcDbLine
 10
924.7304856188709
 20
121.5803793047975
 30
0.0
 11
924.8738768145864
 21
121.5803793047975
 31
0.0
  0
LINE
  5
FA5
330
2
100
AcDbEntity
  8
HIDS
100
AcDbLine
 10
926.4804856188709
 20
121.5803793047975
 30
0.0
 11
926.8971522855368
 21
119.4970459714645
 31
0.0
  0
LINE
  5
FA6
330
2
100
AcDbEntity
  8
HIDS
100
AcDbLine
 10
931.4804856188708
 20
121.5803793047975
 30
0.0
 11
931.0638189522048
 21
119.4970459714645
 31
0.0
  0
LINE
  5
FA7
330
2
100
AcDbEntity
  8
0
100
AcDbLine
 10
924.7304856188709
 20
126.2803793047978
 30
0.0
 11
926.7766343058662
 21
126.2803793047973
 31
0.0
  0
LINE
  5
FA8
330
2
100
AcDbEntity
  8
HIDS
100
AcDbLine
 10
932.7108703766004
 20
126.5803793047975
 30
0.0
 11
926.9492642886195
 21
126.5803793047975
 31
0.0
  0
LINE
  5
FA9
330
2
100
AcDbEntity
  8
0
100
AcDbLine
 10
924.7304856188709
 20
126.2803793047978
 30
0.0
 11
925.2501008611412
 21
126.5803793047975
 31
0.0
  0
LINE
  5
FAA
330
2
100
AcDbEntity
  8
HIDS
100
AcDbLine
 10
932.7108703766004
 20
126.5803793047975
 30
0.0
 11
933.2304856188708
 21
126.2803793047978
 31
0.0
  0
LINE
  5
FAB
330
2
100
AcDbEntity
  8
HIDS
100
AcDbLine
 10
924.8738768145864
 20
121.5803793047975
 30
0.0
 11
933.2304856188708
 21
121.5803793047975
 31
0.0
  0
LINE
  5
FAC
330
2
100
AcDbEntity
  8
0
100
AcDbLine
 10
926.9492642886195
 20
126.5803793047975
 30
0.0
 11
925.2501008611412
 21
126.5803793047975
 31
0.0
  0
LINE
  5
FAD
330
2
100
AcDbEntity
  8
HIDS
100
AcDbLine
 10
926.7766343058662
 20
126.2803793047978
 30
0.0
 11
933.2304856188708
 21
126.2803793047978
 31
0.0
  0
LINE
  5
FAE
330
2
100
AcDbEntity
  8
0
100
AcDbLine
 10
931.4804856188708
 20
117.3303793047975
 30
0.0
 11
931.4804856188708
 21
115.8303793047975
 31
0.0
  0
LINE
  5
FAF
330
2
100
AcDbEntity
  8
HOJO
100
AcDbLine
 10
931.0638189522048
 20
117.3303793047975
 30
0.0
 11
931.0638189522048
 21
115.8303793047975
 31
0.0
  0
LINE
  5
FB0
330
2
100
AcDbEntity
  8
HOJO
100
AcDbLine
 10
926.8971522855368
 20
117.3303793047975
 30
0.0
 11
926.8971522855368
 21
115.8303793047975
 31
0.0
  0
LINE
  5
FB1
330
2
100
AcDbEntity
  8
0
100
AcDbLine
 10
926.4804856188709
 20
117.3303793047975
 30
0.0
 11
926.4804856188709
 21
115.8303793047975
 31
0.0
  0
LINE
  5
FB2
330
2
100
AcDbEntity
  8
HIDS
100
AcDbLine
 10
926.4804856188709
 20
115.8303793047975
 30
0.0
 11
926.4804856188709
 21
107.5803793047975
 31
0.0
  0
LINE
  5
FB3
330
2
100
AcDbEntity
  8
HIDS
100
AcDbLine
 10
931.0638189522048
 20
115.8303793047975
 30
0.0
 11
931.0638189522048
 21
107.163712638131
 31
0.0
  0
LINE
  5
FB4
330
2
100
AcDbEntity
  8
HIDS
100
AcDbLine
 10
931.4804856188708
 20
115.8303793047975
 30
0.0
 11
931.4804856188708
 21
107.5803793047975
 31
0.0
  0
LINE
  5
FB5
330
2
100
AcDbEntity
  8
HIDS
100
AcDbLine
 10
926.8971522855368
 20
115.8303793047975
 30
0.0
 11
926.8971522855368
 21
107.163712638131
 31
0.0
  0
CIRCLE
  5
FB6
330
2
100
AcDbEntity
  8
0
100
AcDbCircle
 10
943.9804856188708
 20
116.5803793047975
 30
0.0
 40
19.75
  0
LINE
  5
FB7
330
2
100
AcDbEntity
  8
0
100
AcDbLine
 10
923.9804856188708
 20
160.5803793047975
 30
0.0
 11
933.9804856188708
 21
160.5803793047975
 31
0.0
  0
ARC
  5
FB8
330
2
100
AcDbEntity
  8
0
100
AcDbCircle
 10
933.9804856188708
 20
156.5803793047975
 30
0.0
 40
4.0
100
AcDbArc
 50
0.0
 51
90.0
  0
ARC
  5
FB9
330
2
100
AcDbEntity
  8
0
100
AcDbCircle
 10
923.9804856188708
 20
156.5803793047975
 30
0.0
 40
4.0
100
AcDbArc
 50
90.0
 51
180.0
  0
LINE
  5
FBA
330
2
100
AcDbEntity
  8
0
100
AcDbLine
 10
722.9984174506573
 20
160.5803793048143
 30
0.0
 11
712.9984174506573
 21
160.5803793048143
 31
0.0
  0
ARC
  5
FBB
330
2
100
AcDbEntity
  8
0
100
AcDbCircle
 10
712.9984174506573
 20
156.5803793048143
 30
0.0
 40
4.0
100
AcDbArc
 50
90.0
 51
180.0
  0
ARC
  5
FBC
330
2
100
AcDbEntity
  8
0
100
AcDbCircle
 10
722.9984174506573
 20
156.5803793048143
 30
0.0
 40
4.0
100
AcDbArc
 50
0.0
 51
90.0
  0
LINE
  5
FBD
330
2
100
AcDbEntity
  8
CENTER
  6
CENS
100
AcDbLine
 10
717.9984174506573
 20
165.7040637275171
 30
0.0
 11
717.9984174506573
 21
142.3441377251528
 31
0.0
  0
CIRCLE
  5
FBE
330
2
100
AcDbEntity
  8
0
100
AcDbCircle
 10
717.9984174463209
 20
396.4776468309434
 30
0.0
 40
9.0
  0
LINE
  5
FBF
330
2
100
AcDbEntity
  8
CENTER
  6
CENS
100
AcDbLine
 10
717.9984174463209
 20
382.5430796432539
 30
0.0
 11
717.9984174463209
 21
410.4122140186319
 31
0.0
  0
LINE
  5
FC0
330
2
100
AcDbEntity
  8
CENTER
  6
CENS
100
AcDbLine
 10
731.9329846340099
 20
396.4776468309429
 30
0.0
 11
704.0638502586318
 21
396.4776468309429
 31
0.0
  0
CIRCLE
  5
FC1
330
2
100
AcDbEntity
  8
CENTER
100
AcDbCircle
 10
943.9804856188708
 20
116.5803793047975
 30
0.0
 40
45.0002755547118
  0
LINE
  5
FC2
330
2
100
AcDbEntity
  8
0
100
AcDbLine
 10
903.9804856187634
 20
116.5803793047975
 30
0.0
 11
902.4804856188799
 21
116.5803793047975
 31
0.0
  0
LINE
  5
FC3
330
2
100
AcDbEntity
  8
0
100
AcDbLine
 10
983.9804856188708
 20
116.580379304612
 30
0.0
 11
985.4804856188618
 21
116.5803793047666
 31
0.0
  0
LINE
  5
FC4
330
2
100
AcDbEntity
  8
0
100
AcDbLine
 10
73.86246554561683
 20
116.5803793048089
 30
0.0
 11
74.54382234351749
 21
155.6152841176798
 31
0.0
  0
LINE
  5
FC5
330
2
100
AcDbEntity
  8
0
100
AcDbLine
 10
37.25001510861682
 20
151.667641336995
 30
0.0
 11
37.86246554555407
 21
116.5803793048089
 31
0.0
  0
ARC
  5
FC6
330
2
100
AcDbEntity
  8
0
100
AcDbCircle
 10
76.54351773382939
 20
77.5803793048089
 30
0.0
 40
2.0
100
AcDbArc
 50
181.0000000000025
 51
270.0
  0
LINE
  5
FC8
330
2
100
AcDbEntity
  8
0
100
AcDbLine
 10
73.86246554554225
 20
116.5803793048089
 30
0.0
 11
74.54382234351567
 21
77.54547449193427
 31
0.0
  0
LINE
  5
FC9
330
2
100
AcDbEntity
  8
0
100
AcDbLine
 10
37.25001510861682
 20
81.49311727262277
 30
0.0
 11
37.86246554554043
 21
116.5803793048089
 31
0.0
  0
LINE
  5
FCA
330
2
100
AcDbEntity
  8
0
100
AcDbLine
 10
27.86246554554224
 20
76.5803793048089
 30
0.0
 11
73.38124007366047
 21
76.5803793048089
 31
0.0
  0
ARC
  5
FCB
330
2
100
AcDbEntity
  8
0
100
AcDbCircle
 10
54.96590787886987
 20
82.48040600884991
 30
0.0
 40
3.0
100
AcDbArc
 50
90.0
 51
178.9999999999974
  0
LINE
  5
FCC
330
2
100
AcDbEntity
  8
0
100
AcDbLine
 10
54.96590787886987
 20
85.48040600884991
 30
0.0
 11
42.31961349239452
 21
85.48040600884991
 31
0.0
  0
ARC
  5
FCD
330
2
100
AcDbEntity
  8
0
100
AcDbCircle
 10
32.25077663283434
 20
81.5803793048089
 30
0.0
 40
5.0
100
AcDbArc
 50
270.0
 51
358.9999999999974
  0
ARC
  5
FCE
330
2
100
AcDbEntity
  8
0
100
AcDbCircle
 10
49.89707101930969
 20
78.5803793048089
 30
0.0
 40
2.0
100
AcDbArc
 50
270.0
 51
358.9999999999974
  0
LINE
  5
FCF
330
2
100
AcDbEntity
  8
0
100
AcDbLine
 10
51.96547050679862
 20
82.48152958302119
 30
0.0
 11
51.89676640962341
 21
78.54547449193427
 31
0.0
  0
LINE
  5
FD0
330
2
100
AcDbEntity
  8
0
100
AcDbLine
 10
82.86246554554224
 20
75.5803793048089
 30
0.0
 11
76.54351773382939
 21
75.5803793048089
 31
0.0
  0
ARC
  5
FD1
330
2
100
AcDbEntity
  8
0
100
AcDbCircle
 10
76.54351773382939
 20
155.5803793048093
 30
0.0
 40
2.0
100
AcDbArc
 50
90.0
 51
179.0000000001163
  0
LINE
  5
FD2
330
2
100
AcDbEntity
  8
0
100
AcDbLine
 10
27.86246554554224
 20
156.5803793048089
 30
0.0
 11
73.38124007366047
 21
156.5803793048089
 31
0.0
  0
ARC
  5
FD3
330
2
100
AcDbEntity
  8
0
100
AcDbCircle
 10
32.25077663283434
 20
151.5803793048088
 30
0.0
 40
5.0
100
AcDbArc
 50
1.000000000002589
 51
90.0
  0
LINE
  5
FD4
330
2
100
AcDbEntity
  8
0
100
AcDbLine
 10
82.86246554554043
 20
157.5803793048089
 30
0.0
 11
76.54351773382939
 21
157.5803793048093
 31
0.0
  0
LINE
  5
FD5
330
2
100
AcDbEntity
  8
0
100
AcDbLine
 10
27.86246554554224
 20
156.5803793048089
 30
0.0
 11
27.86246554554224
 21
76.5803793048089
 31
0.0
  0
ARC
  5
FD6
330
2
100
AcDbEntity
  8
0
100
AcDbCircle
 10
73.38124007366047
 20
160.0803793048088
 30
0.0
 40
3.5
100
AcDbArc
 50
270.0
 51
305.0968012276141
  0
ARC
  5
FD7
330
2
100
AcDbEntity
  8
0
100
AcDbCircle
 10
73.38124007366047
 20
73.0803793048089
 30
0.0
 40
3.5
100
AcDbArc
 50
54.9031987723857
 51
90.0
  0
LINE
  5
FD8
330
2
100
AcDbEntity
  8
CENTER
  6
CENS
100
AcDbLine
 10
89.46728354531286
 20
151.2303793048094
 30
0.0
 11
62.46728354531285
 21
151.2303793048094
 31
0.0
  0
LINE
  5
FD9
330
2
100
AcDbEntity
  8
0
100
AcDbLine
 10
67.78000822068122
 20
146.2303793048094
 30
0.0
 11
67.78000822068122
 21
156.2303793048094
 31
0.0
  0
LINE
  5
FDA
330
2
100
AcDbEntity
  8
0
100
AcDbLine
 10
67.38000822068158
 20
155.5375589817817
 30
0.0
 11
67.38000822068158
 21
146.9231996278367
 31
0.0
  0
LINE
  5
FDB
330
2
100
AcDbEntity
  8
0
100
AcDbLine
 10
73.38000822068159
 20
146.2303793048094
 30
0.0
 11
73.38000822068159
 21
156.2303793048094
 31
0.0
  0
LINE
  5
FDC
330
2
100
AcDbEntity
  8
0
100
AcDbLine
 10
73.38000822068159
 20
156.2303793048094
 30
0.0
 11
74.38000822068159
 21
156.2303793048094
 31
0.0
  0
LINE
  5
FDD
330
2
100
AcDbEntity
  8
0
100
AcDbLine
 10
74.38000822068159
 20
156.2303793048094
 30
0.0
 11
74.38000822068159
 21
146.2303793048094
 31
0.0
  0
LINE
  5
FDE
330
2
100
AcDbEntity
  8
0
100
AcDbLine
 10
74.38000822068159
 20
146.2303793048094
 30
0.0
 11
73.38000822068159
 21
146.2303793048094
 31
0.0
  0
LINE
  5
FDF
330
2
100
AcDbEntity
  8
0
100
AcDbLine
 10
73.38000822068159
 20
146.2303793048094
 30
0.0
 11
73.38000822068159
 21
156.2303793048094
 31
0.0
  0
LINE
  5
FE0
330
2
100
AcDbEntity
  8
0
100
AcDbLine
 10
67.78000822068122
 20
146.2303793048094
 30
0.0
 11
73.38000822068159
 21
146.2303793048094
 31
0.0
  0
LINE
  5
FE1
330
2
100
AcDbEntity
  8
0
100
AcDbLine
 10
73.38000822068159
 20
156.2303793048094
 30
0.0
 11
67.78000822068122
 21
156.2303793048094
 31
0.0
  0
LINE
  5
FE2
330
2
100
AcDbEntity
  8
0
100
AcDbLine
 10
67.78000822068122
 20
156.2303793048094
 30
0.0
 11
67.38000822068158
 21
155.5375589817817
 31
0.0
  0
LINE
  5
FE3
330
2
100
AcDbEntity
  8
0
100
AcDbLine
 10
67.78000822068122
 20
146.2303793048089
 30
0.0
 11
67.38000822068158
 21
146.9231996278367
 31
0.0
  0
LINE
  5
FE4
330
2
100
AcDbEntity
  8
CENTER
  6
CENS
100
AcDbLine
 10
89.46728354531286
 20
81.93037930480926
 30
0.0
 11
62.46728354531285
 21
81.93037930480926
 31
0.0
  0
LINE
  5
FE5
330
2
100
AcDbEntity
  8
0
100
AcDbLine
 10
67.78000822068122
 20
86.93037930480926
 30
0.0
 11
67.78000822068122
 21
76.93037930480926
 31
0.0
  0
LINE
  5
FE6
330
2
100
AcDbEntity
  8
0
100
AcDbLine
 10
67.38000822068158
 20
77.62319962783653
 30
0.0
 11
67.38000822068158
 21
86.23755898178108
 31
0.0
  0
LINE
  5
FE7
330
2
100
AcDbEntity
  8
0
100
AcDbLine
 10
73.38000822068159
 20
86.93037930480926
 30
0.0
 11
73.38000822068159
 21
76.93037930480926
 31
0.0
  0
LINE
  5
FE8
330
2
100
AcDbEntity
  8
0
100
AcDbLine
 10
73.38000822068159
 20
76.93037930480926
 30
0.0
 11
74.38000822068159
 21
76.93037930480926
 31
0.0
  0
LINE
  5
FE9
330
2
100
AcDbEntity
  8
0
100
AcDbLine
 10
74.38000822068159
 20
76.93037930480926
 30
0.0
 11
74.38000822068159
 21
86.93037930480926
 31
0.0
  0
LINE
  5
FEA
330
2
100
AcDbEntity
  8
0
100
AcDbLine
 10
74.38000822068159
 20
86.93037930480926
 30
0.0
 11
73.38000822068159
 21
86.93037930480926
 31
0.0
  0
LINE
  5
FEB
330
2
100
AcDbEntity
  8
0
100
AcDbLine
 10
73.38000822068159
 20
86.93037930480926
 30
0.0
 11
73.38000822068159
 21
76.93037930480926
 31
0.0
  0
LINE
  5
FEC
330
2
100
AcDbEntity
  8
0
100
AcDbLine
 10
67.78000822068122
 20
86.93037930480926
 30
0.0
 11
73.38000822068159
 21
86.93037930480926
 31
0.0
  0
LINE
  5
FED
330
2
100
AcDbEntity
  8
0
100
AcDbLine
 10
73.38000822068159
 20
76.93037930480926
 30
0.0
 11
67.78000822068122
 21
76.93037930480926
 31
0.0
  0
LINE
  5
FEE
330
2
100
AcDbEntity
  8
0
100
AcDbLine
 10
67.78000822068122
 20
76.93037930480926
 30
0.0
 11
67.38000822068158
 21
77.62319962783653
 31
0.0
  0
LINE
  5
FEF
330
2
100
AcDbEntity
  8
0
100
AcDbLine
 10
67.78000822068122
 20
86.93037930480926
 30
0.0
 11
67.38000822068158
 21
86.23755898178155
 31
0.0
  0
LINE
  5
FF0
330
2
100
AcDbEntity
  8
0
100
AcDbLine
 10
36.86246554557863
 20
160.5803793048089
 30
0.0
 11
46.86246554557863
 21
160.5803793048089
 31
0.0
  0
ARC
  5
FF1
330
2
100
AcDbEntity
  8
0
100
AcDbCircle
 10
46.86246554557863
 20
156.5803793048089
 30
0.0
 40
4.0
100
AcDbArc
 50
0.0
 51
90.0
  0
ARC
  5
FF2
330
2
100
AcDbEntity
  8
0
100
AcDbCircle
 10
36.86246554557863
 20
156.5803793048089
 30
0.0
 40
4.0
100
AcDbArc
 50
90.0
 51
180.0
  0
LINE
  5
FF3
330
2
100
AcDbEntity
  8
CENTER
  6
CENS
100
AcDbLine
 10
41.86246554557863
 20
165.7040637275117
 30
0.0
 11
41.86246554557863
 21
142.3441377251474
 31
0.0
  0
ARC
  5
FF4
330
2
100
AcDbEntity
  8
0
100
AcDbCircle
 10
704.8949751173661
 20
150.6803526007742
 30
0.0
 40
3.0
100
AcDbArc
 50
270.0
 51
358.9999999999974
  0
LINE
  5
FF5
330
2
100
AcDbEntity
  8
0
100
AcDbLine
 10
704.8949751173661
 20
147.6803526007742
 30
0.0
 11
717.5412695038414
 21
147.6803526007733
 31
0.0
  0
ARC
  5
FF6
330
2
100
AcDbEntity
  8
0
100
AcDbCircle
 10
709.9638119769263
 20
154.5803793048148
 30
0.0
 40
2.0
100
AcDbArc
 50
90.0
 51
178.9999999999974
  0
LINE
  5
FF7
330
2
100
AcDbEntity
  8
0
100
AcDbLine
 10
707.8954124894373
 20
150.679229026602
 30
0.0
 11
707.9641165866125
 21
154.6152841176894
 31
0.0
  0
LINE
  5
FF8
330
2
100
AcDbEntity
  8
0
100
AcDbLine
 10
724.9984174506937
 20
151.5803793048143
 30
0.0
 11
724.9984174506937
 21
116.5803793048143
 31
0.0
  0
LINE
  5
FF9
330
2
100
AcDbEntity
  8
0
100
AcDbLine
 10
724.9984174506937
 20
136.3303793048143
 30
0.0
 11
724.9984174506955
 21
116.5803793048143
 31
0.0
  0
LINE
  5
FFA
330
2
100
AcDbEntity
  8
0
100
AcDbLine
 10
724.9984174506937
 20
136.3303793048143
 30
0.0
 11
715.2606128801765
 21
136.3303793048143
 31
0.0
  0
LINE
  5
FFB
330
2
100
AcDbEntity
  8
0
100
AcDbLine
 10
722.9984174506937
 20
126.0803793048143
 30
0.0
 11
711.9984174506937
 21
126.0803793048143
 31
0.0
  0
LINE
  5
FFC
330
2
100
AcDbEntity
  8
0
100
AcDbLine
 10
693.4984174506937
 20
126.3303793048143
 30
0.0
 11
693.4984174506937
 21
116.5803793048143
 31
0.0
  0
LINE
  5
FFD
330
2
100
AcDbEntity
  8
0
100
AcDbLine
 10
693.4984174506937
 20
126.3303793048143
 30
0.0
 11
687.4984174506937
 21
126.3303793048143
 31
0.0
  0
LINE
  5
FFE
330
2
100
AcDbEntity
  8
0
100
AcDbLine
 10
687.4984174506937
 20
126.3303793048143
 30
0.0
 11
687.4984174506937
 21
116.5803793048143
 31
0.0
  0
LINE
  5
FFF
330
2
100
AcDbEntity
  8
0
100
AcDbLine
 10
709.9984174506937
 20
130.8557895255098
 30
0.0
 11
709.9984174506937
 21
116.5803793048143
 31
0.0
  0
LINE
  5
1000
330
2
100
AcDbEntity
  8
0
100
AcDbLine
 10
711.9984174506937
 20
131.9095228658915
 30
0.0
 11
711.9984174506937
 21
116.5803793048143
 31
0.0
  0
LINE
  5
1001
330
2
100
AcDbEntity
  8
0
100
AcDbLine
 10
709.9984174506937
 20
126.0803793048143
 30
0.0
 11
693.4984174506937
 21
126.0803793048143
 31
0.0
  0
LINE
  5
1002
330
2
100
AcDbEntity
  8
0
100
AcDbLine
 10
724.9984174506937
 20
127.2350798431938
 30
0.0
 11
722.9984174506937
 21
126.0803793048143
 31
0.0
  0
LINE
  5
1003
330
2
100
AcDbEntity
  8
0
100
AcDbLine
 10
722.9984174506937
 20
126.0803793048143
 30
0.0
 11
722.9984174506937
 21
116.5803793048143
 31
0.0
  0
LINE
  5
1004
330
2
100
AcDbEntity
  8
0
100
AcDbLine
 10
687.4984174506937
 20
125.5803793048143
 30
0.0
 11
682.3022650279874
 21
116.5803793048143
 31
0.0
  0
CIRCLE
  5
1005
330
2
100
AcDbEntity
  8
0
100
AcDbCircle
 10
943.9804856188708
 20
116.5803793047975
 30
0.0
 40
9.5
  0
ARC
  5
1006
330
2
100
AcDbEntity
  8
0
100
AcDbCircle
 10
943.9804856188708
 20
116.5803793047975
 30
0.0
 40
10.6547005383793
100
AcDbArc
 50
4.036472082737907
 51
175.9635279172621
  0
ARC
  5
1007
330
2
100
AcDbEntity
  8
0
100
AcDbCircle
 10
943.9804856188708
 20
116.5803793047975
 30
0.0
 40
10.6547005383793
100
AcDbArc
 50
184.0364720827509
 51
355.963527917249
  0
CIRCLE
  5
1008
330
2
100
AcDbEntity
  8
0
100
AcDbCircle
 10
975.8004856188705
 20
148.4003793047972
 30
0.0
 40
2.0
  0
CIRCLE
  5
1009
330
2
100
AcDbEntity
  8
HOJO
100
AcDbCircle
 10
975.8004856188705
 20
148.4003793047972
 30
0.0
 40
2.5
  0
CIRCLE
  5
100A
330
2
100
AcDbEntity
  8
0
100
AcDbCircle
 10
912.160485618871
 20
148.4003793047972
 30
0.0
 40
2.0
  0
CIRCLE
  5
100B
330
2
100
AcDbEntity
  8
HOJO
100
AcDbCircle
 10
912.160485618871
 20
148.4003793047972
 30
0.0
 40
2.5
  0
CIRCLE
  5
100C
330
2
100
AcDbEntity
  8
0
100
AcDbCircle
 10
975.8004856188705
 20
84.76037930479781
 30
0.0
 40
2.0
  0
CIRCLE
  5
100D
330
2
100
AcDbEntity
  8
HOJO
100
AcDbCircle
 10
975.8004856188705
 20
84.76037930479781
 30
0.0
 40
2.5
  0
CIRCLE
  5
100E
330
2
100
AcDbEntity
  8
0
100
AcDbCircle
 10
912.160485618871
 20
84.76037930479781
 30
0.0
 40
2.0
  0
CIRCLE
  5
100F
330
2
100
AcDbEntity
  8
HOJO
100
AcDbCircle
 10
912.160485618871
 20
84.76037930479781
 30
0.0
 40
2.5
  0
CIRCLE
  5
1010
330
2
100
AcDbEntity
  8
0
100
AcDbCircle
 10
943.9804856188708
 20
116.5803793047975
 30
0.0
 40
29.0
  0
LINE
  5
1011
330
2
100
AcDbEntity
  8
0
100
AcDbLine
 10
724.9984174506937
 20
145.5803793048143
 30
0.0
 11
721.0887641019164
 21
145.5803793048143
 31
0.0
  0
TEXT
  5
1012
330
2
100
AcDbEntity
  8
TITLE
100
AcDbText
 10
303.9105695109275
 20
395.88311070784
 30
0.0
 40
7.5
  1
AFCZ18L-3~5M750S3
100
AcDbText
  0
TEXT
  5
1013
330
2
100
AcDbEntity
  8
TITLE
100
AcDbText
 10
303.9105695109275
 20
384.38311070784
 30
0.0
 40
7.5
  1
AFCZ18L-3~5L750S3
100
AcDbText
  0
LINE
  5
1015
330
2
100
AcDbEntity
  8
CENTER
100
AcDbLine
 10
998.9807611735827
 20
116.5803793047977
 30
0.0
 11
840.9804856188621
 21
116.5803793047977
 31
0.0
  0
LINE
  5
1016
330
2
100
AcDbEntity
  8
CENTER
100
AcDbLine
 10
943.9804856188708
 20
168.0803793048127
 30
0.0
 11
943.9804856188708
 21
65.08037930481368
 31
0.0
  0
LINE
  5
1018
330
2
100
AcDbEntity
  8
0
100
AcDbLine
 10
900.9804856188672
 20
156.9956791628316
 30
0.0
 11
900.9804856188653
 21
76.16507944676704
 31
0.0
  0
LINE
  5
1019
330
2
100
AcDbEntity
  8
0
100
AcDbLine
 10
895.980485618868
 20
151.5803793047927
 30
0.0
 11
895.980485618868
 21
81.58037930479276
 31
0.0
  0
LINE
  5
101A
330
2
100
AcDbEntity
  8
0
100
AcDbLine
 10
894.0502846122733
 20
144.9669452037607
 30
0.0
 11
884.9106866254638
 21
144.6477834092167
 31
0.0
  0
ARC
  5
101B
330
2
100
AcDbEntity
  8
0
100
AcDbCircle
 10
893.9804856188681
 20
146.9657268577986
 30
0.0
 40
2.0
100
AcDbArc
 50
272.0000000000036
 51
0.0
  0
LINE
  5
101C
330
2
100
AcDbEntity
  8
0
100
AcDbLine
 10
882.9804856188699
 20
142.6490017551779
 30
0.0
 11
882.9804856188681
 21
90.51175685440757
 31
0.0
  0
ARC
  5
101D
330
2
100
AcDbEntity
  8
0
100
AcDbCircle
 10
884.9804856188681
 20
142.6490017551779
 30
0.0
 40
2.0
100
AcDbArc
 50
92.00000000000365
 51
180.0
  0
ARC
  5
101E
330
2
100
AcDbEntity
  8
0
100
AcDbCircle
 10
884.9804856188681
 20
90.51175685440757
 30
0.0
 40
2.0
100
AcDbArc
 50
180.0
 51
267.9999999999963
  0
LINE
  5
101F
330
2
100
AcDbEntity
  8
0
100
AcDbLine
 10
894.0502846122733
 20
88.19381340582385
 30
0.0
 11
884.9106866254629
 21
88.51297520036878
 31
0.0
  0
ARC
  5
1020
330
2
100
AcDbEntity
  8
0
100
AcDbCircle
 10
893.9804856188681
 20
86.19503175178506
 30
0.0
 40
2.0
100
AcDbArc
 50
0.0
 51
87.99999999999636
  0
LINE
  5
1021
330
2
100
AcDbEntity
  8
0
100
AcDbLine
 10
980.0414566949545
 20
75.52014724476629
 30
0.0
 11
943.9804856188699
 21
75.08037930481368
 31
0.0
  0
LINE
  5
1022
330
2
100
AcDbEntity
  8
0
100
AcDbLine
 10
907.9195145427844
 20
75.52014724476811
 30
0.0
 11
943.980485618869
 21
75.08037930481368
 31
0.0
  0
LINE
  5
1023
330
2
100
AcDbEntity
  8
0
100
AcDbLine
 10
907.9195145427844
 20
157.6406113648592
 30
0.0
 11
920.1677614480429
 21
157.789980229558
 31
0.0
  0
ARC
  5
1024
330
2
100
AcDbEntity
  8
0
100
AcDbCircle
 10
979.9804856188698
 20
152.6409831258935
 30
0.0
 40
5.0
100
AcDbArc
 50
44.50893050053468
 51
89.30130561700025
  0
ARC
  5
1025
330
2
100
AcDbEntity
  8
0
100
AcDbCircle
 10
907.9804856188699
 20
152.6409831258917
 30
0.0
 40
5.0
100
AcDbArc
 50
90.69869438299972
 51
135.4910694994552
  0
ARC
  5
1026
330
2
100
AcDbEntity
  8
0
100
AcDbCircle
 10
907.9804856188699
 20
80.5197754837356
 30
0.0
 40
5.0
100
AcDbArc
 50
224.5089305157074
 51
269.3013056170002
  0
ARC
  5
1027
330
2
100
AcDbEntity
  8
0
100
AcDbCircle
 10
979.9804856188698
 20
80.51977548373377
 30
0.0
 40
5.0
100
AcDbArc
 50
270.6986943829997
 51
315.4910694840806
  0
LINE
  5
1028
330
2
100
AcDbEntity
  8
0
100
AcDbLine
 10
980.0414566949545
 20
157.640611364861
 30
0.0
 11
943.9804856188699
 21
158.0803793048127
 31
0.0
  0
LINE
  5
1029
330
2
100
AcDbEntity
  8
0
100
AcDbLine
 10
905.5963361305227
 20
76.12479752961388
 30
0.0
 11
900.9804856188653
 21
76.16507944676704
 31
0.0
  0
LINE
  5
102A
330
2
100
AcDbEntity
  8
0
100
AcDbLine
 10
905.5963361304772
 20
157.035961079988
 30
0.0
 11
900.9804856188672
 21
156.9956791628316
 31
0.0
  0
LINE
  5
102B
330
2
100
AcDbEntity
  8
0
100
AcDbLine
 10
900.9804856188681
 20
151.5803793047927
 30
0.0
 11
895.980485618868
 21
151.5803793047927
 31
0.0
  0
LINE
  5
102C
330
2
100
AcDbEntity
  8
0
100
AcDbLine
 10
900.9804856188681
 20
81.58037930479276
 30
0.0
 11
895.980485618868
 21
81.58037930479276
 31
0.0
  0
LINE
  5
102D
330
2
100
AcDbEntity
  8
0
100
AcDbLine
 10
985.9804856188626
 20
143.0803793047959
 30
0.0
 11
985.1573148871608
 21
143.0803793047959
 31
0.0
  0
LINE
  5
102E
330
2
100
AcDbEntity
  8
0
100
AcDbLine
 10
985.9804856188617
 20
143.0803793047959
 30
0.0
 11
986.9804856188626
 21
142.5030290356064
 31
0.0
  0
LINE
  5
102F
330
2
100
AcDbEntity
  8
0
100
AcDbLine
 10
986.9804856188663
 20
90.65772957398593
 30
0.0
 11
986.9804856188663
 21
142.5030290356036
 31
0.0
  0
LINE
  5
1030
330
2
100
AcDbEntity
  8
0
100
AcDbLine
 10
985.9804856188617
 20
90.08037930479412
 30
0.0
 11
986.9804856188626
 21
90.65772957398412
 31
0.0
  0
LINE
  5
1031
330
2
100
AcDbEntity
  8
0
100
AcDbLine
 10
985.9804856188626
 20
90.08037930479412
 30
0.0
 11
985.1573148871617
 21
90.08037930479458
 31
0.0
  0
LINE
  5
1032
330
2
100
AcDbEntity
  8
0
100
AcDbLine
 10
985.9804856188626
 20
90.08037930479412
 30
0.0
 11
985.9804856188617
 21
143.0803793047959
 31
0.0
  0
LINE
  5
1041
330
2
100
AcDbEntity
  8
CENTER
100
AcDbLine
 10
218.8624655455422
 20
116.5803793048089
 30
0.0
 11
17.86246554554224
 21
116.5803793048089
 31
0.0
  0
LINE
  5
1045
330
2
100
AcDbEntity
  8
CENTER
100
AcDbLine
 10
541.2034988437492
 20
411.4776468309429
 30
0.0
 11
741.9984174463199
 21
411.477646830944
 31
0.0
  0
LINE
  5
105E
330
2
100
AcDbEntity
  8
0
100
AcDbLine
 10
676.9984174506937
 20
158.0803793048177
 30
0.0
 11
676.9984174506937
 21
75.08037930481776
 31
0.0
  0
LINE
  5
1069
330
2
100
AcDbEntity
  8
0
100
AcDbLine
 10
82.86246554554224
 20
75.08037930480845
 30
0.0
 11
82.86246554554224
 21
158.0803793048084
 31
0.0
  0
LINE
  5
107E
330
2
100
AcDbEntity
  8
0
100
AcDbLine
 10
676.9984174463209
 20
452.4776468309434
 30
0.0
 11
676.9984174463209
 21
370.4776468309434
 31
0.0
  0
LINE
  5
1119
330
2
100
AcDbEntity
  8
CENTER
100
AcDbLine
 10
532.9984174506964
 20
116.5803793048141
 30
0.0
 11
741.9984174463227
 21
116.5803793048143
 31
0.0
  0
LINE
  5
1328
330
2
100
AcDbEntity
  8
0
100
AcDbLine
 10
937.7185684085695
 20
158.0040144607846
 30
0.0
 11
943.980485618869
 21
158.0803793048127
 31
0.0
  0
ARC
  5
20A6
330
2
100
AcDbEntity
  8
0
100
AcDbCircle
 10
190.4585089857326
 20
196.3611706167734
 30
0.0
 40
40.0
100
AcDbArc
 50
263.823003595109
 51
283.367674202629
  0
ARC
  5
20A7
330
2
100
AcDbEntity
  8
0
100
AcDbCircle
 10
185.324406322671
 20
145.0803793048061
 30
0.0
 40
8.5
100
AcDbArc
 50
44.99999999998617
 51
90.0
  0
ARC
  5
20A8
330
2
100
AcDbEntity
  8
0
100
AcDbCircle
 10
185.324406322671
 20
145.0803793048061
 30
0.0
 40
5.0
100
AcDbArc
 50
44.99999999998617
 51
90.0
  0
CIRCLE
  5
20A9
330
2
100
AcDbEntity
  8
0
100
AcDbCircle
 10
167.8624655455422
 20
116.5803793048089
 30
0.0
 40
23.0
  0
CIRCLE
  5
20AA
330
2
100
AcDbEntity
  8
0
100
AcDbCircle
 10
167.8624655455422
 20
116.5803793048089
 30
0.0
 40
29.0
  0
CIRCLE
  5
20AB
330
2
100
AcDbEntity
  8
0
100
AcDbCircle
 10
167.8624655455422
 20
116.5803793048089
 30
0.0
 40
26.5
  0
CIRCLE
  5
20AC
330
2
100
AcDbEntity
  8
0
100
AcDbCircle
 10
167.8624655455422
 20
116.5803793048089
 30
0.0
 40
28.5
  0
CIRCLE
  5
20AD
330
2
100
AcDbEntity
  8
0
100
AcDbCircle
 10
167.8624655455422
 20
116.5803793048089
 30
0.0
 40
23.5774
  0
CIRCLE
  5
20AE
330
2
100
AcDbEntity
  8
0
100
AcDbCircle
 10
167.8624655455422
 20
116.5803793048089
 30
0.0
 40
25.9226
  0
ARC
  5
20AF
330
2
100
AcDbEntity
  8
0
100
AcDbCircle
 10
190.4585089857317
 20
36.79958799285015
 30
0.0
 40
40.0
100
AcDbArc
 50
76.63232579737094
 51
96.17699640483843
  0
ARC
  5
20B0
330
2
100
AcDbEntity
  8
0
100
AcDbCircle
 10
185.324406322671
 20
88.08037930481162
 30
0.0
 40
8.5
100
AcDbArc
 50
270.0
 51
315.0000000000138
  0
ARC
  5
20B1
330
2
100
AcDbEntity
  8
0
100
AcDbCircle
 10
185.324406322671
 20
88.08037930481162
 30
0.0
 40
5.0
100
AcDbArc
 50
270.0
 51
315.0000000000138
  0
LINE
  5
20B3
330
2
100
AcDbEntity
  8
CENTER
100
AcDbLine
 10
212.3477469197804
 20
161.0656606790472
 30
0.0
 11
123.3771841713036
 21
72.09509793057015
 31
0.0
  0
LINE
  5
20B4
330
2
100
AcDbEntity
  8
CENTER
100
AcDbLine
 10
123.377184171304
 20
161.0656606790471
 30
0.0
 11
212.3477469197808
 21
72.09509793057003
 31
0.0
  0
ARC
  5
20B5
330
2
100
AcDbEntity
  8
0
100
AcDbCircle
 10
145.2664221053518
 20
36.79958799285037
 30
0.0
 40
40.0
100
AcDbArc
 50
83.82300359510905
 51
103.367674202629
  0
ARC
  5
20B6
330
2
100
AcDbEntity
  8
0
100
AcDbCircle
 10
167.8624655455422
 20
245.580379304812
 30
0.0
 40
170.0
100
AcDbArc
 50
263.823003595109
 51
276.1769964048909
  0
ARC
  5
20B7
330
2
100
AcDbEntity
  8
0
100
AcDbCircle
 10
131.8624655455422
 20
80.58037930480844
 30
0.0
 40
5.0
100
AcDbArc
 50
180.0
 51
270.0
  0
ARC
  5
20B8
330
2
100
AcDbEntity
  8
0
100
AcDbCircle
 10
132.2724655455421
 20
80.58037930480935
 30
0.0
 40
5.0
100
AcDbArc
 50
180.0
 51
270.0
  0
LINE
  5
20B9
330
2
100
AcDbEntity
  8
CENTER
100
AcDbLine
 10
133.3624655455422
 20
76.87108376992814
 30
0.0
 11
133.3624655455422
 21
73.47442162755118
 31
0.0
  0
ARC
  5
20BA
330
2
100
AcDbEntity
  8
0
100
AcDbCircle
 10
92.86246554554407
 20
77.58037930480845
 30
0.0
 40
2.0
100
AcDbArc
 50
270.0
 51
0.0
  0
ARC
  5
20BB
330
2
100
AcDbEntity
  8
0
100
AcDbCircle
 10
92.86246554554407
 20
77.08037930480845
 30
0.0
 40
2.0
100
AcDbArc
 50
270.0
 51
0.0
  0
LINE
  5
20BC
330
2
100
AcDbEntity
  8
CENTER
100
AcDbLine
 10
167.8624655455422
 20
65.58037930481209
 30
0.0
 11
167.8624655455422
 21
167.580379304812
 31
0.0
  0
LINE
  5
20BE
330
2
100
AcDbEntity
  8
0
100
AcDbLine
 10
92.86246554554407
 20
75.58037930480844
 30
0.0
 11
82.86246554554224
 21
75.58037930480844
 31
0.0
  0
LINE
  5
20BF
330
2
100
AcDbEntity
  8
0
100
AcDbLine
 10
92.86246554554407
 20
75.08037930480845
 30
0.0
 11
82.86246554554224
 21
75.08037930480845
 31
0.0
  0
LINE
  5
20C0
330
2
100
AcDbEntity
  8
0
100
AcDbLine
 10
134.8624655455422
 20
75.58037930481231
 30
0.0
 11
131.8624655455422
 21
75.58037930481231
 31
0.0
  0
LINE
  5
20C1
330
2
100
AcDbEntity
  8
0
100
AcDbLine
 10
134.8624655455422
 20
75.58037930480935
 30
0.0
 11
132.2724655455421
 21
75.58037930480935
 31
0.0
  0
ARC
  5
20C2
330
2
100
AcDbEntity
  8
0
100
AcDbCircle
 10
134.8624655455422
 20
80.58037930481276
 30
0.0
 40
5.0
100
AcDbArc
 50
270.0
 51
283.367674202629
  0
ARC
  5
20C3
330
2
100
AcDbEntity
  8
0
100
AcDbCircle
 10
131.8624655455422
 20
152.5803793048082
 30
0.0
 40
5.0
100
AcDbArc
 50
90.0
 51
180.0
  0
ARC
  5
20C4
330
2
100
AcDbEntity
  8
0
100
AcDbCircle
 10
132.2724655455421
 20
152.5803793048089
 30
0.0
 40
5.0
100
AcDbArc
 50
90.0
 51
180.0
  0
LINE
  5
20C5
330
2
100
AcDbEntity
  8
CENTER
100
AcDbLine
 10
133.3624655455422
 20
159.8303793048089
 30
0.0
 11
133.3624655455422
 21
142.3303793048089
 31
0.0
  0
ARC
  5
20C6
330
2
100
AcDbEntity
  8
0
100
AcDbCircle
 10
92.86246554554224
 20
156.0803793048082
 30
0.0
 40
2.0
100
AcDbArc
 50
0.0
 51
90.0
  0
LINE
  5
20C7
330
2
100
AcDbEntity
  8
0
100
AcDbLine
 10
112.3624655455404
 20
142.5803793046911
 30
0.0
 11
121.8624655455422
 21
142.5803793046911
 31
0.0
  0
LINE
  5
20C8
330
2
100
AcDbEntity
  8
0
100
AcDbLine
 10
107.3624655455404
 20
128.704734957791
 30
0.0
 11
126.8624655455422
 21
128.704734957791
 31
0.0
  0
LINE
  5
20C9
330
2
100
AcDbEntity
  8
0
100
AcDbLine
 10
123.8624655455422
 20
148.5803793048136
 30
0.0
 11
108.3624655455431
 21
148.5803793048136
 31
0.0
  0
LINE
  5
20CA
330
2
100
AcDbEntity
  8
0
100
AcDbLine
 10
112.3624655455367
 20
90.580379304926
 30
0.0
 11
121.8624655455422
 21
90.58037930492554
 31
0.0
  0
LINE
  5
20CB
330
2
100
AcDbEntity
  8
0
100
AcDbLine
 10
107.3624655455376
 20
104.4560236518268
 30
0.0
 11
126.8624655455431
 21
104.4560236518268
 31
0.0
  0
LINE
  5
20CC
330
2
100
AcDbEntity
  8
0
100
AcDbLine
 10
123.8624655455422
 20
84.5803793048039
 30
0.0
 11
108.3624655455431
 21
84.5803793048039
 31
0.0
  0
LINE
  5
20CD
330
2
100
AcDbEntity
  8
0
100
AcDbLine
 10
107.3624655455358
 20
85.58037930492531
 30
0.0
 11
107.3624655455404
 21
147.5803793046911
 31
0.0
  0
LINE
  5
20CE
330
2
100
AcDbEntity
  8
0
100
AcDbLine
 10
94.8624655455468
 20
77.08037930480845
 30
0.0
 11
94.8624655455468
 21
156.0803793048082
 31
0.0
  0
ARC
  5
20CF
330
2
100
AcDbEntity
  8
0
100
AcDbCircle
 10
112.3624655455367
 20
85.580379304926
 30
0.0
 40
5.0
100
AcDbArc
 50
90.0
 51
180.0
  0
ARC
  5
20D0
330
2
100
AcDbEntity
  8
0
100
AcDbCircle
 10
108.3624655455431
 20
81.58037930480389
 30
0.0
 40
3.0
100
AcDbArc
 50
90.0
 51
126.86989764587
  0
LINE
  5
20D1
330
2
100
AcDbEntity
  8
0
100
AcDbLine
 10
99.8624655455468
 20
83.58037930492532
 30
0.0
 11
105.3624655455422
 21
83.58037930492532
 31
0.0
  0
ARC
  5
20D2
330
2
100
AcDbEntity
  8
0
100
AcDbCircle
 10
99.8624655455468
 20
78.58037930492532
 30
0.0
 40
5.0
100
AcDbArc
 50
90.0
 51
180.0
  0
ARC
  5
20D3
330
2
100
AcDbEntity
  8
0
100
AcDbCircle
 10
105.3624655455422
 20
85.58037930492531
 30
0.0
 40
2.0
100
AcDbArc
 50
270.0
 51
0.0
  0
LINE
  5
20D4
330
2
100
AcDbEntity
  8
0
100
AcDbLine
 10
82.86246554554224
 20
157.5803793048082
 30
0.0
 11
92.86246554554224
 21
157.5803793048082
 31
0.0
  0
LINE
  5
20D5
330
2
100
AcDbEntity
  8
0
100
AcDbLine
 10
82.86246554554224
 20
158.0803793048082
 30
0.0
 11
92.86246554554224
 21
158.0803793048082
 31
0.0
  0
ARC
  5
20D6
330
2
100
AcDbEntity
  8
0
100
AcDbCircle
 10
105.3624655455422
 20
147.5803793046911
 30
0.0
 40
2.0
100
AcDbArc
 50
0.0
 51
90.0
  0
ARC
  5
20D7
330
2
100
AcDbEntity
  8
0
100
AcDbCircle
 10
112.3624655455404
 20
147.5803793046911
 30
0.0
 40
5.0
100
AcDbArc
 50
180.0
 51
270.0
  0
ARC
  5
20D8
330
2
100
AcDbEntity
  8
0
100
AcDbCircle
 10
108.3624655455431
 20
151.5803793048139
 30
0.0
 40
3.0
100
AcDbArc
 50
233.1301023541299
 51
270.0
  0
ARC
  5
20D9
330
2
100
AcDbEntity
  8
0
100
AcDbCircle
 10
99.86246554554226
 20
154.5803793046911
 30
0.0
 40
5.0
100
AcDbArc
 50
180.0
 51
270.0
  0
ARC
  5
20DA
330
2
100
AcDbEntity
  8
0
100
AcDbCircle
 10
92.86246554554224
 20
155.5803793048082
 30
0.0
 40
2.0
100
AcDbArc
 50
0.0
 51
90.0
  0
LINE
  5
20DB
330
2
100
AcDbEntity
  8
0
100
AcDbLine
 10
99.86246554554226
 20
149.5803793046911
 30
0.0
 11
105.3624655455422
 21
149.5803793046911
 31
0.0
  0
LINE
  5
20DC
330
2
100
AcDbEntity
  8
0
100
AcDbLine
 10
126.3624655455431
 20
104.4560236518268
 30
0.0
 11
126.3624655455422
 21
128.704734957791
 31
0.0
  0
LINE
  5
20DD
330
2
100
AcDbEntity
  8
0
100
AcDbLine
 10
134.3624655455449
 20
134.0423200819377
 30
0.0
 11
134.3624655455449
 21
99.11843852768056
 31
0.0
  0
LINE
  5
20DE
330
2
100
AcDbEntity
  8
0
100
AcDbLine
 10
130.8624655455449
 20
134.0423200819377
 30
0.0
 11
130.8624655455449
 21
99.11843852768056
 31
0.0
  0
LINE
  5
20DF
330
2
100
AcDbEntity
  8
0
100
AcDbLine
 10
126.8624655455422
 20
80.58037930480844
 30
0.0
 11
126.8624655455422
 21
152.5803793048082
 31
0.0
  0
LINE
  5
20E0
330
2
100
AcDbEntity
  8
0
100
AcDbLine
 10
127.2724655455421
 20
80.58037930480935
 30
0.0
 11
127.2724655455421
 21
152.5803793048089
 31
0.0
  0
LINE
  5
20E1
330
2
100
AcDbEntity
  8
0
100
AcDbLine
 10
150.4005247684143
 20
79.58037930481163
 30
0.0
 11
185.324406322671
 21
79.58037930481163
 31
0.0
  0
LINE
  5
20E2
330
2
100
AcDbEntity
  8
0
100
AcDbLine
 10
150.4005247684143
 20
83.08037930481162
 30
0.0
 11
185.324406322671
 21
83.08037930481162
 31
0.0
  0
LINE
  5
20E3
330
2
100
AcDbEntity
  8
0
100
AcDbLine
 10
135.8269316396125
 20
95.58290462174813
 30
0.0
 11
146.864990862481
 21
84.5448453988792
 31
0.0
  0
ARC
  5
20E4
330
2
100
AcDbEntity
  8
0
100
AcDbCircle
 10
121.8624655455422
 20
85.58037930492554
 30
0.0
 40
5.0
100
AcDbArc
 50
0.0
 51
90.0
  0
LINE
  5
20E5
330
2
100
AcDbEntity
  8
0
100
AcDbLine
 10
131.5094895191995
 20
95.86562935257729
 30
0.0
 11
134.7430678829886
 21
97.20502136585531
 31
0.0
  0
ARC
  5
20E6
330
2
100
AcDbEntity
  8
0
100
AcDbCircle
 10
139.3624655455449
 20
99.11843852768056
 30
0.0
 40
8.5
100
AcDbArc
 50
180.0
 51
224.9999999999861
  0
ARC
  5
20E7
330
2
100
AcDbEntity
  8
0
100
AcDbCircle
 10
139.3624655455449
 20
99.11843852768056
 30
0.0
 40
5.0
100
AcDbArc
 50
180.0
 51
224.9999999999861
  0
ARC
  5
20E8
330
2
100
AcDbEntity
  8
0
100
AcDbCircle
 10
150.4005247684143
 20
88.08037930481162
 30
0.0
 40
8.5
100
AcDbArc
 50
224.9999999999861
 51
270.0
  0
LINE
  5
20E9
330
2
100
AcDbEntity
  8
0
100
AcDbLine
 10
147.1477155933106
 20
80.22740327846571
 30
0.0
 11
148.4871076065882
 21
83.46098164225526
 31
0.0
  0
LINE
  5
20EA
330
2
100
AcDbEntity
  8
0
100
AcDbLine
 10
135.8624655455422
 20
80.63700363183528
 30
0.0
 11
135.8624655455422
 21
83.52375497778297
 31
0.0
  0
LINE
  5
20EB
330
2
100
AcDbEntity
  8
0
100
AcDbLine
 10
130.8624655455431
 20
80.63700363183528
 30
0.0
 11
130.8624655455431
 21
83.52375497778343
 31
0.0
  0
LINE
  5
20EC
330
2
100
AcDbEntity
  8
0
100
AcDbLine
 10
130.8624655455431
 20
80.63700363183528
 30
0.0
 11
133.3624655455431
 21
79.19362795886121
 31
0.0
  0
LINE
  5
20ED
330
2
100
AcDbEntity
  8
CENTER
100
AcDbLine
 10
124.6124655455422
 20
82.08037930480935
 30
0.0
 11
142.1124655455422
 21
82.08037930480935
 31
0.0
  0
LINE
  5
20EE
330
2
100
AcDbEntity
  8
0
100
AcDbLine
 10
135.8624655455422
 20
80.63700363183528
 30
0.0
 11
133.3624655455431
 21
79.19362795886121
 31
0.0
  0
ARC
  5
20EF
330
2
100
AcDbEntity
  8
0
100
AcDbCircle
 10
123.8624655455422
 20
81.58037930480389
 30
0.0
 40
3.0
100
AcDbArc
 50
0.0
 51
90.0
  0
LINE
  5
20F0
330
2
100
AcDbEntity
  8
0
100
AcDbLine
 10
133.3520579054592
 20
93.10803088759525
 30
0.0
 11
144.3901171283286
 21
82.06997166472588
 31
0.0
  0
ARC
  5
20F1
330
2
100
AcDbEntity
  8
0
100
AcDbCircle
 10
150.4005247684143
 20
88.08037930481162
 30
0.0
 40
5.0
100
AcDbArc
 50
224.9999999999861
 51
270.0
  0
LINE
  5
20F2
330
2
100
AcDbEntity
  8
CENTER
100
AcDbLine
 10
133.3624655455422
 20
77.89613656064233
 30
0.0
 11
133.3624655455422
 21
90.83037930480889
 31
0.0
  0
CIRCLE
  5
20F3
330
2
100
AcDbEntity
  8
0
100
AcDbCircle
 10
133.3624655455422
 20
82.08037930480935
 30
0.0
 40
5.000000000000113
  0
CIRCLE
  5
20F4
330
2
100
AcDbEntity
  8
0
100
AcDbCircle
 10
133.3624655455422
 20
82.08037930480935
 30
0.0
 40
4.307179676972509
  0
LINE
  5
20F5
330
2
100
AcDbEntity
  8
0
100
AcDbLine
 10
133.3624655455422
 20
84.9671306507575
 30
0.0
 11
130.8624655455431
 21
83.52375497778343
 31
0.0
  0
LINE
  5
20F6
330
2
100
AcDbEntity
  8
0
100
AcDbLine
 10
133.3624655455422
 20
84.9671306507575
 30
0.0
 11
135.8624655455422
 21
83.52375497778297
 31
0.0
  0
ARC
  5
20F7
330
2
100
AcDbEntity
  8
0
100
AcDbCircle
 10
167.8624655455422
 20
-12.41962069518803
 30
0.0
 40
170.0
100
AcDbArc
 50
83.82300359510905
 51
96.17699640483843
  0
LINE
  5
20F8
330
2
100
AcDbEntity
  8
0
100
AcDbLine
 10
185.324406322671
 20
153.5803793048061
 30
0.0
 11
150.4005247684143
 21
153.5803793048061
 31
0.0
  0
LINE
  5
20F9
330
2
100
AcDbEntity
  8
0
100
AcDbLine
 10
185.324406322671
 20
150.0803793048061
 30
0.0
 11
150.4005247684143
 21
150.0803793048061
 31
0.0
  0
ARC
  5
20FA
330
2
100
AcDbEntity
  8
0
100
AcDbCircle
 10
145.2664221053527
 20
196.3611706167739
 30
0.0
 40
40.0
100
AcDbArc
 50
256.6323257973709
 51
276.1769964048909
  0
ARC
  5
20FB
330
2
100
AcDbEntity
  8
0
100
AcDbCircle
 10
150.4005247684143
 20
145.0803793048061
 30
0.0
 40
8.5
100
AcDbArc
 50
90.0
 51
135.0000000000138
  0
LINE
  5
20FC
330
2
100
AcDbEntity
  8
0
100
AcDbLine
 10
147.1477155933106
 20
152.933355331152
 30
0.0
 11
148.4871076065882
 21
149.6997769673625
 31
0.0
  0
LINE
  5
20FD
330
2
100
AcDbEntity
  8
0
100
AcDbLine
 10
135.8269316396125
 20
137.5778539878701
 30
0.0
 11
146.864990862481
 21
148.615913210739
 31
0.0
  0
ARC
  5
20FE
330
2
100
AcDbEntity
  8
0
100
AcDbCircle
 10
150.4005247684143
 20
145.0803793048061
 30
0.0
 40
5.0
100
AcDbArc
 50
90.0
 51
135.0000000000138
  0
LINE
  5
20FF
330
2
100
AcDbEntity
  8
0
100
AcDbLine
 10
135.8624655455422
 20
149.6370036318348
 30
0.0
 11
135.8624655455422
 21
152.5237549777829
 31
0.0
  0
LINE
  5
2100
330
2
100
AcDbEntity
  8
0
100
AcDbLine
 10
134.8624655455422
 20
157.580379304812
 30
0.0
 11
131.8624655455422
 21
157.580379304812
 31
0.0
  0
ARC
  5
2101
330
2
100
AcDbEntity
  8
0
100
AcDbCircle
 10
121.8624655455422
 20
147.5803793046911
 30
0.0
 40
5.0
100
AcDbArc
 50
270.0
 51
0.0
  0
ARC
  5
2102
330
2
100
AcDbEntity
  8
0
100
AcDbCircle
 10
123.8624655455422
 20
151.5803793048139
 30
0.0
 40
3.0
100
AcDbArc
 50
270.0
 51
0.0
  0
CIRCLE
  5
2103
330
2
100
AcDbEntity
  8
HOJO
100
AcDbCircle
 10
131.8624655455449
 20
143.0803793048089
 30
0.0
 40
2.0
  0
LINE
  5
2104
330
2
100
AcDbEntity
  8
CENTER
100
AcDbLine
 10
131.8624655455449
 20
148.2535843855661
 30
0.0
 11
131.8624655455449
 21
137.907174224052
 31
0.0
  0
ARC
  5
2105
330
2
100
AcDbEntity
  8
0
100
AcDbCircle
 10
139.3624655455449
 20
134.0423200819377
 30
0.0
 40
8.5
100
AcDbArc
 50
135.0000000000138
 51
180.0
  0
LINE
  5
2106
330
2
100
AcDbEntity
  8
0
100
AcDbLine
 10
131.5094895191995
 20
137.2951292570409
 30
0.0
 11
134.7430678829886
 21
135.9557372437629
 31
0.0
  0
LINE
  5
2107
330
2
100
AcDbEntity
  8
0
100
AcDbLine
 10
134.8624655455422
 20
157.5803793048089
 30
0.0
 11
132.2724655455421
 21
157.5803793048089
 31
0.0
  0
CIRCLE
  5
2108
330
2
100
AcDbEntity
  8
0
100
AcDbCircle
 10
131.8624655455449
 20
143.0803793048089
 30
0.0
 40
1.6
  0
LINE
  5
2109
330
2
100
AcDbEntity
  8
0
100
AcDbLine
 10
130.8624655455422
 20
149.6370036318348
 30
0.0
 11
130.8624655455422
 21
152.5237549777829
 31
0.0
  0
LINE
  5
210A
330
2
100
AcDbEntity
  8
0
100
AcDbLine
 10
130.8624655455422
 20
149.6370036318348
 30
0.0
 11
133.3624655455422
 21
148.1936279588607
 31
0.0
  0
LINE
  5
210B
330
2
100
AcDbEntity
  8
0
100
AcDbLine
 10
133.3624655455422
 20
153.967130650757
 30
0.0
 11
130.8624655455422
 21
152.5237549777829
 31
0.0
  0
ARC
  5
210C
330
2
100
AcDbEntity
  8
0
100
AcDbCircle
 10
134.8624655455422
 20
152.5803793048118
 30
0.0
 40
5.0
100
AcDbArc
 50
76.63232579737094
 51
90.0
  0
LINE
  5
210D
330
2
100
AcDbEntity
  8
CENTER
100
AcDbLine
 10
124.6124655455422
 20
151.0803793048089
 30
0.0
 11
142.1124655455422
 21
151.0803793048089
 31
0.0
  0
LINE
  5
210E
330
2
100
AcDbEntity
  8
CENTER
100
AcDbLine
 10
126.6892604647881
 20
143.0803793048089
 30
0.0
 11
137.0356706263027
 21
143.0803793048089
 31
0.0
  0
ARC
  5
210F
330
2
100
AcDbEntity
  8
0
100
AcDbCircle
 10
139.3624655455449
 20
134.0423200819377
 30
0.0
 40
5.0
100
AcDbArc
 50
135.0000000000138
 51
180.0
  0
LINE
  5
2110
330
2
100
AcDbEntity
  8
0
100
AcDbLine
 10
133.3520579054592
 20
140.0527277220234
 30
0.0
 11
144.3901171283286
 21
151.0907869448919
 31
0.0
  0
CIRCLE
  5
2111
330
2
100
AcDbEntity
  8
0
100
AcDbCircle
 10
133.3624655455422
 20
151.0803793048089
 30
0.0
 40
5.000000000000113
  0
CIRCLE
  5
2112
330
2
100
AcDbEntity
  8
0
100
AcDbCircle
 10
133.3624655455422
 20
151.0803793048089
 30
0.0
 40
4.307179676972509
  0
LINE
  5
2113
330
2
100
AcDbEntity
  8
0
100
AcDbLine
 10
135.8624655455422
 20
149.6370036318348
 30
0.0
 11
133.3624655455422
 21
148.1936279588607
 31
0.0
  0
LINE
  5
2114
330
2
100
AcDbEntity
  8
0
100
AcDbLine
 10
133.3624655455422
 20
153.967130650757
 30
0.0
 11
135.8624655455422
 21
152.5237549777829
 31
0.0
  0
ARC
  5
211F
330
2
100
AcDbEntity
  8
0
100
AcDbCircle
 10
285.1027274601221
 20
80.51977548369956
 30
0.0
 40
5.0
100
AcDbArc
 50
180.0
 51
269.3013056170002
  0
ARC
  5
2120
330
2
100
AcDbEntity
  8
0
100
AcDbCircle
 10
291.102727460124
 20
76.58037930479537
 30
0.0
 40
1.0
100
AcDbArc
 50
180.0
 51
270.0
  0
LINE
  5
2121
330
2
100
AcDbEntity
  8
0
100
AcDbLine
 10
364.1027274601249
 20
76.16507944676192
 30
0.0
 11
364.1027274601267
 21
156.9956791628261
 31
0.0
  0
LINE
  5
2122
330
2
100
AcDbEntity
  8
0
100
AcDbLine
 10
297.6027274601203
 20
75.5847427386787
 30
0.0
 11
297.6027274601203
 21
157.576015870854
 31
0.0
  0
LINE
  5
2123
330
2
100
AcDbEntity
  8
CENTER
100
AcDbLine
 10
321.1027274601167
 20
168.0803793047793
 30
0.0
 11
321.1027274601167
 21
65.08037930478036
 31
0.0
  0
LINE
  5
2124
330
2
100
AcDbEntity
  8
CENTER
100
AcDbLine
 10
202.3624655455422
 20
76.87108376992814
 30
0.0
 11
202.3624655455422
 21
73.47442162755118
 31
0.0
  0
ARC
  5
2125
330
2
100
AcDbEntity
  8
0
100
AcDbCircle
 10
203.8624655455422
 20
80.58037930480844
 30
0.0
 40
5.0
100
AcDbArc
 50
270.0
 51
0.0
  0
LINE
  5
2126
330
2
100
AcDbEntity
  8
0
100
AcDbLine
 10
357.1636985362076
 20
75.52014724473389
 30
0.0
 11
321.1027274601231
 21
75.08037930478036
 31
0.0
  0
LINE
  5
2127
330
2
100
AcDbEntity
  8
0
100
AcDbLine
 10
297.6027274601203
 20
75.5847427386787
 30
0.0
 11
364.1027274601249
 21
76.16507944676192
 31
0.0
  0
ARC
  5
2128
330
2
100
AcDbEntity
  8
0
100
AcDbCircle
 10
200.8624655455422
 20
80.58037930481232
 30
0.0
 40
5.0
100
AcDbArc
 50
256.6323257973709
 51
270.0
  0
LINE
  5
2129
330
2
100
AcDbEntity
  8
0
100
AcDbLine
 10
203.8624655455422
 20
75.58037930481231
 30
0.0
 11
200.8624655455422
 21
75.58037930481231
 31
0.0
  0
LINE
  5
212A
330
2
100
AcDbEntity
  8
0
100
AcDbLine
 10
285.0417563840376
 20
75.52014724473207
 30
0.0
 11
321.1027274601221
 21
75.08037930478036
 31
0.0
  0
LINE
  5
212B
330
2
100
AcDbEntity
  8
0
100
AcDbLine
 10
297.6027274601203
 20
75.58037930479537
 30
0.0
 11
291.102727460124
 21
75.58037930479537
 31
0.0
  0
ARC
  5
212C
330
2
100
AcDbEntity
  8
0
100
AcDbCircle
 10
357.1027274601222
 20
80.51977548370137
 30
0.0
 40
5.0
100
AcDbArc
 50
270.6986943829998
 51
298.4785614955819
  0
LINE
  5
212E
330
2
100
AcDbEntity
  8
0
100
AcDbLine
 10
357.1636985362076
 20
157.640611364825
 30
0.0
 11
321.1027274601231
 21
158.0803793047794
 31
0.0
  0
LINE
  5
212F
330
2
100
AcDbEntity
  8
0
100
AcDbLine
 10
297.6027274601203
 20
157.576015870854
 30
0.0
 11
364.1027274601267
 21
156.9956791628261
 31
0.0
  0
LINE
  5
2130
330
2
100
AcDbEntity
  8
CENTER
100
AcDbLine
 10
268.1027274601203
 20
116.5803793047953
 30
0.0
 11
424.1027274601249
 21
116.5803793047953
 31
0.0
  0
LINE
  5
2131
330
2
100
AcDbEntity
  8
0
100
AcDbLine
 10
364.1027274601267
 20
152.5803793048153
 30
0.0
 11
297.6027274601203
 21
152.5803793048153
 31
0.0
  0
LINE
  5
2132
330
2
100
AcDbEntity
  8
0
100
AcDbLine
 10
364.1027274601267
 20
149.5803793048156
 30
0.0
 11
297.6027274601203
 21
149.5803793048156
 31
0.0
  0
LINE
  5
2133
330
2
100
AcDbEntity
  8
0
100
AcDbLine
 10
364.1027274601258
 20
134.8724144706796
 30
0.0
 11
297.6027274601203
 21
134.8724144706796
 31
0.0
  0
LINE
  5
2134
330
2
100
AcDbEntity
  8
0
100
AcDbLine
 10
364.1027274601258
 20
98.2883441389111
 30
0.0
 11
297.6027274601203
 21
98.2883441389111
 31
0.0
  0
LINE
  5
2135
330
2
100
AcDbEntity
  8
0
100
AcDbLine
 10
364.1027274601267
 20
80.58037930477537
 30
0.0
 11
297.6027274601203
 21
80.58037930477537
 31
0.0
  0
LINE
  5
2136
330
2
100
AcDbEntity
  8
0
100
AcDbLine
 10
364.1027274601267
 20
83.58037930477513
 30
0.0
 11
297.6027274601203
 21
83.58037930477513
 31
0.0
  0
ARC
  5
2137
330
2
100
AcDbEntity
  8
0
100
AcDbCircle
 10
285.1027274601221
 20
152.6409831258593
 30
0.0
 40
5.0
100
AcDbArc
 50
90.69869438299976
 51
180.0
  0
LINE
  5
213A
330
2
100
AcDbEntity
  8
CENTER
100
AcDbLine
 10
202.3624655455422
 20
159.8303793048089
 30
0.0
 11
202.3624655455422
 21
142.3303793048089
 31
0.0
  0
ARC
  5
213B
330
2
100
AcDbEntity
  8
0
100
AcDbCircle
 10
203.8624655455422
 20
152.5803793048082
 30
0.0
 40
5.0
100
AcDbArc
 50
0.0
 51
90.0
  0
ARC
  5
213D
330
2
100
AcDbEntity
  8
0
100
AcDbCircle
 10
38.86246554554224
 20
116.580379304812
 30
0.0
 40
170.0
100
AcDbArc
 50
353.8230035951353
 51
6.176996404864683
  0
LINE
  5
213E
330
2
100
AcDbEntity
  8
0
100
AcDbLine
 10
204.8624655455395
 20
99.11843852768056
 30
0.0
 11
204.8624655455395
 21
134.0423200819372
 31
0.0
  0
LINE
  5
213F
330
2
100
AcDbEntity
  8
0
100
AcDbLine
 10
201.3624655455395
 20
99.11843852768056
 30
0.0
 11
201.3624655455395
 21
134.0423200819377
 31
0.0
  0
ARC
  5
2140
330
2
100
AcDbEntity
  8
0
100
AcDbCircle
 10
247.6432568575036
 20
93.98433586462164
 30
0.0
 40
40.0
100
AcDbArc
 50
173.8230035951353
 51
193.3676742026259
  0
LINE
  5
2141
330
2
100
AcDbEntity
  8
0
100
AcDbLine
 10
208.8624655455422
 20
80.58037930481232
 30
0.0
 11
208.8624655455422
 21
83.58037930481208
 31
0.0
  0
LINE
  5
2142
330
2
100
AcDbEntity
  8
0
100
AcDbLine
 10
204.8624655455422
 20
80.63700363183484
 30
0.0
 11
204.8624655455422
 21
83.52375497778297
 31
0.0
  0
ARC
  5
2143
330
2
100
AcDbEntity
  8
0
100
AcDbCircle
 10
203.8624655455413
 20
83.58037930481208
 30
0.0
 40
5.0
100
AcDbArc
 50
0.0
 51
13.36767420262589
  0
LINE
  5
2144
330
2
100
AcDbEntity
  8
CENTER
100
AcDbLine
 10
203.8624655455395
 20
84.90717422405209
 30
0.0
 11
203.8624655455395
 21
95.25358438556617
 31
0.0
  0
LINE
  5
2145
330
2
100
AcDbEntity
  8
0
100
AcDbLine
 10
204.215441571885
 20
95.86562935257729
 30
0.0
 11
200.9818632080958
 21
97.20502136585487
 31
0.0
  0
LINE
  5
2146
330
2
100
AcDbEntity
  8
0
100
AcDbLine
 10
199.8979994514719
 20
95.58290462174767
 30
0.0
 11
188.8599402286034
 21
84.54484539887875
 31
0.0
  0
ARC
  5
2147
330
2
100
AcDbEntity
  8
0
100
AcDbCircle
 10
196.3624655455395
 20
99.11843852768056
 30
0.0
 40
5.0
100
AcDbArc
 50
315.0000000000138
 51
0.0
  0
LINE
  5
2148
330
2
100
AcDbEntity
  8
0
100
AcDbLine
 10
188.5772154977747
 20
80.22740327846571
 30
0.0
 11
187.2378234844962
 21
83.46098164225526
 31
0.0
  0
LINE
  5
2149
330
2
100
AcDbEntity
  8
0
100
AcDbLine
 10
199.8624655455422
 20
80.63700363183484
 30
0.0
 11
199.8624655455422
 21
83.52375497778297
 31
0.0
  0
LINE
  5
214A
330
2
100
AcDbEntity
  8
0
100
AcDbLine
 10
199.8624655455422
 20
80.63700363183484
 30
0.0
 11
202.3624655455422
 21
79.19362795886076
 31
0.0
  0
LINE
  5
214B
330
2
100
AcDbEntity
  8
0
100
AcDbLine
 10
202.3728731856252
 20
93.10803088759479
 30
0.0
 11
191.3348139627568
 21
82.06997166472632
 31
0.0
  0
LINE
  5
214C
330
2
100
AcDbEntity
  8
CENTER
100
AcDbLine
 10
202.3624655455422
 20
77.89613656064233
 30
0.0
 11
202.3624655455422
 21
90.83037930480889
 31
0.0
  0
LINE
  5
214D
330
2
100
AcDbEntity
  8
0
100
AcDbLine
 10
202.3624655455422
 20
84.96713065075704
 30
0.0
 11
199.8624655455422
 21
83.52375497778297
 31
0.0
  0
LINE
  5
214E
330
2
100
AcDbEntity
  8
CENTER
100
AcDbLine
 10
211.1124655455422
 20
82.08037930480889
 30
0.0
 11
193.6124655455422
 21
82.08037930480889
 31
0.0
  0
LINE
  5
214F
330
2
100
AcDbEntity
  8
CENTER
100
AcDbLine
 10
209.0356706262972
 20
90.0803793048089
 30
0.0
 11
198.6892604647827
 21
90.0803793048089
 31
0.0
  0
CIRCLE
  5
2150
330
2
100
AcDbEntity
  8
HOJO
100
AcDbCircle
 10
203.8624655455395
 20
90.0803793048089
 30
0.0
 40
2.0
  0
CIRCLE
  5
2151
330
2
100
AcDbEntity
  8
0
100
AcDbCircle
 10
203.8624655455395
 20
90.0803793048089
 30
0.0
 40
1.6
  0
ARC
  5
2152
330
2
100
AcDbEntity
  8
0
100
AcDbCircle
 10
196.3624655455395
 20
99.11843852768056
 30
0.0
 40
8.5
100
AcDbArc
 50
315.0000000000138
 51
0.0
  0
CIRCLE
  5
2153
330
2
100
AcDbEntity
  8
0
100
AcDbCircle
 10
202.3624655455422
 20
82.08037930480889
 30
0.0
 40
5.000000000000113
  0
CIRCLE
  5
2154
330
2
100
AcDbEntity
  8
0
100
AcDbCircle
 10
202.3624655455422
 20
82.08037930480889
 30
0.0
 40
4.307179676972509
  0
LINE
  5
2155
330
2
100
AcDbEntity
  8
0
100
AcDbLine
 10
204.8624655455422
 20
80.63700363183484
 30
0.0
 11
202.3624655455422
 21
79.19362795886076
 31
0.0
  0
LINE
  5
2156
330
2
100
AcDbEntity
  8
0
100
AcDbLine
 10
202.3624655455422
 20
84.96713065075704
 30
0.0
 11
204.8624655455422
 21
83.52375497778297
 31
0.0
  0
ARC
  5
2157
330
2
100
AcDbEntity
  8
0
100
AcDbCircle
 10
247.6432568575045
 20
139.1764227450013
 30
0.0
 40
40.0
100
AcDbArc
 50
166.6323257973741
 51
186.1769964048647
  0
LINE
  5
2158
330
2
100
AcDbEntity
  8
0
100
AcDbLine
 10
208.8624655455422
 20
149.580379304812
 30
0.0
 11
208.8624655455422
 21
152.5803793048121
 31
0.0
  0
ARC
  5
2159
330
2
100
AcDbEntity
  8
0
100
AcDbCircle
 10
203.8624655455422
 20
149.580379304812
 30
0.0
 40
5.0
100
AcDbArc
 50
346.6323257973741
 51
0.0
  0
LINE
  5
215A
330
2
100
AcDbEntity
  8
0
100
AcDbLine
 10
204.8624655455422
 20
149.6370036318348
 30
0.0
 11
204.8624655455422
 21
152.5237549777829
 31
0.0
  0
LINE
  5
215B
330
2
100
AcDbEntity
  8
0
100
AcDbLine
 10
203.8624655455422
 20
157.580379304812
 30
0.0
 11
200.8624655455422
 21
157.580379304812
 31
0.0
  0
ARC
  5
215C
330
2
100
AcDbEntity
  8
0
100
AcDbCircle
 10
200.8624655455422
 20
152.5803793048111
 30
0.0
 40
5.0
100
AcDbArc
 50
90.0
 51
103.367674202629
  0
ARC
  5
215D
330
2
100
AcDbEntity
  8
0
100
AcDbCircle
 10
196.3624655455395
 20
134.0423200819377
 30
0.0
 40
5.0
100
AcDbArc
 50
0.0
 51
44.99999999998617
  0
LINE
  5
215E
330
2
100
AcDbEntity
  8
0
100
AcDbLine
 10
204.215441571885
 20
137.2951292570405
 30
0.0
 11
200.9818632080968
 21
135.9557372437629
 31
0.0
  0
LINE
  5
215F
330
2
100
AcDbEntity
  8
0
100
AcDbLine
 10
188.5772154977747
 20
152.933355331152
 30
0.0
 11
187.2378234844962
 21
149.6997769673625
 31
0.0
  0
LINE
  5
2160
330
2
100
AcDbEntity
  8
0
100
AcDbLine
 10
202.3728731856252
 20
140.052727722023
 30
0.0
 11
191.3348139627568
 21
151.0907869448919
 31
0.0
  0
LINE
  5
2161
330
2
100
AcDbEntity
  8
0
100
AcDbLine
 10
199.8979994514719
 20
137.5778539878701
 30
0.0
 11
188.8599402286034
 21
148.615913210739
 31
0.0
  0
LINE
  5
2162
330
2
100
AcDbEntity
  8
0
100
AcDbLine
 10
199.8624655455422
 20
149.6370036318348
 30
0.0
 11
199.8624655455422
 21
152.5237549777829
 31
0.0
  0
LINE
  5
2163
330
2
100
AcDbEntity
  8
0
100
AcDbLine
 10
199.8624655455422
 20
149.6370036318348
 30
0.0
 11
202.3624655455422
 21
148.1936279588607
 31
0.0
  0
LINE
  5
2164
330
2
100
AcDbEntity
  8
0
100
AcDbLine
 10
202.3624655455422
 20
153.967130650757
 30
0.0
 11
199.8624655455422
 21
152.5237549777829
 31
0.0
  0
LINE
  5
2165
330
2
100
AcDbEntity
  8
CENTER
100
AcDbLine
 10
211.1124655455422
 20
151.0803793048089
 30
0.0
 11
193.6124655455422
 21
151.0803793048089
 31
0.0
  0
ARC
  5
2166
330
2
100
AcDbEntity
  8
0
100
AcDbCircle
 10
196.3624655455395
 20
134.0423200819372
 30
0.0
 40
8.5
100
AcDbArc
 50
0.0
 51
44.99999999998617
  0
CIRCLE
  5
2167
330
2
100
AcDbEntity
  8
0
100
AcDbCircle
 10
202.3624655455422
 20
151.0803793048089
 30
0.0
 40
5.000000000000113
  0
CIRCLE
  5
2168
330
2
100
AcDbEntity
  8
0
100
AcDbCircle
 10
202.3624655455422
 20
151.0803793048089
 30
0.0
 40
4.307179676972509
  0
LINE
  5
2169
330
2
100
AcDbEntity
  8
0
100
AcDbLine
 10
204.8624655455422
 20
149.6370036318348
 30
0.0
 11
202.3624655455422
 21
148.1936279588607
 31
0.0
  0
LINE
  5
216A
330
2
100
AcDbEntity
  8
0
100
AcDbLine
 10
202.3624655455422
 20
153.967130650757
 30
0.0
 11
204.8624655455422
 21
152.5237549777829
 31
0.0
  0
LINE
  5
216B
330
2
100
AcDbEntity
  8
0
100
AcDbLine
 10
286.6027274601203
 20
146.080379304814
 30
0.0
 11
286.6027274601203
 21
87.08037930477672
 31
0.0
  0
LINE
  5
216C
330
2
100
AcDbEntity
  8
0
100
AcDbLine
 10
278.1027274601203
 20
142.5030290356042
 30
0.0
 11
278.1027274601203
 21
90.65772957398673
 31
0.0
  0
LINE
  5
216D
330
2
100
AcDbEntity
  8
0
100
AcDbLine
 10
282.6027274601258
 20
142.8803793047957
 30
0.0
 11
282.6027274601258
 21
90.28037930479497
 31
0.0
  0
LINE
  5
216E
330
2
100
AcDbEntity
  8
0
100
AcDbLine
 10
280.6027274601258
 20
142.8803793047962
 30
0.0
 11
280.6027274602049
 21
90.28037930479497
 31
0.0
  0
LINE
  5
216F
330
2
100
AcDbEntity
  8
0
100
AcDbLine
 10
286.1027274601212
 20
88.08037930480059
 30
0.0
 11
286.1027274601203
 21
145.0803793047897
 31
0.0
  0
LINE
  5
2170
330
2
100
AcDbEntity
  8
0
100
AcDbLine
 10
279.1027274601258
 20
143.080379304796
 30
0.0
 11
279.1027274601258
 21
90.08037930479446
 31
0.0
  0
LINE
  5
2171
330
2
100
AcDbEntity
  8
0
100
AcDbLine
 10
282.8027274601256
 20
90.08037930479492
 30
0.0
 11
282.8027274601256
 21
143.0803793047956
 31
0.0
  0
LINE
  5
2172
330
2
100
AcDbEntity
  8
0
100
AcDbLine
 10
290.1027274601231
 20
76.58037930479537
 30
0.0
 11
290.1027274601231
 21
156.5803793047953
 31
0.0
  0
LINE
  5
2173
330
2
100
AcDbEntity
  8
0
100
AcDbLine
 10
288.602727460124
 20
87.08037930477672
 30
0.0
 11
283.0027274601236
 21
87.08037930477672
 31
0.0
  0
LINE
  5
2174
330
2
100
AcDbEntity
  8
HIDS
100
AcDbLine
 10
289.5169410224955
 20
80.16616574242272
 30
0.0
 11
287.1885138977488
 21
82.49459286716803
 31
0.0
  0
LINE
  5
2175
330
2
100
AcDbEntity
  8
CENTER
100
AcDbLine
 10
277.6027274601231
 20
82.08037930477672
 30
0.0
 11
302.6654742042694
 21
82.08037930477672
 31
0.0
  0
LINE
  5
2176
330
2
100
AcDbEntity
  8
0
100
AcDbLine
 10
288.602727460124
 20
77.08037930477672
 30
0.0
 11
283.0027274601236
 21
77.08037930477672
 31
0.0
  0
LINE
  5
2177
330
2
100
AcDbEntity
  8
0
100
AcDbLine
 10
279.1027274601258
 20
90.08037930479446
 30
0.0
 11
280.4027274601251
 21
90.08037930479469
 31
0.0
  0
LINE
  5
2178
330
2
100
AcDbEntity
  8
0
100
AcDbLine
 10
282.6027274601258
 20
90.28037930479497
 30
0.0
 11
282.8027274601256
 21
90.08037930479492
 31
0.0
  0
LINE
  5
2179
330
2
100
AcDbEntity
  8
0
100
AcDbLine
 10
280.8027274601256
 20
90.78037930479451
 30
0.0
 11
282.4027274601251
 21
90.78037930479496
 31
0.0
  0
LINE
  5
217A
330
2
100
AcDbEntity
  8
0
100
AcDbLine
 10
279.1027274601258
 20
90.08037930479446
 30
0.0
 11
278.1027274601258
 21
90.65772957398399
 31
0.0
  0
LINE
  5
217B
330
2
100
AcDbEntity
  8
0
100
AcDbLine
 10
286.1027274601212
 20
88.08037930480059
 30
0.0
 11
286.6027274601258
 21
87.58037930479559
 31
0.0
  0
LINE
  5
217C
330
2
100
AcDbEntity
  8
0
100
AcDbLine
 10
282.8027274601256
 20
90.08037930479492
 30
0.0
 11
286.1027274601258
 21
90.08037930479536
 31
0.0
  0
ARC
  5
217D
330
2
100
AcDbEntity
  8
0
100
AcDbCircle
 10
280.4027274601251
 20
90.28037930479451
 30
0.0
 40
0.2
100
AcDbArc
 50
270.0
 51
0.0000000001042204
  0
ARC
  5
217E
330
2
100
AcDbEntity
  8
0
100
AcDbCircle
 10
280.8027274601265
 20
90.5803793047947
 30
0.0
 40
0.2
100
AcDbArc
 50
90.0
 51
179.9999999998697
  0
ARC
  5
217F
330
2
100
AcDbEntity
  8
0
100
AcDbCircle
 10
282.4027274601251
 20
90.5803793047947
 30
0.0
 40
0.2
100
AcDbArc
 50
0.0
 51
90.0
  0
LINE
  5
2180
330
2
100
AcDbEntity
  8
0
100
AcDbLine
 10
283.0027274601236
 20
87.08037930477672
 30
0.0
 11
282.602727460124
 21
86.38755898174901
 31
0.0
  0
ARC
  5
2181
330
2
100
AcDbEntity
  8
HIDS
100
AcDbCircle
 10
288.6027274601203
 20
83.90880642954181
 30
0.0
 40
2.0
100
AcDbArc
 50
180.0
 51
225.0000000000598
  0
LINE
  5
2182
330
2
100
AcDbEntity
  8
0
100
AcDbLine
 10
283.0027274601236
 20
77.08037930477672
 30
0.0
 11
282.602727460124
 21
77.77319962780445
 31
0.0
  0
LINE
  5
2183
330
2
100
AcDbEntity
  8
0
100
AcDbLine
 10
280.1027274601222
 20
80.51977548369956
 30
0.0
 11
280.1027274601222
 21
90.08037930479446
 31
0.0
  0
LINE
  5
2184
330
2
100
AcDbEntity
  8
0
100
AcDbLine
 10
282.602727460124
 20
77.77319962780445
 30
0.0
 11
282.602727460123
 21
86.38755898174901
 31
0.0
  0
LINE
  5
2185
330
2
100
AcDbEntity
  8
0
100
AcDbLine
 10
283.0027274601236
 20
77.08037930477672
 30
0.0
 11
283.0027274601236
 21
87.08037930477672
 31
0.0
  0
LINE
  5
2186
330
2
100
AcDbEntity
  8
HIDS
100
AcDbLine
 10
286.6027274601203
 20
87.08037930477672
 30
0.0
 11
286.6027274601203
 21
83.90880642954181
 31
0.0
  0
LINE
  5
2187
330
2
100
AcDbEntity
  8
0
100
AcDbLine
 10
297.6027274601203
 20
98.2883441389111
 30
0.0
 11
291.102727460123
 21
98.2883441389111
 31
0.0
  0
LINE
  5
2188
330
2
100
AcDbEntity
  8
0
100
AcDbLine
 10
288.602727460123
 20
87.08037930477672
 30
0.0
 11
290.1027274601231
 21
87.08037930477672
 31
0.0
  0
ARC
  5
2189
330
2
100
AcDbEntity
  8
HIDS
100
AcDbCircle
 10
288.1027274601231
 20
78.75195218004916
 30
0.0
 40
2.0
100
AcDbArc
 50
0.0
 51
45.00000000005988
  0
LINE
  5
218A
330
2
100
AcDbEntity
  8
0
100
AcDbLine
 10
297.6027274601203
 20
80.58037930477537
 30
0.0
 11
291.102727460123
 21
80.58037930477537
 31
0.0
  0
LINE
  5
218B
330
2
100
AcDbEntity
  8
0
100
AcDbLine
 10
297.6027274601203
 20
83.58037930477513
 30
0.0
 11
291.102727460123
 21
83.58037930477513
 31
0.0
  0
LINE
  5
218C
330
2
100
AcDbEntity
  8
0
100
AcDbLine
 10
288.602727460123
 20
77.08037930477672
 30
0.0
 11
290.1027274601231
 21
77.08037930477672
 31
0.0
  0
LINE
  5
218D
330
2
100
AcDbEntity
  8
0
100
AcDbLine
 10
288.602727460124
 20
77.08037930477672
 30
0.0
 11
288.602727460124
 21
87.08037930477649
 31
0.0
  0
LINE
  5
218E
330
2
100
AcDbEntity
  8
HIDS
100
AcDbLine
 10
289.5169410224955
 20
152.9945928671677
 30
0.0
 11
287.1885138977479
 21
150.6661657424227
 31
0.0
  0
LINE
  5
218F
330
2
100
AcDbEntity
  8
CENTER
100
AcDbLine
 10
277.6027274601231
 20
151.080379304814
 30
0.0
 11
302.6654742042694
 21
151.080379304814
 31
0.0
  0
LINE
  5
2190
330
2
100
AcDbEntity
  8
0
100
AcDbLine
 10
288.602727460124
 20
146.080379304814
 30
0.0
 11
283.0027274601236
 21
146.080379304814
 31
0.0
  0
LINE
  5
2191
330
2
100
AcDbEntity
  8
0
100
AcDbLine
 10
288.602727460124
 20
156.080379304814
 30
0.0
 11
283.0027274601236
 21
156.080379304814
 31
0.0
  0
LINE
  5
2192
330
2
100
AcDbEntity
  8
0
100
AcDbLine
 10
285.0417563840376
 20
157.6406113648268
 30
0.0
 11
321.1027274601221
 21
158.0803793047794
 31
0.0
  0
LINE
  5
2193
330
2
100
AcDbEntity
  8
0
100
AcDbLine
 10
280.1027274601222
 20
143.0803793047958
 30
0.0
 11
280.1027274601222
 21
152.6409831258593
 31
0.0
  0
LINE
  5
2194
330
2
100
AcDbEntity
  8
0
100
AcDbLine
 10
279.1027274601258
 20
143.080379304796
 30
0.0
 11
278.1027274601258
 21
142.5030290356065
 31
0.0
  0
LINE
  5
2195
330
2
100
AcDbEntity
  8
0
100
AcDbLine
 10
280.8027274601256
 20
142.380379304796
 30
0.0
 11
282.4027274601251
 21
142.3803793047957
 31
0.0
  0
LINE
  5
2196
330
2
100
AcDbEntity
  8
0
100
AcDbLine
 10
282.6027274601258
 20
142.8803793047957
 30
0.0
 11
282.8027274601256
 21
143.0803793047956
 31
0.0
  0
LINE
  5
2197
330
2
100
AcDbEntity
  8
0
100
AcDbLine
 10
279.1027274601258
 20
143.080379304796
 30
0.0
 11
280.4027274601251
 21
143.0803793047958
 31
0.0
  0
LINE
  5
2198
330
2
100
AcDbEntity
  8
0
100
AcDbLine
 10
286.1027274601258
 20
145.0803793047951
 30
0.0
 11
286.1027274601258
 21
143.0803793047951
 31
0.0
  0
LINE
  5
2199
330
2
100
AcDbEntity
  8
0
100
AcDbLine
 10
286.1027274601258
 20
145.0803793047951
 30
0.0
 11
286.6027274601258
 21
145.5803793047951
 31
0.0
  0
LINE
  5
219A
330
2
100
AcDbEntity
  8
0
100
AcDbLine
 10
282.8027274601256
 20
143.0803793047956
 30
0.0
 11
286.1027274601258
 21
143.0803793047951
 31
0.0
  0
ARC
  5
219B
330
2
100
AcDbEntity
  8
HIDS
100
AcDbCircle
 10
288.6027274601203
 20
149.2519521800489
 30
0.0
 40
2.0
100
AcDbArc
 50
134.9999999999401
 51
180.0
  0
ARC
  5
219C
330
2
100
AcDbEntity
  8
0
100
AcDbCircle
 10
280.4027274601251
 20
142.8803793047957
 30
0.0
 40
0.2
100
AcDbArc
 50
0.0000000001302755
 51
90.0
  0
ARC
  5
219D
330
2
100
AcDbEntity
  8
0
100
AcDbCircle
 10
280.8027274601256
 20
142.580379304796
 30
0.0
 40
0.2
100
AcDbArc
 50
180.0000000001302
 51
270.0
  0
ARC
  5
219E
330
2
100
AcDbEntity
  8
0
100
AcDbCircle
 10
282.4027274601251
 20
142.5803793047956
 30
0.0
 40
0.2
100
AcDbArc
 50
270.0
 51
0.0
  0
LINE
  5
219F
330
2
100
AcDbEntity
  8
0
100
AcDbLine
 10
282.602727460124
 20
155.3875589817863
 30
0.0
 11
282.602727460123
 21
146.7731996278417
 31
0.0
  0
LINE
  5
21A0
330
2
100
AcDbEntity
  8
0
100
AcDbLine
 10
283.0027274601236
 20
156.080379304814
 30
0.0
 11
283.0027274601236
 21
146.080379304814
 31
0.0
  0
LINE
  5
21A1
330
2
100
AcDbEntity
  8
0
100
AcDbLine
 10
283.0027274601236
 20
156.080379304814
 30
0.0
 11
282.602727460124
 21
155.3875589817863
 31
0.0
  0
LINE
  5
21A2
330
2
100
AcDbEntity
  8
0
100
AcDbLine
 10
283.0027274601236
 20
146.080379304814
 30
0.0
 11
282.602727460124
 21
146.7731996278417
 31
0.0
  0
LINE
  5
21A3
330
2
100
AcDbEntity
  8
HIDS
100
AcDbLine
 10
286.6027274601203
 20
146.080379304814
 30
0.0
 11
286.6027274601203
 21
149.2519521800489
 31
0.0
  0
LINE
  5
21A4
330
2
100
AcDbEntity
  8
0
100
AcDbLine
 10
297.6027274601213
 20
157.5803793047951
 30
0.0
 11
291.102727460123
 21
157.5803793047951
 31
0.0
  0
ARC
  5
21A5
330
2
100
AcDbEntity
  8
0
100
AcDbCircle
 10
291.102727460123
 20
156.5803793047951
 30
0.0
 40
1.0
100
AcDbArc
 50
90.0
 51
180.0
  0
ARC
  5
21A6
330
2
100
AcDbEntity
  8
HIDS
100
AcDbCircle
 10
288.1027274601231
 20
154.4088064295415
 30
0.0
 40
2.0
100
AcDbArc
 50
314.99999999994
 51
0.0
  0
LINE
  5
21A7
330
2
100
AcDbEntity
  8
0
100
AcDbLine
 10
297.6027274601203
 20
152.5803793048153
 30
0.0
 11
291.102727460123
 21
152.5803793048153
 31
0.0
  0
LINE
  5
21A8
330
2
100
AcDbEntity
  8
0
100
AcDbLine
 10
297.6027274601203
 20
149.5803793048156
 30
0.0
 11
291.102727460123
 21
149.5803793048156
 31
0.0
  0
LINE
  5
21A9
330
2
100
AcDbEntity
  8
0
100
AcDbLine
 10
297.6027274601203
 20
134.8724144706796
 30
0.0
 11
291.102727460123
 21
134.8724144706796
 31
0.0
  0
LINE
  5
21AA
330
2
100
AcDbEntity
  8
0
100
AcDbLine
 10
288.602727460124
 20
156.080379304814
 30
0.0
 11
288.602727460124
 21
146.0803793048142
 31
0.0
  0
LINE
  5
21AB
330
2
100
AcDbEntity
  8
0
100
AcDbLine
 10
288.602727460123
 20
156.080379304814
 30
0.0
 11
290.1027274601231
 21
156.080379304814
 31
0.0
  0
LINE
  5
21AC
330
2
100
AcDbEntity
  8
0
100
AcDbLine
 10
288.602727460123
 20
146.080379304814
 30
0.0
 11
290.1027274601231
 21
146.080379304814
 31
0.0
  0
LINE
  5
21B4
330
2
100
AcDbEntity
  8
0
100
AcDbLine
 10
382.1027274601222
 20
90.51175685441519
 30
0.0
 11
382.102727460124
 21
142.6490017551855
 31
0.0
  0
LINE
  5
21B7
330
2
100
AcDbEntity
  8
0
100
AcDbLine
 10
369.102727460124
 20
81.58037930480038
 30
0.0
 11
369.102727460124
 21
151.5803793048003
 31
0.0
  0
ARC
  5
21B8
330
2
100
AcDbEntity
  8
0
100
AcDbCircle
 10
380.102727460124
 20
90.51175685441519
 30
0.0
 40
2.0
100
AcDbArc
 50
272.0000000000035
 51
0.0
  0
ARC
  5
21BD
330
2
100
AcDbEntity
  8
0
100
AcDbCircle
 10
371.102727460124
 20
86.19503175179449
 30
0.0
 40
2.0
100
AcDbArc
 50
92.00000000000361
 51
180.0
  0
LINE
  5
21BE
330
2
100
AcDbEntity
  8
0
100
AcDbLine
 10
371.0329284667189
 20
88.19381340583237
 30
0.0
 11
380.1725264535282
 21
88.51297520037638
 31
0.0
  0
LINE
  5
21BF
330
2
100
AcDbEntity
  8
0
100
AcDbLine
 10
364.102727460124
 20
81.58037930480038
 30
0.0
 11
369.102727460124
 21
81.58037930480038
 31
0.0
  0
ARC
  5
21C0
330
2
100
AcDbEntity
  8
0
100
AcDbCircle
 10
380.102727460124
 20
142.6490017551855
 30
0.0
 40
2.0
100
AcDbArc
 50
0.0
 51
87.9999999999964
  0
ARC
  5
21C5
330
2
100
AcDbEntity
  8
0
100
AcDbCircle
 10
371.102727460124
 20
146.965726857808
 30
0.0
 40
2.0
100
AcDbArc
 50
180.0
 51
267.9999999999963
  0
ARC
  5
21C6
330
2
100
AcDbEntity
  8
0
100
AcDbCircle
 10
357.1027274601222
 20
152.6409831258575
 30
0.0
 40
5.0
100
AcDbArc
 50
61.52143850501121
 51
89.30130561700023
  0
LINE
  5
21C7
330
2
100
AcDbEntity
  8
0
100
AcDbLine
 10
364.102727460124
 20
151.5803793048003
 30
0.0
 11
369.102727460124
 21
151.5803793048003
 31
0.0
  0
LINE
  5
21C8
330
2
100
AcDbEntity
  8
0
100
AcDbLine
 10
371.0329284667189
 20
144.9669452037692
 30
0.0
 11
380.1725264535291
 21
144.6477834092243
 31
0.0
  0
ARC
  5
21CD
330
2
100
AcDbEntity
  8
0
100
AcDbCircle
 10
666.9984174506964
 20
77.58037930481794
 30
0.0
 40
2.0
100
AcDbArc
 50
180.0
 51
270.0
  0
ARC
  5
21CE
330
2
100
AcDbEntity
  8
0
100
AcDbCircle
 10
666.9984174506964
 20
77.08037930481793
 30
0.0
 40
2.0
100
AcDbArc
 50
180.0
 51
270.0
  0
ARC
  5
21CF
330
2
100
AcDbEntity
  8
0
100
AcDbCircle
 10
627.9984174506965
 20
80.58037930481793
 30
0.0
 40
5.0
100
AcDbArc
 50
270.0
 51
0.0
  0
ARC
  5
21D0
330
2
100
AcDbEntity
  8
0
100
AcDbCircle
 10
614.5944608908814
 20
36.79958799285805
 30
0.0
 40
40.0
100
AcDbArc
 50
76.63232579737094
 51
96.17699640483843
  0
ARC
  5
21D1
330
2
100
AcDbEntity
  8
0
100
AcDbCircle
 10
591.9984174506919
 20
245.5803793048202
 30
0.0
 40
170.0
100
AcDbArc
 50
263.823003595109
 51
276.1769964048909
  0
ARC
  5
21D2
330
2
100
AcDbEntity
  8
0
100
AcDbCircle
 10
555.9984174506955
 20
80.58037930481793
 30
0.0
 40
5.0
100
AcDbArc
 50
180.0
 51
270.0
  0
ARC
  5
21D3
330
2
100
AcDbEntity
  8
0
100
AcDbCircle
 10
569.4023740105023
 20
36.79958799285827
 30
0.0
 40
40.0
100
AcDbArc
 50
83.82300359510905
 51
103.367674202629
  0
LINE
  5
21D4
330
2
100
AcDbEntity
  8
CENTER
100
AcDbLine
 10
636.5461446654474
 20
161.1281065195716
 30
0.0
 11
547.4506902359419
 21
72.03265209006668
 31
0.0
  0
LINE
  5
21D5
330
2
100
AcDbEntity
  8
CENTER
100
AcDbLine
 10
546.7723379841193
 20
161.8064587713936
 30
0.0
 11
637.22449691727
 21
71.35429983824224
 31
0.0
  0
CIRCLE
  5
21D6
330
2
100
AcDbEntity
  8
CENTER
100
AcDbCircle
 10
591.9984174506955
 20
116.5803793048183
 30
0.0
 40
48.99999999999932
  0
LINE
  5
21D7
330
2
100
AcDbEntity
  8
CENTER
100
AcDbLine
 10
557.3501851725543
 20
88.93214702667718
 30
0.0
 11
557.3501851725543
 21
74.93214702667717
 31
0.0
  0
LINE
  5
21D8
330
2
100
AcDbEntity
  8
CENTER
100
AcDbLine
 10
626.6466497288368
 20
88.93214702667718
 30
0.0
 11
626.6466497288368
 21
74.93214702667717
 31
0.0
  0
LINE
  5
21DA
330
2
100
AcDbEntity
  8
CENTER
100
AcDbLine
 10
591.9984174507014
 20
175.5803793048177
 30
0.0
 11
591.998417450701
 21
57.58037930481908
 31
0.0
  0
LINE
  5
21DC
330
2
100
AcDbEntity
  8
0
100
AcDbLine
 10
555.9984174506919
 20
75.58037930481998
 30
0.0
 11
558.9984174506919
 21
75.58037930481998
 31
0.0
  0
ARC
  5
21DD
330
2
100
AcDbEntity
  8
0
100
AcDbCircle
 10
558.9984174506919
 20
80.58037930482067
 30
0.0
 40
5.0
100
AcDbArc
 50
270.0
 51
283.367674202629
  0
ARC
  5
21DE
330
2
100
AcDbEntity
  8
0
100
AcDbCircle
 10
624.9984174506919
 20
80.5803793048202
 30
0.0
 40
5.0
100
AcDbArc
 50
256.6323257973709
 51
270.0
  0
LINE
  5
21DF
330
2
100
AcDbEntity
  8
0
100
AcDbLine
 10
624.9984174506919
 20
75.58037930481998
 30
0.0
 11
627.9984174506928
 21
75.58037930481998
 31
0.0
  0
LINE
  5
21E0
330
2
100
AcDbEntity
  8
0
100
AcDbLine
 10
676.9984174506937
 20
75.58037930481794
 30
0.0
 11
666.9984174506964
 21
75.58037930481794
 31
0.0
  0
LINE
  5
21E1
330
2
100
AcDbEntity
  8
0
100
AcDbLine
 10
676.9984174506937
 20
75.08037930481794
 30
0.0
 11
666.9984174506964
 21
75.08037930481794
 31
0.0
  0
LINE
  5
21E2
330
2
100
AcDbEntity
  8
CENTER
100
AcDbLine
 10
633.6466497288368
 20
151.2286115829596
 30
0.0
 11
619.6466497288367
 21
151.2286115829596
 31
0.0
  0
ARC
  5
21E3
330
2
100
AcDbEntity
  8
0
100
AcDbCircle
 10
614.5944608908832
 20
196.3611706167815
 30
0.0
 40
40.0
100
AcDbArc
 50
263.823003595109
 51
283.367674202629
  0
LINE
  5
21E5
330
2
100
AcDbEntity
  8
CENTER
100
AcDbLine
 10
633.6466497288368
 20
81.93214702668218
 30
0.0
 11
619.6466497288367
 21
81.93214702668218
 31
0.0
  0
CIRCLE
  5
21E6
330
2
100
AcDbEntity
  8
0
100
AcDbCircle
 10
591.9984174506955
 20
116.5803793048179
 30
0.0
 40
35.00000000000011
  0
LINE
  5
21E7
330
2
100
AcDbEntity
  8
CENTER
100
AcDbLine
 10
557.3501851725543
 20
158.2286115829587
 30
0.0
 11
557.3501851725543
 21
144.2286115829586
 31
0.0
  0
ARC
  5
21E8
330
2
100
AcDbEntity
  8
0
100
AcDbCircle
 10
555.9984174506955
 20
152.5803793048179
 30
0.0
 40
5.0
100
AcDbArc
 50
90.0
 51
180.0
  0
LINE
  5
21E9
330
2
100
AcDbEntity
  8
CENTER
100
AcDbLine
 10
564.3501851725552
 20
151.2286115829582
 30
0.0
 11
550.3501851725552
 21
151.2286115829582
 31
0.0
  0
ARC
  5
21EA
330
2
100
AcDbEntity
  8
0
100
AcDbCircle
 10
512.2176261387306
 20
139.1764227450102
 30
0.0
 40
40.0
100
AcDbArc
 50
353.8230035951353
 51
13.36767420262589
  0
ARC
  5
21EB
330
2
100
AcDbEntity
  8
0
100
AcDbCircle
 10
512.2176261387306
 20
93.98433586463069
 30
0.0
 40
40.0
100
AcDbArc
 50
346.6323257973741
 51
6.176996404864683
  0
LINE
  5
21EC
330
2
100
AcDbEntity
  8
CENTER
100
AcDbLine
 10
564.3501851725552
 20
81.93214702667876
 30
0.0
 11
550.3501851725552
 21
81.93214702667876
 31
0.0
  0
ARC
  5
21ED
330
2
100
AcDbEntity
  8
0
100
AcDbCircle
 10
720.9984174506928
 20
116.5803793048199
 30
0.0
 40
170.0
100
AcDbArc
 50
173.8230035951353
 51
186.1769964048647
  0
LINE
  5
21EE
330
2
100
AcDbEntity
  8
0
100
AcDbLine
 10
550.9984174506919
 20
83.58037930481998
 30
0.0
 11
550.9984174506919
 21
80.58037930481999
 31
0.0
  0
ARC
  5
21EF
330
2
100
AcDbEntity
  8
0
100
AcDbCircle
 10
555.9984174506928
 20
83.58037930481998
 30
0.0
 40
5.0
100
AcDbArc
 50
166.6323257973741
 51
180.0
  0
LINE
  5
21F0
330
2
100
AcDbEntity
  8
0
100
AcDbLine
 10
550.9984174506919
 20
152.5803793048197
 30
0.0
 11
550.9984174506919
 21
149.5803793048199
 31
0.0
  0
ARC
  5
21F1
330
2
100
AcDbEntity
  8
0
100
AcDbCircle
 10
555.9984174506928
 20
149.5803793048199
 30
0.0
 40
5.0
100
AcDbArc
 50
180.0
 51
193.3676742026259
  0
CIRCLE
  5
21F6
330
2
100
AcDbEntity
  8
0
100
AcDbCircle
 10
591.9984174506955
 20
116.5803793048179
 30
0.0
 40
23.0
  0
CIRCLE
  5
21F7
330
2
100
AcDbEntity
  8
0
100
AcDbCircle
 10
591.9984174506955
 20
116.5803793048179
 30
0.0
 40
27.99999999999875
  0
CIRCLE
  5
21F8
330
2
100
AcDbEntity
  8
HOJO
100
AcDbCircle
 10
557.3501851725552
 20
81.93214702667717
 30
0.0
 40
3.0
  0
CIRCLE
  5
21F9
330
2
100
AcDbEntity
  8
0
100
AcDbCircle
 10
557.3501851725552
 20
81.93214702667717
 30
0.0
 40
2.399999999999999
  0
LINE
  5
21FA
330
2
100
AcDbEntity
  8
0
100
AcDbLine
 10
590.8784339092519
 20
84.05225292721217
 30
0.0
 11
591.2109333661694
 21
84.05225292721217
 31
0.0
  0
LINE
  5
21FB
330
2
100
AcDbEntity
  8
0
100
AcDbLine
 10
591.2109333661694
 20
84.71725184104764
 30
0.0
 11
591.2109333661694
 21
84.05225292721217
 31
0.0
  0
LINE
  5
21FC
330
2
100
AcDbEntity
  8
0
100
AcDbLine
 10
591.2109333661694
 20
84.71725184104764
 30
0.0
 11
590.8784339092519
 21
84.05225292721217
 31
0.0
  0
LINE
  5
21FD
330
2
100
AcDbEntity
  8
0
100
AcDbLine
 10
592.2609015336659
 20
84.71725292720988
 30
0.0
 11
593.3765583661617
 21
84.71725292720988
 31
0.0
  0
LINE
  5
21FE
330
2
100
AcDbEntity
  8
0
100
AcDbLine
 10
592.4096833661653
 20
84.56850292721027
 30
0.0
 11
593.3765583661617
 21
84.56850292721027
 31
0.0
  0
ARC
  5
21FF
330
2
100
AcDbEntity
  8
0
100
AcDbCircle
 10
593.3765583661617
 20
84.64287792720995
 30
0.0
 40
0.0743749999997391
100
AcDbArc
 50
270.0
 51
90.0
  0
LINE
  5
2200
330
2
100
AcDbEntity
  8
0
100
AcDbLine
 10
590.5459333661722
 20
85.90725292720561
 30
0.0
 11
593.4509015336618
 21
85.90725292720561
 31
0.0
  0
LINE
  5
2201
330
2
100
AcDbEntity
  8
0
100
AcDbLine
 10
588.7959333661785
 20
82.40725292721789
 30
0.0
 11
590.0559339092544
 21
82.40725292721789
 31
0.0
  0
LINE
  5
2202
330
2
100
AcDbEntity
  8
0
100
AcDbLine
 10
594.1756401372597
 20
83.77340232650784
 30
0.0
 11
595.0449827721915
 21
82.40725292721789
 31
0.0
  0
LINE
  5
2203
330
2
100
AcDbEntity
  8
0
100
AcDbLine
 10
593.7849822291156
 20
82.40725292721789
 30
0.0
 11
595.0449827721915
 21
82.40725292721789
 31
0.0
  0
LINE
  5
2204
330
2
100
AcDbEntity
  8
0
100
AcDbLine
 10
591.2109333661694
 20
82.40725292721789
 30
0.0
 11
592.2609015336659
 21
82.40725292721789
 31
0.0
  0
LINE
  5
2205
330
2
100
AcDbEntity
  8
0
100
AcDbLine
 10
590.3184339092534
 20
82.93225292721615
 30
0.0
 11
590.0559339092544
 21
82.40725292721789
 31
0.0
  0
LINE
  5
2206
330
2
100
AcDbEntity
  8
0
100
AcDbLine
 10
590.3184339092534
 20
82.93225292721615
 30
0.0
 11
591.2109333661694
 21
82.93225292721615
 31
0.0
  0
LINE
  5
2207
330
2
100
AcDbEntity
  8
0
100
AcDbLine
 10
591.2109333661694
 20
82.93225292721615
 30
0.0
 11
591.2109333661694
 21
82.40725292721789
 31
0.0
  0
LINE
  5
2208
330
2
100
AcDbEntity
  8
0
100
AcDbLine
 10
590.5459333661722
 20
85.90725292720561
 30
0.0
 11
588.7959333661785
 21
82.40725292721789
 31
0.0
  0
ARC
  5
2209
330
2
100
AcDbEntity
  8
0
100
AcDbCircle
 10
593.4509015336618
 20
84.71725292720988
 30
0.0
 40
1.189999999995825
100
AcDbArc
 50
307.5189678668038
 51
90.0
  0
LINE
  5
220A
330
2
100
AcDbEntity
  8
0
100
AcDbLine
 10
592.4096833661653
 20
84.56850292721027
 30
0.0
 11
593.7849822291156
 21
82.40725292721789
 31
0.0
  0
LINE
  5
220B
330
2
100
AcDbEntity
  8
0
100
AcDbLine
 10
592.2609015336659
 20
84.71725292720988
 30
0.0
 11
592.2609015336659
 21
82.40725292721789
 31
0.0
  0
ARC
  5
220C
330
2
100
AcDbEntity
  8
0
100
AcDbCircle
 10
591.9984174506919
 20
-12.41962069518035
 30
0.0
 40
170.0
100
AcDbArc
 50
83.82300359510905
 51
96.17699640483843
  0
CIRCLE
  5
220D
330
2
100
AcDbEntity
  8
0
100
AcDbCircle
 10
557.3501851725552
 20
151.2286115829587
 30
0.0
 40
2.399999999999999
  0
CIRCLE
  5
220E
330
2
100
AcDbEntity
  8
HOJO
100
AcDbCircle
 10
557.3501851725552
 20
151.2286115829587
 30
0.0
 40
3.0
  0
ARC
  5
220F
330
2
100
AcDbEntity
  8
0
100
AcDbCircle
 10
558.9984174506919
 20
152.5803793048197
 30
0.0
 40
5.0
100
AcDbArc
 50
76.63232579737094
 51
90.0
  0
LINE
  5
2210
330
2
100
AcDbEntity
  8
0
100
AcDbLine
 10
555.9984174506919
 20
157.5803793048197
 30
0.0
 11
558.9984174506919
 21
157.5803793048197
 31
0.0
  0
ARC
  5
2211
330
2
100
AcDbEntity
  8
0
100
AcDbCircle
 10
569.4023740105023
 20
196.361170616782
 30
0.0
 40
40.0
100
AcDbArc
 50
256.6323257973709
 51
276.1769964048909
  0
ARC
  5
2212
330
2
100
AcDbEntity
  8
0
100
AcDbCircle
 10
666.9984174506937
 20
156.0803793048179
 30
0.0
 40
2.0
100
AcDbArc
 50
90.0
 51
180.0
  0
LINE
  5
2213
330
2
100
AcDbEntity
  8
CENTER
100
AcDbLine
 10
626.6466497288349
 20
158.2286115829587
 30
0.0
 11
626.6466497288349
 21
144.2286115829586
 31
0.0
  0
ARC
  5
2214
330
2
100
AcDbEntity
  8
0
100
AcDbCircle
 10
627.9984174506956
 20
152.5803793048179
 30
0.0
 40
5.0
100
AcDbArc
 50
0.0
 51
90.0
  0
LINE
  5
2215
330
2
100
AcDbEntity
  8
0
100
AcDbLine
 10
652.4984174507038
 20
147.5803793047019
 30
0.0
 11
652.4984174507028
 21
85.58037930493616
 31
0.0
  0
LINE
  5
2216
330
2
100
AcDbEntity
  8
0
100
AcDbLine
 10
632.9984174506956
 20
152.5803793048179
 30
0.0
 11
632.9984174506956
 21
80.58037930481793
 31
0.0
  0
LINE
  5
2217
330
2
100
AcDbEntity
  8
0
100
AcDbLine
 10
664.9984174506937
 20
156.0803793048179
 30
0.0
 11
664.9984174506965
 21
77.08037930481793
 31
0.0
  0
LINE
  5
2218
330
2
100
AcDbEntity
  8
0
100
AcDbLine
 10
659.9984174506937
 20
83.58037930493503
 30
0.0
 11
654.4984174506992
 21
83.58037930493503
 31
0.0
  0
ARC
  5
2219
330
2
100
AcDbEntity
  8
0
100
AcDbCircle
 10
647.4984174507037
 20
85.58037930493616
 30
0.0
 40
5.0
100
AcDbArc
 50
0.0
 51
90.0
  0
ARC
  5
221A
330
2
100
AcDbEntity
  8
0
100
AcDbCircle
 10
649.4984174507028
 20
111.0803793048183
 30
0.0
 40
3.0
100
AcDbArc
 50
0.0
 51
90.0
  0
ARC
  5
221B
330
2
100
AcDbEntity
  8
0
100
AcDbCircle
 10
651.4984174506946
 20
81.58037930481658
 30
0.0
 40
3.0
100
AcDbArc
 50
53.13010235412992
 51
90.0
  0
ARC
  5
221C
330
2
100
AcDbEntity
  8
0
100
AcDbCircle
 10
637.9984174506955
 20
85.58037930493616
 30
0.0
 40
5.0
100
AcDbArc
 50
90.0
 51
180.0
  0
ARC
  5
221D
330
2
100
AcDbEntity
  8
0
100
AcDbCircle
 10
635.9984174506955
 20
111.0803793048188
 30
0.0
 40
3.0
100
AcDbArc
 50
90.0
 51
180.0
  0
LINE
  5
221E
330
2
100
AcDbEntity
  8
0
100
AcDbLine
 10
647.4984174507037
 20
90.58037930493616
 30
0.0
 11
637.9984174506955
 21
90.58037930493616
 31
0.0
  0
LINE
  5
221F
330
2
100
AcDbEntity
  8
0
100
AcDbLine
 10
635.9984174506955
 20
114.0803793048188
 30
0.0
 11
649.4984174507028
 21
114.0803793048184
 31
0.0
  0
LINE
  5
2220
330
2
100
AcDbEntity
  8
0
100
AcDbLine
 10
635.9984174506955
 20
84.58037930481657
 30
0.0
 11
651.4984174506946
 21
84.58037930481657
 31
0.0
  0
CIRCLE
  5
2221
330
2
100
AcDbEntity
  8
HOJO
100
AcDbCircle
 10
626.6466497288368
 20
81.93214702667717
 30
0.0
 40
3.0
  0
CIRCLE
  5
2222
330
2
100
AcDbEntity
  8
0
100
AcDbCircle
 10
626.6466497288368
 20
81.93214702667717
 30
0.0
 40
2.399999999999999
  0
ARC
  5
2223
330
2
100
AcDbEntity
  8
0
100
AcDbCircle
 10
654.4984174506992
 20
85.58037930493616
 30
0.0
 40
2.0
100
AcDbArc
 50
180.0
 51
270.0
  0
ARC
  5
2224
330
2
100
AcDbEntity
  8
0
100
AcDbCircle
 10
635.9984174506955
 20
81.58037930481658
 30
0.0
 40
3.0
100
AcDbArc
 50
90.0
 51
180.0
  0
ARC
  5
2225
330
2
100
AcDbEntity
  8
0
100
AcDbCircle
 10
659.9984174506937
 20
78.58037930493503
 30
0.0
 40
5.0
100
AcDbArc
 50
0.0
 51
90.0
  0
LINE
  5
2226
330
2
100
AcDbEntity
  8
0
100
AcDbLine
 10
659.9984174506937
 20
149.5803793047006
 30
0.0
 11
654.4984174506992
 21
149.5803793047008
 31
0.0
  0
ARC
  5
2227
330
2
100
AcDbEntity
  8
0
100
AcDbCircle
 10
654.4984174506992
 20
147.5803793047017
 30
0.0
 40
2.0
100
AcDbArc
 50
90.0
 51
180.0
  0
ARC
  5
2228
330
2
100
AcDbEntity
  8
0
100
AcDbCircle
 10
647.4984174507055
 20
147.580379304701
 30
0.0
 40
5.0
100
AcDbArc
 50
270.0
 51
0.0
  0
ARC
  5
2229
330
2
100
AcDbEntity
  8
0
100
AcDbCircle
 10
651.4984174506946
 20
151.5803793048265
 30
0.0
 40
3.0
100
AcDbArc
 50
270.0
 51
306.86989764587
  0
ARC
  5
222A
330
2
100
AcDbEntity
  8
0
100
AcDbCircle
 10
649.4984174507037
 20
122.0803793048183
 30
0.0
 40
3.0
100
AcDbArc
 50
270.0
 51
0.0
  0
CIRCLE
  5
222B
330
2
100
AcDbEntity
  8
HOJO
100
AcDbCircle
 10
626.6466497288368
 20
151.2286115829587
 30
0.0
 40
3.0
  0
CIRCLE
  5
222C
330
2
100
AcDbEntity
  8
0
100
AcDbCircle
 10
626.6466497288368
 20
151.2286115829587
 30
0.0
 40
2.399999999999999
  0
ARC
  5
222D
330
2
100
AcDbEntity
  8
0
100
AcDbCircle
 10
624.9984174506919
 20
152.5803793048193
 30
0.0
 40
5.0
100
AcDbArc
 50
90.0
 51
103.367674202629
  0
LINE
  5
222E
330
2
100
AcDbEntity
  8
0
100
AcDbLine
 10
624.9984174506919
 20
157.5803793048197
 30
0.0
 11
627.9984174506919
 21
157.5803793048197
 31
0.0
  0
ARC
  5
222F
330
2
100
AcDbEntity
  8
0
100
AcDbCircle
 10
637.9984174506955
 20
147.5803793047017
 30
0.0
 40
5.0
100
AcDbArc
 50
180.0
 51
270.0
  0
ARC
  5
2230
330
2
100
AcDbEntity
  8
0
100
AcDbCircle
 10
635.9984174506955
 20
151.5803793048265
 30
0.0
 40
3.0
100
AcDbArc
 50
180.0
 51
270.0
  0
ARC
  5
2231
330
2
100
AcDbEntity
  8
0
100
AcDbCircle
 10
635.9984174506955
 20
122.0803793048183
 30
0.0
 40
3.0
100
AcDbArc
 50
180.0
 51
270.0
  0
LINE
  5
2232
330
2
100
AcDbEntity
  8
0
100
AcDbLine
 10
647.4984174507055
 20
142.580379304701
 30
0.0
 11
637.9984174506955
 21
142.5803793047017
 31
0.0
  0
LINE
  5
2233
330
2
100
AcDbEntity
  8
0
100
AcDbLine
 10
635.9984174506955
 20
119.0803793048184
 30
0.0
 11
649.4984174507037
 21
119.0803793048184
 31
0.0
  0
LINE
  5
2234
330
2
100
AcDbEntity
  8
0
100
AcDbLine
 10
635.9984174506955
 20
148.5803793048263
 30
0.0
 11
651.4984174506946
 21
148.5803793048263
 31
0.0
  0
ARC
  5
2235
330
2
100
AcDbEntity
  8
0
100
AcDbCircle
 10
659.9984174506937
 20
154.5803793047006
 30
0.0
 40
5.0
100
AcDbArc
 50
270.0
 51
0.0
  0
LINE
  5
2236
330
2
100
AcDbEntity
  8
0
100
AcDbLine
 10
666.9984174506937
 20
157.5803793048179
 30
0.0
 11
676.9984174506937
 21
157.5803793048179
 31
0.0
  0
ARC
  5
2237
330
2
100
AcDbEntity
  8
0
100
AcDbCircle
 10
666.9984174506937
 20
155.5803793048179
 30
0.0
 40
2.0
100
AcDbArc
 50
90.0
 51
180.0
  0
LINE
  5
2238
330
2
100
AcDbEntity
  8
0
100
AcDbLine
 10
666.9984174506937
 20
158.0803793048179
 30
0.0
 11
676.9984174506937
 21
158.0803793048179
 31
0.0
  0
LINE
  5
2277
330
2
100
AcDbEntity
  8
CENTER
100
AcDbLine
 10
591.9984174506906
 20
464.4776468282781
 30
0.0
 11
591.998417450691
 21
308.4776468309351
 31
0.0
  0
LINE
  5
2278
330
2
100
AcDbEntity
  8
0
100
AcDbLine
 10
550.9984174506901
 20
434.977646828277
 30
0.0
 11
632.58333605763
 21
434.9776468282795
 31
0.0
  0
LINE
  5
2279
330
2
100
AcDbEntity
  8
0
100
AcDbLine
 10
621.4984174507082
 20
445.9776468282781
 30
0.0
 11
562.4984174506719
 21
445.9776468282781
 31
0.0
  0
LINE
  5
227A
330
2
100
AcDbEntity
  8
0
100
AcDbLine
 10
552.0551801697167
 20
442.4776468282758
 30
0.0
 11
631.5316547316654
 21
442.477646828276
 31
0.0
  0
ARC
  5
227B
330
2
100
AcDbEntity
  8
0
100
AcDbCircle
 10
622.3837650036978
 20
361.4776468309435
 30
0.0
 40
2.0
100
AcDbArc
 50
90.0
 51
177.9999999999963
  0
LINE
  5
227C
330
2
100
AcDbEntity
  8
0
100
AcDbLine
 10
556.9984174506901
 20
363.4776468309444
 30
0.0
 11
626.9984174506901
 21
363.4776468309444
 31
0.0
  0
LINE
  5
227D
330
2
100
AcDbEntity
  8
0
100
AcDbLine
 10
551.5787541587526
 20
368.4776468309437
 30
0.0
 11
632.4131621356866
 21
368.4776468309423
 31
0.0
  0
LINE
  5
227F
330
2
100
AcDbEntity
  8
0
100
AcDbLine
 10
550.9984174506901
 20
434.977646828277
 30
0.0
 11
551.5787541587526
 21
368.4776468309437
 31
0.0
  0
LINE
  5
2280
330
2
100
AcDbEntity
  8
0
100
AcDbLine
 10
573.7063822847496
 20
434.4776468309436
 30
0.0
 11
573.7063822847496
 21
369.9776277924756
 31
0.0
  0
LINE
  5
2281
330
2
100
AcDbEntity
  8
0
100
AcDbLine
 10
558.998417450691
 20
434.4776468309436
 30
0.0
 11
558.998417450691
 21
369.9776277924756
 31
0.0
  0
LINE
  5
2282
330
2
100
AcDbEntity
  8
0
100
AcDbLine
 10
555.9984174506892
 20
434.4776468309436
 30
0.0
 11
555.9984174506892
 21
369.9776277924756
 31
0.0
  0
LINE
  5
2283
330
2
100
AcDbEntity
  8
0
100
AcDbLine
 10
610.2904526166305
 20
434.4776468309436
 30
0.0
 11
610.2904526166305
 21
369.9776277924756
 31
0.0
  0
LINE
  5
2288
330
2
100
AcDbEntity
  8
0
100
AcDbLine
 10
565.9297950003049
 20
350.4776468309457
 30
0.0
 11
618.0670399010753
 21
350.4776468309435
 31
0.0
  0
LINE
  5
228D
330
2
100
AcDbEntity
  8
0
100
AcDbLine
 10
563.6118515517221
 20
361.5474458243486
 30
0.0
 11
563.9310133462661
 21
352.407847837539
 31
0.0
  0
ARC
  5
228E
330
2
100
AcDbEntity
  8
0
100
AcDbCircle
 10
561.6130698976842
 20
361.4776468309435
 30
0.0
 40
2.0
100
AcDbArc
 50
2.000000000003612
 51
90.0
  0
LINE
  5
228F
330
2
100
AcDbEntity
  8
0
100
AcDbLine
 10
556.9984174506901
 20
368.4776468309437
 30
0.0
 11
556.9984174506901
 21
363.4776468309437
 31
0.0
  0
ARC
  5
2290
330
2
100
AcDbEntity
  8
0
100
AcDbCircle
 10
565.9297950003049
 20
352.4776468309437
 30
0.0
 40
2.0
100
AcDbArc
 50
182.0000000000036
 51
270.0
  0
LINE
  5
2291
330
2
100
AcDbEntity
  8
0
100
AcDbLine
 10
620.384983349659
 20
361.5474458243486
 30
0.0
 11
620.0658215551141
 21
352.4078478375386
 31
0.0
  0
ARC
  5
2296
330
2
100
AcDbEntity
  8
0
100
AcDbCircle
 10
618.0670399010753
 20
352.4776468309435
 30
0.0
 40
2.0
100
AcDbArc
 50
270.0
 51
357.9999999999964
  0
ARC
  5
2297
330
2
100
AcDbEntity
  8
0
100
AcDbCircle
 10
552.0551801697167
 20
441.4776468282759
 30
0.0
 40
1.0
100
AcDbArc
 50
90.0
 51
179.5000000000084
  0
LINE
  5
2298
330
2
100
AcDbEntity
  8
0
100
AcDbLine
 10
550.9984174506901
 20
434.9776468282781
 30
0.0
 11
551.0552182466519
 21
441.4863733637742
 31
0.0
  0
LINE
  5
2299
330
2
100
AcDbEntity
  8
0
100
AcDbLine
 10
617.9210671814983
 20
454.4776468282781
 30
0.0
 11
566.0757677198819
 21
454.4776468282781
 31
0.0
  0
LINE
  5
229A
330
2
100
AcDbEntity
  8
0
100
AcDbLine
 10
618.2984174506912
 20
449.9776468282735
 30
0.0
 11
565.698417450689
 21
449.9776468282735
 31
0.0
  0
LINE
  5
229B
330
2
100
AcDbEntity
  8
0
100
AcDbLine
 10
618.2984174506912
 20
451.9776468282735
 30
0.0
 11
565.698417450689
 21
451.9776468281939
 31
0.0
  0
LINE
  5
229C
330
2
100
AcDbEntity
  8
0
100
AcDbLine
 10
563.4984174506955
 20
446.4776468282776
 30
0.0
 11
620.4984174506846
 21
446.4776468282781
 31
0.0
  0
LINE
  5
229D
330
2
100
AcDbEntity
  8
0
100
AcDbLine
 10
618.4984174506901
 20
453.4776468282736
 30
0.0
 11
565.4984174506892
 21
453.4776468282731
 31
0.0
  0
LINE
  5
229E
330
2
100
AcDbEntity
  8
0
100
AcDbLine
 10
565.4984174506901
 20
449.7776468282733
 30
0.0
 11
618.4984174506901
 21
449.7776468282733
 31
0.0
  0
LINE
  5
229F
330
2
100
AcDbEntity
  8
0
100
AcDbLine
 10
573.7063822848051
 20
434.9776468282781
 30
0.0
 11
573.7063822848051
 21
442.4776468282758
 31
0.0
  0
LINE
  5
22A0
330
2
100
AcDbEntity
  8
0
100
AcDbLine
 10
565.4984174506892
 20
453.4776468282736
 30
0.0
 11
565.4984174506901
 21
452.1776468282738
 31
0.0
  0
LINE
  5
22A1
330
2
100
AcDbEntity
  8
0
100
AcDbLine
 10
565.698417450689
 20
449.9776468282735
 30
0.0
 11
565.4984174506901
 21
449.7776468282733
 31
0.0
  0
LINE
  5
22A2
330
2
100
AcDbEntity
  8
0
100
AcDbLine
 10
566.198417450689
 20
451.7776468282733
 30
0.0
 11
566.198417450689
 21
450.1776468282733
 31
0.0
  0
LINE
  5
22A3
330
2
100
AcDbEntity
  8
0
100
AcDbLine
 10
565.4984174506892
 20
453.4776468282731
 30
0.0
 11
566.0757677198782
 21
454.4776468282735
 31
0.0
  0
LINE
  5
22A4
330
2
100
AcDbEntity
  8
0
100
AcDbLine
 10
563.4984174506955
 20
446.4776468282776
 30
0.0
 11
562.99841745069
 21
445.9776468282727
 31
0.0
  0
LINE
  5
22A5
330
2
100
AcDbEntity
  8
0
100
AcDbLine
 10
565.4984174506901
 20
449.7776468282733
 30
0.0
 11
565.4984174506901
 21
446.4776468282731
 31
0.0
  0
LINE
  5
22A6
330
2
100
AcDbEntity
  8
HIDS
100
AcDbLine
 10
555.5842038883167
 20
443.0634332659034
 30
0.0
 11
557.9126310130634
 21
445.3918603906505
 31
0.0
  0
ARC
  5
22A7
330
2
100
AcDbEntity
  8
HIDS
100
AcDbCircle
 10
554.1699903259434
 20
444.4776468282758
 30
0.0
 40
2.0
100
AcDbArc
 50
270.0
 51
315.0000000000138
  0
ARC
  5
22A8
330
2
100
AcDbEntity
  8
HIDS
100
AcDbCircle
 10
559.3268445754367
 20
443.9776468282781
 30
0.0
 40
2.0
100
AcDbArc
 50
90.0
 51
135.0000000000138
  0
ARC
  5
22A9
330
2
100
AcDbEntity
  8
0
100
AcDbCircle
 10
565.698417450689
 20
452.1776468282734
 30
0.0
 40
0.2
100
AcDbArc
 50
180.0
 51
270.0000000001042
  0
ARC
  5
22AA
330
2
100
AcDbEntity
  8
0
100
AcDbCircle
 10
565.9984174506901
 20
451.7776468282728
 30
0.0
 40
0.2
100
AcDbArc
 50
0.0
 51
89.99999999984366
  0
ARC
  5
22AB
330
2
100
AcDbEntity
  8
0
100
AcDbCircle
 10
565.9984174506901
 20
450.1776468282733
 30
0.0
 40
0.2
100
AcDbArc
 50
270.0
 51
0.0
  0
LINE
  5
22AC
330
2
100
AcDbEntity
  8
0
100
AcDbLine
 10
562.4984174506719
 20
443.9776468282754
 30
0.0
 11
562.4984174506719
 21
449.5776468282753
 31
0.0
  0
LINE
  5
22AD
330
2
100
AcDbEntity
  8
0
100
AcDbLine
 10
552.4984174506719
 20
443.9776468282754
 30
0.0
 11
552.4984174506719
 21
449.5776468282753
 31
0.0
  0
LINE
  5
22AE
330
2
100
AcDbEntity
  8
0
100
AcDbLine
 10
552.4984174506719
 20
443.9776468282754
 30
0.0
 11
562.4984174506719
 21
443.9776468282754
 31
0.0
  0
LINE
  5
22AF
330
2
100
AcDbEntity
  8
0
100
AcDbLine
 10
553.1912377736992
 20
449.9776468282753
 30
0.0
 11
561.8055971276437
 21
449.9776468282759
 31
0.0
  0
LINE
  5
22B0
330
2
100
AcDbEntity
  8
0
100
AcDbLine
 10
552.4984174506719
 20
449.5776468282757
 30
0.0
 11
562.4984174506719
 21
449.5776468282753
 31
0.0
  0
LINE
  5
22B1
330
2
100
AcDbEntity
  8
0
100
AcDbLine
 10
552.4984174506719
 20
449.5776468282753
 30
0.0
 11
553.1912377736992
 21
449.9776468282753
 31
0.0
  0
LINE
  5
22B2
330
2
100
AcDbEntity
  8
0
100
AcDbLine
 10
562.4984174506719
 20
449.5776468282753
 30
0.0
 11
561.8055971276437
 21
449.9776468282753
 31
0.0
  0
LINE
  5
22B3
330
2
100
AcDbEntity
  8
0
100
AcDbLine
 10
552.4984174506719
 20
443.9776468282758
 30
0.0
 11
552.4984174506719
 21
442.4776468282758
 31
0.0
  0
LINE
  5
22B4
330
2
100
AcDbEntity
  8
0
100
AcDbLine
 10
562.4984174506719
 20
443.9776468282758
 30
0.0
 11
562.4984174506719
 21
442.4776468282758
 31
0.0
  0
LINE
  5
22B5
330
2
100
AcDbEntity
  8
HIDS
100
AcDbLine
 10
562.4984174506719
 20
445.9776468282781
 30
0.0
 11
559.3268445754367
 21
445.9776468282781
 31
0.0
  0
LINE
  5
22B6
330
2
100
AcDbEntity
  8
0
100
AcDbLine
 10
555.9984174506701
 20
434.9776468282781
 30
0.0
 11
555.9984174506701
 21
442.4776468282758
 31
0.0
  0
LINE
  5
22B7
330
2
100
AcDbEntity
  8
0
100
AcDbLine
 10
558.99841745067
 20
434.9776468282781
 30
0.0
 11
558.99841745067
 21
442.4776468282758
 31
0.0
  0
LINE
  5
22B8
330
2
100
AcDbEntity
  8
CENTER
100
AcDbLine
 10
557.4984174506719
 20
454.9776468282758
 30
0.0
 11
557.4984174506719
 21
429.9149000841294
 31
0.0
  0
LINE
  5
22B9
330
2
100
AcDbEntity
  8
0
100
AcDbLine
 10
618.4984174506901
 20
453.4776468282731
 30
0.0
 11
617.9210671815019
 21
454.4776468282735
 31
0.0
  0
LINE
  5
22BA
330
2
100
AcDbEntity
  8
0
100
AcDbLine
 10
617.7984174506912
 20
451.7776468282733
 30
0.0
 11
617.7984174506912
 21
450.1776468282733
 31
0.0
  0
LINE
  5
22BB
330
2
100
AcDbEntity
  8
0
100
AcDbLine
 10
618.2984174506912
 20
449.9776468282735
 30
0.0
 11
618.4984174506901
 21
449.7776468282733
 31
0.0
  0
LINE
  5
22BC
330
2
100
AcDbEntity
  8
0
100
AcDbLine
 10
618.4984174506901
 20
453.4776468282736
 30
0.0
 11
618.4984174506901
 21
452.1776468282738
 31
0.0
  0
LINE
  5
22BD
330
2
100
AcDbEntity
  8
0
100
AcDbLine
 10
620.49841745069
 20
446.4776468282731
 30
0.0
 11
618.4984174506901
 21
446.4776468282731
 31
0.0
  0
LINE
  5
22BE
330
2
100
AcDbEntity
  8
0
100
AcDbLine
 10
618.4984174506901
 20
449.7776468282733
 30
0.0
 11
618.4984174506901
 21
446.4776468282731
 31
0.0
  0
ARC
  5
22BF
330
2
100
AcDbEntity
  8
0
100
AcDbCircle
 10
618.2984174506912
 20
452.1776468282738
 30
0.0
 40
0.2
100
AcDbArc
 50
270.0000000001042
 51
359.9999999999739
  0
ARC
  5
22C0
330
2
100
AcDbEntity
  8
0
100
AcDbCircle
 10
617.9984174506901
 20
451.7776468282733
 30
0.0
 40
0.2
100
AcDbArc
 50
90.00000000010421
 51
179.9999999999739
  0
ARC
  5
22C1
330
2
100
AcDbEntity
  8
0
100
AcDbCircle
 10
617.9984174506901
 20
450.1776468282733
 30
0.0
 40
0.2
100
AcDbArc
 50
179.9999999999739
 51
270.0
  0
LINE
  5
22C2
330
2
100
AcDbEntity
  8
0
100
AcDbLine
 10
620.49841745069
 20
446.4776468282731
 30
0.0
 11
620.99841745069
 21
445.9776468282727
 31
0.0
  0
LINE
  5
22C3
330
2
100
AcDbEntity
  8
0
100
AcDbLine
 10
610.290452616575
 20
434.9776468282781
 30
0.0
 11
610.290452616575
 21
442.4776468282758
 31
0.0
  0
ARC
  5
22C4
330
2
100
AcDbEntity
  8
0
100
AcDbCircle
 10
659.9181457235292
 20
373.4776468309437
 30
0.0
 40
5.0
100
AcDbArc
 50
1.499999999989714
 51
90.0
  0
LINE
  5
22C6
330
2
100
AcDbEntity
  8
0
100
AcDbLine
 10
664.947416542582
 20
372.4252929343283
 30
0.0
 11
663.9247946663865
 21
411.4776468309437
 31
0.0
  0
ARC
  5
22C7
330
2
100
AcDbEntity
  8
0
100
AcDbCircle
 10
635.4830913131702
 20
376.4776468309437
 30
0.0
 40
3.0
100
AcDbArc
 50
90.0
 51
179.5000000000084
  0
LINE
  5
22C8
330
2
100
AcDbEntity
  8
0
100
AcDbLine
 10
632.4131621356866
 20
368.4776468309423
 30
0.0
 11
632.78841745069
 21
411.4776468309437
 31
0.0
  0
LINE
  5
22C9
330
2
100
AcDbEntity
  8
0
100
AcDbLine
 10
624.9984174506892
 20
411.4776468309437
 30
0.0
 11
624.9984174506892
 21
369.9776277924756
 31
0.0
  0
LINE
  5
22CA
330
2
100
AcDbEntity
  8
0
100
AcDbLine
 10
627.7889727898639
 20
434.9776468309435
 30
0.0
 11
627.7889727898639
 21
369.9776277924756
 31
0.0
  0
LINE
  5
22CB
330
2
100
AcDbEntity
  8
0
100
AcDbLine
 10
626.9984174506901
 20
368.4776468309437
 30
0.0
 11
626.9984174506901
 21
363.4776468309437
 31
0.0
  0
LINE
  5
22CC
330
2
100
AcDbEntity
  8
0
100
AcDbLine
 10
666.9467311925321
 20
370.4776468309437
 30
0.0
 11
676.9984174463209
 21
370.4776468309437
 31
0.0
  0
ARC
  5
22CD
330
2
100
AcDbEntity
  8
0
100
AcDbCircle
 10
666.9467311925321
 20
372.4776468309437
 30
0.0
 40
2.0
100
AcDbArc
 50
181.4999999999897
 51
270.0
  0
LINE
  5
22CE
330
2
100
AcDbEntity
  8
0
100
AcDbLine
 10
664.947416542582
 20
450.5300007275589
 30
0.0
 11
663.9247946663874
 21
411.4776468309437
 31
0.0
  0
LINE
  5
22CF
330
2
100
AcDbEntity
  8
0
100
AcDbLine
 10
652.4474165425811
 20
442.5300007275592
 30
0.0
 11
651.6342820389129
 21
411.4776468309437
 31
0.0
  0
LINE
  5
22D0
330
2
100
AcDbEntity
  8
0
100
AcDbLine
 10
625.0115104115441
 20
434.977646828279
 30
0.0
 11
625.6013791142952
 21
412.451469882636
 31
0.0
  0
LINE
  5
22D1
330
2
100
AcDbEntity
  8
0
100
AcDbLine
 10
632.58333605763
 20
434.9776468282792
 30
0.0
 11
632.78841745069
 21
411.4776468309437
 31
0.0
  0
LINE
  5
22D2
330
2
100
AcDbEntity
  8
0
100
AcDbLine
 10
654.4467311925321
 20
378.4776468309437
 30
0.0
 11
659.9181457235292
 21
378.4776468309437
 31
0.0
  0
ARC
  5
22D3
330
2
100
AcDbEntity
  8
0
100
AcDbCircle
 10
648.7772762300694
 20
416.9776468309436
 30
0.0
 40
3.0
100
AcDbArc
 50
270.0
 51
358.5000000000102
  0
ARC
  5
22D4
330
2
100
AcDbEntity
  8
0
100
AcDbCircle
 10
648.7772762301686
 20
405.9776468309437
 30
0.0
 40
3.0
100
AcDbArc
 50
1.499999999781174
 51
90.0
  0
ARC
  5
22D5
330
2
100
AcDbEntity
  8
0
100
AcDbCircle
 10
654.4467311925321
 20
380.4776468309437
 30
0.0
 40
2.0
100
AcDbArc
 50
181.5000000000418
 51
270.0
  0
ARC
  5
22D6
330
2
100
AcDbEntity
  8
0
100
AcDbCircle
 10
647.4443316450963
 20
380.4776468309437
 30
0.0
 40
5.0
100
AcDbArc
 50
1.500000000015761
 51
90.0
  0
ARC
  5
22D7
330
2
100
AcDbEntity
  8
0
100
AcDbCircle
 10
651.446731192532
 20
376.4776468309437
 30
0.0
 40
3.0
100
AcDbArc
 50
53.13010235412992
 51
90.0
  0
LINE
  5
22D8
330
2
100
AcDbEntity
  8
0
100
AcDbLine
 10
652.4474165425811
 20
380.4252929343279
 30
0.0
 11
651.6342820390339
 21
411.4776468309437
 31
0.0
  0
ARC
  5
22D9
330
2
100
AcDbEntity
  8
0
100
AcDbCircle
 10
635.7405339129984
 20
405.9776468309437
 30
0.0
 40
3.0
100
AcDbArc
 50
90.0
 51
179.5000000000084
  0
ARC
  5
22DA
330
2
100
AcDbEntity
  8
0
100
AcDbCircle
 10
626.6010364392707
 20
412.4776468309437
 30
0.0
 40
1.0
100
AcDbArc
 50
181.4999999999897
 51
270.0
  0
LINE
  5
22DB
330
2
100
AcDbEntity
  8
0
100
AcDbLine
 10
626.6010364392707
 20
411.4776468309437
 30
0.0
 11
632.78841745069
 21
411.4776468309437
 31
0.0
  0
ARC
  5
22DC
330
2
100
AcDbEntity
  8
0
100
AcDbCircle
 10
635.7405339129984
 20
416.9776468309434
 30
0.0
 40
3.0
100
AcDbArc
 50
180.4999999999915
 51
270.0
  0
ARC
  5
22DD
330
2
100
AcDbEntity
  8
0
100
AcDbCircle
 10
635.5354525199147
 20
382.4776468309437
 30
0.0
 40
3.0
100
AcDbArc
 50
90.0
 51
179.5000000000084
  0
LINE
  5
22DE
330
2
100
AcDbEntity
  8
0
100
AcDbLine
 10
635.5354525199147
 20
385.4776468309437
 30
0.0
 11
647.4443316450963
 21
385.4776468309437
 31
0.0
  0
LINE
  5
22DF
330
2
100
AcDbEntity
  8
0
100
AcDbLine
 10
635.4830913131702
 20
379.4776468309437
 30
0.0
 11
651.446731192532
 21
379.4776468309437
 31
0.0
  0
LINE
  5
22E0
330
2
100
AcDbEntity
  8
0
100
AcDbLine
 10
635.7405339129984
 20
413.9776468309435
 30
0.0
 11
648.7772762300694
 21
413.9776468309437
 31
0.0
  0
LINE
  5
22E1
330
2
100
AcDbEntity
  8
0
100
AcDbLine
 10
635.7405339129984
 20
408.9776468309437
 30
0.0
 11
648.7772762301686
 21
408.9776468309437
 31
0.0
  0
LINE
  5
22E2
330
2
100
AcDbEntity
  8
0
100
AcDbLine
 10
663.9247946663874
 20
411.4776468309437
 30
0.0
 11
676.9984174463209
 21
411.4776468309437
 31
0.0
  0
LINE
  5
22E3
330
2
100
AcDbEntity
  8
0
100
AcDbLine
 10
654.4467311925321
 20
444.4776468309436
 30
0.0
 11
659.9181457235284
 21
444.4776468309436
 31
0.0
  0
ARC
  5
22E4
330
2
100
AcDbEntity
  8
0
100
AcDbCircle
 10
654.4467311925321
 20
442.4776468309436
 30
0.0
 40
2.0
100
AcDbArc
 50
90.0
 51
178.4999999999842
  0
ARC
  5
22E5
330
2
100
AcDbEntity
  8
0
100
AcDbCircle
 10
647.3657738803888
 20
439.4776468309436
 30
0.0
 40
5.0
100
AcDbArc
 50
270.0
 51
358.4999999999841
  0
LINE
  5
22E6
330
2
100
AcDbEntity
  8
HIDS
100
AcDbLine
 10
628.4126310130625
 20
443.0634332659034
 30
0.0
 11
626.0842038883168
 21
445.391860390651
 31
0.0
  0
ARC
  5
22E7
330
2
100
AcDbEntity
  8
HIDS
100
AcDbCircle
 10
629.8268445754367
 20
444.4776468282758
 30
0.0
 40
2.0
100
AcDbArc
 50
224.9999999999861
 51
270.0
  0
ARC
  5
22E8
330
2
100
AcDbEntity
  8
HIDS
100
AcDbCircle
 10
624.6699903259434
 20
443.9776468282786
 30
0.0
 40
2.0
100
AcDbArc
 50
44.99999999998617
 51
90.0
  0
LINE
  5
22E9
330
2
100
AcDbEntity
  8
0
100
AcDbLine
 10
621.4984174507082
 20
443.9776468282754
 30
0.0
 11
621.4984174507082
 21
449.5776468282753
 31
0.0
  0
LINE
  5
22EA
330
2
100
AcDbEntity
  8
0
100
AcDbLine
 10
631.4984174507083
 20
443.9776468282754
 30
0.0
 11
631.4984174507083
 21
449.5776468282753
 31
0.0
  0
LINE
  5
22EB
330
2
100
AcDbEntity
  8
0
100
AcDbLine
 10
631.4984174507083
 20
443.9776468282754
 30
0.0
 11
621.4984174507082
 21
443.9776468282754
 31
0.0
  0
LINE
  5
22EC
330
2
100
AcDbEntity
  8
0
100
AcDbLine
 10
630.805597127681
 20
449.9776468282753
 30
0.0
 11
622.1912377737364
 21
449.9776468282759
 31
0.0
  0
LINE
  5
22ED
330
2
100
AcDbEntity
  8
0
100
AcDbLine
 10
631.4984174507083
 20
449.5776468282757
 30
0.0
 11
621.4984174507082
 21
449.5776468282753
 31
0.0
  0
LINE
  5
22EE
330
2
100
AcDbEntity
  8
0
100
AcDbLine
 10
631.4984174507083
 20
449.5776468282753
 30
0.0
 11
630.805597127681
 21
449.9776468282753
 31
0.0
  0
LINE
  5
22EF
330
2
100
AcDbEntity
  8
0
100
AcDbLine
 10
621.4984174507082
 20
449.5776468282753
 30
0.0
 11
622.1912377737364
 21
449.9776468282753
 31
0.0
  0
LINE
  5
22F0
330
2
100
AcDbEntity
  8
0
100
AcDbLine
 10
631.4984174507083
 20
443.9776468282758
 30
0.0
 11
631.4984174507083
 21
442.4776468282758
 31
0.0
  0
LINE
  5
22F1
330
2
100
AcDbEntity
  8
0
100
AcDbLine
 10
621.4984174507082
 20
443.9776468282758
 30
0.0
 11
621.4984174507082
 21
442.4776468282758
 31
0.0
  0
LINE
  5
22F2
330
2
100
AcDbEntity
  8
HIDS
100
AcDbLine
 10
621.4984174507082
 20
445.9776468282781
 30
0.0
 11
624.6699903259434
 21
445.9776468282785
 31
0.0
  0
ARC
  5
22F3
330
2
100
AcDbEntity
  8
0
100
AcDbCircle
 10
631.5316547316654
 20
441.477646828276
 30
0.0
 40
1.0
100
AcDbArc
 50
0.4999999999915467
 51
90.0
  0
LINE
  5
22F4
330
2
100
AcDbEntity
  8
0
100
AcDbLine
 10
632.58333605763
 20
434.9776468282792
 30
0.0
 11
633.08333605763
 21
434.4776468282792
 31
0.0
  0
LINE
  5
22F5
330
2
100
AcDbEntity
  8
0
100
AcDbLine
 10
627.9984174507101
 20
434.9776468282781
 30
0.0
 11
627.9984174507101
 21
442.4776468282758
 31
0.0
  0
LINE
  5
22F6
330
2
100
AcDbEntity
  8
0
100
AcDbLine
 10
624.9984174507101
 20
434.9776468282781
 30
0.0
 11
624.9984174507101
 21
442.4776468282758
 31
0.0
  0
LINE
  5
22F7
330
2
100
AcDbEntity
  8
CENTER
100
AcDbLine
 10
626.4984174507083
 20
454.9776468282758
 30
0.0
 11
626.4984174507083
 21
429.9149000841294
 31
0.0
  0
LINE
  5
22F8
330
2
100
AcDbEntity
  8
0
100
AcDbLine
 10
632.5316166547293
 20
441.4863733637742
 30
0.0
 11
632.5884174506902
 21
434.9776468282792
 31
0.0
  0
LINE
  5
22F9
330
2
100
AcDbEntity
  8
0
100
AcDbLine
 10
647.3657738759468
 20
434.4776468282765
 30
0.0
 11
633.0833360576319
 21
434.4776468282765
 31
0.0
  0
LINE
  5
22FA
330
2
100
AcDbEntity
  8
0
100
AcDbLine
 10
666.9467311925321
 20
452.4776468309436
 30
0.0
 11
676.9984174463209
 21
452.4776468309436
 31
0.0
  0
ARC
  5
22FB
330
2
100
AcDbEntity
  8
0
100
AcDbCircle
 10
666.9467311925321
 20
450.4776468309436
 30
0.0
 40
2.0
100
AcDbArc
 50
90.0
 51
178.5000000000102
  0
ARC
  5
22FC
330
2
100
AcDbEntity
  8
0
100
AcDbCircle
 10
659.9181457235284
 20
449.4776468309436
 30
0.0
 40
5.0
100
AcDbArc
 50
270.0
 51
358.5000000000102
  0
ARC
  5
25A5
330
2
100
AcDbEntity
  8
0
100
AcDbCircle
 10
341.1027274601161
 20
156.5803793047951
 30
0.0
 40
4.0
100
AcDbArc
 50
17.60182375627883
 51
90.0
  0
LINE
  5
25A6
330
2
100
AcDbEntity
  8
0
100
AcDbLine
 10
341.1027274601161
 20
160.5803793047951
 30
0.0
 11
331.1027274601161
 21
160.5803793047951
 31
0.0
  0
ARC
  5
25A7
330
2
100
AcDbEntity
  8
0
100
AcDbCircle
 10
331.1027274601161
 20
156.5803793047951
 30
0.0
 40
4.0
100
AcDbArc
 50
90.0
 51
159.1508477649597
  0
LINE
  5
25A8
330
2
100
AcDbEntity
  8
CENTER
  6
CENS
100
AcDbLine
 10
336.1027274601161
 20
165.7040637274984
 30
0.0
 11
336.1027274601161
 21
142.3441377251474
 31
0.0
  0
LINE
  5
2640
330
2
100
AcDbEntity
  8
0
100
AcDbLine
 10
413.6027274601249
 20
107.5804253047954
 30
0.0
 11
384.1027274601258
 21
107.5804253047954
 31
0.0
  0
LINE
  5
2641
330
2
100
AcDbEntity
  8
0
100
AcDbLine
 10
384.1027274601258
 20
125.5804253047954
 30
0.0
 11
413.6027274601249
 21
125.5804253047954
 31
0.0
  0
LINE
  5
2642
330
2
100
AcDbEntity
  8
0
100
AcDbLine
 10
390.102727460064
 20
119.580354640395
 30
0.0
 11
414.1027274601249
 21
119.5803793048094
 31
0.0
  0
LINE
  5
2643
330
2
100
AcDbEntity
  8
0
100
AcDbLine
 10
390.102727460064
 20
113.5803546403667
 30
0.0
 11
414.1027274601249
 21
113.5803793047812
 31
0.0
  0
LINE
  5
2644
330
2
100
AcDbEntity
  8
0
100
AcDbLine
 10
384.1027274601258
 20
126.580425016082
 30
0.0
 11
384.1027274601258
 21
106.58042501608
 31
0.0
  0
LINE
  5
2645
330
2
100
AcDbEntity
  8
0
100
AcDbLine
 10
383.1027274601258
 20
130.2917041702005
 30
0.0
 11
383.1027274601258
 21
102.8690544393901
 31
0.0
  0
ARC
  5
2646
330
2
100
AcDbEntity
  8
0
100
AcDbCircle
 10
382.6027274601258
 20
130.2917041702005
 30
0.0
 40
0.5
100
AcDbArc
 50
0.0
 51
59.99999999999946
  0
LINE
  5
2647
330
2
100
AcDbEntity
  8
0
100
AcDbLine
 10
384.1027274601258
 20
126.580425016082
 30
0.0
 11
383.1027274601258
 21
127.1577752852718
 31
0.0
  0
LINE
  5
2648
330
2
100
AcDbEntity
  8
0
100
AcDbLine
 10
384.1027274601258
 20
106.5803335935084
 30
0.0
 11
383.1027274601258
 21
106.0029833243189
 31
0.0
  0
LINE
  5
2649
330
2
100
AcDbEntity
  8
0
100
AcDbLine
 10
382.8527274601258
 20
130.7247168720926
 30
0.0
 11
382.700889224275
 21
130.8123807184345
 31
0.0
  0
ARC
  5
264A
330
2
100
AcDbEntity
  8
0
100
AcDbCircle
 10
381.7008892242749
 20
129.0803299108654
 30
0.0
 40
2.0
100
AcDbArc
 50
59.99999999999946
 51
78.40928831454826
  0
ARC
  5
264B
330
2
100
AcDbEntity
  8
0
100
AcDbCircle
 10
382.6027274601258
 20
102.8690544393901
 30
0.0
 40
0.5
100
AcDbArc
 50
300.0000000000005
 51
0.0
  0
LINE
  5
264C
330
2
100
AcDbEntity
  8
0
100
AcDbLine
 10
382.8527274601258
 20
102.4360417374978
 30
0.0
 11
382.700889224275
 21
102.3483778911561
 31
0.0
  0
ARC
  5
264D
330
2
100
AcDbEntity
  8
0
100
AcDbCircle
 10
381.7008892242749
 20
104.080428698725
 30
0.0
 40
2.0
100
AcDbArc
 50
281.5907116854517
 51
300.0000000000005
  0
ARC
  5
264E
330
2
100
AcDbEntity
  8
0
100
AcDbCircle
 10
390.102727460064
 20
116.5803546403809
 30
0.0
 40
3.000000000014103
100
AcDbArc
 50
90.0
 51
270.0
  0
LINE
  5
264F
330
2
100
AcDbEntity
  8
0
100
AcDbLine
 10
414.1027274601249
 20
125.0804253047954
 30
0.0
 11
414.1027274601249
 21
108.0804253047954
 31
0.0
  0
LINE
  5
2650
330
2
100
AcDbEntity
  8
0
100
AcDbLine
 10
413.6027274601249
 20
125.5804253047954
 30
0.0
 11
414.1027274601249
 21
125.0804253047954
 31
0.0
  0
LINE
  5
2651
330
2
100
AcDbEntity
  8
0
100
AcDbLine
 10
414.1027274601249
 20
108.0804253047954
 30
0.0
 11
413.6027274601249
 21
107.5804253047954
 31
0.0
  0
LINE
  5
2652
330
2
100
AcDbEntity
  8
0
100
AcDbLine
 10
413.6027274601249
 20
125.5804253047954
 30
0.0
 11
413.6027274601249
 21
119.5803787909674
 31
0.0
  0
LINE
  5
2653
330
2
100
AcDbEntity
  8
0
100
AcDbLine
 10
413.6027274601249
 20
113.5803787909392
 30
0.0
 11
413.6027274601249
 21
107.5804253047954
 31
0.0
  0
ARC
  5
2657
330
2
100
AcDbEntity
  8
0
100
AcDbCircle
 10
591.9984174507058
 20
116.5803793048262
 30
0.0
 40
9.000045999985673
100
AcDbArc
 50
199.4711170987082
 51
160.5288829012917
  0
ARC
  5
2658
330
2
100
AcDbEntity
  8
0
100
AcDbCircle
 10
591.9984174507176
 20
116.5803793048235
 30
0.0
 40
10.00004571127499
100
AcDbArc
 50
197.4575207583693
 51
162.5424792415863
  0
ARC
  5
2659
330
2
100
AcDbEntity
  8
0
100
AcDbCircle
 10
591.9984174507176
 20
116.5803793048235
 30
0.0
 40
10.57739598046464
100
AcDbArc
 50
196.4765970291266
 51
163.5234029708434
  0
CIRCLE
  5
265A
330
2
100
AcDbEntity
  8
0
100
AcDbCircle
 10
591.9984174507176
 20
116.5803793048374
 30
0.0
 40
14.49995060603862
  0
LINE
  5
265D
330
2
100
AcDbEntity
  8
0
100
AcDbLine
 10
580.4984634506913
 20
113.5803793048264
 30
0.0
 11
586.4984634506913
 21
113.5803793048264
 31
0.0
  0
LINE
  5
265E
330
2
100
AcDbEntity
  8
0
100
AcDbLine
 10
580.4984634506913
 20
119.5803793048267
 30
0.0
 11
586.4984634506913
 21
119.5803793048265
 31
0.0
  0
LINE
  5
265F
330
2
100
AcDbEntity
  8
0
100
AcDbLine
 10
586.4984634506913
 20
119.5803793048265
 30
0.0
 11
586.4984634506913
 21
113.5803793048264
 31
0.0
  0
LINE
  5
2660
330
2
100
AcDbEntity
  8
0
100
AcDbLine
 10
580.4984634506913
 20
119.5803793048267
 30
0.0
 11
580.4984634506913
 21
113.5803793048264
 31
0.0
  0
LINE
  5
2662
330
2
100
AcDbEntity
  8
0
100
AcDbLine
 10
851.4804856188671
 20
125.5803333047976
 30
0.0
 11
880.9804856188662
 21
125.5803333047976
 31
0.0
  0
LINE
  5
2663
330
2
100
AcDbEntity
  8
0
100
AcDbLine
 10
880.9804856188662
 20
107.5803333047976
 30
0.0
 11
851.4804856188671
 21
107.5803333047976
 31
0.0
  0
LINE
  5
2664
330
2
100
AcDbEntity
  8
0
100
AcDbLine
 10
850.9804856188672
 20
108.0803333047976
 30
0.0
 11
850.9804856188672
 21
125.0803333047976
 31
0.0
  0
LINE
  5
2665
330
2
100
AcDbEntity
  8
0
100
AcDbLine
 10
851.4804856188671
 20
125.5803333047976
 30
0.0
 11
850.9804856188672
 21
125.0803333047976
 31
0.0
  0
LINE
  5
2666
330
2
100
AcDbEntity
  8
0
100
AcDbLine
 10
851.4804856188671
 20
107.5803333047976
 30
0.0
 11
850.9804856188672
 21
108.0803333047976
 31
0.0
  0
LINE
  5
2667
330
2
100
AcDbEntity
  8
0
100
AcDbLine
 10
851.4804856188671
 20
107.5803333047976
 30
0.0
 11
851.4804856188671
 21
125.5803333047976
 31
0.0
  0
LINE
  5
2668
330
2
100
AcDbEntity
  8
0
100
AcDbLine
 10
880.9804856188662
 20
106.5803335935112
 30
0.0
 11
880.9804856188662
 21
126.5803335935131
 31
0.0
  0
LINE
  5
2669
330
2
100
AcDbEntity
  8
0
100
AcDbLine
 10
881.9804856188662
 20
102.8690544393927
 30
0.0
 11
881.9804856188662
 21
130.2917041702036
 31
0.0
  0
ARC
  5
266A
330
2
100
AcDbEntity
  8
0
100
AcDbCircle
 10
882.4804856188663
 20
102.8690544393927
 30
0.0
 40
0.5
100
AcDbArc
 50
180.0
 51
239.9999999999994
  0
LINE
  5
266B
330
2
100
AcDbEntity
  8
0
100
AcDbLine
 10
880.9804856188662
 20
106.5803335935112
 30
0.0
 11
881.9804856188662
 21
106.0029833243212
 31
0.0
  0
LINE
  5
266C
330
2
100
AcDbEntity
  8
0
100
AcDbLine
 10
880.9804856188662
 20
126.5804250160851
 30
0.0
 11
881.9804856188662
 21
127.1577752852742
 31
0.0
  0
LINE
  5
266D
330
2
100
AcDbEntity
  8
0
100
AcDbLine
 10
882.2304856188663
 20
102.4360417375007
 30
0.0
 11
882.3823238547172
 21
102.3483778911592
 31
0.0
  0
ARC
  5
266E
330
2
100
AcDbEntity
  8
0
100
AcDbCircle
 10
883.3823238547171
 20
104.0804286987274
 30
0.0
 40
2.0
100
AcDbArc
 50
239.9999999999994
 51
258.4092883145482
  0
ARC
  5
266F
330
2
100
AcDbEntity
  8
0
100
AcDbCircle
 10
882.4804856188663
 20
130.2917041702036
 30
0.0
 40
0.5
100
AcDbArc
 50
120.0000000000005
 51
180.0
  0
LINE
  5
2670
330
2
100
AcDbEntity
  8
0
100
AcDbLine
 10
882.2304856188663
 20
130.7247168720957
 30
0.0
 11
882.3823238547172
 21
130.8123807184371
 31
0.0
  0
ARC
  5
2671
330
2
100
AcDbEntity
  8
0
100
AcDbCircle
 10
883.3823238547171
 20
129.0803299108681
 30
0.0
 40
2.0
100
AcDbArc
 50
101.5907116854517
 51
120.0000000000005
  0
LINE
  5
2673
330
2
100
AcDbEntity
  8
0
100
AcDbLine
 10
600.998463450691
 20
348.4776468309419
 30
0.0
 11
600.998463450691
 21
318.9776468309428
 31
0.0
  0
LINE
  5
2674
330
2
100
AcDbEntity
  8
0
100
AcDbLine
 10
580.4984634506955
 20
345.4776468309164
 30
0.0
 11
580.4984634506955
 21
318.4776468309428
 31
0.0
  0
LINE
  5
2675
330
2
100
AcDbEntity
  8
0
100
AcDbLine
 10
583.5130872861347
 20
342.4776468310037
 30
0.0
 11
583.5130872861347
 21
318.4776468309428
 31
0.0
  0
LINE
  5
2676
330
2
100
AcDbEntity
  8
0
100
AcDbLine
 10
600.498463450691
 20
318.4776468309428
 30
0.0
 11
580.4984634506955
 21
318.4776468309428
 31
0.0
  0
LINE
  5
2677
330
2
100
AcDbEntity
  8
0
100
AcDbLine
 10
600.998463450691
 20
318.9776468309428
 30
0.0
 11
583.5130872861356
 21
318.9776468309428
 31
0.0
  0
LINE
  5
2678
330
2
100
AcDbEntity
  8
0
100
AcDbLine
 10
600.998463450691
 20
318.9776468309428
 30
0.0
 11
600.498463450691
 21
318.4776468309428
 31
0.0
  0
LINE
  5
267A
330
2
100
AcDbEntity
  8
0
100
AcDbLine
 10
601.9984631619774
 20
348.4776468309419
 30
0.0
 11
581.9984631619755
 21
348.4776468309419
 31
0.0
  0
LINE
  5
267B
330
2
100
AcDbEntity
  8
0
100
AcDbLine
 10
605.7097423160959
 20
349.4776468309419
 30
0.0
 11
578.287092585285
 21
349.4776468309419
 31
0.0
  0
LINE
  5
267C
330
2
100
AcDbEntity
  8
0
100
AcDbLine
 10
582.998463450691
 20
345.4776468309164
 30
0.0
 11
582.998463450691
 21
348.4776468309419
 31
0.0
  0
LINE
  5
267D
330
2
100
AcDbEntity
  8
0
100
AcDbLine
 10
581.9983717394035
 20
348.4776468309419
 30
0.0
 11
581.4210214702144
 21
349.4776468309419
 31
0.0
  0
ARC
  5
267E
330
2
100
AcDbEntity
  8
0
100
AcDbCircle
 10
578.287092585285
 20
349.9776468309419
 30
0.0
 40
0.5
100
AcDbArc
 50
209.9999999999916
 51
270.0
  0
LINE
  5
267F
330
2
100
AcDbEntity
  8
0
100
AcDbLine
 10
577.8540798833929
 20
349.7276468309419
 30
0.0
 11
577.7664160370514
 21
349.8794850667927
 31
0.0
  0
ARC
  5
2680
330
2
100
AcDbEntity
  8
0
100
AcDbCircle
 10
579.4984668446205
 20
350.8794850667927
 30
0.0
 40
2.0
100
AcDbArc
 50
191.5907116854479
 51
209.9999999999916
  0
LINE
  5
2681
330
2
100
AcDbEntity
  8
0
100
AcDbLine
 10
580.4984634506955
 20
345.4776468309164
 30
0.0
 11
582.998463450691
 21
345.4776468309164
 31
0.0
  0
LINE
  5
2682
330
2
100
AcDbEntity
  8
0
100
AcDbLine
 10
582.998463450691
 20
345.4776468309164
 30
0.0
 11
583.5130872861347
 21
342.4776468310037
 31
0.0
  0
ARC
  5
2683
330
2
100
AcDbEntity
  8
0
100
AcDbCircle
 10
605.7097423160959
 20
349.9776468309419
 30
0.0
 40
0.5
100
AcDbArc
 50
270.0
 51
330.0000000000083
  0
LINE
  5
2684
330
2
100
AcDbEntity
  8
0
100
AcDbLine
 10
601.9984631619774
 20
348.4776468309419
 30
0.0
 11
602.5758134311673
 21
349.4776468309419
 31
0.0
  0
LINE
  5
2685
330
2
100
AcDbEntity
  8
0
100
AcDbLine
 10
606.1427550179879
 20
349.7276468309419
 30
0.0
 11
606.2304188643294
 21
349.8794850667927
 31
0.0
  0
ARC
  5
2686
330
2
100
AcDbEntity
  8
0
100
AcDbCircle
 10
604.4983680567612
 20
350.8794850667927
 30
0.0
 40
2.0
100
AcDbArc
 50
330.0000000000083
 51
348.4092883145521
  0
CIRCLE
  5
2973
330
2
100
AcDbEntity
  8
0
100
AcDbCircle
 10
591.9984174507176
 20
116.5803793048372
 30
0.0
 40
23.5774
  0
ENDSEC
  0
SECTION
  2
OBJECTS
  0
DICTIONARY
  5
7
330
0
100
AcDbDictionary
  3
ACAD_COLOR
350
17FC
  3
ACAD_GROUP
350
75
  3
ACAD_LAYOUT
350
61
  3
ACAD_MATERIAL
350
17D2
  3
ACAD_MLEADERSTYLE
350
1821
  3
ACAD_MLINESTYLE
350
76
  3
ACAD_PLOTSETTINGS
350
77
  3
ACAD_PLOTSTYLENAME
350
6
  3
ACAD_SCALELIST
350
17FF
  3
ACAD_TABLESTYLE
350
17FD
  3
ACAD_VISUALSTYLE
350
17EB
  3
ACADDIM
350
480
  3
ACDB_RECOMPOSE_DATA
350
1838
  3
ACDBHEADERROUNDTRIPXREC
350
29B6
  3
ACDBVARIABLEDICTIONARY
350
102
  3
DWGPROPS
350
2983
  0
DICTIONARY
  5
1841
330
6E
100
AcDbDictionary
280
     1
  3
ACAD_XREC_ROUNDTRIP
360
298A
  0
DICTIONARY
  5
ADB
330
66
100
AcDbDictionary
280
     1
  3
ACAD_LAYERSTATES
360
ADC
  0
DICTIONARY
  5
1826
330
5E
100
AcDbDictionary
280
     1
  3
ACAD_XREC_ROUNDTRIP
360
2986
  3
ADSK_XREC_LAYER_RECONCILED
360
1827
  0
DICTIONARY
  5
1828
330
3E
100
AcDbDictionary
280
     1
  3
ACAD_XREC_ROUNDTRIP
360
2985
  3
ADSK_XREC_LAYER_RECONCILED
360
1829
  0
DICTIONARY
  5
182E
330
2B5
100
AcDbDictionary
280
     1
  3
ACAD_XREC_ROUNDTRIP
360
2990
  3
ADSK_XREC_LAYER_RECONCILED
360
182F
  0
DICTIONARY
  5
1830
330
2BA
100
AcDbDictionary
280
     1
  3
ACAD_XREC_ROUNDTRIP
360
2991
  3
ADSK_XREC_LAYER_RECONCILED
360
1831
  0
DICTIONARY
  5
1834
330
3FA
100
AcDbDictionary
280
     1
  3
ACAD_XREC_ROUNDTRIP
360
2993
  3
ADSK_XREC_LAYER_RECONCILED
360
1835
  0
DICTIONARY
  5
29D7
330
2
100
AcDbDictionary
280
     1
  3
ACAD_LAYOUTSELFREF
360
29D8
  0
DICTIONARY
  5
29D9
330
29B0
100
AcDbDictionary
280
     1
  3
ACAD_LAYOUTSELFREF
360
29DA
  0
DICTIONARY
  5
17FC
102
{ACAD_REACTORS
330
7
102
}
330
7
100
AcDbDictionary
  0
DICTIONARY
  5
75
102
{ACAD_REACTORS
330
7
102
}
330
7
100
AcDbDictionary
  0
DICTIONARY
  5
61
102
{ACAD_REACTORS
330
7
102
}
330
7
100
AcDbDictionary
  0
DICTIONARY
  5
17D2
102
{ACAD_REACTORS
330
7
102
}
330
7
100
AcDbDictionary
  3
BYBLOCK
350
17DB
  3
BYLAYER
350
17D3
  3
GLOBAL
350
17E3
  0
DICTIONARY
  5
1821
102
{ACAD_REACTORS
330
7
102
}
330
7
100
AcDbDictionary
  3
STANDARD
350
1822
  0
DICTIONARY
  5
76
102
{ACAD_REACTORS
330
7
102
}
330
7
100
AcDbDictionary
  3
STANDARD
350
78
  0
DICTIONARY
  5
77
102
{ACAD_REACTORS
330
7
102
}
330
7
100
AcDbDictionary
  0
ACDBDICTIONARYWDFLT
  5
6
102
{ACAD_REACTORS
330
7
102
}
330
7
100
AcDbDictionary
281
     1
  3
Normal
350
5
100
AcDbDictionaryWithDefault
340
5
  0
DICTIONARY
  5
17FF
102
{ACAD_REACTORS
330
7
102
}
330
7
100
AcDbDictionary
  3
A0
350
1800
  3
A1
350
1801
  3
A2
350
1802
  3
A3
350
1803
  3
A4
350
1804
  3
A5
350
1805
  3
A6
350
1806
  3
A7
350
1807
  3
A8
350
1808
  3
A9
350
1809
  3
B0
350
180A
  3
B1
350
180B
  3
B2
350
180C
  3
B3
350
180D
  3
B4
350
180E
  3
B5
350
180F
  3
B6
350
1810
  3
B7
350
1811
  3
B8
350
1812
  3
B9
350
1813
  3
C0
350
1814
  3
C1
350
1815
  3
C2
350
1816
  3
C3
350
1817
  3
C4
350
1818
  3
C5
350
1819
  3
C6
350
181A
  3
C7
350
181B
  3
C8
350
181C
  3
C9
350
181D
  3
D0
350
181E
  3
D1
350
181F
  3
D2
350
1820
  0
DICTIONARY
  5
17FD
102
{ACAD_REACTORS
330
7
102
}
330
7
100
AcDbDictionary
  3
STANDARD
350
17FE
  0
DICTIONARY
  5
17EB
102
{ACAD_REACTORS
330
7
102
}
330
7
100
AcDbDictionary
  3
2DWIREFRAME
350
17F1
  3
3D_HIDDEN
350
17F3
  3
3DWIREFRAME
350
17F2
  3
BASIC
350
17F0
  3
BRIGHTEN
350
17F7
  3
COLORCHANGE
350
17FB
  3
CONCEPTUAL
350
17F4
  3
DIM
350
17F6
  3
FACEPATTERN
350
17FA
  3
FLAT
350
17EC
  3
FLATWITHEDGES
350
17ED
  3
GOURAUD
350
17EE
  3
GOURAUDWITHEDGES
350
17EF
  3
LINEPATTERN
350
17F9
  3
REALISTIC
350
17F5
  3
THICKEN
350
17F8
  0
XRECORD
  5
480
102
{ACAD_REACTORS
330
7
102
}
330
7
100
AcDbXrecord
 90
   990106
  3

 60
     0
 61
     0
 62
     1
 63
     3
 64
     1
 65
     0
 66
     0
 67
     3
 68
     1
 69
     0
 70
     0
 71
     0
 72
     0
 40
0.0
170
     2
340
0
  0
XRECORD
  5
1838
102
{ACAD_REACTORS
330
7
102
}
330
7
100
AcDbXrecord
 90
        1
330
17FE
  0
DICTIONARY
  5
29B6
102
{ACAD_REACTORS
330
7
102
}
330
7
100
AcDbDictionary
  3
CEPSNTYPE
350
29C0
  3
DIMSTYLEDATA
350
29C4
  3
FINGERPRINTGUID
350
29C1
  3
HYPERLINKBASE
350
29B9
  3
INSUNITS
350
29BF
  3
LAYOUTDICT
350
29BB
  3
LWETCUNION
350
29BE
  3
PLOTSETDICT
350
29BC
  3
PLOTSTYLNAMDICT
350
29BD
  3
PSVPSCALE
350
29C3
  3
PUCSBASE
350
29C7
  3
PUCSORGBACK
350
29CD
  3
PUCSORGBOTTOM
350
29C9
  3
PUCSORGFRONT
350
29CC
  3
PUCSORGLEFT
350
29CA
  3
PUCSORGRIGHT
350
29CB
  3
PUCSORGTOP
350
29C8
  3
PUCSORTHOREF
350
29C5
  3
PUCSORTHOVIEW
350
29C6
  3
STYLESHEET
350
29BA
  3
TSTACKALIGN
350
29B7
  3
TSTACKSIZE
350
29B8
  3
UCSBASE
350
29D0
  3
UCSORGBACK
350
29D6
  3
UCSORGBOTTOM
350
29D2
  3
UCSORGFRONT
350
29D5
  3
UCSORGLEFT
350
29D3
  3
UCSORGRIGHT
350
29D4
  3
UCSORGTOP
350
29D1
  3
UCSORTHOREF
350
29CE
  3
UCSORTHOVIEW
350
29CF
  3
VERSIONGUID
350
29C2
  0
DICTIONARY
  5
102
102
{ACAD_REACTORS
330
7
102
}
330
7
100
AcDbDictionary
  3
CANNOSCALE
350
1858
  3
CMLEADERSTYLE
350
1857
  3
CTABLESTYLE
350
1856
  3
DIMASSOC
350
103
  3
INDEXCTL
350
1859
  3
SORTENTS
350
549
  0
XRECORD
  5
2983
102
{ACAD_REACTORS
330
7
102
}
330
7
100
AcDbXrecord
  1
DWGPROPS COOKIE
  2

  3

  4

  6

  7

  8
ymorima
  9

300
=
301
=
302
=
303
=
304
=
305
=
306
=
307
=
308
=
309
=
 40
0.0600403240740741
 41
2454410.731539351
 42
2454425.757877777
  1

 90
        0
  0
XRECORD
  5
298A
102
{ACAD_REACTORS
330
1841
102
}
330
1841
100
AcDbXrecord
102
VTR_0.000_0.000_1.000_1.000_VISUALSTYLE
340
17F1
102
VTR_0.000_0.000_1.000_1.000_GRIDDISPLAY
 70
     3
102
VTR_0.000_0.000_1.000_1.000_GRIDMAJOR
 70
     5
102
VTR_0.000_0.000_1.000_1.000_DEFAULTLIGHTING
280
     1
102
VTR_0.000_0.000_1.000_1.000_DEFAULTLIGHTINGTYPE
 70
     1
102
VTR_0.000_0.000_1.000_1.000_BRIGHTNESS
141
0.0
102
VTR_0.000_0.000_1.000_1.000_CONTRAST
142
0.0
  0
DICTIONARY
  5
ADC
102
{ACAD_REACTORS
330
ADB
102
}
330
ADB
100
AcDbDictionary
  0
XRECORD
  5
2986
102
{ACAD_REACTORS
330
1826
102
}
330
1826
100
AcDbXrecord
102
MATERIAL
340
17E3
  0
XRECORD
  5
1827
102
{ACAD_REACTORS
330
1826
102
}
330
1826
100
AcDbXrecord
290
     1
  0
XRECORD
  5
2985
102
{ACAD_REACTORS
330
1828
102
}
330
1828
100
AcDbXrecord
102
MATERIAL
340
17E3
  0
XRECORD
  5
1829
102
{ACAD_REACTORS
330
1828
102
}
330
1828
100
AcDbXrecord
290
     1
  0
XRECORD
  5
2990
102
{ACAD_REACTORS
330
182E
102
}
330
182E
100
AcDbXrecord
102
MATERIAL
340
17E3
  0
XRECORD
  5
182F
102
{ACAD_REACTORS
330
182E
102
}
330
182E
100
AcDbXrecord
290
     1
  0
XRECORD
  5
2991
102
{ACAD_REACTORS
330
1830
102
}
330
1830
100
AcDbXrecord
102
MATERIAL
340
17E3
  0
XRECORD
  5
1831
102
{ACAD_REACTORS
330
1830
102
}
330
1830
100
AcDbXrecord
290
     1
  0
XRECORD
  5
2993
102
{ACAD_REACTORS
330
1834
102
}
330
1834
100
AcDbXrecord
102
MATERIAL
340
17E3
  0
XRECORD
  5
1835
102
{ACAD_REACTORS
330
1834
102
}
330
1834
100
AcDbXrecord
290
     1
  0
XRECORD
  5
29D8
102
{ACAD_REACTORS
330
29D7
102
}
330
29D7
100
AcDbXrecord
340
2
  0
XRECORD
  5
29DA
102
{ACAD_REACTORS
330
29D9
102
}
330
29D9
100
AcDbXrecord
340
29B0
  0
ACAD_PROXY_OBJECT
  5
17DB
102
{ACAD_XDICTIONARY
360
17DC
102
}
102
{ACAD_REACTORS
330
17D2
102
}
330
17D2
100
AcDbProxyObject
 90
      499
 91
      510
 93
     1340
310
42109E509B1BD8DAC02004014080404555555555555953FAA155555555555654FEA9AA400014080404555555555555953FAA155555555555654FEA9AA400000000000000E03F4080404555555555555953FAA155555555555654FEA9AA4014080404555555555555953FAA155555555555654FEA9AA4010201011555555555
310
55654FEA8555555555555953FAA6A9005020101155555555555654FEA8555555555555953FAA6A900E
 94
        0
1001
ACAD
1000
AcadProxyRoundTripData
1071
      504
1071
   655383
1070
     0
  0
ACAD_PROXY_OBJECT
  5
17D3
102
{ACAD_XDICTIONARY
360
17D4
102
}
102
{ACAD_REACTORS
330
17D2
102
}
330
17D2
100
AcDbProxyObject
 90
      499
 91
      510
 93
     1340
310
42109E53185E595C802004014080404555555555555953FAA155555555555654FEA9AA400014080404555555555555953FAA155555555555654FEA9AA400000000000000E03F4080404555555555555953FAA155555555555654FEA9AA4014080404555555555555953FAA155555555555654FEA9AA4010201011555555555
310
55654FEA8555555555555953FAA6A9005020101155555555555654FEA8555555555555953FAA6A900E
 94
        0
1001
ACAD
1000
AcadProxyRoundTripData
1071
      504
1071
   655383
1070
     0
  0
ACAD_PROXY_OBJECT
  5
17E3
102
{ACAD_XDICTIONARY
360
17E4
102
}
102
{ACAD_REACTORS
330
17D2
102
}
330
17D2
100
AcDbProxyObject
 90
      499
 91
      510
 93
     1332
310
41D1DB1BD8985B002004014080404555555555555953FAA155555555555654FEA9AA400014080404555555555555953FAA155555555555654FEA9AA400000000000000E03F4080404555555555555953FAA155555555555654FEA9AA4014080404555555555555953FAA155555555555654FEA9AA401020101155555555555
310
654FEA8555555555555953FAA6A9005020101155555555555654FEA8555555555555953FAA6A9000
 94
        0
1001
ACAD
1000
AcadProxyRoundTripData
1071
      504
1071
   655383
1070
     0
  0
ACAD_PROXY_OBJECT
  5
1822
102
{ACAD_REACTORS
330
1821
102
}
330
1821
100
AcDbProxyObject
 90
      499
 91
      510
 93
      618
310
40901902A4063FBFFFFFE056BD1B81E855B9FC0AD7A3703D0AD73F4254DD185B99185C990000AD7A3703D0AC73F90141901A02B5E8DC0F42B1CFC02B5E8DC0F42B1CFE5764000000000000300FC6
340
6A
340
0
340
16
340
0
 94
        0
1001
ACAD_MLEADERVER
1070
     2
1001
ACAD
1000
AcadProxyRoundTripData
1071
      508
1071
   655383
1070
     0
  0
MLINESTYLE
  5
78
102
{ACAD_REACTORS
330
76
102
}
330
76
100
AcDbMlineStyle
  2
STANDARD
 70
     0
  3

 62
     0
 51
90.0
 52
90.0
 71
     2
 49
0.5
 62
   256
  6
BYLAYER
 49
-0.5
 62
   256
  6
BYLAYER
  0
ACDBPLACEHOLDER
  5
5
102
{ACAD_REACTORS
330
6
102
}
330
6
100
AcDbPlaceHolder
280
     0
  0
ACAD_PROXY_OBJECT
  5
1800
102
{ACAD_REACTORS
330
17FF
102
}
330
17FF
100
AcDbProxyObject
 90
      499
 91
      510
 93
       49
310
904313A3100598
 94
        0
1001
ACAD
1000
AcadProxyRoundTripData
1071
      507
1071
   655383
1070
     0
  0
ACAD_PROXY_OBJECT
  5
1801
102
{ACAD_REACTORS
330
17FF
102
}
330
17FF
100
AcDbProxyObject
 90
      499
 91
      510
 93
      113
310
904313A3200400000000000000406B
 94
        0
1001
ACAD
1000
AcadProxyRoundTripData
1071
      507
1071
   655383
1070
     0
  0
ACAD_PROXY_OBJECT
  5
1802
102
{ACAD_REACTORS
330
17FF
102
}
330
17FF
100
AcDbProxyObject
 90
      499
 91
      510
 93
      113
310
904313A3400400000000000010406B
 94
        0
1001
ACAD
1000
AcadProxyRoundTripData
1071
      507
1071
   655383
1070
     0
  0
ACAD_PROXY_OBJECT
  5
1803
102
{ACAD_REACTORS
330
17FF
102
}
330
17FF
100
AcDbProxyObject
 90
      499
 91
      510
 93
      113
310
904313A3500400000000000014406B
 94
        0
1001
ACAD
1000
AcadProxyRoundTripData
1071
      507
1071
   655383
1070
     0
  0
ACAD_PROXY_OBJECT
  5
1804
102
{ACAD_REACTORS
330
17FF
102
}
330
17FF
100
AcDbProxyObject
 90
      499
 91
      510
 93
      113
310
904313A3800400000000000020406B
 94
        0
1001
ACAD
1000
AcadProxyRoundTripData
1071
      507
1071
   655383
1070
     0
  0
ACAD_PROXY_OBJECT
  5
1805
102
{ACAD_REACTORS
330
17FF
102
}
330
17FF
100
AcDbProxyObject
 90
      499
 91
      510
 93
      121
310
905313A3130004000000000000244051
 94
        0
1001
ACAD
1000
AcadProxyRoundTripData
1071
      507
1071
   655383
1070
     0
  0
ACAD_PROXY_OBJECT
  5
1806
102
{ACAD_REACTORS
330
17FF
102
}
330
17FF
100
AcDbProxyObject
 90
      499
 91
      510
 93
      121
310
905313A3136004000000000000304051
 94
        0
1001
ACAD
1000
AcadProxyRoundTripData
1071
      507
1071
   655383
1070
     0
  0
ACAD_PROXY_OBJECT
  5
1807
102
{ACAD_REACTORS
330
17FF
102
}
330
17FF
100
AcDbProxyObject
 90
      499
 91
      510
 93
      121
310
905313A3230004000000000000344051
 94
        0
1001
ACAD
1000
AcadProxyRoundTripData
1071
      507
1071
   655383
1070
     0
  0
ACAD_PROXY_OBJECT
  5
1808
102
{ACAD_REACTORS
330
17FF
102
}
330
17FF
100
AcDbProxyObject
 90
      499
 91
      510
 93
      121
310
905313A33300040000000000003E4051
 94
        0
1001
ACAD
1000
AcadProxyRoundTripData
1071
      507
1071
   655383
1070
     0
  0
ACAD_PROXY_OBJECT
  5
1809
102
{ACAD_REACTORS
330
17FF
102
}
330
17FF
100
AcDbProxyObject
 90
      499
 91
      510
 93
      121
310
905313A3430004000000000000444051
 94
        0
1001
ACAD
1000
AcadProxyRoundTripData
1071
      507
1071
   655383
1070
     0
  0
ACAD_PROXY_OBJECT
  5
180A
102
{ACAD_REACTORS
330
17FF
102
}
330
17FF
100
AcDbProxyObject
 90
      499
 91
      510
 93
      121
310
905313A3530004000000000000494051
 94
        0
1001
ACAD
1000
AcadProxyRoundTripData
1071
      507
1071
   655383
1070
     0
  0
ACAD_PROXY_OBJECT
  5
180B
102
{ACAD_REACTORS
330
17FF
102
}
330
17FF
100
AcDbProxyObject
 90
      499
 91
      510
 93
      129
310
906313A313030004000000000000594038
 94
        0
1001
ACAD
1000
AcadProxyRoundTripData
1071
      507
1071
   655383
1070
     0
  0
ACAD_PROXY_OBJECT
  5
180C
102
{ACAD_REACTORS
330
17FF
102
}
330
17FF
100
AcDbProxyObject
 90
      499
 91
      510
 93
      113
310
904323A31000000000000000010159
 94
        0
1001
ACAD
1000
AcadProxyRoundTripData
1071
      507
1071
   655383
1070
     0
  0
ACAD_PROXY_OBJECT
  5
180D
102
{ACAD_REACTORS
330
17FF
102
}
330
17FF
100
AcDbProxyObject
 90
      499
 91
      510
 93
      113
310
904343A31000000000000000410159
 94
        0
1001
ACAD
1000
AcadProxyRoundTripData
1071
      507
1071
   655383
1070
     0
  0
ACAD_PROXY_OBJECT
  5
180E
102
{ACAD_REACTORS
330
17FF
102
}
330
17FF
100
AcDbProxyObject
 90
      499
 91
      510
 93
      113
310
904383A31000000000000000810159
 94
        0
1001
ACAD
1000
AcadProxyRoundTripData
1071
      507
1071
   655383
1070
     0
  0
ACAD_PROXY_OBJECT
  5
180F
102
{ACAD_REACTORS
330
17FF
102
}
330
17FF
100
AcDbProxyObject
 90
      499
 91
      510
 93
      121
310
90531303A31000000000000000910140
 94
        0
1001
ACAD
1000
AcadProxyRoundTripData
1071
      507
1071
   655383
1070
     0
  0
ACAD_PROXY_OBJECT
  5
1810
102
{ACAD_REACTORS
330
17FF
102
}
330
17FF
100
AcDbProxyObject
 90
      499
 91
      510
 93
      129
310
9063130303A31000000000000001650138
 94
        0
1001
ACAD
1000
AcadProxyRoundTripData
1071
      507
1071
   655383
1070
     0
  0
ACAD_PROXY_OBJECT
  5
1811
102
{ACAD_REACTORS
330
17FF
102
}
330
17FF
100
AcDbProxyObject
 90
      499
 91
      510
 93
      265
310
90F312F31323822203D2031272D302200000000000000200FC00000000000028402B
 94
        0
1001
ACAD
1000
AcadProxyRoundTripData
1071
      507
1071
   655383
1070
     0
  0
ACAD_PROXY_OBJECT
  5
1812
102
{ACAD_REACTORS
330
17FF
102
}
330
17FF
100
AcDbProxyObject
 90
      499
 91
      510
 93
      257
310
90E312F363422203D2031272D302200000000000000240FC000000000000284040
 94
        0
1001
ACAD
1000
AcadProxyRoundTripData
1071
      507
1071
   655383
1070
     0
  0
ACAD_PROXY_OBJECT
  5
1813
102
{ACAD_REACTORS
330
17FF
102
}
330
17FF
100
AcDbProxyObject
 90
      499
 91
      510
 93
      257
310
90E312F333222203D2031272D302200000000000000280FC000000000000284040
 94
        0
1001
ACAD
1000
AcadProxyRoundTripData
1071
      507
1071
   655383
1070
     0
  0
ACAD_PROXY_OBJECT
  5
1814
102
{ACAD_REACTORS
330
17FF
102
}
330
17FF
100
AcDbProxyObject
 90
      499
 91
      510
 93
      257
310
90E312F313622203D2031272D3022000000000000002C0FC000000000000284040
 94
        0
1001
ACAD
1000
AcadProxyRoundTripData
1071
      507
1071
   655383
1070
     0
  0
ACAD_PROXY_OBJECT
  5
1815
102
{ACAD_REACTORS
330
17FF
102
}
330
17FF
100
AcDbProxyObject
 90
      499
 91
      510
 93
      257
310
90E332F333222203D2031272D3022000000000000002E0FC000000000000284040
 94
        0
1001
ACAD
1000
AcadProxyRoundTripData
1071
      507
1071
   655383
1070
     0
  0
ACAD_PROXY_OBJECT
  5
1816
102
{ACAD_REACTORS
330
17FF
102
}
330
17FF
100
AcDbProxyObject
 90
      499
 91
      510
 93
      249
310
90D312F3822203D2031272D302200000000000000300FC000000000000284040
 94
        0
1001
ACAD
1000
AcadProxyRoundTripData
1071
      507
1071
   655383
1070
     0
  0
ACAD_PROXY_OBJECT
  5
1817
102
{ACAD_REACTORS
330
17FF
102
}
330
17FF
100
AcDbProxyObject
 90
      499
 91
      510
 93
      257
310
90E332F313622203D2031272D302200000000000000320FC000000000000284040
 94
        0
1001
ACAD
1000
AcadProxyRoundTripData
1071
      507
1071
   655383
1070
     0
  0
ACAD_PROXY_OBJECT
  5
1818
102
{ACAD_REACTORS
330
17FF
102
}
330
17FF
100
AcDbProxyObject
 90
      499
 91
      510
 93
      249
310
90D312F3422203D2031272D302200000000000000340FC000000000000284040
 94
        0
1001
ACAD
1000
AcadProxyRoundTripData
1071
      507
1071
   655383
1070
     0
  0
ACAD_PROXY_OBJECT
  5
1819
102
{ACAD_REACTORS
330
17FF
102
}
330
17FF
100
AcDbProxyObject
 90
      499
 91
      510
 93
      249
310
90D332F3822203D2031272D302200000000000000360FC000000000000284040
 94
        0
1001
ACAD
1000
AcadProxyRoundTripData
1071
      507
1071
   655383
1070
     0
  0
ACAD_PROXY_OBJECT
  5
181A
102
{ACAD_REACTORS
330
17FF
102
}
330
17FF
100
AcDbProxyObject
 90
      499
 91
      510
 93
      249
310
90D312F3222203D2031272D302200000000000000380FC000000000000284040
 94
        0
1001
ACAD
1000
AcadProxyRoundTripData
1071
      507
1071
   655383
1070
     0
  0
ACAD_PROXY_OBJECT
  5
181B
102
{ACAD_REACTORS
330
17FF
102
}
330
17FF
100
AcDbProxyObject
 90
      499
 91
      510
 93
      249
310
90D332F3422203D2031272D3022000000000000003A0FC000000000000284040
 94
        0
1001
ACAD
1000
AcadProxyRoundTripData
1071
      507
1071
   655383
1070
     0
  0
ACAD_PROXY_OBJECT
  5
181C
102
{ACAD_REACTORS
330
17FF
102
}
330
17FF
100
AcDbProxyObject
 90
      499
 91
      510
 93
      169
310
90B3122203D2031272D3022004000000000000284020
 94
        0
1001
ACAD
1000
AcadProxyRoundTripData
1071
      507
1071
   655383
1070
     0
  0
ACAD_PROXY_OBJECT
  5
181D
102
{ACAD_REACTORS
330
17FF
102
}
330
17FF
100
AcDbProxyObject
 90
      499
 91
      510
 93
      265
310
90F312D312F3222203D2031272D3022000000000000003E0FC00000000000028402B
 94
        0
1001
ACAD
1000
AcadProxyRoundTripData
1071
      507
1071
   655383
1070
     0
  0
ACAD_PROXY_OBJECT
  5
181E
102
{ACAD_REACTORS
330
17FF
102
}
330
17FF
100
AcDbProxyObject
 90
      499
 91
      510
 93
      233
310
90B3322203D2031272D30220000000000000002100000000000000284000
 94
        0
1001
ACAD
1000
AcadProxyRoundTripData
1071
      507
1071
   655383
1070
     0
  0
ACAD_PROXY_OBJECT
  5
181F
102
{ACAD_REACTORS
330
17FF
102
}
330
17FF
100
AcDbProxyObject
 90
      499
 91
      510
 93
      233
310
90B3622203D2031272D30220000000000000006100000000000000284000
 94
        0
1001
ACAD
1000
AcadProxyRoundTripData
1071
      507
1071
   655383
1070
     0
  0
ACAD_PROXY_OBJECT
  5
1820
102
{ACAD_REACTORS
330
17FF
102
}
330
17FF
100
AcDbProxyObject
 90
      499
 91
      510
 93
      257
310
90E31272D3022203D2031272D3022000000000000000A100000000000000284040
 94
        0
1001
ACAD
1000
AcadProxyRoundTripData
1071
      507
1071
   655383
1070
     0
  0
ACAD_PROXY_OBJECT
  5
17FE
102
{ACAD_XDICTIONARY
360
1836
102
}
102
{ACAD_REACTORS
330
17FD
102
}
330
17FD
100
AcDbProxyObject
 90
      499
 91
      510
 93
     1849
310
4254DD185B99185C990028B81E85EB51B8AE3F2E07A17AD46E2B8FC02B5E8DC0F42B1CFD028000000C1008070000C3001FDFF8000000C1003FBFF000000182007F7FE00000030400FEFFC00000060801FDFF8000000C1003FBFF00000018200000000000000681FA0B0000001820100E000186003FBFF000000182007F7FE0
310
0000030400FEFFC00000060801FDFF8000000C1003FBFF000000182007F7FE000000304000AD7A3703D0AC73F4160000003040201C00030C007F7FE00000030400FEFFC00000060801FDFF8000000C1003FBFF000000182007F7FE00000030400FEFFC000000608011
340
16
340
16
340
16
 94
        0
1001
ACAD
1000
AcadProxyRoundTripData
1071
      506
1071
   655383
1070
     0
  0
ACAD_PROXY_OBJECT
  5
17F1
102
{ACAD_REACTORS
330
17EB
102
}
330
17EB
100
AcDbProxyObject
 90
      499
 91
      510
 93
      444
310
430C9915DA5C99599C985B59401049028333333333333E3BF0000000000000FB0107901411070040501600405405064090741402480A0340
 94
        0
1001
ACAD
1000
AcDbSavedByObjectVersion
1070
     0
1000
AcadProxyRoundTripData
1071
      505
1071
   655383
1070
     0
  0
ACAD_PROXY_OBJECT
  5
17F3
102
{ACAD_REACTORS
330
17EB
102
}
330
17EB
100
AcDbProxyObject
 90
      499
 91
      510
 93
      508
310
428CD108121A5919195B8010640502408333333333333E3BF0000000000000FB01079024090700405020000000000001110200405405064090740C02480A0340
 94
        0
1001
ACAD
1000
AcDbSavedByObjectVersion
1070
     0
1000
AcadProxyRoundTripData
1071
      505
1071
   655383
1070
     0
  0
ACAD_PROXY_OBJECT
  5
17F2
102
{ACAD_REACTORS
330
17EB
102
}
330
17EB
100
AcDbProxyObject
 90
      499
 91
      510
 93
      444
310
430CD915DA5C99599C985B59401059028333333333333E3BF0000000000000FB0107901411070040501600405405064090741402480A0340
 94
        0
1001
ACAD
1000
AcDbSavedByObjectVersion
1070
     0
1000
AcadProxyRoundTripData
1071
      505
1071
   655383
1070
     0
  0
ACAD_PROXY_OBJECT
  5
17F0
102
{ACAD_REACTORS
330
17EB
102
}
330
17EB
100
AcDbProxyObject
 90
      499
 91
      510
 93
      396
310
4190985CDA58C0107406404333333333333E3BF0000000000000FB0107A41107004050150841D405064090741402480A0356
 94
        0
1001
ACAD
1000
AcDbSavedByObjectVersion
1070
     0
1000
AcadProxyRoundTripData
1071
      505
1071
   655383
1070
     0
  0
ACAD_PROXY_OBJECT
  5
17F7
102
{ACAD_REACTORS
330
17EB
102
}
330
17EB
100
AcDbProxyObject
 90
      499
 91
      510
 93
      436
310
42509C9A59DA1D195B8010C409028333333333333E3BF0000000000000FB010790141107004050150841D405064090741402480A029956
 94
        0
1001
ACAD
1000
AcDbSavedByObjectVersion
1070
     0
1000
AcadProxyRoundTripData
1071
      505
1071
   655383
1070
     0
  0
ACAD_PROXY_OBJECT
  5
17FB
102
{ACAD_REACTORS
330
17EB
102
}
330
17EB
100
AcDbProxyObject
 90
      499
 91
      510
 93
      460
310
4310DBDB1BDC90DA185B99D9401104090240C333333333333E3BF0000000000000FB0108901411070040501508421405064090741402480A0354
 94
        0
1001
ACAD
1000
AcDbSavedByObjectVersion
1070
     0
1000
AcadProxyRoundTripData
1071
      505
1071
   655383
1070
     0
  0
ACAD_PROXY_OBJECT
  5
17F4
102
{ACAD_REACTORS
330
17EB
102
}
330
17EB
100
AcDbProxyObject
 90
      499
 91
      510
 93
      508
310
42D0DBDB98D95C1D1D585B0010940D028333333333333E3BF0000000000000FB0107902409070040501000000000000111010841D405064090740C02480A0340
 94
        0
1001
ACAD
1000
AcDbSavedByObjectVersion
1070
     0
1000
AcadProxyRoundTripData
1071
      505
1071
   655383
1070
     0
  0
ACAD_PROXY_OBJECT
  5
17F6
102
{ACAD_REACTORS
330
17EB
102
}
330
17EB
100
AcDbProxyObject
 90
      499
 91
      510
 93
      420
310
41111A5B4010B409028333333333333E3BF0000000000000FB010790141107004050150841D405064090741402480A02677FFFFFDB
 94
        0
1001
ACAD
1000
AcDbSavedByObjectVersion
1070
     0
1000
AcadProxyRoundTripData
1071
      505
1071
   655383
1070
     0
  0
ACAD_PROXY_OBJECT
  5
17FA
102
{ACAD_REACTORS
330
17EB
102
}
330
17EB
100
AcDbProxyObject
 90
      499
 91
      510
 93
      452
310
43119858D95C185D1D195C9B8010F409028333333333333E3BF0000000000000FB010790141107004050150841D405064090741402480A0350
 94
        0
1001
ACAD
1000
AcDbSavedByObjectVersion
1070
     0
1000
AcadProxyRoundTripData
1071
      505
1071
   655383
1070
     0
  0
ACAD_PROXY_OBJECT
  5
17EC
102
{ACAD_REACTORS
330
17EB
102
}
330
17EB
100
AcDbProxyObject
 90
      499
 91
      510
 93
      396
310
41519B185D00240901404333333333333E3BF0000000000000F9010740A41107004050150841D405064090741402480A1B55
 94
        0
1001
ACAD
1000
AcDbSavedByObjectVersion
1070
     0
1000
AcadProxyRoundTripData
1071
      505
1071
   655383
1070
     0
  0
ACAD_PROXY_OBJECT
  5
17ED
102
{ACAD_REACTORS
330
17EB
102
}
330
17EB
100
AcDbProxyObject
 90
      499
 91
      510
 93
      484
310
43919B185D15DA5D1A115919D95CC010140901404333333333333E3BF0000000000000F9010740901411070040501600405405064090741402480A1B50
 94
        0
1001
ACAD
1000
AcDbSavedByObjectVersion
1070
     0
1000
AcadProxyRoundTripData
1071
      505
1071
   655383
1070
     0
  0
ACAD_PROXY_OBJECT
  5
17EE
102
{ACAD_REACTORS
330
17EB
102
}
330
17EB
100
AcDbProxyObject
 90
      499
 91
      510
 93
      420
310
4211DBDD5C985D590010240902404333333333333E3BF0000000000000F9010740A411070040501641D405064090741402480A1B50
 94
        0
1001
ACAD
1000
AcDbSavedByObjectVersion
1070
     0
1000
AcadProxyRoundTripData
1071
      505
1071
   655383
1070
     0
  0
ACAD_PROXY_OBJECT
  5
17EF
102
{ACAD_REACTORS
330
17EB
102
}
330
17EB
100
AcDbProxyObject
 90
      499
 91
      510
 93
      508
310
4451DBDD5C985D5915DA5D1A115919D95CC010340902404333333333333E3BF0000000000000F9010740901411070040501600405405064090741402480A1B50
 94
        0
1001
ACAD
1000
AcDbSavedByObjectVersion
1070
     0
1000
AcadProxyRoundTripData
1071
      505
1071
   655383
1070
     0
  0
ACAD_PROXY_OBJECT
  5
17F9
102
{ACAD_REACTORS
330
17EB
102
}
330
17EB
100
AcDbProxyObject
 90
      499
 91
      510
 93
      452
310
43131A5B995C185D1D195C9B8010E409028333333333333E3BF0000000000000FB010790141107004050750841D405064090741402483A0350
 94
        0
1001
ACAD
1000
AcDbSavedByObjectVersion
1070
     0
1000
AcadProxyRoundTripData
1071
      505
1071
   655383
1070
     0
  0
ACAD_PROXY_OBJECT
  5
17F5
102
{ACAD_REACTORS
330
17EB
102
}
330
17EB
100
AcDbProxyObject
 90
      499
 91
      510
 93
      428
310
429499585B1A5CDD1A58C0108409028333333333333E3BF0000000000000FB01079019070040501508421405064090741402480A1B45
 94
        0
1001
ACAD
1000
AcDbSavedByObjectVersion
1070
     0
1000
AcadProxyRoundTripData
1071
      505
1071
   655383
1070
     0
  0
ACAD_PROXY_OBJECT
  5
17F8
102
{ACAD_REACTORS
330
17EB
102
}
330
17EB
100
AcDbProxyObject
 90
      499
 91
      510
 93
      420
310
42151A1A58DAD95B8010D409028333333333333E3BF0000000000000FB010790141107004050150C41D405064090741402480A0352
 94
        0
1001
ACAD
1000
AcDbSavedByObjectVersion
1070
     0
1000
AcadProxyRoundTripData
1071
      505
1071
   655383
1070
     0
  0
XRECORD
  5
29C0
102
{ACAD_REACTORS
330
29B6
102
}
330
29B6
100
AcDbXrecord
 90
        0
  0
XRECORD
  5
29C4
102
{ACAD_REACTORS
330
29B6
102
}
330
29B6
100
AcDbXrecord
1000
DSTYLE
1002
{
1070
   179
 70
     2
1070
   277
 70
     6
1002
}
  0
XRECORD
  5
29C1
102
{ACAD_REACTORS
330
29B6
102
}
330
29B6
100
AcDbXrecord
  1
{6385560B-F4B1-4644-A7C2-A3E32AC3D232}
  0
XRECORD
  5
29B9
102
{ACAD_REACTORS
330
29B6
102
}
330
29B6
100
AcDbXrecord
  1

  0
XRECORD
  5
29BF
102
{ACAD_REACTORS
330
29B6
102
}
330
29B6
100
AcDbXrecord
 90
        0
  0
XRECORD
  5
29BB
102
{ACAD_REACTORS
330
29B6
102
}
330
29B6
100
AcDbXrecord
340
61
  0
XRECORD
  5
29BE
102
{ACAD_REACTORS
330
29B6
102
}
330
29B6
100
AcDbXrecord
 90
    10781
  0
XRECORD
  5
29BC
102
{ACAD_REACTORS
330
29B6
102
}
330
29B6
100
AcDbXrecord
340
77
  0
XRECORD
  5
29BD
102
{ACAD_REACTORS
330
29B6
102
}
330
29B6
100
AcDbXrecord
340
6
  0
XRECORD
  5
29C3
102
{ACAD_REACTORS
330
29B6
102
}
330
29B6
100
AcDbXrecord
 40
0.0
  0
XRECORD
  5
29C7
102
{ACAD_REACTORS
330
29B6
102
}
330
29B6
100
AcDbXrecord
340
0
  0
XRECORD
  5
29CD
102
{ACAD_REACTORS
330
29B6
102
}
330
29B6
100
AcDbXrecord
 10
0.0
 20
0.0
 30
0.0
  0
XRECORD
  5
29C9
102
{ACAD_REACTORS
330
29B6
102
}
330
29B6
100
AcDbXrecord
 10
0.0
 20
0.0
 30
0.0
  0
XRECORD
  5
29CC
102
{ACAD_REACTORS
330
29B6
102
}
330
29B6
100
AcDbXrecord
 10
0.0
 20
0.0
 30
0.0
  0
XRECORD
  5
29CA
102
{ACAD_REACTORS
330
29B6
102
}
330
29B6
100
AcDbXrecord
 10
0.0
 20
0.0
 30
0.0
  0
XRECORD
  5
29CB
102
{ACAD_REACTORS
330
29B6
102
}
330
29B6
100
AcDbXrecord
 10
0.0
 20
0.0
 30
0.0
  0
XRECORD
  5
29C8
102
{ACAD_REACTORS
330
29B6
102
}
330
29B6
100
AcDbXrecord
 10
0.0
 20
0.0
 30
0.0
  0
XRECORD
  5
29C5
102
{ACAD_REACTORS
330
29B6
102
}
330
29B6
100
AcDbXrecord
340
0
  0
XRECORD
  5
29C6
102
{ACAD_REACTORS
330
29B6
102
}
330
29B6
100
AcDbXrecord
 70
     0
  0
XRECORD
  5
29BA
102
{ACAD_REACTORS
330
29B6
102
}
330
29B6
100
AcDbXrecord
  1
Sekkei.ctb
  0
XRECORD
  5
29B7
102
{ACAD_REACTORS
330
29B6
102
}
330
29B6
100
AcDbXrecord
 90
        1
  0
XRECORD
  5
29B8
102
{ACAD_REACTORS
330
29B6
102
}
330
29B6
100
AcDbXrecord
 90
       70
  0
XRECORD
  5
29D0
102
{ACAD_REACTORS
330
29B6
102
}
330
29B6
100
AcDbXrecord
340
0
  0
XRECORD
  5
29D6
102
{ACAD_REACTORS
330
29B6
102
}
330
29B6
100
AcDbXrecord
 10
0.0
 20
0.0
 30
0.0
  0
XRECORD
  5
29D2
102
{ACAD_REACTORS
330
29B6
102
}
330
29B6
100
AcDbXrecord
 10
0.0
 20
0.0
 30
0.0
  0
XRECORD
  5
29D5
102
{ACAD_REACTORS
330
29B6
102
}
330
29B6
100
AcDbXrecord
 10
0.0
 20
0.0
 30
0.0
  0
XRECORD
  5
29D3
102
{ACAD_REACTORS
330
29B6
102
}
330
29B6
100
AcDbXrecord
 10
0.0
 20
0.0
 30
0.0
  0
XRECORD
  5
29D4
102
{ACAD_REACTORS
330
29B6
102
}
330
29B6
100
AcDbXrecord
 10
0.0
 20
0.0
 30
0.0
  0
XRECORD
  5
29D1
102
{ACAD_REACTORS
330
29B6
102
}
330
29B6
100
AcDbXrecord
 10
0.0
 20
0.0
 30
0.0
  0
XRECORD
  5
29CE
102
{ACAD_REACTORS
330
29B6
102
}
330
29B6
100
AcDbXrecord
340
0
  0
XRECORD
  5
29CF
102
{ACAD_REACTORS
330
29B6
102
}
330
29B6
100
AcDbXrecord
 70
     0
  0
XRECORD
  5
29C2
102
{ACAD_REACTORS
330
29B6
102
}
330
29B6
100
AcDbXrecord
  1
{2353BF95-B05E-4CF7-BA06-EFD83D98C871}
  0
DICTIONARYVAR
  5
1858
102
{ACAD_REACTORS
330
102
102
}
330
102
100
DictionaryVariables
280
     0
  1
1:1
  0
DICTIONARYVAR
  5
1857
102
{ACAD_REACTORS
330
102
102
}
330
102
100
DictionaryVariables
280
     0
  1
STANDARD
  0
DICTIONARYVAR
  5
1856
102
{ACAD_REACTORS
330
102
102
}
330
102
100
DictionaryVariables
280
     0
  1
STANDARD
  0
DICTIONARYVAR
  5
103
102
{ACAD_REACTORS
330
102
102
}
330
102
100
DictionaryVariables
280
     0
  1
1
  0
DICTIONARYVAR
  5
1859
102
{ACAD_REACTORS
330
102
102
}
330
102
100
DictionaryVariables
280
     0
  1
0
  0
DICTIONARYVAR
  5
549
102
{ACAD_REACTORS
330
102
102
}
330
102
100
DictionaryVariables
280
     0
  1
96
  0
DICTIONARY
  5
17DC
330
17DB
100
AcDbDictionary
280
     1
  3
ACAD_XREC_ROUNDTRIP
360
2995
  3
BUMPTILE
360
17DE
  3
DIFFUSETILE
360
17DD
  3
OPACITYTILE
360
17E1
  3
REFLECTIONTILE
360
17E0
  3
REFRACTIONTILE
360
17E2
  3
SPECULARTILE
360
17DF
  0
DICTIONARY
  5
17D4
330
17D3
100
AcDbDictionary
280
     1
  3
ACAD_XREC_ROUNDTRIP
360
2994
  3
BUMPTILE
360
17D6
  3
DIFFUSETILE
360
17D5
  3
OPACITYTILE
360
17D9
  3
REFLECTIONTILE
360
17D8
  3
REFRACTIONTILE
360
17DA
  3
SPECULARTILE
360
17D7
  0
DICTIONARY
  5
17E4
330
17E3
100
AcDbDictionary
280
     1
  3
ACAD_XREC_ROUNDTRIP
360
2996
  3
BUMPTILE
360
17E6
  3
DIFFUSETILE
360
17E5
  3
OPACITYTILE
360
17E9
  3
REFLECTIONTILE
360
17E8
  3
REFRACTIONTILE
360
17EA
  3
SPECULARTILE
360
17E7
  0
DICTIONARY
  5
1836
330
17FE
100
AcDbDictionary
280
     1
  3
ACAD_ROUNDTRIP_2008_TABLES
360
2982
  3
ACAD_XREC_ROUNDTRIP
360
2997
  0
XRECORD
  5
2995
102
{ACAD_REACTORS
330
17DC
102
}
330
17DC
100
AcDbXrecord
102
MATERIAL
148
0.0
149
0.0
149
0.0
 93
        0
 94
      127
282
     0
 72
     0
 77
     0
171
     0
175
     0
179
     0
273
     0
  0
XRECORD
  5
17DE
102
{ACAD_REACTORS
330
17DC
102
}
330
17DC
100
AcDbXrecord
270
     1
271
     1
  0
XRECORD
  5
17DD
102
{ACAD_REACTORS
330
17DC
102
}
330
17DC
100
AcDbXrecord
270
     1
271
     1
  0
XRECORD
  5
17E1
102
{ACAD_REACTORS
330
17DC
102
}
330
17DC
100
AcDbXrecord
270
     1
271
     1
  0
XRECORD
  5
17E0
102
{ACAD_REACTORS
330
17DC
102
}
330
17DC
100
AcDbXrecord
270
     1
271
     1
  0
XRECORD
  5
17E2
102
{ACAD_REACTORS
330
17DC
102
}
330
17DC
100
AcDbXrecord
270
     1
271
     1
  0
XRECORD
  5
17DF
102
{ACAD_REACTORS
330
17DC
102
}
330
17DC
100
AcDbXrecord
270
     1
271
     1
  0
XRECORD
  5
2994
102
{ACAD_REACTORS
330
17D4
102
}
330
17D4
100
AcDbXrecord
102
MATERIAL
148
0.0
149
0.0
149
0.0
 93
        0
 94
      127
282
     0
 72
     0
 77
     0
171
     0
175
     0
179
     0
273
     0
  0
XRECORD
  5
17D6
102
{ACAD_REACTORS
330
17D4
102
}
330
17D4
100
AcDbXrecord
270
     1
271
     1
  0
XRECORD
  5
17D5
102
{ACAD_REACTORS
330
17D4
102
}
330
17D4
100
AcDbXrecord
270
     1
271
     1
  0
XRECORD
  5
17D9
102
{ACAD_REACTORS
330
17D4
102
}
330
17D4
100
AcDbXrecord
270
     1
271
     1
  0
XRECORD
  5
17D8
102
{ACAD_REACTORS
330
17D4
102
}
330
17D4
100
AcDbXrecord
270
     1
271
     1
  0
XRECORD
  5
17DA
102
{ACAD_REACTORS
330
17D4
102
}
330
17D4
100
AcDbXrecord
270
     1
271
     1
  0
XRECORD
  5
17D7
102
{ACAD_REACTORS
330
17D4
102
}
330
17D4
100
AcDbXrecord
270
     1
271
     1
  0
XRECORD
  5
2996
102
{ACAD_REACTORS
330
17E4
102
}
330
17E4
100
AcDbXrecord
102
MATERIAL
148
0.0
149
0.0
149
0.0
 93
        0
 94
      127
282
     0
 72
     0
 77
     0
171
     0
175
     0
179
     0
273
     0
  0
XRECORD
  5
17E6
102
{ACAD_REACTORS
330
17E4
102
}
330
17E4
100
AcDbXrecord
270
     1
271
     1
  0
XRECORD
  5
17E5
102
{ACAD_REACTORS
330
17E4
102
}
330
17E4
100
AcDbXrecord
270
     1
271
     1
  0
XRECORD
  5
17E9
102
{ACAD_REACTORS
330
17E4
102
}
330
17E4
100
AcDbXrecord
270
     1
271
     1
  0
XRECORD
  5
17E8
102
{ACAD_REACTORS
330
17E4
102
}
330
17E4
100
AcDbXrecord
270
     1
271
     1
  0
XRECORD
  5
17EA
102
{ACAD_REACTORS
330
17E4
102
}
330
17E4
100
AcDbXrecord
270
     1
271
     1
  0
XRECORD
  5
17E7
102
{ACAD_REACTORS
330
17E4
102
}
330
17E4
100
AcDbXrecord
270
     1
271
     1
  0
ACAD_PROXY_OBJECT
  5
2982
102
{ACAD_REACTORS
330
1836
102
}
330
1836
100
AcDbProxyObject
 90
      499
 91
      510
 93
     5304
310
40D054060020000020000003200101A000080002A5058000000C100000000000000340FD012E07A17AD46E2B8FCB81E85EB51B8AE3F2E07A17AD46E2B8FCB81E85EB51B8AE3F02B5E8DC0F42B1CFC0AD7A3703D0AC73F419019018000000C1003FBFFFFFE02B5E8DC0F42A9CFD029018000000C1003FBFFFFFE02B5E8DC0F4
310
2A9CFD049018000000C1003FBFFFFFE02B5E8DC0F42A9CFD089018000000C1003FBFFFFFE02B5E8DC0F42A9CFD109018000000C1003FBFFFFFE02B5E8DC0F42A9CFD209018000000C1003FBFFFFFE02B5E8DC0F42A9CFD01405075F5449544C450041501A8000000C800406800020000A9416000000304000AD7A3703D0AC7
310
3F404B81E85EB51B8AE3F2E07A17AD46E2B8FCB81E85EB51B8AE3F2E07A17AD46E2B8FC0AD7A3703D0AC73F02B5E8DC0F42B1CFD0640640600000030400FEFFFFFF80AD7A3703D0AA73F40A40600000030400FEFFFFFF80AD7A3703D0AA73F41240600000030400FEFFFFFF80AD7A3703D0AA73F42240600000030400FEFFF
310
FFF80AD7A3703D0AA73F44240600000030400FEFFFFFF80AD7A3703D0AA73F48240600000030400FEFFFFFF80AD7A3703D0AA73F409014217D2115051115480105406A0000003200101A000080002A5028000000C10002B5E8DC0F42B1CFD012E07A17AD46E2B8FCB81E85EB51B8AE3F2E07A17AD46E2B8FCB81E85EB51B8A
310
E3F02B5E8DC0F42B1CFC0AD7A3703D0AC73F419019018000000C1003FBFFFFFE02B5E8DC0F42A9CFD029018000000C1003FBFFFFFE02B5E8DC0F42A9CFD049018000000C1003FBFFFFFE02B5E8DC0F42A9CFD089018000000C1003FBFFFFFE02B5E8DC0F42A9CFD109018000000C1003FBFFFFFE02B5E8DC0F42A9CFD20901
310
8000000C1003FBFFFFFE02B5E8DC0F42A9CFD03409065F444154410000
340
16
340
0
340
0
340
0
340
0
340
0
340
0
340
16
340
0
340
0
340
0
340
0
340
0
340
0
340
16
340
0
340
0
340
0
340
0
340
0
340
0
 94
        0
1001
ACAD
1000
AcadProxyRoundTripData
1071
      509
1071
   655383
1070
     0
  0
XRECORD
  5
2997
102
{ACAD_REACTORS
330
1836
102
}
330
1836
100
AcDbXrecord
102
ACAD_ROUNDTRIP_PRE2007_TABLESTYLE
 90
      512
 91
        0
  1

 92
      512
 93
        0
  2

 94
      512
 95
        0
  3

  0
ENDSEC
  0
EOF
