  0
SECTION
  2
HEADER
  9
$ACADVER
  1
AC1014
  9
$ACADMAINTVER
 70
     9
  9
$DWGCODEPAGE
  3
ANSI_932
  9
$INSBASE
 10
0.0
 20
0.0
 30
0.0
  9
$EXTMIN
 10
17.86246554554099
 20
57.58037930482288
 30
0.0
  9
$EXTMAX
 10
998.9807611735923
 20
464.4776468282848
 30
0.0
  9
$LIMMIN
 10
0.0
 20
0.0
  9
$LIMMAX
 10
297.0
 20
210.0
  9
$ORTHOMODE
 70
     1
  9
$REGENMODE
 70
     1
  9
$FILLMODE
 70
     1
  9
$QTEXTMODE
 70
     0
  9
$MIRRTEXT
 70
     0
  9
$DRAGMODE
 70
     2
  9
$LTSCALE
 40
3.0
  9
$OSMODE
 70
    37
  9
$ATTMODE
 70
     1
  9
$TEXTSIZE
 40
2.0
  9
$TRACEWID
 40
1.0
  9
$TEXTSTYLE
  7
STANDARD
  9
$CLAYER
  8
0
  9
$CELTYPE
  6
BYLAYER
  9
$CECOLOR
 62
   256
  9
$CELTSCALE
 40
1.0
  9
$DELOBJ
 70
     1
  9
$DISPSILH
 70
     0
  9
$DIMSCALE
 40
3.0
  9
$DIMASZ
 40
1.8
  9
$DIMEXO
 40
0.625
  9
$DIMDLI
 40
3.75
  9
$DIMRND
 40
0.0
  9
$DIMDLE
 40
0.0
  9
$DIMEXE
 40
0.8
  9
$DIMTP
 40
0.0
  9
$DIMTM
 40
0.0
  9
$DIMTXT
 40
1.8
  9
$DIMCEN
 40
2.5
  9
$DIMTSZ
 40
0.0
  9
$DIMTOL
 70
     0
  9
$DIMLIM
 70
     0
  9
$DIMTIH
 70
     0
  9
$DIMTOH
 70
     0
  9
$DIMSE1
 70
     0
  9
$DIMSE2
 70
     0
  9
$DIMTAD
 70
     1
  9
$DIMZIN
 70
     8
  9
$DIMBLK
  1

  9
$DIMASO
 70
     1
  9
$DIMSHO
 70
     1
  9
$DIMPOST
  1

  9
$DIMAPOST
  1

  9
$DIMALT
 70
     0
  9
$DIMALTD
 70
     4
  9
$DIMALTF
 40
0.0394
  9
$DIMLFAC
 40
1.0
  9
$DIMTOFL
 70
     1
  9
$DIMTVP
 40
0.0
  9
$DIMTIX
 70
     0
  9
$DIMSOXD
 70
     0
  9
$DIMSAH
 70
     0
  9
$DIMBLK1
  1

  9
$DIMBLK2
  1

  9
$DIMSTYLE
  2
STANDARD
  9
$DIMCLRD
 70
     0
  9
$DIMCLRE
 70
     0
  9
$DIMCLRT
 70
     0
  9
$DIMTFAC
 40
1.0
  9
$DIMGAP
 40
0.75
  9
$DIMJUST
 70
     0
  9
$DIMSD1
 70
     0
  9
$DIMSD2
 70
     0
  9
$DIMTOLJ
 70
     1
  9
$DIMTZIN
 70
     0
  9
$DIMALTZ
 70
     0
  9
$DIMALTTZ
 70
     0
  9
$DIMFIT
 70
     3
  9
$DIMUPT
 70
     0
  9
$DIMUNIT
 70
     8
  9
$DIMDEC
 70
     2
  9
$DIMTDEC
 70
     2
  9
$DIMALTU
 70
     8
  9
$DIMALTTD
 70
     4
  9
$DIMTXSTY
  7
STANDARD
  9
$DIMAUNIT
 70
     0
  9
$LUNITS
 70
     2
  9
$LUPREC
 70
     3
  9
$SKETCHINC
 40
1.0
  9
$FILLETRAD
 40
10.0
  9
$AUNITS
 70
     0
  9
$AUPREC
 70
     2
  9
$MENU
  1
.
  9
$ELEVATION
 40
0.0
  9
$PELEVATION
 40
0.0
  9
$THICKNESS
 40
0.0
  9
$LIMCHECK
 70
     0
  9
$BLIPMODE
 70
     0
  9
$CHAMFERA
 40
0.0
  9
$CHAMFERB
 40
0.0
  9
$CHAMFERC
 40
20.0
  9
$CHAMFERD
 40
0.0
  9
$SKPOLY
 70
     0
  9
$TDCREATE
 40
2454410.733051747
  9
$TDUPDATE
 40
2454425.766429213
  9
$TDINDWG
 40
0.0716996065
  9
$TDUSRTIMER
 40
0.0716994329
  9
$USRTIMER
 70
     1
  9
$ANGBASE
 50
0.0
  9
$ANGDIR
 70
     0
  9
$PDMODE
 70
     0
  9
$PDSIZE
 40
-10.0
  9
$PLINEWID
 40
0.0
  9
$COORDS
 70
     0
  9
$SPLFRAME
 70
     0
  9
$SPLINETYPE
 70
     6
  9
$SPLINESEGS
 70
     8
  9
$ATTDIA
 70
     0
  9
$ATTREQ
 70
     1
  9
$HANDLING
 70
-16383
  9
$HANDSEED
  5
2B20
  9
$SURFTAB1
 70
     6
  9
$SURFTAB2
 70
     6
  9
$SURFTYPE
 70
     6
  9
$SURFU
 70
     6
  9
$SURFV
 70
     6
  9
$UCSNAME
  2

  9
$UCSORG
 10
0.0
 20
0.0
 30
0.0
  9
$UCSXDIR
 10
1.0
 20
0.0
 30
0.0
  9
$UCSYDIR
 10
0.0
 20
1.0
 30
0.0
  9
$PUCSNAME
  2

  9
$PUCSORG
 10
0.0
 20
0.0
 30
0.0
  9
$PUCSXDIR
 10
1.0
 20
0.0
 30
0.0
  9
$PUCSYDIR
 10
0.0
 20
1.0
 30
0.0
  9
$USERI1
 70
     0
  9
$USERI2
 70
     0
  9
$USERI3
 70
     0
  9
$USERI4
 70
     0
  9
$USERI5
 70
     0
  9
$USERR1
 40
0.0
  9
$USERR2
 40
0.0
  9
$USERR3
 40
0.0
  9
$USERR4
 40
0.0
  9
$USERR5
 40
0.0
  9
$WORLDVIEW
 70
     1
  9
$SHADEDGE
 70
     3
  9
$SHADEDIF
 70
    70
  9
$TILEMODE
 70
     1
  9
$MAXACTVP
 70
    48
  9
$PINSBASE
 10
0.0
 20
0.0
 30
0.0
  9
$PLIMCHECK
 70
     0
  9
$PEXTMIN
 10
0.0
 20
0.0
 30
0.0
  9
$PEXTMAX
 10
0.0
 20
0.0
 30
0.0
  9
$PLIMMIN
 10
0.0
 20
0.0
  9
$PLIMMAX
 10
12.0
 20
9.0
  9
$UNITMODE
 70
     0
  9
$VISRETAIN
 70
     1
  9
$PLINEGEN
 70
     0
  9
$PSLTSCALE
 70
     1
  9
$TREEDEPTH
 70
  3020
  9
$PICKSTYLE
 70
     1
  9
$CMLSTYLE
  2
STANDARD
  9
$CMLJUST
 70
     0
  9
$CMLSCALE
 40
1.0
  9
$PROXYGRAPHICS
 70
     1
  9
$MEASUREMENT
 70
     0
  0
ENDSEC
  0
SECTION
  2
CLASSES
  0
CLASS
  1
DICTIONARYVAR
  2
AcDbDictionaryVar
  3
AutoCAD 2000
 90
        0
280
     0
281
     0
  0
CLASS
  1
ACDBDICTIONARYWDFLT
  2
AcDbDictionaryWithDefault
  3
AutoCAD 2000
 90
        0
280
     0
281
     0
  0
CLASS
  1
ACDBPLACEHOLDER
  2
AcDbPlaceHolder
  3
AutoCAD 2000
 90
        0
280
     0
281
     0
  0
CLASS
  1
LAYOUT
  2
AcDbLayout
  3
AutoCAD 2000
 90
        0
280
     0
281
     0
  0
CLASS
  1
MATERIAL
  2
AcDbMaterial
  3
ObjectDBX Classes
 90
     1153
280
     0
281
     0
  0
CLASS
  1
VISUALSTYLE
  2
AcDbVisualStyle
  3
ObjectDBX Classes
 90
     4095
280
     0
281
     0
  0
CLASS
  1
TABLESTYLE
  2
AcDbTableStyle
  3
ObjectDBX Classes
 90
     4095
280
     0
281
     0
  0
CLASS
  1
SCALE
  2
AcDbScale
  3
ObjectDBX Classes
 90
     1153
280
     0
281
     0
  0
CLASS
  1
MLEADERSTYLE
  2
AcDbMLeaderStyle
  3
ACDB_MLEADERSTYLE_CLASS
 90
     4095
280
     0
281
     0
  0
CLASS
  1
CELLSTYLEMAP
  2
AcDbCellStyleMap
  3
ObjectDBX Classes
 90
     1152
280
     0
281
     0
  0
CLASS
  1
ACAD_PROXY_OBJECT_WRAPPER
  2
AcDbProxyObjectWrapper
  3
AutoCAD 2000
 90
        0
280
     0
281
     0
  0
CLASS
  1
LONG_TRANSACTION
  2
AcDbLongTransaction
  3
AutoCAD 2000
 90
        0
280
     0
281
     0
  0
CLASS
  1
LWPOLYLINE
  2
AcDbPolyline
  3
AutoCAD 2000
 90
        0
280
     0
281
     1
  0
CLASS
  1
HATCH
  2
AcDbHatch
  3
AutoCAD 2000
 90
        0
280
     0
281
     1
  0
CLASS
  1
XRECORD
  2
AcDbXrecord
  3
AutoCAD 2000
 90
        0
280
     0
281
     0
  0
ENDSEC
  0
SECTION
  2
TABLES
  0
TABLE
  2
VPORT
  5
6E
102
{ACAD_XDICTIONARY
360
1E13
102
}
330
0
100
AcDbSymbolTable
 70
     2
  0
VPORT
  5
2AFA
330
6E
100
AcDbSymbolTableRecord
100
AcDbViewportTableRecord
  2
*ACTIVE
 70
     0
 10
0.0
 20
0.0
 11
1.0
 21
1.0
 12
578.3362613857892
 22
251.8708295494849
 13
0.0
 23
0.0
 14
10.0
 24
10.0
 15
10.0
 25
10.0
 16
0.0
 26
0.0
 36
1.0
 17
0.0
 27
0.0
 37
0.0
 40
642.1145744192313
 41
1.753504672897196
 42
50.0
 43
0.0
 44
0.0
 50
0.0
 51
0.0
 71
     0
 72
   100
 73
     1
 74
     3
 75
     0
 76
     0
 77
     0
 78
     0
  0
ENDTAB
  0
TABLE
  2
LTYPE
  5
69
330
0
100
AcDbSymbolTable
 70
     5
  0
LTYPE
  5
6A
330
69
100
AcDbSymbolTableRecord
100
AcDbLinetypeTableRecord
  2
BYBLOCK
 70
     0
  3

 72
    65
 73
     0
 40
0.0
  0
LTYPE
  5
6B
330
69
100
AcDbSymbolTableRecord
100
AcDbLinetypeTableRecord
  2
BYLAYER
 70
     0
  3

 72
    65
 73
     0
 40
0.0
  0
LTYPE
  5
8
330
69
100
AcDbSymbolTableRecord
100
AcDbLinetypeTableRecord
  2
CONTINUOUS
 70
     0
  3
Solid line
 72
    65
 73
     0
 40
0.0
  0
LTYPE
  5
27C
330
69
100
AcDbSymbolTableRecord
100
AcDbLinetypeTableRecord
  2
SEKKEI_A2_
 70
     0
  3
center(A2)  ____ _ ____ _ ____ _ ____ _ ____ _ 
 72
    65
 73
     4
 40
14.28749999999999
 49
9.525
 74
     0
 49
-1.587499999999999
 74
     0
 49
1.587499999999999
 74
     0
 49
-1.587499999999999
 74
     0
  0
LTYPE
  5
7F0
330
69
100
AcDbSymbolTableRecord
100
AcDbLinetypeTableRecord
  2
HIDDEN3
 70
     0
  3
Hidden (.3x) _ _ _ _ _ _ _ _ _ _ _ _ _ _ _ _ _
 72
    65
 73
     2
 40
2.857499999999999
 49
1.905
 74
     0
 49
-0.9525
 74
     0
  0
LTYPE
  5
ADA
330
69
100
AcDbSymbolTableRecord
100
AcDbLinetypeTableRecord
  2
CENS
 70
     0
  3
(一点鎖線１)---- - ---- - ---- - ---- - ---- - 
 72
    65
 73
     4
 40
7.0
 49
4.0
 74
     0
 49
-1.0
 74
     0
 49
1.0
 74
     0
 49
-1.0
 74
     0
  0
ENDTAB
  0
TABLE
  2
LAYER
  5
66
102
{ACAD_XDICTIONARY
360
ADB
102
}
330
0
100
AcDbSymbolTable
 70
     9
  0
LAYER
  5
5E
102
{ACAD_XDICTIONARY
360
1DAD
102
}
330
66
100
AcDbSymbolTableRecord
100
AcDbLayerTableRecord
  2
0
 70
     0
 62
     7
  6
CONTINUOUS
  0
LAYER
  5
3E
102
{ACAD_XDICTIONARY
360
1DAF
102
}
330
66
100
AcDbSymbolTableRecord
100
AcDbLayerTableRecord
  2
CENTER
 70
     0
 62
     3
  6
SEKKEI_A2_
  0
LAYER
  5
2B5
102
{ACAD_XDICTIONARY
360
1DB5
102
}
330
66
100
AcDbSymbolTableRecord
100
AcDbLayerTableRecord
  2
HIDS
 70
     0
 62
     1
  6
HIDDEN3
  0
LAYER
  5
2BA
102
{ACAD_XDICTIONARY
360
1DB7
102
}
330
66
100
AcDbSymbolTableRecord
100
AcDbLayerTableRecord
  2
HOJO
 70
     0
 62
     4
  6
CONTINUOUS
  0
LAYER
  5
3FA
102
{ACAD_XDICTIONARY
360
1DBB
102
}
330
66
100
AcDbSymbolTableRecord
100
AcDbLayerTableRecord
  2
TITLE
 70
     0
 62
     4
  6
CONTINUOUS
  0
ENDTAB
  0
TABLE
  2
STYLE
  5
67
330
0
100
AcDbSymbolTable
 70
     2
  0
STYLE
  5
16
330
67
100
AcDbSymbolTableRecord
100
AcDbTextStyleTableRecord
  2
STANDARD
 70
     0
 40
0.0
 41
1.0
 50
0.0
 71
     0
 42
2.0
  3
simplex.shx
  4
extfont.shx
  0
ENDTAB
  0
TABLE
  2
VIEW
  5
6C
330
0
100
AcDbSymbolTable
 70
     0
  0
ENDTAB
  0
TABLE
  2
UCS
  5
6D
330
0
100
AcDbSymbolTable
 70
     0
  0
ENDTAB
  0
TABLE
  2
APPID
  5
70
330
0
100
AcDbSymbolTable
 70
     3
  0
APPID
  5
71
330
70
100
AcDbSymbolTableRecord
100
AcDbRegAppTableRecord
  2
ACAD
 70
     0
  0
APPID
  5
1DAA
330
70
100
AcDbSymbolTableRecord
100
AcDbRegAppTableRecord
  2
ACAD_MLEADERVER
 70
     0
  0
APPID
  5
1DE2
330
70
100
AcDbSymbolTableRecord
100
AcDbRegAppTableRecord
  2
ACAD_DSTYLE_DIMRADIAL_EXTENSION
 70
     0
  0
ENDTAB
  0
TABLE
  2
DIMSTYLE
  5
72
330
0
100
AcDbSymbolTable
 70
     1
  0
DIMSTYLE
105
73
330
72
100
AcDbSymbolTableRecord
100
AcDbDimStyleTableRecord
  2
STANDARD
 70
     0
  3

  4

  5

  6

  7

 40
3.0
 41
1.8
 42
0.625
 43
3.75
 44
0.8
 45
0.0
 46
0.0
 47
0.0
 48
0.0
140
1.8
141
2.5
142
0.0
143
0.0394
144
1.0
145
0.0
146
1.0
147
0.75
 71
     0
 72
     0
 73
     0
 74
     0
 75
     0
 76
     0
 77
     1
 78
     8
170
     0
171
     4
172
     1
173
     0
174
     0
175
     0
176
     0
177
     0
178
     0
270
     8
271
     2
272
     2
273
     8
274
     4
340
16
275
     0
280
     0
281
     0
282
     0
283
     1
284
     0
285
     0
286
     0
287
     3
288
     0
  0
ENDTAB
  0
TABLE
  2
BLOCK_RECORD
  5
1
330
0
100
AcDbSymbolTable
 70
    46
  0
BLOCK_RECORD
  5
2
102
{ACAD_XDICTIONARY
360
2B1C
102
}
330
1
100
AcDbSymbolTableRecord
100
AcDbBlockTableRecord
  2
*MODEL_SPACE
  0
BLOCK_RECORD
  5
2AF5
102
{ACAD_XDICTIONARY
360
2B1E
102
}
330
1
100
AcDbSymbolTableRecord
100
AcDbBlockTableRecord
  2
*PAPER_SPACE
  0
ENDTAB
  0
ENDSEC
  0
SECTION
  2
BLOCKS
  0
BLOCK
  5
5D
330
2
100
AcDbEntity
  8
0
100
AcDbBlockBegin
  2
*MODEL_SPACE
 70
     0
 10
0.0
 20
0.0
 30
0.0
  3
*MODEL_SPACE
  1

  0
ENDBLK
  5
5F
330
2
100
AcDbEntity
  8
0
100
AcDbBlockEnd
  0
BLOCK
  5
2AF7
330
2AF5
100
AcDbEntity
 67
     1
  8
0
100
AcDbBlockBegin
  2
*PAPER_SPACE
 70
     0
 10
0.0
 20
0.0
 30
0.0
  3
*PAPER_SPACE
  1

  0
ENDBLK
  5
2AF8
330
2AF5
100
AcDbEntity
 67
     1
  8
0
100
AcDbBlockEnd
  0
ENDSEC
  0
SECTION
  2
ENTITIES
  0
TEXT
  5
F02
330
2
100
AcDbEntity
  8
TITLE
100
AcDbText
 10
299.4852690626623
 20
412.4171656814441
 30
0.0
 40
7.5
  1
AFCZ18L-3~5M750S4
100
AcDbText
  0
TEXT
  5
F03
330
2
100
AcDbEntity
  8
TITLE
100
AcDbText
 10
299.4852690626623
 20
400.9171656814441
 30
0.0
 40
7.5
  1
AFCZ18L-3~5L750S4
100
AcDbText
  0
LINE
  5
F05
330
2
100
AcDbEntity
  8
CENTER
100
AcDbLine
 10
998.9807611735923
 20
116.5803793048042
 30
0.0
 11
840.9804856188719
 21
116.5803793048042
 31
0.0
  0
LINE
  5
F06
330
2
100
AcDbEntity
  8
CENTER
100
AcDbLine
 10
943.9804856188805
 20
168.0803793048192
 30
0.0
 11
943.9804856188805
 21
65.08037930482018
 31
0.0
  0
LINE
  5
F07
330
2
100
AcDbEntity
  8
0
100
AcDbLine
 10
900.9804856188768
 20
156.9956791628381
 30
0.0
 11
900.980485618875
 21
76.16507944677355
 31
0.0
  0
LINE
  5
F08
330
2
100
AcDbEntity
  8
0
100
AcDbLine
 10
895.9804856188778
 20
151.5803793047992
 30
0.0
 11
895.9804856188778
 21
81.58037930479926
 31
0.0
  0
LINE
  5
F09
330
2
100
AcDbEntity
  8
0
100
AcDbLine
 10
894.0502846122829
 20
144.9669452037672
 30
0.0
 11
884.9106866254736
 21
144.6477834092232
 31
0.0
  0
ARC
  5
F0A
330
2
100
AcDbEntity
  8
0
100
AcDbCircle
 10
893.9804856188777
 20
146.9657268578051
 30
0.0
 40
2.0
100
AcDbArc
 50
272.0000000000036
 51
0.0
  0
LINE
  5
F0B
330
2
100
AcDbEntity
  8
0
100
AcDbLine
 10
882.9804856188795
 20
142.6490017551844
 30
0.0
 11
882.9804856188777
 21
90.51175685441407
 31
0.0
  0
ARC
  5
F0C
330
2
100
AcDbEntity
  8
0
100
AcDbCircle
 10
884.9804856188777
 20
142.6490017551844
 30
0.0
 40
2.0
100
AcDbArc
 50
92.00000000000365
 51
180.0
  0
ARC
  5
F0D
330
2
100
AcDbEntity
  8
0
100
AcDbCircle
 10
884.9804856188777
 20
90.51175685441407
 30
0.0
 40
2.0
100
AcDbArc
 50
180.0
 51
267.9999999999963
  0
LINE
  5
F0E
330
2
100
AcDbEntity
  8
0
100
AcDbLine
 10
894.0502846122829
 20
88.19381340583035
 30
0.0
 11
884.9106866254727
 21
88.51297520037528
 31
0.0
  0
ARC
  5
F0F
330
2
100
AcDbEntity
  8
0
100
AcDbCircle
 10
893.9804856188777
 20
86.19503175179156
 30
0.0
 40
2.0
100
AcDbArc
 50
0.0
 51
87.99999999999636
  0
LINE
  5
F10
330
2
100
AcDbEntity
  8
0
100
AcDbLine
 10
980.041456694964
 20
75.5201472447728
 30
0.0
 11
943.9804856188796
 21
75.08037930482018
 31
0.0
  0
LINE
  5
F11
330
2
100
AcDbEntity
  8
0
100
AcDbLine
 10
907.9195145427942
 20
75.52014724477462
 30
0.0
 11
943.9804856188786
 21
75.08037930482018
 31
0.0
  0
LINE
  5
F12
330
2
100
AcDbEntity
  8
0
100
AcDbLine
 10
907.9195145427942
 20
157.6406113648657
 30
0.0
 11
920.1677614480525
 21
157.7899802295642
 31
0.0
  0
ARC
  5
F13
330
2
100
AcDbEntity
  8
0
100
AcDbCircle
 10
979.9804856188796
 20
152.6409831259
 30
0.0
 40
5.0
100
AcDbArc
 50
44.50893050066365
 51
89.30130561700025
  0
ARC
  5
F14
330
2
100
AcDbEntity
  8
0
100
AcDbCircle
 10
907.9804856188795
 20
152.6409831258982
 30
0.0
 40
5.0
100
AcDbArc
 50
90.69869438299972
 51
135.4910694995568
  0
ARC
  5
F15
330
2
100
AcDbEntity
  8
0
100
AcDbCircle
 10
907.9804856188795
 20
80.5197754837421
 30
0.0
 40
5.0
100
AcDbArc
 50
224.5089305156156
 51
269.3013056170002
  0
ARC
  5
F16
330
2
100
AcDbEntity
  8
0
100
AcDbCircle
 10
979.9804856188796
 20
80.51977548374029
 30
0.0
 40
5.0
100
AcDbArc
 50
270.6986943829997
 51
315.4910694841727
  0
LINE
  5
F17
330
2
100
AcDbEntity
  8
0
100
AcDbLine
 10
980.041456694964
 20
157.6406113648675
 30
0.0
 11
943.9804856188796
 21
158.0803793048192
 31
0.0
  0
LINE
  5
F18
330
2
100
AcDbEntity
  8
0
100
AcDbLine
 10
905.5963361305323
 20
76.12479752962039
 30
0.0
 11
900.980485618875
 21
76.16507944677355
 31
0.0
  0
LINE
  5
F19
330
2
100
AcDbEntity
  8
0
100
AcDbLine
 10
905.5963361304868
 20
157.0359610799945
 30
0.0
 11
900.9804856188768
 21
156.9956791628381
 31
0.0
  0
LINE
  5
F1A
330
2
100
AcDbEntity
  8
0
100
AcDbLine
 10
900.9804856188777
 20
151.5803793047992
 30
0.0
 11
895.9804856188778
 21
151.5803793047992
 31
0.0
  0
LINE
  5
F1B
330
2
100
AcDbEntity
  8
0
100
AcDbLine
 10
900.9804856188777
 20
81.58037930479926
 30
0.0
 11
895.9804856188778
 21
81.58037930479926
 31
0.0
  0
LINE
  5
F1C
330
2
100
AcDbEntity
  8
0
100
AcDbLine
 10
985.9804856188723
 20
143.0803793048024
 30
0.0
 11
985.1573148871706
 21
143.0803793048024
 31
0.0
  0
LINE
  5
F1D
330
2
100
AcDbEntity
  8
0
100
AcDbLine
 10
985.9804856188715
 20
143.0803793048024
 30
0.0
 11
986.9804856188723
 21
142.5030290356129
 31
0.0
  0
LINE
  5
F1E
330
2
100
AcDbEntity
  8
0
100
AcDbLine
 10
986.9804856188759
 20
90.65772957399245
 30
0.0
 11
986.9804856188759
 21
142.5030290356101
 31
0.0
  0
LINE
  5
F1F
330
2
100
AcDbEntity
  8
0
100
AcDbLine
 10
985.9804856188715
 20
90.08037930480062
 30
0.0
 11
986.9804856188723
 21
90.65772957399062
 31
0.0
  0
LINE
  5
F20
330
2
100
AcDbEntity
  8
0
100
AcDbLine
 10
985.9804856188723
 20
90.08037930480062
 30
0.0
 11
985.1573148871706
 21
90.08037930480085
 31
0.0
  0
LINE
  5
F21
330
2
100
AcDbEntity
  8
0
100
AcDbLine
 10
985.9804856188723
 20
90.08037930480062
 30
0.0
 11
985.9804856188715
 21
143.0803793048024
 31
0.0
  0
LINE
  5
F30
330
2
100
AcDbEntity
  8
CENTER
100
AcDbLine
 10
218.8624655455409
 20
116.580379304818
 30
0.0
 11
17.86246554554099
 21
116.580379304818
 31
0.0
  0
LINE
  5
F34
330
2
100
AcDbEntity
  8
CENTER
100
AcDbLine
 10
541.2034988437588
 20
411.4776468309496
 30
0.0
 11
741.9984174463296
 21
411.4776468309508
 31
0.0
  0
LINE
  5
F4D
330
2
100
AcDbEntity
  8
0
100
AcDbLine
 10
676.9984174507154
 20
158.0803793048215
 30
0.0
 11
676.9984174507154
 21
75.08037930482157
 31
0.0
  0
LINE
  5
F58
330
2
100
AcDbEntity
  8
0
100
AcDbLine
 10
82.862465545541
 20
75.08037930481762
 30
0.0
 11
82.862465545541
 21
158.0803793048176
 31
0.0
  0
LINE
  5
F6D
330
2
100
AcDbEntity
  8
0
100
AcDbLine
 10
676.9984174463306
 20
452.4776468309501
 30
0.0
 11
676.9984174463306
 21
370.4776468309501
 31
0.0
  0
LINE
  5
1008
330
2
100
AcDbEntity
  8
CENTER
100
AcDbLine
 10
532.9984174507181
 20
116.5803793048179
 30
0.0
 11
741.9984174463444
 21
116.5803793048181
 31
0.0
  0
LINE
  5
1217
330
2
100
AcDbEntity
  8
0
100
AcDbLine
 10
685.9984174463305
 20
441.1276468309497
 30
0.0
 11
685.9984174463323
 21
381.8276468309496
 31
0.0
  0
LINE
  5
1218
330
2
100
AcDbEntity
  8
0
100
AcDbLine
 10
707.9984174463305
 20
408.4776468309502
 30
0.0
 11
707.9984174463305
 21
389.4776468309501
 31
0.0
  0
LINE
  5
1219
330
2
100
AcDbEntity
  8
0
100
AcDbLine
 10
710.9984174463305
 20
411.4776468309501
 30
0.0
 11
718.9984174463287
 21
411.4776468309501
 31
0.0
  0
LINE
  5
121A
330
2
100
AcDbEntity
  8
0
100
AcDbLine
 10
687.6039687217952
 20
451.47764683095
 30
0.0
 11
731.9984174463287
 21
451.47764683095
 31
0.0
  0
LINE
  5
121B
330
2
100
AcDbEntity
  8
0
100
AcDbLine
 10
721.9984174463287
 20
446.4776468309501
 30
0.0
 11
721.9984174463287
 21
414.4776468309501
 31
0.0
  0
ARC
  5
121C
330
2
100
AcDbEntity
  8
0
100
AcDbCircle
 10
726.9984174463287
 20
446.4776468309501
 30
0.0
 40
5.0
100
AcDbArc
 50
90.0
 51
180.0
  0
ARC
  5
121D
330
2
100
AcDbEntity
  8
0
100
AcDbCircle
 10
718.9984174463287
 20
414.4776468309501
 30
0.0
 40
3.0
100
AcDbArc
 50
270.0
 51
0.0
  0
LINE
  5
121E
330
2
100
AcDbEntity
  8
0
100
AcDbLine
 10
676.9984174463306
 20
452.4776468309501
 30
0.0
 11
683.9984174463324
 21
452.4776468309501
 31
0.0
  0
ARC
  5
121F
330
2
100
AcDbEntity
  8
0
100
AcDbCircle
 10
687.6039687217952
 20
456.4776468309501
 30
0.0
 40
5.0
100
AcDbArc
 50
238.9972808660634
 51
270.0
  0
ARC
  5
1220
330
2
100
AcDbEntity
  8
0
100
AcDbCircle
 10
683.9984174463324
 20
450.4776468309501
 30
0.0
 40
2.0
100
AcDbArc
 50
18.96557498887199
 51
90.0
  0
ARC
  5
1221
330
2
100
AcDbEntity
  8
0
100
AcDbCircle
 10
710.9984174463305
 20
408.4776468309502
 30
0.0
 40
3.0
100
AcDbArc
 50
90.0
 51
180.0
  0
LINE
  5
1222
330
2
100
AcDbEntity
  8
0
100
AcDbLine
 10
687.6039687217952
 20
371.4776468309501
 30
0.0
 11
731.9984174463287
 21
371.4776468309497
 31
0.0
  0
LINE
  5
1223
330
2
100
AcDbEntity
  8
0
100
AcDbLine
 10
710.9984174463305
 20
386.4776468309501
 30
0.0
 11
718.9984174463287
 21
386.4776468309501
 31
0.0
  0
LINE
  5
1224
330
2
100
AcDbEntity
  8
0
100
AcDbLine
 10
721.9984174463287
 20
383.4776468309501
 30
0.0
 11
721.9984174463287
 21
376.4776468309497
 31
0.0
  0
ARC
  5
1225
330
2
100
AcDbEntity
  8
0
100
AcDbCircle
 10
718.9984174463287
 20
383.4776468309501
 30
0.0
 40
3.0
100
AcDbArc
 50
0.0
 51
90.0
  0
ARC
  5
1226
330
2
100
AcDbEntity
  8
0
100
AcDbCircle
 10
726.9984174463287
 20
376.4776468309501
 30
0.0
 40
5.0
100
AcDbArc
 50
180.0
 51
270.0
  0
ARC
  5
1227
330
2
100
AcDbEntity
  8
0
100
AcDbCircle
 10
710.9984174463305
 20
389.4776468309501
 30
0.0
 40
3.0
100
AcDbArc
 50
180.0
 51
270.0
  0
LINE
  5
1228
330
2
100
AcDbEntity
  8
0
100
AcDbLine
 10
676.9984174463306
 20
370.4776468309497
 30
0.0
 11
683.9984174463324
 21
370.4776468309501
 31
0.0
  0
ARC
  5
1229
330
2
100
AcDbEntity
  8
0
100
AcDbCircle
 10
687.6039687217952
 20
366.4776468309501
 30
0.0
 40
5.0
100
AcDbArc
 50
90.0
 51
121.0027191339365
  0
ARC
  5
122A
330
2
100
AcDbEntity
  8
0
100
AcDbCircle
 10
683.9984174463324
 20
372.4776468309501
 30
0.0
 40
2.0
100
AcDbArc
 50
270.0
 51
341.0344250111279
  0
LINE
  5
122B
330
2
100
AcDbEntity
  8
0
100
AcDbLine
 10
731.9984174463287
 20
451.47764683095
 30
0.0
 11
731.9984174463287
 21
371.4776468309497
 31
0.0
  0
LINE
  5
122C
330
2
100
AcDbEntity
  8
0
100
AcDbLine
 10
907.9198817977996
 20
157.5803793048038
 30
0.0
 11
920.107502272673
 21
157.5803793048047
 31
0.0
  0
LINE
  5
122D
330
2
100
AcDbEntity
  8
0
100
AcDbLine
 10
937.8534689650871
 20
157.580379304806
 30
0.0
 11
980.0410894399613
 21
157.5803793048092
 31
0.0
  0
CIRCLE
  5
122E
330
2
100
AcDbEntity
  8
HIDS
100
AcDbCircle
 10
943.9804856188805
 20
116.5803793048042
 30
0.0
 40
40.0
  0
CIRCLE
  5
122F
330
2
100
AcDbEntity
  8
0
100
AcDbCircle
 10
943.9804856188805
 20
116.5803793048042
 30
0.0
 40
34.99999999543831
  0
LINE
  5
1230
330
2
100
AcDbEntity
  8
0
100
AcDbLine
 10
911.9804856188805
 20
156.5803793048042
 30
0.0
 11
975.9804856188805
 21
156.5803793048042
 31
0.0
  0
LINE
  5
1231
330
2
100
AcDbEntity
  8
0
100
AcDbLine
 10
911.9804856188805
 20
76.58037930480427
 30
0.0
 11
975.8873673203199
 21
76.58037930480472
 31
0.0
  0
LINE
  5
1232
330
2
100
AcDbEntity
  8
0
100
AcDbLine
 10
902.9202535588321
 20
80.51940822871925
 30
0.0
 11
902.4804856188895
 21
116.5803793048042
 31
0.0
  0
LINE
  5
1233
330
2
100
AcDbEntity
  8
0
100
AcDbLine
 10
904.0736377637697
 20
84.55710829023777
 30
0.0
 11
903.9804856188805
 21
116.5803793048042
 31
0.0
  0
ARC
  5
1234
330
2
100
AcDbEntity
  8
0
100
AcDbCircle
 10
907.9198817977996
 20
80.58037930480471
 30
0.0
 40
5.0
100
AcDbArc
 50
180.6986943829866
 51
270.0
  0
ARC
  5
1235
330
2
100
AcDbEntity
  8
0
100
AcDbCircle
 10
912.073603917441
 20
84.58037930480427
 30
0.0
 40
7.999999999999998
100
AcDbArc
 50
180.1666665999998
 51
270.0
  0
LINE
  5
1236
330
2
100
AcDbEntity
  8
CENTER
100
AcDbLine
 10
912.1604856188808
 20
90.26037930480411
 30
0.0
 11
912.1604856188808
 21
79.2603793048041
 31
0.0
  0
LINE
  5
1237
330
2
100
AcDbEntity
  8
CENTER
100
AcDbLine
 10
906.6604856188808
 20
84.7603793048041
 30
0.0
 11
917.6604856188808
 21
84.7603793048041
 31
0.0
  0
LINE
  5
1238
330
2
100
AcDbEntity
  8
0
100
AcDbLine
 10
902.9202535588321
 20
152.6413503808893
 30
0.0
 11
902.4804856188895
 21
116.5803793048042
 31
0.0
  0
LINE
  5
1239
330
2
100
AcDbEntity
  8
HIDS
100
AcDbLine
 10
923.2304856188786
 20
156.5803793048042
 30
0.0
 11
923.5691072552393
 21
137.1807587502483
 31
0.0
  0
LINE
  5
123A
330
2
100
AcDbEntity
  8
HIDS
100
AcDbLine
 10
934.7304856188786
 20
156.5803793048042
 30
0.0
 11
934.5107313356868
 21
143.9906648526774
 31
0.0
  0
LINE
  5
123B
330
2
100
AcDbEntity
  8
0
100
AcDbLine
 10
904.0736377637697
 20
148.6036503193712
 30
0.0
 11
903.9804856188805
 21
116.5803793048042
 31
0.0
  0
LINE
  5
123C
330
2
100
AcDbEntity
  8
CENTER
100
AcDbLine
 10
912.1604856188808
 20
153.9003793048044
 30
0.0
 11
912.1604856188808
 21
142.9003793048044
 31
0.0
  0
ARC
  5
123D
330
2
100
AcDbEntity
  8
HIDS
100
AcDbCircle
 10
920.9458801451113
 20
154.5803793048042
 30
0.0
 40
2.0
100
AcDbArc
 50
90.0
 51
178.9999999999974
  0
ARC
  5
123E
330
2
100
AcDbEntity
  8
0
100
AcDbCircle
 10
907.9198817977996
 20
152.5803793048038
 30
0.0
 40
5.0
100
AcDbArc
 50
90.0
 51
179.3013056170132
  0
ARC
  5
123F
330
2
100
AcDbEntity
  8
0
100
AcDbCircle
 10
912.073603917441
 20
148.5803793048042
 30
0.0
 40
7.999999999999998
100
AcDbArc
 50
90.0
 51
179.8333334000001
  0
LINE
  5
1240
330
2
100
AcDbEntity
  8
CENTER
100
AcDbLine
 10
906.6604856188808
 20
148.4003793048044
 30
0.0
 11
917.6604856188808
 21
148.4003793048044
 31
0.0
  0
LINE
  5
1241
330
2
100
AcDbEntity
  8
HIDS
100
AcDbLine
 10
918.9461847547994
 20
154.6152841176784
 30
0.0
 11
918.8490337925397
 21
149.0495092174122
 31
0.0
  0
ARC
  5
1242
330
2
100
AcDbEntity
  8
HIDS
100
AcDbCircle
 10
915.8494907070691
 20
149.1018664367241
 30
0.0
 40
3.0
100
AcDbArc
 50
310.8597132650932
 51
358.9999999999843
  0
LINE
  5
1243
330
2
100
AcDbEntity
  8
0
100
AcDbLine
 10
985.0407176789287
 20
80.51940822871925
 30
0.0
 11
985.4804856188714
 21
116.5803793047728
 31
0.0
  0
LINE
  5
1244
330
2
100
AcDbEntity
  8
0
100
AcDbLine
 10
983.8873334739913
 20
84.55710829023777
 30
0.0
 11
983.9804856188804
 21
116.5803793048042
 31
0.0
  0
ARC
  5
1245
330
2
100
AcDbEntity
  8
0
100
AcDbCircle
 10
980.0410894399613
 20
80.58037930480427
 30
0.0
 40
5.0
100
AcDbArc
 50
270.0
 51
359.3013056170132
  0
ARC
  5
1246
330
2
100
AcDbEntity
  8
0
100
AcDbCircle
 10
975.8873673203199
 20
84.58037930480427
 30
0.0
 40
8.0
100
AcDbArc
 50
270.0
 51
359.8333334000002
  0
LINE
  5
1247
330
2
100
AcDbEntity
  8
HIDS
100
AcDbLine
 10
969.0147864829617
 20
78.54547449192918
 30
0.0
 11
969.1119374452211
 21
84.11124939219584
 31
0.0
  0
LINE
  5
1248
330
2
100
AcDbEntity
  8
CENTER
100
AcDbLine
 10
975.8004856188803
 20
90.26037930480411
 30
0.0
 11
975.8004856188803
 21
79.2603793048041
 31
0.0
  0
ARC
  5
1249
330
2
100
AcDbEntity
  8
HIDS
100
AcDbCircle
 10
967.0150910926478
 20
78.58037930480472
 30
0.0
 40
2.0
100
AcDbArc
 50
270.0
 51
358.9999999999843
  0
LINE
  5
124A
330
2
100
AcDbEntity
  8
CENTER
100
AcDbLine
 10
970.3004856188801
 20
84.7603793048041
 30
0.0
 11
981.3004856188802
 21
84.7603793048041
 31
0.0
  0
ARC
  5
124B
330
2
100
AcDbEntity
  8
HIDS
100
AcDbCircle
 10
972.11148053069
 20
84.05889217288345
 30
0.0
 40
3.0
100
AcDbArc
 50
130.8597132650931
 51
178.9999999999843
  0
LINE
  5
124C
330
2
100
AcDbEntity
  8
0
100
AcDbLine
 10
985.0407176789287
 20
152.6413503808893
 30
0.0
 11
985.4804856188714
 21
116.5803793047728
 31
0.0
  0
LINE
  5
124D
330
2
100
AcDbEntity
  8
0
100
AcDbLine
 10
983.8873334739913
 20
148.6036503193712
 30
0.0
 11
983.9804856188804
 21
116.5803793048042
 31
0.0
  0
LINE
  5
124E
330
2
100
AcDbEntity
  8
CENTER
100
AcDbLine
 10
975.8004856188803
 20
153.9003793048044
 30
0.0
 11
975.8004856188803
 21
142.9003793048044
 31
0.0
  0
ARC
  5
124F
330
2
100
AcDbEntity
  8
0
100
AcDbCircle
 10
975.8873673203199
 20
148.5803793048042
 30
0.0
 40
8.0
100
AcDbArc
 50
0.1666665999998381
 51
90.0
  0
LINE
  5
1250
330
2
100
AcDbEntity
  8
CENTER
100
AcDbLine
 10
970.3004856188801
 20
148.4003793048044
 30
0.0
 11
981.3004856188802
 21
148.4003793048044
 31
0.0
  0
ARC
  5
1251
330
2
100
AcDbEntity
  8
0
100
AcDbCircle
 10
980.0410894399613
 20
152.5803793048042
 30
0.0
 40
5.0
100
AcDbArc
 50
0.6986943829867131
 51
90.0
  0
LINE
  5
1252
330
2
100
AcDbEntity
  8
0
100
AcDbLine
 10
685.8298166413898
 20
126.239513198821
 30
0.0
 11
685.3170606527402
 21
155.6152841176891
 31
0.0
  0
LINE
  5
1253
330
2
100
AcDbEntity
  8
0
100
AcDbLine
 10
722.6108678876409
 20
151.6676413370042
 30
0.0
 11
722.5488341848359
 21
148.1137328835653
 31
0.0
  0
ARC
  5
1254
330
2
100
AcDbEntity
  8
0
100
AcDbCircle
 10
683.3173652624283
 20
77.58037930481771
 30
0.0
 40
2.0
100
AcDbArc
 50
270.0
 51
358.9999999999974
  0
LINE
  5
1256
330
2
100
AcDbEntity
  8
0
100
AcDbLine
 10
724.9984174507154
 20
145.5803793048181
 30
0.0
 11
721.0887641019382
 21
145.5803793048181
 31
0.0
  0
LINE
  5
1257
330
2
100
AcDbEntity
  8
0
100
AcDbLine
 10
685.9984174507154
 20
116.5803793048181
 30
0.0
 11
685.317060652742
 21
77.54547449194308
 31
0.0
  0
LINE
  5
1258
330
2
100
AcDbEntity
  8
0
100
AcDbLine
 10
722.6108678876409
 20
81.49311727263158
 30
0.0
 11
721.9984174507173
 21
116.5803793048181
 31
0.0
  0
LINE
  5
1259
330
2
100
AcDbEntity
  8
0
100
AcDbLine
 10
731.9984174507155
 20
76.58037930481817
 30
0.0
 11
686.4796429225972
 21
76.58037930481771
 31
0.0
  0
ARC
  5
125A
330
2
100
AcDbEntity
  8
0
100
AcDbCircle
 10
727.6101063634233
 20
81.58037930481771
 30
0.0
 40
5.0
100
AcDbArc
 50
181.0000000000025
 51
270.0
  0
LINE
  5
125B
330
2
100
AcDbEntity
  8
0
100
AcDbLine
 10
676.9984174507154
 20
75.58037930481771
 30
0.0
 11
683.3173652624283
 21
75.58037930481771
 31
0.0
  0
ARC
  5
125C
330
2
100
AcDbEntity
  8
0
100
AcDbCircle
 10
683.3173652624283
 20
155.5803793048186
 30
0.0
 40
2.0
100
AcDbArc
 50
0.999999999883696
 51
90.0
  0
LINE
  5
125D
330
2
100
AcDbEntity
  8
0
100
AcDbLine
 10
731.9984174507155
 20
156.5803793048177
 30
0.0
 11
686.4796429225972
 21
156.5803793048181
 31
0.0
  0
ARC
  5
125E
330
2
100
AcDbEntity
  8
0
100
AcDbCircle
 10
727.6101063634233
 20
151.5803793048177
 30
0.0
 40
5.0
100
AcDbArc
 50
90.0
 51
178.9999999999974
  0
LINE
  5
125F
330
2
100
AcDbEntity
  8
0
100
AcDbLine
 10
676.9984174507173
 20
157.5803793048181
 30
0.0
 11
683.3173652624283
 21
157.5803793048186
 31
0.0
  0
LINE
  5
1260
330
2
100
AcDbEntity
  8
0
100
AcDbLine
 10
731.9984174507155
 20
156.5803793048177
 30
0.0
 11
731.9984174507155
 21
76.58037930481817
 31
0.0
  0
ARC
  5
1261
330
2
100
AcDbEntity
  8
0
100
AcDbCircle
 10
686.4796429225972
 20
160.0803793048181
 30
0.0
 40
3.5
100
AcDbArc
 50
234.9031987723861
 51
270.0
  0
ARC
  5
1262
330
2
100
AcDbEntity
  8
0
100
AcDbCircle
 10
686.4796429225972
 20
73.08037930481771
 30
0.0
 40
3.5
100
AcDbArc
 50
90.0
 51
125.0968012276142
  0
ARC
  5
1263
330
2
100
AcDbEntity
  8
0
100
AcDbCircle
 10
966.5765290590664
 20
196.361170616767
 30
0.0
 40
40.0
100
AcDbArc
 50
263.8230035951095
 51
263.9988421367181
  0
ARC
  5
1264
330
2
100
AcDbEntity
  8
0
100
AcDbCircle
 10
921.3844421786946
 20
36.79958799284108
 30
0.0
 40
40.0
100
AcDbArc
 50
83.82300359510955
 51
83.99884213682334
  0
LINE
  5
1265
330
2
100
AcDbEntity
  8
0
100
AcDbLine
 10
907.9198817977996
 20
75.58037930480427
 30
0.0
 11
980.0410894399613
 21
75.58037930480427
 31
0.0
  0
ARC
  5
1266
330
2
100
AcDbEntity
  8
0
100
AcDbCircle
 10
966.5765290590664
 20
36.79958799284154
 30
0.0
 40
40.0
100
AcDbArc
 50
96.00115786317665
 51
96.17699640489044
  0
LINE
  5
1267
330
2
100
AcDbEntity
  8
CENTER
  6
CENS
100
AcDbLine
 10
670.3935994509448
 20
151.2303793048182
 30
0.0
 11
697.3935994509449
 21
151.2303793048182
 31
0.0
  0
LINE
  5
1268
330
2
100
AcDbEntity
  8
0
100
AcDbLine
 10
692.0808747755764
 20
146.2303793048182
 30
0.0
 11
692.0808747755764
 21
156.2303793048182
 31
0.0
  0
LINE
  5
1269
330
2
100
AcDbEntity
  8
0
100
AcDbLine
 10
692.4808747755761
 20
155.5375589817909
 30
0.0
 11
692.4808747755761
 21
146.9231996278459
 31
0.0
  0
LINE
  5
126A
330
2
100
AcDbEntity
  8
0
100
AcDbLine
 10
686.4808747755761
 20
146.2303793048182
 30
0.0
 11
686.4808747755761
 21
156.2303793048182
 31
0.0
  0
LINE
  5
126B
330
2
100
AcDbEntity
  8
0
100
AcDbLine
 10
686.4808747755761
 20
156.2303793048182
 30
0.0
 11
685.4808747755761
 21
156.2303793048182
 31
0.0
  0
LINE
  5
126C
330
2
100
AcDbEntity
  8
0
100
AcDbLine
 10
685.4808747755761
 20
156.2303793048182
 30
0.0
 11
685.4808747755761
 21
146.2303793048182
 31
0.0
  0
LINE
  5
126D
330
2
100
AcDbEntity
  8
0
100
AcDbLine
 10
685.4808747755761
 20
146.2303793048182
 30
0.0
 11
686.4808747755761
 21
146.2303793048182
 31
0.0
  0
LINE
  5
126E
330
2
100
AcDbEntity
  8
0
100
AcDbLine
 10
686.4808747755761
 20
146.2303793048182
 30
0.0
 11
686.4808747755761
 21
156.2303793048182
 31
0.0
  0
LINE
  5
126F
330
2
100
AcDbEntity
  8
0
100
AcDbLine
 10
692.0808747755764
 20
146.2303793048182
 30
0.0
 11
686.4808747755761
 21
146.2303793048182
 31
0.0
  0
LINE
  5
1270
330
2
100
AcDbEntity
  8
0
100
AcDbLine
 10
686.4808747755761
 20
156.2303793048182
 30
0.0
 11
692.0808747755764
 21
156.2303793048182
 31
0.0
  0
LINE
  5
1271
330
2
100
AcDbEntity
  8
0
100
AcDbLine
 10
692.0808747755764
 20
156.2303793048182
 30
0.0
 11
692.4808747755761
 21
155.5375589817909
 31
0.0
  0
LINE
  5
1272
330
2
100
AcDbEntity
  8
0
100
AcDbLine
 10
692.0808747755764
 20
146.2303793048182
 30
0.0
 11
692.4808747755761
 21
146.9231996278455
 31
0.0
  0
LINE
  5
1273
330
2
100
AcDbEntity
  8
CENTER
  6
CENS
100
AcDbLine
 10
670.3935994509448
 20
81.93037930481807
 30
0.0
 11
697.3935994509449
 21
81.93037930481807
 31
0.0
  0
LINE
  5
1274
330
2
100
AcDbEntity
  8
0
100
AcDbLine
 10
692.0808747755764
 20
86.93037930481807
 30
0.0
 11
692.0808747755764
 21
76.93037930481807
 31
0.0
  0
LINE
  5
1275
330
2
100
AcDbEntity
  8
0
100
AcDbLine
 10
692.4808747755761
 20
77.62319962784534
 30
0.0
 11
692.4808747755761
 21
86.23755898179036
 31
0.0
  0
LINE
  5
1276
330
2
100
AcDbEntity
  8
0
100
AcDbLine
 10
686.4808747755761
 20
86.93037930481807
 30
0.0
 11
686.4808747755761
 21
76.93037930481807
 31
0.0
  0
LINE
  5
1277
330
2
100
AcDbEntity
  8
0
100
AcDbLine
 10
686.4808747755761
 20
76.93037930481807
 30
0.0
 11
685.4808747755761
 21
76.93037930481807
 31
0.0
  0
LINE
  5
1278
330
2
100
AcDbEntity
  8
0
100
AcDbLine
 10
685.4808747755761
 20
76.93037930481807
 30
0.0
 11
685.4808747755761
 21
86.93037930481807
 31
0.0
  0
LINE
  5
1279
330
2
100
AcDbEntity
  8
0
100
AcDbLine
 10
685.4808747755761
 20
86.93037930481807
 30
0.0
 11
686.4808747755761
 21
86.93037930481807
 31
0.0
  0
LINE
  5
127A
330
2
100
AcDbEntity
  8
0
100
AcDbLine
 10
686.4808747755761
 20
86.93037930481807
 30
0.0
 11
686.4808747755761
 21
76.93037930481807
 31
0.0
  0
LINE
  5
127B
330
2
100
AcDbEntity
  8
0
100
AcDbLine
 10
692.0808747755764
 20
86.93037930481807
 30
0.0
 11
686.4808747755761
 21
86.93037930481807
 31
0.0
  0
LINE
  5
127C
330
2
100
AcDbEntity
  8
0
100
AcDbLine
 10
686.4808747755761
 20
76.93037930481807
 30
0.0
 11
692.0808747755764
 21
76.93037930481807
 31
0.0
  0
LINE
  5
127D
330
2
100
AcDbEntity
  8
0
100
AcDbLine
 10
692.0808747755764
 20
76.93037930481807
 30
0.0
 11
692.4808747755761
 21
77.62319962784534
 31
0.0
  0
LINE
  5
127E
330
2
100
AcDbEntity
  8
0
100
AcDbLine
 10
692.0808747755764
 20
86.93037930481807
 30
0.0
 11
692.4808747755761
 21
86.23755898179082
 31
0.0
  0
LINE
  5
127F
330
2
100
AcDbEntity
  8
CENTER
  6
CENS
100
AcDbLine
 10
670.3935994465581
 20
376.8276468309496
 30
0.0
 11
697.3935994465581
 21
376.8276468309496
 31
0.0
  0
LINE
  5
1280
330
2
100
AcDbEntity
  8
0
100
AcDbLine
 10
692.0808747711897
 20
381.8276468309496
 30
0.0
 11
692.0808747711897
 21
371.8276468309496
 31
0.0
  0
LINE
  5
1281
330
2
100
AcDbEntity
  8
0
100
AcDbLine
 10
692.4808747711893
 20
372.5204671539773
 30
0.0
 11
692.4808747711893
 21
381.1348265079223
 31
0.0
  0
LINE
  5
1282
330
2
100
AcDbEntity
  8
0
100
AcDbLine
 10
686.4808747711894
 20
381.8276468309496
 30
0.0
 11
686.4808747711894
 21
371.8276468309496
 31
0.0
  0
LINE
  5
1283
330
2
100
AcDbEntity
  8
0
100
AcDbLine
 10
686.4808747711894
 20
371.8276468309496
 30
0.0
 11
685.4808747711894
 21
371.8276468309496
 31
0.0
  0
LINE
  5
1284
330
2
100
AcDbEntity
  8
0
100
AcDbLine
 10
685.4808747711894
 20
371.8276468309496
 30
0.0
 11
685.4808747711894
 21
381.8276468309496
 31
0.0
  0
LINE
  5
1285
330
2
100
AcDbEntity
  8
0
100
AcDbLine
 10
685.4808747711894
 20
381.8276468309496
 30
0.0
 11
686.4808747711894
 21
381.8276468309496
 31
0.0
  0
LINE
  5
1286
330
2
100
AcDbEntity
  8
0
100
AcDbLine
 10
686.4808747711894
 20
381.8276468309496
 30
0.0
 11
686.4808747711894
 21
371.8276468309496
 31
0.0
  0
LINE
  5
1287
330
2
100
AcDbEntity
  8
0
100
AcDbLine
 10
692.0808747711897
 20
381.8276468309496
 30
0.0
 11
686.4808747711894
 21
381.8276468309496
 31
0.0
  0
LINE
  5
1288
330
2
100
AcDbEntity
  8
0
100
AcDbLine
 10
686.4808747711894
 20
371.8276468309496
 30
0.0
 11
692.0808747711897
 21
371.8276468309496
 31
0.0
  0
LINE
  5
1289
330
2
100
AcDbEntity
  8
0
100
AcDbLine
 10
692.0808747711897
 20
371.8276468309496
 30
0.0
 11
692.4808747711893
 21
372.5204671539773
 31
0.0
  0
LINE
  5
128A
330
2
100
AcDbEntity
  8
0
100
AcDbLine
 10
692.0808747711897
 20
381.82764683095
 30
0.0
 11
692.4808747711893
 21
381.1348265079223
 31
0.0
  0
LINE
  5
128B
330
2
100
AcDbEntity
  8
CENTER
  6
CENS
100
AcDbLine
 10
670.3935994465581
 20
446.1276468309497
 30
0.0
 11
697.3935994465581
 21
446.1276468309497
 31
0.0
  0
LINE
  5
128C
330
2
100
AcDbEntity
  8
0
100
AcDbLine
 10
692.0808747711897
 20
441.1276468309497
 30
0.0
 11
692.0808747711897
 21
451.1276468309497
 31
0.0
  0
LINE
  5
128D
330
2
100
AcDbEntity
  8
0
100
AcDbLine
 10
692.4808747711893
 20
450.4348265079224
 30
0.0
 11
692.4808747711893
 21
441.8204671539779
 31
0.0
  0
LINE
  5
128E
330
2
100
AcDbEntity
  8
0
100
AcDbLine
 10
686.4808747711894
 20
441.1276468309497
 30
0.0
 11
686.4808747711894
 21
451.1276468309497
 31
0.0
  0
LINE
  5
128F
330
2
100
AcDbEntity
  8
0
100
AcDbLine
 10
686.4808747711894
 20
451.1276468309497
 30
0.0
 11
685.4808747711894
 21
451.1276468309497
 31
0.0
  0
LINE
  5
1290
330
2
100
AcDbEntity
  8
0
100
AcDbLine
 10
685.4808747711894
 20
451.1276468309497
 30
0.0
 11
685.4808747711894
 21
441.1276468309497
 31
0.0
  0
LINE
  5
1291
330
2
100
AcDbEntity
  8
0
100
AcDbLine
 10
685.4808747711894
 20
441.1276468309497
 30
0.0
 11
686.4808747711894
 21
441.1276468309497
 31
0.0
  0
LINE
  5
1292
330
2
100
AcDbEntity
  8
0
100
AcDbLine
 10
686.4808747711894
 20
441.1276468309497
 30
0.0
 11
686.4808747711894
 21
451.1276468309497
 31
0.0
  0
LINE
  5
1293
330
2
100
AcDbEntity
  8
0
100
AcDbLine
 10
692.0808747711897
 20
441.1276468309497
 30
0.0
 11
686.4808747711894
 21
441.1276468309497
 31
0.0
  0
LINE
  5
1294
330
2
100
AcDbEntity
  8
0
100
AcDbLine
 10
686.4808747711894
 20
451.1276468309497
 30
0.0
 11
692.0808747711897
 21
451.1276468309497
 31
0.0
  0
LINE
  5
1295
330
2
100
AcDbEntity
  8
0
100
AcDbLine
 10
692.0808747711897
 20
451.1276468309497
 30
0.0
 11
692.4808747711893
 21
450.4348265079224
 31
0.0
  0
LINE
  5
1296
330
2
100
AcDbEntity
  8
0
100
AcDbLine
 10
692.0808747711897
 20
441.1276468309497
 30
0.0
 11
692.4808747711893
 21
441.8204671539775
 31
0.0
  0
LINE
  5
1297
330
2
100
AcDbEntity
  8
0
100
AcDbLine
 10
731.9984174507155
 20
151.5803793048181
 30
0.0
 11
724.9984174507154
 21
151.5803793048181
 31
0.0
  0
LINE
  5
1298
330
2
100
AcDbEntity
  8
0
100
AcDbLine
 10
724.9984174507154
 20
151.5803793048181
 30
0.0
 11
724.9984174507154
 21
116.5803793048181
 31
0.0
  0
LINE
  5
129A
330
2
100
AcDbEntity
  8
0
100
AcDbLine
 10
724.9984174507154
 20
136.3303793048181
 30
0.0
 11
724.9984174507172
 21
116.5803793048181
 31
0.0
  0
LINE
  5
129B
330
2
100
AcDbEntity
  8
0
100
AcDbLine
 10
724.9984174507154
 20
136.3303793048181
 30
0.0
 11
715.2606128801981
 21
136.3303793048181
 31
0.0
  0
LINE
  5
129C
330
2
100
AcDbEntity
  8
0
100
AcDbLine
 10
722.9984174507154
 20
124.5803793048181
 30
0.0
 11
711.9984174507155
 21
124.5803793048181
 31
0.0
  0
LINE
  5
129D
330
2
100
AcDbEntity
  8
0
100
AcDbLine
 10
693.4984174507154
 20
124.8303793048181
 30
0.0
 11
693.4984174507154
 21
116.5803793048181
 31
0.0
  0
LINE
  5
129E
330
2
100
AcDbEntity
  8
0
100
AcDbLine
 10
693.4984174507154
 20
124.8303793048181
 30
0.0
 11
687.4984174507154
 21
124.8303793048181
 31
0.0
  0
LINE
  5
129F
330
2
100
AcDbEntity
  8
0
100
AcDbLine
 10
687.4984174507154
 20
124.8303793048181
 30
0.0
 11
687.4984174507154
 21
116.5803793048181
 31
0.0
  0
LINE
  5
12A0
330
2
100
AcDbEntity
  8
0
100
AcDbLine
 10
709.9984174507154
 20
130.8557895255131
 30
0.0
 11
709.9984174507154
 21
116.5803793048181
 31
0.0
  0
LINE
  5
12A1
330
2
100
AcDbEntity
  8
0
100
AcDbLine
 10
711.9984174507155
 20
131.9095228658949
 30
0.0
 11
711.9984174507155
 21
116.5803793048181
 31
0.0
  0
LINE
  5
12A2
330
2
100
AcDbEntity
  8
0
100
AcDbLine
 10
709.9984174507154
 20
124.5803793048181
 30
0.0
 11
693.4984174507154
 21
124.5803793048181
 31
0.0
  0
LINE
  5
12A3
330
2
100
AcDbEntity
  8
0
100
AcDbLine
 10
724.9984174507154
 20
125.7350798431976
 30
0.0
 11
722.9984174507154
 21
124.5803793048181
 31
0.0
  0
LINE
  5
12A4
330
2
100
AcDbEntity
  8
0
100
AcDbLine
 10
722.9984174507154
 20
124.5803793048181
 30
0.0
 11
722.9984174507154
 21
116.5803793048181
 31
0.0
  0
LINE
  5
12A5
330
2
100
AcDbEntity
  8
0
100
AcDbLine
 10
687.4984174507154
 20
124.0803793048181
 30
0.0
 11
683.1682904317932
 21
116.5803793048181
 31
0.0
  0
SPLINE
  5
12A6
330
2
100
AcDbEntity
  8
HOJO
100
AcDbSpline
210
0.0
220
0.0
230
1.0
 70
     8
 71
     3
 72
    20
 73
    16
 74
     0
 42
0.0000000001
 43
0.0000000001
 40
1.102548511336045
 40
1.102548511336045
 40
1.102548511336045
 40
1.102548511336045
 40
5.647385924430076
 40
9.759277458584113
 40
14.59638394258456
 40
18.6386056126129
 40
22.25598020257161
 40
26.57819511411361
 40
31.00332353479096
 40
40.39337194914635
 40
45.49899296170218
 40
52.02718752358933
 40
57.17041693382338
 40
65.63449353306062
 40
69.3611614947018
 40
69.3611614947018
 40
69.3611614947018
 40
69.3611614947018
 10
728.4091693730244
 20
156.5803793048177
 30
0.0
 10
727.0003818526312
 20
155.8519518551298
 30
0.0
 10
724.4876958908718
 20
154.3212392329716
 30
0.0
 10
723.166769644744
 20
149.7567165756173
 30
0.0
 10
722.0168603191961
 20
146.3651470810988
 30
0.0
 10
718.5291039072073
 20
142.6913818698545
 30
0.0
 10
716.8572687308443
 20
139.1660217398754
 30
0.0
 10
714.8800221703896
 20
135.6153050423805
 30
0.0
 10
711.492240857826
 20
130.0262604539262
 30
0.0
 10
703.9678818135108
 20
130.2018369015178
 30
0.0
 10
697.2395424568623
 20
129.0554663680201
 30
0.0
 10
691.8962759114548
 20
127.3368542635395
 30
0.0
 10
684.8974953970683
 20
127.0006829788159
 30
0.0
 10
681.182762597844
 20
121.5146886468607
 30
0.0
 10
679.8609211590484
 20
117.7447821536849
 30
0.0
 10
679.4482483859393
 20
116.5803793048181
 30
0.0
  0
LINE
  5
12A7
330
2
100
AcDbEntity
  8
HIDS
100
AcDbLine
 10
933.9804856188804
 20
133.6116006350551
 30
0.0
 11
933.9804856188804
 21
121.5803793048042
 31
0.0
  0
LINE
  5
12A8
330
2
100
AcDbEntity
  8
CENTER
  6
CENS
100
AcDbLine
 10
928.9804856188805
 20
165.704063727507
 30
0.0
 11
928.9804856188805
 21
100.7327141472745
 31
0.0
  0
LINE
  5
12A9
330
2
100
AcDbEntity
  8
0
100
AcDbLine
 10
924.2447312628904
 20
115.8303793048042
 30
0.0
 11
936.0157194578425
 21
115.8303793048042
 31
0.0
  0
LINE
  5
12AA
330
2
100
AcDbEntity
  8
0
100
AcDbLine
 10
924.2447312628904
 20
117.3303793048042
 30
0.0
 11
936.0157194578425
 21
117.3303793048042
 31
0.0
  0
CIRCLE
  5
12AB
330
2
100
AcDbEntity
  8
0
100
AcDbCircle
 10
943.9804856188805
 20
116.5803793048042
 30
0.0
 40
8.0
  0
LINE
  5
12AC
330
2
100
AcDbEntity
  8
0
100
AcDbLine
 10
961.1804856188793
 20
115.8303793048042
 30
0.0
 11
961.1804856188793
 21
117.3303793048042
 31
0.0
  0
LINE
  5
12AD
330
2
100
AcDbEntity
  8
0
100
AcDbLine
 10
951.9452517799184
 20
115.8303793048042
 30
0.0
 11
961.1804856188793
 21
115.8303793048042
 31
0.0
  0
LINE
  5
12AE
330
2
100
AcDbEntity
  8
0
100
AcDbLine
 10
951.9452517799184
 20
117.3303793048042
 30
0.0
 11
961.1804856188793
 21
117.3303793048042
 31
0.0
  0
LINE
  5
12AF
330
2
100
AcDbEntity
  8
HIDS
100
AcDbLine
 10
931.4804856188805
 20
115.8303793048042
 30
0.0
 11
931.4804856188805
 21
101.2894506214309
 31
0.0
  0
LINE
  5
12B0
330
2
100
AcDbEntity
  8
HIDS
100
AcDbLine
 10
931.0638189522144
 20
115.8303793048042
 30
0.0
 11
931.0638189522144
 21
101.6397560841276
 31
0.0
  0
LINE
  5
12B1
330
2
100
AcDbEntity
  8
HIDS
100
AcDbLine
 10
926.8971522855466
 20
115.8303793048042
 30
0.0
 11
926.8971522855466
 21
106.6696668065918
 31
0.0
  0
LINE
  5
12B2
330
2
100
AcDbEntity
  8
HIDS
100
AcDbLine
 10
926.4804856188805
 20
115.8303793048042
 30
0.0
 11
926.4804856188805
 21
107.4254625930037
 31
0.0
  0
LINE
  5
12B3
330
2
100
AcDbEntity
  8
HIDS
100
AcDbLine
 10
931.9804856188804
 20
121.5803793048042
 30
0.0
 11
931.9804856188804
 21
117.3303793048042
 31
0.0
  0
LINE
  5
12B4
330
2
100
AcDbEntity
  8
HIDS
100
AcDbLine
 10
925.9804856188805
 20
121.5803793048042
 30
0.0
 11
925.9804856188805
 21
117.3303793048042
 31
0.0
  0
LINE
  5
12B5
330
2
100
AcDbEntity
  8
HIDS
100
AcDbLine
 10
924.873876814596
 20
121.5803793048042
 30
0.0
 11
933.9804856188804
 21
121.5803793048042
 31
0.0
  0
LINE
  5
12B6
330
2
100
AcDbEntity
  8
HIDS
100
AcDbLine
 10
933.2304856188805
 20
121.5803793048042
 30
0.0
 11
933.2304856188805
 21
126.2803793048045
 31
0.0
  0
LINE
  5
12B7
330
2
100
AcDbEntity
  8
0
100
AcDbLine
 10
924.7304856188804
 20
126.2803793048045
 30
0.0
 11
924.7304856188804
 21
121.5803793048042
 31
0.0
  0
LINE
  5
12B8
330
2
100
AcDbEntity
  8
HIDS
100
AcDbLine
 10
931.4804856188805
 20
107.5803793048042
 30
0.0
 11
930.4804856188805
 21
106.5803793048042
 31
0.0
  0
LINE
  5
12B9
330
2
100
AcDbEntity
  8
HIDS
100
AcDbLine
 10
926.4804856188805
 20
107.5803793048042
 30
0.0
 11
927.4804856188804
 21
106.5803793048042
 31
0.0
  0
LINE
  5
12BA
330
2
100
AcDbEntity
  8
HIDS
100
AcDbLine
 10
930.4804856188805
 20
106.5803793048042
 30
0.0
 11
928.9804856188805
 21
106.5803793048042
 31
0.0
  0
LINE
  5
12BB
330
2
100
AcDbEntity
  8
HIDS
100
AcDbLine
 10
927.4804856188804
 20
106.5803793048042
 30
0.0
 11
928.9804856188805
 21
106.5803793048042
 31
0.0
  0
LINE
  5
12BC
330
2
100
AcDbEntity
  8
HIDS
100
AcDbLine
 10
931.4804856188805
 20
121.5803793048042
 30
0.0
 11
931.4804856188805
 21
117.3303793048042
 31
0.0
  0
LINE
  5
12BD
330
2
100
AcDbEntity
  8
HIDS
100
AcDbLine
 10
931.0638189522144
 20
119.4970459714707
 30
0.0
 11
931.0638189522144
 21
117.3303793048042
 31
0.0
  0
LINE
  5
12BE
330
2
100
AcDbEntity
  8
HIDS
100
AcDbLine
 10
926.8971522855466
 20
119.4970459714707
 30
0.0
 11
926.8971522855466
 21
117.3303793048042
 31
0.0
  0
LINE
  5
12BF
330
2
100
AcDbEntity
  8
HIDS
100
AcDbLine
 10
926.4804856188805
 20
121.5803793048042
 30
0.0
 11
926.4804856188805
 21
117.3303793048042
 31
0.0
  0
LINE
  5
12C0
330
2
100
AcDbEntity
  8
HIDS
100
AcDbLine
 10
931.4804856188805
 20
107.5803793048042
 30
0.0
 11
928.9804856188805
 21
107.5803793048042
 31
0.0
  0
LINE
  5
12C1
330
2
100
AcDbEntity
  8
HIDS
100
AcDbLine
 10
926.4804856188805
 20
107.5803793048042
 30
0.0
 11
928.9804856188805
 21
107.5803793048042
 31
0.0
  0
LINE
  5
12C2
330
2
100
AcDbEntity
  8
HIDS
100
AcDbLine
 10
931.4804856188805
 20
119.4970459714707
 30
0.0
 11
926.4804856188805
 21
119.4970459714707
 31
0.0
  0
LINE
  5
12C3
330
2
100
AcDbEntity
  8
0
100
AcDbLine
 10
924.7304856188804
 20
121.5803793048042
 30
0.0
 11
924.873876814596
 21
121.5803793048042
 31
0.0
  0
LINE
  5
12C4
330
2
100
AcDbEntity
  8
HIDS
100
AcDbLine
 10
926.4804856188805
 20
121.5803793048042
 30
0.0
 11
926.8971522855466
 21
119.4970459714707
 31
0.0
  0
LINE
  5
12C5
330
2
100
AcDbEntity
  8
HIDS
100
AcDbLine
 10
931.4804856188805
 20
121.5803793048042
 30
0.0
 11
931.0638189522144
 21
119.4970459714707
 31
0.0
  0
LINE
  5
12C6
330
2
100
AcDbEntity
  8
0
100
AcDbLine
 10
924.7304856188804
 20
126.2803793048045
 30
0.0
 11
926.7766343058758
 21
126.280379304804
 31
0.0
  0
LINE
  5
12C7
330
2
100
AcDbEntity
  8
HIDS
100
AcDbLine
 10
932.71087037661
 20
126.5803793048042
 30
0.0
 11
926.9492642886291
 21
126.5803793048042
 31
0.0
  0
LINE
  5
12C8
330
2
100
AcDbEntity
  8
0
100
AcDbLine
 10
924.7304856188804
 20
126.2803793048045
 30
0.0
 11
925.250100861151
 21
126.5803793048042
 31
0.0
  0
LINE
  5
12C9
330
2
100
AcDbEntity
  8
HIDS
100
AcDbLine
 10
932.71087037661
 20
126.5803793048042
 30
0.0
 11
933.2304856188805
 21
126.2803793048045
 31
0.0
  0
LINE
  5
12CA
330
2
100
AcDbEntity
  8
HIDS
100
AcDbLine
 10
924.873876814596
 20
121.5803793048042
 30
0.0
 11
933.2304856188805
 21
121.5803793048042
 31
0.0
  0
LINE
  5
12CB
330
2
100
AcDbEntity
  8
0
100
AcDbLine
 10
926.9492642886291
 20
126.5803793048042
 30
0.0
 11
925.250100861151
 21
126.5803793048042
 31
0.0
  0
LINE
  5
12CC
330
2
100
AcDbEntity
  8
HIDS
100
AcDbLine
 10
926.7766343058758
 20
126.2803793048045
 30
0.0
 11
933.2304856188805
 21
126.2803793048045
 31
0.0
  0
LINE
  5
12CD
330
2
100
AcDbEntity
  8
0
100
AcDbLine
 10
931.4804856188805
 20
117.3303793048042
 30
0.0
 11
931.4804856188805
 21
115.8303793048042
 31
0.0
  0
LINE
  5
12CE
330
2
100
AcDbEntity
  8
HOJO
100
AcDbLine
 10
931.0638189522144
 20
117.3303793048042
 30
0.0
 11
931.0638189522144
 21
115.8303793048042
 31
0.0
  0
LINE
  5
12CF
330
2
100
AcDbEntity
  8
HOJO
100
AcDbLine
 10
926.8971522855466
 20
117.3303793048042
 30
0.0
 11
926.8971522855466
 21
115.8303793048042
 31
0.0
  0
LINE
  5
12D0
330
2
100
AcDbEntity
  8
0
100
AcDbLine
 10
926.4804856188805
 20
117.3303793048042
 30
0.0
 11
926.4804856188805
 21
115.8303793048042
 31
0.0
  0
LINE
  5
12D1
330
2
100
AcDbEntity
  8
HIDS
100
AcDbLine
 10
926.4804856188805
 20
115.8303793048042
 30
0.0
 11
926.4804856188805
 21
107.5803793048042
 31
0.0
  0
LINE
  5
12D2
330
2
100
AcDbEntity
  8
HIDS
100
AcDbLine
 10
931.0638189522144
 20
115.8303793048042
 30
0.0
 11
931.0638189522144
 21
107.1637126381377
 31
0.0
  0
LINE
  5
12D3
330
2
100
AcDbEntity
  8
HIDS
100
AcDbLine
 10
931.4804856188805
 20
115.8303793048042
 30
0.0
 11
931.4804856188805
 21
107.5803793048042
 31
0.0
  0
LINE
  5
12D4
330
2
100
AcDbEntity
  8
HIDS
100
AcDbLine
 10
926.8971522855466
 20
115.8303793048042
 30
0.0
 11
926.8971522855466
 21
107.1637126381377
 31
0.0
  0
CIRCLE
  5
12D5
330
2
100
AcDbEntity
  8
0
100
AcDbCircle
 10
943.9804856188805
 20
116.5803793048042
 30
0.0
 40
19.75
  0
ARC
  5
12D6
330
2
100
AcDbEntity
  8
0
100
AcDbCircle
 10
943.9804856188805
 20
116.5803793048042
 30
0.0
 40
9.154700538379415
100
AcDbArc
 50
4.699230675930761
 51
175.3007693240692
  0
ARC
  5
12D7
330
2
100
AcDbEntity
  8
0
100
AcDbCircle
 10
943.9804856188805
 20
116.5803793048042
 30
0.0
 40
9.154700538379415
100
AcDbArc
 50
184.6992306759307
 51
355.3007693240692
  0
LINE
  5
12D8
330
2
100
AcDbEntity
  8
0
100
AcDbLine
 10
923.9804856188804
 20
160.5803793048038
 30
0.0
 11
933.9804856188804
 21
160.5803793048038
 31
0.0
  0
ARC
  5
12D9
330
2
100
AcDbEntity
  8
0
100
AcDbCircle
 10
933.9804856188804
 20
156.5803793048038
 30
0.0
 40
4.0
100
AcDbArc
 50
0.0
 51
90.0
  0
ARC
  5
12DA
330
2
100
AcDbEntity
  8
0
100
AcDbCircle
 10
923.9804856188804
 20
156.5803793048038
 30
0.0
 40
4.0
100
AcDbArc
 50
90.0
 51
180.0
  0
LINE
  5
12DB
330
2
100
AcDbEntity
  8
0
100
AcDbLine
 10
722.9984174506791
 20
160.5803793048177
 30
0.0
 11
712.998417450679
 21
160.5803793048177
 31
0.0
  0
ARC
  5
12DC
330
2
100
AcDbEntity
  8
0
100
AcDbCircle
 10
712.998417450679
 20
156.5803793048177
 30
0.0
 40
4.0
100
AcDbArc
 50
90.0
 51
180.0
  0
ARC
  5
12DD
330
2
100
AcDbEntity
  8
0
100
AcDbCircle
 10
722.9984174506791
 20
156.5803793048177
 30
0.0
 40
4.0
100
AcDbArc
 50
0.0
 51
90.0
  0
LINE
  5
12DE
330
2
100
AcDbEntity
  8
CENTER
  6
CENS
100
AcDbLine
 10
717.9984174506791
 20
165.7040637275209
 30
0.0
 11
717.9984174506791
 21
142.3441377251561
 31
0.0
  0
CIRCLE
  5
12DF
330
2
100
AcDbEntity
  8
0
100
AcDbCircle
 10
717.9984174463306
 20
396.4776468309501
 30
0.0
 40
9.0
  0
LINE
  5
12E0
330
2
100
AcDbEntity
  8
CENTER
  6
CENS
100
AcDbLine
 10
717.9984174463306
 20
382.5430796432606
 30
0.0
 11
717.9984174463306
 21
410.4122140186387
 31
0.0
  0
LINE
  5
12E1
330
2
100
AcDbEntity
  8
CENTER
  6
CENS
100
AcDbLine
 10
731.9329846340195
 20
396.4776468309496
 30
0.0
 11
704.0638502586415
 21
396.4776468309496
 31
0.0
  0
CIRCLE
  5
12E2
330
2
100
AcDbEntity
  8
CENTER
100
AcDbCircle
 10
943.9804856188805
 20
116.5803793048042
 30
0.0
 40
45.0002755547118
  0
LINE
  5
12E3
330
2
100
AcDbEntity
  8
0
100
AcDbLine
 10
903.9804856187732
 20
116.5803793048042
 30
0.0
 11
902.4804856188895
 21
116.5803793048042
 31
0.0
  0
LINE
  5
12E4
330
2
100
AcDbEntity
  8
0
100
AcDbLine
 10
983.9804856188804
 20
116.5803793046182
 30
0.0
 11
985.4804856188714
 21
116.5803793047728
 31
0.0
  0
LINE
  5
12E5
330
2
100
AcDbEntity
  8
0
100
AcDbLine
 10
73.86246554561558
 20
116.580379304818
 30
0.0
 11
74.54382234351624
 21
155.615284117689
 31
0.0
  0
LINE
  5
12E6
330
2
100
AcDbEntity
  8
0
100
AcDbLine
 10
37.25001510861557
 20
151.6676413370042
 30
0.0
 11
37.86246554555282
 21
116.580379304818
 31
0.0
  0
ARC
  5
12E7
330
2
100
AcDbEntity
  8
0
100
AcDbCircle
 10
76.54351773382813
 20
77.58037930481762
 30
0.0
 40
2.0
100
AcDbArc
 50
181.0000000000025
 51
270.0
  0
LINE
  5
12E9
330
2
100
AcDbEntity
  8
0
100
AcDbLine
 10
73.862465545541
 20
116.580379304818
 30
0.0
 11
74.54382234351442
 21
77.545474491943
 31
0.0
  0
LINE
  5
12EA
330
2
100
AcDbEntity
  8
0
100
AcDbLine
 10
37.25001510861557
 20
81.49311727263151
 30
0.0
 11
37.86246554553918
 21
116.580379304818
 31
0.0
  0
LINE
  5
12EB
330
2
100
AcDbEntity
  8
0
100
AcDbLine
 10
27.862465545541
 20
76.58037930481808
 30
0.0
 11
73.38124007365923
 21
76.58037930481762
 31
0.0
  0
ARC
  5
12EC
330
2
100
AcDbEntity
  8
0
100
AcDbCircle
 10
54.96590787886862
 20
82.48040600885863
 30
0.0
 40
3.0
100
AcDbArc
 50
90.0
 51
178.9999999999974
  0
LINE
  5
12ED
330
2
100
AcDbEntity
  8
0
100
AcDbLine
 10
54.96590787886862
 20
85.48040600885864
 30
0.0
 11
42.31961349239327
 21
85.4804060088591
 31
0.0
  0
ARC
  5
12EE
330
2
100
AcDbEntity
  8
0
100
AcDbCircle
 10
32.25077663283309
 20
81.58037930481762
 30
0.0
 40
5.0
100
AcDbArc
 50
270.0
 51
358.9999999999974
  0
ARC
  5
12EF
330
2
100
AcDbEntity
  8
0
100
AcDbCircle
 10
49.89707101930844
 20
78.58037930481763
 30
0.0
 40
2.0
100
AcDbArc
 50
270.0
 51
358.9999999999974
  0
LINE
  5
12F0
330
2
100
AcDbEntity
  8
0
100
AcDbLine
 10
51.96547050679737
 20
82.48152958303037
 30
0.0
 11
51.89676640962216
 21
78.54547449194299
 31
0.0
  0
LINE
  5
12F1
330
2
100
AcDbEntity
  8
0
100
AcDbLine
 10
82.862465545541
 20
75.58037930481763
 30
0.0
 11
76.54351773382813
 21
75.58037930481763
 31
0.0
  0
ARC
  5
12F2
330
2
100
AcDbEntity
  8
0
100
AcDbCircle
 10
76.54351773382813
 20
155.5803793048185
 30
0.0
 40
2.0
100
AcDbArc
 50
90.0
 51
179.0000000001163
  0
LINE
  5
12F3
330
2
100
AcDbEntity
  8
0
100
AcDbLine
 10
27.862465545541
 20
156.5803793048176
 30
0.0
 11
73.38124007365923
 21
156.580379304818
 31
0.0
  0
ARC
  5
12F4
330
2
100
AcDbEntity
  8
0
100
AcDbCircle
 10
32.25077663283309
 20
151.5803793048176
 30
0.0
 40
5.0
100
AcDbArc
 50
1.000000000002589
 51
90.0
  0
LINE
  5
12F5
330
2
100
AcDbEntity
  8
0
100
AcDbLine
 10
82.86246554553917
 20
157.580379304818
 30
0.0
 11
76.54351773382813
 21
157.5803793048185
 31
0.0
  0
LINE
  5
12F6
330
2
100
AcDbEntity
  8
0
100
AcDbLine
 10
27.862465545541
 20
156.5803793048176
 30
0.0
 11
27.862465545541
 21
76.58037930481808
 31
0.0
  0
ARC
  5
12F7
330
2
100
AcDbEntity
  8
0
100
AcDbCircle
 10
73.38124007365923
 20
160.080379304818
 30
0.0
 40
3.5
100
AcDbArc
 50
270.0
 51
305.0968012276138
  0
ARC
  5
12F8
330
2
100
AcDbEntity
  8
0
100
AcDbCircle
 10
73.38124007365923
 20
73.08037930481763
 30
0.0
 40
3.5
100
AcDbArc
 50
54.9031987723857
 51
90.0
  0
LINE
  5
12F9
330
2
100
AcDbEntity
  8
CENTER
  6
CENS
100
AcDbLine
 10
89.4672835453116
 20
151.2303793048181
 30
0.0
 11
62.4672835453116
 21
151.2303793048181
 31
0.0
  0
LINE
  5
12FA
330
2
100
AcDbEntity
  8
0
100
AcDbLine
 10
67.78000822067998
 20
146.2303793048181
 30
0.0
 11
67.78000822067998
 21
156.2303793048181
 31
0.0
  0
LINE
  5
12FB
330
2
100
AcDbEntity
  8
0
100
AcDbLine
 10
67.38000822068034
 20
155.5375589817909
 30
0.0
 11
67.38000822068034
 21
146.9231996278459
 31
0.0
  0
LINE
  5
12FC
330
2
100
AcDbEntity
  8
0
100
AcDbLine
 10
73.38000822068034
 20
146.2303793048181
 30
0.0
 11
73.38000822068034
 21
156.2303793048181
 31
0.0
  0
LINE
  5
12FD
330
2
100
AcDbEntity
  8
0
100
AcDbLine
 10
73.38000822068034
 20
156.2303793048181
 30
0.0
 11
74.38000822068033
 21
156.2303793048181
 31
0.0
  0
LINE
  5
12FE
330
2
100
AcDbEntity
  8
0
100
AcDbLine
 10
74.38000822068033
 20
156.2303793048181
 30
0.0
 11
74.38000822068033
 21
146.2303793048181
 31
0.0
  0
LINE
  5
12FF
330
2
100
AcDbEntity
  8
0
100
AcDbLine
 10
74.38000822068033
 20
146.2303793048181
 30
0.0
 11
73.38000822068034
 21
146.2303793048181
 31
0.0
  0
LINE
  5
1300
330
2
100
AcDbEntity
  8
0
100
AcDbLine
 10
73.38000822068034
 20
146.2303793048181
 30
0.0
 11
73.38000822068034
 21
156.2303793048181
 31
0.0
  0
LINE
  5
1301
330
2
100
AcDbEntity
  8
0
100
AcDbLine
 10
67.78000822067998
 20
146.2303793048181
 30
0.0
 11
73.38000822068034
 21
146.2303793048181
 31
0.0
  0
LINE
  5
1302
330
2
100
AcDbEntity
  8
0
100
AcDbLine
 10
73.38000822068034
 20
156.2303793048181
 30
0.0
 11
67.78000822067998
 21
156.2303793048181
 31
0.0
  0
LINE
  5
1303
330
2
100
AcDbEntity
  8
0
100
AcDbLine
 10
67.78000822067998
 20
156.2303793048181
 30
0.0
 11
67.38000822068034
 21
155.5375589817909
 31
0.0
  0
LINE
  5
1304
330
2
100
AcDbEntity
  8
0
100
AcDbLine
 10
67.78000822067998
 20
146.2303793048181
 30
0.0
 11
67.38000822068034
 21
146.9231996278454
 31
0.0
  0
LINE
  5
1305
330
2
100
AcDbEntity
  8
CENTER
  6
CENS
100
AcDbLine
 10
89.4672835453116
 20
81.93037930481798
 30
0.0
 11
62.4672835453116
 21
81.93037930481798
 31
0.0
  0
LINE
  5
1306
330
2
100
AcDbEntity
  8
0
100
AcDbLine
 10
67.78000822067998
 20
86.93037930481798
 30
0.0
 11
67.78000822067998
 21
76.93037930481799
 31
0.0
  0
LINE
  5
1307
330
2
100
AcDbEntity
  8
0
100
AcDbLine
 10
67.38000822068034
 20
77.62319962784525
 30
0.0
 11
67.38000822068034
 21
86.23755898179027
 31
0.0
  0
LINE
  5
1308
330
2
100
AcDbEntity
  8
0
100
AcDbLine
 10
73.38000822068034
 20
86.93037930481798
 30
0.0
 11
73.38000822068034
 21
76.93037930481799
 31
0.0
  0
LINE
  5
1309
330
2
100
AcDbEntity
  8
0
100
AcDbLine
 10
73.38000822068034
 20
76.93037930481799
 30
0.0
 11
74.38000822068033
 21
76.93037930481799
 31
0.0
  0
LINE
  5
130A
330
2
100
AcDbEntity
  8
0
100
AcDbLine
 10
74.38000822068033
 20
76.93037930481799
 30
0.0
 11
74.38000822068033
 21
86.93037930481798
 31
0.0
  0
LINE
  5
130B
330
2
100
AcDbEntity
  8
0
100
AcDbLine
 10
74.38000822068033
 20
86.93037930481798
 30
0.0
 11
73.38000822068034
 21
86.93037930481798
 31
0.0
  0
LINE
  5
130C
330
2
100
AcDbEntity
  8
0
100
AcDbLine
 10
73.38000822068034
 20
86.93037930481798
 30
0.0
 11
73.38000822068034
 21
76.93037930481799
 31
0.0
  0
LINE
  5
130D
330
2
100
AcDbEntity
  8
0
100
AcDbLine
 10
67.78000822067998
 20
86.93037930481798
 30
0.0
 11
73.38000822068034
 21
86.93037930481798
 31
0.0
  0
LINE
  5
130E
330
2
100
AcDbEntity
  8
0
100
AcDbLine
 10
73.38000822068034
 20
76.93037930481799
 30
0.0
 11
67.78000822067998
 21
76.93037930481799
 31
0.0
  0
LINE
  5
130F
330
2
100
AcDbEntity
  8
0
100
AcDbLine
 10
67.78000822067998
 20
76.93037930481799
 30
0.0
 11
67.38000822068034
 21
77.62319962784525
 31
0.0
  0
LINE
  5
1310
330
2
100
AcDbEntity
  8
0
100
AcDbLine
 10
67.78000822067998
 20
86.93037930481798
 30
0.0
 11
67.38000822068034
 21
86.23755898179073
 31
0.0
  0
LINE
  5
1311
330
2
100
AcDbEntity
  8
0
100
AcDbLine
 10
36.86246554557738
 20
160.5803793048176
 30
0.0
 11
46.86246554557738
 21
160.5803793048176
 31
0.0
  0
ARC
  5
1312
330
2
100
AcDbEntity
  8
0
100
AcDbCircle
 10
46.86246554557738
 20
156.5803793048176
 30
0.0
 40
4.0
100
AcDbArc
 50
0.0
 51
90.0
  0
ARC
  5
1313
330
2
100
AcDbEntity
  8
0
100
AcDbCircle
 10
36.86246554557738
 20
156.5803793048176
 30
0.0
 40
4.0
100
AcDbArc
 50
90.0
 51
180.0
  0
LINE
  5
1314
330
2
100
AcDbEntity
  8
CENTER
  6
CENS
100
AcDbLine
 10
41.86246554557738
 20
165.7040637275208
 30
0.0
 11
41.86246554557738
 21
142.3441377251561
 31
0.0
  0
ARC
  5
1315
330
2
100
AcDbEntity
  8
0
100
AcDbCircle
 10
704.8949751173879
 20
150.6803526007776
 30
0.0
 40
3.0
100
AcDbArc
 50
270.0
 51
358.9999999999974
  0
LINE
  5
1316
330
2
100
AcDbEntity
  8
0
100
AcDbLine
 10
704.8949751173879
 20
147.6803526007776
 30
0.0
 11
717.5412695038631
 21
147.6803526007771
 31
0.0
  0
ARC
  5
1317
330
2
100
AcDbEntity
  8
0
100
AcDbCircle
 10
709.963811976948
 20
154.5803793048186
 30
0.0
 40
2.0
100
AcDbArc
 50
90.0
 51
178.9999999999974
  0
LINE
  5
1318
330
2
100
AcDbEntity
  8
0
100
AcDbLine
 10
707.8954124894591
 20
150.6792290266058
 30
0.0
 11
707.9641165866343
 21
154.6152841176932
 31
0.0
  0
CIRCLE
  5
1319
330
2
100
AcDbEntity
  8
0
100
AcDbCircle
 10
975.8004856188803
 20
148.4003793048039
 30
0.0
 40
2.0
  0
CIRCLE
  5
131A
330
2
100
AcDbEntity
  8
HOJO
100
AcDbCircle
 10
975.8004856188803
 20
148.4003793048039
 30
0.0
 40
2.5
  0
CIRCLE
  5
131B
330
2
100
AcDbEntity
  8
0
100
AcDbCircle
 10
912.1604856188808
 20
148.4003793048039
 30
0.0
 40
2.0
  0
CIRCLE
  5
131C
330
2
100
AcDbEntity
  8
HOJO
100
AcDbCircle
 10
912.1604856188808
 20
148.4003793048039
 30
0.0
 40
2.5
  0
CIRCLE
  5
131D
330
2
100
AcDbEntity
  8
0
100
AcDbCircle
 10
975.8004856188803
 20
84.76037930480456
 30
0.0
 40
2.0
  0
CIRCLE
  5
131E
330
2
100
AcDbEntity
  8
HOJO
100
AcDbCircle
 10
975.8004856188803
 20
84.76037930480456
 30
0.0
 40
2.5
  0
CIRCLE
  5
131F
330
2
100
AcDbEntity
  8
0
100
AcDbCircle
 10
912.1604856188808
 20
84.76037930480456
 30
0.0
 40
2.0
  0
CIRCLE
  5
1320
330
2
100
AcDbEntity
  8
HOJO
100
AcDbCircle
 10
912.1604856188808
 20
84.76037930480456
 30
0.0
 40
2.5
  0
CIRCLE
  5
1321
330
2
100
AcDbEntity
  8
0
100
AcDbCircle
 10
943.9804856188805
 20
116.5803793048042
 30
0.0
 40
29.0
  0
LINE
  5
1322
330
2
100
AcDbEntity
  8
0
100
AcDbLine
 10
937.7185684085782
 20
158.0040144607911
 30
0.0
 11
943.9804856188786
 21
158.0803793048192
 31
0.0
  0
ARC
  5
2251
330
2
100
AcDbEntity
  8
0
100
AcDbCircle
 10
190.4585089857314
 20
196.3611706167825
 30
0.0
 40
40.0
100
AcDbArc
 50
263.823003595109
 51
283.367674202629
  0
ARC
  5
2252
330
2
100
AcDbEntity
  8
0
100
AcDbCircle
 10
185.3244063226697
 20
145.0803793048153
 30
0.0
 40
8.5
100
AcDbArc
 50
44.99999999998848
 51
90.0
  0
ARC
  5
2253
330
2
100
AcDbEntity
  8
0
100
AcDbCircle
 10
185.3244063226697
 20
145.0803793048153
 30
0.0
 40
5.0
100
AcDbArc
 50
44.99999999998848
 51
90.0
  0
CIRCLE
  5
2254
330
2
100
AcDbEntity
  8
0
100
AcDbCircle
 10
167.862465545541
 20
116.580379304818
 30
0.0
 40
23.0
  0
CIRCLE
  5
2255
330
2
100
AcDbEntity
  8
0
100
AcDbCircle
 10
167.862465545541
 20
116.580379304818
 30
0.0
 40
29.0
  0
CIRCLE
  5
2256
330
2
100
AcDbEntity
  8
0
100
AcDbCircle
 10
167.862465545541
 20
116.580379304818
 30
0.0
 40
26.5
  0
CIRCLE
  5
2257
330
2
100
AcDbEntity
  8
0
100
AcDbCircle
 10
167.862465545541
 20
116.580379304818
 30
0.0
 40
28.5
  0
CIRCLE
  5
2258
330
2
100
AcDbEntity
  8
0
100
AcDbCircle
 10
167.862465545541
 20
116.580379304818
 30
0.0
 40
23.5774
  0
CIRCLE
  5
2259
330
2
100
AcDbEntity
  8
0
100
AcDbCircle
 10
167.862465545541
 20
116.580379304818
 30
0.0
 40
25.9226
  0
ARC
  5
225A
330
2
100
AcDbEntity
  8
0
100
AcDbCircle
 10
190.4585089857305
 20
36.7995879928593
 30
0.0
 40
40.0
100
AcDbArc
 50
76.63232579737094
 51
96.17699640483843
  0
ARC
  5
225B
330
2
100
AcDbEntity
  8
0
100
AcDbCircle
 10
185.3244063226697
 20
88.08037930482077
 30
0.0
 40
8.5
100
AcDbArc
 50
270.0
 51
315.0000000000114
  0
ARC
  5
225C
330
2
100
AcDbEntity
  8
0
100
AcDbCircle
 10
185.3244063226697
 20
88.08037930482077
 30
0.0
 40
5.0
100
AcDbArc
 50
270.0
 51
315.0000000000114
  0
LINE
  5
225E
330
2
100
AcDbEntity
  8
CENTER
100
AcDbLine
 10
212.3477469197792
 20
161.0656606790564
 30
0.0
 11
123.3771841713023
 21
72.0950979305793
 31
0.0
  0
LINE
  5
225F
330
2
100
AcDbEntity
  8
CENTER
100
AcDbLine
 10
123.3771841713028
 20
161.0656606790563
 30
0.0
 11
212.3477469197796
 21
72.09509793057918
 31
0.0
  0
ARC
  5
2260
330
2
100
AcDbEntity
  8
0
100
AcDbCircle
 10
145.2664221053505
 20
36.79958799285953
 30
0.0
 40
40.0
100
AcDbArc
 50
83.82300359510905
 51
103.367674202629
  0
ARC
  5
2261
330
2
100
AcDbEntity
  8
0
100
AcDbCircle
 10
167.862465545541
 20
245.5803793048212
 30
0.0
 40
170.0
100
AcDbArc
 50
263.823003595109
 51
276.1769964048909
  0
ARC
  5
2262
330
2
100
AcDbEntity
  8
0
100
AcDbCircle
 10
131.8624655455409
 20
80.58037930481759
 30
0.0
 40
5.0
100
AcDbArc
 50
180.0
 51
270.0
  0
ARC
  5
2263
330
2
100
AcDbEntity
  8
0
100
AcDbCircle
 10
132.2724655455408
 20
80.5803793048185
 30
0.0
 40
5.0
100
AcDbArc
 50
180.0
 51
270.0
  0
LINE
  5
2264
330
2
100
AcDbEntity
  8
CENTER
100
AcDbLine
 10
133.362465545541
 20
76.87108376993728
 30
0.0
 11
133.362465545541
 21
73.47442162756033
 31
0.0
  0
ARC
  5
2265
330
2
100
AcDbEntity
  8
0
100
AcDbCircle
 10
92.86246554554281
 20
77.58037930481759
 30
0.0
 40
2.0
100
AcDbArc
 50
270.0
 51
0.0
  0
ARC
  5
2266
330
2
100
AcDbEntity
  8
0
100
AcDbCircle
 10
92.86246554554281
 20
77.0803793048176
 30
0.0
 40
2.0
100
AcDbArc
 50
270.0
 51
0.0
  0
LINE
  5
2267
330
2
100
AcDbEntity
  8
CENTER
100
AcDbLine
 10
167.862465545541
 20
65.58037930482123
 30
0.0
 11
167.862465545541
 21
167.5803793048211
 31
0.0
  0
LINE
  5
2269
330
2
100
AcDbEntity
  8
0
100
AcDbLine
 10
92.86246554554281
 20
75.58037930481759
 30
0.0
 11
82.862465545541
 21
75.58037930481759
 31
0.0
  0
LINE
  5
226A
330
2
100
AcDbEntity
  8
0
100
AcDbLine
 10
92.86246554554281
 20
75.08037930481759
 30
0.0
 11
82.862465545541
 21
75.08037930481759
 31
0.0
  0
LINE
  5
226B
330
2
100
AcDbEntity
  8
0
100
AcDbLine
 10
134.8624655455409
 20
75.58037930482147
 30
0.0
 11
131.8624655455409
 21
75.58037930482147
 31
0.0
  0
LINE
  5
226C
330
2
100
AcDbEntity
  8
0
100
AcDbLine
 10
134.8624655455409
 20
75.58037930481851
 30
0.0
 11
132.2724655455408
 21
75.58037930481851
 31
0.0
  0
ARC
  5
226D
330
2
100
AcDbEntity
  8
0
100
AcDbCircle
 10
134.8624655455409
 20
80.58037930482191
 30
0.0
 40
5.0
100
AcDbArc
 50
270.0
 51
283.367674202629
  0
ARC
  5
226E
330
2
100
AcDbEntity
  8
0
100
AcDbCircle
 10
131.8624655455409
 20
152.5803793048173
 30
0.0
 40
5.0
100
AcDbArc
 50
90.0
 51
180.0
  0
ARC
  5
226F
330
2
100
AcDbEntity
  8
0
100
AcDbCircle
 10
132.2724655455408
 20
152.580379304818
 30
0.0
 40
5.0
100
AcDbArc
 50
90.0
 51
180.0
  0
LINE
  5
2270
330
2
100
AcDbEntity
  8
CENTER
100
AcDbLine
 10
133.362465545541
 20
159.830379304818
 30
0.0
 11
133.362465545541
 21
142.330379304818
 31
0.0
  0
ARC
  5
2271
330
2
100
AcDbEntity
  8
0
100
AcDbCircle
 10
92.862465545541
 20
156.0803793048173
 30
0.0
 40
2.0
100
AcDbArc
 50
0.0
 51
90.0
  0
LINE
  5
2272
330
2
100
AcDbEntity
  8
0
100
AcDbLine
 10
112.3624655455391
 20
142.5803793047002
 30
0.0
 11
121.862465545541
 21
142.5803793047002
 31
0.0
  0
LINE
  5
2273
330
2
100
AcDbEntity
  8
0
100
AcDbLine
 10
107.3624655455391
 20
128.7047349578001
 30
0.0
 11
126.8624655455409
 21
128.7047349578001
 31
0.0
  0
LINE
  5
2274
330
2
100
AcDbEntity
  8
0
100
AcDbLine
 10
123.862465545541
 20
148.5803793048228
 30
0.0
 11
108.3624655455419
 21
148.5803793048228
 31
0.0
  0
LINE
  5
2275
330
2
100
AcDbEntity
  8
0
100
AcDbLine
 10
112.3624655455355
 20
90.58037930493515
 30
0.0
 11
121.862465545541
 21
90.58037930493469
 31
0.0
  0
LINE
  5
2276
330
2
100
AcDbEntity
  8
0
100
AcDbLine
 10
107.3624655455364
 20
104.4560236518359
 30
0.0
 11
126.8624655455419
 21
104.4560236518359
 31
0.0
  0
LINE
  5
2277
330
2
100
AcDbEntity
  8
0
100
AcDbLine
 10
123.862465545541
 20
84.58037930481305
 30
0.0
 11
108.3624655455419
 21
84.58037930481305
 31
0.0
  0
LINE
  5
2278
330
2
100
AcDbEntity
  8
0
100
AcDbLine
 10
107.3624655455346
 20
85.58037930493446
 30
0.0
 11
107.3624655455391
 21
147.5803793047002
 31
0.0
  0
LINE
  5
2279
330
2
100
AcDbEntity
  8
0
100
AcDbLine
 10
94.86246554554554
 20
77.0803793048176
 30
0.0
 11
94.86246554554554
 21
156.0803793048173
 31
0.0
  0
ARC
  5
227A
330
2
100
AcDbEntity
  8
0
100
AcDbCircle
 10
112.3624655455355
 20
85.58037930493515
 30
0.0
 40
5.0
100
AcDbArc
 50
90.0
 51
180.0
  0
ARC
  5
227B
330
2
100
AcDbEntity
  8
0
100
AcDbCircle
 10
108.3624655455419
 20
81.58037930481304
 30
0.0
 40
3.0
100
AcDbArc
 50
90.0
 51
126.86989764587
  0
LINE
  5
227C
330
2
100
AcDbEntity
  8
0
100
AcDbLine
 10
99.86246554554554
 20
83.58037930493447
 30
0.0
 11
105.362465545541
 21
83.58037930493447
 31
0.0
  0
ARC
  5
227D
330
2
100
AcDbEntity
  8
0
100
AcDbCircle
 10
99.86246554554554
 20
78.58037930493447
 30
0.0
 40
5.0
100
AcDbArc
 50
90.0
 51
180.0
  0
ARC
  5
227E
330
2
100
AcDbEntity
  8
0
100
AcDbCircle
 10
105.362465545541
 20
85.58037930493446
 30
0.0
 40
2.0
100
AcDbArc
 50
270.0
 51
0.0
  0
LINE
  5
227F
330
2
100
AcDbEntity
  8
0
100
AcDbLine
 10
82.862465545541
 20
157.5803793048173
 30
0.0
 11
92.862465545541
 21
157.5803793048173
 31
0.0
  0
LINE
  5
2280
330
2
100
AcDbEntity
  8
0
100
AcDbLine
 10
82.862465545541
 20
158.0803793048173
 30
0.0
 11
92.862465545541
 21
158.0803793048173
 31
0.0
  0
ARC
  5
2281
330
2
100
AcDbEntity
  8
0
100
AcDbCircle
 10
105.362465545541
 20
147.5803793047002
 30
0.0
 40
2.0
100
AcDbArc
 50
0.0
 51
90.0
  0
ARC
  5
2282
330
2
100
AcDbEntity
  8
0
100
AcDbCircle
 10
112.3624655455391
 20
147.5803793047002
 30
0.0
 40
5.0
100
AcDbArc
 50
180.0
 51
270.0
  0
ARC
  5
2283
330
2
100
AcDbEntity
  8
0
100
AcDbCircle
 10
108.3624655455419
 20
151.580379304823
 30
0.0
 40
3.0
100
AcDbArc
 50
233.1301023541299
 51
270.0
  0
ARC
  5
2284
330
2
100
AcDbEntity
  8
0
100
AcDbCircle
 10
99.86246554554099
 20
154.5803793047002
 30
0.0
 40
5.0
100
AcDbArc
 50
180.0
 51
270.0
  0
ARC
  5
2285
330
2
100
AcDbEntity
  8
0
100
AcDbCircle
 10
92.862465545541
 20
155.5803793048173
 30
0.0
 40
2.0
100
AcDbArc
 50
0.0
 51
90.0
  0
LINE
  5
2286
330
2
100
AcDbEntity
  8
0
100
AcDbLine
 10
99.86246554554099
 20
149.5803793047002
 30
0.0
 11
105.362465545541
 21
149.5803793047002
 31
0.0
  0
LINE
  5
2287
330
2
100
AcDbEntity
  8
0
100
AcDbLine
 10
126.3624655455419
 20
104.4560236518359
 30
0.0
 11
126.362465545541
 21
128.7047349578001
 31
0.0
  0
LINE
  5
2288
330
2
100
AcDbEntity
  8
0
100
AcDbLine
 10
134.3624655455437
 20
134.0423200819468
 30
0.0
 11
134.3624655455437
 21
99.11843852768971
 31
0.0
  0
LINE
  5
2289
330
2
100
AcDbEntity
  8
0
100
AcDbLine
 10
130.8624655455437
 20
134.0423200819468
 30
0.0
 11
130.8624655455437
 21
99.11843852768971
 31
0.0
  0
LINE
  5
228A
330
2
100
AcDbEntity
  8
0
100
AcDbLine
 10
126.8624655455409
 20
80.58037930481759
 30
0.0
 11
126.8624655455409
 21
152.5803793048173
 31
0.0
  0
LINE
  5
228B
330
2
100
AcDbEntity
  8
0
100
AcDbLine
 10
127.2724655455408
 20
80.5803793048185
 30
0.0
 11
127.2724655455408
 21
152.580379304818
 31
0.0
  0
LINE
  5
228C
330
2
100
AcDbEntity
  8
0
100
AcDbLine
 10
150.4005247684131
 20
79.58037930482078
 30
0.0
 11
185.3244063226697
 21
79.58037930482078
 31
0.0
  0
LINE
  5
228D
330
2
100
AcDbEntity
  8
0
100
AcDbLine
 10
150.4005247684131
 20
83.08037930482077
 30
0.0
 11
185.3244063226697
 21
83.08037930482077
 31
0.0
  0
LINE
  5
228E
330
2
100
AcDbEntity
  8
0
100
AcDbLine
 10
135.8269316396113
 20
95.58290462175728
 30
0.0
 11
146.8649908624797
 21
84.54484539888836
 31
0.0
  0
ARC
  5
228F
330
2
100
AcDbEntity
  8
0
100
AcDbCircle
 10
121.862465545541
 20
85.58037930493469
 30
0.0
 40
5.0
100
AcDbArc
 50
0.0
 51
90.0
  0
LINE
  5
2290
330
2
100
AcDbEntity
  8
0
100
AcDbLine
 10
131.5094895191982
 20
95.86562935258644
 30
0.0
 11
134.7430678829873
 21
97.20502136586446
 31
0.0
  0
ARC
  5
2291
330
2
100
AcDbEntity
  8
0
100
AcDbCircle
 10
139.3624655455437
 20
99.11843852768971
 30
0.0
 40
8.5
100
AcDbArc
 50
180.0
 51
224.9999999999884
  0
ARC
  5
2292
330
2
100
AcDbEntity
  8
0
100
AcDbCircle
 10
139.3624655455437
 20
99.11843852768971
 30
0.0
 40
5.0
100
AcDbArc
 50
180.0
 51
224.9999999999884
  0
ARC
  5
2293
330
2
100
AcDbEntity
  8
0
100
AcDbCircle
 10
150.4005247684131
 20
88.08037930482077
 30
0.0
 40
8.5
100
AcDbArc
 50
224.9999999999884
 51
270.0
  0
LINE
  5
2294
330
2
100
AcDbEntity
  8
0
100
AcDbLine
 10
147.1477155933093
 20
80.22740327847486
 30
0.0
 11
148.4871076065869
 21
83.46098164226441
 31
0.0
  0
LINE
  5
2295
330
2
100
AcDbEntity
  8
0
100
AcDbLine
 10
135.862465545541
 20
80.63700363184443
 30
0.0
 11
135.862465545541
 21
83.52375497779211
 31
0.0
  0
LINE
  5
2296
330
2
100
AcDbEntity
  8
0
100
AcDbLine
 10
130.8624655455419
 20
80.63700363184443
 30
0.0
 11
130.8624655455419
 21
83.52375497779258
 31
0.0
  0
LINE
  5
2297
330
2
100
AcDbEntity
  8
0
100
AcDbLine
 10
130.8624655455419
 20
80.63700363184443
 30
0.0
 11
133.3624655455419
 21
79.19362795887036
 31
0.0
  0
LINE
  5
2298
330
2
100
AcDbEntity
  8
CENTER
100
AcDbLine
 10
124.6124655455409
 20
82.0803793048185
 30
0.0
 11
142.1124655455409
 21
82.0803793048185
 31
0.0
  0
LINE
  5
2299
330
2
100
AcDbEntity
  8
0
100
AcDbLine
 10
135.862465545541
 20
80.63700363184443
 30
0.0
 11
133.3624655455419
 21
79.19362795887036
 31
0.0
  0
ARC
  5
229A
330
2
100
AcDbEntity
  8
0
100
AcDbCircle
 10
123.862465545541
 20
81.58037930481304
 30
0.0
 40
3.0
100
AcDbArc
 50
0.0
 51
90.0
  0
LINE
  5
229B
330
2
100
AcDbEntity
  8
0
100
AcDbLine
 10
133.3520579054579
 20
93.1080308876044
 30
0.0
 11
144.3901171283273
 21
82.06997166473502
 31
0.0
  0
ARC
  5
229C
330
2
100
AcDbEntity
  8
0
100
AcDbCircle
 10
150.4005247684131
 20
88.08037930482077
 30
0.0
 40
5.0
100
AcDbArc
 50
224.9999999999884
 51
270.0
  0
LINE
  5
229D
330
2
100
AcDbEntity
  8
CENTER
100
AcDbLine
 10
133.362465545541
 20
77.89613656065148
 30
0.0
 11
133.362465545541
 21
90.83037930481806
 31
0.0
  0
CIRCLE
  5
229E
330
2
100
AcDbEntity
  8
0
100
AcDbCircle
 10
133.362465545541
 20
82.0803793048185
 30
0.0
 40
5.000000000000113
  0
CIRCLE
  5
229F
330
2
100
AcDbEntity
  8
0
100
AcDbCircle
 10
133.362465545541
 20
82.0803793048185
 30
0.0
 40
4.307179676972509
  0
LINE
  5
22A0
330
2
100
AcDbEntity
  8
0
100
AcDbLine
 10
133.362465545541
 20
84.96713065076665
 30
0.0
 11
130.8624655455419
 21
83.52375497779258
 31
0.0
  0
LINE
  5
22A1
330
2
100
AcDbEntity
  8
0
100
AcDbLine
 10
133.362465545541
 20
84.96713065076665
 30
0.0
 11
135.862465545541
 21
83.52375497779211
 31
0.0
  0
ARC
  5
22A2
330
2
100
AcDbEntity
  8
0
100
AcDbCircle
 10
167.862465545541
 20
-12.41962069517887
 30
0.0
 40
170.0
100
AcDbArc
 50
83.82300359510905
 51
96.17699640483843
  0
LINE
  5
22A3
330
2
100
AcDbEntity
  8
0
100
AcDbLine
 10
185.3244063226697
 20
153.5803793048153
 30
0.0
 11
150.4005247684131
 21
153.5803793048153
 31
0.0
  0
LINE
  5
22A4
330
2
100
AcDbEntity
  8
0
100
AcDbLine
 10
185.3244063226697
 20
150.0803793048153
 30
0.0
 11
150.4005247684131
 21
150.0803793048153
 31
0.0
  0
ARC
  5
22A5
330
2
100
AcDbEntity
  8
0
100
AcDbCircle
 10
145.2664221053514
 20
196.361170616783
 30
0.0
 40
40.0
100
AcDbArc
 50
256.6323257973709
 51
276.1769964048909
  0
ARC
  5
22A6
330
2
100
AcDbEntity
  8
0
100
AcDbCircle
 10
150.4005247684131
 20
145.0803793048153
 30
0.0
 40
8.5
100
AcDbArc
 50
90.0
 51
135.0000000000115
  0
LINE
  5
22A7
330
2
100
AcDbEntity
  8
0
100
AcDbLine
 10
147.1477155933093
 20
152.9333553311612
 30
0.0
 11
148.4871076065869
 21
149.6997769673716
 31
0.0
  0
LINE
  5
22A8
330
2
100
AcDbEntity
  8
0
100
AcDbLine
 10
135.8269316396113
 20
137.5778539878792
 30
0.0
 11
146.8649908624797
 21
148.6159132107482
 31
0.0
  0
ARC
  5
22A9
330
2
100
AcDbEntity
  8
0
100
AcDbCircle
 10
150.4005247684131
 20
145.0803793048153
 30
0.0
 40
5.0
100
AcDbArc
 50
90.0
 51
135.0000000000115
  0
LINE
  5
22AA
330
2
100
AcDbEntity
  8
0
100
AcDbLine
 10
135.862465545541
 20
149.6370036318439
 30
0.0
 11
135.862465545541
 21
152.5237549777921
 31
0.0
  0
LINE
  5
22AB
330
2
100
AcDbEntity
  8
0
100
AcDbLine
 10
134.8624655455409
 20
157.5803793048212
 30
0.0
 11
131.8624655455409
 21
157.5803793048212
 31
0.0
  0
ARC
  5
22AC
330
2
100
AcDbEntity
  8
0
100
AcDbCircle
 10
121.862465545541
 20
147.5803793047002
 30
0.0
 40
5.0
100
AcDbArc
 50
270.0
 51
0.0
  0
ARC
  5
22AD
330
2
100
AcDbEntity
  8
0
100
AcDbCircle
 10
123.862465545541
 20
151.580379304823
 30
0.0
 40
3.0
100
AcDbArc
 50
270.0
 51
0.0
  0
CIRCLE
  5
22AE
330
2
100
AcDbEntity
  8
HOJO
100
AcDbCircle
 10
131.8624655455437
 20
143.080379304818
 30
0.0
 40
2.0
  0
LINE
  5
22AF
330
2
100
AcDbEntity
  8
CENTER
100
AcDbLine
 10
131.8624655455437
 20
148.2535843855753
 30
0.0
 11
131.8624655455437
 21
137.9071742240612
 31
0.0
  0
ARC
  5
22B0
330
2
100
AcDbEntity
  8
0
100
AcDbCircle
 10
139.3624655455437
 20
134.0423200819468
 30
0.0
 40
8.5
100
AcDbArc
 50
135.0000000000115
 51
180.0
  0
LINE
  5
22B1
330
2
100
AcDbEntity
  8
0
100
AcDbLine
 10
131.5094895191982
 20
137.2951292570501
 30
0.0
 11
134.7430678829873
 21
135.9557372437721
 31
0.0
  0
LINE
  5
22B2
330
2
100
AcDbEntity
  8
0
100
AcDbLine
 10
134.8624655455409
 20
157.580379304818
 30
0.0
 11
132.2724655455408
 21
157.580379304818
 31
0.0
  0
CIRCLE
  5
22B3
330
2
100
AcDbEntity
  8
0
100
AcDbCircle
 10
131.8624655455437
 20
143.080379304818
 30
0.0
 40
1.6
  0
LINE
  5
22B4
330
2
100
AcDbEntity
  8
0
100
AcDbLine
 10
130.8624655455409
 20
149.6370036318439
 30
0.0
 11
130.8624655455409
 21
152.5237549777921
 31
0.0
  0
LINE
  5
22B5
330
2
100
AcDbEntity
  8
0
100
AcDbLine
 10
130.8624655455409
 20
149.6370036318439
 30
0.0
 11
133.362465545541
 21
148.1936279588699
 31
0.0
  0
LINE
  5
22B6
330
2
100
AcDbEntity
  8
0
100
AcDbLine
 10
133.362465545541
 20
153.9671306507661
 30
0.0
 11
130.8624655455409
 21
152.5237549777921
 31
0.0
  0
ARC
  5
22B7
330
2
100
AcDbEntity
  8
0
100
AcDbCircle
 10
134.8624655455409
 20
152.580379304821
 30
0.0
 40
5.0
100
AcDbArc
 50
76.63232579737094
 51
90.0
  0
LINE
  5
22B8
330
2
100
AcDbEntity
  8
CENTER
100
AcDbLine
 10
124.6124655455409
 20
151.080379304818
 30
0.0
 11
142.1124655455409
 21
151.080379304818
 31
0.0
  0
LINE
  5
22B9
330
2
100
AcDbEntity
  8
CENTER
100
AcDbLine
 10
126.6892604647869
 20
143.080379304818
 30
0.0
 11
137.0356706263014
 21
143.080379304818
 31
0.0
  0
ARC
  5
22BA
330
2
100
AcDbEntity
  8
0
100
AcDbCircle
 10
139.3624655455437
 20
134.0423200819468
 30
0.0
 40
5.0
100
AcDbArc
 50
135.0000000000115
 51
180.0
  0
LINE
  5
22BB
330
2
100
AcDbEntity
  8
0
100
AcDbLine
 10
133.3520579054579
 20
140.0527277220326
 30
0.0
 11
144.3901171283273
 21
151.090786944901
 31
0.0
  0
CIRCLE
  5
22BC
330
2
100
AcDbEntity
  8
0
100
AcDbCircle
 10
133.362465545541
 20
151.080379304818
 30
0.0
 40
5.000000000000113
  0
CIRCLE
  5
22BD
330
2
100
AcDbEntity
  8
0
100
AcDbCircle
 10
133.362465545541
 20
151.080379304818
 30
0.0
 40
4.307179676972509
  0
LINE
  5
22BE
330
2
100
AcDbEntity
  8
0
100
AcDbLine
 10
135.862465545541
 20
149.6370036318439
 30
0.0
 11
133.362465545541
 21
148.1936279588699
 31
0.0
  0
LINE
  5
22BF
330
2
100
AcDbEntity
  8
0
100
AcDbLine
 10
133.362465545541
 20
153.9671306507661
 30
0.0
 11
135.862465545541
 21
152.5237549777921
 31
0.0
  0
ARC
  5
22CA
330
2
100
AcDbEntity
  8
0
100
AcDbCircle
 10
285.1027274601318
 20
80.51977548370633
 30
0.0
 40
5.0
100
AcDbArc
 50
180.0
 51
269.3013056170002
  0
ARC
  5
22CB
330
2
100
AcDbEntity
  8
0
100
AcDbCircle
 10
291.1027274601337
 20
76.58037930480213
 30
0.0
 40
1.0
100
AcDbArc
 50
180.0
 51
270.0
  0
LINE
  5
22CC
330
2
100
AcDbEntity
  8
0
100
AcDbLine
 10
364.1027274601345
 20
76.16507944676868
 30
0.0
 11
364.1027274601364
 21
156.9956791628328
 31
0.0
  0
LINE
  5
22CD
330
2
100
AcDbEntity
  8
0
100
AcDbLine
 10
297.60272746013
 20
75.58474273868546
 30
0.0
 11
297.60272746013
 21
157.5760158708608
 31
0.0
  0
LINE
  5
22CE
330
2
100
AcDbEntity
  8
CENTER
100
AcDbLine
 10
321.1027274601264
 20
168.0803793047861
 30
0.0
 11
321.1027274601264
 21
65.08037930478713
 31
0.0
  0
LINE
  5
22CF
330
2
100
AcDbEntity
  8
CENTER
100
AcDbLine
 10
202.3624655455409
 20
76.87108376993728
 30
0.0
 11
202.3624655455409
 21
73.47442162756033
 31
0.0
  0
ARC
  5
22D0
330
2
100
AcDbEntity
  8
0
100
AcDbCircle
 10
203.8624655455409
 20
80.58037930481759
 30
0.0
 40
5.0
100
AcDbArc
 50
270.0
 51
0.0
  0
LINE
  5
22D1
330
2
100
AcDbEntity
  8
0
100
AcDbLine
 10
357.1636985362173
 20
75.52014724474066
 30
0.0
 11
321.1027274601327
 21
75.08037930478713
 31
0.0
  0
LINE
  5
22D2
330
2
100
AcDbEntity
  8
0
100
AcDbLine
 10
297.60272746013
 20
75.58474273868546
 30
0.0
 11
364.1027274601345
 21
76.16507944676868
 31
0.0
  0
ARC
  5
22D3
330
2
100
AcDbEntity
  8
0
100
AcDbCircle
 10
200.862465545541
 20
80.58037930482147
 30
0.0
 40
5.0
100
AcDbArc
 50
256.6323257973709
 51
270.0
  0
LINE
  5
22D4
330
2
100
AcDbEntity
  8
0
100
AcDbLine
 10
203.8624655455409
 20
75.58037930482147
 30
0.0
 11
200.862465545541
 21
75.58037930482147
 31
0.0
  0
LINE
  5
22D5
330
2
100
AcDbEntity
  8
0
100
AcDbLine
 10
285.0417563840472
 20
75.52014724473884
 30
0.0
 11
321.1027274601318
 21
75.08037930478713
 31
0.0
  0
LINE
  5
22D6
330
2
100
AcDbEntity
  8
0
100
AcDbLine
 10
297.60272746013
 20
75.58037930480214
 30
0.0
 11
291.1027274601337
 21
75.58037930480214
 31
0.0
  0
ARC
  5
22D7
330
2
100
AcDbEntity
  8
0
100
AcDbCircle
 10
357.1027274601318
 20
80.51977548370814
 30
0.0
 40
5.0
100
AcDbArc
 50
270.6986943829998
 51
298.4785614955819
  0
LINE
  5
22D9
330
2
100
AcDbEntity
  8
0
100
AcDbLine
 10
357.1636985362173
 20
157.6406113648317
 30
0.0
 11
321.1027274601327
 21
158.0803793047862
 31
0.0
  0
LINE
  5
22DA
330
2
100
AcDbEntity
  8
0
100
AcDbLine
 10
297.60272746013
 20
157.5760158708608
 30
0.0
 11
364.1027274601364
 21
156.9956791628328
 31
0.0
  0
LINE
  5
22DB
330
2
100
AcDbEntity
  8
CENTER
100
AcDbLine
 10
268.10272746013
 20
116.5803793048021
 30
0.0
 11
424.1027274601345
 21
116.5803793048021
 31
0.0
  0
LINE
  5
22DC
330
2
100
AcDbEntity
  8
0
100
AcDbLine
 10
364.1027274601364
 20
152.5803793048221
 30
0.0
 11
297.60272746013
 21
152.5803793048221
 31
0.0
  0
LINE
  5
22DD
330
2
100
AcDbEntity
  8
0
100
AcDbLine
 10
364.1027274601364
 20
149.5803793048223
 30
0.0
 11
297.60272746013
 21
149.5803793048223
 31
0.0
  0
LINE
  5
22DE
330
2
100
AcDbEntity
  8
0
100
AcDbLine
 10
364.1027274601355
 20
134.8724144706864
 30
0.0
 11
297.60272746013
 21
134.8724144706864
 31
0.0
  0
LINE
  5
22DF
330
2
100
AcDbEntity
  8
0
100
AcDbLine
 10
364.1027274601355
 20
98.28834413891787
 30
0.0
 11
297.60272746013
 21
98.28834413891787
 31
0.0
  0
LINE
  5
22E0
330
2
100
AcDbEntity
  8
0
100
AcDbLine
 10
364.1027274601364
 20
80.58037930478212
 30
0.0
 11
297.60272746013
 21
80.58037930478212
 31
0.0
  0
LINE
  5
22E1
330
2
100
AcDbEntity
  8
0
100
AcDbLine
 10
364.1027274601364
 20
83.58037930478189
 30
0.0
 11
297.60272746013
 21
83.58037930478189
 31
0.0
  0
ARC
  5
22E2
330
2
100
AcDbEntity
  8
0
100
AcDbCircle
 10
285.1027274601318
 20
152.6409831258661
 30
0.0
 40
5.0
100
AcDbArc
 50
90.69869438299976
 51
180.0
  0
LINE
  5
22E5
330
2
100
AcDbEntity
  8
CENTER
100
AcDbLine
 10
202.3624655455409
 20
159.830379304818
 30
0.0
 11
202.3624655455409
 21
142.330379304818
 31
0.0
  0
ARC
  5
22E6
330
2
100
AcDbEntity
  8
0
100
AcDbCircle
 10
203.8624655455409
 20
152.5803793048173
 30
0.0
 40
5.0
100
AcDbArc
 50
0.0
 51
90.0
  0
ARC
  5
22E8
330
2
100
AcDbEntity
  8
0
100
AcDbCircle
 10
38.862465545541
 20
116.5803793048212
 30
0.0
 40
170.0
100
AcDbArc
 50
353.8230035951353
 51
6.176996404864683
  0
LINE
  5
22E9
330
2
100
AcDbEntity
  8
0
100
AcDbLine
 10
204.8624655455382
 20
99.11843852768971
 30
0.0
 11
204.8624655455382
 21
134.0423200819464
 31
0.0
  0
LINE
  5
22EA
330
2
100
AcDbEntity
  8
0
100
AcDbLine
 10
201.3624655455382
 20
99.11843852768971
 30
0.0
 11
201.3624655455382
 21
134.0423200819468
 31
0.0
  0
ARC
  5
22EB
330
2
100
AcDbEntity
  8
0
100
AcDbCircle
 10
247.6432568575023
 20
93.98433586463079
 30
0.0
 40
40.0
100
AcDbArc
 50
173.8230035951353
 51
193.3676742026251
  0
LINE
  5
22EC
330
2
100
AcDbEntity
  8
0
100
AcDbLine
 10
208.862465545541
 20
80.58037930482147
 30
0.0
 11
208.862465545541
 21
83.58037930482124
 31
0.0
  0
LINE
  5
22ED
330
2
100
AcDbEntity
  8
0
100
AcDbLine
 10
204.862465545541
 20
80.63700363184398
 30
0.0
 11
204.862465545541
 21
83.52375497779211
 31
0.0
  0
ARC
  5
22EE
330
2
100
AcDbEntity
  8
0
100
AcDbCircle
 10
203.8624655455401
 20
83.58037930482124
 30
0.0
 40
5.0
100
AcDbArc
 50
0.0
 51
13.36767420262514
  0
LINE
  5
22EF
330
2
100
AcDbEntity
  8
CENTER
100
AcDbLine
 10
203.8624655455382
 20
84.90717422406124
 30
0.0
 11
203.8624655455382
 21
95.25358438557532
 31
0.0
  0
LINE
  5
22F0
330
2
100
AcDbEntity
  8
0
100
AcDbLine
 10
204.2154415718837
 20
95.86562935258644
 30
0.0
 11
200.9818632080946
 21
97.20502136586402
 31
0.0
  0
LINE
  5
22F1
330
2
100
AcDbEntity
  8
0
100
AcDbLine
 10
199.8979994514707
 20
95.58290462175682
 30
0.0
 11
188.8599402286022
 21
84.5448453988879
 31
0.0
  0
ARC
  5
22F2
330
2
100
AcDbEntity
  8
0
100
AcDbCircle
 10
196.3624655455382
 20
99.11843852768971
 30
0.0
 40
5.0
100
AcDbArc
 50
315.0000000000114
 51
0.0
  0
LINE
  5
22F3
330
2
100
AcDbEntity
  8
0
100
AcDbLine
 10
188.5772154977735
 20
80.22740327847486
 30
0.0
 11
187.237823484495
 21
83.46098164226441
 31
0.0
  0
LINE
  5
22F4
330
2
100
AcDbEntity
  8
0
100
AcDbLine
 10
199.862465545541
 20
80.63700363184398
 30
0.0
 11
199.862465545541
 21
83.52375497779211
 31
0.0
  0
LINE
  5
22F5
330
2
100
AcDbEntity
  8
0
100
AcDbLine
 10
199.862465545541
 20
80.63700363184398
 30
0.0
 11
202.3624655455409
 21
79.19362795886991
 31
0.0
  0
LINE
  5
22F6
330
2
100
AcDbEntity
  8
0
100
AcDbLine
 10
202.372873185624
 20
93.10803088760394
 30
0.0
 11
191.3348139627555
 21
82.06997166473547
 31
0.0
  0
LINE
  5
22F7
330
2
100
AcDbEntity
  8
CENTER
100
AcDbLine
 10
202.3624655455409
 20
77.89613656065148
 30
0.0
 11
202.3624655455409
 21
90.83037930481806
 31
0.0
  0
LINE
  5
22F8
330
2
100
AcDbEntity
  8
0
100
AcDbLine
 10
202.3624655455409
 20
84.96713065076619
 30
0.0
 11
199.862465545541
 21
83.52375497779211
 31
0.0
  0
LINE
  5
22F9
330
2
100
AcDbEntity
  8
CENTER
100
AcDbLine
 10
211.112465545541
 20
82.08037930481806
 30
0.0
 11
193.612465545541
 21
82.08037930481806
 31
0.0
  0
LINE
  5
22FA
330
2
100
AcDbEntity
  8
CENTER
100
AcDbLine
 10
209.0356706262959
 20
90.08037930481805
 30
0.0
 11
198.6892604647814
 21
90.08037930481805
 31
0.0
  0
CIRCLE
  5
22FB
330
2
100
AcDbEntity
  8
HOJO
100
AcDbCircle
 10
203.8624655455382
 20
90.08037930481805
 30
0.0
 40
2.0
  0
CIRCLE
  5
22FC
330
2
100
AcDbEntity
  8
0
100
AcDbCircle
 10
203.8624655455382
 20
90.08037930481805
 30
0.0
 40
1.6
  0
ARC
  5
22FD
330
2
100
AcDbEntity
  8
0
100
AcDbCircle
 10
196.3624655455382
 20
99.11843852768971
 30
0.0
 40
8.5
100
AcDbArc
 50
315.0000000000114
 51
0.0
  0
CIRCLE
  5
22FE
330
2
100
AcDbEntity
  8
0
100
AcDbCircle
 10
202.3624655455409
 20
82.08037930481806
 30
0.0
 40
5.000000000000113
  0
CIRCLE
  5
22FF
330
2
100
AcDbEntity
  8
0
100
AcDbCircle
 10
202.3624655455409
 20
82.08037930481806
 30
0.0
 40
4.307179676972509
  0
LINE
  5
2300
330
2
100
AcDbEntity
  8
0
100
AcDbLine
 10
204.862465545541
 20
80.63700363184398
 30
0.0
 11
202.3624655455409
 21
79.19362795886991
 31
0.0
  0
LINE
  5
2301
330
2
100
AcDbEntity
  8
0
100
AcDbLine
 10
202.3624655455409
 20
84.96713065076619
 30
0.0
 11
204.862465545541
 21
83.52375497779211
 31
0.0
  0
ARC
  5
2302
330
2
100
AcDbEntity
  8
0
100
AcDbCircle
 10
247.6432568575032
 20
139.1764227450105
 30
0.0
 40
40.0
100
AcDbArc
 50
166.6323257973748
 51
186.1769964048647
  0
LINE
  5
2303
330
2
100
AcDbEntity
  8
0
100
AcDbLine
 10
208.862465545541
 20
149.5803793048212
 30
0.0
 11
208.862465545541
 21
152.5803793048212
 31
0.0
  0
ARC
  5
2304
330
2
100
AcDbEntity
  8
0
100
AcDbCircle
 10
203.8624655455409
 20
149.5803793048212
 30
0.0
 40
5.0
100
AcDbArc
 50
346.6323257973748
 51
0.0
  0
LINE
  5
2305
330
2
100
AcDbEntity
  8
0
100
AcDbLine
 10
204.862465545541
 20
149.6370036318439
 30
0.0
 11
204.862465545541
 21
152.5237549777921
 31
0.0
  0
LINE
  5
2306
330
2
100
AcDbEntity
  8
0
100
AcDbLine
 10
203.8624655455409
 20
157.5803793048212
 30
0.0
 11
200.862465545541
 21
157.5803793048212
 31
0.0
  0
ARC
  5
2307
330
2
100
AcDbEntity
  8
0
100
AcDbCircle
 10
200.862465545541
 20
152.5803793048203
 30
0.0
 40
5.0
100
AcDbArc
 50
90.0
 51
103.367674202629
  0
ARC
  5
2308
330
2
100
AcDbEntity
  8
0
100
AcDbCircle
 10
196.3624655455382
 20
134.0423200819468
 30
0.0
 40
5.0
100
AcDbArc
 50
0.0
 51
44.99999999998848
  0
LINE
  5
2309
330
2
100
AcDbEntity
  8
0
100
AcDbLine
 10
204.2154415718837
 20
137.2951292570496
 30
0.0
 11
200.9818632080955
 21
135.9557372437721
 31
0.0
  0
LINE
  5
230A
330
2
100
AcDbEntity
  8
0
100
AcDbLine
 10
188.5772154977735
 20
152.9333553311612
 30
0.0
 11
187.237823484495
 21
149.6997769673716
 31
0.0
  0
LINE
  5
230B
330
2
100
AcDbEntity
  8
0
100
AcDbLine
 10
202.372873185624
 20
140.0527277220321
 30
0.0
 11
191.3348139627555
 21
151.090786944901
 31
0.0
  0
LINE
  5
230C
330
2
100
AcDbEntity
  8
0
100
AcDbLine
 10
199.8979994514707
 20
137.5778539878792
 30
0.0
 11
188.8599402286022
 21
148.6159132107482
 31
0.0
  0
LINE
  5
230D
330
2
100
AcDbEntity
  8
0
100
AcDbLine
 10
199.862465545541
 20
149.6370036318439
 30
0.0
 11
199.862465545541
 21
152.5237549777921
 31
0.0
  0
LINE
  5
230E
330
2
100
AcDbEntity
  8
0
100
AcDbLine
 10
199.862465545541
 20
149.6370036318439
 30
0.0
 11
202.3624655455409
 21
148.1936279588699
 31
0.0
  0
LINE
  5
230F
330
2
100
AcDbEntity
  8
0
100
AcDbLine
 10
202.3624655455409
 20
153.9671306507661
 30
0.0
 11
199.862465545541
 21
152.5237549777921
 31
0.0
  0
LINE
  5
2310
330
2
100
AcDbEntity
  8
CENTER
100
AcDbLine
 10
211.112465545541
 20
151.080379304818
 30
0.0
 11
193.612465545541
 21
151.080379304818
 31
0.0
  0
ARC
  5
2311
330
2
100
AcDbEntity
  8
0
100
AcDbCircle
 10
196.3624655455382
 20
134.0423200819464
 30
0.0
 40
8.5
100
AcDbArc
 50
0.0
 51
44.99999999998848
  0
CIRCLE
  5
2312
330
2
100
AcDbEntity
  8
0
100
AcDbCircle
 10
202.3624655455409
 20
151.080379304818
 30
0.0
 40
5.000000000000113
  0
CIRCLE
  5
2313
330
2
100
AcDbEntity
  8
0
100
AcDbCircle
 10
202.3624655455409
 20
151.080379304818
 30
0.0
 40
4.307179676972509
  0
LINE
  5
2314
330
2
100
AcDbEntity
  8
0
100
AcDbLine
 10
204.862465545541
 20
149.6370036318439
 30
0.0
 11
202.3624655455409
 21
148.1936279588699
 31
0.0
  0
LINE
  5
2315
330
2
100
AcDbEntity
  8
0
100
AcDbLine
 10
202.3624655455409
 20
153.9671306507661
 30
0.0
 11
204.862465545541
 21
152.5237549777921
 31
0.0
  0
LINE
  5
2316
330
2
100
AcDbEntity
  8
0
100
AcDbLine
 10
286.60272746013
 20
146.0803793048207
 30
0.0
 11
286.60272746013
 21
87.08037930478349
 31
0.0
  0
LINE
  5
2317
330
2
100
AcDbEntity
  8
0
100
AcDbLine
 10
278.10272746013
 20
142.503029035611
 30
0.0
 11
278.10272746013
 21
90.65772957399349
 31
0.0
  0
LINE
  5
2318
330
2
100
AcDbEntity
  8
0
100
AcDbLine
 10
282.6027274601354
 20
142.8803793048025
 30
0.0
 11
282.6027274601354
 21
90.28037930480172
 31
0.0
  0
LINE
  5
2319
330
2
100
AcDbEntity
  8
0
100
AcDbLine
 10
280.6027274601354
 20
142.880379304803
 30
0.0
 11
280.6027274602146
 21
90.28037930480172
 31
0.0
  0
LINE
  5
231A
330
2
100
AcDbEntity
  8
0
100
AcDbLine
 10
286.1027274601309
 20
88.08037930480736
 30
0.0
 11
286.10272746013
 21
145.0803793047964
 31
0.0
  0
LINE
  5
231B
330
2
100
AcDbEntity
  8
0
100
AcDbLine
 10
279.1027274601355
 20
143.0803793048028
 30
0.0
 11
279.1027274601355
 21
90.08037930480123
 31
0.0
  0
LINE
  5
231C
330
2
100
AcDbEntity
  8
0
100
AcDbLine
 10
282.8027274601353
 20
90.08037930480169
 30
0.0
 11
282.8027274601353
 21
143.0803793048023
 31
0.0
  0
LINE
  5
231D
330
2
100
AcDbEntity
  8
0
100
AcDbLine
 10
290.1027274601327
 20
76.58037930480213
 30
0.0
 11
290.1027274601327
 21
156.5803793048021
 31
0.0
  0
LINE
  5
231E
330
2
100
AcDbEntity
  8
0
100
AcDbLine
 10
288.6027274601336
 20
87.08037930478349
 30
0.0
 11
283.0027274601333
 21
87.08037930478349
 31
0.0
  0
LINE
  5
231F
330
2
100
AcDbEntity
  8
HIDS
100
AcDbLine
 10
289.5169410225051
 20
80.16616574242949
 30
0.0
 11
287.1885138977585
 21
82.49459286717479
 31
0.0
  0
LINE
  5
2320
330
2
100
AcDbEntity
  8
CENTER
100
AcDbLine
 10
277.6027274601327
 20
82.08037930478349
 30
0.0
 11
302.6654742042791
 21
82.08037930478349
 31
0.0
  0
LINE
  5
2321
330
2
100
AcDbEntity
  8
0
100
AcDbLine
 10
288.6027274601336
 20
77.08037930478349
 30
0.0
 11
283.0027274601333
 21
77.08037930478349
 31
0.0
  0
LINE
  5
2322
330
2
100
AcDbEntity
  8
0
100
AcDbLine
 10
279.1027274601355
 20
90.08037930480123
 30
0.0
 11
280.4027274601347
 21
90.08037930480146
 31
0.0
  0
LINE
  5
2323
330
2
100
AcDbEntity
  8
0
100
AcDbLine
 10
282.6027274601354
 20
90.28037930480172
 30
0.0
 11
282.8027274601353
 21
90.08037930480169
 31
0.0
  0
LINE
  5
2324
330
2
100
AcDbEntity
  8
0
100
AcDbLine
 10
280.8027274601353
 20
90.78037930480126
 30
0.0
 11
282.4027274601347
 21
90.78037930480173
 31
0.0
  0
LINE
  5
2325
330
2
100
AcDbEntity
  8
0
100
AcDbLine
 10
279.1027274601355
 20
90.08037930480123
 30
0.0
 11
278.1027274601354
 21
90.65772957399076
 31
0.0
  0
LINE
  5
2326
330
2
100
AcDbEntity
  8
0
100
AcDbLine
 10
286.1027274601309
 20
88.08037930480736
 30
0.0
 11
286.6027274601354
 21
87.58037930480236
 31
0.0
  0
LINE
  5
2327
330
2
100
AcDbEntity
  8
0
100
AcDbLine
 10
282.8027274601353
 20
90.08037930480169
 30
0.0
 11
286.1027274601354
 21
90.08037930480213
 31
0.0
  0
ARC
  5
2328
330
2
100
AcDbEntity
  8
0
100
AcDbCircle
 10
280.4027274601347
 20
90.28037930480127
 30
0.0
 40
0.2
100
AcDbArc
 50
270.0
 51
0.0000000001042204
  0
ARC
  5
2329
330
2
100
AcDbEntity
  8
0
100
AcDbCircle
 10
280.8027274601362
 20
90.58037930480145
 30
0.0
 40
0.2
100
AcDbArc
 50
90.0
 51
179.9999999998697
  0
ARC
  5
232A
330
2
100
AcDbEntity
  8
0
100
AcDbCircle
 10
282.4027274601347
 20
90.58037930480145
 30
0.0
 40
0.2
100
AcDbArc
 50
0.0
 51
90.0
  0
LINE
  5
232B
330
2
100
AcDbEntity
  8
0
100
AcDbLine
 10
283.0027274601333
 20
87.08037930478349
 30
0.0
 11
282.6027274601336
 21
86.38755898175578
 31
0.0
  0
ARC
  5
232C
330
2
100
AcDbEntity
  8
HIDS
100
AcDbCircle
 10
288.60272746013
 20
83.90880642954858
 30
0.0
 40
2.0
100
AcDbArc
 50
180.0
 51
225.0000000000621
  0
LINE
  5
232D
330
2
100
AcDbEntity
  8
0
100
AcDbLine
 10
283.0027274601333
 20
77.08037930478349
 30
0.0
 11
282.6027274601336
 21
77.7731996278112
 31
0.0
  0
LINE
  5
232E
330
2
100
AcDbEntity
  8
0
100
AcDbLine
 10
280.1027274601318
 20
80.51977548370633
 30
0.0
 11
280.1027274601318
 21
90.08037930480123
 31
0.0
  0
LINE
  5
232F
330
2
100
AcDbEntity
  8
0
100
AcDbLine
 10
282.6027274601336
 20
77.7731996278112
 30
0.0
 11
282.6027274601327
 21
86.38755898175578
 31
0.0
  0
LINE
  5
2330
330
2
100
AcDbEntity
  8
0
100
AcDbLine
 10
283.0027274601333
 20
77.08037930478349
 30
0.0
 11
283.0027274601333
 21
87.08037930478349
 31
0.0
  0
LINE
  5
2331
330
2
100
AcDbEntity
  8
HIDS
100
AcDbLine
 10
286.60272746013
 20
87.08037930478349
 30
0.0
 11
286.60272746013
 21
83.90880642954858
 31
0.0
  0
LINE
  5
2332
330
2
100
AcDbEntity
  8
0
100
AcDbLine
 10
297.60272746013
 20
98.28834413891787
 30
0.0
 11
291.1027274601327
 21
98.28834413891787
 31
0.0
  0
LINE
  5
2333
330
2
100
AcDbEntity
  8
0
100
AcDbLine
 10
288.6027274601327
 20
87.08037930478349
 30
0.0
 11
290.1027274601327
 21
87.08037930478349
 31
0.0
  0
ARC
  5
2334
330
2
100
AcDbEntity
  8
HIDS
100
AcDbCircle
 10
288.1027274601327
 20
78.75195218005592
 30
0.0
 40
2.0
100
AcDbArc
 50
0.0
 51
45.00000000006218
  0
LINE
  5
2335
330
2
100
AcDbEntity
  8
0
100
AcDbLine
 10
297.60272746013
 20
80.58037930478212
 30
0.0
 11
291.1027274601327
 21
80.58037930478212
 31
0.0
  0
LINE
  5
2336
330
2
100
AcDbEntity
  8
0
100
AcDbLine
 10
297.60272746013
 20
83.58037930478189
 30
0.0
 11
291.1027274601327
 21
83.58037930478189
 31
0.0
  0
LINE
  5
2337
330
2
100
AcDbEntity
  8
0
100
AcDbLine
 10
288.6027274601327
 20
77.08037930478349
 30
0.0
 11
290.1027274601327
 21
77.08037930478349
 31
0.0
  0
LINE
  5
2338
330
2
100
AcDbEntity
  8
0
100
AcDbLine
 10
288.6027274601336
 20
77.08037930478349
 30
0.0
 11
288.6027274601336
 21
87.08037930478326
 31
0.0
  0
LINE
  5
2339
330
2
100
AcDbEntity
  8
HIDS
100
AcDbLine
 10
289.5169410225051
 20
152.9945928671745
 30
0.0
 11
287.1885138977576
 21
150.6661657424294
 31
0.0
  0
LINE
  5
233A
330
2
100
AcDbEntity
  8
CENTER
100
AcDbLine
 10
277.6027274601327
 20
151.0803793048207
 30
0.0
 11
302.6654742042791
 21
151.0803793048207
 31
0.0
  0
LINE
  5
233B
330
2
100
AcDbEntity
  8
0
100
AcDbLine
 10
288.6027274601336
 20
146.0803793048207
 30
0.0
 11
283.0027274601333
 21
146.0803793048207
 31
0.0
  0
LINE
  5
233C
330
2
100
AcDbEntity
  8
0
100
AcDbLine
 10
288.6027274601336
 20
156.0803793048207
 30
0.0
 11
283.0027274601333
 21
156.0803793048207
 31
0.0
  0
LINE
  5
233D
330
2
100
AcDbEntity
  8
0
100
AcDbLine
 10
285.0417563840472
 20
157.6406113648336
 30
0.0
 11
321.1027274601318
 21
158.0803793047862
 31
0.0
  0
LINE
  5
233E
330
2
100
AcDbEntity
  8
0
100
AcDbLine
 10
280.1027274601318
 20
143.0803793048025
 30
0.0
 11
280.1027274601318
 21
152.6409831258661
 31
0.0
  0
LINE
  5
233F
330
2
100
AcDbEntity
  8
0
100
AcDbLine
 10
279.1027274601355
 20
143.0803793048028
 30
0.0
 11
278.1027274601354
 21
142.5030290356132
 31
0.0
  0
LINE
  5
2340
330
2
100
AcDbEntity
  8
0
100
AcDbLine
 10
280.8027274601353
 20
142.3803793048027
 30
0.0
 11
282.4027274601347
 21
142.3803793048025
 31
0.0
  0
LINE
  5
2341
330
2
100
AcDbEntity
  8
0
100
AcDbLine
 10
282.6027274601354
 20
142.8803793048025
 30
0.0
 11
282.8027274601353
 21
143.0803793048023
 31
0.0
  0
LINE
  5
2342
330
2
100
AcDbEntity
  8
0
100
AcDbLine
 10
279.1027274601355
 20
143.0803793048028
 30
0.0
 11
280.4027274601347
 21
143.0803793048025
 31
0.0
  0
LINE
  5
2343
330
2
100
AcDbEntity
  8
0
100
AcDbLine
 10
286.1027274601354
 20
145.0803793048019
 30
0.0
 11
286.1027274601354
 21
143.0803793048019
 31
0.0
  0
LINE
  5
2344
330
2
100
AcDbEntity
  8
0
100
AcDbLine
 10
286.1027274601354
 20
145.0803793048019
 30
0.0
 11
286.6027274601354
 21
145.5803793048019
 31
0.0
  0
LINE
  5
2345
330
2
100
AcDbEntity
  8
0
100
AcDbLine
 10
282.8027274601353
 20
143.0803793048023
 30
0.0
 11
286.1027274601354
 21
143.0803793048019
 31
0.0
  0
ARC
  5
2346
330
2
100
AcDbEntity
  8
HIDS
100
AcDbCircle
 10
288.60272746013
 20
149.2519521800556
 30
0.0
 40
2.0
100
AcDbArc
 50
134.9999999999378
 51
180.0
  0
ARC
  5
2347
330
2
100
AcDbEntity
  8
0
100
AcDbCircle
 10
280.4027274601347
 20
142.8803793048025
 30
0.0
 40
0.2
100
AcDbArc
 50
0.0000000001302755
 51
90.0
  0
ARC
  5
2348
330
2
100
AcDbEntity
  8
0
100
AcDbCircle
 10
280.8027274601353
 20
142.5803793048028
 30
0.0
 40
0.2
100
AcDbArc
 50
180.0000000001302
 51
270.0
  0
ARC
  5
2349
330
2
100
AcDbEntity
  8
0
100
AcDbCircle
 10
282.4027274601347
 20
142.5803793048023
 30
0.0
 40
0.2
100
AcDbArc
 50
270.0
 51
0.0
  0
LINE
  5
234A
330
2
100
AcDbEntity
  8
0
100
AcDbLine
 10
282.6027274601336
 20
155.387558981793
 30
0.0
 11
282.6027274601327
 21
146.7731996278484
 31
0.0
  0
LINE
  5
234B
330
2
100
AcDbEntity
  8
0
100
AcDbLine
 10
283.0027274601333
 20
156.0803793048207
 30
0.0
 11
283.0027274601333
 21
146.0803793048207
 31
0.0
  0
LINE
  5
234C
330
2
100
AcDbEntity
  8
0
100
AcDbLine
 10
283.0027274601333
 20
156.0803793048207
 30
0.0
 11
282.6027274601336
 21
155.387558981793
 31
0.0
  0
LINE
  5
234D
330
2
100
AcDbEntity
  8
0
100
AcDbLine
 10
283.0027274601333
 20
146.0803793048207
 30
0.0
 11
282.6027274601336
 21
146.7731996278484
 31
0.0
  0
LINE
  5
234E
330
2
100
AcDbEntity
  8
HIDS
100
AcDbLine
 10
286.60272746013
 20
146.0803793048207
 30
0.0
 11
286.60272746013
 21
149.2519521800556
 31
0.0
  0
LINE
  5
234F
330
2
100
AcDbEntity
  8
0
100
AcDbLine
 10
297.6027274601309
 20
157.5803793048019
 30
0.0
 11
291.1027274601327
 21
157.5803793048019
 31
0.0
  0
ARC
  5
2350
330
2
100
AcDbEntity
  8
0
100
AcDbCircle
 10
291.1027274601327
 20
156.5803793048019
 30
0.0
 40
1.0
100
AcDbArc
 50
90.0
 51
180.0
  0
ARC
  5
2351
330
2
100
AcDbEntity
  8
HIDS
100
AcDbCircle
 10
288.1027274601327
 20
154.4088064295483
 30
0.0
 40
2.0
100
AcDbArc
 50
314.9999999999378
 51
0.0
  0
LINE
  5
2352
330
2
100
AcDbEntity
  8
0
100
AcDbLine
 10
297.60272746013
 20
152.5803793048221
 30
0.0
 11
291.1027274601327
 21
152.5803793048221
 31
0.0
  0
LINE
  5
2353
330
2
100
AcDbEntity
  8
0
100
AcDbLine
 10
297.60272746013
 20
149.5803793048223
 30
0.0
 11
291.1027274601327
 21
149.5803793048223
 31
0.0
  0
LINE
  5
2354
330
2
100
AcDbEntity
  8
0
100
AcDbLine
 10
297.60272746013
 20
134.8724144706864
 30
0.0
 11
291.1027274601327
 21
134.8724144706864
 31
0.0
  0
LINE
  5
2355
330
2
100
AcDbEntity
  8
0
100
AcDbLine
 10
288.6027274601336
 20
156.0803793048207
 30
0.0
 11
288.6027274601336
 21
146.080379304821
 31
0.0
  0
LINE
  5
2356
330
2
100
AcDbEntity
  8
0
100
AcDbLine
 10
288.6027274601327
 20
156.0803793048207
 30
0.0
 11
290.1027274601327
 21
156.0803793048207
 31
0.0
  0
LINE
  5
2357
330
2
100
AcDbEntity
  8
0
100
AcDbLine
 10
288.6027274601327
 20
146.0803793048207
 30
0.0
 11
290.1027274601327
 21
146.0803793048207
 31
0.0
  0
LINE
  5
235F
330
2
100
AcDbEntity
  8
0
100
AcDbLine
 10
382.1027274601318
 20
90.51175685442194
 30
0.0
 11
382.1027274601336
 21
142.6490017551923
 31
0.0
  0
LINE
  5
2362
330
2
100
AcDbEntity
  8
0
100
AcDbLine
 10
369.1027274601336
 20
81.58037930480714
 30
0.0
 11
369.1027274601336
 21
151.5803793048071
 31
0.0
  0
ARC
  5
2363
330
2
100
AcDbEntity
  8
0
100
AcDbCircle
 10
380.1027274601336
 20
90.51175685442194
 30
0.0
 40
2.0
100
AcDbArc
 50
272.0000000000035
 51
0.0
  0
ARC
  5
2368
330
2
100
AcDbEntity
  8
0
100
AcDbCircle
 10
371.1027274601336
 20
86.19503175180126
 30
0.0
 40
2.0
100
AcDbArc
 50
92.00000000000361
 51
180.0
  0
LINE
  5
2369
330
2
100
AcDbEntity
  8
0
100
AcDbLine
 10
371.0329284667285
 20
88.19381340583914
 30
0.0
 11
380.1725264535379
 21
88.51297520038315
 31
0.0
  0
LINE
  5
236A
330
2
100
AcDbEntity
  8
0
100
AcDbLine
 10
364.1027274601337
 20
81.58037930480714
 30
0.0
 11
369.1027274601336
 21
81.58037930480714
 31
0.0
  0
ARC
  5
236B
330
2
100
AcDbEntity
  8
0
100
AcDbCircle
 10
380.1027274601336
 20
142.6490017551923
 30
0.0
 40
2.0
100
AcDbArc
 50
0.0
 51
87.9999999999964
  0
ARC
  5
2370
330
2
100
AcDbEntity
  8
0
100
AcDbCircle
 10
371.1027274601336
 20
146.9657268578148
 30
0.0
 40
2.0
100
AcDbArc
 50
180.0
 51
267.9999999999963
  0
ARC
  5
2371
330
2
100
AcDbEntity
  8
0
100
AcDbCircle
 10
357.1027274601318
 20
152.6409831258642
 30
0.0
 40
5.0
100
AcDbArc
 50
61.52143850501121
 51
89.30130561700023
  0
LINE
  5
2372
330
2
100
AcDbEntity
  8
0
100
AcDbLine
 10
364.1027274601337
 20
151.5803793048071
 30
0.0
 11
369.1027274601336
 21
151.5803793048071
 31
0.0
  0
LINE
  5
2373
330
2
100
AcDbEntity
  8
0
100
AcDbLine
 10
371.0329284667285
 20
144.966945203776
 30
0.0
 11
380.1725264535388
 21
144.6477834092311
 31
0.0
  0
ARC
  5
2378
330
2
100
AcDbEntity
  8
0
100
AcDbCircle
 10
666.9984174507182
 20
77.58037930482174
 30
0.0
 40
2.0
100
AcDbArc
 50
180.0
 51
270.0
  0
ARC
  5
2379
330
2
100
AcDbEntity
  8
0
100
AcDbCircle
 10
666.9984174507182
 20
77.08037930482174
 30
0.0
 40
2.0
100
AcDbArc
 50
180.0
 51
270.0
  0
ARC
  5
237A
330
2
100
AcDbEntity
  8
0
100
AcDbCircle
 10
627.9984174507181
 20
80.58037930482175
 30
0.0
 40
5.0
100
AcDbArc
 50
270.0
 51
0.0
  0
ARC
  5
237B
330
2
100
AcDbEntity
  8
0
100
AcDbCircle
 10
614.5944608909031
 20
36.79958799286186
 30
0.0
 40
40.0
100
AcDbArc
 50
76.63232579737094
 51
96.17699640483843
  0
ARC
  5
237C
330
2
100
AcDbEntity
  8
0
100
AcDbCircle
 10
591.9984174507136
 20
245.580379304824
 30
0.0
 40
170.0
100
AcDbArc
 50
263.823003595109
 51
276.1769964048909
  0
ARC
  5
237D
330
2
100
AcDbEntity
  8
0
100
AcDbCircle
 10
555.9984174507173
 20
80.58037930482175
 30
0.0
 40
5.0
100
AcDbArc
 50
180.0
 51
270.0
  0
ARC
  5
237E
330
2
100
AcDbEntity
  8
0
100
AcDbCircle
 10
569.4023740105241
 20
36.79958799286208
 30
0.0
 40
40.0
100
AcDbArc
 50
83.82300359510905
 51
103.367674202629
  0
LINE
  5
237F
330
2
100
AcDbEntity
  8
CENTER
100
AcDbLine
 10
636.5461446654691
 20
161.1281065195754
 30
0.0
 11
547.4506902359636
 21
72.03265209007049
 31
0.0
  0
LINE
  5
2380
330
2
100
AcDbEntity
  8
CENTER
100
AcDbLine
 10
546.772337984141
 20
161.8064587713974
 30
0.0
 11
637.2244969172917
 21
71.35429983824605
 31
0.0
  0
CIRCLE
  5
2381
330
2
100
AcDbEntity
  8
CENTER
100
AcDbCircle
 10
591.9984174507172
 20
116.5803793048222
 30
0.0
 40
48.99999999999932
  0
LINE
  5
2382
330
2
100
AcDbEntity
  8
CENTER
100
AcDbLine
 10
557.350185172576
 20
88.93214702668098
 30
0.0
 11
557.350185172576
 21
74.93214702668097
 31
0.0
  0
LINE
  5
2383
330
2
100
AcDbEntity
  8
CENTER
100
AcDbLine
 10
626.6466497288584
 20
88.93214702668098
 30
0.0
 11
626.6466497288584
 21
74.93214702668097
 31
0.0
  0
LINE
  5
2385
330
2
100
AcDbEntity
  8
CENTER
100
AcDbLine
 10
591.9984174507232
 20
175.5803793048215
 30
0.0
 11
591.9984174507227
 21
57.58037930482288
 31
0.0
  0
LINE
  5
2387
330
2
100
AcDbEntity
  8
0
100
AcDbLine
 10
555.9984174507136
 20
75.58037930482379
 30
0.0
 11
558.9984174507136
 21
75.58037930482379
 31
0.0
  0
ARC
  5
2388
330
2
100
AcDbEntity
  8
0
100
AcDbCircle
 10
558.9984174507136
 20
80.58037930482447
 30
0.0
 40
5.0
100
AcDbArc
 50
270.0
 51
283.367674202629
  0
ARC
  5
2389
330
2
100
AcDbEntity
  8
0
100
AcDbCircle
 10
624.9984174507136
 20
80.58037930482402
 30
0.0
 40
5.0
100
AcDbArc
 50
256.6323257973709
 51
270.0
  0
LINE
  5
238A
330
2
100
AcDbEntity
  8
0
100
AcDbLine
 10
624.9984174507136
 20
75.58037930482379
 30
0.0
 11
627.9984174507145
 21
75.58037930482379
 31
0.0
  0
LINE
  5
238B
330
2
100
AcDbEntity
  8
0
100
AcDbLine
 10
676.9984174507154
 20
75.58037930482175
 30
0.0
 11
666.9984174507182
 21
75.58037930482175
 31
0.0
  0
LINE
  5
238C
330
2
100
AcDbEntity
  8
0
100
AcDbLine
 10
676.9984174507154
 20
75.08037930482174
 30
0.0
 11
666.9984174507182
 21
75.08037930482174
 31
0.0
  0
LINE
  5
238D
330
2
100
AcDbEntity
  8
CENTER
100
AcDbLine
 10
633.6466497288585
 20
151.2286115829634
 30
0.0
 11
619.6466497288585
 21
151.2286115829634
 31
0.0
  0
ARC
  5
238E
330
2
100
AcDbEntity
  8
0
100
AcDbCircle
 10
614.594460890905
 20
196.3611706167854
 30
0.0
 40
40.0
100
AcDbArc
 50
263.823003595109
 51
283.367674202629
  0
LINE
  5
2390
330
2
100
AcDbEntity
  8
CENTER
100
AcDbLine
 10
633.6466497288585
 20
81.93214702668598
 30
0.0
 11
619.6466497288585
 21
81.93214702668598
 31
0.0
  0
CIRCLE
  5
2391
330
2
100
AcDbEntity
  8
0
100
AcDbCircle
 10
591.9984174507172
 20
116.5803793048217
 30
0.0
 40
35.00000000000011
  0
LINE
  5
2392
330
2
100
AcDbEntity
  8
CENTER
100
AcDbLine
 10
557.350185172576
 20
158.2286115829625
 30
0.0
 11
557.350185172576
 21
144.2286115829625
 31
0.0
  0
ARC
  5
2393
330
2
100
AcDbEntity
  8
0
100
AcDbCircle
 10
555.9984174507173
 20
152.5803793048217
 30
0.0
 40
5.0
100
AcDbArc
 50
90.0
 51
180.0
  0
LINE
  5
2394
330
2
100
AcDbEntity
  8
CENTER
100
AcDbLine
 10
564.3501851725769
 20
151.228611582962
 30
0.0
 11
550.3501851725769
 21
151.228611582962
 31
0.0
  0
ARC
  5
2395
330
2
100
AcDbEntity
  8
0
100
AcDbCircle
 10
512.2176261387522
 20
139.176422745014
 30
0.0
 40
40.0
100
AcDbArc
 50
353.8230035951353
 51
13.36767420262514
  0
ARC
  5
2396
330
2
100
AcDbEntity
  8
0
100
AcDbCircle
 10
512.2176261387522
 20
93.98433586463449
 30
0.0
 40
40.0
100
AcDbArc
 50
346.6323257973748
 51
6.176996404864683
  0
LINE
  5
2397
330
2
100
AcDbEntity
  8
CENTER
100
AcDbLine
 10
564.3501851725769
 20
81.93214702668257
 30
0.0
 11
550.3501851725769
 21
81.93214702668257
 31
0.0
  0
ARC
  5
2398
330
2
100
AcDbEntity
  8
0
100
AcDbCircle
 10
720.9984174507146
 20
116.5803793048237
 30
0.0
 40
170.0
100
AcDbArc
 50
173.8230035951353
 51
186.1769964048647
  0
LINE
  5
2399
330
2
100
AcDbEntity
  8
0
100
AcDbLine
 10
550.9984174507136
 20
83.5803793048238
 30
0.0
 11
550.9984174507136
 21
80.58037930482379
 31
0.0
  0
ARC
  5
239A
330
2
100
AcDbEntity
  8
0
100
AcDbCircle
 10
555.9984174507145
 20
83.5803793048238
 30
0.0
 40
5.0
100
AcDbArc
 50
166.6323257973748
 51
180.0
  0
LINE
  5
239B
330
2
100
AcDbEntity
  8
0
100
AcDbLine
 10
550.9984174507136
 20
152.5803793048235
 30
0.0
 11
550.9984174507136
 21
149.5803793048238
 31
0.0
  0
ARC
  5
239C
330
2
100
AcDbEntity
  8
0
100
AcDbCircle
 10
555.9984174507145
 20
149.5803793048238
 30
0.0
 40
5.0
100
AcDbArc
 50
180.0
 51
193.3676742026251
  0
CIRCLE
  5
23A1
330
2
100
AcDbEntity
  8
0
100
AcDbCircle
 10
591.9984174507172
 20
116.5803793048217
 30
0.0
 40
23.0
  0
CIRCLE
  5
23A2
330
2
100
AcDbEntity
  8
0
100
AcDbCircle
 10
591.9984174507172
 20
116.5803793048217
 30
0.0
 40
27.99999999999875
  0
CIRCLE
  5
23A3
330
2
100
AcDbEntity
  8
HOJO
100
AcDbCircle
 10
557.350185172577
 20
81.93214702668099
 30
0.0
 40
3.0
  0
CIRCLE
  5
23A4
330
2
100
AcDbEntity
  8
0
100
AcDbCircle
 10
557.350185172577
 20
81.93214702668099
 30
0.0
 40
2.399999999999999
  0
LINE
  5
23A5
330
2
100
AcDbEntity
  8
0
100
AcDbLine
 10
590.8784339092736
 20
84.05225292721599
 30
0.0
 11
591.2109333661911
 21
84.05225292721599
 31
0.0
  0
LINE
  5
23A6
330
2
100
AcDbEntity
  8
0
100
AcDbLine
 10
591.2109333661911
 20
84.71725184105144
 30
0.0
 11
591.2109333661911
 21
84.05225292721599
 31
0.0
  0
LINE
  5
23A7
330
2
100
AcDbEntity
  8
0
100
AcDbLine
 10
591.2109333661911
 20
84.71725184105144
 30
0.0
 11
590.8784339092736
 21
84.05225292721599
 31
0.0
  0
LINE
  5
23A8
330
2
100
AcDbEntity
  8
0
100
AcDbLine
 10
592.2609015336876
 20
84.71725292721368
 30
0.0
 11
593.3765583661835
 21
84.71725292721368
 31
0.0
  0
LINE
  5
23A9
330
2
100
AcDbEntity
  8
0
100
AcDbLine
 10
592.409683366187
 20
84.56850292721407
 30
0.0
 11
593.3765583661835
 21
84.56850292721407
 31
0.0
  0
ARC
  5
23AA
330
2
100
AcDbEntity
  8
0
100
AcDbCircle
 10
593.3765583661835
 20
84.64287792721377
 30
0.0
 40
0.0743749999997391
100
AcDbArc
 50
270.0
 51
90.0
  0
LINE
  5
23AB
330
2
100
AcDbEntity
  8
0
100
AcDbLine
 10
590.5459333661939
 20
85.90725292720941
 30
0.0
 11
593.4509015336836
 21
85.90725292720941
 31
0.0
  0
LINE
  5
23AC
330
2
100
AcDbEntity
  8
0
100
AcDbLine
 10
588.7959333662003
 20
82.40725292722169
 30
0.0
 11
590.0559339092762
 21
82.40725292722169
 31
0.0
  0
LINE
  5
23AD
330
2
100
AcDbEntity
  8
0
100
AcDbLine
 10
594.1756401372814
 20
83.77340232651164
 30
0.0
 11
595.0449827722133
 21
82.40725292722169
 31
0.0
  0
LINE
  5
23AE
330
2
100
AcDbEntity
  8
0
100
AcDbLine
 10
593.7849822291374
 20
82.40725292722169
 30
0.0
 11
595.0449827722133
 21
82.40725292722169
 31
0.0
  0
LINE
  5
23AF
330
2
100
AcDbEntity
  8
0
100
AcDbLine
 10
591.2109333661911
 20
82.40725292722169
 30
0.0
 11
592.2609015336876
 21
82.40725292722169
 31
0.0
  0
LINE
  5
23B0
330
2
100
AcDbEntity
  8
0
100
AcDbLine
 10
590.318433909275
 20
82.93225292721997
 30
0.0
 11
590.0559339092762
 21
82.40725292722169
 31
0.0
  0
LINE
  5
23B1
330
2
100
AcDbEntity
  8
0
100
AcDbLine
 10
590.318433909275
 20
82.93225292721997
 30
0.0
 11
591.2109333661911
 21
82.93225292721997
 31
0.0
  0
LINE
  5
23B2
330
2
100
AcDbEntity
  8
0
100
AcDbLine
 10
591.2109333661911
 20
82.93225292721997
 30
0.0
 11
591.2109333661911
 21
82.40725292722169
 31
0.0
  0
LINE
  5
23B3
330
2
100
AcDbEntity
  8
0
100
AcDbLine
 10
590.5459333661939
 20
85.90725292720941
 30
0.0
 11
588.7959333662003
 21
82.40725292722169
 31
0.0
  0
ARC
  5
23B4
330
2
100
AcDbEntity
  8
0
100
AcDbCircle
 10
593.4509015336836
 20
84.71725292721368
 30
0.0
 40
1.189999999995825
100
AcDbArc
 50
307.5189678668038
 51
90.0
  0
LINE
  5
23B5
330
2
100
AcDbEntity
  8
0
100
AcDbLine
 10
592.409683366187
 20
84.56850292721407
 30
0.0
 11
593.7849822291374
 21
82.40725292722169
 31
0.0
  0
LINE
  5
23B6
330
2
100
AcDbEntity
  8
0
100
AcDbLine
 10
592.2609015336876
 20
84.71725292721368
 30
0.0
 11
592.2609015336876
 21
82.40725292722169
 31
0.0
  0
ARC
  5
23B7
330
2
100
AcDbEntity
  8
0
100
AcDbCircle
 10
591.9984174507136
 20
-12.41962069517654
 30
0.0
 40
170.0
100
AcDbArc
 50
83.82300359510905
 51
96.17699640483843
  0
CIRCLE
  5
23B8
330
2
100
AcDbEntity
  8
0
100
AcDbCircle
 10
557.350185172577
 20
151.2286115829625
 30
0.0
 40
2.399999999999999
  0
CIRCLE
  5
23B9
330
2
100
AcDbEntity
  8
HOJO
100
AcDbCircle
 10
557.350185172577
 20
151.2286115829625
 30
0.0
 40
3.0
  0
ARC
  5
23BA
330
2
100
AcDbEntity
  8
0
100
AcDbCircle
 10
558.9984174507136
 20
152.5803793048235
 30
0.0
 40
5.0
100
AcDbArc
 50
76.63232579737094
 51
90.0
  0
LINE
  5
23BB
330
2
100
AcDbEntity
  8
0
100
AcDbLine
 10
555.9984174507136
 20
157.5803793048235
 30
0.0
 11
558.9984174507136
 21
157.5803793048235
 31
0.0
  0
ARC
  5
23BC
330
2
100
AcDbEntity
  8
0
100
AcDbCircle
 10
569.4023740105241
 20
196.3611706167858
 30
0.0
 40
40.0
100
AcDbArc
 50
256.6323257973709
 51
276.1769964048909
  0
ARC
  5
23BD
330
2
100
AcDbEntity
  8
0
100
AcDbCircle
 10
666.9984174507154
 20
156.0803793048217
 30
0.0
 40
2.0
100
AcDbArc
 50
90.0
 51
180.0
  0
LINE
  5
23BE
330
2
100
AcDbEntity
  8
CENTER
100
AcDbLine
 10
626.6466497288567
 20
158.2286115829625
 30
0.0
 11
626.6466497288567
 21
144.2286115829625
 31
0.0
  0
ARC
  5
23BF
330
2
100
AcDbEntity
  8
0
100
AcDbCircle
 10
627.9984174507172
 20
152.5803793048217
 30
0.0
 40
5.0
100
AcDbArc
 50
0.0
 51
90.0
  0
LINE
  5
23C0
330
2
100
AcDbEntity
  8
0
100
AcDbLine
 10
652.4984174507254
 20
147.5803793047058
 30
0.0
 11
652.4984174507245
 21
85.58037930493998
 31
0.0
  0
LINE
  5
23C1
330
2
100
AcDbEntity
  8
0
100
AcDbLine
 10
632.9984174507172
 20
152.5803793048217
 30
0.0
 11
632.9984174507172
 21
80.58037930482175
 31
0.0
  0
LINE
  5
23C2
330
2
100
AcDbEntity
  8
0
100
AcDbLine
 10
664.9984174507154
 20
156.0803793048217
 30
0.0
 11
664.9984174507181
 21
77.08037930482174
 31
0.0
  0
LINE
  5
23C3
330
2
100
AcDbEntity
  8
0
100
AcDbLine
 10
659.9984174507154
 20
83.58037930493884
 30
0.0
 11
654.4984174507209
 21
83.58037930493884
 31
0.0
  0
ARC
  5
23C4
330
2
100
AcDbEntity
  8
0
100
AcDbCircle
 10
647.4984174507254
 20
85.58037930493998
 30
0.0
 40
5.0
100
AcDbArc
 50
0.0
 51
90.0
  0
ARC
  5
23C5
330
2
100
AcDbEntity
  8
0
100
AcDbCircle
 10
649.4984174507245
 20
111.0803793048221
 30
0.0
 40
3.0
100
AcDbArc
 50
0.0
 51
90.0
  0
ARC
  5
23C6
330
2
100
AcDbEntity
  8
0
100
AcDbCircle
 10
651.4984174507163
 20
81.58037930482038
 30
0.0
 40
3.0
100
AcDbArc
 50
53.13010235412992
 51
90.0
  0
ARC
  5
23C7
330
2
100
AcDbEntity
  8
0
100
AcDbCircle
 10
637.9984174507172
 20
85.58037930493998
 30
0.0
 40
5.0
100
AcDbArc
 50
90.0
 51
180.0
  0
ARC
  5
23C8
330
2
100
AcDbEntity
  8
0
100
AcDbCircle
 10
635.9984174507173
 20
111.0803793048226
 30
0.0
 40
3.0
100
AcDbArc
 50
90.0
 51
180.0
  0
LINE
  5
23C9
330
2
100
AcDbEntity
  8
0
100
AcDbLine
 10
647.4984174507254
 20
90.58037930493998
 30
0.0
 11
637.9984174507172
 21
90.58037930493998
 31
0.0
  0
LINE
  5
23CA
330
2
100
AcDbEntity
  8
0
100
AcDbLine
 10
635.9984174507173
 20
114.0803793048226
 30
0.0
 11
649.4984174507245
 21
114.0803793048221
 31
0.0
  0
LINE
  5
23CB
330
2
100
AcDbEntity
  8
0
100
AcDbLine
 10
635.9984174507173
 20
84.58037930482039
 30
0.0
 11
651.4984174507163
 21
84.58037930482039
 31
0.0
  0
CIRCLE
  5
23CC
330
2
100
AcDbEntity
  8
HOJO
100
AcDbCircle
 10
626.6466497288584
 20
81.93214702668099
 30
0.0
 40
3.0
  0
CIRCLE
  5
23CD
330
2
100
AcDbEntity
  8
0
100
AcDbCircle
 10
626.6466497288584
 20
81.93214702668099
 30
0.0
 40
2.399999999999999
  0
ARC
  5
23CE
330
2
100
AcDbEntity
  8
0
100
AcDbCircle
 10
654.4984174507209
 20
85.58037930493998
 30
0.0
 40
2.0
100
AcDbArc
 50
180.0
 51
270.0
  0
ARC
  5
23CF
330
2
100
AcDbEntity
  8
0
100
AcDbCircle
 10
635.9984174507173
 20
81.58037930482038
 30
0.0
 40
3.0
100
AcDbArc
 50
90.0
 51
180.0
  0
ARC
  5
23D0
330
2
100
AcDbEntity
  8
0
100
AcDbCircle
 10
659.9984174507154
 20
78.58037930493884
 30
0.0
 40
5.0
100
AcDbArc
 50
0.0
 51
90.0
  0
LINE
  5
23D1
330
2
100
AcDbEntity
  8
0
100
AcDbLine
 10
659.9984174507154
 20
149.5803793047044
 30
0.0
 11
654.4984174507209
 21
149.5803793047046
 31
0.0
  0
ARC
  5
23D2
330
2
100
AcDbEntity
  8
0
100
AcDbCircle
 10
654.4984174507209
 20
147.5803793047055
 30
0.0
 40
2.0
100
AcDbArc
 50
90.0
 51
180.0
  0
ARC
  5
23D3
330
2
100
AcDbEntity
  8
0
100
AcDbCircle
 10
647.4984174507272
 20
147.5803793047048
 30
0.0
 40
5.0
100
AcDbArc
 50
270.0
 51
0.0
  0
ARC
  5
23D4
330
2
100
AcDbEntity
  8
0
100
AcDbCircle
 10
651.4984174507163
 20
151.5803793048303
 30
0.0
 40
3.0
100
AcDbArc
 50
270.0
 51
306.86989764587
  0
ARC
  5
23D5
330
2
100
AcDbEntity
  8
0
100
AcDbCircle
 10
649.4984174507254
 20
122.0803793048222
 30
0.0
 40
3.0
100
AcDbArc
 50
270.0
 51
0.0
  0
CIRCLE
  5
23D6
330
2
100
AcDbEntity
  8
HOJO
100
AcDbCircle
 10
626.6466497288584
 20
151.2286115829625
 30
0.0
 40
3.0
  0
CIRCLE
  5
23D7
330
2
100
AcDbEntity
  8
0
100
AcDbCircle
 10
626.6466497288584
 20
151.2286115829625
 30
0.0
 40
2.399999999999999
  0
ARC
  5
23D8
330
2
100
AcDbEntity
  8
0
100
AcDbCircle
 10
624.9984174507136
 20
152.5803793048231
 30
0.0
 40
5.0
100
AcDbArc
 50
90.0
 51
103.367674202629
  0
LINE
  5
23D9
330
2
100
AcDbEntity
  8
0
100
AcDbLine
 10
624.9984174507136
 20
157.5803793048235
 30
0.0
 11
627.9984174507136
 21
157.5803793048235
 31
0.0
  0
ARC
  5
23DA
330
2
100
AcDbEntity
  8
0
100
AcDbCircle
 10
637.9984174507172
 20
147.5803793047055
 30
0.0
 40
5.0
100
AcDbArc
 50
180.0
 51
270.0
  0
ARC
  5
23DB
330
2
100
AcDbEntity
  8
0
100
AcDbCircle
 10
635.9984174507173
 20
151.5803793048303
 30
0.0
 40
3.0
100
AcDbArc
 50
180.0
 51
270.0
  0
ARC
  5
23DC
330
2
100
AcDbEntity
  8
0
100
AcDbCircle
 10
635.9984174507173
 20
122.0803793048222
 30
0.0
 40
3.0
100
AcDbArc
 50
180.0
 51
270.0
  0
LINE
  5
23DD
330
2
100
AcDbEntity
  8
0
100
AcDbLine
 10
647.4984174507272
 20
142.5803793047048
 30
0.0
 11
637.9984174507172
 21
142.5803793047055
 31
0.0
  0
LINE
  5
23DE
330
2
100
AcDbEntity
  8
0
100
AcDbLine
 10
635.9984174507173
 20
119.0803793048222
 30
0.0
 11
649.4984174507254
 21
119.0803793048222
 31
0.0
  0
LINE
  5
23DF
330
2
100
AcDbEntity
  8
0
100
AcDbLine
 10
635.9984174507173
 20
148.5803793048301
 30
0.0
 11
651.4984174507163
 21
148.5803793048301
 31
0.0
  0
ARC
  5
23E0
330
2
100
AcDbEntity
  8
0
100
AcDbCircle
 10
659.9984174507154
 20
154.5803793047044
 30
0.0
 40
5.0
100
AcDbArc
 50
270.0
 51
0.0
  0
LINE
  5
23E1
330
2
100
AcDbEntity
  8
0
100
AcDbLine
 10
666.9984174507154
 20
157.5803793048217
 30
0.0
 11
676.9984174507154
 21
157.5803793048217
 31
0.0
  0
ARC
  5
23E2
330
2
100
AcDbEntity
  8
0
100
AcDbCircle
 10
666.9984174507154
 20
155.5803793048217
 30
0.0
 40
2.0
100
AcDbArc
 50
90.0
 51
180.0
  0
LINE
  5
23E3
330
2
100
AcDbEntity
  8
0
100
AcDbLine
 10
666.9984174507154
 20
158.0803793048217
 30
0.0
 11
676.9984174507154
 21
158.0803793048217
 31
0.0
  0
LINE
  5
2426
330
2
100
AcDbEntity
  8
0
100
AcDbLine
 10
565.9297950003145
 20
350.4776468309525
 30
0.0
 11
618.067039901085
 21
350.4776468309502
 31
0.0
  0
LINE
  5
242B
330
2
100
AcDbEntity
  8
0
100
AcDbLine
 10
563.6118515517317
 20
361.5474458243553
 30
0.0
 11
563.9310133462758
 21
352.4078478375457
 31
0.0
  0
ARC
  5
242C
330
2
100
AcDbEntity
  8
0
100
AcDbCircle
 10
565.9297950003145
 20
352.4776468309504
 30
0.0
 40
2.0
100
AcDbArc
 50
182.0000000000037
 51
270.0
  0
LINE
  5
242D
330
2
100
AcDbEntity
  8
0
100
AcDbLine
 10
620.3849833496686
 20
361.5474458243553
 30
0.0
 11
620.0658215551237
 21
352.4078478375453
 31
0.0
  0
ARC
  5
2432
330
2
100
AcDbEntity
  8
0
100
AcDbCircle
 10
618.067039901085
 20
352.4776468309502
 30
0.0
 40
2.0
100
AcDbArc
 50
270.0
 51
357.9999999999962
  0
LINE
  5
2433
330
2
100
AcDbEntity
  8
CENTER
100
AcDbLine
 10
591.9984174507002
 20
464.4776468282848
 30
0.0
 11
591.9984174507006
 21
308.4776468309418
 31
0.0
  0
LINE
  5
2434
330
2
100
AcDbEntity
  8
0
100
AcDbLine
 10
550.9984174506997
 20
434.9776468282836
 30
0.0
 11
632.5833360576397
 21
434.9776468282861
 31
0.0
  0
LINE
  5
2435
330
2
100
AcDbEntity
  8
0
100
AcDbLine
 10
621.4984174507179
 20
445.9776468282848
 30
0.0
 11
562.4984174506815
 21
445.9776468282848
 31
0.0
  0
LINE
  5
2436
330
2
100
AcDbEntity
  8
0
100
AcDbLine
 10
552.0551801697264
 20
442.4776468282825
 30
0.0
 11
631.5316547316751
 21
442.4776468282828
 31
0.0
  0
ARC
  5
2437
330
2
100
AcDbEntity
  8
0
100
AcDbCircle
 10
622.3837650037075
 20
361.4776468309502
 30
0.0
 40
2.0
100
AcDbArc
 50
90.0
 51
177.9999999999962
  0
LINE
  5
2438
330
2
100
AcDbEntity
  8
0
100
AcDbLine
 10
556.9984174506998
 20
363.4776468309511
 30
0.0
 11
626.9984174506998
 21
363.4776468309511
 31
0.0
  0
LINE
  5
2439
330
2
100
AcDbEntity
  8
0
100
AcDbLine
 10
551.5787541587623
 20
368.4776468309504
 30
0.0
 11
632.4131621356963
 21
368.4776468309491
 31
0.0
  0
LINE
  5
243B
330
2
100
AcDbEntity
  8
0
100
AcDbLine
 10
550.9984174506997
 20
434.9776468282836
 30
0.0
 11
551.5787541587623
 21
368.4776468309504
 31
0.0
  0
LINE
  5
243C
330
2
100
AcDbEntity
  8
0
100
AcDbLine
 10
573.7063822847593
 20
434.4776468309503
 30
0.0
 11
573.7063822847593
 21
369.9776277924823
 31
0.0
  0
LINE
  5
243D
330
2
100
AcDbEntity
  8
0
100
AcDbLine
 10
558.9984174507007
 20
434.4776468309503
 30
0.0
 11
558.9984174507007
 21
369.9776277924823
 31
0.0
  0
LINE
  5
243E
330
2
100
AcDbEntity
  8
0
100
AcDbLine
 10
555.9984174506988
 20
434.4776468309503
 30
0.0
 11
555.9984174506988
 21
369.9776277924823
 31
0.0
  0
LINE
  5
243F
330
2
100
AcDbEntity
  8
0
100
AcDbLine
 10
610.2904526166402
 20
434.4776468309503
 30
0.0
 11
610.2904526166402
 21
369.9776277924823
 31
0.0
  0
ARC
  5
2440
330
2
100
AcDbEntity
  8
0
100
AcDbCircle
 10
561.6130698976938
 20
361.4776468309502
 30
0.0
 40
2.0
100
AcDbArc
 50
2.000000000003725
 51
90.0
  0
LINE
  5
2441
330
2
100
AcDbEntity
  8
0
100
AcDbLine
 10
556.9984174506998
 20
368.4776468309504
 30
0.0
 11
556.9984174506998
 21
363.4776468309504
 31
0.0
  0
ARC
  5
2442
330
2
100
AcDbEntity
  8
0
100
AcDbCircle
 10
552.0551801697264
 20
441.4776468282825
 30
0.0
 40
1.0
100
AcDbArc
 50
90.0
 51
179.5000000000084
  0
LINE
  5
2443
330
2
100
AcDbEntity
  8
0
100
AcDbLine
 10
550.9984174506997
 20
434.9776468282848
 30
0.0
 11
551.0552182466616
 21
441.486373363781
 31
0.0
  0
LINE
  5
2444
330
2
100
AcDbEntity
  8
0
100
AcDbLine
 10
617.9210671815079
 20
454.4776468282848
 30
0.0
 11
566.0757677198915
 21
454.4776468282848
 31
0.0
  0
LINE
  5
2445
330
2
100
AcDbEntity
  8
0
100
AcDbLine
 10
618.2984174507009
 20
449.9776468282802
 30
0.0
 11
565.6984174506987
 21
449.9776468282802
 31
0.0
  0
LINE
  5
2446
330
2
100
AcDbEntity
  8
0
100
AcDbLine
 10
618.2984174507009
 20
451.9776468282802
 30
0.0
 11
565.6984174506987
 21
451.9776468282007
 31
0.0
  0
LINE
  5
2447
330
2
100
AcDbEntity
  8
0
100
AcDbLine
 10
563.4984174507052
 20
446.4776468282844
 30
0.0
 11
620.4984174506943
 21
446.4776468282848
 31
0.0
  0
LINE
  5
2448
330
2
100
AcDbEntity
  8
0
100
AcDbLine
 10
618.4984174506998
 20
453.4776468282802
 30
0.0
 11
565.4984174506989
 21
453.4776468282798
 31
0.0
  0
LINE
  5
2449
330
2
100
AcDbEntity
  8
0
100
AcDbLine
 10
565.4984174506997
 20
449.77764682828
 30
0.0
 11
618.4984174506998
 21
449.77764682828
 31
0.0
  0
LINE
  5
244A
330
2
100
AcDbEntity
  8
0
100
AcDbLine
 10
573.7063822848148
 20
434.9776468282848
 30
0.0
 11
573.7063822848148
 21
442.4776468282825
 31
0.0
  0
LINE
  5
244B
330
2
100
AcDbEntity
  8
0
100
AcDbLine
 10
565.4984174506989
 20
453.4776468282802
 30
0.0
 11
565.4984174506997
 21
452.1776468282805
 31
0.0
  0
LINE
  5
244C
330
2
100
AcDbEntity
  8
0
100
AcDbLine
 10
565.6984174506987
 20
449.9776468282802
 30
0.0
 11
565.4984174506997
 21
449.77764682828
 31
0.0
  0
LINE
  5
244D
330
2
100
AcDbEntity
  8
0
100
AcDbLine
 10
566.1984174506986
 20
451.77764682828
 30
0.0
 11
566.1984174506986
 21
450.1776468282801
 31
0.0
  0
LINE
  5
244E
330
2
100
AcDbEntity
  8
0
100
AcDbLine
 10
565.4984174506989
 20
453.4776468282798
 30
0.0
 11
566.0757677198879
 21
454.4776468282803
 31
0.0
  0
LINE
  5
244F
330
2
100
AcDbEntity
  8
0
100
AcDbLine
 10
563.4984174507052
 20
446.4776468282844
 30
0.0
 11
562.9984174506997
 21
445.9776468282793
 31
0.0
  0
LINE
  5
2450
330
2
100
AcDbEntity
  8
0
100
AcDbLine
 10
565.4984174506997
 20
449.77764682828
 30
0.0
 11
565.4984174506997
 21
446.4776468282798
 31
0.0
  0
LINE
  5
2451
330
2
100
AcDbEntity
  8
HIDS
100
AcDbLine
 10
555.5842038883264
 20
443.0634332659101
 30
0.0
 11
557.9126310130731
 21
445.3918603906572
 31
0.0
  0
ARC
  5
2452
330
2
100
AcDbEntity
  8
HIDS
100
AcDbCircle
 10
554.1699903259531
 20
444.4776468282825
 30
0.0
 40
2.0
100
AcDbArc
 50
270.0
 51
315.0000000000114
  0
ARC
  5
2453
330
2
100
AcDbEntity
  8
HIDS
100
AcDbCircle
 10
559.3268445754464
 20
443.9776468282848
 30
0.0
 40
2.0
100
AcDbArc
 50
90.0
 51
135.0000000000115
  0
ARC
  5
2454
330
2
100
AcDbEntity
  8
0
100
AcDbCircle
 10
565.6984174506987
 20
452.17764682828
 30
0.0
 40
0.2
100
AcDbArc
 50
180.0
 51
270.0000000001042
  0
ARC
  5
2455
330
2
100
AcDbEntity
  8
0
100
AcDbCircle
 10
565.9984174506997
 20
451.7776468282796
 30
0.0
 40
0.2
100
AcDbArc
 50
0.0
 51
89.99999999984366
  0
ARC
  5
2456
330
2
100
AcDbEntity
  8
0
100
AcDbCircle
 10
565.9984174506997
 20
450.1776468282801
 30
0.0
 40
0.2
100
AcDbArc
 50
270.0
 51
0.0
  0
LINE
  5
2457
330
2
100
AcDbEntity
  8
0
100
AcDbLine
 10
562.4984174506815
 20
443.9776468282821
 30
0.0
 11
562.4984174506815
 21
449.5776468282819
 31
0.0
  0
LINE
  5
2458
330
2
100
AcDbEntity
  8
0
100
AcDbLine
 10
552.4984174506816
 20
443.9776468282821
 30
0.0
 11
552.4984174506816
 21
449.5776468282819
 31
0.0
  0
LINE
  5
2459
330
2
100
AcDbEntity
  8
0
100
AcDbLine
 10
552.4984174506816
 20
443.9776468282821
 30
0.0
 11
562.4984174506815
 21
443.9776468282821
 31
0.0
  0
LINE
  5
245A
330
2
100
AcDbEntity
  8
0
100
AcDbLine
 10
553.1912377737088
 20
449.9776468282821
 30
0.0
 11
561.8055971276533
 21
449.9776468282825
 31
0.0
  0
LINE
  5
245B
330
2
100
AcDbEntity
  8
0
100
AcDbLine
 10
552.4984174506816
 20
449.5776468282825
 30
0.0
 11
562.4984174506815
 21
449.5776468282819
 31
0.0
  0
LINE
  5
245C
330
2
100
AcDbEntity
  8
0
100
AcDbLine
 10
552.4984174506816
 20
449.5776468282819
 30
0.0
 11
553.1912377737088
 21
449.9776468282821
 31
0.0
  0
LINE
  5
245D
330
2
100
AcDbEntity
  8
0
100
AcDbLine
 10
562.4984174506815
 20
449.5776468282819
 30
0.0
 11
561.8055971276533
 21
449.9776468282821
 31
0.0
  0
LINE
  5
245E
330
2
100
AcDbEntity
  8
0
100
AcDbLine
 10
552.4984174506816
 20
443.9776468282826
 30
0.0
 11
552.4984174506816
 21
442.4776468282825
 31
0.0
  0
LINE
  5
245F
330
2
100
AcDbEntity
  8
0
100
AcDbLine
 10
562.4984174506815
 20
443.9776468282826
 30
0.0
 11
562.4984174506815
 21
442.4776468282825
 31
0.0
  0
LINE
  5
2460
330
2
100
AcDbEntity
  8
HIDS
100
AcDbLine
 10
562.4984174506815
 20
445.9776468282848
 30
0.0
 11
559.3268445754464
 21
445.9776468282848
 31
0.0
  0
LINE
  5
2461
330
2
100
AcDbEntity
  8
0
100
AcDbLine
 10
555.9984174506797
 20
434.9776468282848
 30
0.0
 11
555.9984174506797
 21
442.4776468282825
 31
0.0
  0
LINE
  5
2462
330
2
100
AcDbEntity
  8
0
100
AcDbLine
 10
558.9984174506797
 20
434.9776468282848
 30
0.0
 11
558.9984174506797
 21
442.4776468282825
 31
0.0
  0
LINE
  5
2463
330
2
100
AcDbEntity
  8
CENTER
100
AcDbLine
 10
557.4984174506815
 20
454.9776468282825
 30
0.0
 11
557.4984174506815
 21
429.9149000841362
 31
0.0
  0
LINE
  5
2464
330
2
100
AcDbEntity
  8
0
100
AcDbLine
 10
618.4984174506998
 20
453.4776468282798
 30
0.0
 11
617.9210671815115
 21
454.4776468282803
 31
0.0
  0
LINE
  5
2465
330
2
100
AcDbEntity
  8
0
100
AcDbLine
 10
617.7984174507009
 20
451.77764682828
 30
0.0
 11
617.7984174507009
 21
450.1776468282801
 31
0.0
  0
LINE
  5
2466
330
2
100
AcDbEntity
  8
0
100
AcDbLine
 10
618.2984174507009
 20
449.9776468282802
 30
0.0
 11
618.4984174506998
 21
449.77764682828
 31
0.0
  0
LINE
  5
2467
330
2
100
AcDbEntity
  8
0
100
AcDbLine
 10
618.4984174506998
 20
453.4776468282802
 30
0.0
 11
618.4984174506998
 21
452.1776468282805
 31
0.0
  0
LINE
  5
2468
330
2
100
AcDbEntity
  8
0
100
AcDbLine
 10
620.4984174506997
 20
446.4776468282798
 30
0.0
 11
618.4984174506998
 21
446.4776468282798
 31
0.0
  0
LINE
  5
2469
330
2
100
AcDbEntity
  8
0
100
AcDbLine
 10
618.4984174506998
 20
449.77764682828
 30
0.0
 11
618.4984174506998
 21
446.4776468282798
 31
0.0
  0
ARC
  5
246A
330
2
100
AcDbEntity
  8
0
100
AcDbCircle
 10
618.2984174507009
 20
452.1776468282805
 30
0.0
 40
0.2
100
AcDbArc
 50
270.0000000001042
 51
359.9999999999739
  0
ARC
  5
246B
330
2
100
AcDbEntity
  8
0
100
AcDbCircle
 10
617.9984174506998
 20
451.77764682828
 30
0.0
 40
0.2
100
AcDbArc
 50
90.00000000010421
 51
179.9999999999739
  0
ARC
  5
246C
330
2
100
AcDbEntity
  8
0
100
AcDbCircle
 10
617.9984174506998
 20
450.1776468282801
 30
0.0
 40
0.2
100
AcDbArc
 50
179.9999999999739
 51
270.0
  0
LINE
  5
246D
330
2
100
AcDbEntity
  8
0
100
AcDbLine
 10
620.4984174506997
 20
446.4776468282798
 30
0.0
 11
620.9984174506997
 21
445.9776468282793
 31
0.0
  0
LINE
  5
246E
330
2
100
AcDbEntity
  8
0
100
AcDbLine
 10
610.2904526165847
 20
434.9776468282848
 30
0.0
 11
610.2904526165847
 21
442.4776468282825
 31
0.0
  0
ARC
  5
246F
330
2
100
AcDbEntity
  8
0
100
AcDbCircle
 10
659.9181457235389
 20
373.4776468309504
 30
0.0
 40
5.0
100
AcDbArc
 50
1.499999999989629
 51
90.0
  0
LINE
  5
2471
330
2
100
AcDbEntity
  8
0
100
AcDbLine
 10
664.9474165425917
 20
372.425292934335
 30
0.0
 11
663.9247946663962
 21
411.4776468309504
 31
0.0
  0
ARC
  5
2472
330
2
100
AcDbEntity
  8
0
100
AcDbCircle
 10
635.4830913131799
 20
376.4776468309504
 30
0.0
 40
3.0
100
AcDbArc
 50
90.0
 51
179.5000000000084
  0
LINE
  5
2473
330
2
100
AcDbEntity
  8
0
100
AcDbLine
 10
632.4131621356963
 20
368.4776468309491
 30
0.0
 11
632.7884174506997
 21
411.4776468309504
 31
0.0
  0
LINE
  5
2474
330
2
100
AcDbEntity
  8
0
100
AcDbLine
 10
624.9984174506988
 20
411.4776468309504
 30
0.0
 11
624.9984174506988
 21
369.9776277924823
 31
0.0
  0
LINE
  5
2475
330
2
100
AcDbEntity
  8
0
100
AcDbLine
 10
627.7889727898736
 20
434.9776468309503
 30
0.0
 11
627.7889727898736
 21
369.9776277924823
 31
0.0
  0
LINE
  5
2476
330
2
100
AcDbEntity
  8
0
100
AcDbLine
 10
626.9984174506998
 20
368.4776468309504
 30
0.0
 11
626.9984174506998
 21
363.4776468309504
 31
0.0
  0
LINE
  5
2477
330
2
100
AcDbEntity
  8
0
100
AcDbLine
 10
666.9467311925417
 20
370.4776468309504
 30
0.0
 11
676.9984174463306
 21
370.4776468309504
 31
0.0
  0
ARC
  5
2478
330
2
100
AcDbEntity
  8
0
100
AcDbCircle
 10
666.9467311925417
 20
372.4776468309504
 30
0.0
 40
2.0
100
AcDbArc
 50
181.4999999999896
 51
270.0
  0
LINE
  5
2479
330
2
100
AcDbEntity
  8
0
100
AcDbLine
 10
664.9474165425917
 20
450.5300007275657
 30
0.0
 11
663.9247946663971
 21
411.4776468309504
 31
0.0
  0
LINE
  5
247A
330
2
100
AcDbEntity
  8
0
100
AcDbLine
 10
652.4474165425907
 20
442.5300007275659
 30
0.0
 11
651.6342820389226
 21
411.4776468309504
 31
0.0
  0
LINE
  5
247B
330
2
100
AcDbEntity
  8
0
100
AcDbLine
 10
625.0115104115537
 20
434.9776468282857
 30
0.0
 11
625.6013791143049
 21
412.4514698826427
 31
0.0
  0
LINE
  5
247C
330
2
100
AcDbEntity
  8
0
100
AcDbLine
 10
632.5833360576397
 20
434.9776468282859
 30
0.0
 11
632.7884174506997
 21
411.4776468309504
 31
0.0
  0
LINE
  5
247D
330
2
100
AcDbEntity
  8
0
100
AcDbLine
 10
654.4467311925417
 20
378.4776468309504
 30
0.0
 11
659.9181457235389
 21
378.4776468309504
 31
0.0
  0
ARC
  5
247E
330
2
100
AcDbEntity
  8
0
100
AcDbCircle
 10
648.7772762300791
 20
416.9776468309503
 30
0.0
 40
3.0
100
AcDbArc
 50
270.0
 51
358.5000000000103
  0
ARC
  5
247F
330
2
100
AcDbEntity
  8
0
100
AcDbCircle
 10
648.7772762301782
 20
405.9776468309504
 30
0.0
 40
3.0
100
AcDbArc
 50
1.499999999781259
 51
90.0
  0
ARC
  5
2480
330
2
100
AcDbEntity
  8
0
100
AcDbCircle
 10
654.4467311925417
 20
380.4776468309504
 30
0.0
 40
2.0
100
AcDbArc
 50
181.5000000000418
 51
270.0
  0
ARC
  5
2481
330
2
100
AcDbEntity
  8
0
100
AcDbCircle
 10
647.4443316451059
 20
380.4776468309504
 30
0.0
 40
5.0
100
AcDbArc
 50
1.500000000015675
 51
90.0
  0
ARC
  5
2482
330
2
100
AcDbEntity
  8
0
100
AcDbCircle
 10
651.4467311925417
 20
376.4776468309504
 30
0.0
 40
3.0
100
AcDbArc
 50
53.13010235412992
 51
90.0
  0
LINE
  5
2483
330
2
100
AcDbEntity
  8
0
100
AcDbLine
 10
652.4474165425907
 20
380.4252929343346
 30
0.0
 11
651.6342820390435
 21
411.4776468309504
 31
0.0
  0
ARC
  5
2484
330
2
100
AcDbEntity
  8
0
100
AcDbCircle
 10
635.7405339130081
 20
405.9776468309504
 30
0.0
 40
3.0
100
AcDbArc
 50
90.0
 51
179.5000000000084
  0
ARC
  5
2485
330
2
100
AcDbEntity
  8
0
100
AcDbCircle
 10
626.6010364392804
 20
412.4776468309504
 30
0.0
 40
1.0
100
AcDbArc
 50
181.4999999999896
 51
270.0
  0
LINE
  5
2486
330
2
100
AcDbEntity
  8
0
100
AcDbLine
 10
626.6010364392804
 20
411.4776468309504
 30
0.0
 11
632.7884174506997
 21
411.4776468309504
 31
0.0
  0
ARC
  5
2487
330
2
100
AcDbEntity
  8
0
100
AcDbCircle
 10
635.7405339130081
 20
416.9776468309501
 30
0.0
 40
3.0
100
AcDbArc
 50
180.4999999999915
 51
270.0
  0
ARC
  5
2488
330
2
100
AcDbEntity
  8
0
100
AcDbCircle
 10
635.5354525199244
 20
382.4776468309504
 30
0.0
 40
3.0
100
AcDbArc
 50
90.0
 51
179.5000000000084
  0
LINE
  5
2489
330
2
100
AcDbEntity
  8
0
100
AcDbLine
 10
635.5354525199244
 20
385.4776468309504
 30
0.0
 11
647.4443316451059
 21
385.4776468309504
 31
0.0
  0
LINE
  5
248A
330
2
100
AcDbEntity
  8
0
100
AcDbLine
 10
635.4830913131799
 20
379.4776468309504
 30
0.0
 11
651.4467311925417
 21
379.4776468309504
 31
0.0
  0
LINE
  5
248B
330
2
100
AcDbEntity
  8
0
100
AcDbLine
 10
635.7405339130081
 20
413.9776468309502
 30
0.0
 11
648.7772762300791
 21
413.9776468309504
 31
0.0
  0
LINE
  5
248C
330
2
100
AcDbEntity
  8
0
100
AcDbLine
 10
635.7405339130081
 20
408.9776468309504
 30
0.0
 11
648.7772762301782
 21
408.9776468309504
 31
0.0
  0
LINE
  5
248D
330
2
100
AcDbEntity
  8
0
100
AcDbLine
 10
663.9247946663971
 20
411.4776468309504
 30
0.0
 11
676.9984174463306
 21
411.4776468309504
 31
0.0
  0
LINE
  5
248E
330
2
100
AcDbEntity
  8
0
100
AcDbLine
 10
654.4467311925417
 20
444.4776468309503
 30
0.0
 11
659.918145723538
 21
444.4776468309503
 31
0.0
  0
ARC
  5
248F
330
2
100
AcDbEntity
  8
0
100
AcDbCircle
 10
654.4467311925417
 20
442.4776468309503
 30
0.0
 40
2.0
100
AcDbArc
 50
90.0
 51
178.4999999999843
  0
ARC
  5
2490
330
2
100
AcDbEntity
  8
0
100
AcDbCircle
 10
647.3657738803985
 20
439.4776468309503
 30
0.0
 40
5.0
100
AcDbArc
 50
270.0
 51
358.4999999999843
  0
LINE
  5
2491
330
2
100
AcDbEntity
  8
HIDS
100
AcDbLine
 10
628.4126310130722
 20
443.0634332659101
 30
0.0
 11
626.0842038883264
 21
445.3918603906577
 31
0.0
  0
ARC
  5
2492
330
2
100
AcDbEntity
  8
HIDS
100
AcDbCircle
 10
629.8268445754464
 20
444.4776468282825
 30
0.0
 40
2.0
100
AcDbArc
 50
224.9999999999884
 51
270.0
  0
ARC
  5
2493
330
2
100
AcDbEntity
  8
HIDS
100
AcDbCircle
 10
624.6699903259531
 20
443.9776468282852
 30
0.0
 40
2.0
100
AcDbArc
 50
44.99999999998848
 51
90.0
  0
LINE
  5
2494
330
2
100
AcDbEntity
  8
0
100
AcDbLine
 10
621.4984174507179
 20
443.9776468282821
 30
0.0
 11
621.4984174507179
 21
449.5776468282819
 31
0.0
  0
LINE
  5
2495
330
2
100
AcDbEntity
  8
0
100
AcDbLine
 10
631.498417450718
 20
443.9776468282821
 30
0.0
 11
631.498417450718
 21
449.5776468282819
 31
0.0
  0
LINE
  5
2496
330
2
100
AcDbEntity
  8
0
100
AcDbLine
 10
631.498417450718
 20
443.9776468282821
 30
0.0
 11
621.4984174507179
 21
443.9776468282821
 31
0.0
  0
LINE
  5
2497
330
2
100
AcDbEntity
  8
0
100
AcDbLine
 10
630.8055971276907
 20
449.9776468282821
 30
0.0
 11
622.1912377737461
 21
449.9776468282825
 31
0.0
  0
LINE
  5
2498
330
2
100
AcDbEntity
  8
0
100
AcDbLine
 10
631.498417450718
 20
449.5776468282825
 30
0.0
 11
621.4984174507179
 21
449.5776468282819
 31
0.0
  0
LINE
  5
2499
330
2
100
AcDbEntity
  8
0
100
AcDbLine
 10
631.498417450718
 20
449.5776468282819
 30
0.0
 11
630.8055971276907
 21
449.9776468282821
 31
0.0
  0
LINE
  5
249A
330
2
100
AcDbEntity
  8
0
100
AcDbLine
 10
621.4984174507179
 20
449.5776468282819
 30
0.0
 11
622.1912377737461
 21
449.9776468282821
 31
0.0
  0
LINE
  5
249B
330
2
100
AcDbEntity
  8
0
100
AcDbLine
 10
631.498417450718
 20
443.9776468282826
 30
0.0
 11
631.498417450718
 21
442.4776468282825
 31
0.0
  0
LINE
  5
249C
330
2
100
AcDbEntity
  8
0
100
AcDbLine
 10
621.4984174507179
 20
443.9776468282826
 30
0.0
 11
621.4984174507179
 21
442.4776468282825
 31
0.0
  0
LINE
  5
249D
330
2
100
AcDbEntity
  8
HIDS
100
AcDbLine
 10
621.4984174507179
 20
445.9776468282848
 30
0.0
 11
624.6699903259531
 21
445.9776468282853
 31
0.0
  0
ARC
  5
249E
330
2
100
AcDbEntity
  8
0
100
AcDbCircle
 10
631.5316547316751
 20
441.4776468282828
 30
0.0
 40
1.0
100
AcDbArc
 50
0.4999999999915751
 51
90.0
  0
LINE
  5
249F
330
2
100
AcDbEntity
  8
0
100
AcDbLine
 10
632.5833360576397
 20
434.9776468282859
 30
0.0
 11
633.0833360576397
 21
434.477646828286
 31
0.0
  0
LINE
  5
24A0
330
2
100
AcDbEntity
  8
0
100
AcDbLine
 10
627.9984174507197
 20
434.9776468282848
 30
0.0
 11
627.9984174507197
 21
442.4776468282825
 31
0.0
  0
LINE
  5
24A1
330
2
100
AcDbEntity
  8
0
100
AcDbLine
 10
624.9984174507197
 20
434.9776468282848
 30
0.0
 11
624.9984174507197
 21
442.4776468282825
 31
0.0
  0
LINE
  5
24A2
330
2
100
AcDbEntity
  8
CENTER
100
AcDbLine
 10
626.4984174507179
 20
454.9776468282825
 30
0.0
 11
626.4984174507179
 21
429.9149000841362
 31
0.0
  0
LINE
  5
24A3
330
2
100
AcDbEntity
  8
0
100
AcDbLine
 10
632.531616654739
 20
441.486373363781
 30
0.0
 11
632.5884174506999
 21
434.9776468282859
 31
0.0
  0
LINE
  5
24A4
330
2
100
AcDbEntity
  8
0
100
AcDbLine
 10
647.3657738759564
 20
434.4776468282832
 30
0.0
 11
633.0833360576415
 21
434.4776468282832
 31
0.0
  0
LINE
  5
24A5
330
2
100
AcDbEntity
  8
0
100
AcDbLine
 10
666.9467311925417
 20
452.4776468309503
 30
0.0
 11
676.9984174463306
 21
452.4776468309503
 31
0.0
  0
ARC
  5
24A6
330
2
100
AcDbEntity
  8
0
100
AcDbCircle
 10
666.9467311925417
 20
450.4776468309503
 30
0.0
 40
2.0
100
AcDbArc
 50
90.0
 51
178.5000000000103
  0
ARC
  5
24A7
330
2
100
AcDbEntity
  8
0
100
AcDbCircle
 10
659.918145723538
 20
449.4776468309503
 30
0.0
 40
5.0
100
AcDbArc
 50
270.0
 51
358.5000000000103
  0
ARC
  5
266A
330
2
100
AcDbEntity
  8
0
100
AcDbCircle
 10
341.1027274601233
 20
156.5803793048016
 30
0.0
 40
4.0
100
AcDbArc
 50
17.60182375628296
 51
90.0
  0
LINE
  5
266B
330
2
100
AcDbEntity
  8
0
100
AcDbLine
 10
341.1027274601233
 20
160.5803793048016
 30
0.0
 11
331.1027274601233
 21
160.5803793048016
 31
0.0
  0
ARC
  5
266C
330
2
100
AcDbEntity
  8
0
100
AcDbCircle
 10
331.1027274601233
 20
156.5803793048016
 30
0.0
 40
4.0
100
AcDbArc
 50
90.0
 51
159.1508477649559
  0
LINE
  5
266D
330
2
100
AcDbEntity
  8
CENTER
  6
CENS
100
AcDbLine
 10
336.1027274601233
 20
165.7040637275049
 30
0.0
 11
336.1027274601233
 21
142.3441377251561
 31
0.0
  0
LINE
  5
27C1
330
2
100
AcDbEntity
  8
0
100
AcDbLine
 10
413.6027274601345
 20
107.5804253048022
 30
0.0
 11
384.1027274601355
 21
107.5804253048022
 31
0.0
  0
LINE
  5
27C2
330
2
100
AcDbEntity
  8
0
100
AcDbLine
 10
384.1027274601355
 20
125.5804253048022
 30
0.0
 11
413.6027274601345
 21
125.5804253048022
 31
0.0
  0
LINE
  5
27C3
330
2
100
AcDbEntity
  8
0
100
AcDbLine
 10
390.1027274600736
 20
119.5803546404017
 30
0.0
 11
414.1027274601346
 21
119.5803793048162
 31
0.0
  0
LINE
  5
27C4
330
2
100
AcDbEntity
  8
0
100
AcDbLine
 10
390.1027274600736
 20
113.5803546403735
 30
0.0
 11
414.1027274601346
 21
113.580379304788
 31
0.0
  0
LINE
  5
27C5
330
2
100
AcDbEntity
  8
0
100
AcDbLine
 10
384.1027274601355
 20
126.5804250160888
 30
0.0
 11
384.1027274601355
 21
106.5804250160867
 31
0.0
  0
LINE
  5
27C6
330
2
100
AcDbEntity
  8
0
100
AcDbLine
 10
383.1027274601355
 20
130.2917041702073
 30
0.0
 11
383.1027274601355
 21
102.8690544393969
 31
0.0
  0
ARC
  5
27C7
330
2
100
AcDbEntity
  8
0
100
AcDbCircle
 10
382.6027274601354
 20
130.2917041702073
 30
0.0
 40
0.5
100
AcDbArc
 50
0.0
 51
59.99999999999946
  0
LINE
  5
27C8
330
2
100
AcDbEntity
  8
0
100
AcDbLine
 10
384.1027274601355
 20
126.5804250160888
 30
0.0
 11
383.1027274601355
 21
127.1577752852786
 31
0.0
  0
LINE
  5
27C9
330
2
100
AcDbEntity
  8
0
100
AcDbLine
 10
384.1027274601355
 20
106.5803335935151
 30
0.0
 11
383.1027274601355
 21
106.0029833243256
 31
0.0
  0
LINE
  5
27CA
330
2
100
AcDbEntity
  8
0
100
AcDbLine
 10
382.8527274601355
 20
130.7247168720994
 30
0.0
 11
382.7008892242846
 21
130.8123807184413
 31
0.0
  0
ARC
  5
27CB
330
2
100
AcDbEntity
  8
0
100
AcDbCircle
 10
381.7008892242846
 20
129.0803299108722
 30
0.0
 40
2.0
100
AcDbArc
 50
59.99999999999946
 51
78.40928831454826
  0
ARC
  5
27CC
330
2
100
AcDbEntity
  8
0
100
AcDbCircle
 10
382.6027274601354
 20
102.8690544393969
 30
0.0
 40
0.5
100
AcDbArc
 50
300.0000000000005
 51
0.0
  0
LINE
  5
27CD
330
2
100
AcDbEntity
  8
0
100
AcDbLine
 10
382.8527274601355
 20
102.4360417375046
 30
0.0
 11
382.7008892242846
 21
102.3483778911629
 31
0.0
  0
ARC
  5
27CE
330
2
100
AcDbEntity
  8
0
100
AcDbCircle
 10
381.7008892242846
 20
104.0804286987317
 30
0.0
 40
2.0
100
AcDbArc
 50
281.5907116854517
 51
300.0000000000005
  0
ARC
  5
27CF
330
2
100
AcDbEntity
  8
0
100
AcDbCircle
 10
390.1027274600736
 20
116.5803546403876
 30
0.0
 40
3.000000000014103
100
AcDbArc
 50
90.0
 51
270.0
  0
LINE
  5
27D0
330
2
100
AcDbEntity
  8
0
100
AcDbLine
 10
414.1027274601346
 20
125.0804253048022
 30
0.0
 11
414.1027274601346
 21
108.0804253048022
 31
0.0
  0
LINE
  5
27D1
330
2
100
AcDbEntity
  8
0
100
AcDbLine
 10
413.6027274601345
 20
125.5804253048022
 30
0.0
 11
414.1027274601346
 21
125.0804253048022
 31
0.0
  0
LINE
  5
27D2
330
2
100
AcDbEntity
  8
0
100
AcDbLine
 10
414.1027274601346
 20
108.0804253048022
 30
0.0
 11
413.6027274601345
 21
107.5804253048022
 31
0.0
  0
LINE
  5
27D3
330
2
100
AcDbEntity
  8
0
100
AcDbLine
 10
413.6027274601345
 20
125.5804253048022
 30
0.0
 11
413.6027274601345
 21
119.5803787909742
 31
0.0
  0
LINE
  5
27D4
330
2
100
AcDbEntity
  8
0
100
AcDbLine
 10
413.6027274601345
 20
113.580378790946
 30
0.0
 11
413.6027274601345
 21
107.5804253048022
 31
0.0
  0
ARC
  5
27D8
330
2
100
AcDbEntity
  8
0
100
AcDbCircle
 10
591.9984174507301
 20
116.5803793048319
 30
0.0
 40
9.000045999985673
100
AcDbArc
 50
199.4711170987082
 51
160.5288829012917
  0
ARC
  5
27D9
330
2
100
AcDbEntity
  8
0
100
AcDbCircle
 10
591.9984174507419
 20
116.5803793048292
 30
0.0
 40
10.00004571127499
100
AcDbArc
 50
197.4575207583693
 51
162.5424792415863
  0
ARC
  5
27DA
330
2
100
AcDbEntity
  8
0
100
AcDbCircle
 10
591.9984174507419
 20
116.5803793048292
 30
0.0
 40
10.57739598046464
100
AcDbArc
 50
196.4765970291266
 51
163.5234029708434
  0
CIRCLE
  5
27DB
330
2
100
AcDbEntity
  8
0
100
AcDbCircle
 10
591.9984174507419
 20
116.580379304843
 30
0.0
 40
14.49995060603862
  0
LINE
  5
27DE
330
2
100
AcDbEntity
  8
0
100
AcDbLine
 10
580.4984634507157
 20
113.5803793048321
 30
0.0
 11
586.4984634507156
 21
113.5803793048321
 31
0.0
  0
LINE
  5
27DF
330
2
100
AcDbEntity
  8
0
100
AcDbLine
 10
580.4984634507157
 20
119.5803793048324
 30
0.0
 11
586.4984634507156
 21
119.5803793048321
 31
0.0
  0
LINE
  5
27E0
330
2
100
AcDbEntity
  8
0
100
AcDbLine
 10
586.4984634507156
 20
119.5803793048321
 30
0.0
 11
586.4984634507156
 21
113.5803793048321
 31
0.0
  0
LINE
  5
27E1
330
2
100
AcDbEntity
  8
0
100
AcDbLine
 10
580.4984634507157
 20
119.5803793048324
 30
0.0
 11
580.4984634507157
 21
113.5803793048321
 31
0.0
  0
LINE
  5
27E3
330
2
100
AcDbEntity
  8
0
100
AcDbLine
 10
851.4804856188769
 20
125.5803333048041
 30
0.0
 11
880.980485618876
 21
125.5803333048041
 31
0.0
  0
LINE
  5
27E4
330
2
100
AcDbEntity
  8
0
100
AcDbLine
 10
880.980485618876
 20
107.5803333048041
 30
0.0
 11
851.4804856188769
 21
107.5803333048041
 31
0.0
  0
LINE
  5
27E5
330
2
100
AcDbEntity
  8
0
100
AcDbLine
 10
850.9804856188768
 20
108.0803333048041
 30
0.0
 11
850.9804856188768
 21
125.0803333048041
 31
0.0
  0
LINE
  5
27E6
330
2
100
AcDbEntity
  8
0
100
AcDbLine
 10
851.4804856188769
 20
125.5803333048041
 30
0.0
 11
850.9804856188768
 21
125.0803333048041
 31
0.0
  0
LINE
  5
27E7
330
2
100
AcDbEntity
  8
0
100
AcDbLine
 10
851.4804856188769
 20
107.5803333048041
 30
0.0
 11
850.9804856188768
 21
108.0803333048041
 31
0.0
  0
LINE
  5
27E8
330
2
100
AcDbEntity
  8
0
100
AcDbLine
 10
851.4804856188769
 20
107.5803333048041
 30
0.0
 11
851.4804856188769
 21
125.5803333048041
 31
0.0
  0
LINE
  5
27E9
330
2
100
AcDbEntity
  8
0
100
AcDbLine
 10
880.980485618876
 20
106.5803335935177
 30
0.0
 11
880.980485618876
 21
126.5803335935195
 31
0.0
  0
LINE
  5
27EA
330
2
100
AcDbEntity
  8
0
100
AcDbLine
 10
881.980485618876
 20
102.8690544393992
 30
0.0
 11
881.980485618876
 21
130.2917041702101
 31
0.0
  0
ARC
  5
27EB
330
2
100
AcDbEntity
  8
0
100
AcDbCircle
 10
882.4804856188759
 20
102.8690544393992
 30
0.0
 40
0.5
100
AcDbArc
 50
180.0
 51
239.9999999999994
  0
LINE
  5
27EC
330
2
100
AcDbEntity
  8
0
100
AcDbLine
 10
880.980485618876
 20
106.5803335935177
 30
0.0
 11
881.980485618876
 21
106.0029833243277
 31
0.0
  0
LINE
  5
27ED
330
2
100
AcDbEntity
  8
0
100
AcDbLine
 10
880.980485618876
 20
126.5804250160916
 30
0.0
 11
881.980485618876
 21
127.1577752852807
 31
0.0
  0
LINE
  5
27EE
330
2
100
AcDbEntity
  8
0
100
AcDbLine
 10
882.2304856188759
 20
102.4360417375071
 30
0.0
 11
882.3823238547268
 21
102.3483778911657
 31
0.0
  0
ARC
  5
27EF
330
2
100
AcDbEntity
  8
0
100
AcDbCircle
 10
883.3823238547267
 20
104.0804286987339
 30
0.0
 40
2.0
100
AcDbArc
 50
239.9999999999994
 51
258.4092883145482
  0
ARC
  5
27F0
330
2
100
AcDbEntity
  8
0
100
AcDbCircle
 10
882.4804856188759
 20
130.2917041702101
 30
0.0
 40
0.5
100
AcDbArc
 50
120.0000000000005
 51
180.0
  0
LINE
  5
27F1
330
2
100
AcDbEntity
  8
0
100
AcDbLine
 10
882.2304856188759
 20
130.7247168721021
 30
0.0
 11
882.3823238547268
 21
130.8123807184436
 31
0.0
  0
ARC
  5
27F2
330
2
100
AcDbEntity
  8
0
100
AcDbCircle
 10
883.3823238547267
 20
129.0803299108745
 30
0.0
 40
2.0
100
AcDbArc
 50
101.5907116854517
 51
120.0000000000005
  0
LINE
  5
27F4
330
2
100
AcDbEntity
  8
0
100
AcDbLine
 10
600.9984634507007
 20
348.4776468309486
 30
0.0
 11
600.9984634507007
 21
318.9776468309495
 31
0.0
  0
LINE
  5
27F5
330
2
100
AcDbEntity
  8
0
100
AcDbLine
 10
580.4984634507052
 20
345.4776468309231
 30
0.0
 11
580.4984634507052
 21
318.4776468309495
 31
0.0
  0
LINE
  5
27F6
330
2
100
AcDbEntity
  8
0
100
AcDbLine
 10
583.5130872861443
 20
342.4776468310104
 30
0.0
 11
583.5130872861443
 21
318.4776468309495
 31
0.0
  0
LINE
  5
27F7
330
2
100
AcDbEntity
  8
0
100
AcDbLine
 10
600.4984634507007
 20
318.4776468309495
 30
0.0
 11
580.4984634507052
 21
318.4776468309495
 31
0.0
  0
LINE
  5
27F8
330
2
100
AcDbEntity
  8
0
100
AcDbLine
 10
600.9984634507007
 20
318.9776468309495
 30
0.0
 11
583.5130872861452
 21
318.9776468309495
 31
0.0
  0
LINE
  5
27F9
330
2
100
AcDbEntity
  8
0
100
AcDbLine
 10
600.9984634507007
 20
318.9776468309495
 30
0.0
 11
600.4984634507007
 21
318.4776468309495
 31
0.0
  0
LINE
  5
27FB
330
2
100
AcDbEntity
  8
0
100
AcDbLine
 10
601.998463161987
 20
348.4776468309486
 30
0.0
 11
581.9984631619852
 21
348.4776468309486
 31
0.0
  0
LINE
  5
27FC
330
2
100
AcDbEntity
  8
0
100
AcDbLine
 10
605.7097423161056
 20
349.4776468309486
 30
0.0
 11
578.2870925852946
 21
349.4776468309486
 31
0.0
  0
LINE
  5
27FD
330
2
100
AcDbEntity
  8
0
100
AcDbLine
 10
582.9984634507006
 20
345.4776468309231
 30
0.0
 11
582.9984634507006
 21
348.4776468309486
 31
0.0
  0
LINE
  5
27FE
330
2
100
AcDbEntity
  8
0
100
AcDbLine
 10
581.9983717394132
 20
348.4776468309486
 30
0.0
 11
581.421021470224
 21
349.4776468309486
 31
0.0
  0
ARC
  5
27FF
330
2
100
AcDbEntity
  8
0
100
AcDbCircle
 10
578.2870925852946
 20
349.9776468309486
 30
0.0
 40
0.5
100
AcDbArc
 50
209.9999999999916
 51
270.0
  0
LINE
  5
2800
330
2
100
AcDbEntity
  8
0
100
AcDbLine
 10
577.8540798834026
 20
349.7276468309486
 30
0.0
 11
577.7664160370611
 21
349.8794850667994
 31
0.0
  0
ARC
  5
2801
330
2
100
AcDbEntity
  8
0
100
AcDbCircle
 10
579.4984668446302
 20
350.8794850667994
 30
0.0
 40
2.0
100
AcDbArc
 50
191.5907116854479
 51
209.9999999999916
  0
LINE
  5
2802
330
2
100
AcDbEntity
  8
0
100
AcDbLine
 10
580.4984634507052
 20
345.4776468309231
 30
0.0
 11
582.9984634507006
 21
345.4776468309231
 31
0.0
  0
LINE
  5
2803
330
2
100
AcDbEntity
  8
0
100
AcDbLine
 10
582.9984634507006
 20
345.4776468309231
 30
0.0
 11
583.5130872861443
 21
342.4776468310104
 31
0.0
  0
ARC
  5
2804
330
2
100
AcDbEntity
  8
0
100
AcDbCircle
 10
605.7097423161056
 20
349.9776468309486
 30
0.0
 40
0.5
100
AcDbArc
 50
270.0
 51
330.0000000000083
  0
LINE
  5
2805
330
2
100
AcDbEntity
  8
0
100
AcDbLine
 10
601.998463161987
 20
348.4776468309486
 30
0.0
 11
602.575813431177
 21
349.4776468309486
 31
0.0
  0
LINE
  5
2806
330
2
100
AcDbEntity
  8
0
100
AcDbLine
 10
606.1427550179976
 20
349.7276468309486
 30
0.0
 11
606.230418864339
 21
349.8794850667994
 31
0.0
  0
ARC
  5
2807
330
2
100
AcDbEntity
  8
0
100
AcDbCircle
 10
604.4983680567709
 20
350.8794850667994
 30
0.0
 40
2.0
100
AcDbArc
 50
330.0000000000083
 51
348.4092883145521
  0
CIRCLE
  5
2AB8
330
2
100
AcDbEntity
  8
0
100
AcDbCircle
 10
591.9984174507419
 20
116.5803793048429
 30
0.0
 40
23.5774
  0
ENDSEC
  0
SECTION
  2
OBJECTS
  0
DICTIONARY
  5
7
330
0
100
AcDbDictionary
  3
ACAD_COLOR
350
1D83
  3
ACAD_GROUP
350
75
  3
ACAD_LAYOUT
350
61
  3
ACAD_MATERIAL
350
1D59
  3
ACAD_MLEADERSTYLE
350
1DA8
  3
ACAD_MLINESTYLE
350
76
  3
ACAD_PLOTSETTINGS
350
77
  3
ACAD_PLOTSTYLENAME
350
6
  3
ACAD_SCALELIST
350
1D86
  3
ACAD_TABLESTYLE
350
1D84
  3
ACAD_VISUALSTYLE
350
1D72
  3
ACADDIM
350
480
  3
ACDB_RECOMPOSE_DATA
350
1E0A
  3
ACDBHEADERROUNDTRIPXREC
350
2AFB
  3
ACDBVARIABLEDICTIONARY
350
102
  3
DWGPROPS
350
2AC8
  0
DICTIONARY
  5
1E13
330
6E
100
AcDbDictionary
280
     1
  3
ACAD_XREC_ROUNDTRIP
360
2ACF
  0
DICTIONARY
  5
ADB
330
66
100
AcDbDictionary
280
     1
  3
ACAD_LAYERSTATES
360
ADC
  0
DICTIONARY
  5
1DAD
330
5E
100
AcDbDictionary
280
     1
  3
ACAD_XREC_ROUNDTRIP
360
2ACB
  3
ADSK_XREC_LAYER_RECONCILED
360
1DAE
  0
DICTIONARY
  5
1DAF
330
3E
100
AcDbDictionary
280
     1
  3
ACAD_XREC_ROUNDTRIP
360
2ACA
  3
ADSK_XREC_LAYER_RECONCILED
360
1DB0
  0
DICTIONARY
  5
1DB5
330
2B5
100
AcDbDictionary
280
     1
  3
ACAD_XREC_ROUNDTRIP
360
2AD5
  3
ADSK_XREC_LAYER_RECONCILED
360
1DB6
  0
DICTIONARY
  5
1DB7
330
2BA
100
AcDbDictionary
280
     1
  3
ACAD_XREC_ROUNDTRIP
360
2AD6
  3
ADSK_XREC_LAYER_RECONCILED
360
1DB8
  0
DICTIONARY
  5
1DBB
330
3FA
100
AcDbDictionary
280
     1
  3
ACAD_XREC_ROUNDTRIP
360
2AD8
  3
ADSK_XREC_LAYER_RECONCILED
360
1DBC
  0
DICTIONARY
  5
2B1C
330
2
100
AcDbDictionary
280
     1
  3
ACAD_LAYOUTSELFREF
360
2B1D
  0
DICTIONARY
  5
2B1E
330
2AF5
100
AcDbDictionary
280
     1
  3
ACAD_LAYOUTSELFREF
360
2B1F
  0
DICTIONARY
  5
1D83
102
{ACAD_REACTORS
330
7
102
}
330
7
100
AcDbDictionary
  0
DICTIONARY
  5
75
102
{ACAD_REACTORS
330
7
102
}
330
7
100
AcDbDictionary
  0
DICTIONARY
  5
61
102
{ACAD_REACTORS
330
7
102
}
330
7
100
AcDbDictionary
  0
DICTIONARY
  5
1D59
102
{ACAD_REACTORS
330
7
102
}
330
7
100
AcDbDictionary
  3
BYBLOCK
350
1D62
  3
BYLAYER
350
1D5A
  3
GLOBAL
350
1D6A
  0
DICTIONARY
  5
1DA8
102
{ACAD_REACTORS
330
7
102
}
330
7
100
AcDbDictionary
  3
STANDARD
350
1DA9
  0
DICTIONARY
  5
76
102
{ACAD_REACTORS
330
7
102
}
330
7
100
AcDbDictionary
  3
STANDARD
350
78
  0
DICTIONARY
  5
77
102
{ACAD_REACTORS
330
7
102
}
330
7
100
AcDbDictionary
  0
ACDBDICTIONARYWDFLT
  5
6
102
{ACAD_REACTORS
330
7
102
}
330
7
100
AcDbDictionary
281
     1
  3
Normal
350
5
100
AcDbDictionaryWithDefault
340
5
  0
DICTIONARY
  5
1D86
102
{ACAD_REACTORS
330
7
102
}
330
7
100
AcDbDictionary
  3
A0
350
1D87
  3
A1
350
1D88
  3
A2
350
1D89
  3
A3
350
1D8A
  3
A4
350
1D8B
  3
A5
350
1D8C
  3
A6
350
1D8D
  3
A7
350
1D8E
  3
A8
350
1D8F
  3
A9
350
1D90
  3
B0
350
1D91
  3
B1
350
1D92
  3
B2
350
1D93
  3
B3
350
1D94
  3
B4
350
1D95
  3
B5
350
1D96
  3
B6
350
1D97
  3
B7
350
1D98
  3
B8
350
1D99
  3
B9
350
1D9A
  3
C0
350
1D9B
  3
C1
350
1D9C
  3
C2
350
1D9D
  3
C3
350
1D9E
  3
C4
350
1D9F
  3
C5
350
1DA0
  3
C6
350
1DA1
  3
C7
350
1DA2
  3
C8
350
1DA3
  3
C9
350
1DA4
  3
D0
350
1DA5
  3
D1
350
1DA6
  3
D2
350
1DA7
  0
DICTIONARY
  5
1D84
102
{ACAD_REACTORS
330
7
102
}
330
7
100
AcDbDictionary
  3
STANDARD
350
1D85
  0
DICTIONARY
  5
1D72
102
{ACAD_REACTORS
330
7
102
}
330
7
100
AcDbDictionary
  3
2DWIREFRAME
350
1D78
  3
3D_HIDDEN
350
1D7A
  3
3DWIREFRAME
350
1D79
  3
BASIC
350
1D77
  3
BRIGHTEN
350
1D7E
  3
COLORCHANGE
350
1D82
  3
CONCEPTUAL
350
1D7B
  3
DIM
350
1D7D
  3
FACEPATTERN
350
1D81
  3
FLAT
350
1D73
  3
FLATWITHEDGES
350
1D74
  3
GOURAUD
350
1D75
  3
GOURAUDWITHEDGES
350
1D76
  3
LINEPATTERN
350
1D80
  3
REALISTIC
350
1D7C
  3
THICKEN
350
1D7F
  0
XRECORD
  5
480
102
{ACAD_REACTORS
330
7
102
}
330
7
100
AcDbXrecord
 90
   990106
  3

 60
     0
 61
     0
 62
     1
 63
     3
 64
     1
 65
     0
 66
     0
 67
     3
 68
     1
 69
     0
 70
     0
 71
     0
 72
     0
 40
0.0
170
     2
340
0
  0
XRECORD
  5
1E0A
102
{ACAD_REACTORS
330
7
102
}
330
7
100
AcDbXrecord
 90
        1
330
1D85
  0
DICTIONARY
  5
2AFB
102
{ACAD_REACTORS
330
7
102
}
330
7
100
AcDbDictionary
  3
CEPSNTYPE
350
2B05
  3
DIMSTYLEDATA
350
2B09
  3
FINGERPRINTGUID
350
2B06
  3
HYPERLINKBASE
350
2AFE
  3
INSUNITS
350
2B04
  3
LAYOUTDICT
350
2B00
  3
LWETCUNION
350
2B03
  3
PLOTSETDICT
350
2B01
  3
PLOTSTYLNAMDICT
350
2B02
  3
PSVPSCALE
350
2B08
  3
PUCSBASE
350
2B0C
  3
PUCSORGBACK
350
2B12
  3
PUCSORGBOTTOM
350
2B0E
  3
PUCSORGFRONT
350
2B11
  3
PUCSORGLEFT
350
2B0F
  3
PUCSORGRIGHT
350
2B10
  3
PUCSORGTOP
350
2B0D
  3
PUCSORTHOREF
350
2B0A
  3
PUCSORTHOVIEW
350
2B0B
  3
STYLESHEET
350
2AFF
  3
TSTACKALIGN
350
2AFC
  3
TSTACKSIZE
350
2AFD
  3
UCSBASE
350
2B15
  3
UCSORGBACK
350
2B1B
  3
UCSORGBOTTOM
350
2B17
  3
UCSORGFRONT
350
2B1A
  3
UCSORGLEFT
350
2B18
  3
UCSORGRIGHT
350
2B19
  3
UCSORGTOP
350
2B16
  3
UCSORTHOREF
350
2B13
  3
UCSORTHOVIEW
350
2B14
  3
VERSIONGUID
350
2B07
  0
DICTIONARY
  5
102
102
{ACAD_REACTORS
330
7
102
}
330
7
100
AcDbDictionary
  3
CANNOSCALE
350
1E2B
  3
CMLEADERSTYLE
350
1E2A
  3
CTABLESTYLE
350
1E29
  3
DIMASSOC
350
103
  3
INDEXCTL
350
1E2C
  3
SORTENTS
350
549
  0
XRECORD
  5
2AC8
102
{ACAD_REACTORS
330
7
102
}
330
7
100
AcDbXrecord
  1
DWGPROPS COOKIE
  2

  3

  4

  6

  7

  8
ymorima
  9

300
=
301
=
302
=
303
=
304
=
305
=
306
=
307
=
308
=
309
=
 40
0.0715153240740741
 41
2454410.733051747
 42
2454425.756356516
  1

 90
        0
  0
XRECORD
  5
2ACF
102
{ACAD_REACTORS
330
1E13
102
}
330
1E13
100
AcDbXrecord
102
VTR_0.000_0.000_1.000_1.000_VISUALSTYLE
340
1D78
102
VTR_0.000_0.000_1.000_1.000_GRIDDISPLAY
 70
     3
102
VTR_0.000_0.000_1.000_1.000_GRIDMAJOR
 70
     5
102
VTR_0.000_0.000_1.000_1.000_DEFAULTLIGHTING
280
     1
102
VTR_0.000_0.000_1.000_1.000_DEFAULTLIGHTINGTYPE
 70
     1
102
VTR_0.000_0.000_1.000_1.000_BRIGHTNESS
141
0.0
102
VTR_0.000_0.000_1.000_1.000_CONTRAST
142
0.0
  0
DICTIONARY
  5
ADC
102
{ACAD_REACTORS
330
ADB
102
}
330
ADB
100
AcDbDictionary
  0
XRECORD
  5
2ACB
102
{ACAD_REACTORS
330
1DAD
102
}
330
1DAD
100
AcDbXrecord
102
MATERIAL
340
1D6A
  0
XRECORD
  5
1DAE
102
{ACAD_REACTORS
330
1DAD
102
}
330
1DAD
100
AcDbXrecord
290
     1
  0
XRECORD
  5
2ACA
102
{ACAD_REACTORS
330
1DAF
102
}
330
1DAF
100
AcDbXrecord
102
MATERIAL
340
1D6A
  0
XRECORD
  5
1DB0
102
{ACAD_REACTORS
330
1DAF
102
}
330
1DAF
100
AcDbXrecord
290
     1
  0
XRECORD
  5
2AD5
102
{ACAD_REACTORS
330
1DB5
102
}
330
1DB5
100
AcDbXrecord
102
MATERIAL
340
1D6A
  0
XRECORD
  5
1DB6
102
{ACAD_REACTORS
330
1DB5
102
}
330
1DB5
100
AcDbXrecord
290
     1
  0
XRECORD
  5
2AD6
102
{ACAD_REACTORS
330
1DB7
102
}
330
1DB7
100
AcDbXrecord
102
MATERIAL
340
1D6A
  0
XRECORD
  5
1DB8
102
{ACAD_REACTORS
330
1DB7
102
}
330
1DB7
100
AcDbXrecord
290
     1
  0
XRECORD
  5
2AD8
102
{ACAD_REACTORS
330
1DBB
102
}
330
1DBB
100
AcDbXrecord
102
MATERIAL
340
1D6A
  0
XRECORD
  5
1DBC
102
{ACAD_REACTORS
330
1DBB
102
}
330
1DBB
100
AcDbXrecord
290
     1
  0
XRECORD
  5
2B1D
102
{ACAD_REACTORS
330
2B1C
102
}
330
2B1C
100
AcDbXrecord
340
2
  0
XRECORD
  5
2B1F
102
{ACAD_REACTORS
330
2B1E
102
}
330
2B1E
100
AcDbXrecord
340
2AF5
  0
ACAD_PROXY_OBJECT
  5
1D62
102
{ACAD_XDICTIONARY
360
1D63
102
}
102
{ACAD_REACTORS
330
1D59
102
}
330
1D59
100
AcDbProxyObject
 90
      499
 91
      510
 93
     1340
310
42109E509B1BD8DAC02004014080404555555555555953FAA155555555555654FEA9AA400014080404555555555555953FAA155555555555654FEA9AA400000000000000E03F4080404555555555555953FAA155555555555654FEA9AA4014080404555555555555953FAA155555555555654FEA9AA4010201011555555555
310
55654FEA8555555555555953FAA6A9005020101155555555555654FEA8555555555555953FAA6A900F
 94
        0
1001
ACAD
1000
AcadProxyRoundTripData
1071
      504
1071
   655383
1070
     0
  0
ACAD_PROXY_OBJECT
  5
1D5A
102
{ACAD_XDICTIONARY
360
1D5B
102
}
102
{ACAD_REACTORS
330
1D59
102
}
330
1D59
100
AcDbProxyObject
 90
      499
 91
      510
 93
     1340
310
42109E53185E595C802004014080404555555555555953FAA155555555555654FEA9AA400014080404555555555555953FAA155555555555654FEA9AA400000000000000E03F4080404555555555555953FAA155555555555654FEA9AA4014080404555555555555953FAA155555555555654FEA9AA4010201011555555555
310
55654FEA8555555555555953FAA6A9005020101155555555555654FEA8555555555555953FAA6A900F
 94
        0
1001
ACAD
1000
AcadProxyRoundTripData
1071
      504
1071
   655383
1070
     0
  0
ACAD_PROXY_OBJECT
  5
1D6A
102
{ACAD_XDICTIONARY
360
1D6B
102
}
102
{ACAD_REACTORS
330
1D59
102
}
330
1D59
100
AcDbProxyObject
 90
      499
 91
      510
 93
     1332
310
41D1DB1BD8985B002004014080404555555555555953FAA155555555555654FEA9AA400014080404555555555555953FAA155555555555654FEA9AA400000000000000E03F4080404555555555555953FAA155555555555654FEA9AA4014080404555555555555953FAA155555555555654FEA9AA401020101155555555555
310
654FEA8555555555555953FAA6A9005020101155555555555654FEA8555555555555953FAA6A9000
 94
        0
1001
ACAD
1000
AcadProxyRoundTripData
1071
      504
1071
   655383
1070
     0
  0
ACAD_PROXY_OBJECT
  5
1DA9
102
{ACAD_REACTORS
330
1DA8
102
}
330
1DA8
100
AcDbProxyObject
 90
      499
 91
      510
 93
      618
310
40901902A4063FBFFFFFE056BD1B81E855B9FC0AD7A3703D0AD73F4254DD185B99185C990000AD7A3703D0AC73F90141901A02B5E8DC0F42B1CFC02B5E8DC0F42B1CFE5764000000000000300FC6
340
6A
340
0
340
16
340
0
 94
        0
1001
ACAD_MLEADERVER
1070
     2
1001
ACAD
1000
AcadProxyRoundTripData
1071
      508
1071
   655383
1070
     0
  0
MLINESTYLE
  5
78
102
{ACAD_REACTORS
330
76
102
}
330
76
100
AcDbMlineStyle
  2
STANDARD
 70
     0
  3

 62
     0
 51
90.0
 52
90.0
 71
     2
 49
0.5
 62
   256
  6
BYLAYER
 49
-0.5
 62
   256
  6
BYLAYER
  0
ACDBPLACEHOLDER
  5
5
102
{ACAD_REACTORS
330
6
102
}
330
6
100
AcDbPlaceHolder
280
     0
  0
ACAD_PROXY_OBJECT
  5
1D87
102
{ACAD_REACTORS
330
1D86
102
}
330
1D86
100
AcDbProxyObject
 90
      499
 91
      510
 93
       49
310
904313A3100598
 94
        0
1001
ACAD
1000
AcadProxyRoundTripData
1071
      507
1071
   655383
1070
     0
  0
ACAD_PROXY_OBJECT
  5
1D88
102
{ACAD_REACTORS
330
1D86
102
}
330
1D86
100
AcDbProxyObject
 90
      499
 91
      510
 93
      113
310
904313A3200400000000000000406B
 94
        0
1001
ACAD
1000
AcadProxyRoundTripData
1071
      507
1071
   655383
1070
     0
  0
ACAD_PROXY_OBJECT
  5
1D89
102
{ACAD_REACTORS
330
1D86
102
}
330
1D86
100
AcDbProxyObject
 90
      499
 91
      510
 93
      113
310
904313A3400400000000000010406B
 94
        0
1001
ACAD
1000
AcadProxyRoundTripData
1071
      507
1071
   655383
1070
     0
  0
ACAD_PROXY_OBJECT
  5
1D8A
102
{ACAD_REACTORS
330
1D86
102
}
330
1D86
100
AcDbProxyObject
 90
      499
 91
      510
 93
      113
310
904313A3500400000000000014406B
 94
        0
1001
ACAD
1000
AcadProxyRoundTripData
1071
      507
1071
   655383
1070
     0
  0
ACAD_PROXY_OBJECT
  5
1D8B
102
{ACAD_REACTORS
330
1D86
102
}
330
1D86
100
AcDbProxyObject
 90
      499
 91
      510
 93
      113
310
904313A3800400000000000020406B
 94
        0
1001
ACAD
1000
AcadProxyRoundTripData
1071
      507
1071
   655383
1070
     0
  0
ACAD_PROXY_OBJECT
  5
1D8C
102
{ACAD_REACTORS
330
1D86
102
}
330
1D86
100
AcDbProxyObject
 90
      499
 91
      510
 93
      121
310
905313A3130004000000000000244051
 94
        0
1001
ACAD
1000
AcadProxyRoundTripData
1071
      507
1071
   655383
1070
     0
  0
ACAD_PROXY_OBJECT
  5
1D8D
102
{ACAD_REACTORS
330
1D86
102
}
330
1D86
100
AcDbProxyObject
 90
      499
 91
      510
 93
      121
310
905313A3136004000000000000304051
 94
        0
1001
ACAD
1000
AcadProxyRoundTripData
1071
      507
1071
   655383
1070
     0
  0
ACAD_PROXY_OBJECT
  5
1D8E
102
{ACAD_REACTORS
330
1D86
102
}
330
1D86
100
AcDbProxyObject
 90
      499
 91
      510
 93
      121
310
905313A3230004000000000000344051
 94
        0
1001
ACAD
1000
AcadProxyRoundTripData
1071
      507
1071
   655383
1070
     0
  0
ACAD_PROXY_OBJECT
  5
1D8F
102
{ACAD_REACTORS
330
1D86
102
}
330
1D86
100
AcDbProxyObject
 90
      499
 91
      510
 93
      121
310
905313A33300040000000000003E4051
 94
        0
1001
ACAD
1000
AcadProxyRoundTripData
1071
      507
1071
   655383
1070
     0
  0
ACAD_PROXY_OBJECT
  5
1D90
102
{ACAD_REACTORS
330
1D86
102
}
330
1D86
100
AcDbProxyObject
 90
      499
 91
      510
 93
      121
310
905313A3430004000000000000444051
 94
        0
1001
ACAD
1000
AcadProxyRoundTripData
1071
      507
1071
   655383
1070
     0
  0
ACAD_PROXY_OBJECT
  5
1D91
102
{ACAD_REACTORS
330
1D86
102
}
330
1D86
100
AcDbProxyObject
 90
      499
 91
      510
 93
      121
310
905313A3530004000000000000494051
 94
        0
1001
ACAD
1000
AcadProxyRoundTripData
1071
      507
1071
   655383
1070
     0
  0
ACAD_PROXY_OBJECT
  5
1D92
102
{ACAD_REACTORS
330
1D86
102
}
330
1D86
100
AcDbProxyObject
 90
      499
 91
      510
 93
      129
310
906313A313030004000000000000594038
 94
        0
1001
ACAD
1000
AcadProxyRoundTripData
1071
      507
1071
   655383
1070
     0
  0
ACAD_PROXY_OBJECT
  5
1D93
102
{ACAD_REACTORS
330
1D86
102
}
330
1D86
100
AcDbProxyObject
 90
      499
 91
      510
 93
      113
310
904323A31000000000000000010159
 94
        0
1001
ACAD
1000
AcadProxyRoundTripData
1071
      507
1071
   655383
1070
     0
  0
ACAD_PROXY_OBJECT
  5
1D94
102
{ACAD_REACTORS
330
1D86
102
}
330
1D86
100
AcDbProxyObject
 90
      499
 91
      510
 93
      113
310
904343A31000000000000000410159
 94
        0
1001
ACAD
1000
AcadProxyRoundTripData
1071
      507
1071
   655383
1070
     0
  0
ACAD_PROXY_OBJECT
  5
1D95
102
{ACAD_REACTORS
330
1D86
102
}
330
1D86
100
AcDbProxyObject
 90
      499
 91
      510
 93
      113
310
904383A31000000000000000810159
 94
        0
1001
ACAD
1000
AcadProxyRoundTripData
1071
      507
1071
   655383
1070
     0
  0
ACAD_PROXY_OBJECT
  5
1D96
102
{ACAD_REACTORS
330
1D86
102
}
330
1D86
100
AcDbProxyObject
 90
      499
 91
      510
 93
      121
310
90531303A31000000000000000910140
 94
        0
1001
ACAD
1000
AcadProxyRoundTripData
1071
      507
1071
   655383
1070
     0
  0
ACAD_PROXY_OBJECT
  5
1D97
102
{ACAD_REACTORS
330
1D86
102
}
330
1D86
100
AcDbProxyObject
 90
      499
 91
      510
 93
      129
310
9063130303A31000000000000001650138
 94
        0
1001
ACAD
1000
AcadProxyRoundTripData
1071
      507
1071
   655383
1070
     0
  0
ACAD_PROXY_OBJECT
  5
1D98
102
{ACAD_REACTORS
330
1D86
102
}
330
1D86
100
AcDbProxyObject
 90
      499
 91
      510
 93
      265
310
90F312F31323822203D2031272D302200000000000000200FC00000000000028402B
 94
        0
1001
ACAD
1000
AcadProxyRoundTripData
1071
      507
1071
   655383
1070
     0
  0
ACAD_PROXY_OBJECT
  5
1D99
102
{ACAD_REACTORS
330
1D86
102
}
330
1D86
100
AcDbProxyObject
 90
      499
 91
      510
 93
      257
310
90E312F363422203D2031272D302200000000000000240FC000000000000284040
 94
        0
1001
ACAD
1000
AcadProxyRoundTripData
1071
      507
1071
   655383
1070
     0
  0
ACAD_PROXY_OBJECT
  5
1D9A
102
{ACAD_REACTORS
330
1D86
102
}
330
1D86
100
AcDbProxyObject
 90
      499
 91
      510
 93
      257
310
90E312F333222203D2031272D302200000000000000280FC000000000000284040
 94
        0
1001
ACAD
1000
AcadProxyRoundTripData
1071
      507
1071
   655383
1070
     0
  0
ACAD_PROXY_OBJECT
  5
1D9B
102
{ACAD_REACTORS
330
1D86
102
}
330
1D86
100
AcDbProxyObject
 90
      499
 91
      510
 93
      257
310
90E312F313622203D2031272D3022000000000000002C0FC000000000000284040
 94
        0
1001
ACAD
1000
AcadProxyRoundTripData
1071
      507
1071
   655383
1070
     0
  0
ACAD_PROXY_OBJECT
  5
1D9C
102
{ACAD_REACTORS
330
1D86
102
}
330
1D86
100
AcDbProxyObject
 90
      499
 91
      510
 93
      257
310
90E332F333222203D2031272D3022000000000000002E0FC000000000000284040
 94
        0
1001
ACAD
1000
AcadProxyRoundTripData
1071
      507
1071
   655383
1070
     0
  0
ACAD_PROXY_OBJECT
  5
1D9D
102
{ACAD_REACTORS
330
1D86
102
}
330
1D86
100
AcDbProxyObject
 90
      499
 91
      510
 93
      249
310
90D312F3822203D2031272D302200000000000000300FC000000000000284040
 94
        0
1001
ACAD
1000
AcadProxyRoundTripData
1071
      507
1071
   655383
1070
     0
  0
ACAD_PROXY_OBJECT
  5
1D9E
102
{ACAD_REACTORS
330
1D86
102
}
330
1D86
100
AcDbProxyObject
 90
      499
 91
      510
 93
      257
310
90E332F313622203D2031272D302200000000000000320FC000000000000284040
 94
        0
1001
ACAD
1000
AcadProxyRoundTripData
1071
      507
1071
   655383
1070
     0
  0
ACAD_PROXY_OBJECT
  5
1D9F
102
{ACAD_REACTORS
330
1D86
102
}
330
1D86
100
AcDbProxyObject
 90
      499
 91
      510
 93
      249
310
90D312F3422203D2031272D302200000000000000340FC000000000000284040
 94
        0
1001
ACAD
1000
AcadProxyRoundTripData
1071
      507
1071
   655383
1070
     0
  0
ACAD_PROXY_OBJECT
  5
1DA0
102
{ACAD_REACTORS
330
1D86
102
}
330
1D86
100
AcDbProxyObject
 90
      499
 91
      510
 93
      249
310
90D332F3822203D2031272D302200000000000000360FC000000000000284040
 94
        0
1001
ACAD
1000
AcadProxyRoundTripData
1071
      507
1071
   655383
1070
     0
  0
ACAD_PROXY_OBJECT
  5
1DA1
102
{ACAD_REACTORS
330
1D86
102
}
330
1D86
100
AcDbProxyObject
 90
      499
 91
      510
 93
      249
310
90D312F3222203D2031272D302200000000000000380FC000000000000284040
 94
        0
1001
ACAD
1000
AcadProxyRoundTripData
1071
      507
1071
   655383
1070
     0
  0
ACAD_PROXY_OBJECT
  5
1DA2
102
{ACAD_REACTORS
330
1D86
102
}
330
1D86
100
AcDbProxyObject
 90
      499
 91
      510
 93
      249
310
90D332F3422203D2031272D3022000000000000003A0FC000000000000284040
 94
        0
1001
ACAD
1000
AcadProxyRoundTripData
1071
      507
1071
   655383
1070
     0
  0
ACAD_PROXY_OBJECT
  5
1DA3
102
{ACAD_REACTORS
330
1D86
102
}
330
1D86
100
AcDbProxyObject
 90
      499
 91
      510
 93
      169
310
90B3122203D2031272D3022004000000000000284020
 94
        0
1001
ACAD
1000
AcadProxyRoundTripData
1071
      507
1071
   655383
1070
     0
  0
ACAD_PROXY_OBJECT
  5
1DA4
102
{ACAD_REACTORS
330
1D86
102
}
330
1D86
100
AcDbProxyObject
 90
      499
 91
      510
 93
      265
310
90F312D312F3222203D2031272D3022000000000000003E0FC00000000000028402B
 94
        0
1001
ACAD
1000
AcadProxyRoundTripData
1071
      507
1071
   655383
1070
     0
  0
ACAD_PROXY_OBJECT
  5
1DA5
102
{ACAD_REACTORS
330
1D86
102
}
330
1D86
100
AcDbProxyObject
 90
      499
 91
      510
 93
      233
310
90B3322203D2031272D30220000000000000002100000000000000284000
 94
        0
1001
ACAD
1000
AcadProxyRoundTripData
1071
      507
1071
   655383
1070
     0
  0
ACAD_PROXY_OBJECT
  5
1DA6
102
{ACAD_REACTORS
330
1D86
102
}
330
1D86
100
AcDbProxyObject
 90
      499
 91
      510
 93
      233
310
90B3622203D2031272D30220000000000000006100000000000000284000
 94
        0
1001
ACAD
1000
AcadProxyRoundTripData
1071
      507
1071
   655383
1070
     0
  0
ACAD_PROXY_OBJECT
  5
1DA7
102
{ACAD_REACTORS
330
1D86
102
}
330
1D86
100
AcDbProxyObject
 90
      499
 91
      510
 93
      257
310
90E31272D3022203D2031272D3022000000000000000A100000000000000284040
 94
        0
1001
ACAD
1000
AcadProxyRoundTripData
1071
      507
1071
   655383
1070
     0
  0
ACAD_PROXY_OBJECT
  5
1D85
102
{ACAD_XDICTIONARY
360
1E08
102
}
102
{ACAD_REACTORS
330
1D84
102
}
330
1D84
100
AcDbProxyObject
 90
      499
 91
      510
 93
     1849
310
4254DD185B99185C990028B81E85EB51B8AE3F2E07A17AD46E2B8FC02B5E8DC0F42B1CFD028000000C1008070000C3001FDFF8000000C1003FBFF000000182007F7FE00000030400FEFFC00000060801FDFF8000000C1003FBFF00000018200000000000000681FA0B0000001820100E000186003FBFF000000182007F7FE0
310
0000030400FEFFC00000060801FDFF8000000C1003FBFF000000182007F7FE000000304000AD7A3703D0AC73F4160000003040201C00030C007F7FE00000030400FEFFC00000060801FDFF8000000C1003FBFF000000182007F7FE00000030400FEFFC000000608011
340
16
340
16
340
16
 94
        0
1001
ACAD
1000
AcadProxyRoundTripData
1071
      506
1071
   655383
1070
     0
  0
ACAD_PROXY_OBJECT
  5
1D78
102
{ACAD_REACTORS
330
1D72
102
}
330
1D72
100
AcDbProxyObject
 90
      499
 91
      510
 93
      444
310
430C9915DA5C99599C985B59401049028333333333333E3BF0000000000000FB0107901411070040501600405405064090741402480A0340
 94
        0
1001
ACAD
1000
AcDbSavedByObjectVersion
1070
     0
1000
AcadProxyRoundTripData
1071
      505
1071
   655383
1070
     0
  0
ACAD_PROXY_OBJECT
  5
1D7A
102
{ACAD_REACTORS
330
1D72
102
}
330
1D72
100
AcDbProxyObject
 90
      499
 91
      510
 93
      508
310
428CD108121A5919195B8010640502408333333333333E3BF0000000000000FB01079024090700405020000000000001110200405405064090740C02480A0340
 94
        0
1001
ACAD
1000
AcDbSavedByObjectVersion
1070
     0
1000
AcadProxyRoundTripData
1071
      505
1071
   655383
1070
     0
  0
ACAD_PROXY_OBJECT
  5
1D79
102
{ACAD_REACTORS
330
1D72
102
}
330
1D72
100
AcDbProxyObject
 90
      499
 91
      510
 93
      444
310
430CD915DA5C99599C985B59401059028333333333333E3BF0000000000000FB0107901411070040501600405405064090741402480A0340
 94
        0
1001
ACAD
1000
AcDbSavedByObjectVersion
1070
     0
1000
AcadProxyRoundTripData
1071
      505
1071
   655383
1070
     0
  0
ACAD_PROXY_OBJECT
  5
1D77
102
{ACAD_REACTORS
330
1D72
102
}
330
1D72
100
AcDbProxyObject
 90
      499
 91
      510
 93
      396
310
4190985CDA58C0107406404333333333333E3BF0000000000000FB0107A41107004050150841D405064090741402480A0356
 94
        0
1001
ACAD
1000
AcDbSavedByObjectVersion
1070
     0
1000
AcadProxyRoundTripData
1071
      505
1071
   655383
1070
     0
  0
ACAD_PROXY_OBJECT
  5
1D7E
102
{ACAD_REACTORS
330
1D72
102
}
330
1D72
100
AcDbProxyObject
 90
      499
 91
      510
 93
      436
310
42509C9A59DA1D195B8010C409028333333333333E3BF0000000000000FB010790141107004050150841D405064090741402480A029956
 94
        0
1001
ACAD
1000
AcDbSavedByObjectVersion
1070
     0
1000
AcadProxyRoundTripData
1071
      505
1071
   655383
1070
     0
  0
ACAD_PROXY_OBJECT
  5
1D82
102
{ACAD_REACTORS
330
1D72
102
}
330
1D72
100
AcDbProxyObject
 90
      499
 91
      510
 93
      460
310
4310DBDB1BDC90DA185B99D9401104090240C333333333333E3BF0000000000000FB0108901411070040501508421405064090741402480A0354
 94
        0
1001
ACAD
1000
AcDbSavedByObjectVersion
1070
     0
1000
AcadProxyRoundTripData
1071
      505
1071
   655383
1070
     0
  0
ACAD_PROXY_OBJECT
  5
1D7B
102
{ACAD_REACTORS
330
1D72
102
}
330
1D72
100
AcDbProxyObject
 90
      499
 91
      510
 93
      508
310
42D0DBDB98D95C1D1D585B0010940D028333333333333E3BF0000000000000FB0107902409070040501000000000000111010841D405064090740C02480A0340
 94
        0
1001
ACAD
1000
AcDbSavedByObjectVersion
1070
     0
1000
AcadProxyRoundTripData
1071
      505
1071
   655383
1070
     0
  0
ACAD_PROXY_OBJECT
  5
1D7D
102
{ACAD_REACTORS
330
1D72
102
}
330
1D72
100
AcDbProxyObject
 90
      499
 91
      510
 93
      420
310
41111A5B4010B409028333333333333E3BF0000000000000FB010790141107004050150841D405064090741402480A02677FFFFFDB
 94
        0
1001
ACAD
1000
AcDbSavedByObjectVersion
1070
     0
1000
AcadProxyRoundTripData
1071
      505
1071
   655383
1070
     0
  0
ACAD_PROXY_OBJECT
  5
1D81
102
{ACAD_REACTORS
330
1D72
102
}
330
1D72
100
AcDbProxyObject
 90
      499
 91
      510
 93
      452
310
43119858D95C185D1D195C9B8010F409028333333333333E3BF0000000000000FB010790141107004050150841D405064090741402480A0350
 94
        0
1001
ACAD
1000
AcDbSavedByObjectVersion
1070
     0
1000
AcadProxyRoundTripData
1071
      505
1071
   655383
1070
     0
  0
ACAD_PROXY_OBJECT
  5
1D73
102
{ACAD_REACTORS
330
1D72
102
}
330
1D72
100
AcDbProxyObject
 90
      499
 91
      510
 93
      396
310
41519B185D00240901404333333333333E3BF0000000000000F9010740A41107004050150841D405064090741402480A1B55
 94
        0
1001
ACAD
1000
AcDbSavedByObjectVersion
1070
     0
1000
AcadProxyRoundTripData
1071
      505
1071
   655383
1070
     0
  0
ACAD_PROXY_OBJECT
  5
1D74
102
{ACAD_REACTORS
330
1D72
102
}
330
1D72
100
AcDbProxyObject
 90
      499
 91
      510
 93
      484
310
43919B185D15DA5D1A115919D95CC010140901404333333333333E3BF0000000000000F9010740901411070040501600405405064090741402480A1B50
 94
        0
1001
ACAD
1000
AcDbSavedByObjectVersion
1070
     0
1000
AcadProxyRoundTripData
1071
      505
1071
   655383
1070
     0
  0
ACAD_PROXY_OBJECT
  5
1D75
102
{ACAD_REACTORS
330
1D72
102
}
330
1D72
100
AcDbProxyObject
 90
      499
 91
      510
 93
      420
310
4211DBDD5C985D590010240902404333333333333E3BF0000000000000F9010740A411070040501641D405064090741402480A1B50
 94
        0
1001
ACAD
1000
AcDbSavedByObjectVersion
1070
     0
1000
AcadProxyRoundTripData
1071
      505
1071
   655383
1070
     0
  0
ACAD_PROXY_OBJECT
  5
1D76
102
{ACAD_REACTORS
330
1D72
102
}
330
1D72
100
AcDbProxyObject
 90
      499
 91
      510
 93
      508
310
4451DBDD5C985D5915DA5D1A115919D95CC010340902404333333333333E3BF0000000000000F9010740901411070040501600405405064090741402480A1B50
 94
        0
1001
ACAD
1000
AcDbSavedByObjectVersion
1070
     0
1000
AcadProxyRoundTripData
1071
      505
1071
   655383
1070
     0
  0
ACAD_PROXY_OBJECT
  5
1D80
102
{ACAD_REACTORS
330
1D72
102
}
330
1D72
100
AcDbProxyObject
 90
      499
 91
      510
 93
      452
310
43131A5B995C185D1D195C9B8010E409028333333333333E3BF0000000000000FB010790141107004050750841D405064090741402483A0350
 94
        0
1001
ACAD
1000
AcDbSavedByObjectVersion
1070
     0
1000
AcadProxyRoundTripData
1071
      505
1071
   655383
1070
     0
  0
ACAD_PROXY_OBJECT
  5
1D7C
102
{ACAD_REACTORS
330
1D72
102
}
330
1D72
100
AcDbProxyObject
 90
      499
 91
      510
 93
      428
310
429499585B1A5CDD1A58C0108409028333333333333E3BF0000000000000FB01079019070040501508421405064090741402480A1B45
 94
        0
1001
ACAD
1000
AcDbSavedByObjectVersion
1070
     0
1000
AcadProxyRoundTripData
1071
      505
1071
   655383
1070
     0
  0
ACAD_PROXY_OBJECT
  5
1D7F
102
{ACAD_REACTORS
330
1D72
102
}
330
1D72
100
AcDbProxyObject
 90
      499
 91
      510
 93
      420
310
42151A1A58DAD95B8010D409028333333333333E3BF0000000000000FB010790141107004050150C41D405064090741402480A0352
 94
        0
1001
ACAD
1000
AcDbSavedByObjectVersion
1070
     0
1000
AcadProxyRoundTripData
1071
      505
1071
   655383
1070
     0
  0
XRECORD
  5
2B05
102
{ACAD_REACTORS
330
2AFB
102
}
330
2AFB
100
AcDbXrecord
 90
        0
  0
XRECORD
  5
2B09
102
{ACAD_REACTORS
330
2AFB
102
}
330
2AFB
100
AcDbXrecord
1000
DSTYLE
1002
{
1070
   179
 70
     2
1070
   277
 70
     6
1002
}
  0
XRECORD
  5
2B06
102
{ACAD_REACTORS
330
2AFB
102
}
330
2AFB
100
AcDbXrecord
  1
{6385560B-F4B1-4644-A7C2-A3E32AC3D232}
  0
XRECORD
  5
2AFE
102
{ACAD_REACTORS
330
2AFB
102
}
330
2AFB
100
AcDbXrecord
  1

  0
XRECORD
  5
2B04
102
{ACAD_REACTORS
330
2AFB
102
}
330
2AFB
100
AcDbXrecord
 90
        0
  0
XRECORD
  5
2B00
102
{ACAD_REACTORS
330
2AFB
102
}
330
2AFB
100
AcDbXrecord
340
61
  0
XRECORD
  5
2B03
102
{ACAD_REACTORS
330
2AFB
102
}
330
2AFB
100
AcDbXrecord
 90
    10781
  0
XRECORD
  5
2B01
102
{ACAD_REACTORS
330
2AFB
102
}
330
2AFB
100
AcDbXrecord
340
77
  0
XRECORD
  5
2B02
102
{ACAD_REACTORS
330
2AFB
102
}
330
2AFB
100
AcDbXrecord
340
6
  0
XRECORD
  5
2B08
102
{ACAD_REACTORS
330
2AFB
102
}
330
2AFB
100
AcDbXrecord
 40
0.0
  0
XRECORD
  5
2B0C
102
{ACAD_REACTORS
330
2AFB
102
}
330
2AFB
100
AcDbXrecord
340
0
  0
XRECORD
  5
2B12
102
{ACAD_REACTORS
330
2AFB
102
}
330
2AFB
100
AcDbXrecord
 10
0.0
 20
0.0
 30
0.0
  0
XRECORD
  5
2B0E
102
{ACAD_REACTORS
330
2AFB
102
}
330
2AFB
100
AcDbXrecord
 10
0.0
 20
0.0
 30
0.0
  0
XRECORD
  5
2B11
102
{ACAD_REACTORS
330
2AFB
102
}
330
2AFB
100
AcDbXrecord
 10
0.0
 20
0.0
 30
0.0
  0
XRECORD
  5
2B0F
102
{ACAD_REACTORS
330
2AFB
102
}
330
2AFB
100
AcDbXrecord
 10
0.0
 20
0.0
 30
0.0
  0
XRECORD
  5
2B10
102
{ACAD_REACTORS
330
2AFB
102
}
330
2AFB
100
AcDbXrecord
 10
0.0
 20
0.0
 30
0.0
  0
XRECORD
  5
2B0D
102
{ACAD_REACTORS
330
2AFB
102
}
330
2AFB
100
AcDbXrecord
 10
0.0
 20
0.0
 30
0.0
  0
XRECORD
  5
2B0A
102
{ACAD_REACTORS
330
2AFB
102
}
330
2AFB
100
AcDbXrecord
340
0
  0
XRECORD
  5
2B0B
102
{ACAD_REACTORS
330
2AFB
102
}
330
2AFB
100
AcDbXrecord
 70
     0
  0
XRECORD
  5
2AFF
102
{ACAD_REACTORS
330
2AFB
102
}
330
2AFB
100
AcDbXrecord
  1
Sekkei.ctb
  0
XRECORD
  5
2AFC
102
{ACAD_REACTORS
330
2AFB
102
}
330
2AFB
100
AcDbXrecord
 90
        1
  0
XRECORD
  5
2AFD
102
{ACAD_REACTORS
330
2AFB
102
}
330
2AFB
100
AcDbXrecord
 90
       70
  0
XRECORD
  5
2B15
102
{ACAD_REACTORS
330
2AFB
102
}
330
2AFB
100
AcDbXrecord
340
0
  0
XRECORD
  5
2B1B
102
{ACAD_REACTORS
330
2AFB
102
}
330
2AFB
100
AcDbXrecord
 10
0.0
 20
0.0
 30
0.0
  0
XRECORD
  5
2B17
102
{ACAD_REACTORS
330
2AFB
102
}
330
2AFB
100
AcDbXrecord
 10
0.0
 20
0.0
 30
0.0
  0
XRECORD
  5
2B1A
102
{ACAD_REACTORS
330
2AFB
102
}
330
2AFB
100
AcDbXrecord
 10
0.0
 20
0.0
 30
0.0
  0
XRECORD
  5
2B18
102
{ACAD_REACTORS
330
2AFB
102
}
330
2AFB
100
AcDbXrecord
 10
0.0
 20
0.0
 30
0.0
  0
XRECORD
  5
2B19
102
{ACAD_REACTORS
330
2AFB
102
}
330
2AFB
100
AcDbXrecord
 10
0.0
 20
0.0
 30
0.0
  0
XRECORD
  5
2B16
102
{ACAD_REACTORS
330
2AFB
102
}
330
2AFB
100
AcDbXrecord
 10
0.0
 20
0.0
 30
0.0
  0
XRECORD
  5
2B13
102
{ACAD_REACTORS
330
2AFB
102
}
330
2AFB
100
AcDbXrecord
340
0
  0
XRECORD
  5
2B14
102
{ACAD_REACTORS
330
2AFB
102
}
330
2AFB
100
AcDbXrecord
 70
     0
  0
XRECORD
  5
2B07
102
{ACAD_REACTORS
330
2AFB
102
}
330
2AFB
100
AcDbXrecord
  1
{C66DE9AE-40E0-4440-B396-F8E3734E5608}
  0
DICTIONARYVAR
  5
1E2B
102
{ACAD_REACTORS
330
102
102
}
330
102
100
DictionaryVariables
280
     0
  1
1:1
  0
DICTIONARYVAR
  5
1E2A
102
{ACAD_REACTORS
330
102
102
}
330
102
100
DictionaryVariables
280
     0
  1
STANDARD
  0
DICTIONARYVAR
  5
1E29
102
{ACAD_REACTORS
330
102
102
}
330
102
100
DictionaryVariables
280
     0
  1
STANDARD
  0
DICTIONARYVAR
  5
103
102
{ACAD_REACTORS
330
102
102
}
330
102
100
DictionaryVariables
280
     0
  1
1
  0
DICTIONARYVAR
  5
1E2C
102
{ACAD_REACTORS
330
102
102
}
330
102
100
DictionaryVariables
280
     0
  1
0
  0
DICTIONARYVAR
  5
549
102
{ACAD_REACTORS
330
102
102
}
330
102
100
DictionaryVariables
280
     0
  1
96
  0
DICTIONARY
  5
1D63
330
1D62
100
AcDbDictionary
280
     1
  3
ACAD_XREC_ROUNDTRIP
360
2ADA
  3
BUMPTILE
360
1D65
  3
DIFFUSETILE
360
1D64
  3
OPACITYTILE
360
1D68
  3
REFLECTIONTILE
360
1D67
  3
REFRACTIONTILE
360
1D69
  3
SPECULARTILE
360
1D66
  0
DICTIONARY
  5
1D5B
330
1D5A
100
AcDbDictionary
280
     1
  3
ACAD_XREC_ROUNDTRIP
360
2AD9
  3
BUMPTILE
360
1D5D
  3
DIFFUSETILE
360
1D5C
  3
OPACITYTILE
360
1D60
  3
REFLECTIONTILE
360
1D5F
  3
REFRACTIONTILE
360
1D61
  3
SPECULARTILE
360
1D5E
  0
DICTIONARY
  5
1D6B
330
1D6A
100
AcDbDictionary
280
     1
  3
ACAD_XREC_ROUNDTRIP
360
2ADB
  3
BUMPTILE
360
1D6D
  3
DIFFUSETILE
360
1D6C
  3
OPACITYTILE
360
1D70
  3
REFLECTIONTILE
360
1D6F
  3
REFRACTIONTILE
360
1D71
  3
SPECULARTILE
360
1D6E
  0
DICTIONARY
  5
1E08
330
1D85
100
AcDbDictionary
280
     1
  3
ACAD_ROUNDTRIP_2008_TABLES
360
2AC7
  3
ACAD_XREC_ROUNDTRIP
360
2ADC
  0
XRECORD
  5
2ADA
102
{ACAD_REACTORS
330
1D63
102
}
330
1D63
100
AcDbXrecord
102
MATERIAL
148
0.0
149
0.0
149
0.0
 93
        0
 94
      127
282
     0
 72
     0
 77
     0
171
     0
175
     0
179
     0
273
     0
  0
XRECORD
  5
1D65
102
{ACAD_REACTORS
330
1D63
102
}
330
1D63
100
AcDbXrecord
270
     1
271
     1
  0
XRECORD
  5
1D64
102
{ACAD_REACTORS
330
1D63
102
}
330
1D63
100
AcDbXrecord
270
     1
271
     1
  0
XRECORD
  5
1D68
102
{ACAD_REACTORS
330
1D63
102
}
330
1D63
100
AcDbXrecord
270
     1
271
     1
  0
XRECORD
  5
1D67
102
{ACAD_REACTORS
330
1D63
102
}
330
1D63
100
AcDbXrecord
270
     1
271
     1
  0
XRECORD
  5
1D69
102
{ACAD_REACTORS
330
1D63
102
}
330
1D63
100
AcDbXrecord
270
     1
271
     1
  0
XRECORD
  5
1D66
102
{ACAD_REACTORS
330
1D63
102
}
330
1D63
100
AcDbXrecord
270
     1
271
     1
  0
XRECORD
  5
2AD9
102
{ACAD_REACTORS
330
1D5B
102
}
330
1D5B
100
AcDbXrecord
102
MATERIAL
148
0.0
149
0.0
149
0.0
 93
        0
 94
      127
282
     0
 72
     0
 77
     0
171
     0
175
     0
179
     0
273
     0
  0
XRECORD
  5
1D5D
102
{ACAD_REACTORS
330
1D5B
102
}
330
1D5B
100
AcDbXrecord
270
     1
271
     1
  0
XRECORD
  5
1D5C
102
{ACAD_REACTORS
330
1D5B
102
}
330
1D5B
100
AcDbXrecord
270
     1
271
     1
  0
XRECORD
  5
1D60
102
{ACAD_REACTORS
330
1D5B
102
}
330
1D5B
100
AcDbXrecord
270
     1
271
     1
  0
XRECORD
  5
1D5F
102
{ACAD_REACTORS
330
1D5B
102
}
330
1D5B
100
AcDbXrecord
270
     1
271
     1
  0
XRECORD
  5
1D61
102
{ACAD_REACTORS
330
1D5B
102
}
330
1D5B
100
AcDbXrecord
270
     1
271
     1
  0
XRECORD
  5
1D5E
102
{ACAD_REACTORS
330
1D5B
102
}
330
1D5B
100
AcDbXrecord
270
     1
271
     1
  0
XRECORD
  5
2ADB
102
{ACAD_REACTORS
330
1D6B
102
}
330
1D6B
100
AcDbXrecord
102
MATERIAL
148
0.0
149
0.0
149
0.0
 93
        0
 94
      127
282
     0
 72
     0
 77
     0
171
     0
175
     0
179
     0
273
     0
  0
XRECORD
  5
1D6D
102
{ACAD_REACTORS
330
1D6B
102
}
330
1D6B
100
AcDbXrecord
270
     1
271
     1
  0
XRECORD
  5
1D6C
102
{ACAD_REACTORS
330
1D6B
102
}
330
1D6B
100
AcDbXrecord
270
     1
271
     1
  0
XRECORD
  5
1D70
102
{ACAD_REACTORS
330
1D6B
102
}
330
1D6B
100
AcDbXrecord
270
     1
271
     1
  0
XRECORD
  5
1D6F
102
{ACAD_REACTORS
330
1D6B
102
}
330
1D6B
100
AcDbXrecord
270
     1
271
     1
  0
XRECORD
  5
1D71
102
{ACAD_REACTORS
330
1D6B
102
}
330
1D6B
100
AcDbXrecord
270
     1
271
     1
  0
XRECORD
  5
1D6E
102
{ACAD_REACTORS
330
1D6B
102
}
330
1D6B
100
AcDbXrecord
270
     1
271
     1
  0
ACAD_PROXY_OBJECT
  5
2AC7
102
{ACAD_REACTORS
330
1E08
102
}
330
1E08
100
AcDbProxyObject
 90
      499
 91
      510
 93
     5304
310
40D054060020000020000003200101A000080002A5058000000C100000000000000340FD012E07A17AD46E2B8FCB81E85EB51B8AE3F2E07A17AD46E2B8FCB81E85EB51B8AE3F02B5E8DC0F42B1CFC0AD7A3703D0AC73F419019018000000C1003FBFFFFFE02B5E8DC0F42A9CFD029018000000C1003FBFFFFFE02B5E8DC0F4
310
2A9CFD049018000000C1003FBFFFFFE02B5E8DC0F42A9CFD089018000000C1003FBFFFFFE02B5E8DC0F42A9CFD109018000000C1003FBFFFFFE02B5E8DC0F42A9CFD209018000000C1003FBFFFFFE02B5E8DC0F42A9CFD01405075F5449544C450041501A8000000C800406800020000A9416000000304000AD7A3703D0AC7
310
3F404B81E85EB51B8AE3F2E07A17AD46E2B8FCB81E85EB51B8AE3F2E07A17AD46E2B8FC0AD7A3703D0AC73F02B5E8DC0F42B1CFD0640640600000030400FEFFFFFF80AD7A3703D0AA73F40A40600000030400FEFFFFFF80AD7A3703D0AA73F41240600000030400FEFFFFFF80AD7A3703D0AA73F42240600000030400FEFFF
310
FFF80AD7A3703D0AA73F44240600000030400FEFFFFFF80AD7A3703D0AA73F48240600000030400FEFFFFFF80AD7A3703D0AA73F409014217D2115051115480105406A0000003200101A000080002A5028000000C10002B5E8DC0F42B1CFD012E07A17AD46E2B8FCB81E85EB51B8AE3F2E07A17AD46E2B8FCB81E85EB51B8A
310
E3F02B5E8DC0F42B1CFC0AD7A3703D0AC73F419019018000000C1003FBFFFFFE02B5E8DC0F42A9CFD029018000000C1003FBFFFFFE02B5E8DC0F42A9CFD049018000000C1003FBFFFFFE02B5E8DC0F42A9CFD089018000000C1003FBFFFFFE02B5E8DC0F42A9CFD109018000000C1003FBFFFFFE02B5E8DC0F42A9CFD20901
310
8000000C1003FBFFFFFE02B5E8DC0F42A9CFD03409065F4441544100C1
340
16
340
0
340
0
340
0
340
0
340
0
340
0
340
16
340
0
340
0
340
0
340
0
340
0
340
0
340
16
340
0
340
0
340
0
340
0
340
0
340
0
 94
        0
1001
ACAD
1000
AcadProxyRoundTripData
1071
      509
1071
   655383
1070
     0
  0
XRECORD
  5
2ADC
102
{ACAD_REACTORS
330
1E08
102
}
330
1E08
100
AcDbXrecord
102
ACAD_ROUNDTRIP_PRE2007_TABLESTYLE
 90
      512
 91
        0
  1

 92
      512
 93
        0
  2

 94
      512
 95
        0
  3

  0
ENDSEC
  0
EOF
