  0
SECTION
  2
HEADER
  9
$ACADVER
  1
AC1014
  9
$ACADMAINTVER
 70
     9
  9
$DWGCODEPAGE
  3
ANSI_932
  9
$INSBASE
 10
0.0
 20
0.0
 30
0.0
  9
$EXTMIN
 10
39.64009703866327
 20
56.36043677942581
 30
0.0
  9
$EXTMAX
 10
999.0558314800464
 20
651.4831529424689
 30
0.0
  9
$LIMMIN
 10
0.0
 20
0.0
  9
$LIMMAX
 10
297.0
 20
210.0
  9
$ORTHOMODE
 70
     1
  9
$REGENMODE
 70
     1
  9
$FILLMODE
 70
     1
  9
$QTEXTMODE
 70
     0
  9
$MIRRTEXT
 70
     0
  9
$DRAGMODE
 70
     2
  9
$LTSCALE
 40
3.0
  9
$OSMODE
 70
    37
  9
$ATTMODE
 70
     1
  9
$TEXTSIZE
 40
2.0
  9
$TRACEWID
 40
1.0
  9
$TEXTSTYLE
  7
STANDARD
  9
$CLAYER
  8
0
  9
$CELTYPE
  6
BYLAYER
  9
$CECOLOR
 62
   256
  9
$CELTSCALE
 40
1.0
  9
$DELOBJ
 70
     1
  9
$DISPSILH
 70
     0
  9
$DIMSCALE
 40
3.0
  9
$DIMASZ
 40
1.8
  9
$DIMEXO
 40
0.625
  9
$DIMDLI
 40
3.75
  9
$DIMRND
 40
0.0
  9
$DIMDLE
 40
0.0
  9
$DIMEXE
 40
0.8
  9
$DIMTP
 40
0.0
  9
$DIMTM
 40
0.0
  9
$DIMTXT
 40
1.8
  9
$DIMCEN
 40
2.5
  9
$DIMTSZ
 40
0.0
  9
$DIMTOL
 70
     0
  9
$DIMLIM
 70
     0
  9
$DIMTIH
 70
     0
  9
$DIMTOH
 70
     0
  9
$DIMSE1
 70
     0
  9
$DIMSE2
 70
     0
  9
$DIMTAD
 70
     1
  9
$DIMZIN
 70
     8
  9
$DIMBLK
  1

  9
$DIMASO
 70
     1
  9
$DIMSHO
 70
     1
  9
$DIMPOST
  1

  9
$DIMAPOST
  1

  9
$DIMALT
 70
     0
  9
$DIMALTD
 70
     4
  9
$DIMALTF
 40
0.0394
  9
$DIMLFAC
 40
1.0
  9
$DIMTOFL
 70
     1
  9
$DIMTVP
 40
0.0
  9
$DIMTIX
 70
     0
  9
$DIMSOXD
 70
     0
  9
$DIMSAH
 70
     0
  9
$DIMBLK1
  1

  9
$DIMBLK2
  1

  9
$DIMSTYLE
  2
STANDARD
  9
$DIMCLRD
 70
     0
  9
$DIMCLRE
 70
     0
  9
$DIMCLRT
 70
     0
  9
$DIMTFAC
 40
1.0
  9
$DIMGAP
 40
0.75
  9
$DIMJUST
 70
     0
  9
$DIMSD1
 70
     0
  9
$DIMSD2
 70
     0
  9
$DIMTOLJ
 70
     1
  9
$DIMTZIN
 70
     0
  9
$DIMALTZ
 70
     0
  9
$DIMALTTZ
 70
     0
  9
$DIMFIT
 70
     3
  9
$DIMUPT
 70
     0
  9
$DIMUNIT
 70
     8
  9
$DIMDEC
 70
     2
  9
$DIMTDEC
 70
     2
  9
$DIMALTU
 70
     8
  9
$DIMALTTD
 70
     4
  9
$DIMTXSTY
  7
STANDARD
  9
$DIMAUNIT
 70
     0
  9
$LUNITS
 70
     2
  9
$LUPREC
 70
     3
  9
$SKETCHINC
 40
1.0
  9
$FILLETRAD
 40
10.0
  9
$AUNITS
 70
     0
  9
$AUPREC
 70
     2
  9
$MENU
  1
.
  9
$ELEVATION
 40
0.0
  9
$PELEVATION
 40
0.0
  9
$THICKNESS
 40
0.0
  9
$LIMCHECK
 70
     0
  9
$BLIPMODE
 70
     0
  9
$CHAMFERA
 40
0.0
  9
$CHAMFERB
 40
0.0
  9
$CHAMFERC
 40
20.0
  9
$CHAMFERD
 40
0.0
  9
$SKPOLY
 70
     0
  9
$TDCREATE
 40
2454411.594523646
  9
$TDUPDATE
 40
2454424.597938900
  9
$TDINDWG
 40
0.0121542245
  9
$TDUSRTIMER
 40
0.0121542245
  9
$USRTIMER
 70
     1
  9
$ANGBASE
 50
0.0
  9
$ANGDIR
 70
     0
  9
$PDMODE
 70
     0
  9
$PDSIZE
 40
-10.0
  9
$PLINEWID
 40
0.0
  9
$COORDS
 70
     0
  9
$SPLFRAME
 70
     0
  9
$SPLINETYPE
 70
     6
  9
$SPLINESEGS
 70
     8
  9
$ATTDIA
 70
     0
  9
$ATTREQ
 70
     1
  9
$HANDLING
 70
-16383
  9
$HANDSEED
  5
1EB4
  9
$SURFTAB1
 70
     6
  9
$SURFTAB2
 70
     6
  9
$SURFTYPE
 70
     6
  9
$SURFU
 70
     6
  9
$SURFV
 70
     6
  9
$UCSNAME
  2

  9
$UCSORG
 10
0.0
 20
0.0
 30
0.0
  9
$UCSXDIR
 10
1.0
 20
0.0
 30
0.0
  9
$UCSYDIR
 10
0.0
 20
1.0
 30
0.0
  9
$PUCSNAME
  2

  9
$PUCSORG
 10
0.0
 20
0.0
 30
0.0
  9
$PUCSXDIR
 10
1.0
 20
0.0
 30
0.0
  9
$PUCSYDIR
 10
0.0
 20
1.0
 30
0.0
  9
$USERI1
 70
     0
  9
$USERI2
 70
     0
  9
$USERI3
 70
     0
  9
$USERI4
 70
     0
  9
$USERI5
 70
     0
  9
$USERR1
 40
0.0
  9
$USERR2
 40
0.0
  9
$USERR3
 40
0.0
  9
$USERR4
 40
0.0
  9
$USERR5
 40
0.0
  9
$WORLDVIEW
 70
     1
  9
$SHADEDGE
 70
     3
  9
$SHADEDIF
 70
    70
  9
$TILEMODE
 70
     1
  9
$MAXACTVP
 70
    48
  9
$PINSBASE
 10
0.0
 20
0.0
 30
0.0
  9
$PLIMCHECK
 70
     0
  9
$PEXTMIN
 10
0.0
 20
0.0
 30
0.0
  9
$PEXTMAX
 10
0.0
 20
0.0
 30
0.0
  9
$PLIMMIN
 10
0.0
 20
0.0
  9
$PLIMMAX
 10
12.0
 20
9.0
  9
$UNITMODE
 70
     0
  9
$VISRETAIN
 70
     1
  9
$PLINEGEN
 70
     0
  9
$PSLTSCALE
 70
     1
  9
$TREEDEPTH
 70
  3020
  9
$PICKSTYLE
 70
     1
  9
$CMLSTYLE
  2
STANDARD
  9
$CMLJUST
 70
     0
  9
$CMLSCALE
 40
1.0
  9
$PROXYGRAPHICS
 70
     1
  9
$MEASUREMENT
 70
     0
  0
ENDSEC
  0
SECTION
  2
CLASSES
  0
CLASS
  1
DICTIONARYVAR
  2
AcDbDictionaryVar
  3
AutoCAD 2000
 90
        0
280
     0
281
     0
  0
CLASS
  1
ACDBDICTIONARYWDFLT
  2
AcDbDictionaryWithDefault
  3
AutoCAD 2000
 90
        0
280
     0
281
     0
  0
CLASS
  1
ACDBPLACEHOLDER
  2
AcDbPlaceHolder
  3
AutoCAD 2000
 90
        0
280
     0
281
     0
  0
CLASS
  1
LAYOUT
  2
AcDbLayout
  3
AutoCAD 2000
 90
        0
280
     0
281
     0
  0
CLASS
  1
MATERIAL
  2
AcDbMaterial
  3
ObjectDBX Classes
 90
     1153
280
     0
281
     0
  0
CLASS
  1
VISUALSTYLE
  2
AcDbVisualStyle
  3
ObjectDBX Classes
 90
     4095
280
     0
281
     0
  0
CLASS
  1
TABLESTYLE
  2
AcDbTableStyle
  3
ObjectDBX Classes
 90
     4095
280
     0
281
     0
  0
CLASS
  1
SCALE
  2
AcDbScale
  3
ObjectDBX Classes
 90
     1153
280
     0
281
     0
  0
CLASS
  1
MLEADERSTYLE
  2
AcDbMLeaderStyle
  3
ACDB_MLEADERSTYLE_CLASS
 90
     4095
280
     0
281
     0
  0
CLASS
  1
CELLSTYLEMAP
  2
AcDbCellStyleMap
  3
ObjectDBX Classes
 90
     1152
280
     0
281
     0
  0
CLASS
  1
ACAD_PROXY_OBJECT_WRAPPER
  2
AcDbProxyObjectWrapper
  3
AutoCAD 2000
 90
        0
280
     0
281
     0
  0
CLASS
  1
LONG_TRANSACTION
  2
AcDbLongTransaction
  3
AutoCAD 2000
 90
        0
280
     0
281
     0
  0
CLASS
  1
LWPOLYLINE
  2
AcDbPolyline
  3
AutoCAD 2000
 90
        0
280
     0
281
     1
  0
CLASS
  1
HATCH
  2
AcDbHatch
  3
AutoCAD 2000
 90
        0
280
     0
281
     1
  0
CLASS
  1
XRECORD
  2
AcDbXrecord
  3
AutoCAD 2000
 90
        0
280
     0
281
     0
  0
ENDSEC
  0
SECTION
  2
TABLES
  0
TABLE
  2
VPORT
  5
6E
102
{ACAD_XDICTIONARY
360
1E20
102
}
330
0
100
AcDbSymbolTable
 70
     2
  0
VPORT
  5
1E8E
330
6E
100
AcDbSymbolTableRecord
100
AcDbViewportTableRecord
  2
*ACTIVE
 70
     0
 10
0.0
 20
0.0
 11
1.0
 21
1.0
 12
584.5691047172875
 22
335.7372508137048
 13
0.0
 23
0.0
 14
10.0
 24
10.0
 15
10.0
 25
10.0
 16
0.0
 26
0.0
 36
1.0
 17
0.0
 27
0.0
 37
0.0
 40
636.4726398414925
 41
1.753504672897196
 42
50.0
 43
0.0
 44
0.0
 50
0.0
 51
0.0
 71
     0
 72
   100
 73
     1
 74
     3
 75
     0
 76
     0
 77
     0
 78
     0
  0
ENDTAB
  0
TABLE
  2
LTYPE
  5
69
330
0
100
AcDbSymbolTable
 70
     7
  0
LTYPE
  5
6A
330
69
100
AcDbSymbolTableRecord
100
AcDbLinetypeTableRecord
  2
BYBLOCK
 70
     0
  3

 72
    65
 73
     0
 40
0.0
  0
LTYPE
  5
6B
330
69
100
AcDbSymbolTableRecord
100
AcDbLinetypeTableRecord
  2
BYLAYER
 70
     0
  3

 72
    65
 73
     0
 40
0.0
  0
LTYPE
  5
8
330
69
100
AcDbSymbolTableRecord
100
AcDbLinetypeTableRecord
  2
CONTINUOUS
 70
     0
  3
Solid line
 72
    65
 73
     0
 40
0.0
  0
LTYPE
  5
27C
330
69
100
AcDbSymbolTableRecord
100
AcDbLinetypeTableRecord
  2
SEKKEI_A2_
 70
     0
  3
center(A2)  ____ _ ____ _ ____ _ ____ _ ____ _ 
 72
    65
 73
     4
 40
14.28749999999999
 49
9.525
 74
     0
 49
-1.587499999999999
 74
     0
 49
1.587499999999999
 74
     0
 49
-1.587499999999999
 74
     0
  0
LTYPE
  5
494
330
69
100
AcDbSymbolTableRecord
100
AcDbLinetypeTableRecord
  2
SEKKEI_P_S
 70
     0
  3
Phantom_S   __ _ _ __ _ _ __ _ _ ___
 72
    65
 73
     6
 40
7.5
 49
3.75
 74
     0
 49
-0.75
 74
     0
 49
0.75
 74
     0
 49
-0.75
 74
     0
 49
0.75
 74
     0
 49
-0.75
 74
     0
  0
LTYPE
  5
7EF
330
69
100
AcDbSymbolTableRecord
100
AcDbLinetypeTableRecord
  2
PHANTOM3
 70
     0
  3
Phantom  ___ _ _ ___ _ _ ___ _ _ ___ _ _
 72
    65
 73
     6
 40
9.0
 49
4.0
 74
     0
 49
-1.0
 74
     0
 49
1.0
 74
     0
 49
-1.0
 74
     0
 49
1.0
 74
     0
 49
-1.0
 74
     0
  0
LTYPE
  5
7F0
330
69
100
AcDbSymbolTableRecord
100
AcDbLinetypeTableRecord
  2
HIDDEN3
 70
     0
  3
Hidden (.3x) _ _ _ _ _ _ _ _ _ _ _ _ _ _ _ _ _
 72
    65
 73
     2
 40
2.857499999999999
 49
1.905
 74
     0
 49
-0.9525
 74
     0
  0
LTYPE
  5
AF5
330
69
100
AcDbSymbolTableRecord
100
AcDbLinetypeTableRecord
  2
CENS
 70
     0
  3
(一点鎖線１)---- - ---- - ---- - ---- - ---- - 
 72
    65
 73
     4
 40
7.0
 49
4.0
 74
     0
 49
-1.0
 74
     0
 49
1.0
 74
     0
 49
-1.0
 74
     0
  0
ENDTAB
  0
TABLE
  2
LAYER
  5
66
102
{ACAD_XDICTIONARY
360
AF6
102
}
330
0
100
AcDbSymbolTable
 70
    10
  0
LAYER
  5
5E
102
{ACAD_XDICTIONARY
360
1D8E
102
}
330
66
100
AcDbSymbolTableRecord
100
AcDbLayerTableRecord
  2
0
 70
     0
 62
     7
  6
CONTINUOUS
  0
LAYER
  5
3E
102
{ACAD_XDICTIONARY
360
1D90
102
}
330
66
100
AcDbSymbolTableRecord
100
AcDbLayerTableRecord
  2
CENTER
 70
     0
 62
     3
  6
SEKKEI_A2_
  0
LAYER
  5
2B5
102
{ACAD_XDICTIONARY
360
1D96
102
}
330
66
100
AcDbSymbolTableRecord
100
AcDbLayerTableRecord
  2
HIDS
 70
     0
 62
     1
  6
HIDDEN3
  0
LAYER
  5
2BA
102
{ACAD_XDICTIONARY
360
1D98
102
}
330
66
100
AcDbSymbolTableRecord
100
AcDbLayerTableRecord
  2
HOJO
 70
     0
 62
     4
  6
CONTINUOUS
  0
LAYER
  5
3FA
102
{ACAD_XDICTIONARY
360
1D9C
102
}
330
66
100
AcDbSymbolTableRecord
100
AcDbLayerTableRecord
  2
TITLE
 70
     0
 62
     4
  6
CONTINUOUS
  0
LAYER
  5
478
102
{ACAD_XDICTIONARY
360
1D9E
102
}
330
66
100
AcDbSymbolTableRecord
100
AcDbLayerTableRecord
  2
PHAS
 70
     0
 62
     2
  6
PHANTOM3
  0
ENDTAB
  0
TABLE
  2
STYLE
  5
67
330
0
100
AcDbSymbolTable
 70
     2
  0
STYLE
  5
16
330
67
100
AcDbSymbolTableRecord
100
AcDbTextStyleTableRecord
  2
STANDARD
 70
     0
 40
0.0
 41
1.0
 50
0.0
 71
     0
 42
2.0
  3
simplex.shx
  4
extfont.shx
  0
ENDTAB
  0
TABLE
  2
VIEW
  5
6C
330
0
100
AcDbSymbolTable
 70
     0
  0
ENDTAB
  0
TABLE
  2
UCS
  5
6D
330
0
100
AcDbSymbolTable
 70
     0
  0
ENDTAB
  0
TABLE
  2
APPID
  5
70
330
0
100
AcDbSymbolTable
 70
     3
  0
APPID
  5
71
330
70
100
AcDbSymbolTableRecord
100
AcDbRegAppTableRecord
  2
ACAD
 70
     0
  0
APPID
  5
1BBC
330
70
100
AcDbSymbolTableRecord
100
AcDbRegAppTableRecord
  2
ACAD_MLEADERVER
 70
     0
  0
APPID
  5
1E45
330
70
100
AcDbSymbolTableRecord
100
AcDbRegAppTableRecord
  2
ACAD_DSTYLE_DIMRADIAL_EXTENSION
 70
     0
  0
ENDTAB
  0
TABLE
  2
DIMSTYLE
  5
72
330
0
100
AcDbSymbolTable
 70
     1
  0
DIMSTYLE
105
73
330
72
100
AcDbSymbolTableRecord
100
AcDbDimStyleTableRecord
  2
STANDARD
 70
     0
  3

  4

  5

  6

  7

 40
3.0
 41
1.8
 42
0.625
 43
3.75
 44
0.8
 45
0.0
 46
0.0
 47
0.0
 48
0.0
140
1.8
141
2.5
142
0.0
143
0.0394
144
1.0
145
0.0
146
1.0
147
0.75
 71
     0
 72
     0
 73
     0
 74
     0
 75
     0
 76
     0
 77
     1
 78
     8
170
     0
171
     4
172
     1
173
     0
174
     0
175
     0
176
     0
177
     0
178
     0
270
     8
271
     2
272
     2
273
     8
274
     4
340
16
275
     0
280
     0
281
     0
282
     0
283
     1
284
     0
285
     0
286
     0
287
     3
288
     0
  0
ENDTAB
  0
TABLE
  2
BLOCK_RECORD
  5
1
330
0
100
AcDbSymbolTable
 70
    56
  0
BLOCK_RECORD
  5
2
102
{ACAD_XDICTIONARY
360
1EB0
102
}
330
1
100
AcDbSymbolTableRecord
100
AcDbBlockTableRecord
  2
*MODEL_SPACE
  0
BLOCK_RECORD
  5
1E89
102
{ACAD_XDICTIONARY
360
1EB2
102
}
330
1
100
AcDbSymbolTableRecord
100
AcDbBlockTableRecord
  2
*PAPER_SPACE
  0
ENDTAB
  0
ENDSEC
  0
SECTION
  2
BLOCKS
  0
BLOCK
  5
5D
330
2
100
AcDbEntity
  8
0
100
AcDbBlockBegin
  2
*MODEL_SPACE
 70
     0
 10
0.0
 20
0.0
 30
0.0
  3
*MODEL_SPACE
  1

  0
ENDBLK
  5
5F
330
2
100
AcDbEntity
  8
0
100
AcDbBlockEnd
  0
BLOCK
  5
1E8B
330
1E89
100
AcDbEntity
 67
     1
  8
0
100
AcDbBlockBegin
  2
*PAPER_SPACE
 70
     0
 10
0.0
 20
0.0
 30
0.0
  3
*PAPER_SPACE
  1

  0
ENDBLK
  5
1E8C
330
1E89
100
AcDbEntity
 67
     1
  8
0
100
AcDbBlockEnd
  0
ENDSEC
  0
SECTION
  2
ENTITIES
  0
LINE
  5
FDB
330
2
100
AcDbEntity
  8
CENTER
100
AcDbLine
 10
940.0558314800464
 20
392.0920511942448
 30
0.0
 11
940.0558314800459
 21
290.5254856935324
 31
0.0
  0
LINE
  5
FDC
330
2
100
AcDbEntity
  8
0
100
AcDbLine
 10
902.0558314800473
 20
376.3102228890137
 30
0.0
 11
902.0558314800473
 21
306.3102228890136
 31
0.0
  0
LINE
  5
FDD
330
2
100
AcDbEntity
  8
0
100
AcDbLine
 10
907.0558314800468
 20
381.8040645571498
 30
0.0
 11
907.0558314800473
 21
300.8134723306273
 31
0.0
  0
LINE
  5
FDE
330
2
100
AcDbEntity
  8
0
100
AcDbLine
 10
907.0558314800464
 20
306.3102228890136
 30
0.0
 11
902.0558314800464
 21
306.3102228890136
 31
0.0
  0
LINE
  5
FDF
330
2
100
AcDbEntity
  8
CENTER
100
AcDbLine
 10
245.6400970386634
 20
341.3102228890136
 30
0.0
 11
39.64009703866327
 21
341.3102228890136
 31
0.0
  0
LINE
  5
FE0
330
2
100
AcDbEntity
  8
CENTER
100
AcDbLine
 10
194.6400970386639
 20
290.3102228890137
 30
0.0
 11
194.6400970386639
 21
392.3102228890137
 31
0.0
  0
LINE
  5
FE1
330
2
100
AcDbEntity
  8
CENTER
100
AcDbLine
 10
590.2867840229228
 20
651.4831529424689
 30
0.0
 11
590.2867840229219
 21
518.4831529424688
 31
0.0
  0
LINE
  5
FE2
330
2
100
AcDbEntity
  8
CENTER
100
AcDbLine
 10
531.2867840229219
 20
341.3102228890136
 30
0.0
 11
745.2867840229195
 21
341.3102228890136
 31
0.0
  0
LINE
  5
FE3
330
2
100
AcDbEntity
  8
CENTER
100
AcDbLine
 10
539.5049557176912
 20
592.4831529424689
 30
0.0
 11
745.2867840229195
 21
592.4831529424686
 31
0.0
  0
CIRCLE
  5
FE4
330
2
100
AcDbEntity
  8
CENTER
100
AcDbCircle
 10
590.2867840229219
 20
341.3102228890136
 30
0.0
 40
49.0
  0
LINE
  5
FE5
330
2
100
AcDbEntity
  8
CENTER
100
AcDbLine
 10
545.8015026486832
 20
385.7955042632523
 30
0.0
 11
634.7720653971614
 21
296.824941514775
 31
0.0
  0
LINE
  5
FE6
330
2
100
AcDbEntity
  8
CENTER
100
AcDbLine
 10
634.7720653971614
 20
385.7955042632521
 30
0.0
 11
545.8015026486832
 21
296.824941514775
 31
0.0
  0
LINE
  5
FE7
330
2
100
AcDbEntity
  8
CENTER
100
AcDbLine
 10
590.2867840229219
 20
282.3102228890137
 30
0.0
 11
590.2867840229219
 21
400.3102228890137
 31
0.0
  0
CIRCLE
  5
FE8
330
2
100
AcDbEntity
  8
HOJO
100
AcDbCircle
 10
555.6385517447811
 20
306.6619906108724
 30
0.0
 40
3.0
  0
CIRCLE
  5
FE9
330
2
100
AcDbEntity
  8
HOJO
100
AcDbCircle
 10
624.9350163010631
 20
306.6619906108724
 30
0.0
 40
3.0
  0
CIRCLE
  5
FEA
330
2
100
AcDbEntity
  8
HOJO
100
AcDbCircle
 10
555.6385517447815
 20
375.9584551671549
 30
0.0
 40
3.0
  0
CIRCLE
  5
FEB
330
2
100
AcDbEntity
  8
HOJO
100
AcDbCircle
 10
624.9350163010631
 20
375.9584551671549
 30
0.0
 40
3.0
  0
LINE
  5
FEC
330
2
100
AcDbEntity
  8
0
100
AcDbLine
 10
907.0558314800464
 20
376.3102228890137
 30
0.0
 11
902.0558314800464
 21
376.3102228890137
 31
0.0
  0
LINE
  5
FED
330
2
100
AcDbEntity
  8
0
100
AcDbLine
 10
965.0558314800473
 20
382.3102228890137
 30
0.0
 11
965.0558314800473
 21
372.4069970825628
 31
0.0
  0
LINE
  5
FEE
330
2
100
AcDbEntity
  8
0
100
AcDbLine
 10
965.0558314800473
 20
382.3102228890137
 30
0.0
 11
907.0558314800468
 21
381.8040645571498
 31
0.0
  0
LINE
  5
FEF
330
2
100
AcDbEntity
  8
0
100
AcDbLine
 10
965.0558314800473
 20
300.3073139987634
 30
0.0
 11
907.0558314800473
 21
300.8134723306273
 31
0.0
  0
LINE
  5
FF0
330
2
100
AcDbEntity
  8
0
100
AcDbLine
 10
965.0558314800473
 20
310.2134486954663
 30
0.0
 11
965.0558314800473
 21
300.3073139987634
 31
0.0
  0
LINE
  5
FF1
330
2
100
AcDbEntity
  8
CENTER
100
AcDbLine
 10
548.6385517447815
 20
375.9584551671549
 30
0.0
 11
562.6385517447816
 21
375.9584551671549
 31
0.0
  0
LINE
  5
FF2
330
2
100
AcDbEntity
  8
CENTER
100
AcDbLine
 10
555.6385517447815
 20
382.9584551671548
 30
0.0
 11
555.6385517447811
 21
368.9584551671549
 31
0.0
  0
LINE
  5
FF3
330
2
100
AcDbEntity
  8
CENTER
100
AcDbLine
 10
555.6385517447815
 20
299.6619906108724
 30
0.0
 11
555.6385517447815
 21
313.6619906108724
 31
0.0
  0
LINE
  5
FF4
330
2
100
AcDbEntity
  8
CENTER
100
AcDbLine
 10
548.6385517447815
 20
306.6619906108724
 30
0.0
 11
562.6385517447816
 21
306.6619906108724
 31
0.0
  0
LINE
  5
FF5
330
2
100
AcDbEntity
  8
CENTER
100
AcDbLine
 10
631.9350163010631
 20
306.6619906108724
 30
0.0
 11
617.9350163010631
 21
306.6619906108724
 31
0.0
  0
LINE
  5
FF6
330
2
100
AcDbEntity
  8
CENTER
100
AcDbLine
 10
624.9350163010631
 20
299.6619906108724
 30
0.0
 11
624.9350163010631
 21
313.6619906108724
 31
0.0
  0
LINE
  5
FF7
330
2
100
AcDbEntity
  8
CENTER
100
AcDbLine
 10
624.9350163010631
 20
382.9584551671548
 30
0.0
 11
624.9350163010631
 21
368.9584551671549
 31
0.0
  0
LINE
  5
FF8
330
2
100
AcDbEntity
  8
CENTER
100
AcDbLine
 10
631.9350163010631
 20
375.9584551671549
 30
0.0
 11
617.9350163010631
 21
375.9584551671549
 31
0.0
  0
LINE
  5
FF9
330
2
100
AcDbEntity
  8
0
100
AcDbLine
 10
658.2867840229227
 20
373.3102228890154
 30
0.0
 11
635.2867840229219
 21
373.3102228890173
 31
0.0
  0
LINE
  5
FFA
330
2
100
AcDbEntity
  8
0
100
AcDbLine
 10
658.2867840229233
 20
309.31022288901
 30
0.0
 11
635.2867840229223
 21
309.3102228890082
 31
0.0
  0
CIRCLE
  5
FFB
330
2
100
AcDbEntity
  8
0
100
AcDbCircle
 10
590.2867840229236
 20
341.3102228890136
 30
0.0
 40
28.0
  0
CIRCLE
  5
FFC
330
2
100
AcDbEntity
  8
0
100
AcDbCircle
 10
590.2867840229228
 20
341.3102228890136
 30
0.0
 40
35.00000000000011
  0
CIRCLE
  5
FFD
330
2
100
AcDbEntity
  8
0
100
AcDbCircle
 10
590.2867840229223
 20
341.3102228890136
 30
0.0
 40
23.0
  0
CIRCLE
  5
FFE
330
2
100
AcDbEntity
  8
0
100
AcDbCircle
 10
555.6385517447815
 20
306.6619906108724
 30
0.0
 40
2.399999999999999
  0
CIRCLE
  5
FFF
330
2
100
AcDbEntity
  8
HOJO
100
AcDbCircle
 10
555.6385517447815
 20
306.6619906108724
 30
0.0
 40
3.0
  0
CIRCLE
  5
1000
330
2
100
AcDbEntity
  8
0
100
AcDbCircle
 10
555.6385517447815
 20
375.958455167153
 30
0.0
 40
2.399999999999999
  0
CIRCLE
  5
1001
330
2
100
AcDbEntity
  8
HOJO
100
AcDbCircle
 10
555.6385517447815
 20
375.958455167153
 30
0.0
 40
3.0
  0
LINE
  5
1002
330
2
100
AcDbEntity
  8
0
100
AcDbLine
 10
631.2867840229228
 20
305.3102228890082
 30
0.0
 11
631.2867840229228
 21
377.3102228890136
 31
0.0
  0
CIRCLE
  5
1003
330
2
100
AcDbEntity
  8
0
100
AcDbCircle
 10
624.9350163010631
 20
306.6619906108724
 30
0.0
 40
2.399999999999999
  0
CIRCLE
  5
1004
330
2
100
AcDbEntity
  8
HOJO
100
AcDbCircle
 10
624.9350163010631
 20
306.6619906108724
 30
0.0
 40
3.0
  0
ARC
  5
1005
330
2
100
AcDbEntity
  8
0
100
AcDbCircle
 10
626.2867840229228
 20
305.3102228890137
 30
0.0
 40
5.0
100
AcDbArc
 50
270.0
 51
0.0
  0
CIRCLE
  5
1006
330
2
100
AcDbEntity
  8
0
100
AcDbCircle
 10
624.9350163010631
 20
375.958455167153
 30
0.0
 40
2.399999999999999
  0
CIRCLE
  5
1007
330
2
100
AcDbEntity
  8
HOJO
100
AcDbCircle
 10
624.9350163010631
 20
375.958455167153
 30
0.0
 40
3.0
  0
ARC
  5
1008
330
2
100
AcDbEntity
  8
0
100
AcDbCircle
 10
626.2867840229223
 20
377.3102228890136
 30
0.0
 40
5.0
100
AcDbArc
 50
0.0
 51
90.0
  0
LINE
  5
1009
330
2
100
AcDbEntity
  8
0
100
AcDbLine
 10
689.2867840229191
 20
311.8102228890136
 30
0.0
 11
689.2867840229191
 21
370.8102228890136
 31
0.0
  0
LINE
  5
100A
330
2
100
AcDbEntity
  8
0
100
AcDbLine
 10
664.2867840229223
 20
367.3102228890154
 30
0.0
 11
664.2867840229228
 21
315.31022288901
 31
0.0
  0
LINE
  5
100B
330
2
100
AcDbEntity
  8
0
100
AcDbLine
 10
697.2867840229191
 20
372.8102228890136
 30
0.0
 11
697.2867840229191
 21
309.8102228890136
 31
0.0
  0
LINE
  5
100C
330
2
100
AcDbEntity
  8
0
100
AcDbLine
 10
697.2867840229191
 20
310.3102228890136
 30
0.0
 11
691.2867840229191
 21
310.3102228890136
 31
0.0
  0
ARC
  5
100D
330
2
100
AcDbEntity
  8
0
100
AcDbCircle
 10
658.2867840229227
 20
315.31022288901
 30
0.0
 40
6.0
100
AcDbArc
 50
270.0
 51
0.0
  0
ARC
  5
100E
330
2
100
AcDbEntity
  8
0
100
AcDbCircle
 10
691.2867840229191
 20
312.3102228890136
 30
0.0
 40
2.0
100
AcDbArc
 50
180.0
 51
270.0
  0
LINE
  5
100F
330
2
100
AcDbEntity
  8
0
100
AcDbLine
 10
691.2867840229191
 20
372.3102228890136
 30
0.0
 11
697.2867840229191
 21
372.3102228890136
 31
0.0
  0
ARC
  5
1010
330
2
100
AcDbEntity
  8
0
100
AcDbCircle
 10
658.2867840229223
 20
367.3102228890154
 30
0.0
 40
6.0
100
AcDbArc
 50
0.0
 51
89.99999999997395
  0
ARC
  5
1011
330
2
100
AcDbEntity
  8
0
100
AcDbCircle
 10
691.2867840229191
 20
370.3102228890136
 30
0.0
 40
2.0
100
AcDbArc
 50
90.0
 51
180.0
  0
LINE
  5
1012
330
2
100
AcDbEntity
  8
0
100
AcDbLine
 10
555.2867840229228
 20
554.4831529424707
 30
0.0
 11
559.9980533006806
 21
554.4831529424707
 31
0.0
  0
LINE
  5
1013
330
2
100
AcDbEntity
  8
0
100
AcDbLine
 10
555.2867840229223
 20
554.4831529424689
 30
0.0
 11
625.2867840229223
 21
554.4831529424689
 31
0.0
  0
LINE
  5
1014
330
2
100
AcDbEntity
  8
0
100
AcDbLine
 10
549.7929423547866
 20
559.4831529424689
 30
0.0
 11
630.7762622571622
 21
559.4831529424689
 31
0.0
  0
LINE
  5
1015
330
2
100
AcDbEntity
  8
0
100
AcDbLine
 10
549.2867840229223
 20
617.4831529424689
 30
0.0
 11
549.7929423547866
 21
559.4831529424689
 31
0.0
  0
LINE
  5
1016
330
2
100
AcDbEntity
  8
0
100
AcDbLine
 10
555.2867840229223
 20
559.4831529424689
 30
0.0
 11
555.2867840229223
 21
554.4831529424689
 31
0.0
  0
LINE
  5
1017
330
2
100
AcDbEntity
  8
0
100
AcDbLine
 10
697.286784019896
 20
623.4831529424688
 30
0.0
 11
697.286784019896
 21
561.483152942467
 31
0.0
  0
LINE
  5
1018
330
2
100
AcDbEntity
  8
0
100
AcDbLine
 10
697.286784019896
 20
623.4831529424688
 30
0.0
 11
697.286784019896
 21
561.4831529424689
 31
0.0
  0
LINE
  5
1019
330
2
100
AcDbEntity
  8
0
100
AcDbLine
 10
625.2867840229228
 20
554.4831529424707
 30
0.0
 11
620.575514745165
 21
554.4831529424707
 31
0.0
  0
LINE
  5
101A
330
2
100
AcDbEntity
  8
0
100
AcDbLine
 10
662.251800394988
 20
561.483152942467
 30
0.0
 11
632.2806828086359
 21
561.4831529424634
 31
0.0
  0
LINE
  5
101B
330
2
100
AcDbEntity
  8
0
100
AcDbLine
 10
625.2867840229223
 20
559.4831529424689
 30
0.0
 11
625.2867840229223
 21
554.4831529424689
 31
0.0
  0
LINE
  5
101C
330
2
100
AcDbEntity
  8
0
100
AcDbLine
 10
87.64009703866349
 20
310.3102228890136
 30
0.0
 11
93.64009703866349
 21
310.3102228890136
 31
0.0
  0
LINE
  5
101D
330
2
100
AcDbEntity
  8
0
100
AcDbLine
 10
93.64009703866395
 20
372.3102228890136
 30
0.0
 11
87.64009703866395
 21
372.3102228890136
 31
0.0
  0
LINE
  5
101E
330
2
100
AcDbEntity
  8
0
100
AcDbLine
 10
95.6400970386635
 20
311.8102228890136
 30
0.0
 11
95.64009703866394
 21
370.8102228890136
 31
0.0
  0
ARC
  5
101F
330
2
100
AcDbEntity
  8
0
100
AcDbCircle
 10
93.64009703866395
 20
370.3102228890136
 30
0.0
 40
2.0
100
AcDbArc
 50
0.0
 51
89.99999999997395
  0
ARC
  5
1020
330
2
100
AcDbEntity
  8
0
100
AcDbCircle
 10
93.64009703866349
 20
312.3102228890136
 30
0.0
 40
2.0
100
AcDbArc
 50
270.0
 51
0.0
  0
LINE
  5
1021
330
2
100
AcDbEntity
  8
0
100
AcDbLine
 10
87.64009703866349
 20
310.3102228890136
 30
0.0
 11
87.64009703866349
 21
372.3102228890136
 31
0.0
  0
LINE
  5
1022
330
2
100
AcDbEntity
  8
0
100
AcDbLine
 10
87.64009703866395
 20
309.8102228890136
 30
0.0
 11
87.64009703866349
 21
372.8102228890136
 31
0.0
  0
ARC
  5
1023
330
2
100
AcDbEntity
  8
0
100
AcDbCircle
 10
567.6907405827328
 20
421.091014200975
 30
0.0
 40
40.0
100
AcDbArc
 50
256.63232579737
 51
276.1769964048646
  0
ARC
  5
1024
330
2
100
AcDbEntity
  8
0
100
AcDbCircle
 10
557.2867840229223
 20
377.3102228890136
 30
0.0
 40
5.0
100
AcDbArc
 50
76.63232579736996
 51
90.0
  0
LINE
  5
1025
330
2
100
AcDbEntity
  8
0
100
AcDbLine
 10
554.2867840229218
 20
382.3102228890137
 30
0.0
 11
557.2867840229223
 21
382.3102228890137
 31
0.0
  0
ARC
  5
1026
330
2
100
AcDbEntity
  8
0
100
AcDbCircle
 10
590.2867840229223
 20
212.3102228890136
 30
0.0
 40
170.0
100
AcDbArc
 50
83.82300359513532
 51
96.17699640486467
  0
ARC
  5
1027
330
2
100
AcDbEntity
  8
0
100
AcDbCircle
 10
612.8828274631114
 20
421.091014200975
 30
0.0
 40
40.0
100
AcDbArc
 50
263.8230035951353
 51
283.3676742026299
  0
LINE
  5
1028
330
2
100
AcDbEntity
  8
0
100
AcDbLine
 10
626.2867840229223
 20
382.3102228890137
 30
0.0
 11
623.2867840229219
 21
382.3102228890137
 31
0.0
  0
ARC
  5
1029
330
2
100
AcDbEntity
  8
0
100
AcDbCircle
 10
623.2867840229219
 20
377.3102228890136
 30
0.0
 40
5.0
100
AcDbArc
 50
90.0
 51
103.36767420263
  0
ARC
  5
102A
330
2
100
AcDbEntity
  8
0
100
AcDbCircle
 10
554.2867840229218
 20
377.3102228890136
 30
0.0
 40
5.0
100
AcDbArc
 50
90.0
 51
180.0
  0
ARC
  5
102B
330
2
100
AcDbEntity
  8
0
100
AcDbCircle
 10
510.5059927109605
 20
363.9062663292032
 30
0.0
 40
40.0
100
AcDbArc
 50
353.8230035951091
 51
13.36767420262995
  0
ARC
  5
102C
330
2
100
AcDbEntity
  8
0
100
AcDbCircle
 10
510.5059927109591
 20
318.7141794488259
 30
0.0
 40
40.0
100
AcDbArc
 50
346.63232579737
 51
6.176996404890894
  0
ARC
  5
102D
330
2
100
AcDbEntity
  8
0
100
AcDbCircle
 10
554.2867840229209
 20
308.3102228890136
 30
0.0
 40
5.0
100
AcDbArc
 50
166.63232579737
 51
180.0
  0
LINE
  5
102E
330
2
100
AcDbEntity
  8
0
100
AcDbLine
 10
549.286784022921
 20
305.3102228890137
 30
0.0
 11
549.286784022921
 21
308.3102228890136
 31
0.0
  0
ARC
  5
102F
330
2
100
AcDbEntity
  8
0
100
AcDbCircle
 10
719.2867840229219
 20
341.3102228890118
 30
0.0
 40
170.0
100
AcDbArc
 50
173.823003595109
 51
186.1769964048908
  0
LINE
  5
1030
330
2
100
AcDbEntity
  8
0
100
AcDbLine
 10
549.2867840229223
 20
377.3102228890136
 30
0.0
 11
549.2867840229223
 21
374.3102228890136
 31
0.0
  0
ARC
  5
1031
330
2
100
AcDbEntity
  8
0
100
AcDbCircle
 10
554.2867840229223
 20
374.3102228890136
 30
0.0
 40
5.0
100
AcDbArc
 50
180.0
 51
193.3676742026299
  0
ARC
  5
1032
330
2
100
AcDbEntity
  8
0
100
AcDbCircle
 10
554.2867840229218
 20
305.3102228890137
 30
0.0
 40
5.0
100
AcDbArc
 50
180.0
 51
270.0
  0
LINE
  5
1033
330
2
100
AcDbEntity
  8
0
100
AcDbLine
 10
554.2867840229218
 20
300.3102228890136
 30
0.0
 11
557.2867840229223
 21
300.3102228890136
 31
0.0
  0
ARC
  5
1034
330
2
100
AcDbEntity
  8
0
100
AcDbCircle
 10
567.6907405827328
 20
261.5294315770523
 30
0.0
 40
40.0
100
AcDbArc
 50
83.82300359513532
 51
103.36767420263
  0
ARC
  5
1035
330
2
100
AcDbEntity
  8
0
100
AcDbCircle
 10
557.2867840229223
 20
305.3102228890137
 30
0.0
 40
5.0
100
AcDbArc
 50
270.0
 51
283.3676742026299
  0
ARC
  5
1036
330
2
100
AcDbEntity
  8
0
100
AcDbCircle
 10
590.2867840229223
 20
470.3102228890137
 30
0.0
 40
170.0
100
AcDbArc
 50
263.8230035951353
 51
276.1769964048646
  0
ARC
  5
1037
330
2
100
AcDbEntity
  8
0
100
AcDbCircle
 10
612.8828274631114
 20
261.5294315770523
 30
0.0
 40
40.0
100
AcDbArc
 50
76.63232579736996
 51
96.17699640486467
  0
ARC
  5
1038
330
2
100
AcDbEntity
  8
0
100
AcDbCircle
 10
623.2867840229223
 20
305.3102228890137
 30
0.0
 40
5.0
100
AcDbArc
 50
256.63232579737
 51
270.0
  0
LINE
  5
1039
330
2
100
AcDbEntity
  8
0
100
AcDbLine
 10
626.2867840229223
 20
300.3102228890136
 30
0.0
 11
623.2867840229223
 21
300.3102228890136
 31
0.0
  0
LINE
  5
103A
330
2
100
AcDbEntity
  8
0
100
AcDbLine
 10
965.0558314800473
 20
382.3102228890137
 30
0.0
 11
965.0558314800473
 21
372.4069970825628
 31
0.0
  0
LINE
  5
103B
330
2
100
AcDbEntity
  8
0
100
AcDbLine
 10
965.0558314800473
 20
310.2134486954663
 30
0.0
 11
965.0558314800473
 21
300.3073139987634
 31
0.0
  0
ARC
  5
103C
330
2
100
AcDbEntity
  8
0
100
AcDbCircle
 10
635.2867840229228
 20
377.3102228890173
 30
0.0
 40
4.0
100
AcDbArc
 50
180.0
 51
270.0
  0
ARC
  5
103D
330
2
100
AcDbEntity
  8
0
100
AcDbCircle
 10
635.2867840229228
 20
305.3102228890082
 30
0.0
 40
4.0
100
AcDbArc
 50
90.0
 51
180.0
  0
ARC
  5
103E
330
2
100
AcDbEntity
  8
0
100
AcDbCircle
 10
900.0558314800473
 20
310.9248753360069
 30
0.0
 40
2.0
100
AcDbArc
 50
0.0
 51
87.99999999999636
  0
ARC
  5
103F
330
2
100
AcDbEntity
  8
0
100
AcDbCircle
 10
891.0558314800468
 20
315.2416004386275
 30
0.0
 40
2.0
100
AcDbArc
 50
180.0
 51
267.9999999999963
  0
ARC
  5
1040
330
2
100
AcDbEntity
  8
0
100
AcDbCircle
 10
900.0558314800473
 20
371.6955704420186
 30
0.0
 40
2.0
100
AcDbArc
 50
272.0000000000036
 51
0.0
  0
ARC
  5
1041
330
2
100
AcDbEntity
  8
0
100
AcDbCircle
 10
891.0558314800464
 20
367.3788453393979
 30
0.0
 40
2.0
100
AcDbArc
 50
92.00000000000365
 51
180.0
  0
LINE
  5
1042
330
2
100
AcDbEntity
  8
0
100
AcDbLine
 10
890.9860324866418
 20
313.2428187845897
 30
0.0
 11
900.1256304734525
 21
312.9236569900447
 31
0.0
  0
LINE
  5
1043
330
2
100
AcDbEntity
  8
0
100
AcDbLine
 10
890.9860324866412
 20
369.3776269934358
 30
0.0
 11
900.1256304734525
 21
369.6967887879807
 31
0.0
  0
LINE
  5
1044
330
2
100
AcDbEntity
  8
0
100
AcDbLine
 10
889.0558314800459
 20
367.3788453393979
 30
0.0
 11
889.0558314800474
 21
315.2416004386275
 31
0.0
  0
ARC
  5
1045
330
2
100
AcDbEntity
  8
0
100
AcDbCircle
 10
620.6721315759287
 20
552.4831529424688
 30
0.0
 40
2.0
100
AcDbArc
 50
90.0
 51
177.9999999999963
  0
ARC
  5
1046
330
2
100
AcDbEntity
  8
0
100
AcDbCircle
 10
616.355406473307
 20
543.4831529424688
 30
0.0
 40
2.0
100
AcDbArc
 50
270.0
 51
357.9999999999963
  0
ARC
  5
1047
330
2
100
AcDbEntity
  8
0
100
AcDbCircle
 10
559.901436469916
 20
552.4831529424688
 30
0.0
 40
2.0
100
AcDbArc
 50
2.000000000003654
 51
90.0
  0
ARC
  5
1048
330
2
100
AcDbEntity
  8
0
100
AcDbCircle
 10
564.2181615725376
 20
543.4831529424688
 30
0.0
 40
2.0
100
AcDbArc
 50
182.0000000000036
 51
270.0
  0
LINE
  5
1049
330
2
100
AcDbEntity
  8
0
100
AcDbLine
 10
618.3541881273458
 20
543.4133539490638
 30
0.0
 11
618.6733499218908
 21
552.552951935874
 31
0.0
  0
LINE
  5
104A
330
2
100
AcDbEntity
  8
0
100
AcDbLine
 10
562.2193799184997
 20
543.4133539490638
 30
0.0
 11
561.9002181239538
 21
552.552951935874
 31
0.0
  0
LINE
  5
104B
330
2
100
AcDbEntity
  8
0
100
AcDbLine
 10
564.2181615725376
 20
541.483152942467
 30
0.0
 11
616.355406473307
 21
541.4831529424689
 31
0.0
  0
ARC
  5
104C
330
2
100
AcDbEntity
  8
0
100
AcDbCircle
 10
118.6400970386539
 20
366.3102228890227
 30
0.0
 40
2.0
100
AcDbArc
 50
270.0
 51
0.0
  0
ARC
  5
104D
330
2
100
AcDbEntity
  8
0
100
AcDbCircle
 10
118.6400970386539
 20
316.3102228890227
 30
0.0
 40
2.0
100
AcDbArc
 50
0.0
 51
90.0
  0
LINE
  5
104E
330
2
100
AcDbEntity
  8
0
100
AcDbLine
 10
117.6400970386539
 20
338.8102228890228
 30
0.0
 11
110.1270040759372
 21
338.8102228890228
 31
0.0
  0
LINE
  5
104F
330
2
100
AcDbEntity
  8
0
100
AcDbLine
 10
117.6400970386539
 20
343.8102228890227
 30
0.0
 11
110.1270040759372
 21
343.8102228890227
 31
0.0
  0
ARC
  5
1050
330
2
100
AcDbEntity
  8
0
100
AcDbCircle
 10
108.1270040759372
 20
366.3102228890227
 30
0.0
 40
2.0
100
AcDbArc
 50
216.8698976458701
 51
270.0
  0
LINE
  5
1051
330
2
100
AcDbEntity
  8
0
100
AcDbLine
 10
118.6924582434667
 20
364.3102228890227
 30
0.0
 11
108.1270040759372
 21
364.3102228890227
 31
0.0
  0
LINE
  5
1052
330
2
100
AcDbEntity
  8
0
100
AcDbLine
 10
115.6400970386639
 20
322.3102228890228
 30
0.0
 11
111.8729707683523
 21
322.3102228890228
 31
0.0
  0
ARC
  5
1053
330
2
100
AcDbEntity
  8
0
100
AcDbCircle
 10
108.1270040759372
 20
316.3102228890227
 30
0.0
 40
2.0
100
AcDbArc
 50
90.0
 51
143.1301023541299
  0
LINE
  5
1054
330
2
100
AcDbEntity
  8
0
100
AcDbLine
 10
118.6400970386539
 20
318.3102228890227
 30
0.0
 11
108.1270040759372
 21
318.3102228890227
 31
0.0
  0
LINE
  5
1055
330
2
100
AcDbEntity
  8
0
100
AcDbLine
 10
104.1270040759372
 20
366.3102228890227
 30
0.0
 11
100.6222170605474
 21
366.3102228890227
 31
0.0
  0
ARC
  5
1056
330
2
100
AcDbEntity
  8
0
100
AcDbCircle
 10
104.1270040759372
 20
363.3102228890209
 30
0.0
 40
3.0
100
AcDbArc
 50
0.0
 51
90.0
  0
LINE
  5
1057
330
2
100
AcDbEntity
  8
0
100
AcDbLine
 10
104.1270040759372
 20
316.3102228890227
 30
0.0
 11
100.6222170605487
 21
316.3102228890227
 31
0.0
  0
ARC
  5
1058
330
2
100
AcDbEntity
  8
0
100
AcDbCircle
 10
104.1270040759372
 20
319.3102228890227
 30
0.0
 40
3.0
100
AcDbArc
 50
270.0
 51
0.0
  0
LINE
  5
1059
330
2
100
AcDbEntity
  8
0
100
AcDbLine
 10
107.1270040759372
 20
319.3102228890227
 30
0.0
 11
107.1270040759372
 21
363.3102228890209
 31
0.0
  0
ARC
  5
105A
330
2
100
AcDbEntity
  8
0
100
AcDbCircle
 10
117.6400970386539
 20
335.8102228890227
 30
0.0
 40
3.0
100
AcDbArc
 50
0.0
 51
90.0
  0
ARC
  5
105B
330
2
100
AcDbEntity
  8
0
100
AcDbCircle
 10
117.6400970386539
 20
346.8102228890227
 30
0.0
 40
3.0
100
AcDbArc
 50
270.0
 51
0.0
  0
ARC
  5
105C
330
2
100
AcDbEntity
  8
0
100
AcDbCircle
 10
110.1270040759372
 20
335.8102228890227
 30
0.0
 40
3.0
100
AcDbArc
 50
90.0
 51
180.0
  0
ARC
  5
105D
330
2
100
AcDbEntity
  8
0
100
AcDbCircle
 10
110.1270040759372
 20
346.8102228890227
 30
0.0
 40
3.0
100
AcDbArc
 50
180.0
 51
270.0
  0
ARC
  5
105E
330
2
100
AcDbEntity
  8
0
100
AcDbCircle
 10
115.6400970386639
 20
317.3102228890227
 30
0.0
 40
5.0
100
AcDbArc
 50
0.0
 51
90.0
  0
ARC
  5
105F
330
2
100
AcDbEntity
  8
0
100
AcDbCircle
 10
111.8729707683523
 20
317.3102228890227
 30
0.0
 40
5.0
100
AcDbArc
 50
90.0
 51
165.5224878140709
  0
ARC
  5
1060
330
2
100
AcDbEntity
  8
0
100
AcDbCircle
 10
115.6400970386634
 20
365.3102228890046
 30
0.0
 40
5.0
100
AcDbArc
 50
270.0
 51
0.0
  0
ARC
  5
1061
330
2
100
AcDbEntity
  8
0
100
AcDbCircle
 10
111.8729707683523
 20
365.3102228890046
 30
0.0
 40
5.0
100
AcDbArc
 50
194.477512185929
 51
270.0
  0
LINE
  5
1062
330
2
100
AcDbEntity
  8
0
100
AcDbLine
 10
115.6400970386634
 20
360.3102228890045
 30
0.0
 11
111.8729707683523
 21
360.3102228890045
 31
0.0
  0
LINE
  5
1063
330
2
100
AcDbEntity
  8
0
100
AcDbLine
 10
677.7998769856385
 20
363.3102228890137
 30
0.0
 11
677.7998769856385
 21
319.3102228890136
 31
0.0
  0
LINE
  5
1064
330
2
100
AcDbEntity
  8
0
100
AcDbLine
 10
680.7998769856385
 20
366.3102228890136
 30
0.0
 11
684.3046640010348
 21
366.3102228890136
 31
0.0
  0
LINE
  5
1065
330
2
100
AcDbEntity
  8
0
100
AcDbLine
 10
666.2867840229218
 20
364.3102228890136
 30
0.0
 11
676.7998769856385
 21
364.3102228890136
 31
0.0
  0
ARC
  5
1066
330
2
100
AcDbEntity
  8
0
100
AcDbCircle
 10
680.7998769856385
 20
363.3102228890137
 30
0.0
 40
3.0
100
AcDbArc
 50
90.0
 51
180.0
  0
ARC
  5
1067
330
2
100
AcDbEntity
  8
0
100
AcDbCircle
 10
676.7998769856385
 20
366.3102228890136
 30
0.0
 40
2.0
100
AcDbArc
 50
270.0
 51
323.1301023541299
  0
ARC
  5
1068
330
2
100
AcDbEntity
  8
0
100
AcDbCircle
 10
669.2867840229127
 20
365.3102228890137
 30
0.0
 40
5.0
100
AcDbArc
 50
180.0
 51
270.0
  0
ARC
  5
1069
330
2
100
AcDbEntity
  8
0
100
AcDbCircle
 10
673.0539102932239
 20
365.3102228890137
 30
0.0
 40
5.0
100
AcDbArc
 50
270.0
 51
345.5224878140709
  0
LINE
  5
106A
330
2
100
AcDbEntity
  8
0
100
AcDbLine
 10
669.2867840229127
 20
360.3102228890136
 30
0.0
 11
673.0539102932239
 21
360.3102228890136
 31
0.0
  0
ARC
  5
106B
330
2
100
AcDbEntity
  8
0
100
AcDbCircle
 10
666.2867840229218
 20
366.3102228890136
 30
0.0
 40
2.0
100
AcDbArc
 50
180.0
 51
270.0
  0
LINE
  5
106C
330
2
100
AcDbEntity
  8
0
100
AcDbLine
 10
667.2867840229218
 20
338.8102228890137
 30
0.0
 11
674.7998769856385
 21
338.8102228890137
 31
0.0
  0
LINE
  5
106D
330
2
100
AcDbEntity
  8
0
100
AcDbLine
 10
667.2867840229218
 20
343.8102228890136
 30
0.0
 11
674.7998769856385
 21
343.8102228890136
 31
0.0
  0
ARC
  5
106E
330
2
100
AcDbEntity
  8
0
100
AcDbCircle
 10
667.2867840229218
 20
346.8102228890137
 30
0.0
 40
3.0
100
AcDbArc
 50
180.0
 51
270.0
  0
ARC
  5
106F
330
2
100
AcDbEntity
  8
0
100
AcDbCircle
 10
667.2867840229218
 20
335.8102228890136
 30
0.0
 40
3.0
100
AcDbArc
 50
90.0
 51
180.0
  0
ARC
  5
1070
330
2
100
AcDbEntity
  8
0
100
AcDbCircle
 10
674.7998769856385
 20
346.8102228890137
 30
0.0
 40
3.0
100
AcDbArc
 50
270.0
 51
0.0
  0
ARC
  5
1071
330
2
100
AcDbEntity
  8
0
100
AcDbCircle
 10
674.7998769856385
 20
335.8102228890136
 30
0.0
 40
3.0
100
AcDbArc
 50
0.0
 51
90.0
  0
ARC
  5
1072
330
2
100
AcDbEntity
  8
0
100
AcDbCircle
 10
669.2867840229127
 20
317.3102228890318
 30
0.0
 40
5.0
100
AcDbArc
 50
90.0
 51
180.0
  0
LINE
  5
1073
330
2
100
AcDbEntity
  8
0
100
AcDbLine
 10
669.2867840229127
 20
322.3102228890319
 30
0.0
 11
673.0539102932243
 21
322.3102228890319
 31
0.0
  0
ARC
  5
1074
330
2
100
AcDbEntity
  8
0
100
AcDbCircle
 10
673.0539102932243
 20
317.3102228890318
 30
0.0
 40
5.0
100
AcDbArc
 50
14.47751218592907
 51
90.0
  0
LINE
  5
1075
330
2
100
AcDbEntity
  8
0
100
AcDbLine
 10
666.234422818109
 20
318.3102228890136
 30
0.0
 11
676.7998769856385
 21
318.3102228890136
 31
0.0
  0
ARC
  5
1076
330
2
100
AcDbEntity
  8
0
100
AcDbCircle
 10
676.7998769856385
 20
316.3102228890136
 30
0.0
 40
2.0
100
AcDbArc
 50
36.86989764587007
 51
90.0
  0
ARC
  5
1077
330
2
100
AcDbEntity
  8
0
100
AcDbCircle
 10
680.7998769856385
 20
319.3102228890136
 30
0.0
 40
3.0
100
AcDbArc
 50
180.0
 51
270.0
  0
ARC
  5
1078
330
2
100
AcDbEntity
  8
0
100
AcDbCircle
 10
666.2867840229218
 20
316.3102228890136
 30
0.0
 40
2.0
100
AcDbArc
 50
90.0
 51
180.0
  0
LINE
  5
1079
330
2
100
AcDbEntity
  8
0
100
AcDbLine
 10
680.7998769856385
 20
316.3102228890136
 30
0.0
 11
684.3046640010348
 21
316.3102228890136
 31
0.0
  0
ARC
  5
107A
330
2
100
AcDbEntity
  8
0
100
AcDbCircle
 10
680.7092546356876
 20
614.4831529420941
 30
0.0
 40
3.0
100
AcDbArc
 50
90.0
 51
178.5000000000102
  0
ARC
  5
107B
330
2
100
AcDbEntity
  8
0
100
AcDbCircle
 10
684.3068945344362
 20
622.4831529420941
 30
0.0
 40
5.0
100
AcDbArc
 50
270.0
 51
351.7867893013297
  0
ARC
  5
107C
330
2
100
AcDbEntity
  8
0
100
AcDbCircle
 10
691.2350977647661
 20
621.4831529424689
 30
0.0
 40
2.0
100
AcDbArc
 50
90.0
 51
178.5000000000102
  0
LINE
  5
107D
330
2
100
AcDbEntity
  8
0
100
AcDbLine
 10
697.2867840229228
 20
623.4831529424688
 30
0.0
 11
691.2350977647661
 21
623.4831529424688
 31
0.0
  0
LINE
  5
107E
330
2
100
AcDbEntity
  8
0
100
AcDbLine
 10
680.7092546356876
 20
617.4831529420941
 30
0.0
 11
684.3068945344362
 21
617.4831529420941
 31
0.0
  0
ARC
  5
107F
330
2
100
AcDbEntity
  8
0
100
AcDbCircle
 10
676.7092546359695
 20
617.4831529424689
 30
0.0
 40
2.0
100
AcDbArc
 50
270.0
 51
323.1301023487886
  0
LINE
  5
1080
330
2
100
AcDbEntity
  8
0
100
AcDbLine
 10
676.7092546359695
 20
615.4831529424689
 30
0.0
 11
666.2868601796922
 21
615.4831529424689
 31
0.0
  0
ARC
  5
1081
330
2
100
AcDbEntity
  8
0
100
AcDbCircle
 10
666.2867840229223
 20
617.4831529424689
 30
0.0
 40
2.0
100
AcDbArc
 50
180.0
 51
270.0
  0
ARC
  5
1082
330
2
100
AcDbEntity
  8
0
100
AcDbCircle
 10
669.2867840229223
 20
616.4831529424689
 30
0.0
 40
5.0
100
AcDbArc
 50
180.0
 51
270.0
  0
LINE
  5
1083
330
2
100
AcDbEntity
  8
0
100
AcDbLine
 10
672.9632879433697
 20
611.4831529424689
 30
0.0
 11
669.2867840229228
 21
611.4831529424689
 31
0.0
  0
ARC
  5
1084
330
2
100
AcDbEntity
  8
0
100
AcDbCircle
 10
672.9632879433697
 20
616.4831529424689
 30
0.0
 40
5.0
100
AcDbArc
 50
270.0
 51
345.5224878112707
  0
ARC
  5
1085
330
2
100
AcDbEntity
  8
0
100
AcDbCircle
 10
666.2867840229223
 20
567.4831529424671
 30
0.0
 40
2.0
100
AcDbArc
 50
90.0
 51
180.0
  0
LINE
  5
1086
330
2
100
AcDbEntity
  8
0
100
AcDbLine
 10
676.7092546359695
 20
569.483152942467
 30
0.0
 11
666.2868601796922
 21
569.483152942467
 31
0.0
  0
ARC
  5
1087
330
2
100
AcDbEntity
  8
0
100
AcDbCircle
 10
669.2867840229223
 20
568.4831529424671
 30
0.0
 40
5.0
100
AcDbArc
 50
90.0
 51
180.0
  0
LINE
  5
1088
330
2
100
AcDbEntity
  8
0
100
AcDbLine
 10
672.9632879433697
 20
573.4831529424671
 30
0.0
 11
669.2867840229228
 21
573.4831529424671
 31
0.0
  0
ARC
  5
1089
330
2
100
AcDbEntity
  8
0
100
AcDbCircle
 10
672.9632879433697
 20
568.4831529424671
 30
0.0
 40
5.0
100
AcDbArc
 50
14.47751218872929
 51
90.0
  0
ARC
  5
108A
330
2
100
AcDbEntity
  8
0
100
AcDbCircle
 10
676.7092546359695
 20
567.4831529424671
 30
0.0
 40
2.0
100
AcDbArc
 50
36.86989765121137
 51
90.0
  0
ARC
  5
108B
330
2
100
AcDbEntity
  8
0
100
AcDbCircle
 10
680.7092546356876
 20
570.4831529428436
 30
0.0
 40
3.0
100
AcDbArc
 50
181.4999999999897
 51
270.0
  0
LINE
  5
108C
330
2
100
AcDbEntity
  8
0
100
AcDbLine
 10
677.7102826607619
 20
570.4046220979205
 30
0.0
 11
677.1321359837075
 21
592.4831529424689
 31
0.0
  0
ARC
  5
108D
330
2
100
AcDbEntity
  8
0
100
AcDbCircle
 10
674.2751301748644
 20
586.9831529424689
 30
0.0
 40
3.0
100
AcDbArc
 50
1.499999999989693
 51
90.0
  0
LINE
  5
108E
330
2
100
AcDbEntity
  8
0
100
AcDbLine
 10
680.7092546356876
 20
567.4831529428436
 30
0.0
 11
684.3068945344362
 21
567.4831529428436
 31
0.0
  0
ARC
  5
108F
330
2
100
AcDbEntity
  8
0
100
AcDbCircle
 10
684.3068945344362
 20
562.4831529428436
 30
0.0
 40
5.0
100
AcDbArc
 50
8.213210698670247
 51
90.0
  0
ARC
  5
1090
330
2
100
AcDbEntity
  8
0
100
AcDbCircle
 10
691.2350977647661
 20
563.4831529424689
 30
0.0
 40
2.0
100
AcDbArc
 50
181.4999999999897
 51
270.0
  0
LINE
  5
1091
330
2
100
AcDbEntity
  8
0
100
AcDbLine
 10
689.2357831148147
 20
563.4307990458516
 30
0.0
 11
688.4750204542724
 21
592.4831529424689
 31
0.0
  0
LINE
  5
1092
330
2
100
AcDbEntity
  8
0
100
AcDbLine
 10
697.2867840229228
 20
561.4831529424689
 30
0.0
 11
691.2350977647661
 21
561.4831529424689
 31
0.0
  0
LINE
  5
1093
330
2
100
AcDbEntity
  8
0
100
AcDbLine
 10
677.7102826607619
 20
614.5616837870172
 30
0.0
 11
677.1321359837075
 21
592.4831529424689
 31
0.0
  0
ARC
  5
1094
330
2
100
AcDbEntity
  8
0
100
AcDbCircle
 10
674.2751301748644
 20
597.9831529424688
 30
0.0
 40
3.0
100
AcDbArc
 50
270.0
 51
358.5000000000103
  0
LINE
  5
1095
330
2
100
AcDbEntity
  8
0
100
AcDbLine
 10
689.2357831148147
 20
621.5355068390842
 30
0.0
 11
688.4750204542724
 21
592.4831529424689
 31
0.0
  0
LINE
  5
1096
330
2
100
AcDbEntity
  8
0
100
AcDbLine
 10
667.4570721799991
 20
589.9831529424688
 30
0.0
 11
674.2751301748644
 21
589.9831529424688
 31
0.0
  0
LINE
  5
1097
330
2
100
AcDbEntity
  8
0
100
AcDbLine
 10
667.4570721799836
 20
594.9831529424689
 30
0.0
 11
674.2751301748649
 21
594.9831529424689
 31
0.0
  0
LINE
  5
1098
330
2
100
AcDbEntity
  8
0
100
AcDbLine
 10
658.2998769837067
 20
617.4831529424689
 30
0.0
 11
658.929024568883
 21
593.4569759941612
 31
0.0
  0
ARC
  5
1099
330
2
100
AcDbEntity
  8
0
100
AcDbCircle
 10
659.9286818938585
 20
593.4831529424688
 30
0.0
 40
1.0
100
AcDbArc
 50
181.4999999999897
 51
270.0
  0
LINE
  5
109A
330
2
100
AcDbEntity
  8
0
100
AcDbLine
 10
659.9286818938585
 20
592.4831529424689
 30
0.0
 11
664.2867840229223
 21
592.4831529424689
 31
0.0
  0
LINE
  5
109B
330
2
100
AcDbEntity
  8
0
100
AcDbLine
 10
688.4750204542724
 20
592.4831529424689
 30
0.0
 11
697.286784019896
 21
592.4831529424689
 31
0.0
  0
LINE
  5
109C
330
2
100
AcDbEntity
  8
0
100
AcDbLine
 10
626.2867840229232
 20
617.4831529424689
 30
0.0
 11
626.2867840229232
 21
560.9831529424688
 31
0.0
  0
LINE
  5
109D
330
2
100
AcDbEntity
  8
0
100
AcDbLine
 10
623.2867840229223
 20
617.4831529424689
 30
0.0
 11
623.2867840229223
 21
560.9831529424688
 31
0.0
  0
LINE
  5
109E
330
2
100
AcDbEntity
  8
0
100
AcDbLine
 10
608.5788191887909
 20
617.4831529424689
 30
0.0
 11
608.5788191887909
 21
560.9831529424688
 31
0.0
  0
LINE
  5
109F
330
2
100
AcDbEntity
  8
0
100
AcDbLine
 10
571.9947488570583
 20
617.4831529424689
 30
0.0
 11
571.9947488570583
 21
560.9831529424688
 31
0.0
  0
LINE
  5
10A0
330
2
100
AcDbEntity
  8
0
100
AcDbLine
 10
557.2867840229232
 20
617.4831529424689
 30
0.0
 11
557.2867840229242
 21
560.9831529424688
 31
0.0
  0
LINE
  5
10A1
330
2
100
AcDbEntity
  8
0
100
AcDbLine
 10
554.2867840229233
 20
617.4831529424689
 30
0.0
 11
554.2867840229233
 21
560.9831529424688
 31
0.0
  0
LINE
  5
10A2
330
2
100
AcDbEntity
  8
0
100
AcDbLine
 10
965.0558314800473
 20
309.3145863229045
 30
0.0
 11
911.0383784090499
 21
309.785989494251
 31
0.0
  0
LINE
  5
10A3
330
2
100
AcDbEntity
  8
0
100
AcDbLine
 10
965.0558314800473
 20
373.305859455121
 30
0.0
 11
911.0383784090499
 21
372.8344562837781
 31
0.0
  0
LINE
  5
10A4
330
2
100
AcDbEntity
  8
0
100
AcDbLine
 10
940.0558314800464
 20
309.8102228890136
 30
0.0
 11
912.0074506758914
 21
310.262616127792
 31
0.0
  0
LINE
  5
10A5
330
2
100
AcDbEntity
  8
0
100
AcDbLine
 10
940.0558314800464
 20
372.8102228890136
 30
0.0
 11
968.104212284201
 21
372.3578296502371
 31
0.0
  0
LINE
  5
10A6
330
2
100
AcDbEntity
  8
0
100
AcDbLine
 10
912.0074506758919
 20
372.3578296502371
 30
0.0
 11
940.0558314800464
 21
372.8102228890136
 31
0.0
  0
LINE
  5
10A7
330
2
100
AcDbEntity
  8
0
100
AcDbLine
 10
968.104212284201
 20
310.262616127792
 30
0.0
 11
940.0558314800464
 21
309.8102228890136
 31
0.0
  0
LINE
  5
10A8
330
2
100
AcDbEntity
  8
0
100
AcDbLine
 10
909.0558314800464
 20
370.8345324376503
 30
0.0
 11
909.0558314800464
 21
311.7859133403788
 31
0.0
  0
ARC
  5
10A9
330
2
100
AcDbEntity
  8
0
100
AcDbCircle
 10
968.0558314800464
 20
369.3582197926414
 30
0.0
 40
3.0
100
AcDbArc
 50
0.0
 51
89.07595464723311
  0
ARC
  5
10AA
330
2
100
AcDbEntity
  8
0
100
AcDbCircle
 10
968.0558314800464
 20
313.2622259853877
 30
0.0
 40
3.0
100
AcDbArc
 50
270.9240453527669
 51
0.0
  0
ARC
  5
10AB
330
2
100
AcDbEntity
  8
0
100
AcDbCircle
 10
912.0558314800463
 20
313.2622259853877
 30
0.0
 40
3.0
100
AcDbArc
 50
180.0
 51
269.075954647207
  0
ARC
  5
10AC
330
2
100
AcDbEntity
  8
0
100
AcDbCircle
 10
912.0558314800463
 20
369.3582197926414
 30
0.0
 40
3.0
100
AcDbArc
 50
90.9240453527669
 51
180.0
  0
ARC
  5
10AD
330
2
100
AcDbEntity
  8
0
100
AcDbCircle
 10
911.0558314800464
 20
370.8345324376503
 30
0.0
 40
2.0
100
AcDbArc
 50
90.49999999999155
 51
180.0
  0
ARC
  5
10AE
330
2
100
AcDbEntity
  8
0
100
AcDbCircle
 10
911.0558314800464
 20
311.7859133403788
 30
0.0
 40
2.0
100
AcDbArc
 50
180.0
 51
269.5000000000084
  0
LINE
  5
10AF
330
2
100
AcDbEntity
  8
0
100
AcDbLine
 10
971.0558314800463
 20
369.3582197926414
 30
0.0
 11
971.0558314800463
 21
313.2622259853877
 31
0.0
  0
LINE
  5
10B0
330
2
100
AcDbEntity
  8
0
100
AcDbLine
 10
587.0842999384072
 20
307.13709651141
 30
0.0
 11
588.3443004814835
 21
307.13709651141
 31
0.0
  0
LINE
  5
10B1
330
2
100
AcDbEntity
  8
0
100
AcDbLine
 10
588.8342999384012
 20
310.6370965113991
 30
0.0
 11
587.0842999384072
 21
307.13709651141
 31
0.0
  0
ARC
  5
10B2
330
2
100
AcDbEntity
  8
0
100
AcDbCircle
 10
591.7392681058909
 20
309.4470965114022
 30
0.0
 40
1.189999999995825
100
AcDbArc
 50
307.5189678668075
 51
90.0
  0
LINE
  5
10B3
330
2
100
AcDbEntity
  8
0
100
AcDbLine
 10
592.4640067094887
 20
308.5032459107013
 30
0.0
 11
593.3333493444206
 21
307.13709651141
 31
0.0
  0
LINE
  5
10B4
330
2
100
AcDbEntity
  8
0
100
AcDbLine
 10
592.0733488013443
 20
307.13709651141
 30
0.0
 11
593.3333493444206
 21
307.13709651141
 31
0.0
  0
LINE
  5
10B5
330
2
100
AcDbEntity
  8
0
100
AcDbLine
 10
589.4992999383985
 20
307.13709651141
 30
0.0
 11
590.5492681058949
 21
307.13709651141
 31
0.0
  0
LINE
  5
10B6
330
2
100
AcDbEntity
  8
0
100
AcDbLine
 10
588.6068004814829
 20
307.6620965114078
 30
0.0
 11
588.3443004814835
 21
307.13709651141
 31
0.0
  0
LINE
  5
10B7
330
2
100
AcDbEntity
  8
0
100
AcDbLine
 10
588.6068004814829
 20
307.6620965114078
 30
0.0
 11
589.4992999383985
 21
307.6620965114078
 31
0.0
  0
LINE
  5
10B8
330
2
100
AcDbEntity
  8
0
100
AcDbLine
 10
589.4992999383985
 20
307.6620965114078
 30
0.0
 11
589.4992999383985
 21
307.13709651141
 31
0.0
  0
LINE
  5
10B9
330
2
100
AcDbEntity
  8
0
100
AcDbLine
 10
589.166800481481
 20
308.7820965114049
 30
0.0
 11
589.4992999383985
 21
308.7820965114049
 31
0.0
  0
LINE
  5
10BA
330
2
100
AcDbEntity
  8
0
100
AcDbLine
 10
589.4992999383985
 20
309.44709542524
 30
0.0
 11
589.4992999383985
 21
308.7820965114049
 31
0.0
  0
LINE
  5
10BB
330
2
100
AcDbEntity
  8
0
100
AcDbLine
 10
589.4992999383985
 20
309.44709542524
 30
0.0
 11
589.166800481481
 21
308.7820965114049
 31
0.0
  0
LINE
  5
10BC
330
2
100
AcDbEntity
  8
0
100
AcDbLine
 10
590.6980499383944
 20
309.2983465114037
 30
0.0
 11
592.0733488013443
 21
307.13709651141
 31
0.0
  0
LINE
  5
10BD
330
2
100
AcDbEntity
  8
0
100
AcDbLine
 10
590.5492681058949
 20
309.4470965114022
 30
0.0
 11
590.5492681058949
 21
307.13709651141
 31
0.0
  0
LINE
  5
10BE
330
2
100
AcDbEntity
  8
0
100
AcDbLine
 10
590.5492681058949
 20
309.4470965114022
 30
0.0
 11
591.6649249383908
 21
309.4470965114022
 31
0.0
  0
LINE
  5
10BF
330
2
100
AcDbEntity
  8
0
100
AcDbLine
 10
590.6980499383944
 20
309.2983465114037
 30
0.0
 11
591.6649249383908
 21
309.2983465114037
 31
0.0
  0
ARC
  5
10C0
330
2
100
AcDbEntity
  8
0
100
AcDbCircle
 10
591.6649249383908
 20
309.372721511402
 30
0.0
 40
0.0743749999997391
100
AcDbArc
 50
270.0
 51
90.0
  0
LINE
  5
10C1
330
2
100
AcDbEntity
  8
0
100
AcDbLine
 10
588.8342999384012
 20
310.6370965113991
 30
0.0
 11
591.7392681058909
 21
310.6370965113991
 31
0.0
  0
LINE
  5
10C2
330
2
100
AcDbEntity
  8
0
100
AcDbLine
 10
87.64009703866349
 20
309.8102228890136
 30
0.0
 11
93.64009703866349
 21
309.8102228890136
 31
0.0
  0
ARC
  5
10C3
330
2
100
AcDbEntity
  8
0
100
AcDbCircle
 10
93.64009703866349
 20
311.8102228890136
 30
0.0
 40
2.0
100
AcDbArc
 50
270.0
 51
0.0
  0
ARC
  5
10C4
330
2
100
AcDbEntity
  8
0
100
AcDbCircle
 10
100.6222170605487
 20
311.3102228890227
 30
0.0
 40
5.0
100
AcDbArc
 50
90.0
 51
175.9039562419073
  0
LINE
  5
10C5
330
2
100
AcDbEntity
  8
0
100
AcDbLine
 10
93.64009703866395
 20
372.8102228890136
 30
0.0
 11
87.64009703866395
 21
372.8102228890136
 31
0.0
  0
ARC
  5
10C6
330
2
100
AcDbEntity
  8
0
100
AcDbCircle
 10
93.64009703866395
 20
370.8102228890136
 30
0.0
 40
2.0
100
AcDbArc
 50
0.0
 51
89.99999999997395
  0
ARC
  5
10C7
330
2
100
AcDbEntity
  8
0
100
AcDbCircle
 10
100.6222170605474
 20
371.3102228890227
 30
0.0
 40
5.0
100
AcDbArc
 50
184.0960437581962
 51
270.0
  0
LINE
  5
10C8
330
2
100
AcDbEntity
  8
0
100
AcDbLine
 10
691.2867840229191
 20
372.8102228890136
 30
0.0
 11
697.2867840229191
 21
372.8102228890136
 31
0.0
  0
ARC
  5
10C9
330
2
100
AcDbEntity
  8
0
100
AcDbCircle
 10
691.2867840229191
 20
370.8102228890136
 30
0.0
 40
2.0
100
AcDbArc
 50
90.0
 51
180.0
  0
ARC
  5
10CA
330
2
100
AcDbEntity
  8
0
100
AcDbCircle
 10
684.3046640010348
 20
371.3102228890136
 30
0.0
 40
5.0
100
AcDbArc
 50
270.0
 51
355.9039562418037
  0
ARC
  5
10CB
330
2
100
AcDbEntity
  8
0
100
AcDbCircle
 10
691.2867840229191
 20
311.8102228890136
 30
0.0
 40
2.0
100
AcDbArc
 50
180.0
 51
270.0
  0
LINE
  5
10CC
330
2
100
AcDbEntity
  8
0
100
AcDbLine
 10
697.2867840229191
 20
309.8102228890136
 30
0.0
 11
691.2867840229191
 21
309.8102228890136
 31
0.0
  0
ARC
  5
10CD
330
2
100
AcDbEntity
  8
0
100
AcDbCircle
 10
684.3046640010348
 20
311.3102228890137
 30
0.0
 40
5.0
100
AcDbArc
 50
4.096043758196293
 51
90.0
  0
LINE
  5
10CE
330
2
100
AcDbEntity
  8
CENTER
100
AcDbLine
 10
375.170393959409
 20
290.5283945837826
 30
0.0
 11
375.170393959409
 21
392.0949600844949
 31
0.0
  0
LINE
  5
10CF
330
2
100
AcDbEntity
  8
0
100
AcDbLine
 10
413.170393959408
 20
306.3102228890136
 30
0.0
 11
413.170393959408
 21
376.3102228890137
 31
0.0
  0
LINE
  5
10D0
330
2
100
AcDbEntity
  8
0
100
AcDbLine
 10
408.170393959409
 20
300.8163812208775
 30
0.0
 11
408.1703939594085
 21
381.8069734474
 31
0.0
  0
LINE
  5
10D1
330
2
100
AcDbEntity
  8
0
100
AcDbLine
 10
408.170393959409
 20
376.3102228890137
 30
0.0
 11
413.170393959409
 21
376.3102228890137
 31
0.0
  0
LINE
  5
10D2
330
2
100
AcDbEntity
  8
CENTER
100
AcDbLine
 10
300.170393959409
 20
341.3102228890146
 30
0.0
 11
449.1703939594089
 21
341.3102228890118
 31
0.0
  0
LINE
  5
10D3
330
2
100
AcDbEntity
  8
0
100
AcDbLine
 10
408.170393959409
 20
306.3102228890136
 30
0.0
 11
413.170393959409
 21
306.3102228890136
 31
0.0
  0
LINE
  5
10D4
330
2
100
AcDbEntity
  8
0
100
AcDbLine
 10
350.1703939594085
 20
300.3102228890136
 30
0.0
 11
408.170393959409
 21
300.8163812208775
 31
0.0
  0
LINE
  5
10D5
330
2
100
AcDbEntity
  8
0
100
AcDbLine
 10
350.1703939594081
 20
382.3131317792638
 30
0.0
 11
408.1703939594085
 21
381.8069734474
 31
0.0
  0
LINE
  5
10D6
330
2
100
AcDbEntity
  8
0
100
AcDbLine
 10
350.1703939594081
 20
372.406997082561
 30
0.0
 11
350.1703939594081
 21
382.3131317792638
 31
0.0
  0
ARC
  5
10D7
330
2
100
AcDbEntity
  8
0
100
AcDbCircle
 10
415.1703939594081
 20
371.6955704420204
 30
0.0
 40
2.0
100
AcDbArc
 50
180.0
 51
267.9999999999963
  0
ARC
  5
10D8
330
2
100
AcDbEntity
  8
0
100
AcDbCircle
 10
424.1703939594089
 20
367.3788453393979
 30
0.0
 40
2.0
100
AcDbArc
 50
0.0
 51
87.99999999999636
  0
ARC
  5
10D9
330
2
100
AcDbEntity
  8
0
100
AcDbCircle
 10
415.1703939594081
 20
310.9248753360069
 30
0.0
 40
2.0
100
AcDbArc
 50
92.00000000000365
 51
180.0
  0
ARC
  5
10DA
330
2
100
AcDbEntity
  8
0
100
AcDbCircle
 10
424.1703939594089
 20
315.2416004386294
 30
0.0
 40
2.0
100
AcDbArc
 50
272.0000000000036
 51
0.0
  0
LINE
  5
10DB
330
2
100
AcDbEntity
  8
0
100
AcDbLine
 10
424.2401929528141
 20
369.3776269934376
 30
0.0
 11
415.100594966003
 21
369.6967887879825
 31
0.0
  0
LINE
  5
10DC
330
2
100
AcDbEntity
  8
0
100
AcDbLine
 10
424.2401929528141
 20
313.2428187845915
 30
0.0
 11
415.100594966003
 21
312.9236569900447
 31
0.0
  0
LINE
  5
10DD
330
2
100
AcDbEntity
  8
0
100
AcDbLine
 10
426.1703939594099
 20
315.2416004386294
 30
0.0
 11
426.1703939594081
 21
367.3788453393979
 31
0.0
  0
LINE
  5
10DE
330
2
100
AcDbEntity
  8
0
100
AcDbLine
 10
350.1703939594085
 20
305.3102228890118
 30
0.0
 11
407.1703939594089
 21
305.3102228890118
 31
0.0
  0
LINE
  5
10DF
330
2
100
AcDbEntity
  8
0
100
AcDbLine
 10
350.1703939594085
 20
308.3102228890118
 30
0.0
 11
407.1703939594089
 21
308.3102228890118
 31
0.0
  0
LINE
  5
10E0
330
2
100
AcDbEntity
  8
0
100
AcDbLine
 10
350.1703939594085
 20
323.0181877231432
 30
0.0
 11
407.1703939594089
 21
323.0181877231432
 31
0.0
  0
LINE
  5
10E1
330
2
100
AcDbEntity
  8
0
100
AcDbLine
 10
350.170393959409
 20
377.3102228890136
 30
0.0
 11
407.1703939594089
 21
377.3102228890136
 31
0.0
  0
LINE
  5
10E2
330
2
100
AcDbEntity
  8
0
100
AcDbLine
 10
350.170393959409
 20
374.3102228890136
 30
0.0
 11
407.1703939594089
 21
374.3102228890136
 31
0.0
  0
LINE
  5
10E3
330
2
100
AcDbEntity
  8
0
100
AcDbLine
 10
350.170393959409
 20
359.6022580548822
 30
0.0
 11
407.1703939594089
 21
359.6022580548822
 31
0.0
  0
LINE
  5
10E4
330
2
100
AcDbEntity
  8
0
100
AcDbLine
 10
908.0558314800464
 20
305.3102228890137
 30
0.0
 11
965.0558314800473
 21
305.3102228890137
 31
0.0
  0
LINE
  5
10E5
330
2
100
AcDbEntity
  8
0
100
AcDbLine
 10
908.0558314800468
 20
377.3102228890136
 30
0.0
 11
965.0558314800473
 21
377.3102228890136
 31
0.0
  0
LINE
  5
10E6
330
2
100
AcDbEntity
  8
0
100
AcDbLine
 10
664.2517242411159
 20
563.4656998714697
 30
0.0
 11
664.5049557176912
 21
592.4831529424689
 31
0.0
  0
ARC
  5
10E7
330
2
100
AcDbEntity
  8
0
100
AcDbCircle
 10
667.4570721799991
 20
586.9831529424689
 30
0.0
 40
3.0
100
AcDbArc
 50
90.0
 51
179.5000000000344
  0
ARC
  5
10E8
330
2
100
AcDbEntity
  8
0
100
AcDbCircle
 10
662.251800394988
 20
563.4831529424671
 30
0.0
 40
2.0
100
AcDbArc
 50
270.0
 51
359.5000000000345
  0
LINE
  5
10E9
330
2
100
AcDbEntity
  8
0
100
AcDbLine
 10
631.2824205890255
 20
617.4831529424689
 30
0.0
 11
630.7762622571622
 21
559.4831529424689
 31
0.0
  0
ARC
  5
10EA
330
2
100
AcDbEntity
  8
0
100
AcDbCircle
 10
632.2806828086363
 20
559.9831529424634
 30
0.0
 40
1.5
100
AcDbArc
 50
90.0
 51
179.5000000000344
  0
LINE
  5
10EB
330
2
100
AcDbEntity
  8
0
100
AcDbLine
 10
664.2867840229223
 20
617.4831529424689
 30
0.0
 11
664.5049557176712
 21
592.4831529424689
 31
0.0
  0
ARC
  5
10EC
330
2
100
AcDbEntity
  8
0
100
AcDbCircle
 10
667.4570721799836
 20
597.9831529424688
 30
0.0
 40
3.0
100
AcDbArc
 50
180.4999999999655
 51
270.0
  0
LINE
  5
10ED
330
2
100
AcDbEntity
  8
0
100
AcDbLine
 10
332.8703939594088
 20
314.8102228890118
 30
0.0
 11
336.1703939594089
 21
314.8102228890136
 31
0.0
  0
LINE
  5
10EE
330
2
100
AcDbEntity
  8
HIDS
100
AcDbLine
 10
337.3775007405902
 20
309.6031161078252
 30
0.0
 11
336.9632871782178
 21
310.0173296701967
 31
0.0
  0
LINE
  5
10EF
330
2
100
AcDbEntity
  8
0
100
AcDbLine
 10
336.1703939594072
 20
312.8102228890154
 30
0.0
 11
336.6703939594099
 21
312.3102228890136
 31
0.0
  0
LINE
  5
10F0
330
2
100
AcDbEntity
  8
0
100
AcDbLine
 10
329.170393959409
 20
314.8102228890118
 30
0.0
 11
328.170393959409
 21
315.3875731582018
 31
0.0
  0
LINE
  5
10F1
330
2
100
AcDbEntity
  8
0
100
AcDbLine
 10
330.8703939594088
 20
315.5102228890125
 30
0.0
 11
332.4703939594091
 21
315.5102228890125
 31
0.0
  0
LINE
  5
10F2
330
2
100
AcDbEntity
  8
0
100
AcDbLine
 10
332.670393959409
 20
315.0102228890125
 30
0.0
 11
332.8703939594088
 21
314.8102228890118
 31
0.0
  0
LINE
  5
10F3
330
2
100
AcDbEntity
  8
0
100
AcDbLine
 10
330.670393959409
 20
315.0102228890125
 30
0.0
 11
330.670393959409
 21
367.6102228890129
 31
0.0
  0
LINE
  5
10F4
330
2
100
AcDbEntity
  8
0
100
AcDbLine
 10
329.170393959409
 20
314.8102228890118
 30
0.0
 11
330.4703939594091
 21
314.8102228890118
 31
0.0
  0
LINE
  5
10F5
330
2
100
AcDbEntity
  8
0
100
AcDbLine
 10
332.870393959407
 20
367.8102228890137
 30
0.0
 11
336.1703939594072
 21
367.8102228890137
 31
0.0
  0
LINE
  5
10F6
330
2
100
AcDbEntity
  8
0
100
AcDbLine
 10
336.1703939594072
 20
369.8102228890137
 30
0.0
 11
336.1703939594072
 21
312.8102228890154
 31
0.0
  0
LINE
  5
10F7
330
2
100
AcDbEntity
  8
0
100
AcDbLine
 10
336.1703939594026
 20
367.8102228890137
 30
0.0
 11
336.1703939594026
 21
369.8102228890082
 31
0.0
  0
LINE
  5
10F8
330
2
100
AcDbEntity
  8
0
100
AcDbLine
 10
337.670393959404
 20
301.4106199469923
 30
0.0
 11
337.670393959404
 21
301.8102228890136
 31
0.0
  0
LINE
  5
10F9
330
2
100
AcDbEntity
  8
HIDS
100
AcDbLine
 10
337.6703939594035
 20
301.8102228890136
 30
0.0
 11
337.670393959404
 21
311.8102228890136
 31
0.0
  0
LINE
  5
10FA
330
2
100
AcDbEntity
  8
0
100
AcDbLine
 10
337.670393959404
 20
311.8102228890136
 30
0.0
 11
337.670393959404
 21
370.8102228890136
 31
0.0
  0
LINE
  5
10FB
330
2
100
AcDbEntity
  8
HIDS
100
AcDbLine
 10
337.670393959404
 20
370.8102228890136
 30
0.0
 11
337.670393959404
 21
380.8102228890136
 31
0.0
  0
LINE
  5
10FC
330
2
100
AcDbEntity
  8
0
100
AcDbLine
 10
337.6703939594044
 20
380.8102228890136
 30
0.0
 11
337.6703939594044
 21
381.2098258310332
 31
0.0
  0
ARC
  5
10FD
330
2
100
AcDbEntity
  8
0
100
AcDbCircle
 10
338.670393959404
 20
301.4106199469923
 30
0.0
 40
1.0
100
AcDbArc
 50
180.0
 51
269.5000000000084
  0
LINE
  5
10FE
330
2
100
AcDbEntity
  8
0
100
AcDbLine
 10
336.1703939594072
 20
369.8102228890137
 30
0.0
 11
336.6703939594072
 21
370.3102228890136
 31
0.0
  0
LINE
  5
10FF
330
2
100
AcDbEntity
  8
HIDS
100
AcDbLine
 10
337.3775007405902
 20
373.0173296702003
 30
0.0
 11
336.9632871782159
 21
372.603116107827
 31
0.0
  0
LINE
  5
1100
330
2
100
AcDbEntity
  8
HIDS
100
AcDbLine
 10
336.6703939594021
 20
310.7244364513833
 30
0.0
 11
336.6703939594026
 21
311.8102228890136
 31
0.0
  0
LINE
  5
1101
330
2
100
AcDbEntity
  8
0
100
AcDbLine
 10
336.6703939594021
 20
311.8102228890136
 30
0.0
 11
336.6703939594021
 21
370.8102228890136
 31
0.0
  0
LINE
  5
1102
330
2
100
AcDbEntity
  8
HIDS
100
AcDbLine
 10
336.6703939594021
 20
370.8102228890136
 30
0.0
 11
336.6703939594021
 21
371.8960093266403
 31
0.0
  0
LINE
  5
1103
330
2
100
AcDbEntity
  8
0
100
AcDbLine
 10
328.1703939594053
 20
315.3875731582036
 30
0.0
 11
328.1703939594044
 21
367.2328726198218
 31
0.0
  0
LINE
  5
1104
330
2
100
AcDbEntity
  8
0
100
AcDbLine
 10
329.1703939594071
 20
367.8102228890137
 30
0.0
 11
330.4703939594073
 21
367.8102228890137
 31
0.0
  0
LINE
  5
1105
330
2
100
AcDbEntity
  8
0
100
AcDbLine
 10
332.6703939594072
 20
367.6102228890129
 30
0.0
 11
332.870393959407
 21
367.8102228890137
 31
0.0
  0
LINE
  5
1106
330
2
100
AcDbEntity
  8
0
100
AcDbLine
 10
332.6703939594072
 20
367.6102228890129
 30
0.0
 11
332.6703939593676
 21
315.0102228890544
 31
0.0
  0
LINE
  5
1107
330
2
100
AcDbEntity
  8
0
100
AcDbLine
 10
330.870393959407
 20
367.1102228890129
 30
0.0
 11
332.4703939594073
 21
367.1102228890129
 31
0.0
  0
LINE
  5
1108
330
2
100
AcDbEntity
  8
0
100
AcDbLine
 10
329.1703939594071
 20
367.8102228890137
 30
0.0
 11
328.1703939594072
 21
367.2328726198236
 31
0.0
  0
LINE
  5
1109
330
2
100
AcDbEntity
  8
0
100
AcDbLine
 10
350.1703939594063
 20
382.3102228890137
 30
0.0
 11
350.1703939594112
 21
300.3102228890136
 31
0.0
  0
LINE
  5
110A
330
2
100
AcDbEntity
  8
0
100
AcDbLine
 10
350.1703939594112
 20
300.3102228890136
 30
0.0
 11
338.6616674239057
 21
300.4106580239284
 31
0.0
  0
ARC
  5
110B
330
2
100
AcDbEntity
  8
HIDS
100
AcDbCircle
 10
337.6703939594044
 20
310.7244364513833
 30
0.0
 40
1.0
100
AcDbArc
 50
180.0
 51
225.0000000000094
  0
ARC
  5
110C
330
2
100
AcDbEntity
  8
HIDS
100
AcDbCircle
 10
336.6703939594044
 20
308.8960093266385
 30
0.0
 40
1.0
100
AcDbArc
 50
0.0
 51
45.00000000000949
  0
ARC
  5
110D
330
2
100
AcDbEntity
  8
HIDS
100
AcDbCircle
 10
337.6703939594022
 20
371.8960093266403
 30
0.0
 40
1.0
100
AcDbArc
 50
134.9999999999905
 51
180.0
  0
ARC
  5
110E
330
2
100
AcDbEntity
  8
HIDS
100
AcDbCircle
 10
336.6703939594044
 20
373.7244364513888
 30
0.0
 40
1.0
100
AcDbArc
 50
314.9999999999905
 51
0.0
  0
ARC
  5
110F
330
2
100
AcDbEntity
  8
0
100
AcDbCircle
 10
330.4703939594073
 20
367.6102228890129
 30
0.0
 40
0.2
100
AcDbArc
 50
0.0
 51
90.0
  0
ARC
  5
1110
330
2
100
AcDbEntity
  8
0
100
AcDbCircle
 10
330.870393959407
 20
367.3102228890137
 30
0.0
 40
0.2
100
AcDbArc
 50
180.0
 51
270.0
  0
ARC
  5
1111
330
2
100
AcDbEntity
  8
0
100
AcDbCircle
 10
332.4703939594073
 20
367.3102228890137
 30
0.0
 40
0.2
100
AcDbArc
 50
270.0
 51
0.0
  0
ARC
  5
1112
330
2
100
AcDbEntity
  8
0
100
AcDbCircle
 10
330.4703939594091
 20
315.0102228890125
 30
0.0
 40
0.2
100
AcDbArc
 50
270.0
 51
0.0
  0
ARC
  5
1113
330
2
100
AcDbEntity
  8
0
100
AcDbCircle
 10
330.8703939594088
 20
315.3102228890118
 30
0.0
 40
0.2
100
AcDbArc
 50
90.0
 51
180.0
  0
ARC
  5
1114
330
2
100
AcDbEntity
  8
0
100
AcDbCircle
 10
332.4703939594091
 20
315.3102228890118
 30
0.0
 40
0.2
100
AcDbArc
 50
0.0
 51
90.0
  0
LINE
  5
1115
330
2
100
AcDbEntity
  8
0
100
AcDbLine
 10
329.170393959409
 20
314.8102228890118
 30
0.0
 11
329.1703939594071
 21
367.8102228890137
 31
0.0
  0
LINE
  5
1116
330
2
100
AcDbEntity
  8
0
100
AcDbLine
 10
332.870393959407
 20
367.8102228890137
 30
0.0
 11
332.8703939594088
 21
314.8102228890118
 31
0.0
  0
LINE
  5
1117
330
2
100
AcDbEntity
  8
0
100
AcDbLine
 10
350.1703939594108
 20
305.3102228890137
 30
0.0
 11
343.6616674239044
 21
305.3102228890137
 31
0.0
  0
LINE
  5
1118
330
2
100
AcDbEntity
  8
0
100
AcDbLine
 10
350.1703939594108
 20
308.3102228890136
 30
0.0
 11
343.6616674239044
 21
308.3102228890136
 31
0.0
  0
LINE
  5
1119
330
2
100
AcDbEntity
  8
0
100
AcDbLine
 10
350.1703939594071
 20
374.3102228890136
 30
0.0
 11
343.6616674239048
 21
374.3102228890136
 31
0.0
  0
LINE
  5
111A
330
2
100
AcDbEntity
  8
0
100
AcDbLine
 10
350.1703939594063
 20
377.3102228890136
 30
0.0
 11
343.6616674239044
 21
377.3102228890136
 31
0.0
  0
LINE
  5
111B
330
2
100
AcDbEntity
  8
0
100
AcDbLine
 10
350.1703939594081
 20
359.6022580548822
 30
0.0
 11
338.6703939594044
 21
359.6022580548822
 31
0.0
  0
LINE
  5
111C
330
2
100
AcDbEntity
  8
0
100
AcDbLine
 10
350.1703939594099
 20
323.0181877231451
 30
0.0
 11
338.6703939594044
 21
323.0181877231451
 31
0.0
  0
LINE
  5
111D
330
2
100
AcDbEntity
  8
0
100
AcDbLine
 10
338.6616674239053
 20
313.8452065154986
 30
0.0
 11
342.1747572271519
 21
313.814548245248
 31
0.0
  0
LINE
  5
111E
330
2
100
AcDbEntity
  8
0
100
AcDbLine
 10
342.6703939594026
 20
313.3145672837152
 30
0.0
 11
342.6703939594026
 21
301.3669856080385
 31
0.0
  0
ARC
  5
111F
330
2
100
AcDbEntity
  8
0
100
AcDbCircle
 10
338.6703939594035
 20
314.8451684385662
 30
0.0
 40
1.0
100
AcDbArc
 50
180.0
 51
269.5000000000345
  0
ARC
  5
1120
330
2
100
AcDbEntity
  8
0
100
AcDbCircle
 10
342.170393959403
 20
313.314567283717
 30
0.0
 40
0.5
100
AcDbArc
 50
0.0
 51
89.5000000000345
  0
ARC
  5
1121
330
2
100
AcDbEntity
  8
0
100
AcDbCircle
 10
343.6703939594026
 20
301.3669856080385
 30
0.0
 40
1.0
100
AcDbArc
 50
180.0
 51
269.5000000000084
  0
ARC
  5
1122
330
2
100
AcDbEntity
  8
0
100
AcDbCircle
 10
338.670393959404
 20
381.2098258310332
 30
0.0
 40
1.0
100
AcDbArc
 50
90.49999999999155
 51
180.0
  0
LINE
  5
1123
330
2
100
AcDbEntity
  8
0
100
AcDbLine
 10
350.1703939594063
 20
382.3102228890137
 30
0.0
 11
338.6616674239057
 21
382.2097877540971
 31
0.0
  0
LINE
  5
1124
330
2
100
AcDbEntity
  8
0
100
AcDbLine
 10
338.6616674239053
 20
368.7752392625287
 30
0.0
 11
342.1747572271519
 21
368.8058975327774
 31
0.0
  0
LINE
  5
1125
330
2
100
AcDbEntity
  8
0
100
AcDbLine
 10
342.6703939594026
 20
369.3058784943103
 30
0.0
 11
342.6703939594026
 21
381.253460169987
 31
0.0
  0
ARC
  5
1126
330
2
100
AcDbEntity
  8
0
100
AcDbCircle
 10
338.6703939594035
 20
367.7752773394593
 30
0.0
 40
1.0
100
AcDbArc
 50
90.49999999996549
 51
180.0
  0
ARC
  5
1127
330
2
100
AcDbEntity
  8
0
100
AcDbCircle
 10
342.170393959403
 20
369.3058784943103
 30
0.0
 40
0.5
100
AcDbArc
 50
270.4999999999654
 51
0.0
  0
ARC
  5
1128
330
2
100
AcDbEntity
  8
0
100
AcDbCircle
 10
343.6703939594026
 20
381.253460169987
 30
0.0
 40
1.0
100
AcDbArc
 50
90.49999999999155
 51
180.0
  0
LINE
  5
1129
330
2
100
AcDbEntity
  8
0
100
AcDbLine
 10
335.5703939594027
 20
370.8102228890136
 30
0.0
 11
335.1703939594026
 21
371.5030432120409
 31
0.0
  0
LINE
  5
112A
330
2
100
AcDbEntity
  8
0
100
AcDbLine
 10
341.1703939594026
 20
370.8102228890136
 30
0.0
 11
341.1703939594026
 21
380.8102228890136
 31
0.0
  0
LINE
  5
112B
330
2
100
AcDbEntity
  8
0
100
AcDbLine
 10
335.5703939594027
 20
370.8102228890136
 30
0.0
 11
335.5703939594027
 21
380.8102228890136
 31
0.0
  0
LINE
  5
112C
330
2
100
AcDbEntity
  8
0
100
AcDbLine
 10
342.6703939594026
 20
370.8102228890136
 30
0.0
 11
335.5703939594027
 21
370.8102228890136
 31
0.0
  0
LINE
  5
112D
330
2
100
AcDbEntity
  8
0
100
AcDbLine
 10
342.6703939594026
 20
380.8102228890136
 30
0.0
 11
335.5703939594027
 21
380.8102228890136
 31
0.0
  0
LINE
  5
112E
330
2
100
AcDbEntity
  8
0
100
AcDbLine
 10
335.5703939594027
 20
380.8102228890136
 30
0.0
 11
335.1703939594026
 21
380.1174025659864
 31
0.0
  0
LINE
  5
112F
330
2
100
AcDbEntity
  8
0
100
AcDbLine
 10
335.1703939594026
 20
371.5030432120409
 30
0.0
 11
335.1703939594026
 21
380.1174025659864
 31
0.0
  0
LINE
  5
1130
330
2
100
AcDbEntity
  8
0
100
AcDbLine
 10
342.6703939594026
 20
380.8102228890136
 30
0.0
 11
342.6703939594026
 21
370.8102228890136
 31
0.0
  0
LINE
  5
1131
330
2
100
AcDbEntity
  8
0
100
AcDbLine
 10
335.5703939594027
 20
311.8102228890136
 30
0.0
 11
335.1703939594026
 21
311.1174025659864
 31
0.0
  0
LINE
  5
1132
330
2
100
AcDbEntity
  8
0
100
AcDbLine
 10
341.1703939594026
 20
311.8102228890136
 30
0.0
 11
341.1703939594026
 21
301.8102228890136
 31
0.0
  0
LINE
  5
1133
330
2
100
AcDbEntity
  8
0
100
AcDbLine
 10
335.5703939594027
 20
311.8102228890136
 30
0.0
 11
335.5703939594027
 21
301.8102228890136
 31
0.0
  0
LINE
  5
1134
330
2
100
AcDbEntity
  8
0
100
AcDbLine
 10
342.6703939594026
 20
311.8102228890136
 30
0.0
 11
335.5703939594027
 21
311.8102228890136
 31
0.0
  0
LINE
  5
1135
330
2
100
AcDbEntity
  8
0
100
AcDbLine
 10
342.6703939594026
 20
301.8102228890136
 30
0.0
 11
335.5703939594027
 21
301.8102228890136
 31
0.0
  0
LINE
  5
1136
330
2
100
AcDbEntity
  8
0
100
AcDbLine
 10
335.5703939594027
 20
301.8102228890136
 30
0.0
 11
335.1703939594026
 21
302.5030432120409
 31
0.0
  0
LINE
  5
1137
330
2
100
AcDbEntity
  8
0
100
AcDbLine
 10
335.1703939594026
 20
311.1174025659864
 30
0.0
 11
335.1703939594026
 21
302.5030432120409
 31
0.0
  0
LINE
  5
1138
330
2
100
AcDbEntity
  8
0
100
AcDbLine
 10
563.7867840229218
 20
634.7831529424682
 30
0.0
 11
563.7867840229223
 21
631.4831529424688
 31
0.0
  0
LINE
  5
1139
330
2
100
AcDbEntity
  8
HIDS
100
AcDbLine
 10
558.5796772417343
 20
630.2760461612876
 30
0.0
 11
558.9938908041062
 21
630.6902597236592
 31
0.0
  0
LINE
  5
113A
330
2
100
AcDbEntity
  8
0
100
AcDbLine
 10
561.7867840229246
 20
631.4831529424707
 30
0.0
 11
561.2867840229228
 21
630.9831529424671
 31
0.0
  0
LINE
  5
113B
330
2
100
AcDbEntity
  8
0
100
AcDbLine
 10
563.7867840229214
 20
638.4831529424689
 30
0.0
 11
564.3641342921109
 21
639.4831529424688
 31
0.0
  0
LINE
  5
113C
330
2
100
AcDbEntity
  8
0
100
AcDbLine
 10
564.4867840229217
 20
636.7831529424681
 30
0.0
 11
564.4867840229217
 21
635.1831529424678
 31
0.0
  0
LINE
  5
113D
330
2
100
AcDbEntity
  8
0
100
AcDbLine
 10
563.9867840229221
 20
634.9831529424688
 30
0.0
 11
563.7867840229218
 21
634.7831529424682
 31
0.0
  0
LINE
  5
113E
330
2
100
AcDbEntity
  8
0
100
AcDbLine
 10
563.9867840229217
 20
636.9831529424689
 30
0.0
 11
616.5867840229225
 21
636.9831529424689
 31
0.0
  0
LINE
  5
113F
330
2
100
AcDbEntity
  8
0
100
AcDbLine
 10
563.7867840229214
 20
638.4831529424689
 30
0.0
 11
563.7867840229218
 21
637.1831529424678
 31
0.0
  0
LINE
  5
1140
330
2
100
AcDbEntity
  8
0
100
AcDbLine
 10
632.2867840229223
 20
627.9831529424743
 30
0.0
 11
652.7867840229228
 21
627.9831529424743
 31
0.0
  0
LINE
  5
1141
330
2
100
AcDbEntity
  8
0
100
AcDbLine
 10
662.7867840229228
 20
627.9831529424743
 30
0.0
 11
663.2038407005238
 21
627.9831529424743
 31
0.0
  0
LINE
  5
1142
330
2
100
AcDbEntity
  8
0
100
AcDbLine
 10
651.2867840229228
 20
624.9831529424743
 30
0.0
 11
663.2300213038965
 21
624.9831529424743
 31
0.0
  0
LINE
  5
1143
330
2
100
AcDbEntity
  8
0
100
AcDbLine
 10
616.7867840229227
 20
634.7831529424699
 30
0.0
 11
616.7867840229223
 21
631.4831529424707
 31
0.0
  0
LINE
  5
1144
330
2
100
AcDbEntity
  8
0
100
AcDbLine
 10
618.7867840229223
 20
631.4831529424707
 30
0.0
 11
561.7867840229246
 21
631.4831529424707
 31
0.0
  0
LINE
  5
1145
330
2
100
AcDbEntity
  8
0
100
AcDbLine
 10
616.7867840229227
 20
631.4831529424743
 30
0.0
 11
618.7867840229168
 21
631.4831529424743
 31
0.0
  0
LINE
  5
1146
330
2
100
AcDbEntity
  8
0
100
AcDbLine
 10
550.3871810809019
 20
629.9831529424725
 30
0.0
 11
550.7867840229141
 21
629.9831529424725
 31
0.0
  0
LINE
  5
1147
330
2
100
AcDbEntity
  8
HIDS
100
AcDbLine
 10
550.7867840229141
 20
629.9831529424725
 30
0.0
 11
560.7867840229141
 21
629.9831529424725
 31
0.0
  0
LINE
  5
1148
330
2
100
AcDbEntity
  8
0
100
AcDbLine
 10
560.7867840229141
 20
629.9831529424725
 30
0.0
 11
630.2867840229223
 21
629.9831529424725
 31
0.0
  0
ARC
  5
1149
330
2
100
AcDbEntity
  8
0
100
AcDbCircle
 10
550.3871810809019
 20
628.9831529424725
 30
0.0
 40
1.0
100
AcDbArc
 50
90.0
 51
179.5000000000344
  0
LINE
  5
114A
330
2
100
AcDbEntity
  8
0
100
AcDbLine
 10
618.7867840229223
 20
631.4831529424707
 30
0.0
 11
619.2867840229223
 21
630.9831529424707
 31
0.0
  0
LINE
  5
114B
330
2
100
AcDbEntity
  8
0
100
AcDbLine
 10
621.9938908041103
 20
630.2760461612876
 30
0.0
 11
621.5796772417365
 21
630.690259723661
 31
0.0
  0
LINE
  5
114C
330
2
100
AcDbEntity
  8
HIDS
100
AcDbLine
 10
559.7009975852929
 20
630.9831529424744
 30
0.0
 11
560.7867840229141
 21
630.9831529424744
 31
0.0
  0
LINE
  5
114D
330
2
100
AcDbEntity
  8
0
100
AcDbLine
 10
560.7867840229141
 20
630.9831529424744
 30
0.0
 11
620.8725704605495
 21
630.9831529424744
 31
0.0
  0
ARC
  5
114E
330
2
100
AcDbEntity
  8
0
100
AcDbCircle
 10
632.2867840229223
 20
628.9831529424743
 30
0.0
 40
1.0
100
AcDbArc
 50
180.0
 51
270.0
  0
ARC
  5
114F
330
2
100
AcDbEntity
  8
0
100
AcDbCircle
 10
630.2867840229223
 20
628.9831529424725
 30
0.0
 40
1.0
100
AcDbArc
 50
0.0
 51
90.0
  0
LINE
  5
1150
330
2
100
AcDbEntity
  8
0
100
AcDbLine
 10
631.2867840229223
 20
628.9831529424743
 30
0.0
 11
631.2867840229223
 21
628.9831529424725
 31
0.0
  0
LINE
  5
1151
330
2
100
AcDbEntity
  8
0
100
AcDbLine
 10
564.3641342921132
 20
639.4831529424725
 30
0.0
 11
616.2094337537318
 21
639.4831529424725
 31
0.0
  0
LINE
  5
1152
330
2
100
AcDbEntity
  8
0
100
AcDbLine
 10
616.7867840229227
 20
638.4831529424707
 30
0.0
 11
616.7867840229227
 21
637.1831529424696
 31
0.0
  0
LINE
  5
1153
330
2
100
AcDbEntity
  8
0
100
AcDbLine
 10
616.5867840229225
 20
634.9831529424707
 30
0.0
 11
616.7867840229227
 21
634.7831529424699
 31
0.0
  0
LINE
  5
1154
330
2
100
AcDbEntity
  8
0
100
AcDbLine
 10
616.5867840229225
 20
634.9831529424707
 30
0.0
 11
563.9867840229635
 21
634.9831529425089
 31
0.0
  0
LINE
  5
1155
330
2
100
AcDbEntity
  8
0
100
AcDbLine
 10
616.0867840229229
 20
636.78315294247
 30
0.0
 11
616.0867840229225
 21
635.1831529424696
 31
0.0
  0
LINE
  5
1156
330
2
100
AcDbEntity
  8
0
100
AcDbLine
 10
616.7867840229227
 20
638.4831529424707
 30
0.0
 11
616.2094337537332
 21
639.4831529424707
 31
0.0
  0
LINE
  5
1157
330
2
100
AcDbEntity
  8
0
100
AcDbLine
 10
664.2867840229228
 20
617.4831529424725
 30
0.0
 11
664.2038026235882
 21
626.9918794779721
 31
0.0
  0
ARC
  5
1158
330
2
100
AcDbEntity
  8
0
100
AcDbCircle
 10
663.2300213038965
 20
623.9831529424743
 30
0.0
 40
1.0
100
AcDbArc
 50
0.4999999999654926
 51
90.0
  0
ARC
  5
1159
330
2
100
AcDbEntity
  8
0
100
AcDbCircle
 10
663.2038407005238
 20
626.9831529424743
 30
0.0
 40
1.0
100
AcDbArc
 50
0.4999999999654926
 51
90.0
  0
LINE
  5
115A
330
2
100
AcDbEntity
  8
0
100
AcDbLine
 10
664.2867840229223
 20
617.4831529424743
 30
0.0
 11
549.2867840229223
 21
617.4831529424652
 31
0.0
  0
LINE
  5
115B
330
2
100
AcDbEntity
  8
0
100
AcDbLine
 10
664.2867840229223
 20
617.4831529424743
 30
0.0
 11
660.7867840229223
 21
617.4831529424725
 31
0.0
  0
LINE
  5
115C
330
2
100
AcDbEntity
  8
0
100
AcDbLine
 10
549.2867840229223
 20
617.4831529424652
 30
0.0
 11
549.387219157838
 21
628.9918794779721
 31
0.0
  0
ARC
  5
115D
330
2
100
AcDbEntity
  8
HIDS
100
AcDbCircle
 10
559.7009975852929
 20
629.9831529424725
 30
0.0
 40
1.0
100
AcDbArc
 50
90.0
 51
134.9999999999905
  0
ARC
  5
115E
330
2
100
AcDbEntity
  8
HIDS
100
AcDbCircle
 10
557.8725704605472
 20
630.9831529424725
 30
0.0
 40
1.0
100
AcDbArc
 50
270.0
 51
314.9999999999905
  0
ARC
  5
115F
330
2
100
AcDbEntity
  8
0
100
AcDbCircle
 10
620.8725704605495
 20
629.9831529424743
 30
0.0
 40
1.0
100
AcDbArc
 50
45.00000000000949
 51
90.00000000002605
  0
ARC
  5
1160
330
2
100
AcDbEntity
  8
0
100
AcDbCircle
 10
622.7009975852975
 20
630.9831529424725
 30
0.0
 40
1.0
100
AcDbArc
 50
225.0000000000094
 51
270.0
  0
ARC
  5
1161
330
2
100
AcDbEntity
  8
0
100
AcDbCircle
 10
616.5867840229225
 20
637.1831529424696
 30
0.0
 40
0.2
100
AcDbArc
 50
270.0
 51
0.0
  0
ARC
  5
1162
330
2
100
AcDbEntity
  8
0
100
AcDbCircle
 10
616.2867840229227
 20
636.78315294247
 30
0.0
 40
0.2
100
AcDbArc
 50
90.0
 51
180.0
  0
ARC
  5
1163
330
2
100
AcDbEntity
  8
0
100
AcDbCircle
 10
616.2867840229227
 20
635.1831529424696
 30
0.0
 40
0.2
100
AcDbArc
 50
180.0
 51
270.0
  0
ARC
  5
1164
330
2
100
AcDbEntity
  8
0
100
AcDbCircle
 10
563.9867840229217
 20
637.1831529424678
 30
0.0
 40
0.2
100
AcDbArc
 50
180.0
 51
270.0
  0
ARC
  5
1165
330
2
100
AcDbEntity
  8
0
100
AcDbCircle
 10
564.2867840229219
 20
636.7831529424681
 30
0.0
 40
0.2
100
AcDbArc
 50
0.0
 51
90.0
  0
ARC
  5
1166
330
2
100
AcDbEntity
  8
0
100
AcDbCircle
 10
564.2867840229219
 20
635.1831529424678
 30
0.0
 40
0.2
100
AcDbArc
 50
270.0
 51
0.0
  0
LINE
  5
1167
330
2
100
AcDbEntity
  8
0
100
AcDbLine
 10
563.7867840229214
 20
638.4831529424689
 30
0.0
 11
616.7867840229227
 21
638.4831529424707
 31
0.0
  0
LINE
  5
1168
330
2
100
AcDbEntity
  8
0
100
AcDbLine
 10
616.7867840229227
 20
634.7831529424699
 30
0.0
 11
563.7867840229218
 21
634.7831529424682
 31
0.0
  0
LINE
  5
1169
330
2
100
AcDbEntity
  8
0
100
AcDbLine
 10
554.2867840229227
 20
617.4831529424671
 30
0.0
 11
554.2867840229227
 21
623.9918794779721
 31
0.0
  0
LINE
  5
116A
330
2
100
AcDbEntity
  8
0
100
AcDbLine
 10
557.2867840229227
 20
617.4831529424671
 30
0.0
 11
557.2867840229227
 21
623.9918794779721
 31
0.0
  0
LINE
  5
116B
330
2
100
AcDbEntity
  8
0
100
AcDbLine
 10
571.9947488570551
 20
617.4831529424671
 30
0.0
 11
571.9947488570551
 21
628.9831529424725
 31
0.0
  0
LINE
  5
116C
330
2
100
AcDbEntity
  8
0
100
AcDbLine
 10
631.2867840229223
 20
628.9831529424725
 30
0.0
 11
631.2867840229223
 21
617.4831529424707
 31
0.0
  0
LINE
  5
116D
330
2
100
AcDbEntity
  8
0
100
AcDbLine
 10
650.7867840229228
 20
626.9831529424743
 30
0.0
 11
650.7867840229228
 21
625.4831529424743
 31
0.0
  0
ARC
  5
116E
330
2
100
AcDbEntity
  8
0
100
AcDbCircle
 10
649.7867840229227
 20
626.9831529424743
 30
0.0
 40
1.0
100
AcDbArc
 50
0.0
 51
90.0
  0
ARC
  5
116F
330
2
100
AcDbEntity
  8
0
100
AcDbCircle
 10
651.2867840229228
 20
625.4831529424743
 30
0.0
 40
0.5
100
AcDbArc
 50
180.0
 51
270.000000000026
  0
LINE
  5
1170
330
2
100
AcDbEntity
  8
0
100
AcDbLine
 10
562.8217676494073
 20
628.9918794779721
 30
0.0
 11
562.7911093791571
 21
625.4787896747245
 31
0.0
  0
LINE
  5
1171
330
2
100
AcDbEntity
  8
0
100
AcDbLine
 10
562.2911284176252
 20
624.9831529424743
 30
0.0
 11
550.3435467419481
 21
624.9831529424743
 31
0.0
  0
ARC
  5
1172
330
2
100
AcDbEntity
  8
0
100
AcDbCircle
 10
563.8217295724753
 20
628.9831529424743
 30
0.0
 40
1.0
100
AcDbArc
 50
90.0
 51
179.5000000000344
  0
ARC
  5
1173
330
2
100
AcDbEntity
  8
0
100
AcDbCircle
 10
562.2911284176256
 20
625.4831529424743
 30
0.0
 40
0.5
100
AcDbArc
 50
269.9999999999739
 51
359.5000000000345
  0
ARC
  5
1174
330
2
100
AcDbEntity
  8
0
100
AcDbCircle
 10
550.3435467419481
 20
623.9831529424743
 30
0.0
 40
1.0
100
AcDbArc
 50
90.0
 51
179.5000000000344
  0
LINE
  5
1175
330
2
100
AcDbEntity
  8
CENTER
  6
CENS
100
AcDbLine
 10
657.7867840229237
 20
614.4831529424688
 30
0.0
 11
657.7867840229227
 21
635.4831529424743
 31
0.0
  0
LINE
  5
1176
330
2
100
AcDbEntity
  8
0
100
AcDbLine
 10
662.7867840229228
 20
632.0831529424747
 30
0.0
 11
662.0939636998955
 21
632.4831529424743
 31
0.0
  0
LINE
  5
1177
330
2
100
AcDbEntity
  8
0
100
AcDbLine
 10
662.7867840229228
 20
626.4831529424744
 30
0.0
 11
652.7867840229228
 21
626.4831529424744
 31
0.0
  0
LINE
  5
1178
330
2
100
AcDbEntity
  8
0
100
AcDbLine
 10
662.7867840229228
 20
632.0831529424747
 30
0.0
 11
652.7867840229228
 21
632.0831529424747
 31
0.0
  0
LINE
  5
1179
330
2
100
AcDbEntity
  8
0
100
AcDbLine
 10
662.7867840229228
 20
624.9831529424743
 30
0.0
 11
662.7867840229228
 21
632.0831529424747
 31
0.0
  0
LINE
  5
117A
330
2
100
AcDbEntity
  8
0
100
AcDbLine
 10
652.7867840229228
 20
624.9831529424743
 30
0.0
 11
652.7867840229228
 21
632.0831529424747
 31
0.0
  0
LINE
  5
117B
330
2
100
AcDbEntity
  8
0
100
AcDbLine
 10
652.7867840229228
 20
632.0831529424747
 30
0.0
 11
653.4796043459505
 21
632.4831529424743
 31
0.0
  0
LINE
  5
117C
330
2
100
AcDbEntity
  8
0
100
AcDbLine
 10
662.0939636998955
 20
632.4831529424743
 30
0.0
 11
653.47960434595
 21
632.4831529424743
 31
0.0
  0
LINE
  5
117D
330
2
100
AcDbEntity
  8
0
100
AcDbLine
 10
652.7867840229228
 20
624.9831529424743
 30
0.0
 11
662.7867840229228
 21
624.9831529424743
 31
0.0
  0
LINE
  5
117E
330
2
100
AcDbEntity
  8
CENTER
  6
CENS
100
AcDbLine
 10
555.7867840229146
 20
614.4831529424688
 30
0.0
 11
555.7867840229142
 21
635.4831529424743
 31
0.0
  0
LINE
  5
117F
330
2
100
AcDbEntity
  8
0
100
AcDbLine
 10
560.7867840229141
 20
632.0831529424747
 30
0.0
 11
560.0939636998864
 21
632.4831529424743
 31
0.0
  0
LINE
  5
1180
330
2
100
AcDbEntity
  8
0
100
AcDbLine
 10
560.7867840229141
 20
626.4831529424744
 30
0.0
 11
550.7867840229141
 21
626.4831529424744
 31
0.0
  0
LINE
  5
1181
330
2
100
AcDbEntity
  8
0
100
AcDbLine
 10
560.7867840229141
 20
632.0831529424747
 30
0.0
 11
550.7867840229141
 21
632.0831529424747
 31
0.0
  0
LINE
  5
1182
330
2
100
AcDbEntity
  8
0
100
AcDbLine
 10
560.7867840229141
 20
624.9831529424743
 30
0.0
 11
560.7867840229141
 21
632.0831529424747
 31
0.0
  0
LINE
  5
1183
330
2
100
AcDbEntity
  8
0
100
AcDbLine
 10
550.7867840229141
 20
624.9831529424743
 30
0.0
 11
550.7867840229141
 21
632.0831529424747
 31
0.0
  0
LINE
  5
1184
330
2
100
AcDbEntity
  8
0
100
AcDbLine
 10
550.7867840229141
 20
632.0831529424747
 30
0.0
 11
551.4796043459418
 21
632.4831529424743
 31
0.0
  0
LINE
  5
1185
330
2
100
AcDbEntity
  8
0
100
AcDbLine
 10
560.0939636998864
 20
632.4831529424743
 30
0.0
 11
551.4796043459414
 21
632.4831529424743
 31
0.0
  0
LINE
  5
1186
330
2
100
AcDbEntity
  8
0
100
AcDbLine
 10
550.7867840229141
 20
624.9831529424743
 30
0.0
 11
560.7867840229141
 21
624.9831529424743
 31
0.0
  0
LINE
  5
1187
330
2
100
AcDbEntity
  8
HIDS
100
AcDbLine
 10
652.7867840229228
 20
627.9831529424743
 30
0.0
 11
662.7867840229228
 21
627.9831529424743
 31
0.0
  0
LINE
  5
1188
330
2
100
AcDbEntity
  8
0
100
AcDbLine
 10
982.3558314800466
 20
314.8102228890136
 30
0.0
 11
980.0558314800486
 21
314.8102228890136
 31
0.0
  0
LINE
  5
1189
330
2
100
AcDbEntity
  8
0
100
AcDbLine
 10
986.0558314800464
 20
314.8102228890118
 30
0.0
 11
987.0558314800469
 21
315.3875731582018
 31
0.0
  0
LINE
  5
118A
330
2
100
AcDbEntity
  8
0
100
AcDbLine
 10
984.3558314800466
 20
315.5102228890125
 30
0.0
 11
982.7558314800468
 21
315.5102228890125
 31
0.0
  0
LINE
  5
118B
330
2
100
AcDbEntity
  8
0
100
AcDbLine
 10
982.5558314800463
 20
315.0102228890125
 30
0.0
 11
982.3558314800466
 21
314.8102228890136
 31
0.0
  0
LINE
  5
118C
330
2
100
AcDbEntity
  8
0
100
AcDbLine
 10
984.5558314800465
 20
315.0102228890125
 30
0.0
 11
984.5558314800465
 21
367.6102228890129
 31
0.0
  0
LINE
  5
118D
330
2
100
AcDbEntity
  8
0
100
AcDbLine
 10
986.0558314800464
 20
314.8102228890118
 30
0.0
 11
984.7558314800467
 21
314.8102228890136
 31
0.0
  0
LINE
  5
118E
330
2
100
AcDbEntity
  8
0
100
AcDbLine
 10
982.3558314800484
 20
367.8102228890137
 30
0.0
 11
980.0558314800486
 21
367.8102228890137
 31
0.0
  0
LINE
  5
118F
330
2
100
AcDbEntity
  8
0
100
AcDbLine
 10
979.0558314800483
 20
361.8102228890155
 30
0.0
 11
979.0558314800483
 21
320.8102228890118
 31
0.0
  0
LINE
  5
1190
330
2
100
AcDbEntity
  8
0
100
AcDbLine
 10
977.5558314800518
 20
301.4106199469923
 30
0.0
 11
977.5558314800518
 21
310.8102228890118
 31
0.0
  0
LINE
  5
1191
330
2
100
AcDbEntity
  8
0
100
AcDbLine
 10
977.5558314800518
 20
320.8102228890118
 30
0.0
 11
977.5558314800518
 21
361.8102228890155
 31
0.0
  0
LINE
  5
1192
330
2
100
AcDbEntity
  8
0
100
AcDbLine
 10
977.5558314800514
 20
371.8102228890155
 30
0.0
 11
977.5558314800514
 21
381.2098258310332
 31
0.0
  0
ARC
  5
1193
330
2
100
AcDbEntity
  8
0
100
AcDbCircle
 10
976.5558314800518
 20
301.4106199469923
 30
0.0
 40
1.0
100
AcDbArc
 50
270.5000000000175
 51
0.0
  0
LINE
  5
1194
330
2
100
AcDbEntity
  8
0
100
AcDbLine
 10
978.5558314800537
 20
320.8102228890118
 30
0.0
 11
978.5558314800537
 21
361.8102228890155
 31
0.0
  0
LINE
  5
1195
330
2
100
AcDbEntity
  8
0
100
AcDbLine
 10
987.0558314800504
 20
315.3875731582036
 30
0.0
 11
987.0558314800515
 21
367.2328726198218
 31
0.0
  0
LINE
  5
1196
330
2
100
AcDbEntity
  8
0
100
AcDbLine
 10
986.0558314800487
 20
367.8102228890137
 30
0.0
 11
984.7558314800485
 21
367.8102228890137
 31
0.0
  0
LINE
  5
1197
330
2
100
AcDbEntity
  8
0
100
AcDbLine
 10
982.5558314800483
 20
367.6102228890129
 30
0.0
 11
982.3558314800484
 21
367.8102228890137
 31
0.0
  0
LINE
  5
1198
330
2
100
AcDbEntity
  8
0
100
AcDbLine
 10
982.5558314800483
 20
367.6102228890129
 30
0.0
 11
982.5558314800883
 21
315.0102228890544
 31
0.0
  0
LINE
  5
1199
330
2
100
AcDbEntity
  8
0
100
AcDbLine
 10
984.3558314800484
 20
367.1102228890148
 30
0.0
 11
982.7558314800485
 21
367.1102228890129
 31
0.0
  0
LINE
  5
119A
330
2
100
AcDbEntity
  8
0
100
AcDbLine
 10
986.0558314800483
 20
367.8102228890137
 30
0.0
 11
987.0558314800486
 21
367.2328726198236
 31
0.0
  0
LINE
  5
119B
330
2
100
AcDbEntity
  8
0
100
AcDbLine
 10
965.0558314800496
 20
382.3102228890137
 30
0.0
 11
965.0558314800491
 21
372.4069970825628
 31
0.0
  0
LINE
  5
119C
330
2
100
AcDbEntity
  8
0
100
AcDbLine
 10
965.0558314800456
 20
310.2134486954663
 30
0.0
 11
965.0558314800447
 21
300.3102228890136
 31
0.0
  0
LINE
  5
119D
330
2
100
AcDbEntity
  8
0
100
AcDbLine
 10
972.5558314800492
 20
372.2534601699906
 30
0.0
 11
972.5558314800482
 21
360.3320590976843
 31
0.0
  0
LINE
  5
119E
330
2
100
AcDbEntity
  8
0
100
AcDbLine
 10
975.5558314800492
 20
372.2272795666183
 30
0.0
 11
975.5558314800492
 21
371.8102228890155
 31
0.0
  0
LINE
  5
119F
330
2
100
AcDbEntity
  8
0
100
AcDbLine
 10
975.5558314800486
 20
361.8102228890155
 30
0.0
 11
975.555831480046
 21
320.8102228890118
 31
0.0
  0
LINE
  5
11A0
330
2
100
AcDbEntity
  8
0
100
AcDbLine
 10
975.5558314800454
 20
310.8102228890118
 30
0.0
 11
975.5558314800454
 21
310.3931662114089
 31
0.0
  0
ARC
  5
11A1
330
2
100
AcDbEntity
  8
0
100
AcDbCircle
 10
974.5558314800454
 20
310.3931662114089
 30
0.0
 40
1.0
100
AcDbArc
 50
270.4999999999915
 51
0.0
  0
LINE
  5
11A2
330
2
100
AcDbEntity
  8
0
100
AcDbLine
 10
965.0558314800447
 20
300.3102228890136
 30
0.0
 11
976.5645580155501
 21
300.4106580239284
 31
0.0
  0
ARC
  5
11A3
330
2
100
AcDbEntity
  8
0
100
AcDbCircle
 10
984.7558314800485
 20
367.6102228890129
 30
0.0
 40
0.2
100
AcDbArc
 50
90.0
 51
180.0
  0
ARC
  5
11A4
330
2
100
AcDbEntity
  8
0
100
AcDbCircle
 10
984.3558314800484
 20
367.3102228890137
 30
0.0
 40
0.2
100
AcDbArc
 50
270.0
 51
0.0
  0
ARC
  5
11A5
330
2
100
AcDbEntity
  8
0
100
AcDbCircle
 10
982.7558314800485
 20
367.3102228890137
 30
0.0
 40
0.2
100
AcDbArc
 50
180.0
 51
270.0
  0
ARC
  5
11A6
330
2
100
AcDbEntity
  8
0
100
AcDbCircle
 10
984.7558314800467
 20
315.0102228890125
 30
0.0
 40
0.2
100
AcDbArc
 50
180.0
 51
269.9999999999739
  0
ARC
  5
11A7
330
2
100
AcDbEntity
  8
0
100
AcDbCircle
 10
984.3558314800466
 20
315.3102228890118
 30
0.0
 40
0.2
100
AcDbArc
 50
0.0
 51
89.99999999997395
  0
ARC
  5
11A8
330
2
100
AcDbEntity
  8
0
100
AcDbCircle
 10
982.7558314800468
 20
315.3102228890137
 30
0.0
 40
0.2
100
AcDbArc
 50
89.99999999997395
 51
180.0
  0
LINE
  5
11A9
330
2
100
AcDbEntity
  8
0
100
AcDbLine
 10
986.0558314800464
 20
314.8102228890118
 30
0.0
 11
986.0558314800487
 21
367.8102228890137
 31
0.0
  0
LINE
  5
11AA
330
2
100
AcDbEntity
  8
0
100
AcDbLine
 10
982.3558314800484
 20
367.8102228890137
 30
0.0
 11
982.3558314800466
 21
314.8102228890136
 31
0.0
  0
ARC
  5
11AB
330
2
100
AcDbEntity
  8
0
100
AcDbCircle
 10
976.5558314800518
 20
381.2098258310332
 30
0.0
 40
1.0
100
AcDbArc
 50
0.0
 51
89.49999999998238
  0
LINE
  5
11AC
330
2
100
AcDbEntity
  8
0
100
AcDbLine
 10
965.0558314800496
 20
382.3102228890137
 30
0.0
 11
976.5645580155501
 21
382.2097877540971
 31
0.0
  0
LINE
  5
11AD
330
2
100
AcDbEntity
  8
0
100
AcDbLine
 10
965.0558314800491
 20
373.3102228890154
 30
0.0
 11
974.5645580155473
 21
373.2272414896822
 31
0.0
  0
ARC
  5
11AE
330
2
100
AcDbEntity
  8
0
100
AcDbCircle
 10
971.5558314800491
 20
372.2534601699906
 30
0.0
 40
1.0
100
AcDbArc
 50
0.0
 51
89.50000000000846
  0
ARC
  5
11AF
330
2
100
AcDbEntity
  8
0
100
AcDbCircle
 10
974.5558314800492
 20
372.2272795666183
 30
0.0
 40
1.0
100
AcDbArc
 50
0.0
 51
89.50000000000846
  0
LINE
  5
11B0
330
2
100
AcDbEntity
  8
0
100
AcDbLine
 10
965.0558314800491
 20
309.3102228890118
 30
0.0
 11
974.5645580155438
 21
309.3932042883451
 31
0.0
  0
LINE
  5
11B1
330
2
100
AcDbEntity
  8
0
100
AcDbLine
 10
973.0514682122993
 20
359.8320781361533
 30
0.0
 11
974.564558015547
 21
359.8188736014843
 31
0.0
  0
ARC
  5
11B2
330
2
100
AcDbEntity
  8
0
100
AcDbCircle
 10
973.0558314800482
 20
360.3320590976843
 30
0.0
 40
0.5
100
AcDbArc
 50
180.0
 51
269.4999999999824
  0
ARC
  5
11B3
330
2
100
AcDbEntity
  8
0
100
AcDbCircle
 10
974.5558314800483
 20
358.8189116784204
 30
0.0
 40
1.0
100
AcDbArc
 50
0.0
 51
89.50000000000846
  0
LINE
  5
11B4
330
2
100
AcDbEntity
  8
0
100
AcDbLine
 10
972.5558314800492
 20
310.3669856080367
 30
0.0
 11
972.5558314800482
 21
322.2883866803411
 31
0.0
  0
ARC
  5
11B5
330
2
100
AcDbEntity
  8
0
100
AcDbCircle
 10
971.5558314800491
 20
310.3669856080367
 30
0.0
 40
1.0
100
AcDbArc
 50
270.4999999999915
 51
0.0
  0
LINE
  5
11B6
330
2
100
AcDbEntity
  8
0
100
AcDbLine
 10
973.0514682122993
 20
322.7883676418739
 30
0.0
 11
974.564558015547
 21
322.801572176543
 31
0.0
  0
ARC
  5
11B7
330
2
100
AcDbEntity
  8
0
100
AcDbCircle
 10
973.0558314800482
 20
322.2883866803411
 30
0.0
 40
0.5
100
AcDbArc
 50
90.50000000001761
 51
180.0
  0
ARC
  5
11B8
330
2
100
AcDbEntity
  8
0
100
AcDbCircle
 10
974.5558314800483
 20
323.8015340996069
 30
0.0
 40
1.0
100
AcDbArc
 50
270.4999999999915
 51
0.0
  0
LINE
  5
11B9
330
2
100
AcDbEntity
  8
0
100
AcDbLine
 10
979.6558314800487
 20
361.8102228890155
 30
0.0
 11
980.0558314800486
 21
362.5030432120427
 31
0.0
  0
LINE
  5
11BA
330
2
100
AcDbEntity
  8
0
100
AcDbLine
 10
974.0558314800487
 20
361.8102228890155
 30
0.0
 11
974.0558314800487
 21
371.8102228890155
 31
0.0
  0
LINE
  5
11BB
330
2
100
AcDbEntity
  8
0
100
AcDbLine
 10
979.6558314800487
 20
361.8102228890155
 30
0.0
 11
979.6558314800487
 21
371.8102228890155
 31
0.0
  0
LINE
  5
11BC
330
2
100
AcDbEntity
  8
0
100
AcDbLine
 10
972.5558314800487
 20
361.8102228890155
 30
0.0
 11
979.6558314800487
 21
361.8102228890155
 31
0.0
  0
LINE
  5
11BD
330
2
100
AcDbEntity
  8
0
100
AcDbLine
 10
972.5558314800487
 20
371.8102228890155
 30
0.0
 11
979.6558314800487
 21
371.8102228890155
 31
0.0
  0
LINE
  5
11BE
330
2
100
AcDbEntity
  8
0
100
AcDbLine
 10
979.6558314800487
 20
371.8102228890155
 30
0.0
 11
980.0558314800486
 21
371.1174025659882
 31
0.0
  0
LINE
  5
11BF
330
2
100
AcDbEntity
  8
0
100
AcDbLine
 10
980.0558314800486
 20
362.5030432120427
 30
0.0
 11
980.0558314800486
 21
371.1174025659882
 31
0.0
  0
LINE
  5
11C0
330
2
100
AcDbEntity
  8
0
100
AcDbLine
 10
972.5558314800487
 20
371.8102228890155
 30
0.0
 11
972.5558314800487
 21
361.8102228890155
 31
0.0
  0
LINE
  5
11C1
330
2
100
AcDbEntity
  8
0
100
AcDbLine
 10
979.6558314800487
 20
320.8102228890118
 30
0.0
 11
980.0558314800486
 21
320.1174025659846
 31
0.0
  0
LINE
  5
11C2
330
2
100
AcDbEntity
  8
0
100
AcDbLine
 10
974.0558314800487
 20
320.8102228890118
 30
0.0
 11
974.0558314800487
 21
310.8102228890118
 31
0.0
  0
LINE
  5
11C3
330
2
100
AcDbEntity
  8
0
100
AcDbLine
 10
979.6558314800487
 20
320.8102228890118
 30
0.0
 11
979.6558314800487
 21
310.8102228890118
 31
0.0
  0
LINE
  5
11C4
330
2
100
AcDbEntity
  8
0
100
AcDbLine
 10
972.5558314800487
 20
320.8102228890118
 30
0.0
 11
979.6558314800487
 21
320.8102228890118
 31
0.0
  0
LINE
  5
11C5
330
2
100
AcDbEntity
  8
0
100
AcDbLine
 10
972.5558314800487
 20
310.8102228890118
 30
0.0
 11
979.6558314800487
 21
310.8102228890118
 31
0.0
  0
LINE
  5
11C6
330
2
100
AcDbEntity
  8
0
100
AcDbLine
 10
979.6558314800487
 20
310.8102228890118
 30
0.0
 11
980.0558314800486
 21
311.5030432120391
 31
0.0
  0
LINE
  5
11C7
330
2
100
AcDbEntity
  8
0
100
AcDbLine
 10
980.0558314800486
 20
320.1174025659846
 30
0.0
 11
980.0558314800486
 21
311.5030432120391
 31
0.0
  0
LINE
  5
11C8
330
2
100
AcDbEntity
  8
CENTER
  6
CENS
100
AcDbLine
 10
983.0558314800491
 20
366.8102228890155
 30
0.0
 11
962.0558314800437
 21
366.8102228890155
 31
0.0
  0
LINE
  5
11C9
330
2
100
AcDbEntity
  8
CENTER
  6
CENS
100
AcDbLine
 10
983.0558314800487
 20
315.8102228890118
 30
0.0
 11
962.0558314800431
 21
315.8102228890118
 31
0.0
  0
LINE
  5
11CA
330
2
100
AcDbEntity
  8
CENTER
  6
CENS
100
AcDbLine
 10
330.591726049307
 20
375.8102228890137
 30
0.0
 11
355.1545797256885
 21
375.8102228890137
 31
0.0
  0
LINE
  5
11CB
330
2
100
AcDbEntity
  8
CENTER
  6
CENS
100
AcDbLine
 10
330.5917260493065
 20
306.8102228890136
 30
0.0
 11
355.1545797256881
 21
306.8102228890136
 31
0.0
  0
LINE
  5
11CC
330
2
100
AcDbEntity
  8
CENTER
100
AcDbLine
 10
237.8900970386634
 20
306.8102228890136
 30
0.0
 11
220.3900970386635
 21
306.8102228890136
 31
0.0
  0
LINE
  5
11CD
330
2
100
AcDbEntity
  8
CENTER
100
AcDbLine
 10
127.140097038663
 20
375.5602228890154
 30
0.0
 11
127.140097038663
 21
358.0602228890155
 31
0.0
  0
CIRCLE
  5
11CE
330
2
100
AcDbEntity
  8
HOJO
100
AcDbCircle
 10
229.640097038663
 20
364.3102228890136
 30
0.0
 40
2.0
  0
LINE
  5
11CF
330
2
100
AcDbEntity
  8
CENTER
100
AcDbLine
 10
133.4668919579066
 20
368.8102228890155
 30
0.0
 11
143.8133021194207
 21
368.8102228890155
 31
0.0
  0
LINE
  5
11D0
330
2
100
AcDbEntity
  8
CENTER
100
AcDbLine
 10
118.390097038663
 20
366.8102228890155
 30
0.0
 11
135.890097038663
 21
366.8102228890155
 31
0.0
  0
LINE
  5
11D1
330
2
100
AcDbEntity
  8
CENTER
100
AcDbLine
 10
138.6400970386634
 20
373.9834279697723
 30
0.0
 11
138.6400970386634
 21
363.6370178082586
 31
0.0
  0
CIRCLE
  5
11D2
330
2
100
AcDbEntity
  8
HOJO
100
AcDbCircle
 10
138.6400970386634
 20
368.8102228890155
 30
0.0
 40
2.0
  0
CIRCLE
  5
11D3
330
2
100
AcDbEntity
  8
HOJO
100
AcDbCircle
 10
229.640097038663
 20
318.3102228890136
 30
0.0
 40
2.0
  0
CIRCLE
  5
11D4
330
2
100
AcDbEntity
  8
HOJO
100
AcDbCircle
 10
138.6400970386634
 20
313.8102228890118
 30
0.0
 40
2.0
  0
LINE
  5
11D5
330
2
100
AcDbEntity
  8
CENTER
100
AcDbLine
 10
138.6400970386634
 20
307.8421497953302
 30
0.0
 11
138.6400970386634
 21
318.9834279697687
 31
0.0
  0
LINE
  5
11D6
330
2
100
AcDbEntity
  8
CENTER
100
AcDbLine
 10
127.140097038663
 20
307.0602228890118
 30
0.0
 11
127.140097038663
 21
324.5602228890118
 31
0.0
  0
LINE
  5
11D7
330
2
100
AcDbEntity
  8
CENTER
100
AcDbLine
 10
118.390097038663
 20
315.8102228890118
 30
0.0
 11
135.890097038663
 21
315.8102228890118
 31
0.0
  0
LINE
  5
11D8
330
2
100
AcDbEntity
  8
CENTER
100
AcDbLine
 10
133.4668919579066
 20
313.8102228890118
 30
0.0
 11
143.8133021194207
 21
313.8102228890118
 31
0.0
  0
ARC
  5
11D9
330
2
100
AcDbEntity
  8
0
100
AcDbCircle
 10
232.5214010470949
 20
315.8102228890137
 30
0.0
 40
2.0
100
AcDbArc
 50
270.0
 51
3.96469786020805
  0
ARC
  5
11DA
330
2
100
AcDbEntity
  8
0
100
AcDbCircle
 10
232.5214010470949
 20
366.8102228890136
 30
0.0
 40
2.0
100
AcDbArc
 50
356.0353021397919
 51
90.0
  0
ARC
  5
11DB
330
2
100
AcDbEntity
  8
0
100
AcDbCircle
 10
274.4208883506257
 20
363.9062663292032
 30
0.0
 40
40.0
100
AcDbArc
 50
166.63232579737
 51
186.1769964048908
  0
ARC
  5
11DC
330
2
100
AcDbEntity
  8
0
100
AcDbCircle
 10
274.4208883506253
 20
318.7141794488241
 30
0.0
 40
40.0
100
AcDbArc
 50
173.823003595109
 51
193.3676742026299
  0
ARC
  5
11DD
330
2
100
AcDbEntity
  8
0
100
AcDbCircle
 10
230.6400970386635
 20
305.3102228890137
 30
0.0
 40
5.0
100
AcDbArc
 50
270.0
 51
0.0
  0
ARC
  5
11DE
330
2
100
AcDbEntity
  8
0
100
AcDbCircle
 10
230.6400970386635
 20
377.3102228890136
 30
0.0
 40
5.0
100
AcDbArc
 50
0.0
 51
90.0
  0
ARC
  5
11DF
330
2
100
AcDbEntity
  8
0
100
AcDbCircle
 10
230.6400970386635
 20
374.3102228890136
 30
0.0
 40
5.0
100
AcDbArc
 50
346.63232579737
 51
0.0
  0
LINE
  5
11E0
330
2
100
AcDbEntity
  8
0
100
AcDbLine
 10
235.6400970386639
 20
374.3102228890136
 30
0.0
 11
235.6400970386639
 21
377.3102228890136
 31
0.0
  0
ARC
  5
11E1
330
2
100
AcDbEntity
  8
0
100
AcDbCircle
 10
65.6400970386635
 20
341.3102228890136
 30
0.0
 40
170.0
100
AcDbArc
 50
353.8230035951091
 51
6.176996404890894
  0
ARC
  5
11E2
330
2
100
AcDbEntity
  8
0
100
AcDbCircle
 10
230.6400970386635
 20
308.3102228890136
 30
0.0
 40
5.0
100
AcDbArc
 50
0.0
 51
13.36767420262995
  0
LINE
  5
11E3
330
2
100
AcDbEntity
  8
0
100
AcDbLine
 10
235.6400970386639
 20
305.3102228890137
 30
0.0
 11
235.6400970386639
 21
308.3102228890136
 31
0.0
  0
ARC
  5
11E4
330
2
100
AcDbEntity
  8
0
100
AcDbCircle
 10
175.6400970386639
 20
360.31022288901
 30
0.0
 40
12.0
100
AcDbArc
 50
90.0
 51
180.0
  0
ARC
  5
11E5
330
2
100
AcDbEntity
  8
0
100
AcDbCircle
 10
213.6400970386598
 20
360.3102228890136
 30
0.0
 40
12.0
100
AcDbArc
 50
0.0
 51
90.0
  0
ARC
  5
11E6
330
2
100
AcDbEntity
  8
0
100
AcDbCircle
 10
175.6400970386639
 20
360.31022288901
 30
0.0
 40
13.0
100
AcDbArc
 50
90.0
 51
180.0
  0
ARC
  5
11E7
330
2
100
AcDbEntity
  8
0
100
AcDbCircle
 10
213.6400970386598
 20
360.3102228890136
 30
0.0
 40
13.0
100
AcDbArc
 50
0.0
 51
90.0
  0
CIRCLE
  5
11E8
330
2
100
AcDbEntity
  8
0
100
AcDbCircle
 10
194.6400970386639
 20
341.3102228890136
 30
0.0
 40
28.99999999999986
  0
CIRCLE
  5
11E9
330
2
100
AcDbEntity
  8
0
100
AcDbCircle
 10
194.6400970386639
 20
341.3102228890136
 30
0.0
 40
28.49999999999985
  0
CIRCLE
  5
11EA
330
2
100
AcDbEntity
  8
0
100
AcDbCircle
 10
194.6400970386639
 20
341.3102228890136
 30
0.0
 40
25.92259999999985
  0
CIRCLE
  5
11EB
330
2
100
AcDbEntity
  8
0
100
AcDbCircle
 10
194.6400970386639
 20
341.3102228890136
 30
0.0
 40
23.5774
  0
CIRCLE
  5
11EC
330
2
100
AcDbEntity
  8
0
100
AcDbCircle
 10
194.6400970386639
 20
341.3102228890136
 30
0.0
 40
26.49999999999986
  0
ARC
  5
11ED
330
2
100
AcDbEntity
  8
0
100
AcDbCircle
 10
127.140097038663
 20
366.8102228890155
 30
0.0
 40
7.0
100
AcDbArc
 50
270.0
 51
0.0
  0
CIRCLE
  5
11EE
330
2
100
AcDbEntity
  8
0
100
AcDbCircle
 10
194.6400970386639
 20
341.3102228890136
 30
0.0
 40
23.0
  0
LINE
  5
11EF
330
2
100
AcDbEntity
  8
0
100
AcDbLine
 10
153.6400970386639
 20
305.3102228890082
 30
0.0
 11
153.6400970386639
 21
377.3102228890136
 31
0.0
  0
LINE
  5
11F0
330
2
100
AcDbEntity
  8
0
100
AcDbLine
 10
120.6400970386639
 20
367.3102228890154
 30
0.0
 11
120.6400970386639
 21
315.31022288901
 31
0.0
  0
ARC
  5
11F1
330
2
100
AcDbEntity
  8
0
100
AcDbCircle
 10
172.0440535984744
 20
421.091014200975
 30
0.0
 40
40.0
100
AcDbArc
 50
256.63232579737
 51
276.1769964048646
  0
LINE
  5
11F2
330
2
100
AcDbEntity
  8
0
100
AcDbLine
 10
213.6400970386648
 20
372.31022288901
 30
0.0
 11
175.6400970386648
 21
372.3102228890136
 31
0.0
  0
LINE
  5
11F3
330
2
100
AcDbEntity
  8
0
100
AcDbLine
 10
213.6400970386648
 20
373.31022288901
 30
0.0
 11
175.6400970386648
 21
373.3102228890136
 31
0.0
  0
ARC
  5
11F4
330
2
100
AcDbEntity
  8
0
100
AcDbCircle
 10
194.6400970386639
 20
212.3102228890136
 30
0.0
 40
170.0
100
AcDbArc
 50
83.82300359513532
 51
96.17699640486467
  0
ARC
  5
11F5
330
2
100
AcDbEntity
  8
0
100
AcDbCircle
 10
217.2361404788535
 20
421.091014200975
 30
0.0
 40
40.0
100
AcDbArc
 50
263.8230035951353
 51
283.3676742026299
  0
ARC
  5
11F6
330
2
100
AcDbEntity
  8
0
100
AcDbCircle
 10
229.1400970386634
 20
375.8102228890137
 30
0.0
 40
7.0
100
AcDbArc
 50
180.0
 51
270.0
  0
ARC
  5
11F7
330
2
100
AcDbEntity
  8
0
100
AcDbCircle
 10
227.6400970386635
 20
377.3102228890136
 30
0.0
 40
5.0
100
AcDbArc
 50
90.0
 51
103.36767420263
  0
LINE
  5
11F8
330
2
100
AcDbEntity
  8
0
100
AcDbLine
 10
230.6400970386635
 20
382.3102228890137
 30
0.0
 11
227.6400970386635
 21
382.3102228890137
 31
0.0
  0
ARC
  5
11F9
330
2
100
AcDbEntity
  8
0
100
AcDbCircle
 10
220.1400970386635
 20
379.1915268974451
 30
0.0
 40
2.0
100
AcDbArc
 50
0.0
 51
93.96469786020842
  0
LINE
  5
11FA
330
2
100
AcDbEntity
  8
0
100
AcDbLine
 10
222.1400970386635
 20
375.8102228890137
 30
0.0
 11
222.1400970386635
 21
379.1915268974451
 31
0.0
  0
CIRCLE
  5
11FB
330
2
100
AcDbEntity
  8
0
100
AcDbCircle
 10
229.640097038663
 20
364.3102228890136
 30
0.0
 40
1.6
  0
CIRCLE
  5
11FC
330
2
100
AcDbEntity
  8
0
100
AcDbCircle
 10
229.640097038663
 20
364.3102228890136
 30
0.0
 40
2.5
  0
CIRCLE
  5
11FD
330
2
100
AcDbEntity
  8
0
100
AcDbCircle
 10
229.640097038663
 20
364.3102228890136
 30
0.0
 40
3.0
  0
LINE
  5
11FE
330
2
100
AcDbEntity
  8
0
100
AcDbLine
 10
229.1400970386634
 20
368.8102228890136
 30
0.0
 11
232.5214010470949
 21
368.8102228890136
 31
0.0
  0
LINE
  5
11FF
330
2
100
AcDbEntity
  8
0
100
AcDbLine
 10
126.640097038663
 20
373.3102228890154
 30
0.0
 11
149.6400970386639
 21
373.3102228890191
 31
0.0
  0
CIRCLE
  5
1200
330
2
100
AcDbEntity
  8
0
100
AcDbCircle
 10
138.6400970386634
 20
368.8102228890155
 30
0.0
 40
3.0
  0
LINE
  5
1201
330
2
100
AcDbEntity
  8
0
100
AcDbLine
 10
161.6400970386639
 20
382.3102228890137
 30
0.0
 11
158.6400970386639
 21
382.3102228890137
 31
0.0
  0
ARC
  5
1202
330
2
100
AcDbEntity
  8
0
100
AcDbCircle
 10
161.6400970386639
 20
377.3102228890136
 30
0.0
 40
5.0
100
AcDbArc
 50
76.63232579736996
 51
90.0
  0
ARC
  5
1203
330
2
100
AcDbEntity
  8
0
100
AcDbCircle
 10
158.6400970386639
 20
377.3102228890136
 30
0.0
 40
5.0
100
AcDbArc
 50
90.0
 51
180.0
  0
CIRCLE
  5
1204
330
2
100
AcDbEntity
  8
0
100
AcDbCircle
 10
138.6400970386634
 20
368.8102228890155
 30
0.0
 40
1.6
  0
CIRCLE
  5
1205
330
2
100
AcDbEntity
  8
0
100
AcDbCircle
 10
138.6400970386634
 20
368.8102228890155
 30
0.0
 40
2.5
  0
ARC
  5
1206
330
2
100
AcDbEntity
  8
0
100
AcDbCircle
 10
126.6400970386639
 20
367.3102228890154
 30
0.0
 40
6.0
100
AcDbArc
 50
90.0
 51
180.0
  0
LINE
  5
1207
330
2
100
AcDbEntity
  8
0
100
AcDbLine
 10
134.140097038663
 20
366.8102228890155
 30
0.0
 11
134.140097038663
 21
371.3102228890173
 31
0.0
  0
ARC
  5
1208
330
2
100
AcDbEntity
  8
0
100
AcDbCircle
 10
175.6400970386675
 20
322.3102228890136
 30
0.0
 40
12.0
100
AcDbArc
 50
180.0
 51
270.0
  0
ARC
  5
1209
330
2
100
AcDbEntity
  8
0
100
AcDbCircle
 10
175.6400970386675
 20
322.3102228890136
 30
0.0
 40
13.0
100
AcDbArc
 50
180.0
 51
270.0
  0
ARC
  5
120A
330
2
100
AcDbEntity
  8
0
100
AcDbCircle
 10
172.387566313509
 20
261.4925395469989
 30
0.0
 40
40.0
100
AcDbArc
 50
83.91726555027865
 51
103.1629662673774
  0
ARC
  5
120B
330
2
100
AcDbEntity
  8
0
100
AcDbCircle
 10
213.6400970386639
 20
322.3102228890173
 30
0.0
 40
12.0
100
AcDbArc
 50
270.0
 51
0.0
  0
ARC
  5
120C
330
2
100
AcDbEntity
  8
0
100
AcDbCircle
 10
213.6400970386639
 20
322.3102228890173
 30
0.0
 40
13.0
100
AcDbArc
 50
270.0
 51
0.0
  0
ARC
  5
120D
330
2
100
AcDbEntity
  8
0
100
AcDbCircle
 10
229.1400970386634
 20
306.8102228890136
 30
0.0
 40
7.0
100
AcDbArc
 50
90.0
 51
180.0
  0
LINE
  5
120E
330
2
100
AcDbEntity
  8
0
100
AcDbLine
 10
225.6400970386639
 20
322.3102228890173
 30
0.0
 11
225.6400970386639
 21
360.3102228890136
 31
0.0
  0
LINE
  5
120F
330
2
100
AcDbEntity
  8
0
100
AcDbLine
 10
226.6400970386639
 20
322.3102228890173
 30
0.0
 11
226.6400970386639
 21
360.3102228890136
 31
0.0
  0
CIRCLE
  5
1210
330
2
100
AcDbEntity
  8
0
100
AcDbCircle
 10
229.640097038663
 20
318.3102228890136
 30
0.0
 40
3.0
  0
CIRCLE
  5
1211
330
2
100
AcDbEntity
  8
0
100
AcDbCircle
 10
229.640097038663
 20
318.3102228890136
 30
0.0
 40
1.6
  0
CIRCLE
  5
1212
330
2
100
AcDbEntity
  8
0
100
AcDbCircle
 10
229.640097038663
 20
318.3102228890136
 30
0.0
 40
2.5
  0
LINE
  5
1213
330
2
100
AcDbEntity
  8
0
100
AcDbLine
 10
213.6400970386648
 20
310.3102228890173
 30
0.0
 11
175.6400970386689
 21
310.3102228890136
 31
0.0
  0
LINE
  5
1214
330
2
100
AcDbEntity
  8
0
100
AcDbLine
 10
213.6400970386648
 20
309.3102228890173
 30
0.0
 11
175.6400970386689
 21
309.3102228890137
 31
0.0
  0
ARC
  5
1215
330
2
100
AcDbEntity
  8
0
100
AcDbCircle
 10
194.6400970386639
 20
470.3102228890137
 30
0.0
 40
170.0
100
AcDbArc
 50
263.9172655502786
 51
276.1769964048646
  0
ARC
  5
1216
330
2
100
AcDbEntity
  8
0
100
AcDbCircle
 10
217.236140478853
 20
261.5294315770504
 30
0.0
 40
40.0
100
AcDbArc
 50
76.63232579736996
 51
96.17699640486467
  0
ARC
  5
1217
330
2
100
AcDbEntity
  8
0
100
AcDbCircle
 10
220.1400970386635
 20
303.4289188805822
 30
0.0
 40
2.0
100
AcDbArc
 50
266.0353021397915
 51
0.0
  0
LINE
  5
1218
330
2
100
AcDbEntity
  8
0
100
AcDbLine
 10
229.1400970386634
 20
313.8102228890137
 30
0.0
 11
232.5214010470949
 21
313.8102228890137
 31
0.0
  0
LINE
  5
1219
330
2
100
AcDbEntity
  8
0
100
AcDbLine
 10
222.1400970386635
 20
306.8102228890136
 30
0.0
 11
222.1400970386635
 21
303.4289188805822
 31
0.0
  0
ARC
  5
121A
330
2
100
AcDbEntity
  8
0
100
AcDbCircle
 10
227.6400970386635
 20
305.3102228890137
 30
0.0
 40
5.0
100
AcDbArc
 50
256.63232579737
 51
270.0
  0
LINE
  5
121B
330
2
100
AcDbEntity
  8
0
100
AcDbLine
 10
230.6400970386635
 20
300.3102228890136
 30
0.0
 11
227.6400970386635
 21
300.3102228890136
 31
0.0
  0
CIRCLE
  5
121C
330
2
100
AcDbEntity
  8
0
100
AcDbCircle
 10
138.6400970386634
 20
313.8102228890118
 30
0.0
 40
2.5
  0
CIRCLE
  5
121D
330
2
100
AcDbEntity
  8
0
100
AcDbCircle
 10
138.6400970386634
 20
313.8102228890118
 30
0.0
 40
1.6
  0
CIRCLE
  5
121E
330
2
100
AcDbEntity
  8
0
100
AcDbCircle
 10
138.6400970386634
 20
313.8102228890118
 30
0.0
 40
3.0
  0
LINE
  5
121F
330
2
100
AcDbEntity
  8
0
100
AcDbLine
 10
134.140097038663
 20
315.8102228890118
 30
0.0
 11
134.140097038663
 21
311.31022288901
 31
0.0
  0
ARC
  5
1220
330
2
100
AcDbEntity
  8
0
100
AcDbCircle
 10
126.6400970386639
 20
315.31022288901
 30
0.0
 40
6.0
100
AcDbArc
 50
180.0
 51
270.0
  0
LINE
  5
1221
330
2
100
AcDbEntity
  8
0
100
AcDbLine
 10
163.6400970386639
 20
322.3102228890173
 30
0.0
 11
163.6400970386639
 21
360.31022288901
 31
0.0
  0
LINE
  5
1222
330
2
100
AcDbEntity
  8
0
100
AcDbLine
 10
162.6400970386639
 20
322.3102228890173
 30
0.0
 11
162.6400970386639
 21
360.31022288901
 31
0.0
  0
LINE
  5
1223
330
2
100
AcDbEntity
  8
0
100
AcDbLine
 10
127.140097038663
 20
359.8102228890155
 30
0.0
 11
122.6400970386639
 21
359.8102228890155
 31
0.0
  0
ARC
  5
1224
330
2
100
AcDbEntity
  8
0
100
AcDbCircle
 10
127.140097038663
 20
315.8102228890118
 30
0.0
 40
7.0
100
AcDbArc
 50
0.0
 51
90.0
  0
LINE
  5
1225
330
2
100
AcDbEntity
  8
0
100
AcDbLine
 10
127.140097038663
 20
322.8102228890118
 30
0.0
 11
122.6400970386639
 21
322.8102228890118
 31
0.0
  0
LINE
  5
1226
330
2
100
AcDbEntity
  8
0
100
AcDbLine
 10
126.640097038663
 20
309.31022288901
 30
0.0
 11
149.6400970386639
 21
309.3102228890082
 31
0.0
  0
ARC
  5
1227
330
2
100
AcDbEntity
  8
0
100
AcDbCircle
 10
158.6400970386639
 20
305.3102228890137
 30
0.0
 40
5.0
100
AcDbArc
 50
180.0
 51
270.0
  0
LINE
  5
1228
330
2
100
AcDbEntity
  8
0
100
AcDbLine
 10
162.1400970386639
 20
300.3102228890136
 30
0.0
 11
158.6400970386639
 21
300.3102228890136
 31
0.0
  0
ARC
  5
1229
330
2
100
AcDbEntity
  8
0
100
AcDbCircle
 10
162.1400970386639
 20
305.3102228890137
 30
0.0
 40
5.0
100
AcDbArc
 50
270.0
 51
283.1629662673774
  0
ARC
  5
122A
330
2
100
AcDbEntity
  8
0
100
AcDbCircle
 10
149.6400970386639
 20
377.3102228890191
 30
0.0
 40
4.0
100
AcDbArc
 50
270.0
 51
0.0
  0
ARC
  5
122B
330
2
100
AcDbEntity
  8
0
100
AcDbCircle
 10
149.6400970386639
 20
305.3102228890082
 30
0.0
 40
4.0
100
AcDbArc
 50
0.0
 51
90.0
  0
LINE
  5
122C
330
2
100
AcDbEntity
  8
0
100
AcDbLine
 10
222.8324851940842
 20
369.5026110444385
 30
0.0
 11
222.125378412898
 21
368.7955042632518
 31
0.0
  0
LINE
  5
122D
330
2
100
AcDbEntity
  8
0
100
AcDbLine
 10
222.8324851940897
 20
313.1178347335924
 30
0.0
 11
222.125378412903
 21
313.8249415147791
 31
0.0
  0
LINE
  5
122E
330
2
100
AcDbEntity
  8
0
100
AcDbLine
 10
167.1548156644294
 20
313.8249415147736
 30
0.0
 11
166.4477088832432
 21
313.117834733587
 31
0.0
  0
LINE
  5
122F
330
2
100
AcDbEntity
  8
0
100
AcDbLine
 10
167.1548156644248
 20
368.7955042632482
 30
0.0
 11
166.4477088832381
 21
369.5026110444349
 31
0.0
  0
LINE
  5
1230
330
2
100
AcDbEntity
  8
CENTER
100
AcDbLine
 10
229.1400970386717
 20
298.0602228890191
 30
0.0
 11
229.1400970386685
 21
315.5602228890191
 31
0.0
  0
ARC
  5
1231
330
2
100
AcDbEntity
  8
0
100
AcDbCircle
 10
136.140097038663
 20
371.3102228890173
 30
0.0
 40
2.0
100
AcDbArc
 50
90.0
 51
180.0
  0
ARC
  5
1232
330
2
100
AcDbEntity
  8
0
100
AcDbCircle
 10
122.6400970386639
 20
357.8102228890155
 30
0.0
 40
2.0
100
AcDbArc
 50
90.0
 51
180.0
  0
ARC
  5
1233
330
2
100
AcDbEntity
  8
0
100
AcDbCircle
 10
122.6400970386639
 20
324.8102228890118
 30
0.0
 40
2.0
100
AcDbArc
 50
180.0
 51
270.0
  0
ARC
  5
1234
330
2
100
AcDbEntity
  8
0
100
AcDbCircle
 10
136.140097038663
 20
311.31022288901
 30
0.0
 40
2.0
100
AcDbArc
 50
180.0
 51
270.0
  0
LINE
  5
1235
330
2
100
AcDbEntity
  8
CENTER
100
AcDbLine
 10
237.8900970386634
 20
375.8102228890137
 30
0.0
 11
220.3900970386635
 21
375.8102228890137
 31
0.0
  0
LINE
  5
1236
330
2
100
AcDbEntity
  8
CENTER
100
AcDbLine
 10
229.1400970386717
 20
384.5602228890064
 30
0.0
 11
229.1400970386685
 21
367.0602228890064
 31
0.0
  0
CIRCLE
  5
1237
330
2
100
AcDbEntity
  8
0
100
AcDbCircle
 10
127.140097038663
 20
366.8102228890155
 30
0.0
 40
5.000000000000113
  0
CIRCLE
  5
1238
330
2
100
AcDbEntity
  8
0
100
AcDbCircle
 10
127.140097038663
 20
366.8102228890155
 30
0.0
 40
4.307179676972509
  0
LINE
  5
1239
330
2
100
AcDbEntity
  8
0
100
AcDbLine
 10
129.640097038663
 20
368.2535985619896
 30
0.0
 11
129.640097038663
 21
365.3668472160414
 31
0.0
  0
LINE
  5
123A
330
2
100
AcDbEntity
  8
0
100
AcDbLine
 10
127.140097038663
 20
363.9234715430673
 30
0.0
 11
129.640097038663
 21
365.3668472160414
 31
0.0
  0
LINE
  5
123B
330
2
100
AcDbEntity
  8
0
100
AcDbLine
 10
129.640097038663
 20
368.2535985619896
 30
0.0
 11
127.140097038663
 21
369.6969742349636
 31
0.0
  0
LINE
  5
123C
330
2
100
AcDbEntity
  8
0
100
AcDbLine
 10
124.640097038663
 20
368.2535985619896
 30
0.0
 11
124.640097038663
 21
365.3668472160414
 31
0.0
  0
LINE
  5
123D
330
2
100
AcDbEntity
  8
0
100
AcDbLine
 10
127.140097038663
 20
363.9234715430673
 30
0.0
 11
124.640097038663
 21
365.3668472160414
 31
0.0
  0
LINE
  5
123E
330
2
100
AcDbEntity
  8
0
100
AcDbLine
 10
124.640097038663
 20
368.2535985619896
 30
0.0
 11
127.140097038663
 21
369.6969742349636
 31
0.0
  0
CIRCLE
  5
123F
330
2
100
AcDbEntity
  8
0
100
AcDbCircle
 10
127.140097038663
 20
315.8102228890118
 30
0.0
 40
5.000000000000113
  0
CIRCLE
  5
1240
330
2
100
AcDbEntity
  8
0
100
AcDbCircle
 10
127.140097038663
 20
315.8102228890118
 30
0.0
 40
4.307179676972509
  0
LINE
  5
1241
330
2
100
AcDbEntity
  8
0
100
AcDbLine
 10
129.640097038663
 20
317.2535985619859
 30
0.0
 11
129.640097038663
 21
314.3668472160378
 31
0.0
  0
LINE
  5
1242
330
2
100
AcDbEntity
  8
0
100
AcDbLine
 10
127.140097038663
 20
312.9234715430637
 30
0.0
 11
129.640097038663
 21
314.3668472160378
 31
0.0
  0
LINE
  5
1243
330
2
100
AcDbEntity
  8
0
100
AcDbLine
 10
129.640097038663
 20
317.2535985619841
 30
0.0
 11
127.140097038663
 21
318.6969742349599
 31
0.0
  0
LINE
  5
1244
330
2
100
AcDbEntity
  8
0
100
AcDbLine
 10
124.640097038663
 20
317.2535985619841
 30
0.0
 11
124.640097038663
 21
314.3668472160378
 31
0.0
  0
LINE
  5
1245
330
2
100
AcDbEntity
  8
0
100
AcDbLine
 10
127.140097038663
 20
312.9234715430637
 30
0.0
 11
124.640097038663
 21
314.3668472160378
 31
0.0
  0
LINE
  5
1246
330
2
100
AcDbEntity
  8
0
100
AcDbLine
 10
124.640097038663
 20
317.2535985619841
 30
0.0
 11
127.140097038663
 21
318.6969742349582
 31
0.0
  0
CIRCLE
  5
1247
330
2
100
AcDbEntity
  8
0
100
AcDbCircle
 10
229.1400970386703
 20
375.8102228890137
 30
0.0
 40
5.000000000000113
  0
CIRCLE
  5
1248
330
2
100
AcDbEntity
  8
0
100
AcDbCircle
 10
229.1400970386703
 20
375.8102228890137
 30
0.0
 40
4.307179676972509
  0
LINE
  5
1249
330
2
100
AcDbEntity
  8
0
100
AcDbLine
 10
231.6400970386703
 20
377.2535985619877
 30
0.0
 11
231.6400970386703
 21
374.3668472160396
 31
0.0
  0
LINE
  5
124A
330
2
100
AcDbEntity
  8
0
100
AcDbLine
 10
229.1400970386698
 20
372.9234715430655
 30
0.0
 11
231.6400970386703
 21
374.3668472160396
 31
0.0
  0
LINE
  5
124B
330
2
100
AcDbEntity
  8
0
100
AcDbLine
 10
231.6400970386703
 20
377.2535985619877
 30
0.0
 11
229.1400970386703
 21
378.6969742349618
 31
0.0
  0
LINE
  5
124C
330
2
100
AcDbEntity
  8
0
100
AcDbLine
 10
226.6400970386703
 20
377.2535985619877
 30
0.0
 11
226.6400970386703
 21
374.3668472160396
 31
0.0
  0
LINE
  5
124D
330
2
100
AcDbEntity
  8
0
100
AcDbLine
 10
229.1400970386698
 20
372.9234715430655
 30
0.0
 11
226.6400970386703
 21
374.3668472160396
 31
0.0
  0
LINE
  5
124E
330
2
100
AcDbEntity
  8
0
100
AcDbLine
 10
226.6400970386703
 20
377.2535985619877
 30
0.0
 11
229.1400970386703
 21
378.6969742349618
 31
0.0
  0
CIRCLE
  5
124F
330
2
100
AcDbEntity
  8
0
100
AcDbCircle
 10
229.1400970386703
 20
306.8102228890136
 30
0.0
 40
5.000000000000113
  0
CIRCLE
  5
1250
330
2
100
AcDbEntity
  8
0
100
AcDbCircle
 10
229.1400970386703
 20
306.8102228890136
 30
0.0
 40
4.307179676972509
  0
LINE
  5
1251
330
2
100
AcDbEntity
  8
0
100
AcDbLine
 10
231.6400970386703
 20
308.2535985619877
 30
0.0
 11
231.6400970386703
 21
305.3668472160396
 31
0.0
  0
LINE
  5
1252
330
2
100
AcDbEntity
  8
0
100
AcDbLine
 10
229.1400970386698
 20
303.9234715430655
 30
0.0
 11
231.6400970386703
 21
305.3668472160396
 31
0.0
  0
LINE
  5
1253
330
2
100
AcDbEntity
  8
0
100
AcDbLine
 10
231.6400970386703
 20
308.2535985619877
 30
0.0
 11
229.1400970386703
 21
309.6969742349618
 31
0.0
  0
LINE
  5
1254
330
2
100
AcDbEntity
  8
0
100
AcDbLine
 10
226.6400970386703
 20
308.2535985619877
 30
0.0
 11
226.6400970386703
 21
305.3668472160396
 31
0.0
  0
LINE
  5
1255
330
2
100
AcDbEntity
  8
0
100
AcDbLine
 10
229.1400970386698
 20
303.9234715430655
 30
0.0
 11
226.6400970386703
 21
305.3668472160396
 31
0.0
  0
LINE
  5
1256
330
2
100
AcDbEntity
  8
0
100
AcDbLine
 10
226.6400970386703
 20
308.2535985619877
 30
0.0
 11
229.1400970386703
 21
309.6969742349618
 31
0.0
  0
LINE
  5
1257
330
2
100
AcDbEntity
  8
CENTER
100
AcDbLine
 10
418.1606044904301
 20
56.36043677942581
 30
0.0
 11
418.1606044904301
 21
157.9270022801391
 31
0.0
  0
LINE
  5
1258
330
2
100
AcDbEntity
  8
0
100
AcDbLine
 10
456.1606044904293
 20
72.14226508465782
 30
0.0
 11
456.1606044904293
 21
94.33372402595324
 31
0.0
  0
LINE
  5
1259
330
2
100
AcDbEntity
  8
0
100
AcDbLine
 10
456.1606044904293
 20
119.9508061433605
 30
0.0
 11
456.1606044904293
 21
142.1422650846578
 31
0.0
  0
LINE
  5
125A
330
2
100
AcDbEntity
  8
0
100
AcDbLine
 10
451.1606044904302
 20
66.64842341652167
 30
0.0
 11
451.1606044904302
 21
94.04005061127264
 31
0.0
  0
LINE
  5
125B
330
2
100
AcDbEntity
  8
0
100
AcDbLine
 10
451.1606044904296
 20
120.2444795580411
 30
0.0
 11
451.1606044904296
 21
147.6390156430441
 31
0.0
  0
LINE
  5
125C
330
2
100
AcDbEntity
  8
0
100
AcDbLine
 10
451.1606044904302
 20
142.1422650846578
 30
0.0
 11
456.1606044904301
 21
142.1422650846578
 31
0.0
  0
LINE
  5
125D
330
2
100
AcDbEntity
  8
CENTER
100
AcDbLine
 10
359.1606044904301
 20
107.1422650846578
 30
0.0
 11
492.1606044904301
 21
107.142265084656
 31
0.0
  0
LINE
  5
125E
330
2
100
AcDbEntity
  8
0
100
AcDbLine
 10
451.1606044904302
 20
72.14226508465782
 30
0.0
 11
456.1606044904301
 21
72.14226508465782
 31
0.0
  0
LINE
  5
125F
330
2
100
AcDbEntity
  8
0
100
AcDbLine
 10
393.1606044904297
 20
66.142265084656
 30
0.0
 11
451.1606044904302
 21
66.64842341652167
 31
0.0
  0
LINE
  5
1260
330
2
100
AcDbEntity
  8
0
100
AcDbLine
 10
393.1606044904292
 20
148.145173974908
 30
0.0
 11
451.1606044904296
 21
147.6390156430441
 31
0.0
  0
LINE
  5
1261
330
2
100
AcDbEntity
  8
0
100
AcDbLine
 10
393.1606044904292
 20
138.2390392782052
 30
0.0
 11
393.1606044904292
 21
148.145173974908
 31
0.0
  0
ARC
  5
1262
330
2
100
AcDbEntity
  8
0
100
AcDbCircle
 10
458.1606044904292
 20
137.5276126376646
 30
0.0
 40
2.0
100
AcDbArc
 50
180.0
 51
267.9999999999963
  0
ARC
  5
1263
330
2
100
AcDbEntity
  8
0
100
AcDbCircle
 10
467.1606044904301
 20
133.2108875350421
 30
0.0
 40
2.0
100
AcDbArc
 50
0.0
 51
87.99999999999636
  0
ARC
  5
1264
330
2
100
AcDbEntity
  8
0
100
AcDbCircle
 10
458.1606044904292
 20
76.75691753165103
 30
0.0
 40
2.0
100
AcDbArc
 50
92.00000000000365
 51
180.0
  0
ARC
  5
1265
330
2
100
AcDbEntity
  8
0
100
AcDbCircle
 10
467.1606044904301
 20
81.07364263427355
 30
0.0
 40
2.0
100
AcDbArc
 50
272.0000000000036
 51
0.0
  0
LINE
  5
1266
330
2
100
AcDbEntity
  8
0
100
AcDbLine
 10
467.2304034838353
 20
135.2096691890818
 30
0.0
 11
458.0908054970241
 21
135.5288309836267
 31
0.0
  0
LINE
  5
1267
330
2
100
AcDbEntity
  8
0
100
AcDbLine
 10
467.2304034838353
 20
79.07486098023565
 30
0.0
 11
458.0908054970241
 21
78.75569918568891
 31
0.0
  0
LINE
  5
1268
330
2
100
AcDbEntity
  8
0
100
AcDbLine
 10
469.160604490431
 20
81.07364263427355
 30
0.0
 11
469.1606044904301
 21
92.6422190846568
 31
0.0
  0
LINE
  5
1269
330
2
100
AcDbEntity
  8
0
100
AcDbLine
 10
469.1606044904301
 20
121.6422190846567
 30
0.0
 11
469.1606044904292
 21
133.2108875350421
 31
0.0
  0
LINE
  5
126A
330
2
100
AcDbEntity
  8
0
100
AcDbLine
 10
393.1606044904297
 20
71.142265084656
 30
0.0
 11
450.1606044904301
 21
71.142265084656
 31
0.0
  0
LINE
  5
126B
330
2
100
AcDbEntity
  8
0
100
AcDbLine
 10
393.1606044904297
 20
74.142265084656
 30
0.0
 11
450.1606044904301
 21
74.142265084656
 31
0.0
  0
LINE
  5
126C
330
2
100
AcDbEntity
  8
0
100
AcDbLine
 10
393.1606044904297
 20
88.85022991878742
 30
0.0
 11
450.1606044904301
 21
88.85022991878742
 31
0.0
  0
LINE
  5
126D
330
2
100
AcDbEntity
  8
0
100
AcDbLine
 10
393.1606044904301
 20
143.1422650846578
 30
0.0
 11
450.1606044904301
 21
143.1422650846578
 31
0.0
  0
LINE
  5
126E
330
2
100
AcDbEntity
  8
0
100
AcDbLine
 10
393.1606044904301
 20
140.1422650846578
 30
0.0
 11
450.1606044904301
 21
140.1422650846578
 31
0.0
  0
LINE
  5
126F
330
2
100
AcDbEntity
  8
0
100
AcDbLine
 10
393.1606044904301
 20
125.4343002505263
 30
0.0
 11
450.1606044904301
 21
125.4343002505263
 31
0.0
  0
LINE
  5
1270
330
2
100
AcDbEntity
  8
0
100
AcDbLine
 10
375.8606044904299
 20
80.64226508465599
 30
0.0
 11
379.1606044904301
 21
80.64226508465782
 31
0.0
  0
LINE
  5
1271
330
2
100
AcDbEntity
  8
0
100
AcDbLine
 10
372.1606044904256
 20
84.14226508465782
 30
0.0
 11
380.1606044904256
 21
84.14226508465782
 31
0.0
  0
LINE
  5
1272
330
2
100
AcDbEntity
  8
HIDS
100
AcDbLine
 10
380.3677112716113
 20
75.43515830346933
 30
0.0
 11
379.9534977092389
 21
75.84937186584085
 31
0.0
  0
LINE
  5
1273
330
2
100
AcDbEntity
  8
0
100
AcDbLine
 10
379.1606044904283
 20
78.64226508465964
 30
0.0
 11
379.660604490431
 21
78.14226508465782
 31
0.0
  0
LINE
  5
1274
330
2
100
AcDbEntity
  8
0
100
AcDbLine
 10
372.1606044904301
 20
80.64226508465599
 30
0.0
 11
371.1606044904301
 21
81.21961535384599
 31
0.0
  0
LINE
  5
1275
330
2
100
AcDbEntity
  8
0
100
AcDbLine
 10
373.8606044904299
 20
81.34226508465673
 30
0.0
 11
375.4606044904303
 21
81.34226508465673
 31
0.0
  0
LINE
  5
1276
330
2
100
AcDbEntity
  8
0
100
AcDbLine
 10
375.6606044904301
 20
80.84226508465674
 30
0.0
 11
375.8606044904299
 21
80.64226508465599
 31
0.0
  0
LINE
  5
1277
330
2
100
AcDbEntity
  8
0
100
AcDbLine
 10
373.6606044904301
 20
80.84226508465674
 30
0.0
 11
373.6606044904301
 21
82.95573472961933
 31
0.0
  0
LINE
  5
1278
330
2
100
AcDbEntity
  8
0
100
AcDbLine
 10
373.6606044904301
 20
131.3287954396963
 30
0.0
 11
373.6606044904301
 21
133.4422650846571
 31
0.0
  0
LINE
  5
1279
330
2
100
AcDbEntity
  8
0
100
AcDbLine
 10
372.1606044904301
 20
80.64226508465599
 30
0.0
 11
373.4606044904303
 21
80.64226508465599
 31
0.0
  0
LINE
  5
127A
330
2
100
AcDbEntity
  8
0
100
AcDbLine
 10
372.1606044904256
 20
84.14226508465782
 30
0.0
 11
371.1606044904256
 21
83.56491481546783
 31
0.0
  0
LINE
  5
127B
330
2
100
AcDbEntity
  8
0
100
AcDbLine
 10
375.8606044904281
 20
133.6422650846578
 30
0.0
 11
379.1606044904283
 21
133.6422650846578
 31
0.0
  0
LINE
  5
127C
330
2
100
AcDbEntity
  8
0
100
AcDbLine
 10
372.1606044904256
 20
130.142265084656
 30
0.0
 11
380.1606044904256
 21
130.1422650846578
 31
0.0
  0
LINE
  5
127D
330
2
100
AcDbEntity
  8
0
100
AcDbLine
 10
379.1606044904283
 20
135.6422650846578
 30
0.0
 11
379.1606044904283
 21
131.2053285383661
 31
0.0
  0
LINE
  5
127E
330
2
100
AcDbEntity
  8
0
100
AcDbLine
 10
379.1606044904283
 20
83.07920163094768
 30
0.0
 11
379.1606044904283
 21
78.64226508465964
 31
0.0
  0
LINE
  5
127F
330
2
100
AcDbEntity
  8
0
100
AcDbLine
 10
379.1606044904237
 20
133.6422650846578
 30
0.0
 11
379.1606044904237
 21
135.6422650846523
 31
0.0
  0
LINE
  5
1280
330
2
100
AcDbEntity
  8
0
100
AcDbLine
 10
380.1606044904256
 20
83.76010173171909
 30
0.0
 11
380.1606044904256
 21
92.6422190846568
 31
0.0
  0
LINE
  5
1281
330
2
100
AcDbEntity
  8
0
100
AcDbLine
 10
380.1606044904256
 20
121.6422190846567
 30
0.0
 11
380.1606044904256
 21
130.5244284375965
 31
0.0
  0
LINE
  5
1282
330
2
100
AcDbEntity
  8
0
100
AcDbLine
 10
380.1606044904256
 20
130.5244284375965
 30
0.0
 11
380.7373555486228
 21
130.5395311955706
 31
0.0
  0
LINE
  5
1283
330
2
100
AcDbEntity
  8
0
100
AcDbLine
 10
380.6606044904251
 20
67.24266214263645
 30
0.0
 11
380.6606044904251
 21
67.64226508465782
 31
0.0
  0
LINE
  5
1284
330
2
100
AcDbEntity
  8
HIDS
100
AcDbLine
 10
380.6606044904246
 20
67.64226508465782
 30
0.0
 11
380.6606044904251
 21
77.64226508465782
 31
0.0
  0
LINE
  5
1285
330
2
100
AcDbEntity
  8
0
100
AcDbLine
 10
380.6606044904251
 20
77.64226508465782
 30
0.0
 11
380.6606044904251
 21
83.69087789017232
 31
0.0
  0
LINE
  5
1286
330
2
100
AcDbEntity
  8
0
100
AcDbLine
 10
380.6606044904251
 20
130.5936522791415
 30
0.0
 11
380.6606044904251
 21
136.6422650846578
 31
0.0
  0
LINE
  5
1287
330
2
100
AcDbEntity
  8
HIDS
100
AcDbLine
 10
380.6606044904251
 20
136.6422650846578
 30
0.0
 11
380.6606044904251
 21
146.6422650846578
 31
0.0
  0
LINE
  5
1288
330
2
100
AcDbEntity
  8
0
100
AcDbLine
 10
380.6606044904256
 20
146.6422650846578
 30
0.0
 11
380.6606044904256
 21
147.0418680266773
 31
0.0
  0
ARC
  5
1289
330
2
100
AcDbEntity
  8
0
100
AcDbCircle
 10
381.6606044904251
 20
67.24266214263645
 30
0.0
 40
1.0
100
AcDbArc
 50
180.0
 51
269.5000000000084
  0
LINE
  5
128A
330
2
100
AcDbEntity
  8
0
100
AcDbLine
 10
379.1606044904283
 20
135.6422650846578
 30
0.0
 11
379.6606044904283
 21
136.1422650846578
 31
0.0
  0
LINE
  5
128B
330
2
100
AcDbEntity
  8
HIDS
100
AcDbLine
 10
380.3677112716113
 20
138.8493718658444
 30
0.0
 11
379.9534977092371
 21
138.4351583034711
 31
0.0
  0
LINE
  5
128C
330
2
100
AcDbEntity
  8
HIDS
100
AcDbLine
 10
379.6606044904233
 20
76.55647864702752
 30
0.0
 11
379.6606044904237
 21
77.64226508465782
 31
0.0
  0
LINE
  5
128D
330
2
100
AcDbEntity
  8
0
100
AcDbLine
 10
379.6606044904233
 20
77.64226508465782
 30
0.0
 11
379.6606044904233
 21
83.19732439179444
 31
0.0
  0
LINE
  5
128E
330
2
100
AcDbEntity
  8
0
100
AcDbLine
 10
379.6606044904233
 20
131.0872057775193
 30
0.0
 11
379.6606044904233
 21
136.6422650846578
 31
0.0
  0
LINE
  5
128F
330
2
100
AcDbEntity
  8
HIDS
100
AcDbLine
 10
379.6606044904233
 20
136.6422650846578
 30
0.0
 11
379.6606044904233
 21
137.7280515222844
 31
0.0
  0
LINE
  5
1290
330
2
100
AcDbEntity
  8
0
100
AcDbLine
 10
371.1606044904265
 20
81.21961535384782
 30
0.0
 11
371.160604490426
 21
92.6422190846568
 31
0.0
  0
LINE
  5
1291
330
2
100
AcDbEntity
  8
0
100
AcDbLine
 10
371.1606044904256
 20
121.6422190846567
 30
0.0
 11
371.1606044904256
 21
133.064914815466
 31
0.0
  0
LINE
  5
1292
330
2
100
AcDbEntity
  8
0
100
AcDbLine
 10
372.1606044904256
 20
84.14226508465782
 30
0.0
 11
372.1606044904256
 21
92.6422190846568
 31
0.0
  0
LINE
  5
1293
330
2
100
AcDbEntity
  8
0
100
AcDbLine
 10
372.160604490426
 20
121.6422190846567
 30
0.0
 11
372.1606044904256
 21
130.142265084656
 31
0.0
  0
LINE
  5
1294
330
2
100
AcDbEntity
  8
0
100
AcDbLine
 10
372.1606044904283
 20
133.6422650846578
 30
0.0
 11
373.4606044904285
 21
133.6422650846578
 31
0.0
  0
LINE
  5
1295
330
2
100
AcDbEntity
  8
0
100
AcDbLine
 10
375.6606044904283
 20
133.4422650846571
 30
0.0
 11
375.8606044904281
 21
133.6422650846578
 31
0.0
  0
LINE
  5
1296
330
2
100
AcDbEntity
  8
0
100
AcDbLine
 10
375.6606044904283
 20
133.4422650846571
 30
0.0
 11
375.6606044904265
 21
131.1314745179532
 31
0.0
  0
LINE
  5
1297
330
2
100
AcDbEntity
  8
0
100
AcDbLine
 10
375.6606044903906
 20
83.15305565136242
 30
0.0
 11
375.6606044903887
 21
80.84226508469857
 31
0.0
  0
LINE
  5
1298
330
2
100
AcDbEntity
  8
0
100
AcDbLine
 10
373.8606044904281
 20
132.942265084657
 30
0.0
 11
375.4606044904285
 21
132.942265084657
 31
0.0
  0
LINE
  5
1299
330
2
100
AcDbEntity
  8
0
100
AcDbLine
 10
372.1606044904283
 20
133.6422650846578
 30
0.0
 11
371.1606044904283
 21
133.0649148154678
 31
0.0
  0
LINE
  5
129A
330
2
100
AcDbEntity
  8
0
100
AcDbLine
 10
372.1606044904256
 20
130.1422650846578
 30
0.0
 11
371.1606044904256
 21
130.7196153538459
 31
0.0
  0
LINE
  5
129B
330
2
100
AcDbEntity
  8
0
100
AcDbLine
 10
393.1606044904274
 20
148.1422650846578
 30
0.0
 11
393.1606044904292
 21
120.9413788434829
 31
0.0
  0
LINE
  5
129C
330
2
100
AcDbEntity
  8
0
100
AcDbLine
 10
393.1606044904306
 20
93.3431513258327
 30
0.0
 11
393.1606044904324
 21
66.14226508465782
 31
0.0
  0
LINE
  5
129D
330
2
100
AcDbEntity
  8
0
100
AcDbLine
 10
393.1606044904324
 20
66.14226508465782
 30
0.0
 11
381.6518779549269
 21
66.24270021957255
 31
0.0
  0
LINE
  5
129E
330
2
100
AcDbEntity
  8
0
100
AcDbLine
 10
380.1606044904256
 20
83.76010173171909
 30
0.0
 11
380.7373555484582
 21
83.74499897374864
 31
0.0
  0
ARC
  5
129F
330
2
100
AcDbEntity
  8
HIDS
100
AcDbCircle
 10
380.6606044904256
 20
76.55647864702752
 30
0.0
 40
1.0
100
AcDbArc
 50
180.0
 51
225.0000000000094
  0
ARC
  5
12A0
330
2
100
AcDbEntity
  8
HIDS
100
AcDbCircle
 10
379.6606044904256
 20
74.72805152228267
 30
0.0
 40
1.0
100
AcDbArc
 50
0.0
 51
45.00000000000949
  0
ARC
  5
12A1
330
2
100
AcDbEntity
  8
HIDS
100
AcDbCircle
 10
380.6606044904233
 20
137.7280515222844
 30
0.0
 40
1.0
100
AcDbArc
 50
134.9999999999905
 51
180.0
  0
ARC
  5
12A2
330
2
100
AcDbEntity
  8
HIDS
100
AcDbCircle
 10
379.6606044904256
 20
139.5564786470329
 30
0.0
 40
1.0
100
AcDbArc
 50
314.9999999999905
 51
0.0
  0
ARC
  5
12A3
330
2
100
AcDbEntity
  8
0
100
AcDbCircle
 10
373.4606044904285
 20
133.4422650846571
 30
0.0
 40
0.2
100
AcDbArc
 50
0.0
 51
90.0
  0
ARC
  5
12A4
330
2
100
AcDbEntity
  8
0
100
AcDbCircle
 10
373.8606044904281
 20
133.1422650846578
 30
0.0
 40
0.2
100
AcDbArc
 50
180.0
 51
270.0
  0
ARC
  5
12A5
330
2
100
AcDbEntity
  8
0
100
AcDbCircle
 10
375.4606044904285
 20
133.1422650846578
 30
0.0
 40
0.2
100
AcDbArc
 50
270.0
 51
0.0
  0
ARC
  5
12A6
330
2
100
AcDbEntity
  8
0
100
AcDbCircle
 10
373.4606044904303
 20
80.84226508465674
 30
0.0
 40
0.2
100
AcDbArc
 50
270.0
 51
0.0
  0
ARC
  5
12A7
330
2
100
AcDbEntity
  8
0
100
AcDbCircle
 10
373.8606044904299
 20
81.142265084656
 30
0.0
 40
0.2
100
AcDbArc
 50
90.0
 51
180.0
  0
ARC
  5
12A8
330
2
100
AcDbEntity
  8
0
100
AcDbCircle
 10
375.4606044904303
 20
81.142265084656
 30
0.0
 40
0.2
100
AcDbArc
 50
0.0
 51
90.0
  0
LINE
  5
12A9
330
2
100
AcDbEntity
  8
0
100
AcDbLine
 10
372.1606044904301
 20
80.64226508465599
 30
0.0
 11
372.1606044904301
 21
82.55373600968761
 31
0.0
  0
LINE
  5
12AA
330
2
100
AcDbEntity
  8
0
100
AcDbLine
 10
372.1606044904283
 20
131.730794159628
 30
0.0
 11
372.1606044904283
 21
133.6422650846578
 31
0.0
  0
LINE
  5
12AB
330
2
100
AcDbEntity
  8
0
100
AcDbLine
 10
375.8606044904281
 20
133.6422650846578
 30
0.0
 11
375.8606044904281
 21
131.1377819544848
 31
0.0
  0
LINE
  5
12AC
330
2
100
AcDbEntity
  8
0
100
AcDbLine
 10
375.8606044904299
 20
83.14674821483079
 30
0.0
 11
375.8606044904299
 21
80.64226508465599
 31
0.0
  0
LINE
  5
12AD
330
2
100
AcDbEntity
  8
0
100
AcDbLine
 10
393.1606044904319
 20
71.14226508465782
 30
0.0
 11
386.6518779549256
 21
71.14226508465782
 31
0.0
  0
LINE
  5
12AE
330
2
100
AcDbEntity
  8
0
100
AcDbLine
 10
393.1606044904319
 20
74.14226508465782
 30
0.0
 11
386.6518779549256
 21
74.14226508465782
 31
0.0
  0
LINE
  5
12AF
330
2
100
AcDbEntity
  8
0
100
AcDbLine
 10
393.1606044904301
 20
140.1422650846578
 30
0.0
 11
386.6518779549278
 21
140.1422650846578
 31
0.0
  0
LINE
  5
12B0
330
2
100
AcDbEntity
  8
0
100
AcDbLine
 10
393.1606044904274
 20
143.1422650846578
 30
0.0
 11
386.6518779549256
 21
143.1422650846578
 31
0.0
  0
LINE
  5
12B1
330
2
100
AcDbEntity
  8
0
100
AcDbLine
 10
393.1606044904292
 20
125.4343002505263
 30
0.0
 11
383.0157663345462
 21
125.4343002505263
 31
0.0
  0
LINE
  5
12B2
330
2
100
AcDbEntity
  8
0
100
AcDbLine
 10
393.160604490431
 20
88.85022991878924
 30
0.0
 11
382.9835995663215
 21
88.85022991878924
 31
0.0
  0
LINE
  5
12B3
330
2
100
AcDbEntity
  8
0
100
AcDbLine
 10
381.6518779549264
 20
79.67724871114279
 30
0.0
 11
385.1649677581731
 21
79.64659044089223
 31
0.0
  0
LINE
  5
12B4
330
2
100
AcDbEntity
  8
0
100
AcDbLine
 10
385.6606044904237
 20
79.14660947935937
 30
0.0
 11
385.6606044904237
 21
67.19902780368267
 31
0.0
  0
ARC
  5
12B5
330
2
100
AcDbEntity
  8
0
100
AcDbCircle
 10
381.6606044904247
 20
80.67721063421032
 30
0.0
 40
1.0
100
AcDbArc
 50
180.0
 51
269.5000000000345
  0
ARC
  5
12B6
330
2
100
AcDbEntity
  8
0
100
AcDbCircle
 10
385.1606044904242
 20
79.14660947936119
 30
0.0
 40
0.5
100
AcDbArc
 50
0.0
 51
89.5000000000345
  0
ARC
  5
12B7
330
2
100
AcDbEntity
  8
0
100
AcDbCircle
 10
386.6606044904238
 20
67.19902780368267
 30
0.0
 40
1.0
100
AcDbArc
 50
180.0
 51
269.5000000000084
  0
ARC
  5
12B8
330
2
100
AcDbEntity
  8
0
100
AcDbCircle
 10
381.6606044904251
 20
147.0418680266773
 30
0.0
 40
1.0
100
AcDbArc
 50
90.49999999999155
 51
180.0
  0
LINE
  5
12B9
330
2
100
AcDbEntity
  8
0
100
AcDbLine
 10
393.1606044904274
 20
148.1422650846578
 30
0.0
 11
381.6518779549269
 21
148.0418299497412
 31
0.0
  0
LINE
  5
12BA
330
2
100
AcDbEntity
  8
0
100
AcDbLine
 10
381.6518779549264
 20
134.6072814581728
 30
0.0
 11
385.1649677581731
 21
134.6379397284215
 31
0.0
  0
LINE
  5
12BB
330
2
100
AcDbEntity
  8
0
100
AcDbLine
 10
385.6606044904237
 20
135.1379206899544
 30
0.0
 11
385.6606044904237
 21
147.0855023656311
 31
0.0
  0
ARC
  5
12BC
330
2
100
AcDbEntity
  8
0
100
AcDbCircle
 10
381.6606044904247
 20
133.6073195351034
 30
0.0
 40
1.0
100
AcDbArc
 50
90.49999999996549
 51
180.0
  0
ARC
  5
12BD
330
2
100
AcDbEntity
  8
0
100
AcDbCircle
 10
385.1606044904242
 20
135.1379206899544
 30
0.0
 40
0.5
100
AcDbArc
 50
270.4999999999654
 51
0.0
  0
ARC
  5
12BE
330
2
100
AcDbEntity
  8
0
100
AcDbCircle
 10
386.6606044904238
 20
147.0855023656311
 30
0.0
 40
1.0
100
AcDbArc
 50
90.49999999999155
 51
180.0
  0
LINE
  5
12BF
330
2
100
AcDbEntity
  8
0
100
AcDbLine
 10
378.5606044904239
 20
136.6422650846578
 30
0.0
 11
378.1606044904238
 21
137.335085407685
 31
0.0
  0
LINE
  5
12C0
330
2
100
AcDbEntity
  8
0
100
AcDbLine
 10
384.1606044904238
 20
136.6422650846578
 30
0.0
 11
384.1606044904238
 21
146.6422650846578
 31
0.0
  0
LINE
  5
12C1
330
2
100
AcDbEntity
  8
0
100
AcDbLine
 10
378.5606044904239
 20
136.6422650846578
 30
0.0
 11
378.5606044904239
 21
146.6422650846578
 31
0.0
  0
LINE
  5
12C2
330
2
100
AcDbEntity
  8
0
100
AcDbLine
 10
385.6606044904237
 20
136.6422650846578
 30
0.0
 11
378.5606044904239
 21
136.6422650846578
 31
0.0
  0
LINE
  5
12C3
330
2
100
AcDbEntity
  8
0
100
AcDbLine
 10
385.6606044904237
 20
146.6422650846578
 30
0.0
 11
378.5606044904239
 21
146.6422650846578
 31
0.0
  0
LINE
  5
12C4
330
2
100
AcDbEntity
  8
0
100
AcDbLine
 10
378.5606044904239
 20
146.6422650846578
 30
0.0
 11
378.1606044904238
 21
145.9494447616305
 31
0.0
  0
LINE
  5
12C5
330
2
100
AcDbEntity
  8
0
100
AcDbLine
 10
378.1606044904238
 20
137.335085407685
 30
0.0
 11
378.1606044904238
 21
145.9494447616305
 31
0.0
  0
LINE
  5
12C6
330
2
100
AcDbEntity
  8
0
100
AcDbLine
 10
385.6606044904237
 20
146.6422650846578
 30
0.0
 11
385.6606044904237
 21
136.6422650846578
 31
0.0
  0
LINE
  5
12C7
330
2
100
AcDbEntity
  8
0
100
AcDbLine
 10
378.5606044904239
 20
77.64226508465782
 30
0.0
 11
378.1606044904238
 21
76.94944476163056
 31
0.0
  0
LINE
  5
12C8
330
2
100
AcDbEntity
  8
0
100
AcDbLine
 10
384.1606044904238
 20
77.64226508465782
 30
0.0
 11
384.1606044904238
 21
67.64226508465782
 31
0.0
  0
LINE
  5
12C9
330
2
100
AcDbEntity
  8
0
100
AcDbLine
 10
378.5606044904239
 20
77.64226508465782
 30
0.0
 11
378.5606044904239
 21
67.64226508465782
 31
0.0
  0
LINE
  5
12CA
330
2
100
AcDbEntity
  8
0
100
AcDbLine
 10
385.6606044904237
 20
77.64226508465782
 30
0.0
 11
378.5606044904239
 21
77.64226508465782
 31
0.0
  0
LINE
  5
12CB
330
2
100
AcDbEntity
  8
0
100
AcDbLine
 10
385.6606044904237
 20
67.64226508465782
 30
0.0
 11
378.5606044904239
 21
67.64226508465782
 31
0.0
  0
LINE
  5
12CC
330
2
100
AcDbEntity
  8
0
100
AcDbLine
 10
378.5606044904239
 20
67.64226508465782
 30
0.0
 11
378.1606044904238
 21
68.33508540768509
 31
0.0
  0
LINE
  5
12CD
330
2
100
AcDbEntity
  8
0
100
AcDbLine
 10
378.1606044904238
 20
76.94944476163056
 30
0.0
 11
378.1606044904238
 21
68.33508540768509
 31
0.0
  0
LINE
  5
12CE
330
2
100
AcDbEntity
  8
CENTER
  6
CENS
100
AcDbLine
 10
373.5819365803281
 20
141.6422650846578
 30
0.0
 11
398.1447902567097
 21
141.6422650846578
 31
0.0
  0
LINE
  5
12CF
330
2
100
AcDbEntity
  8
CENTER
  6
CENS
100
AcDbLine
 10
373.5819365803276
 20
72.64226508465782
 30
0.0
 11
398.1447902567092
 21
72.64226508465782
 31
0.0
  0
LINE
  5
12D0
330
2
100
AcDbEntity
  8
0
100
AcDbLine
 10
482.1606044904301
 20
121.639311513665
 30
0.0
 11
482.1606044904301
 21
92.6422190846568
 31
0.0
  0
LINE
  5
12D1
330
2
100
AcDbEntity
  8
CENTER
  6
CENS
100
AcDbLine
 10
474.1606044904301
 20
111.0916080592886
 30
0.0
 11
474.1606044904301
 21
127.910516685715
 31
0.0
  0
LINE
  5
12D2
330
2
100
AcDbEntity
  8
0
100
AcDbLine
 10
369.1606044904301
 20
121.6422190846567
 30
0.0
 11
369.1606044904301
 21
92.6422190846568
 31
0.0
  0
LINE
  5
12D3
330
2
100
AcDbEntity
  8
0
100
AcDbLine
 10
384.0908309439805
 20
92.6422190846568
 30
0.0
 11
369.1606044904301
 21
92.6422190846568
 31
0.0
  0
LINE
  5
12D4
330
2
100
AcDbEntity
  8
0
 48
0.5
100
AcDbLine
 10
458.2998504491434
 20
92.6422190846568
 30
0.0
 11
482.1606044904301
 21
92.6422190846568
 31
0.0
  0
LINE
  5
12D5
330
2
100
AcDbEntity
  8
0
 48
0.5
100
AcDbLine
 10
369.1606129444703
 20
118.9422190846578
 30
0.0
 11
482.1606044904301
 21
118.9422190846578
 31
0.0
  0
LINE
  5
12D6
330
2
100
AcDbEntity
  8
0
 48
0.5
100
AcDbLine
 10
392.1606129444703
 20
116.639311513665
 30
0.0
 11
455.1606044904302
 21
116.639311513665
 31
0.0
  0
LINE
  5
12D7
330
2
100
AcDbEntity
  8
0
 48
0.5
100
AcDbLine
 10
371.1606129444703
 20
116.1393115136632
 30
0.0
 11
371.1606129444699
 21
98.13931151366507
 31
0.0
  0
LINE
  5
12D8
330
2
100
AcDbEntity
  8
0
 48
0.5
100
AcDbLine
 10
381.1606129444703
 20
116.639311513665
 30
0.0
 11
381.1606129444703
 21
97.63931151366506
 31
0.0
  0
LINE
  5
12D9
330
2
100
AcDbEntity
  8
0
 48
0.5
100
AcDbLine
 10
380.0106129444703
 20
116.639311513665
 30
0.0
 11
380.0106129444703
 21
97.63931151366506
 31
0.0
  0
LINE
  5
12DA
330
2
100
AcDbEntity
  8
0
 48
0.5
100
AcDbLine
 10
381.1606129444703
 20
98.13931151366507
 30
0.0
 11
392.1606129444703
 21
98.13931151366507
 31
0.0
  0
LINE
  5
12DB
330
2
100
AcDbEntity
  8
0
 48
0.5
100
AcDbLine
 10
371.1606129444703
 20
98.13931151366507
 30
0.0
 11
380.0106129444703
 21
98.13931151366507
 31
0.0
  0
LINE
  5
12DC
330
2
100
AcDbEntity
  8
0
 48
0.5
100
AcDbLine
 10
371.1606129444703
 20
98.13931151366507
 30
0.0
 11
369.1606129444703
 21
96.98461097528507
 31
0.0
  0
LINE
  5
12DD
330
2
100
AcDbEntity
  8
0
 48
0.5
100
AcDbLine
 10
380.0106129444703
 20
97.63931151366506
 30
0.0
 11
381.1606129444703
 21
97.63931151366506
 31
0.0
  0
LINE
  5
12DE
330
2
100
AcDbEntity
  8
0
 48
0.5
100
AcDbLine
 10
381.1606129444703
 20
116.139311513665
 30
0.0
 11
392.1606129444703
 21
116.1393115136632
 31
0.0
  0
LINE
  5
12DF
330
2
100
AcDbEntity
  8
0
 48
0.5
100
AcDbLine
 10
380.0106129444703
 20
116.639311513665
 30
0.0
 11
381.1606129444703
 21
116.639311513665
 31
0.0
  0
LINE
  5
12E0
330
2
100
AcDbEntity
  8
0
 48
0.5
100
AcDbLine
 10
371.1606129444699
 20
116.1393115136632
 30
0.0
 11
380.0106129444703
 21
116.1393115136632
 31
0.0
  0
LINE
  5
12E1
330
2
100
AcDbEntity
  8
0
 48
0.5
100
AcDbLine
 10
369.1606044904301
 20
117.2969196230367
 30
0.0
 11
371.1606044904301
 21
116.1422190846568
 31
0.0
  0
LINE
  5
12E2
330
2
100
AcDbEntity
  8
0
 48
0.5
100
AcDbLine
 10
371.1606129444703
 20
116.1393115136632
 30
0.0
 11
369.1606129444703
 21
117.2940120520432
 31
0.0
  0
LINE
  5
12E3
330
2
100
AcDbEntity
  8
0
 48
0.5
100
AcDbLine
 10
392.1606129444703
 20
116.639311513665
 30
0.0
 11
392.1606129444703
 21
97.64521865565058
 31
0.0
  0
LINE
  5
12E4
330
2
100
AcDbEntity
  8
0
100
AcDbLine
 10
384.0908865268474
 20
121.6422190846567
 30
0.0
 11
369.1606044904301
 21
121.6422190846567
 31
0.0
  0
LINE
  5
12E5
330
2
100
AcDbEntity
  8
0
 48
0.5
100
AcDbLine
 10
458.2998108762458
 20
121.6422190846567
 30
0.0
 11
482.1606044904301
 21
121.6422190846567
 31
0.0
  0
LINE
  5
12E6
330
2
100
AcDbEntity
  8
0
 48
0.5
100
AcDbLine
 10
471.1606044904301
 20
116.6422190846567
 30
0.0
 11
477.1606044904301
 21
116.6422190846567
 31
0.0
  0
LINE
  5
12E7
330
2
100
AcDbEntity
  8
0
 48
0.5
100
AcDbLine
 10
471.1606044904301
 20
97.6422190846568
 30
0.0
 11
477.1606044904301
 21
97.6422190846568
 31
0.0
  0
LINE
  5
12E8
330
2
100
AcDbEntity
  8
0
 48
0.5
100
AcDbLine
 10
465.1606044904301
 20
116.6422190846567
 30
0.0
 11
465.1606044904301
 21
97.6422190846568
 31
0.0
  0
LINE
  5
12E9
330
2
100
AcDbEntity
  8
0
 48
0.5
100
AcDbLine
 10
466.3106044904298
 20
116.6422190846567
 30
0.0
 11
466.3106044904298
 21
97.6422190846568
 31
0.0
  0
LINE
  5
12EA
330
2
100
AcDbEntity
  8
0
 48
0.5
100
AcDbLine
 10
471.1606044904301
 20
97.6422190846568
 30
0.0
 11
471.1606044904301
 21
116.6422190846567
 31
0.0
  0
LINE
  5
12EB
330
2
100
AcDbEntity
  8
0
100
AcDbLine
 10
455.1606044904302
 20
116.639311513665
 30
0.0
 11
455.1606044904302
 21
97.63881746207136
 31
0.0
  0
LINE
  5
12EC
330
2
100
AcDbEntity
  8
0
 48
0.5
100
AcDbLine
 10
455.1606044904302
 20
98.14221908465681
 30
0.0
 11
465.1606044904301
 21
98.14221908465681
 31
0.0
  0
LINE
  5
12ED
330
2
100
AcDbEntity
  8
0
100
AcDbLine
 10
455.1606044904302
 20
97.63881746207136
 30
0.0
 11
452.5890037486338
 21
97.63881746207136
 31
0.0
  0
LINE
  5
12EE
330
2
100
AcDbEntity
  8
0
 48
0.5
100
AcDbLine
 10
466.3106044904298
 20
98.14221908465681
 30
0.0
 11
471.1606044904301
 21
98.14221908465681
 31
0.0
  0
LINE
  5
12EF
330
2
100
AcDbEntity
  8
0
 48
0.5
100
AcDbLine
 10
466.3106044904298
 20
97.6422190846568
 30
0.0
 11
465.1606044904301
 21
97.6422190846568
 31
0.0
  0
LINE
  5
12F0
330
2
100
AcDbEntity
  8
0
 48
0.5
100
AcDbLine
 10
455.1606044904302
 20
116.1422190846568
 30
0.0
 11
465.1606044904301
 21
116.1422190846568
 31
0.0
  0
LINE
  5
12F1
330
2
100
AcDbEntity
  8
0
 48
0.5
100
AcDbLine
 10
465.1606044904301
 20
116.6422190846567
 30
0.0
 11
466.3106044904298
 21
116.6422190846567
 31
0.0
  0
LINE
  5
12F2
330
2
100
AcDbEntity
  8
0
 48
0.5
100
AcDbLine
 10
466.3106044904298
 20
116.1422190846568
 30
0.0
 11
471.1606044904301
 21
116.1422190846568
 31
0.0
  0
LINE
  5
12F3
330
2
100
AcDbEntity
  8
HOJO
100
AcDbLine
 10
471.6606044904337
 20
118.9422190846578
 30
0.0
 11
471.6606044904337
 21
121.6422190846567
 31
0.0
  0
LINE
  5
12F4
330
2
100
AcDbEntity
  8
0
100
AcDbLine
 10
472.110604490946
 20
118.9422190846578
 30
0.0
 11
472.110604490946
 21
121.6422190846567
 31
0.0
  0
LINE
  5
12F5
330
2
100
AcDbEntity
  8
0
 48
0.5
100
AcDbLine
 10
480.1606129444703
 20
116.1422190846568
 30
0.0
 11
480.1606129444713
 21
98.14221908465862
 31
0.0
  0
LINE
  5
12F6
330
2
100
AcDbEntity
  8
0
 48
0.5
100
AcDbLine
 10
477.1606129444708
 20
97.6422190846568
 30
0.0
 11
477.1606129444708
 21
116.6422190846567
 31
0.0
  0
LINE
  5
12F7
330
2
100
AcDbEntity
  8
0
 48
0.5
100
AcDbLine
 10
482.1606129444717
 20
96.98751854627865
 30
0.0
 11
480.1606129444713
 21
98.14221908465862
 31
0.0
  0
LINE
  5
12F8
330
2
100
AcDbEntity
  8
HOJO
100
AcDbLine
 10
476.6606129444703
 20
118.9422190846578
 30
0.0
 11
476.6606129444703
 21
121.6422190846567
 31
0.0
  0
LINE
  5
12F9
330
2
100
AcDbEntity
  8
0
100
AcDbLine
 10
476.2106129439543
 20
118.9422190846578
 30
0.0
 11
476.2106129439543
 21
121.6422190846567
 31
0.0
  0
LINE
  5
12FA
330
2
100
AcDbEntity
  8
0
100
AcDbLine
 10
480.1606129444713
 20
98.14221908465862
 30
0.0
 11
477.1606129444708
 21
98.14221908465862
 31
0.0
  0
LINE
  5
12FB
330
2
100
AcDbEntity
  8
0
100
AcDbLine
 10
480.1606129444703
 20
116.1422190846568
 30
0.0
 11
477.1606129444708
 21
116.1422190846568
 31
0.0
  0
LINE
  5
12FC
330
2
100
AcDbEntity
  8
0
100
AcDbLine
 10
480.1606129444703
 20
116.1422190846568
 30
0.0
 11
482.1606044904301
 21
117.2969147420934
 31
0.0
  0
LINE
  5
12FD
330
2
100
AcDbEntity
  8
0
 48
0.5
100
AcDbLine
 10
392.1606129444703
 20
97.64521865565058
 30
0.0
 11
455.1606044904302
 21
97.64521865565058
 31
0.0
  0
LINE
  5
12FE
330
2
100
AcDbEntity
  8
0
100
AcDbLine
 10
468.1606044904301
 20
84.14226508465782
 30
0.0
 11
468.1606044904301
 21
92.6422190846568
 31
0.0
  0
LINE
  5
12FF
330
2
100
AcDbEntity
  8
0
100
AcDbLine
 10
468.1606044904301
 20
121.6422190846567
 30
0.0
 11
468.1606044904301
 21
130.142265084656
 31
0.0
  0
LINE
  5
1300
330
2
100
AcDbEntity
  8
0
100
AcDbLine
 10
460.1606044904301
 20
83.90412430035013
 30
0.0
 11
460.1606044904301
 21
92.6422190846568
 31
0.0
  0
LINE
  5
1301
330
2
100
AcDbEntity
  8
0
100
AcDbLine
 10
460.1606044904301
 20
121.6422190846567
 30
0.0
 11
460.1606044904301
 21
130.3804058689636
 31
0.0
  0
LINE
  5
1302
330
2
100
AcDbEntity
  8
0
100
AcDbLine
 10
460.1606044904301
 20
83.90412430035013
 30
0.0
 11
459.3542980560459
 21
83.88301042329823
 31
0.0
  0
LINE
  5
1303
330
2
100
AcDbEntity
  8
0
100
AcDbLine
 10
468.1606044904301
 20
84.14226508465782
 30
0.0
 11
460.1606044904306
 21
84.14226508465782
 31
0.0
  0
LINE
  5
1304
330
2
100
AcDbEntity
  8
0
100
AcDbLine
 10
468.1606044904301
 20
84.14226508465782
 30
0.0
 11
469.1606044904301
 21
83.56491481546783
 31
0.0
  0
LINE
  5
1305
330
2
100
AcDbEntity
  8
0
100
AcDbLine
 10
468.1606044904301
 20
130.142265084656
 30
0.0
 11
460.160604490431
 21
130.142265084656
 31
0.0
  0
LINE
  5
1306
330
2
100
AcDbEntity
  8
0
100
AcDbLine
 10
468.1606044904301
 20
130.1422650846578
 30
0.0
 11
469.1606044904301
 21
130.7196153538459
 31
0.0
  0
LINE
  5
1307
330
2
100
AcDbEntity
  8
0
100
AcDbLine
 10
460.1606044904301
 20
130.3804058689636
 30
0.0
 11
459.3542980560459
 21
130.4015197460155
 31
0.0
  0
SPLINE
  5
1308
330
2
100
AcDbEntity
  8
HOJO
100
AcDbSpline
210
0.0
220
0.0
230
1.0
 70
     8
 71
     3
 72
    34
 73
    30
 74
     0
 42
0.0000000001
 43
0.0000000001
 40
0.3362490801349298
 40
0.3362490801349298
 40
0.3362490801349298
 40
0.3362490801349298
 40
2.025640917149685
 40
4.32094151344414
 40
6.375589722319439
 40
9.049541186356382
 40
11.45527314787573
 40
13.93495700308971
 40
16.33786532263532
 40
19.54572761550501
 40
21.38558869575908
 40
28.86979803234311
 40
33.1859970370878
 40
37.86645582948318
 40
45.37190962287592
 40
53.9865418647183
 40
62.6909315817348
 40
69.28563032391882
 40
78.28004835247928
 40
85.06020350068469
 40
90.23992781404917
 40
93.94649664053121
 40
96.69197151561816
 40
100.3021858601968
 40
102.6648877317443
 40
105.7348010616008
 40
109.5488637563299
 40
112.8347034321232
 40
115.1857403907296
 40
115.1857403907296
 40
115.1857403907296
 40
115.1857403907296
 10
371.1606044904256
 20
132.0575568120037
 30
0.0
 10
371.6933147903655
 20
131.877812180788
 30
0.0
 10
372.9538365852886
 20
131.4630456251123
 30
0.0
 10
374.95137565199
 20
131.0323032240447
 30
0.0
 10
377.2735428273999
 20
131.2506469392117
 30
0.0
 10
379.7521623392272
 20
131.391362673641
 30
0.0
 10
381.8809501880132
 20
129.7168345914795
 30
0.0
 10
382.84088318067
 20
127.4099392487021
 30
0.0
 10
382.9945377251606
 20
124.7065010465228
 30
0.0
 10
383.5579658127844
 20
122.2719201394391
 30
0.0
 10
386.2234267997673
 20
118.6695121007194
 30
0.0
 10
391.6653637801564
 20
121.3828974010828
 30
0.0
 10
396.9705367099823
 20
120.7237718311278
 30
0.0
 10
402.4540416484114
 20
119.5495422268648
 30
0.0
 10
409.3575224690571
 20
121.6290730409235
 30
0.0
 10
417.5834083942036
 20
118.6956905369441
 30
0.0
 10
425.4571684900211
 20
121.7609212236491
 30
0.0
 10
433.5319331191367
 20
119.5804884475599
 30
0.0
 10
440.9879528195488
 20
122.2363934351849
 30
0.0
 10
447.894991290595
 20
118.7518687797726
 30
0.0
 10
452.79933372201
 20
121.1947284610649
 30
0.0
 10
457.3299426609215
 20
119.1463187355455
 30
0.0
 10
458.8035992806108
 20
122.8445953035514
 30
0.0
 10
459.690098892684
 20
125.6609056927971
 30
0.0
 10
457.8774059295715
 20
128.5017397455993
 30
0.0
 10
459.9872960019743
 20
131.6062851506629
 30
0.0
 10
463.5064091173794
 20
132.145649661077
 30
0.0
 10
466.7078787917517
 20
131.4460586642597
 30
0.0
 10
468.4246829943827
 20
132.3660455481347
 30
0.0
 10
469.1606044904292
 20
132.6579288842838
 30
0.0
  0
SPLINE
  5
1309
330
2
100
AcDbEntity
  8
HOJO
100
AcDbSpline
210
0.0
220
0.0
230
1.0
 70
     8
 71
     3
 72
    34
 73
    30
 74
     0
 42
0.0000000001
 43
0.0000000001
 40
0.3362490801349298
 40
0.3362490801349298
 40
0.3362490801349298
 40
0.3362490801349298
 40
2.025640917149685
 40
4.32094151344414
 40
6.375589722319439
 40
9.049541186356382
 40
11.45527314787573
 40
13.93495700308971
 40
16.33786532263532
 40
19.54572761550501
 40
21.38558869575908
 40
28.86979803234311
 40
33.1859970370878
 40
37.86645582948318
 40
45.37190962287592
 40
53.9865418647183
 40
62.6909315817348
 40
69.28563032391882
 40
78.28004835247928
 40
85.06020350068469
 40
90.23992781404917
 40
93.94649664053121
 40
96.69197151561816
 40
100.3021858601968
 40
102.6648877317443
 40
105.7348010616008
 40
109.5488637563299
 40
112.8347034321232
 40
115.1857403907296
 40
115.1857403907296
 40
115.1857403907296
 40
115.1857403907296
 10
371.1606044904256
 20
82.22697335731192
 30
0.0
 10
371.6933147903655
 20
82.40671798852583
 30
0.0
 10
372.9538365852886
 20
82.8214845442015
 30
0.0
 10
374.95137565199
 20
83.25222694526912
 30
0.0
 10
377.2735428273999
 20
83.03388323010386
 30
0.0
 10
379.7521623392272
 20
82.8931674956728
 30
0.0
 10
381.8809501880132
 20
84.56769557783429
 30
0.0
 10
382.84088318067
 20
86.87459092061164
 30
0.0
 10
382.9945377251606
 20
89.57802912279277
 30
0.0
 10
383.5579658127844
 20
92.01261002987649
 30
0.0
 10
386.2234267997673
 20
95.61501806859434
 30
0.0
 10
391.6653637801564
 20
92.90163276823278
 30
0.0
 10
396.9705367099823
 20
93.56075833818778
 30
0.0
 10
402.4540416484114
 20
94.73498794244898
 30
0.0
 10
409.3575224690571
 20
92.65545712839031
 30
0.0
 10
417.5834083942036
 20
95.58883963236969
 30
0.0
 10
425.4571684900211
 20
92.52360894566464
 30
0.0
 10
433.5319331191367
 20
94.70404172175387
 30
0.0
 10
440.9879528195488
 20
92.04813673413065
 30
0.0
 10
447.894991290595
 20
95.53266138954114
 30
0.0
 10
452.79933372201
 20
93.0898017082489
 30
0.0
 10
457.3299426609215
 20
95.13821143376828
 30
0.0
 10
458.8035992806108
 20
91.43993486576238
 30
0.0
 10
459.690098892684
 20
88.62362447651667
 30
0.0
 10
457.8774059295715
 20
85.78279042371452
 30
0.0
 10
459.9872960019743
 20
82.6782450186509
 30
0.0
 10
463.5064091173794
 20
82.13888050823682
 30
0.0
 10
466.7078787917517
 20
82.83847150505408
 30
0.0
 10
468.4246829943827
 20
81.91848462117906
 30
0.0
 10
469.1606044904292
 20
81.62660128502995
 30
0.0
  0
LINE
  5
130A
330
2
100
AcDbEntity
  8
0
100
AcDbLine
 10
468.1606044904301
 20
130.142265084656
 30
0.0
 11
460.1606044904301
 21
121.6422190846567
 31
0.0
  0
LINE
  5
130B
330
2
100
AcDbEntity
  8
0
100
AcDbLine
 10
460.160604490431
 20
130.142265084656
 30
0.0
 11
468.1606044904301
 21
121.6422190846567
 31
0.0
  0
LINE
  5
130C
330
2
100
AcDbEntity
  8
0
100
AcDbLine
 10
468.1606044904301
 20
92.6422190846568
 30
0.0
 11
460.1606044904306
 21
84.14226508465782
 31
0.0
  0
LINE
  5
130D
330
2
100
AcDbEntity
  8
0
100
AcDbLine
 10
460.1606044904301
 20
92.6422190846568
 30
0.0
 11
468.1606044904301
 21
84.14226508465782
 31
0.0
  0
LINE
  5
130E
330
2
100
AcDbEntity
  8
0
100
AcDbLine
 10
372.1606044904256
 20
130.1422650846578
 30
0.0
 11
380.1606044904256
 21
121.6422190846567
 31
0.0
  0
LINE
  5
130F
330
2
100
AcDbEntity
  8
0
100
AcDbLine
 10
380.1606044904256
 20
130.1422650846578
 30
0.0
 11
372.160604490426
 21
121.6422190846567
 31
0.0
  0
LINE
  5
1310
330
2
100
AcDbEntity
  8
0
100
AcDbLine
 10
372.1606044904256
 20
84.14226508465782
 30
0.0
 11
380.1606044904256
 21
92.6422190846568
 31
0.0
  0
LINE
  5
1311
330
2
100
AcDbEntity
  8
0
100
AcDbLine
 10
372.1606044904256
 20
92.6422190846568
 30
0.0
 11
380.1606044904256
 21
84.14226508465782
 31
0.0
  0
LINE
  5
1312
330
2
100
AcDbEntity
  8
0
100
AcDbLine
 10
439.170393959409
 20
355.8072693180209
 30
0.0
 11
439.170393959409
 21
326.8072693180209
 31
0.0
  0
LINE
  5
1313
330
2
100
AcDbEntity
  8
0
100
AcDbLine
 10
326.170393959409
 20
355.8101768890126
 30
0.0
 11
326.170393959409
 21
326.8101768890126
 31
0.0
  0
LINE
  5
1314
330
2
100
AcDbEntity
  8
0
100
AcDbLine
 10
328.1703939594053
 20
326.8101768890126
 30
0.0
 11
326.170393959409
 21
326.8101768890126
 31
0.0
  0
LINE
  5
1315
330
2
100
AcDbEntity
  8
0
 48
0.5
100
AcDbLine
 10
426.1703939594094
 20
326.8072693180209
 30
0.0
 11
439.170393959409
 21
326.8072693180209
 31
0.0
  0
LINE
  5
1316
330
2
100
AcDbEntity
  8
0
100
AcDbLine
 10
328.1703939594044
 20
355.8101768890126
 30
0.0
 11
326.170393959409
 21
355.8101768890126
 31
0.0
  0
LINE
  5
1317
330
2
100
AcDbEntity
  8
0
 48
0.5
100
AcDbLine
 10
426.1703939594085
 20
355.8101768890126
 30
0.0
 11
439.170393959409
 21
355.8101768890126
 31
0.0
  0
CIRCLE
  5
1318
330
2
100
AcDbEntity
  8
0
100
AcDbCircle
 10
431.170393959409
 20
341.3102228890118
 30
0.0
 40
2.0
  0
CIRCLE
  5
1319
330
2
100
AcDbEntity
  8
HOJO
100
AcDbCircle
 10
431.170393959409
 20
341.3102228890118
 30
0.0
 40
2.5
  0
LINE
  5
131A
330
2
100
AcDbEntity
  8
0
100
AcDbLine
 10
197.5900970386633
 20
353.1102258890121
 30
0.0
 11
197.5900970386633
 21
349.8130165475693
 31
0.0
  0
LINE
  5
131B
330
2
100
AcDbEntity
  8
0
100
AcDbLine
 10
191.5900970386633
 20
353.1102258890121
 30
0.0
 11
191.5900970386633
 21
349.777660517954
 31
0.0
  0
ARC
  5
131C
330
2
100
AcDbEntity
  8
0
100
AcDbCircle
 10
194.6400970386634
 20
341.3102228890118
 30
0.0
 40
9.0
100
AcDbArc
 50
109.8091936367584
 51
70.86604897350624
  0
LINE
  5
131D
330
2
100
AcDbEntity
  8
0
100
AcDbLine
 10
191.5900970386633
 20
353.1102258890121
 30
0.0
 11
197.5900970386633
 21
353.1102258890121
 31
0.0
  0
ARC
  5
131E
330
2
100
AcDbEntity
  8
0
100
AcDbCircle
 10
194.6400970386639
 20
341.3102228890136
 30
0.0
 40
10.15765410937228
100
AcDbArc
 50
107.4735912242878
 51
73.11681444394598
  0
LINE
  5
131F
330
2
100
AcDbEntity
  8
0
100
AcDbLine
 10
593.2367840229217
 20
353.1102258890121
 30
0.0
 11
593.2367840229217
 21
349.8130165475693
 31
0.0
  0
LINE
  5
1320
330
2
100
AcDbEntity
  8
0
100
AcDbLine
 10
587.2367840229217
 20
353.1102258890121
 30
0.0
 11
587.2367840229217
 21
349.777660517954
 31
0.0
  0
ARC
  5
1321
330
2
100
AcDbEntity
  8
0
100
AcDbCircle
 10
590.2867840229219
 20
341.3102228890136
 30
0.0
 40
9.0
100
AcDbArc
 50
109.8091936367584
 51
70.86604897350624
  0
LINE
  5
1322
330
2
100
AcDbEntity
  8
0
100
AcDbLine
 10
587.2367840229217
 20
353.1102258890121
 30
0.0
 11
593.2367840229217
 21
353.1102258890121
 31
0.0
  0
ARC
  5
1323
330
2
100
AcDbEntity
  8
0
100
AcDbCircle
 10
590.2867840229219
 20
341.3102228890136
 30
0.0
 40
10.15765410937228
100
AcDbArc
 50
107.4735912242878
 51
73.11681444394598
  0
CIRCLE
  5
1324
330
2
100
AcDbEntity
  8
0
100
AcDbCircle
 10
194.6400970386639
 20
341.3102228890136
 30
0.0
 40
14.49995399999997
  0
CIRCLE
  5
1325
330
2
100
AcDbEntity
  8
0
100
AcDbCircle
 10
590.2867840229219
 20
341.3102228890136
 30
0.0
 40
14.49995400000048
  0
LINE
  5
1326
330
2
100
AcDbEntity
  8
CENTER
100
AcDbLine
 10
229.640097038663
 20
322.6038310533229
 30
0.0
 11
229.640097038663
 21
314.0166147247025
 31
0.0
  0
LINE
  5
1327
330
2
100
AcDbEntity
  8
CENTER
100
AcDbLine
 10
225.3464888743528
 20
318.3102228890136
 30
0.0
 11
233.9337052029732
 21
318.3102228890136
 31
0.0
  0
LINE
  5
1328
330
2
100
AcDbEntity
  8
CENTER
100
AcDbLine
 10
229.640097038663
 20
360.0166147247026
 30
0.0
 11
229.640097038663
 21
368.6038310533229
 31
0.0
  0
LINE
  5
1329
330
2
100
AcDbEntity
  8
CENTER
100
AcDbLine
 10
225.3464888743528
 20
364.3102228890136
 30
0.0
 11
233.9337052029732
 21
364.3102228890136
 31
0.0
  0
LINE
  5
132A
330
2
100
AcDbEntity
  8
0
100
AcDbLine
 10
604.7867380229226
 20
528.4831529424689
 30
0.0
 11
575.7867380229217
 21
528.4831529424689
 31
0.0
  0
LINE
  5
132B
330
2
100
AcDbEntity
  8
0
100
AcDbLine
 10
604.7867380229226
 20
641.4831529424689
 30
0.0
 11
575.7867380229217
 21
641.4831529424689
 31
0.0
  0
LINE
  5
132C
330
2
100
AcDbEntity
  8
0
100
AcDbLine
 10
575.7867380229217
 20
639.4831529424725
 30
0.0
 11
575.7867380229217
 21
641.4831529424689
 31
0.0
  0
LINE
  5
132D
330
2
100
AcDbEntity
  8
0
 48
0.5
100
AcDbLine
 10
575.7867380229217
 20
541.4831529424689
 30
0.0
 11
575.7867380229217
 21
528.4831529424689
 31
0.0
  0
LINE
  5
132E
330
2
100
AcDbEntity
  8
0
100
AcDbLine
 10
604.7867380229226
 20
639.4831529424725
 30
0.0
 11
604.7867380229226
 21
641.4831529424689
 31
0.0
  0
LINE
  5
132F
330
2
100
AcDbEntity
  8
0
 48
0.5
100
AcDbLine
 10
604.7867380229226
 20
541.4831529424689
 30
0.0
 11
604.7867380229226
 21
528.4831529424689
 31
0.0
  0
CIRCLE
  5
1330
330
2
100
AcDbEntity
  8
0
100
AcDbCircle
 10
590.2867840229219
 20
536.4831529424689
 30
0.0
 40
2.0
  0
CIRCLE
  5
1331
330
2
100
AcDbEntity
  8
HOJO
100
AcDbCircle
 10
590.2867840229219
 20
536.4831529424689
 30
0.0
 40
2.5
  0
LINE
  5
1332
330
2
100
AcDbEntity
  8
CENTER
100
AcDbLine
 10
585.0054693295633
 20
536.4831529424689
 30
0.0
 11
595.5680987162804
 21
536.4831529424689
 31
0.0
  0
LINE
  5
1333
330
2
100
AcDbEntity
  8
CENTER
100
AcDbLine
 10
999.0558314800464
 20
341.3102228890136
 30
0.0
 11
866.0558314800464
 21
341.3102228890136
 31
0.0
  0
LINE
  5
1334
330
2
100
AcDbEntity
  8
0
100
AcDbLine
 10
876.0558314800464
 20
326.8102688890128
 30
0.0
 11
876.0558314800464
 21
355.8102688890147
 31
0.0
  0
LINE
  5
1335
330
2
100
AcDbEntity
  8
0
100
AcDbLine
 10
989.0558314800465
 20
326.8102688890128
 30
0.0
 11
989.0558314800465
 21
355.8102688890147
 31
0.0
  0
LINE
  5
1336
330
2
100
AcDbEntity
  8
0
100
AcDbLine
 10
987.0558314800501
 20
355.8102688890147
 30
0.0
 11
989.0558314800465
 21
355.8102688890147
 31
0.0
  0
LINE
  5
1337
330
2
100
AcDbEntity
  8
0
 48
0.5
100
AcDbLine
 10
889.0558314800465
 20
355.8102688890147
 30
0.0
 11
876.0558314800464
 21
355.8102688890147
 31
0.0
  0
LINE
  5
1338
330
2
100
AcDbEntity
  8
0
100
AcDbLine
 10
987.055831480051
 20
326.8102688890128
 30
0.0
 11
989.0558314800465
 21
326.8102688890128
 31
0.0
  0
LINE
  5
1339
330
2
100
AcDbEntity
  8
0
 48
0.5
100
AcDbLine
 10
889.0558314800468
 20
326.8102688890128
 30
0.0
 11
876.0558314800464
 21
326.8102688890128
 31
0.0
  0
LINE
  5
133A
330
2
100
AcDbEntity
  8
CENTER
100
AcDbLine
 10
431.170393959409
 20
346.1480668427146
 30
0.0
 11
431.170393959409
 21
336.4723789353091
 31
0.0
  0
LINE
  5
133B
330
2
100
AcDbEntity
  8
0
100
AcDbLine
 10
608.5788191887895
 20
617.4831529424671
 30
0.0
 11
608.5788191887895
 21
628.9831529424725
 31
0.0
  0
LINE
  5
133C
330
2
100
AcDbEntity
  8
0
100
AcDbLine
 10
626.2867840229228
 20
617.4831529424671
 30
0.0
 11
626.2867840229228
 21
628.9831529424725
 31
0.0
  0
LINE
  5
133D
330
2
100
AcDbEntity
  8
0
100
AcDbLine
 10
623.2867840229228
 20
617.4831529424671
 30
0.0
 11
623.2867840229228
 21
628.9831529424725
 31
0.0
  0
LINE
  5
133E
330
2
100
AcDbEntity
  8
0
100
AcDbLine
 10
979.9445066146459
 20
371.3102228890118
 30
0.0
 11
980.0558314800527
 21
371.5030432120418
 31
0.0
  0
LINE
  5
133F
330
2
100
AcDbEntity
  8
0
100
AcDbLine
 10
979.6558314800527
 20
370.8102228890146
 30
0.0
 11
979.6558314800527
 21
380.8102228890145
 31
0.0
  0
LINE
  5
1340
330
2
100
AcDbEntity
  8
0
100
AcDbLine
 10
977.5558314800514
 20
380.8102228890145
 30
0.0
 11
979.6558314800527
 21
380.8102228890145
 31
0.0
  0
LINE
  5
1341
330
2
100
AcDbEntity
  8
0
100
AcDbLine
 10
979.6558314800527
 20
380.8102228890145
 30
0.0
 11
980.0558314800527
 21
380.1174025659873
 31
0.0
  0
LINE
  5
1342
330
2
100
AcDbEntity
  8
0
100
AcDbLine
 10
980.0558314800527
 20
371.5030432120418
 30
0.0
 11
980.0558314800527
 21
380.1174025659873
 31
0.0
  0
LINE
  5
1343
330
2
100
AcDbEntity
  8
0
100
AcDbLine
 10
979.9445066146462
 20
311.3102228890173
 30
0.0
 11
980.0558314800527
 21
311.1174025659873
 31
0.0
  0
LINE
  5
1344
330
2
100
AcDbEntity
  8
0
100
AcDbLine
 10
979.6558314800527
 20
311.8102228890145
 30
0.0
 11
979.6558314800527
 21
301.8102228890146
 31
0.0
  0
LINE
  5
1345
330
2
100
AcDbEntity
  8
0
100
AcDbLine
 10
977.5558314800518
 20
301.8102228890146
 30
0.0
 11
979.6558314800527
 21
301.8102228890146
 31
0.0
  0
LINE
  5
1346
330
2
100
AcDbEntity
  8
0
100
AcDbLine
 10
979.6558314800527
 20
301.8102228890146
 30
0.0
 11
980.0558314800527
 21
302.5030432120418
 31
0.0
  0
LINE
  5
1347
330
2
100
AcDbEntity
  8
0
100
AcDbLine
 10
980.0558314800527
 20
311.1174025659873
 30
0.0
 11
980.0558314800527
 21
302.5030432120418
 31
0.0
  0
LINE
  5
1348
330
2
100
AcDbEntity
  8
CENTER
  6
CENS
100
AcDbLine
 10
984.6344993901483
 20
375.8102228890146
 30
0.0
 11
960.0716457137668
 21
375.8102228890146
 31
0.0
  0
LINE
  5
1349
330
2
100
AcDbEntity
  8
CENTER
  6
CENS
100
AcDbLine
 10
984.6344993901489
 20
306.8102228890146
 30
0.0
 11
960.0716457137673
 21
306.8102228890146
 31
0.0
  0
LINE
  5
134A
330
2
100
AcDbEntity
  8
0
100
AcDbLine
 10
335.5703939594068
 20
367.8102228890137
 30
0.0
 11
335.5703939594027
 21
370.8102228890136
 31
0.0
  0
LINE
  5
134B
330
2
100
AcDbEntity
  8
0
100
AcDbLine
 10
335.2817188248091
 20
371.3102228890109
 30
0.0
 11
335.1703939594067
 21
371.1174025659873
 31
0.0
  0
LINE
  5
134C
330
2
100
AcDbEntity
  8
0
100
AcDbLine
 10
335.1703939594071
 20
367.8102228890137
 30
0.0
 11
335.1703939594067
 21
371.1174025659873
 31
0.0
  0
LINE
  5
134D
330
2
100
AcDbEntity
  8
0
100
AcDbLine
 10
335.5703939594068
 20
314.8102228890127
 30
0.0
 11
335.5703939594027
 21
311.8102228890136
 31
0.0
  0
LINE
  5
134E
330
2
100
AcDbEntity
  8
0
100
AcDbLine
 10
335.2817188248086
 20
311.3102228890155
 30
0.0
 11
335.1703939594067
 21
311.5030432120382
 31
0.0
  0
LINE
  5
134F
330
2
100
AcDbEntity
  8
0
100
AcDbLine
 10
335.1703939594071
 20
314.8102228890127
 30
0.0
 11
335.1703939594067
 21
311.5030432120382
 31
0.0
  0
LINE
  5
1352
330
2
100
AcDbEntity
  8
PHAS
  6
SEKKEI_P_S
100
AcDbLine
 10
335.670393959409
 20
312.8102228890136
 30
0.0
 11
335.670393959409
 21
369.8102228890137
 31
0.0
  0
LINE
  5
1353
330
2
100
AcDbEntity
  8
PHAS
  6
SEKKEI_P_S
100
AcDbLine
 10
310.170393959409
 20
328.2741208890136
 30
0.0
 11
310.170393959409
 21
354.3463006471027
 31
0.0
  0
LINE
  5
1354
330
2
100
AcDbEntity
  8
PHAS
  6
SEKKEI_P_S
100
AcDbLine
 10
325.8703939594092
 20
315.929374314658
 30
0.0
 11
325.8703939594092
 21
366.6910714633702
 31
0.0
  0
LINE
  5
1355
330
2
100
AcDbEntity
  8
PHAS
  6
SEKKEI_P_S
100
AcDbLine
 10
335.670393959409
 20
312.8102228890136
 30
0.0
 11
328.8180367400973
 21
312.9298312291883
 31
0.0
  0
LINE
  5
1356
330
2
100
AcDbEntity
  8
PHAS
  6
SEKKEI_P_S
100
AcDbLine
 10
325.044035959409
 20
321.4559138890134
 30
0.0
 11
325.0503957708715
 21
321.4547926187468
 31
0.0
  0
ARC
  5
1357
330
2
100
AcDbEntity
  8
PHAS
  6
SEKKEI_P_S
100
AcDbCircle
 10
324.8703939594093
 20
320.4711297216725
 30
0.0
 40
1.0
100
AcDbArc
 50
0.0
 51
79.99956533742575
  0
ARC
  5
1358
330
2
100
AcDbEntity
  8
PHAS
  6
SEKKEI_P_S
100
AcDbCircle
 10
328.8703939594093
 20
315.929374314658
 30
0.0
 40
3.0
100
AcDbArc
 50
180.0
 51
268.9999999999982
  0
LINE
  5
1359
330
2
100
AcDbEntity
  8
PHAS
  6
SEKKEI_P_S
100
AcDbLine
 10
314.3021157158969
 20
323.3501129527356
 30
0.0
 11
325.0440496081114
 21
321.4559361573108
 31
0.0
  0
ARC
  5
135A
330
2
100
AcDbEntity
  8
PHAS
  6
SEKKEI_P_S
100
AcDbCircle
 10
315.170393959409
 20
328.2741451309255
 30
0.0
 40
5.0
100
AcDbArc
 50
180.0
 51
259.9995653374257
  0
LINE
  5
135B
330
2
100
AcDbEntity
  8
PHAS
  6
SEKKEI_P_S
100
AcDbLine
 10
335.670393959409
 20
369.8102228890137
 30
0.0
 11
328.8180367400973
 21
369.6906145488399
 31
0.0
  0
ARC
  5
135C
330
2
100
AcDbEntity
  8
PHAS
  6
SEKKEI_P_S
100
AcDbCircle
 10
324.8640477966487
 20
362.1481725177916
 30
0.0
 40
1.0
100
AcDbArc
 50
280.0004346625742
 51
0.0
  0
ARC
  5
135D
330
2
100
AcDbEntity
  8
PHAS
  6
SEKKEI_P_S
100
AcDbCircle
 10
315.170393959409
 20
354.3463006471027
 30
0.0
 40
5.0
100
AcDbArc
 50
100.0004346625742
 51
180.0
  0
LINE
  5
135E
330
2
100
AcDbEntity
  8
PHAS
  6
SEKKEI_P_S
100
AcDbLine
 10
314.3021157158969
 20
359.2703328252917
 30
0.0
 11
325.0440496081114
 21
361.1645096207173
 31
0.0
  0
ARC
  5
135F
330
2
100
AcDbEntity
  8
PHAS
  6
SEKKEI_P_S
100
AcDbCircle
 10
328.8703939594106
 20
366.6910714633694
 30
0.0
 40
3.0
100
AcDbArc
 50
91.00000000000177
 51
180.0
  0
TEXT
  5
1360
330
2
100
AcDbEntity
  8
TITLE
100
AcDbText
 10
302.1854046709936
 20
593.8338523572857
 30
0.0
 40
7.5
  1
AFCZ18S-40~60M100S1
100
AcDbText
  0
TEXT
  5
1361
330
2
100
AcDbEntity
  8
TITLE
100
AcDbText
 10
302.1854046709936
 20
582.8338523572857
 30
0.0
 40
7.5
  1
AFCZ18S-40~60L100S1
100
AcDbText
  0
LINE
  5
1363
330
2
100
AcDbEntity
  8
0
100
AcDbLine
 10
730.3216888357938
 20
368.3445237530948
 30
0.0
 11
710.2867840229196
 21
368.6942343174349
 31
0.0
  0
LINE
  5
1364
330
2
100
AcDbEntity
  8
0
100
AcDbLine
 10
732.2867840229187
 20
358.4754229048692
 30
0.0
 11
732.2867840229196
 21
366.3448283627829
 31
0.0
  0
LINE
  5
1365
330
2
100
AcDbEntity
  8
0
100
AcDbLine
 10
734.2344301263032
 20
361.3377797456131
 30
0.0
 11
735.2867840229196
 21
361.3102228890137
 31
0.0
  0
ARC
  5
1366
330
2
100
AcDbEntity
  8
0
100
AcDbCircle
 10
730.2867840229196
 20
366.3448283627829
 30
0.0
 40
2.0
100
AcDbArc
 50
0.0
 51
88.99999999999822
  0
LINE
  5
1367
330
2
100
AcDbEntity
  8
0
100
AcDbLine
 10
697.2867840229191
 20
372.3102228890136
 30
0.0
 11
704.2955105584178
 21
372.2490586591564
 31
0.0
  0
ARC
  5
1368
330
2
100
AcDbEntity
  8
0
100
AcDbCircle
 10
704.2867840229196
 20
371.2490967360925
 30
0.0
 40
1.0
100
AcDbArc
 50
0.0
 51
89.49999999999542
  0
LINE
  5
1369
330
2
100
AcDbEntity
  8
0
100
AcDbLine
 10
730.3216888327701
 20
574.4488520783877
 30
0.0
 11
708.2344268019274
 21
574.0633174855527
 31
0.0
  0
LINE
  5
136A
330
2
100
AcDbEntity
  8
0
100
AcDbLine
 10
710.286784019896
 20
619.8671643708901
 30
0.0
 11
730.3216888327701
 21
619.5174538065501
 31
0.0
  0
LINE
  5
136B
330
2
100
AcDbEntity
  8
0
100
AcDbLine
 10
710.2867840198964
 20
565.0991415140476
 30
0.0
 11
730.3216888327701
 21
565.4488520783877
 31
0.0
  0
LINE
  5
136C
330
2
100
AcDbEntity
  8
0
100
AcDbLine
 10
732.2867840198955
 20
567.4485474686996
 30
0.0
 11
732.2867840198955
 21
617.5177584162382
 31
0.0
  0
ARC
  5
136D
330
2
100
AcDbEntity
  8
0
100
AcDbCircle
 10
730.2867840198955
 20
576.4485474687005
 30
0.0
 40
2.0
100
AcDbArc
 50
270.9999999999887
 51
0.0
  0
ARC
  5
136E
330
2
100
AcDbEntity
  8
0
100
AcDbCircle
 10
730.2867840198955
 20
617.5177584162382
 30
0.0
 40
2.0
100
AcDbArc
 50
0.0
 51
88.99999999999822
  0
LINE
  5
136F
330
2
100
AcDbEntity
  8
0
100
AcDbLine
 10
734.2344301232802
 20
572.4555960858695
 30
0.0
 11
735.286784019896
 21
572.4831529424688
 31
0.0
  0
ARC
  5
1370
330
2
100
AcDbEntity
  8
0
100
AcDbCircle
 10
730.2867840198955
 20
567.4485474686996
 30
0.0
 40
2.0
100
AcDbArc
 50
271.0000000000017
 51
0.0
  0
LINE
  5
1371
330
2
100
AcDbEntity
  8
0
100
AcDbLine
 10
705.2867840212392
 20
622.4220267895359
 30
0.0
 11
705.2867840212392
 21
562.5442790954018
 31
0.0
  0
LINE
  5
1372
330
2
100
AcDbEntity
  8
0
100
AcDbLine
 10
697.286784019896
 20
561.4831529424689
 30
0.0
 11
704.2955105567379
 21
561.5443171723379
 31
0.0
  0
ARC
  5
1373
330
2
100
AcDbEntity
  8
0
100
AcDbCircle
 10
708.2867840212393
 20
571.0637744000839
 30
0.0
 40
3.0
100
AcDbArc
 50
91.00000000000177
 51
180.0
  0
ARC
  5
1374
330
2
100
AcDbEntity
  8
0
100
AcDbCircle
 10
940.0558314800456
 20
341.3102228890128
 30
0.0
 40
27.00000000000004
100
AcDbArc
 50
133.6028189727125
 51
260.4059317731351
  0
LINE
  5
1375
330
2
100
AcDbEntity
  8
0
100
AcDbLine
 10
958.0558314800455
 20
316.3102228890128
 30
0.0
 11
958.0558314800455
 21
320.3102228890127
 31
0.0
  0
LINE
  5
1376
330
2
100
AcDbEntity
  8
0
100
AcDbLine
 10
968.055831480046
 20
310.3102228890127
 30
0.0
 11
912.0558314800454
 21
310.3102228890127
 31
0.0
  0
LINE
  5
1377
330
2
100
AcDbEntity
  8
0
100
AcDbLine
 10
937.2601789898336
 20
314.3102228890128
 30
0.0
 11
956.0558314800456
 21
314.3102228890128
 31
0.0
  0
ARC
  5
1378
330
2
100
AcDbEntity
  8
0
100
AcDbCircle
 10
912.0558314800454
 20
313.3102228890127
 30
0.0
 40
3.0
100
AcDbArc
 50
180.0
 51
270.0
  0
ARC
  5
1379
330
2
100
AcDbEntity
  8
0
100
AcDbCircle
 10
956.0558314800456
 20
316.3102228890128
 30
0.0
 40
2.0
100
AcDbArc
 50
270.0
 51
0.0
  0
ARC
  5
137A
330
2
100
AcDbEntity
  8
0
100
AcDbCircle
 10
968.055831480046
 20
313.3102228890127
 30
0.0
 40
3.0
100
AcDbArc
 50
270.0
 51
0.0
  0
LINE
  5
137B
330
2
100
AcDbEntity
  8
0
100
AcDbLine
 10
912.0078345915317
 20
372.3102228890127
 30
0.0
 11
925.8696908184143
 21
372.3102228890145
 31
0.0
  0
LINE
  5
137C
330
2
100
AcDbEntity
  8
0
100
AcDbLine
 10
938.2419721416718
 20
372.3102228890164
 30
0.0
 11
968.0558314800455
 21
372.3102228890209
 31
0.0
  0
CIRCLE
  5
137D
330
2
100
AcDbEntity
  8
0
100
AcDbCircle
 10
940.0558314800456
 20
341.3102228890128
 30
0.0
 40
14.99999999999994
  0
LINE
  5
137E
330
2
100
AcDbEntity
  8
0
100
AcDbLine
 10
924.0558314800455
 20
361.3102228890127
 30
0.0
 11
956.0558314800445
 21
361.3102228890127
 31
0.0
  0
LINE
  5
137F
330
2
100
AcDbEntity
  8
0
100
AcDbLine
 10
956.0558314800445
 20
321.3102228890127
 30
0.0
 11
924.0558314800455
 21
321.3102228890127
 31
0.0
  0
ARC
  5
1380
330
2
100
AcDbEntity
  8
0
100
AcDbCircle
 10
940.0558314800456
 20
341.3102228890128
 30
0.0
 40
27.00000000000004
100
AcDbArc
 50
313.6028189727125
 51
80.40593177313521
  0
LINE
  5
1381
330
2
100
AcDbEntity
  8
0
100
AcDbLine
 10
920.0558314800455
 20
325.3102228890127
 30
0.0
 11
920.0558314800455
 21
357.3102228890127
 31
0.0
  0
ARC
  5
1382
330
2
100
AcDbEntity
  8
0
100
AcDbCircle
 10
924.0558314800455
 20
325.3102228890127
 30
0.0
 40
4.0
100
AcDbArc
 50
180.0
 51
270.0
  0
LINE
  5
1383
330
2
100
AcDbEntity
  8
0
100
AcDbLine
 10
942.8514839702575
 20
368.3102228890128
 30
0.0
 11
924.0558314800455
 21
368.3102228890128
 31
0.0
  0
LINE
  5
1384
330
2
100
AcDbEntity
  8
0
100
AcDbLine
 10
922.0558314800454
 20
366.3102228890128
 30
0.0
 11
922.0558314800454
 21
362.3102228890128
 31
0.0
  0
ARC
  5
1385
330
2
100
AcDbEntity
  8
0
100
AcDbCircle
 10
920.0558314800455
 20
362.3102228890128
 30
0.0
 40
2.0
100
AcDbArc
 50
313.6028189727125
 51
0.0
  0
ARC
  5
1386
330
2
100
AcDbEntity
  8
0
100
AcDbCircle
 10
924.0558314800455
 20
357.3102228890127
 30
0.0
 40
4.0
100
AcDbArc
 50
90.0
 51
180.0
  0
ARC
  5
1387
330
2
100
AcDbEntity
  8
0
100
AcDbCircle
 10
912.0558314800454
 20
369.3102228890127
 30
0.0
 40
3.0
100
AcDbArc
 50
90.0
 51
180.0
  0
ARC
  5
1388
330
2
100
AcDbEntity
  8
0
100
AcDbCircle
 10
924.0558314800455
 20
366.3102228890128
 30
0.0
 40
2.0
100
AcDbArc
 50
90.0
 51
180.0
  0
LINE
  5
1389
330
2
100
AcDbEntity
  8
0
100
AcDbLine
 10
960.0558314800446
 20
357.3102228890127
 30
0.0
 11
960.0558314800446
 21
325.3102228890127
 31
0.0
  0
ARC
  5
138A
330
2
100
AcDbEntity
  8
0
100
AcDbCircle
 10
960.0558314800455
 20
320.3102228890127
 30
0.0
 40
2.0
100
AcDbArc
 50
133.6028189727125
 51
180.0
  0
ARC
  5
138B
330
2
100
AcDbEntity
  8
0
100
AcDbCircle
 10
956.0558314800445
 20
325.3102228890127
 30
0.0
 40
4.0
100
AcDbArc
 50
270.0
 51
0.0
  0
ARC
  5
138C
330
2
100
AcDbEntity
  8
0
100
AcDbCircle
 10
956.0558314800445
 20
357.3102228890127
 30
0.0
 40
4.0
100
AcDbArc
 50
0.0
 51
90.0
  0
ARC
  5
138D
330
2
100
AcDbEntity
  8
0
100
AcDbCircle
 10
968.055831480046
 20
369.3102228890127
 30
0.0
 40
3.0
100
AcDbArc
 50
0.0
 51
90.00000000001303
  0
ARC
  5
138E
330
2
100
AcDbEntity
  8
0
100
AcDbCircle
 10
704.2867840212393
 20
562.5442790954018
 30
0.0
 40
1.0
100
AcDbArc
 50
270.5000000000045
 51
0.0
  0
LINE
  5
138F
330
2
100
AcDbEntity
  8
0
100
AcDbLine
 10
735.286784019896
 20
612.4831529424689
 30
0.0
 11
735.286784019896
 21
572.4831529424688
 31
0.0
  0
ARC
  5
1390
330
2
100
AcDbEntity
  8
0
100
AcDbCircle
 10
734.2867840198955
 20
570.4562814359185
 30
0.0
 40
2.0
100
AcDbArc
 50
91.50000000000272
 51
180.0
  0
LINE
  5
1391
330
2
100
AcDbEntity
  8
0
100
AcDbLine
 10
734.2344301232802
 20
612.5107097990682
 30
0.0
 11
735.2867840198964
 21
612.4831529424689
 31
0.0
  0
ARC
  5
1392
330
2
100
AcDbEntity
  8
0
100
AcDbCircle
 10
734.286784019896
 20
614.5100244490192
 30
0.0
 40
2.0
100
AcDbArc
 50
180.0
 51
268.4999999999972
  0
LINE
  5
1393
330
2
100
AcDbEntity
  8
0
100
AcDbLine
 10
705.2867840229196
 20
371.2490967360925
 30
0.0
 11
705.2867840229191
 21
348.6341089075056
 31
0.0
  0
ARC
  5
1394
330
2
100
AcDbEntity
  8
0
100
AcDbCircle
 10
708.2577572123737
 20
371.730108096285
 30
0.0
 40
3.0
100
AcDbArc
 50
186.9066949159437
 51
187.9767771032858
  0
LINE
  5
1395
330
2
100
AcDbEntity
  8
0
100
AcDbLine
 10
735.2867840229196
 20
361.3102228890137
 30
0.0
 11
735.2867840229196
 21
321.3102228890136
 31
0.0
  0
ARC
  5
1396
330
2
100
AcDbEntity
  8
0
100
AcDbCircle
 10
734.2867840229192
 20
363.3370943955649
 30
0.0
 40
2.0
100
AcDbArc
 50
180.0
 51
268.4999999999972
  0
ARC
  5
1397
330
2
100
AcDbEntity
  8
0
100
AcDbCircle
 10
937.2601789898336
 20
317.3102228890127
 30
0.0
 40
3.0
100
AcDbArc
 50
248.4451812910239
 51
270.0
  0
ARC
  5
1398
330
2
100
AcDbEntity
  8
0
100
AcDbCircle
 10
935.0558314800455
 20
311.7298239735153
 30
0.0
 40
3.0
100
AcDbArc
 50
68.44518129102394
 51
80.40593177313521
  0
ARC
  5
1399
330
2
100
AcDbEntity
  8
0
100
AcDbCircle
 10
942.8514839702575
 20
365.3102228890127
 30
0.0
 40
3.0
100
AcDbArc
 50
68.44518129102394
 51
90.0
  0
ARC
  5
139A
330
2
100
AcDbEntity
  8
0
100
AcDbCircle
 10
945.0558314800455
 20
370.8906218045111
 30
0.0
 40
3.0
100
AcDbArc
 50
248.4451812910239
 51
260.4059317731351
  0
LINE
  5
139B
330
2
100
AcDbEntity
  8
CENTER
  6
CENS
100
AcDbLine
 10
723.2867840215758
 20
374.9972212795936
 30
0.0
 11
723.2867840215758
 21
351.8114452862003
 31
0.0
  0
LINE
  5
139C
330
2
100
AcDbEntity
  8
HIDS
100
AcDbLine
 10
937.8058314800455
 20
368.3102228890128
 30
0.0
 11
937.8058314800455
 21
358.6649772808212
 31
0.0
  0
LINE
  5
139D
330
2
100
AcDbEntity
  8
HIDS
100
AcDbLine
 10
926.3058314800455
 20
368.3102228890128
 30
0.0
 11
926.3058314800455
 21
352.1355404363173
 31
0.0
  0
CIRCLE
  5
139E
330
2
100
AcDbEntity
  8
HIDS
100
AcDbCircle
 10
940.0558314800456
 20
341.3102228890128
 30
0.0
 40
17.4999999999992
  0
LINE
  5
139F
330
2
100
AcDbEntity
  8
0
100
AcDbLine
 10
697.286784019896
 20
623.4831529424688
 30
0.0
 11
704.2955105567379
 21
623.4219887125998
 31
0.0
  0
ARC
  5
13A0
330
2
100
AcDbEntity
  8
0
100
AcDbCircle
 10
704.2867840212393
 20
622.4220267895359
 30
0.0
 40
1.0
100
AcDbArc
 50
0.0
 51
89.49999999999542
  0
ARC
  5
13A1
330
2
100
AcDbEntity
  8
0
100
AcDbCircle
 10
709.7615115645271
 20
624.8770946759229
 30
0.0
 40
5.0
100
AcDbArc
 50
204.1532073122253
 51
206.4985685482824
  0
LINE
  5
13A2
330
2
100
AcDbEntity
  8
0
100
AcDbLine
 10
730.286784019896
 20
594.518063072325
 30
0.0
 11
708.2867840212388
 21
594.9020745007226
 31
0.0
  0
LINE
  5
13A3
330
2
100
AcDbEntity
  8
0
100
AcDbLine
 10
730.3216888357938
 20
314.2759220249325
 30
0.0
 11
710.2867840229196
 21
313.9262114605924
 31
0.0
  0
LINE
  5
13A4
330
2
100
AcDbEntity
  8
0
100
AcDbLine
 10
734.2344301263032
 20
321.2826660324143
 30
0.0
 11
735.2867840229196
 21
321.3102228890136
 31
0.0
  0
ARC
  5
13A5
330
2
100
AcDbEntity
  8
0
100
AcDbCircle
 10
730.2867840229196
 20
316.2756174152453
 30
0.0
 40
2.0
100
AcDbArc
 50
271.0000000000017
 51
0.0
  0
LINE
  5
13A6
330
2
100
AcDbEntity
  8
0
100
AcDbLine
 10
697.2867840229191
 20
310.3102228890136
 30
0.0
 11
704.2955105584174
 21
310.3713871188709
 31
0.0
  0
ARC
  5
13A7
330
2
100
AcDbEntity
  8
0
100
AcDbCircle
 10
704.2867840229192
 20
311.3713490419348
 30
0.0
 40
1.0
100
AcDbArc
 50
270.5000000000045
 51
0.0
  0
ARC
  5
13A8
330
2
100
AcDbEntity
  8
0
100
AcDbCircle
 10
708.2577572123737
 20
310.8903376817423
 30
0.0
 40
3.0
100
AcDbArc
 50
172.0232228967141
 51
173.0933050840308
  0
ARC
  5
13A9
330
2
100
AcDbEntity
  8
0
100
AcDbCircle
 10
734.2867840229192
 20
319.2833513824633
 30
0.0
 40
2.0
100
AcDbArc
 50
91.50000000000272
 51
180.0
  0
LINE
  5
13AA
330
2
100
AcDbEntity
  8
0
100
AcDbLine
 10
731.2867840229159
 20
360.8738462658082
 30
0.0
 11
706.2867840229191
 21
361.3102228890137
 31
0.0
  0
SPLINE
  5
13AB
330
2
100
AcDbEntity
  8
HOJO
100
AcDbSpline
210
0.0
220
0.0
230
1.0
 70
     8
 71
     3
 72
    15
 73
    11
 74
     0
 42
0.0000000001
 43
0.0000000001
 40
1.229586671925319
 40
1.229586671925319
 40
1.229586671925319
 40
1.229586671925319
 40
9.059721493801909
 40
14.01454332224558
 40
17.68854249089321
 40
25.49282471102274
 40
30.81266567978604
 40
35.19147887412627
 40
39.07871238777226
 40
41.18872123517163
 40
41.18872123517163
 40
41.18872123517163
 40
41.18872123517163
 10
735.2867840229273
 20
358.8823855659146
 30
0.0
 10
732.4766446119406
 20
358.6151952775697
 30
0.0
 10
728.0680268305932
 20
357.9160713846757
 30
0.0
 10
725.1763800479557
 20
352.9449492701504
 30
0.0
 10
719.4822268500988
 20
349.2601764277022
 30
0.0
 10
714.8033843128405
 20
350.0250124301008
 30
0.0
 10
709.1314028277816
 20
349.2465569579242
 30
0.0
 10
704.649851077043
 20
348.5696092081514
 30
0.0
 10
700.1616572869975
 20
347.6031979394109
 30
0.0
 10
698.2982526905566
 20
341.9229848657203
 30
0.0
 10
698.0806096743854
 20
341.3102228890136
 30
0.0
  0
CIRCLE
  5
13AC
330
2
100
AcDbEntity
  8
0
100
AcDbCircle
 10
913.1857737949568
 20
368.1802805741015
 30
0.0
 40
1.732050807568871
  0
LWPOLYLINE
  5
13AD
330
2
100
AcDbEntity
  8
0
100
AcDbPolyline
 90
        6
 70
     1
 43
0.0
 10
914.6857737949567
 20
369.0463059778865
 10
913.1857737949568
 20
369.9123313816706
 10
911.6857737949567
 20
369.0463059778865
 10
911.6857737949567
 20
367.3142551703175
 10
913.1857737949568
 20
366.4482297665325
 10
914.6857737949567
 20
367.3142551703175
  0
CIRCLE
  5
13AE
330
2
100
AcDbEntity
  8
0
100
AcDbCircle
 10
913.1857737949568
 20
368.1802805741015
 30
0.0
 40
3.499999999999717
  0
CIRCLE
  5
13AF
330
2
100
AcDbEntity
  8
0
100
AcDbCircle
 10
913.1857737949568
 20
368.1802805741015
 30
0.0
 40
2.980384757729353
  0
CIRCLE
  5
13B0
330
2
100
AcDbEntity
  8
0
100
AcDbCircle
 10
966.9258891651344
 20
368.1802805741015
 30
0.0
 40
1.732050807568871
  0
LWPOLYLINE
  5
13B1
330
2
100
AcDbEntity
  8
0
100
AcDbPolyline
 90
        6
 70
     1
 43
0.0
 10
968.4258891651342
 20
369.0463059778865
 10
966.9258891651344
 20
369.9123313816706
 10
965.4258891651343
 20
369.0463059778865
 10
965.4258891651343
 20
367.3142551703175
 10
966.9258891651344
 20
366.4482297665325
 10
968.4258891651342
 20
367.3142551703175
  0
CIRCLE
  5
13B2
330
2
100
AcDbEntity
  8
0
100
AcDbCircle
 10
966.9258891651344
 20
368.1802805741015
 30
0.0
 40
3.499999999999717
  0
CIRCLE
  5
13B3
330
2
100
AcDbEntity
  8
0
100
AcDbCircle
 10
966.9258891651344
 20
368.1802805741015
 30
0.0
 40
2.980384757729353
  0
CIRCLE
  5
13B4
330
2
100
AcDbEntity
  8
0
100
AcDbCircle
 10
966.9258891651344
 20
314.4401652039239
 30
0.0
 40
1.732050807568871
  0
LWPOLYLINE
  5
13B5
330
2
100
AcDbEntity
  8
0
100
AcDbPolyline
 90
        6
 70
     1
 43
0.0
 10
968.4258891651342
 20
315.3061906077089
 10
966.9258891651344
 20
316.172216011493
 10
965.4258891651343
 20
315.3061906077089
 10
965.4258891651343
 20
313.5741398001399
 10
966.9258891651344
 20
312.7081143963549
 10
968.4258891651342
 20
313.5741398001399
  0
CIRCLE
  5
13B6
330
2
100
AcDbEntity
  8
0
100
AcDbCircle
 10
966.9258891651344
 20
314.4401652039239
 30
0.0
 40
3.499999999999717
  0
CIRCLE
  5
13B7
330
2
100
AcDbEntity
  8
0
100
AcDbCircle
 10
966.9258891651344
 20
314.4401652039239
 30
0.0
 40
2.980384757729353
  0
CIRCLE
  5
13B8
330
2
100
AcDbEntity
  8
0
100
AcDbCircle
 10
913.1857737949568
 20
314.4401652039239
 30
0.0
 40
1.732050807568871
  0
LWPOLYLINE
  5
13B9
330
2
100
AcDbEntity
  8
0
100
AcDbPolyline
 90
        6
 70
     1
 43
0.0
 10
914.6857737949567
 20
315.3061906077089
 10
913.1857737949568
 20
316.172216011493
 10
911.6857737949567
 20
315.3061906077089
 10
911.6857737949567
 20
313.5741398001399
 10
913.1857737949568
 20
312.7081143963549
 10
914.6857737949567
 20
313.5741398001399
  0
CIRCLE
  5
13BA
330
2
100
AcDbEntity
  8
0
100
AcDbCircle
 10
913.1857737949568
 20
314.4401652039239
 30
0.0
 40
3.499999999999717
  0
CIRCLE
  5
13BB
330
2
100
AcDbEntity
  8
0
100
AcDbCircle
 10
913.1857737949568
 20
314.4401652039239
 30
0.0
 40
2.980384757729353
  0
LINE
  5
13BC
330
2
100
AcDbEntity
  8
CENTER
100
AcDbLine
 10
913.1857737949568
 20
374.0129696566981
 30
0.0
 11
913.1857737949568
 21
362.347591491505
 31
0.0
  0
LINE
  5
13BD
330
2
100
AcDbEntity
  8
CENTER
100
AcDbLine
 10
907.3530847123597
 20
368.1802805741015
 30
0.0
 11
919.0184628775536
 21
368.1802805741015
 31
0.0
  0
LINE
  5
13BE
330
2
100
AcDbEntity
  8
CENTER
100
AcDbLine
 10
966.9258891651344
 20
374.0129696566989
 30
0.0
 11
966.9258891651344
 21
362.347591491505
 31
0.0
  0
LINE
  5
13BF
330
2
100
AcDbEntity
  8
CENTER
100
AcDbLine
 10
961.0932000825373
 20
368.1802805741015
 30
0.0
 11
972.7585782477312
 21
368.1802805741015
 31
0.0
  0
LINE
  5
13C0
330
2
100
AcDbEntity
  8
CENTER
100
AcDbLine
 10
966.9258891651344
 20
320.2728542865214
 30
0.0
 11
966.9258891651344
 21
308.6074761213274
 31
0.0
  0
LINE
  5
13C1
330
2
100
AcDbEntity
  8
CENTER
100
AcDbLine
 10
961.0932000825373
 20
314.4401652039239
 30
0.0
 11
972.7585782477312
 21
314.4401652039239
 31
0.0
  0
LINE
  5
13C2
330
2
100
AcDbEntity
  8
CENTER
100
AcDbLine
 10
913.1857737949568
 20
320.2728542865214
 30
0.0
 11
913.1857737949568
 21
308.6074761213274
 31
0.0
  0
LINE
  5
13C3
330
2
100
AcDbEntity
  8
CENTER
100
AcDbLine
 10
907.3530847123597
 20
314.4401652039239
 30
0.0
 11
919.0184628775536
 21
314.4401652039239
 31
0.0
  0
LINE
  5
13C4
330
2
100
AcDbEntity
  8
0
100
AcDbLine
 10
732.2867840229196
 20
316.2756174152453
 30
0.0
 11
732.2867840229196
 21
341.3102228890136
 31
0.0
  0
LINE
  5
13C5
330
2
100
AcDbEntity
  8
0
100
AcDbLine
 10
705.2867840229191
 20
341.3102228890136
 30
0.0
 11
705.2867840229196
 21
311.3713490419348
 31
0.0
  0
LINE
  5
13C6
330
2
100
AcDbEntity
  8
0
100
AcDbLine
 10
706.2867840229196
 20
371.6802805741024
 30
0.0
 11
705.2867840229196
 21
371.6802805741024
 31
0.0
  0
LINE
  5
13C7
330
2
100
AcDbEntity
  8
0
100
AcDbLine
 10
705.2867840229196
 20
371.6802805741024
 30
0.0
 11
705.2867840229196
 21
364.6802805741025
 31
0.0
  0
LINE
  5
13C8
330
2
100
AcDbEntity
  8
0
100
AcDbLine
 10
705.2867840229196
 20
364.6802805741025
 30
0.0
 11
706.2867840229196
 21
364.6802805741025
 31
0.0
  0
LINE
  5
13C9
330
2
100
AcDbEntity
  8
0
100
AcDbLine
 10
706.2867840229196
 20
364.6802805741025
 30
0.0
 11
706.2867840229196
 21
371.6802805741024
 31
0.0
  0
LINE
  5
13CA
330
2
100
AcDbEntity
  8
0
100
AcDbLine
 10
710.2867840229196
 20
371.160665331832
 30
0.0
 11
710.2867840229196
 21
365.1998958163738
 31
0.0
  0
LINE
  5
13CB
330
2
100
AcDbEntity
  8
0
100
AcDbLine
 10
709.9867840229194
 20
364.6802805741025
 30
0.0
 11
709.9867840229194
 21
371.6802805741024
 31
0.0
  0
LINE
  5
13CC
330
2
100
AcDbEntity
  8
0
100
AcDbLine
 10
709.9867840229194
 20
364.6802805741025
 30
0.0
 11
706.2867840229196
 21
364.6802805741025
 31
0.0
  0
LINE
  5
13CD
330
2
100
AcDbEntity
  8
0
100
AcDbLine
 10
709.9867840229194
 20
364.6802805741025
 30
0.0
 11
710.2867840229196
 21
365.1998958163738
 31
0.0
  0
LINE
  5
13CE
330
2
100
AcDbEntity
  8
0
100
AcDbLine
 10
710.2867840229196
 20
371.160665331832
 30
0.0
 11
709.9867840229194
 21
371.6802805741024
 31
0.0
  0
LINE
  5
13CF
330
2
100
AcDbEntity
  8
0
100
AcDbLine
 10
706.2867840229196
 20
371.6802805741024
 30
0.0
 11
709.9867840229194
 21
371.6802805741024
 31
0.0
  0
LINE
  5
13D0
330
2
100
AcDbEntity
  8
0
100
AcDbLine
 10
706.2867840229196
 20
317.9401652039249
 30
0.0
 11
705.2867840229196
 21
317.9401652039249
 31
0.0
  0
LINE
  5
13D1
330
2
100
AcDbEntity
  8
0
100
AcDbLine
 10
705.2867840229196
 20
317.9401652039249
 30
0.0
 11
705.2867840229196
 21
310.9401652039248
 31
0.0
  0
LINE
  5
13D2
330
2
100
AcDbEntity
  8
0
100
AcDbLine
 10
705.2867840229196
 20
310.9401652039248
 30
0.0
 11
706.2867840229196
 21
310.9401652039248
 31
0.0
  0
LINE
  5
13D3
330
2
100
AcDbEntity
  8
0
100
AcDbLine
 10
706.2867840229196
 20
310.9401652039248
 30
0.0
 11
706.2867840229196
 21
317.9401652039249
 31
0.0
  0
LINE
  5
13D4
330
2
100
AcDbEntity
  8
0
100
AcDbLine
 10
710.2867840229196
 20
317.4205499616544
 30
0.0
 11
710.2867840229196
 21
311.4597804461962
 31
0.0
  0
LINE
  5
13D5
330
2
100
AcDbEntity
  8
0
100
AcDbLine
 10
709.9867840229194
 20
310.9401652039248
 30
0.0
 11
709.9867840229194
 21
317.9401652039249
 31
0.0
  0
LINE
  5
13D6
330
2
100
AcDbEntity
  8
0
100
AcDbLine
 10
709.9867840229194
 20
310.9401652039248
 30
0.0
 11
706.2867840229196
 21
310.9401652039248
 31
0.0
  0
LINE
  5
13D7
330
2
100
AcDbEntity
  8
0
100
AcDbLine
 10
709.9867840229194
 20
310.9401652039248
 30
0.0
 11
710.2867840229196
 21
311.4597804461962
 31
0.0
  0
LINE
  5
13D8
330
2
100
AcDbEntity
  8
0
100
AcDbLine
 10
710.2867840229196
 20
317.4205499616544
 30
0.0
 11
709.9867840229194
 21
317.9401652039249
 31
0.0
  0
LINE
  5
13D9
330
2
100
AcDbEntity
  8
0
100
AcDbLine
 10
706.2867840229196
 20
317.9401652039249
 30
0.0
 11
709.9867840229194
 21
317.9401652039249
 31
0.0
  0
LINE
  5
13DA
330
2
100
AcDbEntity
  8
CENTER
  6
CENS
100
AcDbLine
 10
715.2867840229191
 20
368.1802805741034
 30
0.0
 11
692.2868269332966
 21
368.1802805741034
 31
0.0
  0
LINE
  5
13DB
330
2
100
AcDbEntity
  8
CENTER
  6
CENS
100
AcDbLine
 10
715.2867840229191
 20
314.4401652039257
 30
0.0
 11
692.2868269332966
 21
314.4401652039257
 31
0.0
  0
ARC
  5
13DC
330
2
100
AcDbEntity
  8
0
100
AcDbCircle
 10
708.2577572093505
 20
562.0632677351975
 30
0.0
 40
3.0
100
AcDbArc
 50
172.0232228966878
 51
173.0933050840563
  0
ARC
  5
13DD
330
2
100
AcDbEntity
  8
0
100
AcDbCircle
 10
708.2577572093505
 20
622.9030381497402
 30
0.0
 40
3.0
100
AcDbArc
 50
186.9066949159437
 51
187.9767771033121
  0
LINE
  5
13DE
330
2
100
AcDbEntity
  8
0
100
AcDbLine
 10
706.2867840198964
 20
562.1130952573801
 30
0.0
 11
705.2867840198964
 21
562.1130952573801
 31
0.0
  0
LINE
  5
13DF
330
2
100
AcDbEntity
  8
0
100
AcDbLine
 10
705.2867840198964
 20
562.1130952573801
 30
0.0
 11
705.2867840198964
 21
569.1130952573801
 31
0.0
  0
LINE
  5
13E0
330
2
100
AcDbEntity
  8
0
100
AcDbLine
 10
705.2867840198964
 20
569.1130952573801
 30
0.0
 11
706.2867840198964
 21
569.1130952573801
 31
0.0
  0
LINE
  5
13E1
330
2
100
AcDbEntity
  8
0
100
AcDbLine
 10
706.2867840198964
 20
569.1130952573801
 30
0.0
 11
706.2867840198964
 21
562.1130952573801
 31
0.0
  0
LINE
  5
13E2
330
2
100
AcDbEntity
  8
0
100
AcDbLine
 10
710.2867840198964
 20
562.6327104996505
 30
0.0
 11
710.2867840198964
 21
568.5934800151087
 31
0.0
  0
LINE
  5
13E3
330
2
100
AcDbEntity
  8
0
100
AcDbLine
 10
709.9867840198962
 20
569.1130952573801
 30
0.0
 11
709.9867840198962
 21
562.1130952573801
 31
0.0
  0
LINE
  5
13E4
330
2
100
AcDbEntity
  8
0
100
AcDbLine
 10
709.9867840198962
 20
569.1130952573801
 30
0.0
 11
706.2867840198964
 21
569.1130952573801
 31
0.0
  0
LINE
  5
13E5
330
2
100
AcDbEntity
  8
0
100
AcDbLine
 10
709.9867840198962
 20
569.1130952573801
 30
0.0
 11
710.2867840198964
 21
568.5934800151087
 31
0.0
  0
LINE
  5
13E6
330
2
100
AcDbEntity
  8
0
100
AcDbLine
 10
710.2867840198964
 20
562.6327104996505
 30
0.0
 11
709.9867840198962
 21
562.1130952573801
 31
0.0
  0
LINE
  5
13E7
330
2
100
AcDbEntity
  8
0
100
AcDbLine
 10
706.2867840198964
 20
562.1130952573801
 30
0.0
 11
709.9867840198962
 21
562.1130952573801
 31
0.0
  0
LINE
  5
13E8
330
2
100
AcDbEntity
  8
0
100
AcDbLine
 10
706.2867840198964
 20
615.8532106275576
 30
0.0
 11
705.2867840198964
 21
615.8532106275576
 31
0.0
  0
LINE
  5
13E9
330
2
100
AcDbEntity
  8
0
100
AcDbLine
 10
705.2867840198964
 20
615.8532106275576
 30
0.0
 11
705.2867840198964
 21
622.8532106275577
 31
0.0
  0
LINE
  5
13EA
330
2
100
AcDbEntity
  8
0
100
AcDbLine
 10
705.2867840198964
 20
622.8532106275577
 30
0.0
 11
706.2867840198964
 21
622.8532106275577
 31
0.0
  0
LINE
  5
13EB
330
2
100
AcDbEntity
  8
0
100
AcDbLine
 10
706.2867840198964
 20
622.8532106275577
 30
0.0
 11
706.2867840198964
 21
615.8532106275576
 31
0.0
  0
LINE
  5
13EC
330
2
100
AcDbEntity
  8
0
100
AcDbLine
 10
710.2867840198964
 20
616.3728258698281
 30
0.0
 11
710.2867840198964
 21
622.3335953852863
 31
0.0
  0
LINE
  5
13ED
330
2
100
AcDbEntity
  8
0
100
AcDbLine
 10
709.9867840198962
 20
622.8532106275577
 30
0.0
 11
709.9867840198962
 21
615.8532106275576
 31
0.0
  0
LINE
  5
13EE
330
2
100
AcDbEntity
  8
0
100
AcDbLine
 10
709.9867840198962
 20
622.8532106275577
 30
0.0
 11
706.2867840198964
 21
622.8532106275577
 31
0.0
  0
LINE
  5
13EF
330
2
100
AcDbEntity
  8
0
100
AcDbLine
 10
709.9867840198962
 20
622.8532106275577
 30
0.0
 11
710.2867840198964
 21
622.3335953852863
 31
0.0
  0
LINE
  5
13F0
330
2
100
AcDbEntity
  8
0
100
AcDbLine
 10
710.2867840198964
 20
616.3728258698281
 30
0.0
 11
709.9867840198962
 21
615.8532106275576
 31
0.0
  0
LINE
  5
13F1
330
2
100
AcDbEntity
  8
0
100
AcDbLine
 10
706.2867840198964
 20
615.8532106275576
 30
0.0
 11
709.9867840198962
 21
615.8532106275576
 31
0.0
  0
LINE
  5
13F2
330
2
100
AcDbEntity
  8
CENTER
  6
CENS
100
AcDbLine
 10
715.2867840198959
 20
565.6130952573792
 30
0.0
 11
692.2868269302735
 21
565.6130952573792
 31
0.0
  0
LINE
  5
13F3
330
2
100
AcDbEntity
  8
CENTER
  6
CENS
100
AcDbLine
 10
715.2867840198959
 20
619.3532106275568
 30
0.0
 11
692.2868269302735
 21
619.3532106275568
 31
0.0
  0
LINE
  5
13F4
330
2
100
AcDbEntity
  8
0
100
AcDbLine
 10
731.2867840229191
 20
356.3102228890136
 30
0.0
 11
735.2867840229196
 21
356.3102228890136
 31
0.0
  0
ARC
  5
13F5
330
2
100
AcDbEntity
  8
0
100
AcDbCircle
 10
729.2867840229192
 20
356.4298414412776
 30
0.0
 40
2.0
100
AcDbArc
 50
0.0
 51
52.22196899340072
  0
LINE
  5
13F6
330
2
100
AcDbEntity
  8
0
100
AcDbLine
 10
731.2867840229191
 20
356.4298414412776
 30
0.0
 11
731.2867840229191
 21
341.3102228890136
 31
0.0
  0
LINE
  5
13F7
330
2
100
AcDbEntity
  8
0
100
AcDbLine
 10
718.7867840229196
 20
345.3102228890136
 30
0.0
 11
729.7867840229196
 21
345.3102228890136
 31
0.0
  0
LINE
  5
13F8
330
2
100
AcDbEntity
  8
0
100
AcDbLine
 10
718.7867840229196
 20
341.3102228890136
 30
0.0
 11
718.7867840229196
 21
349.8704113180481
 31
0.0
  0
LINE
  5
13F9
330
2
100
AcDbEntity
  8
0
100
AcDbLine
 10
725.2226634528401
 20
353.5602228890136
 30
0.0
 11
730.7867840229196
 21
353.5602228890136
 31
0.0
  0
LINE
  5
13FA
330
2
100
AcDbEntity
  8
0
100
AcDbLine
 10
730.7867840229196
 20
353.5602228890136
 30
0.0
 11
730.7867840229196
 21
341.3102228890136
 31
0.0
  0
LINE
  5
13FB
330
2
100
AcDbEntity
  8
0
100
AcDbLine
 10
729.7867840229196
 20
345.3102228890136
 30
0.0
 11
729.7867840229196
 21
341.3102228890136
 31
0.0
  0
LINE
  5
13FC
330
2
100
AcDbEntity
  8
0
100
AcDbLine
 10
729.7867840229196
 20
345.3102228890136
 30
0.0
 11
730.7867840229196
 21
345.8875731582036
 31
0.0
  0
LINE
  5
13FD
330
2
100
AcDbEntity
  8
0
100
AcDbLine
 10
716.7867840229196
 20
349.7142111735
 30
0.0
 11
716.7867840229196
 21
341.3102228890136
 31
0.0
  0
LINE
  5
13FE
330
2
100
AcDbEntity
  8
0
100
AcDbLine
 10
710.2867840229196
 20
345.3102228890136
 30
0.0
 11
716.7867840229196
 21
345.3102228890136
 31
0.0
  0
LINE
  5
13FF
330
2
100
AcDbEntity
  8
0
100
AcDbLine
 10
712.2867840229196
 20
345.3102228890136
 30
0.0
 11
716.7867840229196
 21
345.3102228890136
 31
0.0
  0
LINE
  5
1400
330
2
100
AcDbEntity
  8
0
100
AcDbLine
 10
706.7867840229196
 20
345.5602228890136
 30
0.0
 11
706.7867840229196
 21
341.3102228890136
 31
0.0
  0
LINE
  5
1401
330
2
100
AcDbEntity
  8
0
100
AcDbLine
 10
710.2867840229196
 20
345.3102228890136
 30
0.0
 11
710.2867840229196
 21
341.3102228890136
 31
0.0
  0
LINE
  5
1402
330
2
100
AcDbEntity
  8
0
100
AcDbLine
 10
710.2867840229196
 20
345.5602228890136
 30
0.0
 11
706.7867840229196
 21
345.5602228890136
 31
0.0
  0
LINE
  5
1403
330
2
100
AcDbEntity
  8
0
100
AcDbLine
 10
710.2867840229196
 20
345.3102228890136
 30
0.0
 11
710.2867840229196
 21
345.5602228890136
 31
0.0
  0
LINE
  5
1404
330
2
100
AcDbEntity
  8
0
100
AcDbLine
 10
706.7867840229196
 20
344.8102228890137
 30
0.0
 11
704.7660580807559
 21
341.3102228890136
 31
0.0
  0
LINE
  5
1406
330
2
100
AcDbEntity
  8
CENTER
100
AcDbLine
 10
932.0558314800459
 20
374.9972212795926
 30
0.0
 11
932.0558314800459
 21
327.9510482114636
 31
0.0
  0
LINE
  5
1407
330
2
100
AcDbEntity
  8
0
100
AcDbLine
 10
927.8288122194085
 20
342.0602228890136
 30
0.0
 11
936.1267730686703
 21
342.0602228890136
 31
0.0
  0
LINE
  5
1408
330
2
100
AcDbEntity
  8
0
100
AcDbLine
 10
927.8288122194085
 20
340.5602228890137
 30
0.0
 11
936.1267730686703
 21
340.5602228890137
 31
0.0
  0
LINE
  5
1409
330
2
100
AcDbEntity
  8
0
100
AcDbLine
 10
952.2828507406835
 20
340.5602228890137
 30
0.0
 11
943.9848898914215
 21
340.5602228890137
 31
0.0
  0
LINE
  5
140A
330
2
100
AcDbEntity
  8
0
100
AcDbLine
 10
943.9848898914215
 20
342.0602228890136
 30
0.0
 11
952.2828507406835
 21
342.0602228890136
 31
0.0
  0
CIRCLE
  5
140B
330
2
100
AcDbEntity
  8
0
100
AcDbCircle
 10
940.0558314800459
 20
341.3102228890136
 30
0.0
 40
3.999999999998976
  0
ARC
  5
140C
330
2
100
AcDbEntity
  8
0
100
AcDbCircle
 10
940.0558314800459
 20
341.3102228890136
 30
0.0
 40
4.577350269188627
100
AcDbArc
 50
189.4304498503574
 51
350.5695501496425
  0
ARC
  5
140D
330
2
100
AcDbEntity
  8
0
100
AcDbCircle
 10
940.0558314800459
 20
341.3102228890136
 30
0.0
 40
4.577350269188627
100
AcDbArc
 50
9.430449850357423
 51
170.5695501496425
  0
LINE
  5
140E
330
2
100
AcDbEntity
  8
HIDS
100
AcDbLine
 10
928.8726968568735
 20
346.3102228890136
 30
0.0
 11
935.5558314800465
 21
346.3102228890136
 31
0.0
  0
LINE
  5
140F
330
2
100
AcDbEntity
  8
0
100
AcDbLine
 10
928.5558314800464
 20
350.0102228890135
 30
0.0
 11
931.4318822686928
 21
350.0102228890135
 31
0.0
  0
LINE
  5
1410
330
2
100
AcDbEntity
  8
0
100
AcDbLine
 10
928.5558314800464
 20
350.0102228890135
 30
0.0
 11
929.0754467223168
 21
350.3102228890136
 31
0.0
  0
LINE
  5
1411
330
2
100
AcDbEntity
  8
HIDS
100
AcDbLine
 10
928.8726968568735
 20
346.3102228890136
 30
0.0
 11
936.0558314800464
 21
346.3102228890136
 31
0.0
  0
LINE
  5
1412
330
2
100
AcDbEntity
  8
0
100
AcDbLine
 10
928.5558314800464
 20
350.0102228890135
 30
0.0
 11
928.5558314800464
 21
346.3102228890136
 31
0.0
  0
LINE
  5
1413
330
2
100
AcDbEntity
  8
HIDS
100
AcDbLine
 10
930.0558314800465
 20
346.3102228890136
 30
0.0
 11
930.3891648133799
 21
344.6435562223467
 31
0.0
  0
LINE
  5
1414
330
2
100
AcDbEntity
  8
HIDS
100
AcDbLine
 10
934.0558314800464
 20
346.3102228890136
 30
0.0
 11
933.7224981467128
 21
344.6435562223467
 31
0.0
  0
LINE
  5
1415
330
2
100
AcDbEntity
  8
HIDS
100
AcDbLine
 10
934.0558314800464
 20
346.3102228890136
 30
0.0
 11
934.0558314800464
 21
342.0602228890136
 31
0.0
  0
LINE
  5
1416
330
2
100
AcDbEntity
  8
HIDS
100
AcDbLine
 10
930.0558314800465
 20
346.3102228890136
 30
0.0
 11
930.0558314800465
 21
342.0602228890136
 31
0.0
  0
LINE
  5
1417
330
2
100
AcDbEntity
  8
HIDS
100
AcDbLine
 10
929.5558314800464
 20
346.3102228890136
 30
0.0
 11
929.5558314800464
 21
342.0602228890136
 31
0.0
  0
LINE
  5
1418
330
2
100
AcDbEntity
  8
HIDS
100
AcDbLine
 10
934.5558314800465
 20
346.3102228890136
 30
0.0
 11
934.5558314800465
 21
342.0602228890136
 31
0.0
  0
LINE
  5
1419
330
2
100
AcDbEntity
  8
HIDS
100
AcDbLine
 10
934.0558314800464
 20
340.5602228890137
 30
0.0
 11
934.0558314800464
 21
332.1102228890138
 31
0.0
  0
LINE
  5
141A
330
2
100
AcDbEntity
  8
HIDS
100
AcDbLine
 10
933.7224981467128
 20
340.5602228890137
 30
0.0
 11
933.7224981467128
 21
331.7768895556799
 31
0.0
  0
LINE
  5
141B
330
2
100
AcDbEntity
  8
HIDS
100
AcDbLine
 10
930.3891648133799
 20
340.5602228890137
 30
0.0
 11
930.3891648133799
 21
333.7857258589418
 31
0.0
  0
LINE
  5
141C
330
2
100
AcDbEntity
  8
0
100
AcDbLine
 10
930.0558314800465
 20
334.2347370399709
 30
0.0
 11
930.0558314800465
 21
332.1102228890138
 31
0.0
  0
LINE
  5
141D
330
2
100
AcDbEntity
  8
HIDS
100
AcDbLine
 10
934.0558314800464
 20
340.5602228890137
 30
0.0
 11
934.0558314800464
 21
330.6302182073666
 31
0.0
  0
LINE
  5
141E
330
2
100
AcDbEntity
  8
HIDS
100
AcDbLine
 10
934.0558314800464
 20
332.1102228890138
 30
0.0
 11
932.0558314800464
 21
332.1102228890138
 31
0.0
  0
LINE
  5
141F
330
2
100
AcDbEntity
  8
0
100
AcDbLine
 10
933.2558314800463
 20
331.3102228890136
 30
0.0
 11
932.9803456310036
 21
331.3102228890136
 31
0.0
  0
LINE
  5
1420
330
2
100
AcDbEntity
  8
HOJO
100
AcDbLine
 10
930.3891648133799
 20
333.7857258589418
 30
0.0
 11
930.3891648133799
 21
331.7768895556799
 31
0.0
  0
LINE
  5
1421
330
2
100
AcDbEntity
  8
0
100
AcDbLine
 10
930.8558314800466
 20
331.3102228890136
 30
0.0
 11
932.9803456310036
 21
331.3102228890136
 31
0.0
  0
LINE
  5
1422
330
2
100
AcDbEntity
  8
0
100
AcDbLine
 10
930.0558314800465
 20
332.1102228890138
 30
0.0
 11
931.9674138350428
 21
332.1102228890138
 31
0.0
  0
LINE
  5
1423
330
2
100
AcDbEntity
  8
0
100
AcDbLine
 10
931.9674138350428
 20
332.1102228890138
 30
0.0
 11
932.0558314800464
 21
332.1102228890138
 31
0.0
  0
LINE
  5
1424
330
2
100
AcDbEntity
  8
0
100
AcDbLine
 10
930.0558314800465
 20
332.1102228890138
 30
0.0
 11
930.8558314800466
 21
331.3102228890136
 31
0.0
  0
LINE
  5
1425
330
2
100
AcDbEntity
  8
HIDS
100
AcDbLine
 10
934.0558314800464
 20
332.1102228890138
 30
0.0
 11
933.2558314800463
 21
331.3102228890136
 31
0.0
  0
LINE
  5
1426
330
2
100
AcDbEntity
  8
HIDS
100
AcDbLine
 10
930.0558314800465
 20
340.5602228890137
 30
0.0
 11
930.0558314800465
 21
334.2347370399709
 31
0.0
  0
LINE
  5
1427
330
2
100
AcDbEntity
  8
HIDS
100
AcDbLine
 10
930.0558314800465
 20
340.5602228890137
 30
0.0
 11
930.0558314800465
 21
334.2347370399709
 31
0.0
  0
LINE
  5
1428
330
2
100
AcDbEntity
  8
HIDS
100
AcDbLine
 10
934.0558314800464
 20
344.6435562223467
 30
0.0
 11
930.0558314800465
 21
344.6435562223467
 31
0.0
  0
LINE
  5
1429
330
2
100
AcDbEntity
  8
HOJO
100
AcDbLine
 10
930.3891648133799
 20
342.0602228890136
 30
0.0
 11
930.3891648133799
 21
340.5602228890137
 31
0.0
  0
LINE
  5
142A
330
2
100
AcDbEntity
  8
0
100
AcDbLine
 10
930.0558314800465
 20
342.0602228890136
 30
0.0
 11
930.0558314800465
 21
340.5602228890137
 31
0.0
  0
LINE
  5
142B
330
2
100
AcDbEntity
  8
HIDS
100
AcDbLine
 10
930.3891648133799
 20
344.6435562223467
 30
0.0
 11
930.3891648133799
 21
342.0602228890136
 31
0.0
  0
LINE
  5
142C
330
2
100
AcDbEntity
  8
HOJO
100
AcDbLine
 10
933.7224981467128
 20
342.0602228890136
 30
0.0
 11
933.7224981467128
 21
340.5602228890137
 31
0.0
  0
LINE
  5
142D
330
2
100
AcDbEntity
  8
0
100
AcDbLine
 10
934.0558314800464
 20
342.0602228890136
 30
0.0
 11
934.0558314800464
 21
340.5602228890137
 31
0.0
  0
LINE
  5
142E
330
2
100
AcDbEntity
  8
HIDS
100
AcDbLine
 10
933.7224981467128
 20
344.6435562223467
 30
0.0
 11
933.7224981467128
 21
342.0602228890136
 31
0.0
  0
LINE
  5
142F
330
2
100
AcDbEntity
  8
HIDS
100
AcDbLine
 10
936.0558314800464
 20
352.8887590659231
 30
0.0
 11
936.0558314800464
 21
346.3102228890136
 31
0.0
  0
LINE
  5
1430
330
2
100
AcDbEntity
  8
HIDS
100
AcDbLine
 10
931.4318822686928
 20
350.0102228890135
 30
0.0
 11
935.5558314800465
 21
350.0102228890135
 31
0.0
  0
LINE
  5
1431
330
2
100
AcDbEntity
  8
HIDS
100
AcDbLine
 10
935.0362162377756
 20
350.3102228890136
 30
0.0
 11
931.7454464107491
 21
350.3102228890136
 31
0.0
  0
LINE
  5
1432
330
2
100
AcDbEntity
  8
0
100
AcDbLine
 10
931.7454464107486
 20
350.3102228890136
 30
0.0
 11
929.0754467223168
 21
350.3102228890136
 31
0.0
  0
LINE
  5
1433
330
2
100
AcDbEntity
  8
HIDS
100
AcDbLine
 10
935.5558314800465
 20
346.3102228890136
 30
0.0
 11
935.5558314800465
 21
350.0102228890135
 31
0.0
  0
LINE
  5
1434
330
2
100
AcDbEntity
  8
HIDS
100
AcDbLine
 10
935.0362162377756
 20
350.3102228890136
 30
0.0
 11
935.5558314800465
 21
350.0102228890135
 31
0.0
  0
LINE
  5
1435
330
2
100
AcDbEntity
  8
0
100
AcDbLine
 10
928.5558314800464
 20
346.3102228890136
 30
0.0
 11
928.8726968568735
 21
346.3102228890136
 31
0.0
  0
LINE
  5
1436
330
2
100
AcDbEntity
  8
0
100
AcDbLine
 10
728.216170320893
 20
372.3818850276555
 30
0.0
 11
718.217693369329
 21
372.5564090920286
 31
0.0
  0
ARC
  5
1437
330
2
100
AcDbEntity
  8
0
100
AcDbCircle
 10
718.1478837435802
 20
368.557018311403
 30
0.0
 40
3.99999999999998
100
AcDbArc
 50
89.00000000001126
 51
178.9999999999982
  0
LINE
  5
1438
330
2
100
AcDbEntity
  8
0
100
AcDbLine
 10
714.1484929629545
 20
368.6268279371523
 30
0.0
 11
732.1457514757694
 21
368.3126846212806
 31
0.0
  0
ARC
  5
1439
330
2
100
AcDbEntity
  8
0
100
AcDbCircle
 10
728.1463606951438
 20
368.3824942470299
 30
0.0
 40
4.000000000000023
100
AcDbArc
 50
358.9999999999982
 51
89.00000000001126
  0
LINE
  5
143A
330
2
100
AcDbEntity
  8
0
100
AcDbLine
 10
941.0558314800455
 20
368.3102228890136
 30
0.0
 11
923.0558314800456
 21
368.3102228890136
 31
0.0
  0
CIRCLE
  5
143B
330
2
100
AcDbEntity
  8
0
100
AcDbCircle
 10
723.2867840198959
 20
584.4831529424689
 30
0.0
 40
8.858967454193532
  0
LINE
  5
143C
330
2
100
AcDbEntity
  8
CENTER
  6
CENS
100
AcDbLine
 10
723.2867840198964
 20
573.3640495038868
 30
0.0
 11
723.2867840198964
 21
595.6022563810518
 31
0.0
  0
LINE
  5
143D
330
2
100
AcDbEntity
  8
CENTER
  6
CENS
100
AcDbLine
 10
734.4058874584789
 20
584.4831529424689
 30
0.0
 11
712.167680581314
 21
584.4831529424689
 31
0.0
  0
LINE
  5
143E
330
2
100
AcDbEntity
  8
0
100
AcDbLine
 10
54.60519222578887
 20
368.3445237530948
 30
0.0
 11
74.64009703866349
 21
368.6942343174349
 31
0.0
  0
LINE
  5
143F
330
2
100
AcDbEntity
  8
0
100
AcDbLine
 10
50.69245093527934
 20
361.3377797456131
 30
0.0
 11
49.64009703866349
 21
361.3102228890137
 31
0.0
  0
ARC
  5
1440
330
2
100
AcDbEntity
  8
0
100
AcDbCircle
 10
54.64009703866349
 20
366.3448283627829
 30
0.0
 40
2.0
100
AcDbArc
 50
91.00000000000177
 51
180.0
  0
LINE
  5
1441
330
2
100
AcDbEntity
  8
0
100
AcDbLine
 10
87.64009703866349
 20
372.3102228890136
 30
0.0
 11
80.63137050316482
 21
372.2490586591564
 31
0.0
  0
ARC
  5
1442
330
2
100
AcDbEntity
  8
0
100
AcDbCircle
 10
80.6400970386635
 20
371.2490967360925
 30
0.0
 40
1.0
100
AcDbArc
 50
90.50000000000457
 51
180.0
  0
ARC
  5
1443
330
2
100
AcDbEntity
  8
0
100
AcDbCircle
 10
76.66912384920897
 20
371.730108096285
 30
0.0
 40
3.0
100
AcDbArc
 50
352.0232228967141
 51
353.0933050840563
  0
LINE
  5
1444
330
2
100
AcDbEntity
  8
0
100
AcDbLine
 10
49.64009703866349
 20
361.3102228890137
 30
0.0
 11
49.64009703866304
 21
321.3102228890136
 31
0.0
  0
ARC
  5
1445
330
2
100
AcDbEntity
  8
0
100
AcDbCircle
 10
50.6400970386635
 20
363.3370943955649
 30
0.0
 40
2.0
100
AcDbArc
 50
271.5000000000027
 51
0.0
  0
LINE
  5
1446
330
2
100
AcDbEntity
  8
CENTER
  6
CENS
100
AcDbLine
 10
61.64009704000682
 20
374.9972212795936
 30
0.0
 11
61.64009704000682
 21
351.6372952772267
 31
0.0
  0
LINE
  5
1447
330
2
100
AcDbEntity
  8
0
100
AcDbLine
 10
54.60519222578887
 20
314.2759220249325
 30
0.0
 11
74.64009703866349
 21
313.9262114605924
 31
0.0
  0
LINE
  5
1448
330
2
100
AcDbEntity
  8
0
100
AcDbLine
 10
50.69245093527934
 20
321.2826660324143
 30
0.0
 11
49.64009703866304
 21
321.3102228890136
 31
0.0
  0
ARC
  5
1449
330
2
100
AcDbEntity
  8
0
100
AcDbCircle
 10
54.64009703866349
 20
316.2756174152453
 30
0.0
 40
2.0
100
AcDbArc
 50
180.0
 51
268.9999999999982
  0
LINE
  5
144A
330
2
100
AcDbEntity
  8
0
100
AcDbLine
 10
87.64009703866349
 20
310.3102228890136
 30
0.0
 11
80.63137050316527
 21
310.3713871188709
 31
0.0
  0
ARC
  5
144B
330
2
100
AcDbEntity
  8
0
100
AcDbCircle
 10
80.64009703866394
 20
311.3713490419348
 30
0.0
 40
1.0
100
AcDbArc
 50
180.0
 51
269.4999999999954
  0
ARC
  5
144C
330
2
100
AcDbEntity
  8
0
100
AcDbCircle
 10
76.66912384920897
 20
310.8903376817423
 30
0.0
 40
3.0
100
AcDbArc
 50
6.90669491596911
 51
7.976777103285854
  0
ARC
  5
144D
330
2
100
AcDbEntity
  8
0
100
AcDbCircle
 10
50.6400970386635
 20
319.2833513824633
 30
0.0
 40
2.0
100
AcDbArc
 50
0.0
 51
88.49999999999729
  0
LINE
  5
144E
330
2
100
AcDbEntity
  8
0
100
AcDbLine
 10
53.64009703866668
 20
321.7465995122191
 30
0.0
 11
78.64009703866395
 21
321.3102228890136
 31
0.0
  0
LINE
  5
144F
330
2
100
AcDbEntity
  8
0
100
AcDbLine
 10
52.64009703866349
 20
316.2756174152453
 30
0.0
 11
52.64009703866349
 21
366.3448283627829
 31
0.0
  0
LINE
  5
1450
330
2
100
AcDbEntity
  8
0
100
AcDbLine
 10
79.64009703866395
 20
371.2490967360925
 30
0.0
 11
79.64009703866349
 21
311.3713490419348
 31
0.0
  0
LINE
  5
1451
330
2
100
AcDbEntity
  8
0
100
AcDbLine
 10
78.6400970386635
 20
371.6802805741024
 30
0.0
 11
79.64009703866349
 21
371.6802805741024
 31
0.0
  0
LINE
  5
1452
330
2
100
AcDbEntity
  8
0
100
AcDbLine
 10
79.64009703866349
 20
371.6802805741024
 30
0.0
 11
79.64009703866349
 21
364.6802805741025
 31
0.0
  0
LINE
  5
1453
330
2
100
AcDbEntity
  8
0
100
AcDbLine
 10
79.64009703866349
 20
364.6802805741025
 30
0.0
 11
78.6400970386635
 21
364.6802805741025
 31
0.0
  0
LINE
  5
1454
330
2
100
AcDbEntity
  8
0
100
AcDbLine
 10
78.6400970386635
 20
364.6802805741025
 30
0.0
 11
78.6400970386635
 21
371.6802805741024
 31
0.0
  0
LINE
  5
1455
330
2
100
AcDbEntity
  8
0
100
AcDbLine
 10
74.64009703866349
 20
371.160665331832
 30
0.0
 11
74.64009703866349
 21
365.1998958163738
 31
0.0
  0
LINE
  5
1456
330
2
100
AcDbEntity
  8
0
100
AcDbLine
 10
74.94009703866322
 20
364.6802805741025
 30
0.0
 11
74.94009703866322
 21
371.6802805741024
 31
0.0
  0
LINE
  5
1457
330
2
100
AcDbEntity
  8
0
100
AcDbLine
 10
74.94009703866322
 20
364.6802805741025
 30
0.0
 11
78.6400970386635
 21
364.6802805741025
 31
0.0
  0
LINE
  5
1458
330
2
100
AcDbEntity
  8
0
100
AcDbLine
 10
74.94009703866322
 20
364.6802805741025
 30
0.0
 11
74.64009703866349
 21
365.1998958163738
 31
0.0
  0
LINE
  5
1459
330
2
100
AcDbEntity
  8
0
100
AcDbLine
 10
74.64009703866349
 20
371.160665331832
 30
0.0
 11
74.94009703866322
 21
371.6802805741024
 31
0.0
  0
LINE
  5
145A
330
2
100
AcDbEntity
  8
0
100
AcDbLine
 10
78.6400970386635
 20
371.6802805741024
 30
0.0
 11
74.94009703866322
 21
371.6802805741024
 31
0.0
  0
LINE
  5
145B
330
2
100
AcDbEntity
  8
0
100
AcDbLine
 10
78.6400970386635
 20
317.9401652039249
 30
0.0
 11
79.64009703866349
 21
317.9401652039249
 31
0.0
  0
LINE
  5
145C
330
2
100
AcDbEntity
  8
0
100
AcDbLine
 10
79.64009703866349
 20
317.9401652039249
 30
0.0
 11
79.64009703866349
 21
310.9401652039248
 31
0.0
  0
LINE
  5
145D
330
2
100
AcDbEntity
  8
0
100
AcDbLine
 10
79.64009703866349
 20
310.9401652039248
 30
0.0
 11
78.6400970386635
 21
310.9401652039248
 31
0.0
  0
LINE
  5
145E
330
2
100
AcDbEntity
  8
0
100
AcDbLine
 10
78.6400970386635
 20
310.9401652039248
 30
0.0
 11
78.6400970386635
 21
317.9401652039249
 31
0.0
  0
LINE
  5
145F
330
2
100
AcDbEntity
  8
0
100
AcDbLine
 10
74.64009703866349
 20
317.4205499616544
 30
0.0
 11
74.64009703866349
 21
311.4597804461962
 31
0.0
  0
LINE
  5
1460
330
2
100
AcDbEntity
  8
0
100
AcDbLine
 10
74.94009703866322
 20
310.9401652039248
 30
0.0
 11
74.94009703866322
 21
317.9401652039249
 31
0.0
  0
LINE
  5
1461
330
2
100
AcDbEntity
  8
0
100
AcDbLine
 10
74.94009703866322
 20
310.9401652039248
 30
0.0
 11
78.6400970386635
 21
310.9401652039248
 31
0.0
  0
LINE
  5
1462
330
2
100
AcDbEntity
  8
0
100
AcDbLine
 10
74.94009703866322
 20
310.9401652039248
 30
0.0
 11
74.64009703866349
 21
311.4597804461962
 31
0.0
  0
LINE
  5
1463
330
2
100
AcDbEntity
  8
0
100
AcDbLine
 10
74.64009703866349
 20
317.4205499616544
 30
0.0
 11
74.94009703866322
 21
317.9401652039249
 31
0.0
  0
LINE
  5
1464
330
2
100
AcDbEntity
  8
0
100
AcDbLine
 10
78.6400970386635
 20
317.9401652039249
 30
0.0
 11
74.94009703866322
 21
317.9401652039249
 31
0.0
  0
LINE
  5
1465
330
2
100
AcDbEntity
  8
CENTER
  6
CENS
100
AcDbLine
 10
69.64009703866395
 20
368.1802805741034
 30
0.0
 11
92.640054128286
 21
368.1802805741034
 31
0.0
  0
LINE
  5
1466
330
2
100
AcDbEntity
  8
CENTER
  6
CENS
100
AcDbLine
 10
69.64009703866395
 20
314.4401652039257
 30
0.0
 11
92.64005412828646
 21
314.4401652039257
 31
0.0
  0
LINE
  5
1467
330
2
100
AcDbEntity
  8
0
100
AcDbLine
 10
56.71071074069004
 20
372.3818850276555
 30
0.0
 11
66.70918769225363
 21
372.5564090920286
 31
0.0
  0
ARC
  5
1468
330
2
100
AcDbEntity
  8
0
100
AcDbCircle
 10
66.77899731800289
 20
368.557018311403
 30
0.0
 40
3.99999999999998
100
AcDbArc
 50
1.000000000001775
 51
90.99999999998875
  0
LINE
  5
1469
330
2
100
AcDbEntity
  8
0
100
AcDbLine
 10
70.77838809862851
 20
368.6268279371523
 30
0.0
 11
52.78112958581323
 21
368.3126846212806
 31
0.0
  0
ARC
  5
146A
330
2
100
AcDbEntity
  8
0
100
AcDbCircle
 10
56.78052036643885
 20
368.3824942470299
 30
0.0
 40
4.000000000000023
100
AcDbArc
 50
90.99999999998875
 51
181.0000000000017
  0
CIRCLE
  5
146B
330
2
100
AcDbEntity
  8
0
100
AcDbCircle
 10
956.3192874473365
 20
357.5736788563042
 30
0.0
 40
1.5
  0
CIRCLE
  5
146C
330
2
100
AcDbEntity
  8
HOJO
100
AcDbCircle
 10
956.3192874473365
 20
357.5736788563042
 30
0.0
 40
2.0
  0
LINE
  5
146D
330
2
100
AcDbEntity
  8
CENTER
100
AcDbLine
 10
956.3192874473365
 20
360.5736788563043
 30
0.0
 11
956.3192874473365
 21
354.5736788563043
 31
0.0
  0
LINE
  5
146E
330
2
100
AcDbEntity
  8
CENTER
100
AcDbLine
 10
953.3192874473366
 20
357.5736788563042
 30
0.0
 11
959.3192874473366
 21
357.5736788563042
 31
0.0
  0
CIRCLE
  5
146F
330
2
100
AcDbEntity
  8
HOJO
100
AcDbCircle
 10
923.7923755127553
 20
357.5736788563042
 30
0.0
 40
2.0
  0
CIRCLE
  5
1470
330
2
100
AcDbEntity
  8
0
100
AcDbCircle
 10
923.7923755127553
 20
357.5736788563042
 30
0.0
 40
1.5
  0
LINE
  5
1471
330
2
100
AcDbEntity
  8
CENTER
100
AcDbLine
 10
920.7923755127554
 20
357.5736788563042
 30
0.0
 11
926.7923755127553
 21
357.5736788563042
 31
0.0
  0
LINE
  5
1472
330
2
100
AcDbEntity
  8
CENTER
100
AcDbLine
 10
923.7923755127553
 20
354.5736788563043
 30
0.0
 11
923.7923755127553
 21
360.5736788563043
 31
0.0
  0
CIRCLE
  5
1473
330
2
100
AcDbEntity
  8
0
100
AcDbCircle
 10
923.7923755127553
 20
325.046766921723
 30
0.0
 40
1.5
  0
CIRCLE
  5
1474
330
2
100
AcDbEntity
  8
HOJO
100
AcDbCircle
 10
923.7923755127553
 20
325.046766921723
 30
0.0
 40
2.0
  0
LINE
  5
1475
330
2
100
AcDbEntity
  8
CENTER
100
AcDbLine
 10
923.7923755127553
 20
322.046766921723
 30
0.0
 11
923.7923755127553
 21
328.046766921723
 31
0.0
  0
LINE
  5
1476
330
2
100
AcDbEntity
  8
CENTER
100
AcDbLine
 10
926.7923755127553
 20
325.046766921723
 30
0.0
 11
920.7923755127554
 21
325.046766921723
 31
0.0
  0
LINE
  5
1477
330
2
100
AcDbEntity
  8
CENTER
100
AcDbLine
 10
959.3192874473366
 20
325.046766921723
 30
0.0
 11
953.3192874473366
 21
325.046766921723
 31
0.0
  0
CIRCLE
  5
1478
330
2
100
AcDbEntity
  8
0
100
AcDbCircle
 10
956.3192874473365
 20
325.046766921723
 30
0.0
 40
1.5
  0
CIRCLE
  5
1479
330
2
100
AcDbEntity
  8
HOJO
100
AcDbCircle
 10
956.3192874473365
 20
325.046766921723
 30
0.0
 40
2.0
  0
LINE
  5
147A
330
2
100
AcDbEntity
  8
CENTER
100
AcDbLine
 10
956.3192874473365
 20
328.046766921723
 30
0.0
 11
956.3192874473365
 21
322.046766921723
 31
0.0
  0
CIRCLE
  5
147B
330
2
100
AcDbEntity
  8
CENTER
100
AcDbCircle
 10
940.0558314800459
 20
341.3102228890136
 30
0.0
 40
23.00000000000006
  0
LINE
  5
147C
330
2
100
AcDbEntity
  8
0
100
AcDbLine
 10
927.3058314800454
 20
372.5602228890136
 30
0.0
 11
937.055831480046
 21
372.5602228890136
 31
0.0
  0
ARC
  5
147D
330
2
100
AcDbEntity
  8
0
100
AcDbCircle
 10
927.3058314800454
 20
368.3102228890136
 30
0.0
 40
4.25
100
AcDbArc
 50
90.0
 51
180.0
  0
ARC
  5
147E
330
2
100
AcDbEntity
  8
0
100
AcDbCircle
 10
936.8058314800455
 20
368.3102228890136
 30
0.0
 40
4.25
100
AcDbArc
 50
0.0
 51
90.0
  0
CIRCLE
  5
1E4B
330
2
100
AcDbEntity
  8
0
100
AcDbCircle
 10
940.0558314800482
 20
341.3102228890138
 30
0.0
 40
12.25
  0
CIRCLE
  5
1E75
330
2
100
AcDbEntity
  8
0
100
AcDbCircle
 10
590.2867840229219
 20
341.3102228890136
 30
0.0
 40
23.5774
  0
ENDSEC
  0
SECTION
  2
OBJECTS
  0
DICTIONARY
  5
7
330
0
100
AcDbDictionary
  3
ACAD_COLOR
350
1D3A
  3
ACAD_GROUP
350
75
  3
ACAD_LAYOUT
350
61
  3
ACAD_MATERIAL
350
1D10
  3
ACAD_MLEADERSTYLE
350
1D5F
  3
ACAD_MLINESTYLE
350
76
  3
ACAD_PLOTSETTINGS
350
77
  3
ACAD_PLOTSTYLENAME
350
6
  3
ACAD_SCALELIST
350
1D3D
  3
ACAD_TABLESTYLE
350
1D3B
  3
ACAD_VISUALSTYLE
350
1D29
  3
ACADDIM
350
480
  3
ACDB_RECOMPOSE_DATA
350
1E17
  3
ACDBHEADERROUNDTRIPXREC
350
1E8F
  3
ACDBVARIABLEDICTIONARY
350
102
  3
DWGPROPS
350
1E4D
  0
DICTIONARY
  5
1E20
330
6E
100
AcDbDictionary
280
     1
  3
ACAD_XREC_ROUNDTRIP
360
1E55
  0
DICTIONARY
  5
AF6
330
66
100
AcDbDictionary
280
     1
  3
ACAD_LAYERSTATES
360
AF7
  0
DICTIONARY
  5
1D8E
330
5E
100
AcDbDictionary
280
     1
  3
ACAD_XREC_ROUNDTRIP
360
1E50
  3
ADSK_XREC_LAYER_RECONCILED
360
1D8F
  0
DICTIONARY
  5
1D90
330
3E
100
AcDbDictionary
280
     1
  3
ACAD_XREC_ROUNDTRIP
360
1E4F
  3
ADSK_XREC_LAYER_RECONCILED
360
1D91
  0
DICTIONARY
  5
1D96
330
2B5
100
AcDbDictionary
280
     1
  3
ACAD_XREC_ROUNDTRIP
360
1E5B
  3
ADSK_XREC_LAYER_RECONCILED
360
1D97
  0
DICTIONARY
  5
1D98
330
2BA
100
AcDbDictionary
280
     1
  3
ACAD_XREC_ROUNDTRIP
360
1E5C
  3
ADSK_XREC_LAYER_RECONCILED
360
1D99
  0
DICTIONARY
  5
1D9C
330
3FA
100
AcDbDictionary
280
     1
  3
ACAD_XREC_ROUNDTRIP
360
1E5E
  3
ADSK_XREC_LAYER_RECONCILED
360
1D9D
  0
DICTIONARY
  5
1D9E
330
478
100
AcDbDictionary
280
     1
  3
ACAD_XREC_ROUNDTRIP
360
1E5F
  3
ADSK_XREC_LAYER_RECONCILED
360
1D9F
  0
DICTIONARY
  5
1EB0
330
2
100
AcDbDictionary
280
     1
  3
ACAD_LAYOUTSELFREF
360
1EB1
  0
DICTIONARY
  5
1EB2
330
1E89
100
AcDbDictionary
280
     1
  3
ACAD_LAYOUTSELFREF
360
1EB3
  0
DICTIONARY
  5
1D3A
102
{ACAD_REACTORS
330
7
102
}
330
7
100
AcDbDictionary
  0
DICTIONARY
  5
75
102
{ACAD_REACTORS
330
7
102
}
330
7
100
AcDbDictionary
  0
DICTIONARY
  5
61
102
{ACAD_REACTORS
330
7
102
}
330
7
100
AcDbDictionary
  0
DICTIONARY
  5
1D10
102
{ACAD_REACTORS
330
7
102
}
330
7
100
AcDbDictionary
  3
BYBLOCK
350
1D19
  3
BYLAYER
350
1D11
  3
GLOBAL
350
1D21
  0
DICTIONARY
  5
1D5F
102
{ACAD_REACTORS
330
7
102
}
330
7
100
AcDbDictionary
  3
STANDARD
350
1D60
  0
DICTIONARY
  5
76
102
{ACAD_REACTORS
330
7
102
}
330
7
100
AcDbDictionary
  3
STANDARD
350
78
  0
DICTIONARY
  5
77
102
{ACAD_REACTORS
330
7
102
}
330
7
100
AcDbDictionary
  0
ACDBDICTIONARYWDFLT
  5
6
102
{ACAD_REACTORS
330
7
102
}
330
7
100
AcDbDictionary
281
     1
  3
Normal
350
5
100
AcDbDictionaryWithDefault
340
5
  0
DICTIONARY
  5
1D3D
102
{ACAD_REACTORS
330
7
102
}
330
7
100
AcDbDictionary
  3
A0
350
1D3E
  3
A1
350
1D3F
  3
A2
350
1D40
  3
A3
350
1D41
  3
A4
350
1D42
  3
A5
350
1D43
  3
A6
350
1D44
  3
A7
350
1D45
  3
A8
350
1D46
  3
A9
350
1D47
  3
B0
350
1D48
  3
B1
350
1D49
  3
B2
350
1D4A
  3
B3
350
1D4B
  3
B4
350
1D4C
  3
B5
350
1D4D
  3
B6
350
1D4E
  3
B7
350
1D4F
  3
B8
350
1D50
  3
B9
350
1D51
  3
C0
350
1D52
  3
C1
350
1D53
  3
C2
350
1D54
  3
C3
350
1D55
  3
C4
350
1D56
  3
C5
350
1D57
  3
C6
350
1D58
  3
C7
350
1D59
  3
C8
350
1D5A
  3
C9
350
1D5B
  3
D0
350
1D5C
  3
D1
350
1D5D
  3
D2
350
1D5E
  0
DICTIONARY
  5
1D3B
102
{ACAD_REACTORS
330
7
102
}
330
7
100
AcDbDictionary
  3
STANDARD
350
1D3C
  0
DICTIONARY
  5
1D29
102
{ACAD_REACTORS
330
7
102
}
330
7
100
AcDbDictionary
  3
2DWIREFRAME
350
1D2F
  3
3D_HIDDEN
350
1D31
  3
3DWIREFRAME
350
1D30
  3
BASIC
350
1D2E
  3
BRIGHTEN
350
1D35
  3
COLORCHANGE
350
1D39
  3
CONCEPTUAL
350
1D32
  3
DIM
350
1D34
  3
FACEPATTERN
350
1D38
  3
FLAT
350
1D2A
  3
FLATWITHEDGES
350
1D2B
  3
GOURAUD
350
1D2C
  3
GOURAUDWITHEDGES
350
1D2D
  3
LINEPATTERN
350
1D37
  3
REALISTIC
350
1D33
  3
THICKEN
350
1D36
  0
XRECORD
  5
480
102
{ACAD_REACTORS
330
7
102
}
330
7
100
AcDbXrecord
 90
   990106
  3

 60
     0
 61
     0
 62
     1
 63
     3
 64
     1
 65
     0
 66
     0
 67
     3
 68
     1
 69
     0
 70
     0
 71
     0
 72
     0
 40
0.0
170
     2
340
0
  0
XRECORD
  5
1E17
102
{ACAD_REACTORS
330
7
102
}
330
7
100
AcDbXrecord
 90
        1
330
1D3C
  0
DICTIONARY
  5
1E8F
102
{ACAD_REACTORS
330
7
102
}
330
7
100
AcDbDictionary
  3
CEPSNTYPE
350
1E99
  3
DIMSTYLEDATA
350
1E9D
  3
FINGERPRINTGUID
350
1E9A
  3
HYPERLINKBASE
350
1E92
  3
INSUNITS
350
1E98
  3
LAYOUTDICT
350
1E94
  3
LWETCUNION
350
1E97
  3
PLOTSETDICT
350
1E95
  3
PLOTSTYLNAMDICT
350
1E96
  3
PSVPSCALE
350
1E9C
  3
PUCSBASE
350
1EA0
  3
PUCSORGBACK
350
1EA6
  3
PUCSORGBOTTOM
350
1EA2
  3
PUCSORGFRONT
350
1EA5
  3
PUCSORGLEFT
350
1EA3
  3
PUCSORGRIGHT
350
1EA4
  3
PUCSORGTOP
350
1EA1
  3
PUCSORTHOREF
350
1E9E
  3
PUCSORTHOVIEW
350
1E9F
  3
STYLESHEET
350
1E93
  3
TSTACKALIGN
350
1E90
  3
TSTACKSIZE
350
1E91
  3
UCSBASE
350
1EA9
  3
UCSORGBACK
350
1EAF
  3
UCSORGBOTTOM
350
1EAB
  3
UCSORGFRONT
350
1EAE
  3
UCSORGLEFT
350
1EAC
  3
UCSORGRIGHT
350
1EAD
  3
UCSORGTOP
350
1EAA
  3
UCSORTHOREF
350
1EA7
  3
UCSORTHOVIEW
350
1EA8
  3
VERSIONGUID
350
1E9B
  0
DICTIONARY
  5
102
102
{ACAD_REACTORS
330
7
102
}
330
7
100
AcDbDictionary
  3
CANNOSCALE
350
1E3A
  3
CMLEADERSTYLE
350
1E39
  3
CTABLESTYLE
350
1E38
  3
DIMASSOC
350
103
  3
INDEXCTL
350
1E3B
  3
SORTENTS
350
549
  0
XRECORD
  5
1E4D
102
{ACAD_REACTORS
330
7
102
}
330
7
100
AcDbXrecord
  1
DWGPROPS COOKIE
  2

  3

  4

  6

  7

  8
ymorima
  9

300
=
301
=
302
=
303
=
304
=
305
=
306
=
307
=
308
=
309
=
 40
0.0118334027777778
 41
2454411.594523646
 42
2454412.448425741
  1

 90
        0
  0
XRECORD
  5
1E55
102
{ACAD_REACTORS
330
1E20
102
}
330
1E20
100
AcDbXrecord
102
VTR_0.000_0.000_1.000_1.000_VISUALSTYLE
340
1D2F
102
VTR_0.000_0.000_1.000_1.000_GRIDDISPLAY
 70
     3
102
VTR_0.000_0.000_1.000_1.000_GRIDMAJOR
 70
     5
102
VTR_0.000_0.000_1.000_1.000_DEFAULTLIGHTING
280
     1
102
VTR_0.000_0.000_1.000_1.000_DEFAULTLIGHTINGTYPE
 70
     1
102
VTR_0.000_0.000_1.000_1.000_BRIGHTNESS
141
0.0
102
VTR_0.000_0.000_1.000_1.000_CONTRAST
142
0.0
  0
DICTIONARY
  5
AF7
102
{ACAD_REACTORS
330
AF6
102
}
330
AF6
100
AcDbDictionary
  0
XRECORD
  5
1E50
102
{ACAD_REACTORS
330
1D8E
102
}
330
1D8E
100
AcDbXrecord
102
MATERIAL
340
1D21
  0
XRECORD
  5
1D8F
102
{ACAD_REACTORS
330
1D8E
102
}
330
1D8E
100
AcDbXrecord
290
     1
  0
XRECORD
  5
1E4F
102
{ACAD_REACTORS
330
1D90
102
}
330
1D90
100
AcDbXrecord
102
MATERIAL
340
1D21
  0
XRECORD
  5
1D91
102
{ACAD_REACTORS
330
1D90
102
}
330
1D90
100
AcDbXrecord
290
     1
  0
XRECORD
  5
1E5B
102
{ACAD_REACTORS
330
1D96
102
}
330
1D96
100
AcDbXrecord
102
MATERIAL
340
1D21
  0
XRECORD
  5
1D97
102
{ACAD_REACTORS
330
1D96
102
}
330
1D96
100
AcDbXrecord
290
     1
  0
XRECORD
  5
1E5C
102
{ACAD_REACTORS
330
1D98
102
}
330
1D98
100
AcDbXrecord
102
MATERIAL
340
1D21
  0
XRECORD
  5
1D99
102
{ACAD_REACTORS
330
1D98
102
}
330
1D98
100
AcDbXrecord
290
     1
  0
XRECORD
  5
1E5E
102
{ACAD_REACTORS
330
1D9C
102
}
330
1D9C
100
AcDbXrecord
102
MATERIAL
340
1D21
  0
XRECORD
  5
1D9D
102
{ACAD_REACTORS
330
1D9C
102
}
330
1D9C
100
AcDbXrecord
290
     1
  0
XRECORD
  5
1E5F
102
{ACAD_REACTORS
330
1D9E
102
}
330
1D9E
100
AcDbXrecord
102
MATERIAL
340
1D21
  0
XRECORD
  5
1D9F
102
{ACAD_REACTORS
330
1D9E
102
}
330
1D9E
100
AcDbXrecord
290
     1
  0
XRECORD
  5
1EB1
102
{ACAD_REACTORS
330
1EB0
102
}
330
1EB0
100
AcDbXrecord
340
2
  0
XRECORD
  5
1EB3
102
{ACAD_REACTORS
330
1EB2
102
}
330
1EB2
100
AcDbXrecord
340
1E89
  0
ACAD_PROXY_OBJECT
  5
1D19
102
{ACAD_XDICTIONARY
360
1D1A
102
}
102
{ACAD_REACTORS
330
1D10
102
}
330
1D10
100
AcDbProxyObject
 90
      499
 91
      510
 93
     1340
310
42109E509B1BD8DAC02004014080404555555555555953FAA155555555555654FEA9AA400014080404555555555555953FAA155555555555654FEA9AA400000000000000E03F4080404555555555555953FAA155555555555654FEA9AA4014080404555555555555953FAA155555555555654FEA9AA4010201011555555555
310
55654FEA8555555555555953FAA6A9005020101155555555555654FEA8555555555555953FAA6A9000
 94
        0
1001
ACAD
1000
AcadProxyRoundTripData
1071
      504
1071
   655383
1070
     0
  0
ACAD_PROXY_OBJECT
  5
1D11
102
{ACAD_XDICTIONARY
360
1D12
102
}
102
{ACAD_REACTORS
330
1D10
102
}
330
1D10
100
AcDbProxyObject
 90
      499
 91
      510
 93
     1340
310
42109E53185E595C802004014080404555555555555953FAA155555555555654FEA9AA400014080404555555555555953FAA155555555555654FEA9AA400000000000000E03F4080404555555555555953FAA155555555555654FEA9AA4014080404555555555555953FAA155555555555654FEA9AA4010201011555555555
310
55654FEA8555555555555953FAA6A9005020101155555555555654FEA8555555555555953FAA6A9000
 94
        0
1001
ACAD
1000
AcadProxyRoundTripData
1071
      504
1071
   655383
1070
     0
  0
ACAD_PROXY_OBJECT
  5
1D21
102
{ACAD_XDICTIONARY
360
1D22
102
}
102
{ACAD_REACTORS
330
1D10
102
}
330
1D10
100
AcDbProxyObject
 90
      499
 91
      510
 93
     1332
310
41D1DB1BD8985B002004014080404555555555555953FAA155555555555654FEA9AA400014080404555555555555953FAA155555555555654FEA9AA400000000000000E03F4080404555555555555953FAA155555555555654FEA9AA4014080404555555555555953FAA155555555555654FEA9AA401020101155555555555
310
654FEA8555555555555953FAA6A9005020101155555555555654FEA8555555555555953FAA6A9000
 94
        0
1001
ACAD
1000
AcadProxyRoundTripData
1071
      504
1071
   655383
1070
     0
  0
ACAD_PROXY_OBJECT
  5
1D60
102
{ACAD_REACTORS
330
1D5F
102
}
330
1D5F
100
AcDbProxyObject
 90
      499
 91
      510
 93
      618
310
40901902A4063FBFFFFFE056BD1B81E855B9FC0AD7A3703D0AD73F4254DD185B99185C990000AD7A3703D0AC73F90141901A02B5E8DC0F42B1CFC02B5E8DC0F42B1CFE5764000000000000300FC6
340
6A
340
0
340
16
340
0
 94
        0
1001
ACAD_MLEADERVER
1070
     2
1001
ACAD
1000
AcadProxyRoundTripData
1071
      508
1071
   655383
1070
     0
  0
MLINESTYLE
  5
78
102
{ACAD_REACTORS
330
76
102
}
330
76
100
AcDbMlineStyle
  2
STANDARD
 70
     0
  3

 62
     0
 51
90.0
 52
90.0
 71
     2
 49
0.5
 62
   256
  6
BYLAYER
 49
-0.5
 62
   256
  6
BYLAYER
  0
ACDBPLACEHOLDER
  5
5
102
{ACAD_REACTORS
330
6
102
}
330
6
100
AcDbPlaceHolder
280
     0
  0
ACAD_PROXY_OBJECT
  5
1D3E
102
{ACAD_REACTORS
330
1D3D
102
}
330
1D3D
100
AcDbProxyObject
 90
      499
 91
      510
 93
       49
310
904313A3100598
 94
        0
1001
ACAD
1000
AcadProxyRoundTripData
1071
      507
1071
   655383
1070
     0
  0
ACAD_PROXY_OBJECT
  5
1D3F
102
{ACAD_REACTORS
330
1D3D
102
}
330
1D3D
100
AcDbProxyObject
 90
      499
 91
      510
 93
      113
310
904313A3200400000000000000406B
 94
        0
1001
ACAD
1000
AcadProxyRoundTripData
1071
      507
1071
   655383
1070
     0
  0
ACAD_PROXY_OBJECT
  5
1D40
102
{ACAD_REACTORS
330
1D3D
102
}
330
1D3D
100
AcDbProxyObject
 90
      499
 91
      510
 93
      113
310
904313A3400400000000000010406B
 94
        0
1001
ACAD
1000
AcadProxyRoundTripData
1071
      507
1071
   655383
1070
     0
  0
ACAD_PROXY_OBJECT
  5
1D41
102
{ACAD_REACTORS
330
1D3D
102
}
330
1D3D
100
AcDbProxyObject
 90
      499
 91
      510
 93
      113
310
904313A3500400000000000014406B
 94
        0
1001
ACAD
1000
AcadProxyRoundTripData
1071
      507
1071
   655383
1070
     0
  0
ACAD_PROXY_OBJECT
  5
1D42
102
{ACAD_REACTORS
330
1D3D
102
}
330
1D3D
100
AcDbProxyObject
 90
      499
 91
      510
 93
      113
310
904313A3800400000000000020406B
 94
        0
1001
ACAD
1000
AcadProxyRoundTripData
1071
      507
1071
   655383
1070
     0
  0
ACAD_PROXY_OBJECT
  5
1D43
102
{ACAD_REACTORS
330
1D3D
102
}
330
1D3D
100
AcDbProxyObject
 90
      499
 91
      510
 93
      121
310
905313A3130004000000000000244051
 94
        0
1001
ACAD
1000
AcadProxyRoundTripData
1071
      507
1071
   655383
1070
     0
  0
ACAD_PROXY_OBJECT
  5
1D44
102
{ACAD_REACTORS
330
1D3D
102
}
330
1D3D
100
AcDbProxyObject
 90
      499
 91
      510
 93
      121
310
905313A3136004000000000000304051
 94
        0
1001
ACAD
1000
AcadProxyRoundTripData
1071
      507
1071
   655383
1070
     0
  0
ACAD_PROXY_OBJECT
  5
1D45
102
{ACAD_REACTORS
330
1D3D
102
}
330
1D3D
100
AcDbProxyObject
 90
      499
 91
      510
 93
      121
310
905313A3230004000000000000344051
 94
        0
1001
ACAD
1000
AcadProxyRoundTripData
1071
      507
1071
   655383
1070
     0
  0
ACAD_PROXY_OBJECT
  5
1D46
102
{ACAD_REACTORS
330
1D3D
102
}
330
1D3D
100
AcDbProxyObject
 90
      499
 91
      510
 93
      121
310
905313A33300040000000000003E4051
 94
        0
1001
ACAD
1000
AcadProxyRoundTripData
1071
      507
1071
   655383
1070
     0
  0
ACAD_PROXY_OBJECT
  5
1D47
102
{ACAD_REACTORS
330
1D3D
102
}
330
1D3D
100
AcDbProxyObject
 90
      499
 91
      510
 93
      121
310
905313A3430004000000000000444051
 94
        0
1001
ACAD
1000
AcadProxyRoundTripData
1071
      507
1071
   655383
1070
     0
  0
ACAD_PROXY_OBJECT
  5
1D48
102
{ACAD_REACTORS
330
1D3D
102
}
330
1D3D
100
AcDbProxyObject
 90
      499
 91
      510
 93
      121
310
905313A3530004000000000000494051
 94
        0
1001
ACAD
1000
AcadProxyRoundTripData
1071
      507
1071
   655383
1070
     0
  0
ACAD_PROXY_OBJECT
  5
1D49
102
{ACAD_REACTORS
330
1D3D
102
}
330
1D3D
100
AcDbProxyObject
 90
      499
 91
      510
 93
      129
310
906313A313030004000000000000594038
 94
        0
1001
ACAD
1000
AcadProxyRoundTripData
1071
      507
1071
   655383
1070
     0
  0
ACAD_PROXY_OBJECT
  5
1D4A
102
{ACAD_REACTORS
330
1D3D
102
}
330
1D3D
100
AcDbProxyObject
 90
      499
 91
      510
 93
      113
310
904323A31000000000000000010159
 94
        0
1001
ACAD
1000
AcadProxyRoundTripData
1071
      507
1071
   655383
1070
     0
  0
ACAD_PROXY_OBJECT
  5
1D4B
102
{ACAD_REACTORS
330
1D3D
102
}
330
1D3D
100
AcDbProxyObject
 90
      499
 91
      510
 93
      113
310
904343A31000000000000000410159
 94
        0
1001
ACAD
1000
AcadProxyRoundTripData
1071
      507
1071
   655383
1070
     0
  0
ACAD_PROXY_OBJECT
  5
1D4C
102
{ACAD_REACTORS
330
1D3D
102
}
330
1D3D
100
AcDbProxyObject
 90
      499
 91
      510
 93
      113
310
904383A31000000000000000810159
 94
        0
1001
ACAD
1000
AcadProxyRoundTripData
1071
      507
1071
   655383
1070
     0
  0
ACAD_PROXY_OBJECT
  5
1D4D
102
{ACAD_REACTORS
330
1D3D
102
}
330
1D3D
100
AcDbProxyObject
 90
      499
 91
      510
 93
      121
310
90531303A31000000000000000910140
 94
        0
1001
ACAD
1000
AcadProxyRoundTripData
1071
      507
1071
   655383
1070
     0
  0
ACAD_PROXY_OBJECT
  5
1D4E
102
{ACAD_REACTORS
330
1D3D
102
}
330
1D3D
100
AcDbProxyObject
 90
      499
 91
      510
 93
      129
310
9063130303A31000000000000001650138
 94
        0
1001
ACAD
1000
AcadProxyRoundTripData
1071
      507
1071
   655383
1070
     0
  0
ACAD_PROXY_OBJECT
  5
1D4F
102
{ACAD_REACTORS
330
1D3D
102
}
330
1D3D
100
AcDbProxyObject
 90
      499
 91
      510
 93
      265
310
90F312F31323822203D2031272D302200000000000000200FC00000000000028402B
 94
        0
1001
ACAD
1000
AcadProxyRoundTripData
1071
      507
1071
   655383
1070
     0
  0
ACAD_PROXY_OBJECT
  5
1D50
102
{ACAD_REACTORS
330
1D3D
102
}
330
1D3D
100
AcDbProxyObject
 90
      499
 91
      510
 93
      257
310
90E312F363422203D2031272D302200000000000000240FC000000000000284040
 94
        0
1001
ACAD
1000
AcadProxyRoundTripData
1071
      507
1071
   655383
1070
     0
  0
ACAD_PROXY_OBJECT
  5
1D51
102
{ACAD_REACTORS
330
1D3D
102
}
330
1D3D
100
AcDbProxyObject
 90
      499
 91
      510
 93
      257
310
90E312F333222203D2031272D302200000000000000280FC000000000000284040
 94
        0
1001
ACAD
1000
AcadProxyRoundTripData
1071
      507
1071
   655383
1070
     0
  0
ACAD_PROXY_OBJECT
  5
1D52
102
{ACAD_REACTORS
330
1D3D
102
}
330
1D3D
100
AcDbProxyObject
 90
      499
 91
      510
 93
      257
310
90E312F313622203D2031272D3022000000000000002C0FC000000000000284040
 94
        0
1001
ACAD
1000
AcadProxyRoundTripData
1071
      507
1071
   655383
1070
     0
  0
ACAD_PROXY_OBJECT
  5
1D53
102
{ACAD_REACTORS
330
1D3D
102
}
330
1D3D
100
AcDbProxyObject
 90
      499
 91
      510
 93
      257
310
90E332F333222203D2031272D3022000000000000002E0FC000000000000284040
 94
        0
1001
ACAD
1000
AcadProxyRoundTripData
1071
      507
1071
   655383
1070
     0
  0
ACAD_PROXY_OBJECT
  5
1D54
102
{ACAD_REACTORS
330
1D3D
102
}
330
1D3D
100
AcDbProxyObject
 90
      499
 91
      510
 93
      249
310
90D312F3822203D2031272D302200000000000000300FC000000000000284040
 94
        0
1001
ACAD
1000
AcadProxyRoundTripData
1071
      507
1071
   655383
1070
     0
  0
ACAD_PROXY_OBJECT
  5
1D55
102
{ACAD_REACTORS
330
1D3D
102
}
330
1D3D
100
AcDbProxyObject
 90
      499
 91
      510
 93
      257
310
90E332F313622203D2031272D302200000000000000320FC000000000000284040
 94
        0
1001
ACAD
1000
AcadProxyRoundTripData
1071
      507
1071
   655383
1070
     0
  0
ACAD_PROXY_OBJECT
  5
1D56
102
{ACAD_REACTORS
330
1D3D
102
}
330
1D3D
100
AcDbProxyObject
 90
      499
 91
      510
 93
      249
310
90D312F3422203D2031272D302200000000000000340FC000000000000284040
 94
        0
1001
ACAD
1000
AcadProxyRoundTripData
1071
      507
1071
   655383
1070
     0
  0
ACAD_PROXY_OBJECT
  5
1D57
102
{ACAD_REACTORS
330
1D3D
102
}
330
1D3D
100
AcDbProxyObject
 90
      499
 91
      510
 93
      249
310
90D332F3822203D2031272D302200000000000000360FC000000000000284040
 94
        0
1001
ACAD
1000
AcadProxyRoundTripData
1071
      507
1071
   655383
1070
     0
  0
ACAD_PROXY_OBJECT
  5
1D58
102
{ACAD_REACTORS
330
1D3D
102
}
330
1D3D
100
AcDbProxyObject
 90
      499
 91
      510
 93
      249
310
90D312F3222203D2031272D302200000000000000380FC000000000000284040
 94
        0
1001
ACAD
1000
AcadProxyRoundTripData
1071
      507
1071
   655383
1070
     0
  0
ACAD_PROXY_OBJECT
  5
1D59
102
{ACAD_REACTORS
330
1D3D
102
}
330
1D3D
100
AcDbProxyObject
 90
      499
 91
      510
 93
      249
310
90D332F3422203D2031272D3022000000000000003A0FC000000000000284040
 94
        0
1001
ACAD
1000
AcadProxyRoundTripData
1071
      507
1071
   655383
1070
     0
  0
ACAD_PROXY_OBJECT
  5
1D5A
102
{ACAD_REACTORS
330
1D3D
102
}
330
1D3D
100
AcDbProxyObject
 90
      499
 91
      510
 93
      169
310
90B3122203D2031272D3022004000000000000284020
 94
        0
1001
ACAD
1000
AcadProxyRoundTripData
1071
      507
1071
   655383
1070
     0
  0
ACAD_PROXY_OBJECT
  5
1D5B
102
{ACAD_REACTORS
330
1D3D
102
}
330
1D3D
100
AcDbProxyObject
 90
      499
 91
      510
 93
      265
310
90F312D312F3222203D2031272D3022000000000000003E0FC00000000000028402B
 94
        0
1001
ACAD
1000
AcadProxyRoundTripData
1071
      507
1071
   655383
1070
     0
  0
ACAD_PROXY_OBJECT
  5
1D5C
102
{ACAD_REACTORS
330
1D3D
102
}
330
1D3D
100
AcDbProxyObject
 90
      499
 91
      510
 93
      233
310
90B3322203D2031272D30220000000000000002100000000000000284000
 94
        0
1001
ACAD
1000
AcadProxyRoundTripData
1071
      507
1071
   655383
1070
     0
  0
ACAD_PROXY_OBJECT
  5
1D5D
102
{ACAD_REACTORS
330
1D3D
102
}
330
1D3D
100
AcDbProxyObject
 90
      499
 91
      510
 93
      233
310
90B3622203D2031272D30220000000000000006100000000000000284000
 94
        0
1001
ACAD
1000
AcadProxyRoundTripData
1071
      507
1071
   655383
1070
     0
  0
ACAD_PROXY_OBJECT
  5
1D5E
102
{ACAD_REACTORS
330
1D3D
102
}
330
1D3D
100
AcDbProxyObject
 90
      499
 91
      510
 93
      257
310
90E31272D3022203D2031272D3022000000000000000A100000000000000284040
 94
        0
1001
ACAD
1000
AcadProxyRoundTripData
1071
      507
1071
   655383
1070
     0
  0
ACAD_PROXY_OBJECT
  5
1D3C
102
{ACAD_XDICTIONARY
360
1E15
102
}
102
{ACAD_REACTORS
330
1D3B
102
}
330
1D3B
100
AcDbProxyObject
 90
      499
 91
      510
 93
     1849
310
4254DD185B99185C990028B81E85EB51B8AE3F2E07A17AD46E2B8FC02B5E8DC0F42B1CFD028000000C1008070000C3001FDFF8000000C1003FBFF000000182007F7FE00000030400FEFFC00000060801FDFF8000000C1003FBFF00000018200000000000000681FA0B0000001820100E000186003FBFF000000182007F7FE0
310
0000030400FEFFC00000060801FDFF8000000C1003FBFF000000182007F7FE000000304000AD7A3703D0AC73F4160000003040201C00030C007F7FE00000030400FEFFC00000060801FDFF8000000C1003FBFF000000182007F7FE00000030400FEFFC000000608000
340
16
340
16
340
16
 94
        0
1001
ACAD
1000
AcadProxyRoundTripData
1071
      506
1071
   655383
1070
     0
  0
ACAD_PROXY_OBJECT
  5
1D2F
102
{ACAD_REACTORS
330
1D29
102
}
330
1D29
100
AcDbProxyObject
 90
      499
 91
      510
 93
      444
310
430C9915DA5C99599C985B59401049028333333333333E3BF0000000000000FB0107901411070040501600405405064090741402480A0340
 94
        0
1001
ACAD
1000
AcDbSavedByObjectVersion
1070
     0
1000
AcadProxyRoundTripData
1071
      505
1071
   655383
1070
     0
  0
ACAD_PROXY_OBJECT
  5
1D31
102
{ACAD_REACTORS
330
1D29
102
}
330
1D29
100
AcDbProxyObject
 90
      499
 91
      510
 93
      508
310
428CD108121A5919195B8010640502408333333333333E3BF0000000000000FB01079024090700405020000000000001110200405405064090740C02480A0340
 94
        0
1001
ACAD
1000
AcDbSavedByObjectVersion
1070
     0
1000
AcadProxyRoundTripData
1071
      505
1071
   655383
1070
     0
  0
ACAD_PROXY_OBJECT
  5
1D30
102
{ACAD_REACTORS
330
1D29
102
}
330
1D29
100
AcDbProxyObject
 90
      499
 91
      510
 93
      444
310
430CD915DA5C99599C985B59401059028333333333333E3BF0000000000000FB0107901411070040501600405405064090741402480A0340
 94
        0
1001
ACAD
1000
AcDbSavedByObjectVersion
1070
     0
1000
AcadProxyRoundTripData
1071
      505
1071
   655383
1070
     0
  0
ACAD_PROXY_OBJECT
  5
1D2E
102
{ACAD_REACTORS
330
1D29
102
}
330
1D29
100
AcDbProxyObject
 90
      499
 91
      510
 93
      396
310
4190985CDA58C0107406404333333333333E3BF0000000000000FB0107A41107004050150841D405064090741402480A0356
 94
        0
1001
ACAD
1000
AcDbSavedByObjectVersion
1070
     0
1000
AcadProxyRoundTripData
1071
      505
1071
   655383
1070
     0
  0
ACAD_PROXY_OBJECT
  5
1D35
102
{ACAD_REACTORS
330
1D29
102
}
330
1D29
100
AcDbProxyObject
 90
      499
 91
      510
 93
      436
310
42509C9A59DA1D195B8010C409028333333333333E3BF0000000000000FB010790141107004050150841D405064090741402480A029956
 94
        0
1001
ACAD
1000
AcDbSavedByObjectVersion
1070
     0
1000
AcadProxyRoundTripData
1071
      505
1071
   655383
1070
     0
  0
ACAD_PROXY_OBJECT
  5
1D39
102
{ACAD_REACTORS
330
1D29
102
}
330
1D29
100
AcDbProxyObject
 90
      499
 91
      510
 93
      460
310
4310DBDB1BDC90DA185B99D9401104090240C333333333333E3BF0000000000000FB0108901411070040501508421405064090741402480A0354
 94
        0
1001
ACAD
1000
AcDbSavedByObjectVersion
1070
     0
1000
AcadProxyRoundTripData
1071
      505
1071
   655383
1070
     0
  0
ACAD_PROXY_OBJECT
  5
1D32
102
{ACAD_REACTORS
330
1D29
102
}
330
1D29
100
AcDbProxyObject
 90
      499
 91
      510
 93
      508
310
42D0DBDB98D95C1D1D585B0010940D028333333333333E3BF0000000000000FB0107902409070040501000000000000111010841D405064090740C02480A0340
 94
        0
1001
ACAD
1000
AcDbSavedByObjectVersion
1070
     0
1000
AcadProxyRoundTripData
1071
      505
1071
   655383
1070
     0
  0
ACAD_PROXY_OBJECT
  5
1D34
102
{ACAD_REACTORS
330
1D29
102
}
330
1D29
100
AcDbProxyObject
 90
      499
 91
      510
 93
      420
310
41111A5B4010B409028333333333333E3BF0000000000000FB010790141107004050150841D405064090741402480A02677FFFFFDB
 94
        0
1001
ACAD
1000
AcDbSavedByObjectVersion
1070
     0
1000
AcadProxyRoundTripData
1071
      505
1071
   655383
1070
     0
  0
ACAD_PROXY_OBJECT
  5
1D38
102
{ACAD_REACTORS
330
1D29
102
}
330
1D29
100
AcDbProxyObject
 90
      499
 91
      510
 93
      452
310
43119858D95C185D1D195C9B8010F409028333333333333E3BF0000000000000FB010790141107004050150841D405064090741402480A0350
 94
        0
1001
ACAD
1000
AcDbSavedByObjectVersion
1070
     0
1000
AcadProxyRoundTripData
1071
      505
1071
   655383
1070
     0
  0
ACAD_PROXY_OBJECT
  5
1D2A
102
{ACAD_REACTORS
330
1D29
102
}
330
1D29
100
AcDbProxyObject
 90
      499
 91
      510
 93
      396
310
41519B185D00240901404333333333333E3BF0000000000000F9010740A41107004050150841D405064090741402480A1B55
 94
        0
1001
ACAD
1000
AcDbSavedByObjectVersion
1070
     0
1000
AcadProxyRoundTripData
1071
      505
1071
   655383
1070
     0
  0
ACAD_PROXY_OBJECT
  5
1D2B
102
{ACAD_REACTORS
330
1D29
102
}
330
1D29
100
AcDbProxyObject
 90
      499
 91
      510
 93
      484
310
43919B185D15DA5D1A115919D95CC010140901404333333333333E3BF0000000000000F9010740901411070040501600405405064090741402480A1B50
 94
        0
1001
ACAD
1000
AcDbSavedByObjectVersion
1070
     0
1000
AcadProxyRoundTripData
1071
      505
1071
   655383
1070
     0
  0
ACAD_PROXY_OBJECT
  5
1D2C
102
{ACAD_REACTORS
330
1D29
102
}
330
1D29
100
AcDbProxyObject
 90
      499
 91
      510
 93
      420
310
4211DBDD5C985D590010240902404333333333333E3BF0000000000000F9010740A411070040501641D405064090741402480A1B50
 94
        0
1001
ACAD
1000
AcDbSavedByObjectVersion
1070
     0
1000
AcadProxyRoundTripData
1071
      505
1071
   655383
1070
     0
  0
ACAD_PROXY_OBJECT
  5
1D2D
102
{ACAD_REACTORS
330
1D29
102
}
330
1D29
100
AcDbProxyObject
 90
      499
 91
      510
 93
      508
310
4451DBDD5C985D5915DA5D1A115919D95CC010340902404333333333333E3BF0000000000000F9010740901411070040501600405405064090741402480A1B50
 94
        0
1001
ACAD
1000
AcDbSavedByObjectVersion
1070
     0
1000
AcadProxyRoundTripData
1071
      505
1071
   655383
1070
     0
  0
ACAD_PROXY_OBJECT
  5
1D37
102
{ACAD_REACTORS
330
1D29
102
}
330
1D29
100
AcDbProxyObject
 90
      499
 91
      510
 93
      452
310
43131A5B995C185D1D195C9B8010E409028333333333333E3BF0000000000000FB010790141107004050750841D405064090741402483A0350
 94
        0
1001
ACAD
1000
AcDbSavedByObjectVersion
1070
     0
1000
AcadProxyRoundTripData
1071
      505
1071
   655383
1070
     0
  0
ACAD_PROXY_OBJECT
  5
1D33
102
{ACAD_REACTORS
330
1D29
102
}
330
1D29
100
AcDbProxyObject
 90
      499
 91
      510
 93
      428
310
429499585B1A5CDD1A58C0108409028333333333333E3BF0000000000000FB01079019070040501508421405064090741402480A1B45
 94
        0
1001
ACAD
1000
AcDbSavedByObjectVersion
1070
     0
1000
AcadProxyRoundTripData
1071
      505
1071
   655383
1070
     0
  0
ACAD_PROXY_OBJECT
  5
1D36
102
{ACAD_REACTORS
330
1D29
102
}
330
1D29
100
AcDbProxyObject
 90
      499
 91
      510
 93
      420
310
42151A1A58DAD95B8010D409028333333333333E3BF0000000000000FB010790141107004050150C41D405064090741402480A0352
 94
        0
1001
ACAD
1000
AcDbSavedByObjectVersion
1070
     0
1000
AcadProxyRoundTripData
1071
      505
1071
   655383
1070
     0
  0
XRECORD
  5
1E99
102
{ACAD_REACTORS
330
1E8F
102
}
330
1E8F
100
AcDbXrecord
 90
        0
  0
XRECORD
  5
1E9D
102
{ACAD_REACTORS
330
1E8F
102
}
330
1E8F
100
AcDbXrecord
1000
DSTYLE
1002
{
1070
   179
 70
     2
1070
   277
 70
     6
1002
}
  0
XRECORD
  5
1E9A
102
{ACAD_REACTORS
330
1E8F
102
}
330
1E8F
100
AcDbXrecord
  1
{6385560B-F4B1-4644-A7C2-A3E32AC3D232}
  0
XRECORD
  5
1E92
102
{ACAD_REACTORS
330
1E8F
102
}
330
1E8F
100
AcDbXrecord
  1

  0
XRECORD
  5
1E98
102
{ACAD_REACTORS
330
1E8F
102
}
330
1E8F
100
AcDbXrecord
 90
        0
  0
XRECORD
  5
1E94
102
{ACAD_REACTORS
330
1E8F
102
}
330
1E8F
100
AcDbXrecord
340
61
  0
XRECORD
  5
1E97
102
{ACAD_REACTORS
330
1E8F
102
}
330
1E8F
100
AcDbXrecord
 90
    10781
  0
XRECORD
  5
1E95
102
{ACAD_REACTORS
330
1E8F
102
}
330
1E8F
100
AcDbXrecord
340
77
  0
XRECORD
  5
1E96
102
{ACAD_REACTORS
330
1E8F
102
}
330
1E8F
100
AcDbXrecord
340
6
  0
XRECORD
  5
1E9C
102
{ACAD_REACTORS
330
1E8F
102
}
330
1E8F
100
AcDbXrecord
 40
0.0
  0
XRECORD
  5
1EA0
102
{ACAD_REACTORS
330
1E8F
102
}
330
1E8F
100
AcDbXrecord
340
0
  0
XRECORD
  5
1EA6
102
{ACAD_REACTORS
330
1E8F
102
}
330
1E8F
100
AcDbXrecord
 10
0.0
 20
0.0
 30
0.0
  0
XRECORD
  5
1EA2
102
{ACAD_REACTORS
330
1E8F
102
}
330
1E8F
100
AcDbXrecord
 10
0.0
 20
0.0
 30
0.0
  0
XRECORD
  5
1EA5
102
{ACAD_REACTORS
330
1E8F
102
}
330
1E8F
100
AcDbXrecord
 10
0.0
 20
0.0
 30
0.0
  0
XRECORD
  5
1EA3
102
{ACAD_REACTORS
330
1E8F
102
}
330
1E8F
100
AcDbXrecord
 10
0.0
 20
0.0
 30
0.0
  0
XRECORD
  5
1EA4
102
{ACAD_REACTORS
330
1E8F
102
}
330
1E8F
100
AcDbXrecord
 10
0.0
 20
0.0
 30
0.0
  0
XRECORD
  5
1EA1
102
{ACAD_REACTORS
330
1E8F
102
}
330
1E8F
100
AcDbXrecord
 10
0.0
 20
0.0
 30
0.0
  0
XRECORD
  5
1E9E
102
{ACAD_REACTORS
330
1E8F
102
}
330
1E8F
100
AcDbXrecord
340
0
  0
XRECORD
  5
1E9F
102
{ACAD_REACTORS
330
1E8F
102
}
330
1E8F
100
AcDbXrecord
 70
     0
  0
XRECORD
  5
1E93
102
{ACAD_REACTORS
330
1E8F
102
}
330
1E8F
100
AcDbXrecord
  1
Sekkei.ctb
  0
XRECORD
  5
1E90
102
{ACAD_REACTORS
330
1E8F
102
}
330
1E8F
100
AcDbXrecord
 90
        1
  0
XRECORD
  5
1E91
102
{ACAD_REACTORS
330
1E8F
102
}
330
1E8F
100
AcDbXrecord
 90
       70
  0
XRECORD
  5
1EA9
102
{ACAD_REACTORS
330
1E8F
102
}
330
1E8F
100
AcDbXrecord
340
0
  0
XRECORD
  5
1EAF
102
{ACAD_REACTORS
330
1E8F
102
}
330
1E8F
100
AcDbXrecord
 10
0.0
 20
0.0
 30
0.0
  0
XRECORD
  5
1EAB
102
{ACAD_REACTORS
330
1E8F
102
}
330
1E8F
100
AcDbXrecord
 10
0.0
 20
0.0
 30
0.0
  0
XRECORD
  5
1EAE
102
{ACAD_REACTORS
330
1E8F
102
}
330
1E8F
100
AcDbXrecord
 10
0.0
 20
0.0
 30
0.0
  0
XRECORD
  5
1EAC
102
{ACAD_REACTORS
330
1E8F
102
}
330
1E8F
100
AcDbXrecord
 10
0.0
 20
0.0
 30
0.0
  0
XRECORD
  5
1EAD
102
{ACAD_REACTORS
330
1E8F
102
}
330
1E8F
100
AcDbXrecord
 10
0.0
 20
0.0
 30
0.0
  0
XRECORD
  5
1EAA
102
{ACAD_REACTORS
330
1E8F
102
}
330
1E8F
100
AcDbXrecord
 10
0.0
 20
0.0
 30
0.0
  0
XRECORD
  5
1EA7
102
{ACAD_REACTORS
330
1E8F
102
}
330
1E8F
100
AcDbXrecord
340
0
  0
XRECORD
  5
1EA8
102
{ACAD_REACTORS
330
1E8F
102
}
330
1E8F
100
AcDbXrecord
 70
     0
  0
XRECORD
  5
1E9B
102
{ACAD_REACTORS
330
1E8F
102
}
330
1E8F
100
AcDbXrecord
  1
{31FE0129-F5B6-43FC-B308-67E408EBDB4D}
  0
DICTIONARYVAR
  5
1E3A
102
{ACAD_REACTORS
330
102
102
}
330
102
100
DictionaryVariables
280
     0
  1
1:1
  0
DICTIONARYVAR
  5
1E39
102
{ACAD_REACTORS
330
102
102
}
330
102
100
DictionaryVariables
280
     0
  1
STANDARD
  0
DICTIONARYVAR
  5
1E38
102
{ACAD_REACTORS
330
102
102
}
330
102
100
DictionaryVariables
280
     0
  1
STANDARD
  0
DICTIONARYVAR
  5
103
102
{ACAD_REACTORS
330
102
102
}
330
102
100
DictionaryVariables
280
     0
  1
1
  0
DICTIONARYVAR
  5
1E3B
102
{ACAD_REACTORS
330
102
102
}
330
102
100
DictionaryVariables
280
     0
  1
0
  0
DICTIONARYVAR
  5
549
102
{ACAD_REACTORS
330
102
102
}
330
102
100
DictionaryVariables
280
     0
  1
96
  0
DICTIONARY
  5
1D1A
330
1D19
100
AcDbDictionary
280
     1
  3
ACAD_XREC_ROUNDTRIP
360
1E69
  3
BUMPTILE
360
1D1C
  3
DIFFUSETILE
360
1D1B
  3
OPACITYTILE
360
1D1F
  3
REFLECTIONTILE
360
1D1E
  3
REFRACTIONTILE
360
1D20
  3
SPECULARTILE
360
1D1D
  0
DICTIONARY
  5
1D12
330
1D11
100
AcDbDictionary
280
     1
  3
ACAD_XREC_ROUNDTRIP
360
1E68
  3
BUMPTILE
360
1D14
  3
DIFFUSETILE
360
1D13
  3
OPACITYTILE
360
1D17
  3
REFLECTIONTILE
360
1D16
  3
REFRACTIONTILE
360
1D18
  3
SPECULARTILE
360
1D15
  0
DICTIONARY
  5
1D22
330
1D21
100
AcDbDictionary
280
     1
  3
ACAD_XREC_ROUNDTRIP
360
1E6A
  3
BUMPTILE
360
1D24
  3
DIFFUSETILE
360
1D23
  3
OPACITYTILE
360
1D27
  3
REFLECTIONTILE
360
1D26
  3
REFRACTIONTILE
360
1D28
  3
SPECULARTILE
360
1D25
  0
DICTIONARY
  5
1E15
330
1D3C
100
AcDbDictionary
280
     1
  3
ACAD_ROUNDTRIP_2008_TABLES
360
1E4C
  3
ACAD_XREC_ROUNDTRIP
360
1E6B
  0
XRECORD
  5
1E69
102
{ACAD_REACTORS
330
1D1A
102
}
330
1D1A
100
AcDbXrecord
102
MATERIAL
148
0.0
149
0.0
149
0.0
 93
        0
 94
      127
282
     0
 72
     0
 77
     0
171
     0
175
     0
179
     0
273
     0
  0
XRECORD
  5
1D1C
102
{ACAD_REACTORS
330
1D1A
102
}
330
1D1A
100
AcDbXrecord
270
     1
271
     1
  0
XRECORD
  5
1D1B
102
{ACAD_REACTORS
330
1D1A
102
}
330
1D1A
100
AcDbXrecord
270
     1
271
     1
  0
XRECORD
  5
1D1F
102
{ACAD_REACTORS
330
1D1A
102
}
330
1D1A
100
AcDbXrecord
270
     1
271
     1
  0
XRECORD
  5
1D1E
102
{ACAD_REACTORS
330
1D1A
102
}
330
1D1A
100
AcDbXrecord
270
     1
271
     1
  0
XRECORD
  5
1D20
102
{ACAD_REACTORS
330
1D1A
102
}
330
1D1A
100
AcDbXrecord
270
     1
271
     1
  0
XRECORD
  5
1D1D
102
{ACAD_REACTORS
330
1D1A
102
}
330
1D1A
100
AcDbXrecord
270
     1
271
     1
  0
XRECORD
  5
1E68
102
{ACAD_REACTORS
330
1D12
102
}
330
1D12
100
AcDbXrecord
102
MATERIAL
148
0.0
149
0.0
149
0.0
 93
        0
 94
      127
282
     0
 72
     0
 77
     0
171
     0
175
     0
179
     0
273
     0
  0
XRECORD
  5
1D14
102
{ACAD_REACTORS
330
1D12
102
}
330
1D12
100
AcDbXrecord
270
     1
271
     1
  0
XRECORD
  5
1D13
102
{ACAD_REACTORS
330
1D12
102
}
330
1D12
100
AcDbXrecord
270
     1
271
     1
  0
XRECORD
  5
1D17
102
{ACAD_REACTORS
330
1D12
102
}
330
1D12
100
AcDbXrecord
270
     1
271
     1
  0
XRECORD
  5
1D16
102
{ACAD_REACTORS
330
1D12
102
}
330
1D12
100
AcDbXrecord
270
     1
271
     1
  0
XRECORD
  5
1D18
102
{ACAD_REACTORS
330
1D12
102
}
330
1D12
100
AcDbXrecord
270
     1
271
     1
  0
XRECORD
  5
1D15
102
{ACAD_REACTORS
330
1D12
102
}
330
1D12
100
AcDbXrecord
270
     1
271
     1
  0
XRECORD
  5
1E6A
102
{ACAD_REACTORS
330
1D22
102
}
330
1D22
100
AcDbXrecord
102
MATERIAL
148
0.0
149
0.0
149
0.0
 93
        0
 94
      127
282
     0
 72
     0
 77
     0
171
     0
175
     0
179
     0
273
     0
  0
XRECORD
  5
1D24
102
{ACAD_REACTORS
330
1D22
102
}
330
1D22
100
AcDbXrecord
270
     1
271
     1
  0
XRECORD
  5
1D23
102
{ACAD_REACTORS
330
1D22
102
}
330
1D22
100
AcDbXrecord
270
     1
271
     1
  0
XRECORD
  5
1D27
102
{ACAD_REACTORS
330
1D22
102
}
330
1D22
100
AcDbXrecord
270
     1
271
     1
  0
XRECORD
  5
1D26
102
{ACAD_REACTORS
330
1D22
102
}
330
1D22
100
AcDbXrecord
270
     1
271
     1
  0
XRECORD
  5
1D28
102
{ACAD_REACTORS
330
1D22
102
}
330
1D22
100
AcDbXrecord
270
     1
271
     1
  0
XRECORD
  5
1D25
102
{ACAD_REACTORS
330
1D22
102
}
330
1D22
100
AcDbXrecord
270
     1
271
     1
  0
ACAD_PROXY_OBJECT
  5
1E4C
102
{ACAD_REACTORS
330
1E15
102
}
330
1E15
100
AcDbProxyObject
 90
      499
 91
      510
 93
     1044
310
40D054060020000020000003200101A000080002A5058000000C100000000000000340FE901405075F5449544C450041501A8000000C800406800020000A9416000000304000AD7A3703D0AC73FA409014217D2115051115480105406A0000003200101A000080002A5028000000C10002B5E8DC0F42B1CFE903409065F444
310
15441004
340
16
340
16
340
16
 94
        0
1001
ACAD
1000
AcadProxyRoundTripData
1071
      509
1071
   655383
1070
     0
  0
XRECORD
  5
1E6B
102
{ACAD_REACTORS
330
1E15
102
}
330
1E15
100
AcDbXrecord
102
ACAD_ROUNDTRIP_PRE2007_TABLESTYLE
 90
      512
 91
        0
  1

 92
      512
 93
        0
  2

 94
      512
 95
        0
  3

  0
ENDSEC
  0
EOF
