  0
SECTION
  2
HEADER
  9
$ACADVER
  1
AC1014
  9
$ACADMAINTVER
 70
     9
  9
$DWGCODEPAGE
  3
ANSI_932
  9
$INSBASE
 10
0.0
 20
0.0
 30
0.0
  9
$EXTMIN
 10
40.08482560202378
 20
101.1381782432948
 30
0.0
  9
$EXTMAX
 10
999.5005600434062
 20
696.2608944063377
 30
0.0
  9
$LIMMIN
 10
0.0
 20
0.0
  9
$LIMMAX
 10
297.0
 20
210.0
  9
$ORTHOMODE
 70
     1
  9
$REGENMODE
 70
     1
  9
$FILLMODE
 70
     1
  9
$QTEXTMODE
 70
     0
  9
$MIRRTEXT
 70
     0
  9
$DRAGMODE
 70
     2
  9
$LTSCALE
 40
3.0
  9
$OSMODE
 70
    37
  9
$ATTMODE
 70
     1
  9
$TEXTSIZE
 40
2.0
  9
$TRACEWID
 40
1.0
  9
$TEXTSTYLE
  7
STANDARD
  9
$CLAYER
  8
0
  9
$CELTYPE
  6
BYLAYER
  9
$CECOLOR
 62
   256
  9
$CELTSCALE
 40
1.0
  9
$DELOBJ
 70
     1
  9
$DISPSILH
 70
     0
  9
$DIMSCALE
 40
3.0
  9
$DIMASZ
 40
1.8
  9
$DIMEXO
 40
0.625
  9
$DIMDLI
 40
3.75
  9
$DIMRND
 40
0.0
  9
$DIMDLE
 40
0.0
  9
$DIMEXE
 40
0.8
  9
$DIMTP
 40
0.0
  9
$DIMTM
 40
0.0
  9
$DIMTXT
 40
1.8
  9
$DIMCEN
 40
2.5
  9
$DIMTSZ
 40
0.0
  9
$DIMTOL
 70
     0
  9
$DIMLIM
 70
     0
  9
$DIMTIH
 70
     0
  9
$DIMTOH
 70
     0
  9
$DIMSE1
 70
     0
  9
$DIMSE2
 70
     0
  9
$DIMTAD
 70
     1
  9
$DIMZIN
 70
     8
  9
$DIMBLK
  1

  9
$DIMASO
 70
     1
  9
$DIMSHO
 70
     1
  9
$DIMPOST
  1

  9
$DIMAPOST
  1

  9
$DIMALT
 70
     0
  9
$DIMALTD
 70
     4
  9
$DIMALTF
 40
0.0394
  9
$DIMLFAC
 40
1.0
  9
$DIMTOFL
 70
     1
  9
$DIMTVP
 40
0.0
  9
$DIMTIX
 70
     0
  9
$DIMSOXD
 70
     0
  9
$DIMSAH
 70
     0
  9
$DIMBLK1
  1

  9
$DIMBLK2
  1

  9
$DIMSTYLE
  2
STANDARD
  9
$DIMCLRD
 70
     0
  9
$DIMCLRE
 70
     0
  9
$DIMCLRT
 70
     0
  9
$DIMTFAC
 40
1.0
  9
$DIMGAP
 40
0.75
  9
$DIMJUST
 70
     0
  9
$DIMSD1
 70
     0
  9
$DIMSD2
 70
     0
  9
$DIMTOLJ
 70
     1
  9
$DIMTZIN
 70
     0
  9
$DIMALTZ
 70
     0
  9
$DIMALTTZ
 70
     0
  9
$DIMFIT
 70
     3
  9
$DIMUPT
 70
     0
  9
$DIMUNIT
 70
     8
  9
$DIMDEC
 70
     2
  9
$DIMTDEC
 70
     2
  9
$DIMALTU
 70
     8
  9
$DIMALTTD
 70
     4
  9
$DIMTXSTY
  7
STANDARD
  9
$DIMAUNIT
 70
     0
  9
$LUNITS
 70
     2
  9
$LUPREC
 70
     3
  9
$SKETCHINC
 40
1.0
  9
$FILLETRAD
 40
10.0
  9
$AUNITS
 70
     0
  9
$AUPREC
 70
     2
  9
$MENU
  1
.
  9
$ELEVATION
 40
0.0
  9
$PELEVATION
 40
0.0
  9
$THICKNESS
 40
0.0
  9
$LIMCHECK
 70
     0
  9
$BLIPMODE
 70
     0
  9
$CHAMFERA
 40
0.0
  9
$CHAMFERB
 40
0.0
  9
$CHAMFERC
 40
20.0
  9
$CHAMFERD
 40
0.0
  9
$SKPOLY
 70
     0
  9
$TDCREATE
 40
2454411.648913483
  9
$TDUPDATE
 40
2454424.596739537
  9
$TDINDWG
 40
0.0088136690
  9
$TDUSRTIMER
 40
0.0088132986
  9
$USRTIMER
 70
     1
  9
$ANGBASE
 50
0.0
  9
$ANGDIR
 70
     0
  9
$PDMODE
 70
     0
  9
$PDSIZE
 40
-10.0
  9
$PLINEWID
 40
0.0
  9
$COORDS
 70
     0
  9
$SPLFRAME
 70
     0
  9
$SPLINETYPE
 70
     6
  9
$SPLINESEGS
 70
     8
  9
$ATTDIA
 70
     0
  9
$ATTREQ
 70
     1
  9
$HANDLING
 70
-16383
  9
$HANDSEED
  5
1ABB
  9
$SURFTAB1
 70
     6
  9
$SURFTAB2
 70
     6
  9
$SURFTYPE
 70
     6
  9
$SURFU
 70
     6
  9
$SURFV
 70
     6
  9
$UCSNAME
  2

  9
$UCSORG
 10
0.0
 20
0.0
 30
0.0
  9
$UCSXDIR
 10
1.0
 20
0.0
 30
0.0
  9
$UCSYDIR
 10
0.0
 20
1.0
 30
0.0
  9
$PUCSNAME
  2

  9
$PUCSORG
 10
0.0
 20
0.0
 30
0.0
  9
$PUCSXDIR
 10
1.0
 20
0.0
 30
0.0
  9
$PUCSYDIR
 10
0.0
 20
1.0
 30
0.0
  9
$USERI1
 70
     0
  9
$USERI2
 70
     0
  9
$USERI3
 70
     0
  9
$USERI4
 70
     0
  9
$USERI5
 70
     0
  9
$USERR1
 40
0.0
  9
$USERR2
 40
0.0
  9
$USERR3
 40
0.0
  9
$USERR4
 40
0.0
  9
$USERR5
 40
0.0
  9
$WORLDVIEW
 70
     1
  9
$SHADEDGE
 70
     3
  9
$SHADEDIF
 70
    70
  9
$TILEMODE
 70
     1
  9
$MAXACTVP
 70
    48
  9
$PINSBASE
 10
0.0
 20
0.0
 30
0.0
  9
$PLIMCHECK
 70
     0
  9
$PEXTMIN
 10
0.0
 20
0.0
 30
0.0
  9
$PEXTMAX
 10
0.0
 20
0.0
 30
0.0
  9
$PLIMMIN
 10
0.0
 20
0.0
  9
$PLIMMAX
 10
12.0
 20
9.0
  9
$UNITMODE
 70
     0
  9
$VISRETAIN
 70
     1
  9
$PLINEGEN
 70
     0
  9
$PSLTSCALE
 70
     1
  9
$TREEDEPTH
 70
  3020
  9
$PICKSTYLE
 70
     1
  9
$CMLSTYLE
  2
STANDARD
  9
$CMLJUST
 70
     0
  9
$CMLSCALE
 40
1.0
  9
$PROXYGRAPHICS
 70
     1
  9
$MEASUREMENT
 70
     0
  0
ENDSEC
  0
SECTION
  2
CLASSES
  0
CLASS
  1
DICTIONARYVAR
  2
AcDbDictionaryVar
  3
AutoCAD 2000
 90
        0
280
     0
281
     0
  0
CLASS
  1
ACDBDICTIONARYWDFLT
  2
AcDbDictionaryWithDefault
  3
AutoCAD 2000
 90
        0
280
     0
281
     0
  0
CLASS
  1
ACDBPLACEHOLDER
  2
AcDbPlaceHolder
  3
AutoCAD 2000
 90
        0
280
     0
281
     0
  0
CLASS
  1
LAYOUT
  2
AcDbLayout
  3
AutoCAD 2000
 90
        0
280
     0
281
     0
  0
CLASS
  1
MATERIAL
  2
AcDbMaterial
  3
ObjectDBX Classes
 90
     1153
280
     0
281
     0
  0
CLASS
  1
VISUALSTYLE
  2
AcDbVisualStyle
  3
ObjectDBX Classes
 90
     4095
280
     0
281
     0
  0
CLASS
  1
TABLESTYLE
  2
AcDbTableStyle
  3
ObjectDBX Classes
 90
     4095
280
     0
281
     0
  0
CLASS
  1
SCALE
  2
AcDbScale
  3
ObjectDBX Classes
 90
     1153
280
     0
281
     0
  0
CLASS
  1
MLEADERSTYLE
  2
AcDbMLeaderStyle
  3
ACDB_MLEADERSTYLE_CLASS
 90
     4095
280
     0
281
     0
  0
CLASS
  1
CELLSTYLEMAP
  2
AcDbCellStyleMap
  3
ObjectDBX Classes
 90
     1152
280
     0
281
     0
  0
CLASS
  1
ACAD_PROXY_OBJECT_WRAPPER
  2
AcDbProxyObjectWrapper
  3
AutoCAD 2000
 90
        0
280
     0
281
     0
  0
CLASS
  1
LONG_TRANSACTION
  2
AcDbLongTransaction
  3
AutoCAD 2000
 90
        0
280
     0
281
     0
  0
CLASS
  1
LWPOLYLINE
  2
AcDbPolyline
  3
AutoCAD 2000
 90
        0
280
     0
281
     1
  0
CLASS
  1
HATCH
  2
AcDbHatch
  3
AutoCAD 2000
 90
        0
280
     0
281
     1
  0
CLASS
  1
XRECORD
  2
AcDbXrecord
  3
AutoCAD 2000
 90
        0
280
     0
281
     0
  0
ENDSEC
  0
SECTION
  2
TABLES
  0
TABLE
  2
VPORT
  5
6E
102
{ACAD_XDICTIONARY
360
1A30
102
}
330
0
100
AcDbSymbolTable
 70
     2
  0
VPORT
  5
1A95
330
6E
100
AcDbSymbolTableRecord
100
AcDbViewportTableRecord
  2
*ACTIVE
 70
     0
 10
0.0
 20
0.0
 11
1.0
 21
1.0
 12
584.7014713544498
 22
380.4982476801455
 13
0.0
 23
0.0
 14
10.0
 24
10.0
 15
10.0
 25
10.0
 16
0.0
 26
0.0
 36
1.0
 17
0.0
 27
0.0
 37
0.0
 40
636.446281201135
 41
1.753504672897196
 42
50.0
 43
0.0
 44
0.0
 50
0.0
 51
0.0
 71
     0
 72
   100
 73
     1
 74
     3
 75
     0
 76
     0
 77
     0
 78
     0
  0
ENDTAB
  0
TABLE
  2
LTYPE
  5
69
330
0
100
AcDbSymbolTable
 70
     7
  0
LTYPE
  5
6A
330
69
100
AcDbSymbolTableRecord
100
AcDbLinetypeTableRecord
  2
BYBLOCK
 70
     0
  3

 72
    65
 73
     0
 40
0.0
  0
LTYPE
  5
6B
330
69
100
AcDbSymbolTableRecord
100
AcDbLinetypeTableRecord
  2
BYLAYER
 70
     0
  3

 72
    65
 73
     0
 40
0.0
  0
LTYPE
  5
8
330
69
100
AcDbSymbolTableRecord
100
AcDbLinetypeTableRecord
  2
CONTINUOUS
 70
     0
  3
Solid line
 72
    65
 73
     0
 40
0.0
  0
LTYPE
  5
27C
330
69
100
AcDbSymbolTableRecord
100
AcDbLinetypeTableRecord
  2
SEKKEI_A2_
 70
     0
  3
center(A2)  ____ _ ____ _ ____ _ ____ _ ____ _ 
 72
    65
 73
     4
 40
14.28749999999999
 49
9.525
 74
     0
 49
-1.587499999999999
 74
     0
 49
1.587499999999999
 74
     0
 49
-1.587499999999999
 74
     0
  0
LTYPE
  5
494
330
69
100
AcDbSymbolTableRecord
100
AcDbLinetypeTableRecord
  2
SEKKEI_P_S
 70
     0
  3
Phantom_S   __ _ _ __ _ _ __ _ _ ___
 72
    65
 73
     6
 40
7.5
 49
3.75
 74
     0
 49
-0.75
 74
     0
 49
0.75
 74
     0
 49
-0.75
 74
     0
 49
0.75
 74
     0
 49
-0.75
 74
     0
  0
LTYPE
  5
7EF
330
69
100
AcDbSymbolTableRecord
100
AcDbLinetypeTableRecord
  2
PHANTOM3
 70
     0
  3
Phantom  ___ _ _ ___ _ _ ___ _ _ ___ _ _
 72
    65
 73
     6
 40
9.0
 49
4.0
 74
     0
 49
-1.0
 74
     0
 49
1.0
 74
     0
 49
-1.0
 74
     0
 49
1.0
 74
     0
 49
-1.0
 74
     0
  0
LTYPE
  5
7F0
330
69
100
AcDbSymbolTableRecord
100
AcDbLinetypeTableRecord
  2
HIDDEN3
 70
     0
  3
Hidden (.3x) _ _ _ _ _ _ _ _ _ _ _ _ _ _ _ _ _
 72
    65
 73
     2
 40
2.857499999999999
 49
1.905
 74
     0
 49
-0.9525
 74
     0
  0
LTYPE
  5
B11
330
69
100
AcDbSymbolTableRecord
100
AcDbLinetypeTableRecord
  2
CENS
 70
     0
  3
(一点鎖線１)---- - ---- - ---- - ---- - ---- - 
 72
    65
 73
     4
 40
7.0
 49
4.0
 74
     0
 49
-1.0
 74
     0
 49
1.0
 74
     0
 49
-1.0
 74
     0
  0
ENDTAB
  0
TABLE
  2
LAYER
  5
66
102
{ACAD_XDICTIONARY
360
B12
102
}
330
0
100
AcDbSymbolTable
 70
    10
  0
LAYER
  5
5E
102
{ACAD_XDICTIONARY
360
195E
102
}
330
66
100
AcDbSymbolTableRecord
100
AcDbLayerTableRecord
  2
0
 70
     0
 62
     7
  6
CONTINUOUS
  0
LAYER
  5
3E
102
{ACAD_XDICTIONARY
360
1960
102
}
330
66
100
AcDbSymbolTableRecord
100
AcDbLayerTableRecord
  2
CENTER
 70
     0
 62
     3
  6
SEKKEI_A2_
  0
LAYER
  5
2B5
102
{ACAD_XDICTIONARY
360
1966
102
}
330
66
100
AcDbSymbolTableRecord
100
AcDbLayerTableRecord
  2
HIDS
 70
     0
 62
     1
  6
HIDDEN3
  0
LAYER
  5
2BA
102
{ACAD_XDICTIONARY
360
1968
102
}
330
66
100
AcDbSymbolTableRecord
100
AcDbLayerTableRecord
  2
HOJO
 70
     0
 62
     4
  6
CONTINUOUS
  0
LAYER
  5
3FA
102
{ACAD_XDICTIONARY
360
196C
102
}
330
66
100
AcDbSymbolTableRecord
100
AcDbLayerTableRecord
  2
TITLE
 70
     0
 62
     4
  6
CONTINUOUS
  0
LAYER
  5
478
102
{ACAD_XDICTIONARY
360
196E
102
}
330
66
100
AcDbSymbolTableRecord
100
AcDbLayerTableRecord
  2
PHAS
 70
     0
 62
     2
  6
PHANTOM3
  0
ENDTAB
  0
TABLE
  2
STYLE
  5
67
330
0
100
AcDbSymbolTable
 70
     2
  0
STYLE
  5
16
330
67
100
AcDbSymbolTableRecord
100
AcDbTextStyleTableRecord
  2
STANDARD
 70
     0
 40
0.0
 41
1.0
 50
0.0
 71
     0
 42
2.0
  3
simplex.shx
  4
extfont.shx
  0
ENDTAB
  0
TABLE
  2
VIEW
  5
6C
330
0
100
AcDbSymbolTable
 70
     0
  0
ENDTAB
  0
TABLE
  2
UCS
  5
6D
330
0
100
AcDbSymbolTable
 70
     0
  0
ENDTAB
  0
TABLE
  2
APPID
  5
70
330
0
100
AcDbSymbolTable
 70
     3
  0
APPID
  5
71
330
70
100
AcDbSymbolTableRecord
100
AcDbRegAppTableRecord
  2
ACAD
 70
     0
  0
APPID
  5
1931
330
70
100
AcDbSymbolTableRecord
100
AcDbRegAppTableRecord
  2
ACAD_MLEADERVER
 70
     0
  0
APPID
  5
19BE
330
70
100
AcDbSymbolTableRecord
100
AcDbRegAppTableRecord
  2
ACAD_DSTYLE_DIMRADIAL_EXTENSION
 70
     0
  0
ENDTAB
  0
TABLE
  2
DIMSTYLE
  5
72
330
0
100
AcDbSymbolTable
 70
     1
  0
DIMSTYLE
105
73
330
72
100
AcDbSymbolTableRecord
100
AcDbDimStyleTableRecord
  2
STANDARD
 70
     0
  3

  4

  5

  6

  7

 40
3.0
 41
1.8
 42
0.625
 43
3.75
 44
0.8
 45
0.0
 46
0.0
 47
0.0
 48
0.0
140
1.8
141
2.5
142
0.0
143
0.0394
144
1.0
145
0.0
146
1.0
147
0.75
 71
     0
 72
     0
 73
     0
 74
     0
 75
     0
 76
     0
 77
     1
 78
     8
170
     0
171
     4
172
     1
173
     0
174
     0
175
     0
176
     0
177
     0
178
     0
270
     8
271
     2
272
     2
273
     8
274
     4
340
16
275
     0
280
     0
281
     0
282
     0
283
     1
284
     0
285
     0
286
     0
287
     3
288
     0
  0
ENDTAB
  0
TABLE
  2
BLOCK_RECORD
  5
1
330
0
100
AcDbSymbolTable
 70
    56
  0
BLOCK_RECORD
  5
2
102
{ACAD_XDICTIONARY
360
1AB7
102
}
330
1
100
AcDbSymbolTableRecord
100
AcDbBlockTableRecord
  2
*MODEL_SPACE
  0
BLOCK_RECORD
  5
1A90
102
{ACAD_XDICTIONARY
360
1AB9
102
}
330
1
100
AcDbSymbolTableRecord
100
AcDbBlockTableRecord
  2
*PAPER_SPACE
  0
ENDTAB
  0
ENDSEC
  0
SECTION
  2
BLOCKS
  0
BLOCK
  5
5D
330
2
100
AcDbEntity
  8
0
100
AcDbBlockBegin
  2
*MODEL_SPACE
 70
     0
 10
0.0
 20
0.0
 30
0.0
  3
*MODEL_SPACE
  1

  0
ENDBLK
  5
5F
330
2
100
AcDbEntity
  8
0
100
AcDbBlockEnd
  0
BLOCK
  5
1A92
330
1A90
100
AcDbEntity
 67
     1
  8
0
100
AcDbBlockBegin
  2
*PAPER_SPACE
 70
     0
 10
0.0
 20
0.0
 30
0.0
  3
*PAPER_SPACE
  1

  0
ENDBLK
  5
1A93
330
1A90
100
AcDbEntity
 67
     1
  8
0
100
AcDbBlockEnd
  0
ENDSEC
  0
SECTION
  2
ENTITIES
  0
TEXT
  5
FFA
330
2
100
AcDbEntity
  8
TITLE
100
AcDbText
 10
298.1651049415251
 20
635.9892149594495
 30
0.0
 40
7.5
  1
AFCZ18S-40~60M100S3
100
AcDbText
  0
TEXT
  5
FFB
330
2
100
AcDbEntity
  8
TITLE
100
AcDbText
 10
298.1651049415251
 20
624.9892149594495
 30
0.0
 40
7.5
  1
AFCZ18S-40~60L100S3
100
AcDbText
  0
LINE
  5
FFD
330
2
100
AcDbEntity
  8
CENTER
100
AcDbLine
 10
246.0848256020237
 20
386.0879643528826
 30
0.0
 11
40.08482560202378
 21
386.0879643528826
 31
0.0
  0
LINE
  5
FFE
330
2
100
AcDbEntity
  8
CENTER
100
AcDbLine
 10
195.0848256020242
 20
335.0879643528827
 30
0.0
 11
195.0848256020242
 21
437.0879643528827
 31
0.0
  0
LINE
  5
FFF
330
2
100
AcDbEntity
  8
CENTER
100
AcDbLine
 10
590.7315125862835
 20
696.2608944063377
 30
0.0
 11
590.7315125862817
 21
563.2608944063377
 31
0.0
  0
LINE
  5
1000
330
2
100
AcDbEntity
  8
CENTER
100
AcDbLine
 10
531.7315125862817
 20
386.0879643528824
 30
0.0
 11
745.7315125862798
 21
386.0879643528824
 31
0.0
  0
LINE
  5
1001
330
2
100
AcDbEntity
  8
CENTER
100
AcDbLine
 10
539.9496842810515
 20
637.2608944063377
 30
0.0
 11
745.7315125862798
 21
637.2608944063374
 31
0.0
  0
CIRCLE
  5
1002
330
2
100
AcDbEntity
  8
CENTER
100
AcDbCircle
 10
590.7315125862817
 20
386.0879643528824
 30
0.0
 40
49.0
  0
LINE
  5
1003
330
2
100
AcDbEntity
  8
CENTER
100
AcDbLine
 10
546.2462312120435
 20
430.5732457271211
 30
0.0
 11
635.2167939605217
 21
341.6026829786438
 31
0.0
  0
LINE
  5
1004
330
2
100
AcDbEntity
  8
CENTER
100
AcDbLine
 10
635.2167939605217
 20
430.5732457271209
 30
0.0
 11
546.2462312120435
 21
341.6026829786438
 31
0.0
  0
LINE
  5
1005
330
2
100
AcDbEntity
  8
CENTER
100
AcDbLine
 10
590.7315125862817
 20
327.0879643528824
 30
0.0
 11
590.7315125862817
 21
445.0879643528824
 31
0.0
  0
CIRCLE
  5
1006
330
2
100
AcDbEntity
  8
HOJO
100
AcDbCircle
 10
556.0832803081414
 20
351.4397320747412
 30
0.0
 40
3.0
  0
CIRCLE
  5
1007
330
2
100
AcDbEntity
  8
HOJO
100
AcDbCircle
 10
625.3797448644229
 20
351.4397320747412
 30
0.0
 40
3.0
  0
CIRCLE
  5
1008
330
2
100
AcDbEntity
  8
HOJO
100
AcDbCircle
 10
556.0832803081423
 20
420.7361966310236
 30
0.0
 40
3.0
  0
CIRCLE
  5
1009
330
2
100
AcDbEntity
  8
HOJO
100
AcDbCircle
 10
625.3797448644229
 20
420.7361966310236
 30
0.0
 40
3.0
  0
LINE
  5
100A
330
2
100
AcDbEntity
  8
CENTER
100
AcDbLine
 10
549.0832803081423
 20
420.7361966310236
 30
0.0
 11
563.0832803081423
 21
420.7361966310236
 31
0.0
  0
LINE
  5
100B
330
2
100
AcDbEntity
  8
CENTER
100
AcDbLine
 10
556.0832803081423
 20
427.7361966310237
 30
0.0
 11
556.0832803081414
 21
413.7361966310236
 31
0.0
  0
LINE
  5
100C
330
2
100
AcDbEntity
  8
CENTER
100
AcDbLine
 10
556.0832803081423
 20
344.4397320747412
 30
0.0
 11
556.0832803081423
 21
358.4397320747412
 31
0.0
  0
LINE
  5
100D
330
2
100
AcDbEntity
  8
CENTER
100
AcDbLine
 10
549.0832803081423
 20
351.4397320747412
 30
0.0
 11
563.0832803081423
 21
351.4397320747412
 31
0.0
  0
LINE
  5
100E
330
2
100
AcDbEntity
  8
CENTER
100
AcDbLine
 10
632.3797448644229
 20
351.4397320747412
 30
0.0
 11
618.3797448644229
 21
351.4397320747412
 31
0.0
  0
LINE
  5
100F
330
2
100
AcDbEntity
  8
CENTER
100
AcDbLine
 10
625.3797448644229
 20
344.4397320747412
 30
0.0
 11
625.3797448644229
 21
358.4397320747412
 31
0.0
  0
LINE
  5
1010
330
2
100
AcDbEntity
  8
CENTER
100
AcDbLine
 10
625.3797448644229
 20
427.7361966310237
 30
0.0
 11
625.3797448644229
 21
413.7361966310236
 31
0.0
  0
LINE
  5
1011
330
2
100
AcDbEntity
  8
CENTER
100
AcDbLine
 10
632.3797448644229
 20
420.7361966310236
 30
0.0
 11
618.3797448644229
 21
420.7361966310236
 31
0.0
  0
LINE
  5
1012
330
2
100
AcDbEntity
  8
0
100
AcDbLine
 10
658.7315125862835
 20
418.0879643528842
 30
0.0
 11
635.7315125862817
 21
418.0879643528861
 31
0.0
  0
LINE
  5
1013
330
2
100
AcDbEntity
  8
0
100
AcDbLine
 10
658.7315125862835
 20
354.0879643528788
 30
0.0
 11
635.7315125862826
 21
354.087964352877
 31
0.0
  0
CIRCLE
  5
1014
330
2
100
AcDbEntity
  8
0
100
AcDbCircle
 10
590.7315125862835
 20
386.0879643528824
 30
0.0
 40
28.0
  0
CIRCLE
  5
1015
330
2
100
AcDbEntity
  8
0
100
AcDbCircle
 10
590.7315125862835
 20
386.0879643528824
 30
0.0
 40
35.00000000000011
  0
CIRCLE
  5
1016
330
2
100
AcDbEntity
  8
0
100
AcDbCircle
 10
590.7315125862826
 20
386.0879643528824
 30
0.0
 40
23.0
  0
CIRCLE
  5
1017
330
2
100
AcDbEntity
  8
0
100
AcDbCircle
 10
556.0832803081423
 20
351.4397320747412
 30
0.0
 40
2.399999999999999
  0
CIRCLE
  5
1018
330
2
100
AcDbEntity
  8
HOJO
100
AcDbCircle
 10
556.0832803081423
 20
351.4397320747412
 30
0.0
 40
3.0
  0
CIRCLE
  5
1019
330
2
100
AcDbEntity
  8
0
100
AcDbCircle
 10
556.0832803081423
 20
420.7361966310219
 30
0.0
 40
2.399999999999999
  0
CIRCLE
  5
101A
330
2
100
AcDbEntity
  8
HOJO
100
AcDbCircle
 10
556.0832803081423
 20
420.7361966310219
 30
0.0
 40
3.0
  0
LINE
  5
101B
330
2
100
AcDbEntity
  8
0
100
AcDbLine
 10
631.7315125862835
 20
350.087964352877
 30
0.0
 11
631.7315125862835
 21
422.0879643528824
 31
0.0
  0
CIRCLE
  5
101C
330
2
100
AcDbEntity
  8
0
100
AcDbCircle
 10
625.3797448644229
 20
351.4397320747412
 30
0.0
 40
2.399999999999999
  0
CIRCLE
  5
101D
330
2
100
AcDbEntity
  8
HOJO
100
AcDbCircle
 10
625.3797448644229
 20
351.4397320747412
 30
0.0
 40
3.0
  0
ARC
  5
101E
330
2
100
AcDbEntity
  8
0
100
AcDbCircle
 10
626.7315125862835
 20
350.0879643528824
 30
0.0
 40
5.0
100
AcDbArc
 50
270.0
 51
0.0
  0
CIRCLE
  5
101F
330
2
100
AcDbEntity
  8
0
100
AcDbCircle
 10
625.3797448644229
 20
420.7361966310219
 30
0.0
 40
2.399999999999999
  0
CIRCLE
  5
1020
330
2
100
AcDbEntity
  8
HOJO
100
AcDbCircle
 10
625.3797448644229
 20
420.7361966310219
 30
0.0
 40
3.0
  0
ARC
  5
1021
330
2
100
AcDbEntity
  8
0
100
AcDbCircle
 10
626.7315125862826
 20
422.0879643528824
 30
0.0
 40
5.0
100
AcDbArc
 50
0.0
 51
90.0
  0
LINE
  5
1022
330
2
100
AcDbEntity
  8
0
100
AcDbLine
 10
689.7315125862799
 20
356.5879643528824
 30
0.0
 11
689.7315125862799
 21
415.5879643528824
 31
0.0
  0
LINE
  5
1023
330
2
100
AcDbEntity
  8
0
100
AcDbLine
 10
664.7315125862826
 20
412.0879643528843
 30
0.0
 11
664.7315125862835
 21
360.0879643528788
 31
0.0
  0
LINE
  5
1024
330
2
100
AcDbEntity
  8
0
100
AcDbLine
 10
697.7315125862799
 20
417.5879643528825
 30
0.0
 11
697.7315125862799
 21
354.5879643528824
 31
0.0
  0
LINE
  5
1025
330
2
100
AcDbEntity
  8
0
100
AcDbLine
 10
697.7315125862799
 20
355.0879643528824
 30
0.0
 11
691.7315125862799
 21
355.0879643528824
 31
0.0
  0
ARC
  5
1026
330
2
100
AcDbEntity
  8
0
100
AcDbCircle
 10
658.7315125862835
 20
360.0879643528788
 30
0.0
 40
6.0
100
AcDbArc
 50
270.0
 51
0.0
  0
ARC
  5
1027
330
2
100
AcDbEntity
  8
0
100
AcDbCircle
 10
691.7315125862799
 20
357.0879643528824
 30
0.0
 40
2.0
100
AcDbArc
 50
180.0
 51
270.0
  0
LINE
  5
1028
330
2
100
AcDbEntity
  8
0
100
AcDbLine
 10
691.7315125862799
 20
417.0879643528825
 30
0.0
 11
697.7315125862799
 21
417.0879643528825
 31
0.0
  0
ARC
  5
1029
330
2
100
AcDbEntity
  8
0
100
AcDbCircle
 10
658.7315125862826
 20
412.0879643528843
 30
0.0
 40
6.0
100
AcDbArc
 50
0.0
 51
89.99999999997395
  0
ARC
  5
102A
330
2
100
AcDbEntity
  8
0
100
AcDbCircle
 10
691.7315125862799
 20
415.0879643528824
 30
0.0
 40
2.0
100
AcDbArc
 50
90.0
 51
180.0
  0
LINE
  5
102B
330
2
100
AcDbEntity
  8
0
100
AcDbLine
 10
555.7315125862835
 20
599.2608944063395
 30
0.0
 11
560.4427818640409
 21
599.2608944063395
 31
0.0
  0
LINE
  5
102C
330
2
100
AcDbEntity
  8
0
100
AcDbLine
 10
555.7315125862826
 20
599.2608944063377
 30
0.0
 11
625.7315125862826
 21
599.2608944063377
 31
0.0
  0
LINE
  5
102D
330
2
100
AcDbEntity
  8
0
100
AcDbLine
 10
550.2376709181474
 20
604.2608944063377
 30
0.0
 11
631.2209908205224
 21
604.2608944063377
 31
0.0
  0
LINE
  5
102E
330
2
100
AcDbEntity
  8
0
100
AcDbLine
 10
549.7315125862826
 20
662.2608944063377
 30
0.0
 11
550.2376709181474
 21
604.2608944063377
 31
0.0
  0
LINE
  5
102F
330
2
100
AcDbEntity
  8
0
100
AcDbLine
 10
555.7315125862826
 20
604.2608944063377
 30
0.0
 11
555.7315125862826
 21
599.2608944063377
 31
0.0
  0
LINE
  5
1030
330
2
100
AcDbEntity
  8
0
100
AcDbLine
 10
697.7315125832567
 20
668.2608944063376
 30
0.0
 11
697.7315125832567
 21
606.2608944063359
 31
0.0
  0
LINE
  5
1031
330
2
100
AcDbEntity
  8
0
100
AcDbLine
 10
697.7315125832567
 20
668.2608944063376
 30
0.0
 11
697.7315125832567
 21
606.2608944063376
 31
0.0
  0
LINE
  5
1032
330
2
100
AcDbEntity
  8
0
100
AcDbLine
 10
625.7315125862835
 20
599.2608944063395
 30
0.0
 11
621.0202433085253
 21
599.2608944063395
 31
0.0
  0
LINE
  5
1033
330
2
100
AcDbEntity
  8
0
100
AcDbLine
 10
662.6965289583488
 20
606.2608944063359
 30
0.0
 11
632.7254113719966
 21
606.2608944063322
 31
0.0
  0
LINE
  5
1034
330
2
100
AcDbEntity
  8
0
100
AcDbLine
 10
625.7315125862826
 20
604.2608944063377
 30
0.0
 11
625.7315125862826
 21
599.2608944063377
 31
0.0
  0
LINE
  5
1035
330
2
100
AcDbEntity
  8
0
100
AcDbLine
 10
88.08482560202378
 20
355.0879643528826
 30
0.0
 11
94.08482560202378
 21
355.0879643528826
 31
0.0
  0
LINE
  5
1036
330
2
100
AcDbEntity
  8
0
100
AcDbLine
 10
94.08482560202424
 20
417.0879643528826
 30
0.0
 11
88.08482560202424
 21
417.0879643528826
 31
0.0
  0
LINE
  5
1037
330
2
100
AcDbEntity
  8
0
100
AcDbLine
 10
96.08482560202379
 20
356.5879643528826
 30
0.0
 11
96.08482560202425
 21
415.5879643528827
 31
0.0
  0
ARC
  5
1038
330
2
100
AcDbEntity
  8
0
100
AcDbCircle
 10
94.08482560202424
 20
415.0879643528827
 30
0.0
 40
2.0
100
AcDbArc
 50
0.0
 51
89.99999999997395
  0
ARC
  5
1039
330
2
100
AcDbEntity
  8
0
100
AcDbCircle
 10
94.08482560202378
 20
357.0879643528826
 30
0.0
 40
2.0
100
AcDbArc
 50
270.0
 51
0.0
  0
LINE
  5
103A
330
2
100
AcDbEntity
  8
0
100
AcDbLine
 10
88.08482560202378
 20
355.0879643528826
 30
0.0
 11
88.08482560202378
 21
417.0879643528826
 31
0.0
  0
LINE
  5
103B
330
2
100
AcDbEntity
  8
0
100
AcDbLine
 10
88.08482560202424
 20
354.5879643528826
 30
0.0
 11
88.08482560202378
 21
417.5879643528826
 31
0.0
  0
ARC
  5
103C
330
2
100
AcDbEntity
  8
0
100
AcDbCircle
 10
568.135469146093
 20
465.8687556648438
 30
0.0
 40
40.0
100
AcDbArc
 50
256.63232579737
 51
276.1769964048646
  0
ARC
  5
103D
330
2
100
AcDbEntity
  8
0
100
AcDbCircle
 10
557.7315125862826
 20
422.0879643528824
 30
0.0
 40
5.0
100
AcDbArc
 50
76.63232579736996
 51
90.0
  0
LINE
  5
103E
330
2
100
AcDbEntity
  8
0
100
AcDbLine
 10
554.7315125862817
 20
427.0879643528824
 30
0.0
 11
557.7315125862826
 21
427.0879643528824
 31
0.0
  0
ARC
  5
103F
330
2
100
AcDbEntity
  8
0
100
AcDbCircle
 10
590.7315125862826
 20
257.0879643528824
 30
0.0
 40
170.0
100
AcDbArc
 50
83.82300359513532
 51
96.17699640486467
  0
ARC
  5
1040
330
2
100
AcDbEntity
  8
0
100
AcDbCircle
 10
613.3275560264713
 20
465.8687556648438
 30
0.0
 40
40.0
100
AcDbArc
 50
263.8230035951353
 51
283.3676742026299
  0
LINE
  5
1041
330
2
100
AcDbEntity
  8
0
100
AcDbLine
 10
626.7315125862826
 20
427.0879643528824
 30
0.0
 11
623.7315125862817
 21
427.0879643528824
 31
0.0
  0
ARC
  5
1042
330
2
100
AcDbEntity
  8
0
100
AcDbCircle
 10
623.7315125862817
 20
422.0879643528824
 30
0.0
 40
5.0
100
AcDbArc
 50
90.0
 51
103.36767420263
  0
ARC
  5
1043
330
2
100
AcDbEntity
  8
0
100
AcDbCircle
 10
554.7315125862817
 20
422.0879643528824
 30
0.0
 40
5.0
100
AcDbArc
 50
90.0
 51
180.0
  0
ARC
  5
1044
330
2
100
AcDbEntity
  8
0
100
AcDbCircle
 10
510.9507212743203
 20
408.684007793072
 30
0.0
 40
40.0
100
AcDbArc
 50
353.8230035951083
 51
13.36767420262659
  0
ARC
  5
1045
330
2
100
AcDbEntity
  8
0
100
AcDbCircle
 10
510.9507212743194
 20
363.4919209126947
 30
0.0
 40
40.0
100
AcDbArc
 50
346.6323257973734
 51
6.176996404891704
  0
ARC
  5
1046
330
2
100
AcDbEntity
  8
0
100
AcDbCircle
 10
554.7315125862817
 20
353.0879643528824
 30
0.0
 40
5.0
100
AcDbArc
 50
166.6323257973733
 51
180.0
  0
LINE
  5
1047
330
2
100
AcDbEntity
  8
0
100
AcDbLine
 10
549.7315125862817
 20
350.0879643528824
 30
0.0
 11
549.7315125862817
 21
353.0879643528824
 31
0.0
  0
ARC
  5
1048
330
2
100
AcDbEntity
  8
0
100
AcDbCircle
 10
719.7315125862817
 20
386.0879643528806
 30
0.0
 40
170.0
100
AcDbArc
 50
173.8230035951082
 51
186.1769964048917
  0
LINE
  5
1049
330
2
100
AcDbEntity
  8
0
100
AcDbLine
 10
549.7315125862826
 20
422.0879643528824
 30
0.0
 11
549.7315125862826
 21
419.0879643528824
 31
0.0
  0
ARC
  5
104A
330
2
100
AcDbEntity
  8
0
100
AcDbCircle
 10
554.7315125862826
 20
419.0879643528824
 30
0.0
 40
5.0
100
AcDbArc
 50
180.0
 51
193.3676742026266
  0
ARC
  5
104B
330
2
100
AcDbEntity
  8
0
100
AcDbCircle
 10
554.7315125862817
 20
350.0879643528824
 30
0.0
 40
5.0
100
AcDbArc
 50
180.0
 51
270.0
  0
LINE
  5
104C
330
2
100
AcDbEntity
  8
0
100
AcDbLine
 10
554.7315125862817
 20
345.0879643528824
 30
0.0
 11
557.7315125862826
 21
345.0879643528824
 31
0.0
  0
ARC
  5
104D
330
2
100
AcDbEntity
  8
0
100
AcDbCircle
 10
568.135469146093
 20
306.3071730409211
 30
0.0
 40
40.0
100
AcDbArc
 50
83.82300359513532
 51
103.36767420263
  0
ARC
  5
104E
330
2
100
AcDbEntity
  8
0
100
AcDbCircle
 10
557.7315125862826
 20
350.0879643528824
 30
0.0
 40
5.0
100
AcDbArc
 50
270.0
 51
283.3676742026299
  0
ARC
  5
104F
330
2
100
AcDbEntity
  8
0
100
AcDbCircle
 10
590.7315125862826
 20
515.0879643528823
 30
0.0
 40
170.0
100
AcDbArc
 50
263.8230035951353
 51
276.1769964048646
  0
ARC
  5
1050
330
2
100
AcDbEntity
  8
0
100
AcDbCircle
 10
613.3275560264713
 20
306.3071730409211
 30
0.0
 40
40.0
100
AcDbArc
 50
76.63232579736996
 51
96.17699640486467
  0
ARC
  5
1051
330
2
100
AcDbEntity
  8
0
100
AcDbCircle
 10
623.7315125862826
 20
350.0879643528824
 30
0.0
 40
5.0
100
AcDbArc
 50
256.63232579737
 51
270.0
  0
LINE
  5
1052
330
2
100
AcDbEntity
  8
0
100
AcDbLine
 10
626.7315125862826
 20
345.0879643528824
 30
0.0
 11
623.7315125862826
 21
345.0879643528824
 31
0.0
  0
ARC
  5
1053
330
2
100
AcDbEntity
  8
0
100
AcDbCircle
 10
635.7315125862835
 20
422.0879643528861
 30
0.0
 40
4.0
100
AcDbArc
 50
180.0
 51
270.0
  0
ARC
  5
1054
330
2
100
AcDbEntity
  8
0
100
AcDbCircle
 10
635.7315125862835
 20
350.087964352877
 30
0.0
 40
4.0
100
AcDbArc
 50
90.0
 51
180.0
  0
ARC
  5
1055
330
2
100
AcDbEntity
  8
0
100
AcDbCircle
 10
621.1168601392885
 20
597.2608944063376
 30
0.0
 40
2.0
100
AcDbArc
 50
90.0
 51
177.9999999999963
  0
ARC
  5
1056
330
2
100
AcDbEntity
  8
0
100
AcDbCircle
 10
616.8001350366678
 20
588.2608944063377
 30
0.0
 40
2.0
100
AcDbArc
 50
270.0
 51
357.9999999999963
  0
ARC
  5
1057
330
2
100
AcDbEntity
  8
0
100
AcDbCircle
 10
560.3461650332767
 20
597.2608944063376
 30
0.0
 40
2.0
100
AcDbArc
 50
2.000000000003654
 51
90.0
  0
ARC
  5
1058
330
2
100
AcDbEntity
  8
0
100
AcDbCircle
 10
564.6628901358974
 20
588.2608944063377
 30
0.0
 40
2.0
100
AcDbArc
 50
182.0000000000036
 51
270.0
  0
LINE
  5
1059
330
2
100
AcDbEntity
  8
0
100
AcDbLine
 10
618.7989166907057
 20
588.1910954129325
 30
0.0
 11
619.1180784852506
 21
597.3306933997427
 31
0.0
  0
LINE
  5
105A
330
2
100
AcDbEntity
  8
0
100
AcDbLine
 10
562.6641084818595
 20
588.1910954129325
 30
0.0
 11
562.3449466873146
 21
597.3306933997427
 31
0.0
  0
LINE
  5
105B
330
2
100
AcDbEntity
  8
0
100
AcDbLine
 10
564.6628901358974
 20
586.2608944063358
 30
0.0
 11
616.8001350366678
 21
586.2608944063376
 31
0.0
  0
ARC
  5
105C
330
2
100
AcDbEntity
  8
0
100
AcDbCircle
 10
119.0848256020142
 20
411.0879643528917
 30
0.0
 40
2.0
100
AcDbArc
 50
270.0
 51
0.0
  0
ARC
  5
105D
330
2
100
AcDbEntity
  8
0
100
AcDbCircle
 10
119.0848256020142
 20
361.0879643528917
 30
0.0
 40
2.0
100
AcDbArc
 50
0.0
 51
90.0
  0
LINE
  5
105E
330
2
100
AcDbEntity
  8
0
100
AcDbLine
 10
118.0848256020142
 20
383.5879643528917
 30
0.0
 11
110.5717326392975
 21
383.5879643528917
 31
0.0
  0
LINE
  5
105F
330
2
100
AcDbEntity
  8
0
100
AcDbLine
 10
118.0848256020142
 20
388.5879643528917
 30
0.0
 11
110.5717326392975
 21
388.5879643528917
 31
0.0
  0
ARC
  5
1060
330
2
100
AcDbEntity
  8
0
100
AcDbCircle
 10
108.5717326392975
 20
411.0879643528917
 30
0.0
 40
2.0
100
AcDbArc
 50
216.8698976458701
 51
270.0
  0
LINE
  5
1061
330
2
100
AcDbEntity
  8
0
100
AcDbLine
 10
119.137186806827
 20
409.0879643528918
 30
0.0
 11
108.5717326392975
 21
409.0879643528918
 31
0.0
  0
LINE
  5
1062
330
2
100
AcDbEntity
  8
0
100
AcDbLine
 10
116.0848256020242
 20
367.0879643528917
 30
0.0
 11
112.3176993317126
 21
367.0879643528917
 31
0.0
  0
ARC
  5
1063
330
2
100
AcDbEntity
  8
0
100
AcDbCircle
 10
108.5717326392975
 20
361.0879643528917
 30
0.0
 40
2.0
100
AcDbArc
 50
90.0
 51
143.1301023541299
  0
LINE
  5
1064
330
2
100
AcDbEntity
  8
0
100
AcDbLine
 10
119.0848256020142
 20
363.0879643528917
 30
0.0
 11
108.5717326392975
 21
363.0879643528917
 31
0.0
  0
LINE
  5
1065
330
2
100
AcDbEntity
  8
0
100
AcDbLine
 10
104.5717326392975
 20
411.0879643528917
 30
0.0
 11
101.0669456239077
 21
411.0879643528917
 31
0.0
  0
ARC
  5
1066
330
2
100
AcDbEntity
  8
0
100
AcDbCircle
 10
104.5717326392975
 20
408.0879643528899
 30
0.0
 40
3.0
100
AcDbArc
 50
0.0
 51
90.0
  0
LINE
  5
1067
330
2
100
AcDbEntity
  8
0
100
AcDbLine
 10
104.5717326392975
 20
361.0879643528917
 30
0.0
 11
101.066945623909
 21
361.0879643528917
 31
0.0
  0
ARC
  5
1068
330
2
100
AcDbEntity
  8
0
100
AcDbCircle
 10
104.5717326392975
 20
364.0879643528918
 30
0.0
 40
3.0
100
AcDbArc
 50
270.0
 51
0.0
  0
LINE
  5
1069
330
2
100
AcDbEntity
  8
0
100
AcDbLine
 10
107.5717326392975
 20
364.0879643528918
 30
0.0
 11
107.5717326392975
 21
408.0879643528899
 31
0.0
  0
ARC
  5
106A
330
2
100
AcDbEntity
  8
0
100
AcDbCircle
 10
118.0848256020142
 20
380.5879643528918
 30
0.0
 40
3.0
100
AcDbArc
 50
0.0
 51
90.0
  0
ARC
  5
106B
330
2
100
AcDbEntity
  8
0
100
AcDbCircle
 10
118.0848256020142
 20
391.5879643528917
 30
0.0
 40
3.0
100
AcDbArc
 50
270.0
 51
0.0
  0
ARC
  5
106C
330
2
100
AcDbEntity
  8
0
100
AcDbCircle
 10
110.5717326392975
 20
380.5879643528918
 30
0.0
 40
3.0
100
AcDbArc
 50
90.0
 51
180.0
  0
ARC
  5
106D
330
2
100
AcDbEntity
  8
0
100
AcDbCircle
 10
110.5717326392975
 20
391.5879643528917
 30
0.0
 40
3.0
100
AcDbArc
 50
180.0
 51
270.0
  0
ARC
  5
106E
330
2
100
AcDbEntity
  8
0
100
AcDbCircle
 10
116.0848256020242
 20
362.0879643528918
 30
0.0
 40
5.0
100
AcDbArc
 50
0.0
 51
90.0
  0
ARC
  5
106F
330
2
100
AcDbEntity
  8
0
100
AcDbCircle
 10
112.3176993317126
 20
362.0879643528918
 30
0.0
 40
5.0
100
AcDbArc
 50
90.0
 51
165.5224878140709
  0
ARC
  5
1070
330
2
100
AcDbEntity
  8
0
100
AcDbCircle
 10
116.0848256020237
 20
410.0879643528736
 30
0.0
 40
5.0
100
AcDbArc
 50
270.0
 51
0.0
  0
ARC
  5
1071
330
2
100
AcDbEntity
  8
0
100
AcDbCircle
 10
112.3176993317126
 20
410.0879643528736
 30
0.0
 40
5.0
100
AcDbArc
 50
194.477512185929
 51
270.0
  0
LINE
  5
1072
330
2
100
AcDbEntity
  8
0
100
AcDbLine
 10
116.0848256020237
 20
405.0879643528736
 30
0.0
 11
112.3176993317126
 21
405.0879643528736
 31
0.0
  0
LINE
  5
1073
330
2
100
AcDbEntity
  8
0
100
AcDbLine
 10
678.2446055489993
 20
408.0879643528824
 30
0.0
 11
678.2446055489993
 21
364.0879643528824
 31
0.0
  0
LINE
  5
1074
330
2
100
AcDbEntity
  8
0
100
AcDbLine
 10
681.2446055489992
 20
411.0879643528824
 30
0.0
 11
684.749392564395
 21
411.0879643528824
 31
0.0
  0
LINE
  5
1075
330
2
100
AcDbEntity
  8
0
100
AcDbLine
 10
666.7315125862817
 20
409.0879643528825
 30
0.0
 11
677.2446055489993
 21
409.0879643528825
 31
0.0
  0
ARC
  5
1076
330
2
100
AcDbEntity
  8
0
100
AcDbCircle
 10
681.2446055489992
 20
408.0879643528824
 30
0.0
 40
3.0
100
AcDbArc
 50
90.0
 51
180.0
  0
ARC
  5
1077
330
2
100
AcDbEntity
  8
0
100
AcDbCircle
 10
677.2446055489993
 20
411.0879643528824
 30
0.0
 40
2.0
100
AcDbArc
 50
270.0
 51
323.1301023541299
  0
ARC
  5
1078
330
2
100
AcDbEntity
  8
0
100
AcDbCircle
 10
669.7315125862726
 20
410.0879643528824
 30
0.0
 40
5.0
100
AcDbArc
 50
180.0
 51
270.0
  0
ARC
  5
1079
330
2
100
AcDbEntity
  8
0
100
AcDbCircle
 10
673.4986388565841
 20
410.0879643528824
 30
0.0
 40
5.0
100
AcDbArc
 50
270.0
 51
345.5224878140709
  0
LINE
  5
107A
330
2
100
AcDbEntity
  8
0
100
AcDbLine
 10
669.7315125862726
 20
405.0879643528825
 30
0.0
 11
673.4986388565841
 21
405.0879643528825
 31
0.0
  0
ARC
  5
107B
330
2
100
AcDbEntity
  8
0
100
AcDbCircle
 10
666.7315125862817
 20
411.0879643528824
 30
0.0
 40
2.0
100
AcDbArc
 50
180.0
 51
270.0
  0
LINE
  5
107C
330
2
100
AcDbEntity
  8
0
100
AcDbLine
 10
667.7315125862817
 20
383.5879643528824
 30
0.0
 11
675.2446055489992
 21
383.5879643528824
 31
0.0
  0
LINE
  5
107D
330
2
100
AcDbEntity
  8
0
100
AcDbLine
 10
667.7315125862817
 20
388.5879643528824
 30
0.0
 11
675.2446055489992
 21
388.5879643528824
 31
0.0
  0
ARC
  5
107E
330
2
100
AcDbEntity
  8
0
100
AcDbCircle
 10
667.7315125862817
 20
391.5879643528824
 30
0.0
 40
3.0
100
AcDbArc
 50
180.0
 51
270.0
  0
ARC
  5
107F
330
2
100
AcDbEntity
  8
0
100
AcDbCircle
 10
667.7315125862817
 20
380.5879643528824
 30
0.0
 40
3.0
100
AcDbArc
 50
90.0
 51
180.0
  0
ARC
  5
1080
330
2
100
AcDbEntity
  8
0
100
AcDbCircle
 10
675.2446055489992
 20
391.5879643528824
 30
0.0
 40
3.0
100
AcDbArc
 50
270.0
 51
0.0
  0
ARC
  5
1081
330
2
100
AcDbEntity
  8
0
100
AcDbCircle
 10
675.2446055489992
 20
380.5879643528824
 30
0.0
 40
3.0
100
AcDbArc
 50
0.0
 51
90.0
  0
ARC
  5
1082
330
2
100
AcDbEntity
  8
0
100
AcDbCircle
 10
669.7315125862726
 20
362.0879643529006
 30
0.0
 40
5.0
100
AcDbArc
 50
90.0
 51
180.0
  0
LINE
  5
1083
330
2
100
AcDbEntity
  8
0
100
AcDbLine
 10
669.7315125862726
 20
367.0879643529006
 30
0.0
 11
673.4986388565841
 21
367.0879643529006
 31
0.0
  0
ARC
  5
1084
330
2
100
AcDbEntity
  8
0
100
AcDbCircle
 10
673.4986388565841
 20
362.0879643529006
 30
0.0
 40
5.0
100
AcDbArc
 50
14.47751218592907
 51
90.0
  0
LINE
  5
1085
330
2
100
AcDbEntity
  8
0
100
AcDbLine
 10
666.6791513814689
 20
363.0879643528824
 30
0.0
 11
677.2446055489993
 21
363.0879643528824
 31
0.0
  0
ARC
  5
1086
330
2
100
AcDbEntity
  8
0
100
AcDbCircle
 10
677.2446055489993
 20
361.0879643528824
 30
0.0
 40
2.0
100
AcDbArc
 50
36.86989764587007
 51
90.0
  0
ARC
  5
1087
330
2
100
AcDbEntity
  8
0
100
AcDbCircle
 10
681.2446055489992
 20
364.0879643528824
 30
0.0
 40
3.0
100
AcDbArc
 50
180.0
 51
270.0
  0
ARC
  5
1088
330
2
100
AcDbEntity
  8
0
100
AcDbCircle
 10
666.7315125862817
 20
361.0879643528824
 30
0.0
 40
2.0
100
AcDbArc
 50
90.0
 51
180.0
  0
LINE
  5
1089
330
2
100
AcDbEntity
  8
0
100
AcDbLine
 10
681.2446055489992
 20
361.0879643528824
 30
0.0
 11
684.749392564395
 21
361.0879643528824
 31
0.0
  0
ARC
  5
108A
330
2
100
AcDbEntity
  8
0
100
AcDbCircle
 10
681.1539831990478
 20
659.2608944059629
 30
0.0
 40
3.0
100
AcDbArc
 50
90.0
 51
178.5000000000102
  0
ARC
  5
108B
330
2
100
AcDbEntity
  8
0
100
AcDbCircle
 10
684.7516230977965
 20
667.2608944059629
 30
0.0
 40
5.0
100
AcDbArc
 50
270.0
 51
351.7867893013297
  0
ARC
  5
108C
330
2
100
AcDbEntity
  8
0
100
AcDbCircle
 10
691.6798263281264
 20
666.2608944063377
 30
0.0
 40
2.0
100
AcDbArc
 50
90.0
 51
178.5000000000102
  0
LINE
  5
108D
330
2
100
AcDbEntity
  8
0
100
AcDbLine
 10
697.7315125862835
 20
668.2608944063376
 30
0.0
 11
691.6798263281264
 21
668.2608944063376
 31
0.0
  0
LINE
  5
108E
330
2
100
AcDbEntity
  8
0
100
AcDbLine
 10
681.1539831990478
 20
662.260894405963
 30
0.0
 11
684.7516230977965
 21
662.260894405963
 31
0.0
  0
ARC
  5
108F
330
2
100
AcDbEntity
  8
0
100
AcDbCircle
 10
677.1539831993298
 20
662.2608944063377
 30
0.0
 40
2.0
100
AcDbArc
 50
270.0
 51
323.1301023487886
  0
LINE
  5
1090
330
2
100
AcDbEntity
  8
0
100
AcDbLine
 10
677.1539831993298
 20
660.2608944063376
 30
0.0
 11
666.7315887430524
 21
660.2608944063376
 31
0.0
  0
ARC
  5
1091
330
2
100
AcDbEntity
  8
0
100
AcDbCircle
 10
666.7315125862826
 20
662.2608944063377
 30
0.0
 40
2.0
100
AcDbArc
 50
180.0
 51
270.0
  0
ARC
  5
1092
330
2
100
AcDbEntity
  8
0
100
AcDbCircle
 10
669.7315125862826
 20
661.2608944063376
 30
0.0
 40
5.0
100
AcDbArc
 50
180.0
 51
270.0
  0
LINE
  5
1093
330
2
100
AcDbEntity
  8
0
100
AcDbLine
 10
673.40801650673
 20
656.2608944063376
 30
0.0
 11
669.7315125862835
 21
656.2608944063376
 31
0.0
  0
ARC
  5
1094
330
2
100
AcDbEntity
  8
0
100
AcDbCircle
 10
673.40801650673
 20
661.2608944063376
 30
0.0
 40
5.0
100
AcDbArc
 50
270.0
 51
345.5224878112707
  0
ARC
  5
1095
330
2
100
AcDbEntity
  8
0
100
AcDbCircle
 10
666.7315125862826
 20
612.2608944063358
 30
0.0
 40
2.0
100
AcDbArc
 50
90.0
 51
180.0
  0
LINE
  5
1096
330
2
100
AcDbEntity
  8
0
100
AcDbLine
 10
677.1539831993298
 20
614.2608944063359
 30
0.0
 11
666.7315887430524
 21
614.2608944063359
 31
0.0
  0
ARC
  5
1097
330
2
100
AcDbEntity
  8
0
100
AcDbCircle
 10
669.7315125862826
 20
613.2608944063358
 30
0.0
 40
5.0
100
AcDbArc
 50
90.0
 51
180.0
  0
LINE
  5
1098
330
2
100
AcDbEntity
  8
0
100
AcDbLine
 10
673.40801650673
 20
618.2608944063359
 30
0.0
 11
669.7315125862835
 21
618.2608944063359
 31
0.0
  0
ARC
  5
1099
330
2
100
AcDbEntity
  8
0
100
AcDbCircle
 10
673.40801650673
 20
613.2608944063358
 30
0.0
 40
5.0
100
AcDbArc
 50
14.47751218872929
 51
90.0
  0
ARC
  5
109A
330
2
100
AcDbEntity
  8
0
100
AcDbCircle
 10
677.1539831993298
 20
612.2608944063358
 30
0.0
 40
2.0
100
AcDbArc
 50
36.86989765121137
 51
90.0
  0
ARC
  5
109B
330
2
100
AcDbEntity
  8
0
100
AcDbCircle
 10
681.1539831990478
 20
615.2608944067123
 30
0.0
 40
3.0
100
AcDbArc
 50
181.4999999999897
 51
270.0
  0
LINE
  5
109C
330
2
100
AcDbEntity
  8
0
100
AcDbLine
 10
678.1550112241222
 20
615.1823635617893
 30
0.0
 11
677.5768645470682
 21
637.2608944063377
 31
0.0
  0
ARC
  5
109D
330
2
100
AcDbEntity
  8
0
100
AcDbCircle
 10
674.7198587382247
 20
631.7608944063376
 30
0.0
 40
3.0
100
AcDbArc
 50
1.499999999989693
 51
90.0
  0
LINE
  5
109E
330
2
100
AcDbEntity
  8
0
100
AcDbLine
 10
681.1539831990478
 20
612.2608944067124
 30
0.0
 11
684.7516230977965
 21
612.2608944067124
 31
0.0
  0
ARC
  5
109F
330
2
100
AcDbEntity
  8
0
100
AcDbCircle
 10
684.7516230977965
 20
607.2608944067123
 30
0.0
 40
5.0
100
AcDbArc
 50
8.213210698670247
 51
90.0
  0
ARC
  5
10A0
330
2
100
AcDbEntity
  8
0
100
AcDbCircle
 10
691.6798263281264
 20
608.2608944063377
 30
0.0
 40
2.0
100
AcDbArc
 50
181.4999999999897
 51
270.0
  0
LINE
  5
10A1
330
2
100
AcDbEntity
  8
0
100
AcDbLine
 10
689.6805116781754
 20
608.2085405097204
 30
0.0
 11
688.9197490176331
 21
637.2608944063377
 31
0.0
  0
LINE
  5
10A2
330
2
100
AcDbEntity
  8
0
100
AcDbLine
 10
697.7315125862835
 20
606.2608944063376
 30
0.0
 11
691.6798263281264
 21
606.2608944063376
 31
0.0
  0
LINE
  5
10A3
330
2
100
AcDbEntity
  8
0
100
AcDbLine
 10
678.1550112241222
 20
659.339425250886
 30
0.0
 11
677.5768645470682
 21
637.2608944063377
 31
0.0
  0
ARC
  5
10A4
330
2
100
AcDbEntity
  8
0
100
AcDbCircle
 10
674.7198587382247
 20
642.7608944063377
 30
0.0
 40
3.0
100
AcDbArc
 50
270.0
 51
358.5000000000103
  0
LINE
  5
10A5
330
2
100
AcDbEntity
  8
0
100
AcDbLine
 10
689.6805116781754
 20
666.3132483029531
 30
0.0
 11
688.9197490176331
 21
637.2608944063377
 31
0.0
  0
LINE
  5
10A6
330
2
100
AcDbEntity
  8
0
100
AcDbLine
 10
667.9018007433598
 20
634.7608944063376
 30
0.0
 11
674.7198587382247
 21
634.7608944063376
 31
0.0
  0
LINE
  5
10A7
330
2
100
AcDbEntity
  8
0
100
AcDbLine
 10
667.9018007433435
 20
639.7608944063376
 30
0.0
 11
674.7198587382256
 21
639.7608944063376
 31
0.0
  0
LINE
  5
10A8
330
2
100
AcDbEntity
  8
0
100
AcDbLine
 10
658.7446055470675
 20
662.2608944063377
 30
0.0
 11
659.3737531322433
 21
638.2347174580299
 31
0.0
  0
ARC
  5
10A9
330
2
100
AcDbEntity
  8
0
100
AcDbCircle
 10
660.3734104572188
 20
638.2608944063377
 30
0.0
 40
1.0
100
AcDbArc
 50
181.4999999999897
 51
270.0
  0
LINE
  5
10AA
330
2
100
AcDbEntity
  8
0
100
AcDbLine
 10
660.3734104572188
 20
637.2608944063377
 30
0.0
 11
664.7315125862826
 21
637.2608944063377
 31
0.0
  0
LINE
  5
10AB
330
2
100
AcDbEntity
  8
0
100
AcDbLine
 10
688.9197490176331
 20
637.2608944063377
 30
0.0
 11
697.7315125832567
 21
637.2608944063377
 31
0.0
  0
LINE
  5
10AC
330
2
100
AcDbEntity
  8
0
100
AcDbLine
 10
626.7315125862835
 20
662.2608944063377
 30
0.0
 11
626.7315125862835
 21
605.7608944063376
 31
0.0
  0
LINE
  5
10AD
330
2
100
AcDbEntity
  8
0
100
AcDbLine
 10
623.7315125862826
 20
662.2608944063377
 30
0.0
 11
623.7315125862826
 21
605.7608944063376
 31
0.0
  0
LINE
  5
10AE
330
2
100
AcDbEntity
  8
0
100
AcDbLine
 10
609.0235477521511
 20
662.2608944063377
 30
0.0
 11
609.0235477521511
 21
605.7608944063376
 31
0.0
  0
LINE
  5
10AF
330
2
100
AcDbEntity
  8
0
100
AcDbLine
 10
572.4394774204186
 20
662.2608944063377
 30
0.0
 11
572.4394774204186
 21
605.7608944063376
 31
0.0
  0
LINE
  5
10B0
330
2
100
AcDbEntity
  8
0
100
AcDbLine
 10
557.7315125862835
 20
662.2608944063377
 30
0.0
 11
557.7315125862845
 21
605.7608944063376
 31
0.0
  0
LINE
  5
10B1
330
2
100
AcDbEntity
  8
0
100
AcDbLine
 10
554.7315125862835
 20
662.2608944063377
 30
0.0
 11
554.7315125862835
 21
605.7608944063376
 31
0.0
  0
LINE
  5
10B2
330
2
100
AcDbEntity
  8
0
100
AcDbLine
 10
587.5290285017674
 20
351.9148379752787
 30
0.0
 11
588.7890290448442
 21
351.9148379752787
 31
0.0
  0
LINE
  5
10B3
330
2
100
AcDbEntity
  8
0
100
AcDbLine
 10
589.2790285017611
 20
355.4148379752678
 30
0.0
 11
587.5290285017674
 21
351.9148379752787
 31
0.0
  0
ARC
  5
10B4
330
2
100
AcDbEntity
  8
0
100
AcDbCircle
 10
592.1839966692507
 20
354.224837975271
 30
0.0
 40
1.189999999995825
100
AcDbArc
 50
307.5189678668078
 51
90.0
  0
LINE
  5
10B5
330
2
100
AcDbEntity
  8
0
100
AcDbLine
 10
592.9087352728486
 20
353.28098737457
 30
0.0
 11
593.7780779077813
 21
351.9148379752787
 31
0.0
  0
LINE
  5
10B6
330
2
100
AcDbEntity
  8
0
100
AcDbLine
 10
592.5180773647046
 20
351.9148379752787
 30
0.0
 11
593.7780779077813
 21
351.9148379752787
 31
0.0
  0
LINE
  5
10B7
330
2
100
AcDbEntity
  8
0
100
AcDbLine
 10
589.9440285017583
 20
351.9148379752787
 30
0.0
 11
590.9939966692556
 21
351.9148379752787
 31
0.0
  0
LINE
  5
10B8
330
2
100
AcDbEntity
  8
0
100
AcDbLine
 10
589.0515290448432
 20
352.4398379752765
 30
0.0
 11
588.7890290448442
 21
351.9148379752787
 31
0.0
  0
LINE
  5
10B9
330
2
100
AcDbEntity
  8
0
100
AcDbLine
 10
589.0515290448432
 20
352.4398379752765
 30
0.0
 11
589.9440285017583
 21
352.4398379752765
 31
0.0
  0
LINE
  5
10BA
330
2
100
AcDbEntity
  8
0
100
AcDbLine
 10
589.9440285017583
 20
352.4398379752765
 30
0.0
 11
589.9440285017583
 21
351.9148379752787
 31
0.0
  0
LINE
  5
10BB
330
2
100
AcDbEntity
  8
0
100
AcDbLine
 10
589.6115290448408
 20
353.5598379752737
 30
0.0
 11
589.9440285017583
 21
353.5598379752737
 31
0.0
  0
LINE
  5
10BC
330
2
100
AcDbEntity
  8
0
100
AcDbLine
 10
589.9440285017583
 20
354.2248368891087
 30
0.0
 11
589.9440285017583
 21
353.5598379752737
 31
0.0
  0
LINE
  5
10BD
330
2
100
AcDbEntity
  8
0
100
AcDbLine
 10
589.9440285017583
 20
354.2248368891087
 30
0.0
 11
589.6115290448408
 21
353.5598379752737
 31
0.0
  0
LINE
  5
10BE
330
2
100
AcDbEntity
  8
0
100
AcDbLine
 10
591.1427785017543
 20
354.0760879752725
 30
0.0
 11
592.5180773647046
 21
351.9148379752787
 31
0.0
  0
LINE
  5
10BF
330
2
100
AcDbEntity
  8
0
100
AcDbLine
 10
590.9939966692556
 20
354.224837975271
 30
0.0
 11
590.9939966692556
 21
351.9148379752787
 31
0.0
  0
LINE
  5
10C0
330
2
100
AcDbEntity
  8
0
100
AcDbLine
 10
590.9939966692556
 20
354.224837975271
 30
0.0
 11
592.1096535017507
 21
354.224837975271
 31
0.0
  0
LINE
  5
10C1
330
2
100
AcDbEntity
  8
0
100
AcDbLine
 10
591.1427785017543
 20
354.0760879752725
 30
0.0
 11
592.1096535017507
 21
354.0760879752725
 31
0.0
  0
ARC
  5
10C2
330
2
100
AcDbEntity
  8
0
100
AcDbCircle
 10
592.1096535017507
 20
354.1504629752708
 30
0.0
 40
0.0743749999997391
100
AcDbArc
 50
270.0
 51
90.0
  0
LINE
  5
10C3
330
2
100
AcDbEntity
  8
0
100
AcDbLine
 10
589.2790285017611
 20
355.4148379752678
 30
0.0
 11
592.1839966692507
 21
355.4148379752678
 31
0.0
  0
LINE
  5
10C4
330
2
100
AcDbEntity
  8
0
100
AcDbLine
 10
88.08482560202378
 20
354.5879643528826
 30
0.0
 11
94.08482560202378
 21
354.5879643528826
 31
0.0
  0
ARC
  5
10C5
330
2
100
AcDbEntity
  8
0
100
AcDbCircle
 10
94.08482560202378
 20
356.5879643528826
 30
0.0
 40
2.0
100
AcDbArc
 50
270.0
 51
0.0
  0
ARC
  5
10C6
330
2
100
AcDbEntity
  8
0
100
AcDbCircle
 10
101.066945623909
 20
356.0879643528918
 30
0.0
 40
5.0
100
AcDbArc
 50
90.0
 51
175.9039562419073
  0
LINE
  5
10C7
330
2
100
AcDbEntity
  8
0
100
AcDbLine
 10
94.08482560202424
 20
417.5879643528826
 30
0.0
 11
88.08482560202424
 21
417.5879643528826
 31
0.0
  0
ARC
  5
10C8
330
2
100
AcDbEntity
  8
0
100
AcDbCircle
 10
94.08482560202424
 20
415.5879643528827
 30
0.0
 40
2.0
100
AcDbArc
 50
0.0
 51
89.99999999997395
  0
ARC
  5
10C9
330
2
100
AcDbEntity
  8
0
100
AcDbCircle
 10
101.0669456239077
 20
416.0879643528917
 30
0.0
 40
5.0
100
AcDbArc
 50
184.0960437581962
 51
270.0
  0
LINE
  5
10CA
330
2
100
AcDbEntity
  8
0
100
AcDbLine
 10
691.7315125862799
 20
417.5879643528825
 30
0.0
 11
697.7315125862799
 21
417.5879643528825
 31
0.0
  0
ARC
  5
10CB
330
2
100
AcDbEntity
  8
0
100
AcDbCircle
 10
691.7315125862799
 20
415.5879643528824
 30
0.0
 40
2.0
100
AcDbArc
 50
90.0
 51
180.0
  0
ARC
  5
10CC
330
2
100
AcDbEntity
  8
0
100
AcDbCircle
 10
684.749392564395
 20
416.0879643528824
 30
0.0
 40
5.0
100
AcDbArc
 50
270.0
 51
355.9039562418037
  0
ARC
  5
10CD
330
2
100
AcDbEntity
  8
0
100
AcDbCircle
 10
691.7315125862799
 20
356.5879643528824
 30
0.0
 40
2.0
100
AcDbArc
 50
180.0
 51
270.0
  0
LINE
  5
10CE
330
2
100
AcDbEntity
  8
0
100
AcDbLine
 10
697.7315125862799
 20
354.5879643528824
 30
0.0
 11
691.7315125862799
 21
354.5879643528824
 31
0.0
  0
ARC
  5
10CF
330
2
100
AcDbEntity
  8
0
100
AcDbCircle
 10
684.749392564395
 20
356.0879643528824
 30
0.0
 40
5.0
100
AcDbArc
 50
4.096043758196293
 51
90.0
  0
LINE
  5
10D0
330
2
100
AcDbEntity
  8
CENTER
100
AcDbLine
 10
375.6151225227688
 20
335.3061360476516
 30
0.0
 11
375.6151225227688
 21
436.8727015483639
 31
0.0
  0
LINE
  5
10D1
330
2
100
AcDbEntity
  8
0
100
AcDbLine
 10
413.6151225227688
 20
351.0879643528827
 30
0.0
 11
413.6151225227688
 21
421.0879643528826
 31
0.0
  0
LINE
  5
10D2
330
2
100
AcDbEntity
  8
0
100
AcDbLine
 10
408.6151225227688
 20
345.5941226847465
 30
0.0
 11
408.6151225227688
 21
426.584714911269
 31
0.0
  0
LINE
  5
10D3
330
2
100
AcDbEntity
  8
0
100
AcDbLine
 10
408.6151225227688
 20
421.0879643528826
 30
0.0
 11
413.6151225227688
 21
421.0879643528826
 31
0.0
  0
LINE
  5
10D4
330
2
100
AcDbEntity
  8
CENTER
100
AcDbLine
 10
300.6151225227692
 20
386.0879643528836
 30
0.0
 11
449.6151225227688
 21
386.0879643528808
 31
0.0
  0
LINE
  5
10D5
330
2
100
AcDbEntity
  8
0
100
AcDbLine
 10
408.6151225227688
 20
351.0879643528827
 30
0.0
 11
413.6151225227688
 21
351.0879643528827
 31
0.0
  0
LINE
  5
10D6
330
2
100
AcDbEntity
  8
0
100
AcDbLine
 10
350.6151225227688
 20
345.0879643528827
 30
0.0
 11
408.6151225227688
 21
345.5941226847465
 31
0.0
  0
LINE
  5
10D7
330
2
100
AcDbEntity
  8
0
100
AcDbLine
 10
350.6151225227688
 20
427.0908732431329
 30
0.0
 11
408.6151225227688
 21
426.584714911269
 31
0.0
  0
LINE
  5
10D8
330
2
100
AcDbEntity
  8
0
100
AcDbLine
 10
350.6151225227688
 20
417.1847385464301
 30
0.0
 11
350.6151225227688
 21
427.0908732431329
 31
0.0
  0
ARC
  5
10D9
330
2
100
AcDbEntity
  8
0
100
AcDbCircle
 10
415.6151225227688
 20
416.4733119058895
 30
0.0
 40
2.0
100
AcDbArc
 50
180.0
 51
267.9999999999963
  0
ARC
  5
10DA
330
2
100
AcDbEntity
  8
0
100
AcDbCircle
 10
424.6151225227688
 20
412.156586803267
 30
0.0
 40
2.0
100
AcDbArc
 50
0.0
 51
87.99999999999636
  0
ARC
  5
10DB
330
2
100
AcDbEntity
  8
0
100
AcDbCircle
 10
415.6151225227688
 20
355.7026167998758
 30
0.0
 40
2.0
100
AcDbArc
 50
92.00000000000365
 51
180.0
  0
ARC
  5
10DC
330
2
100
AcDbEntity
  8
0
100
AcDbCircle
 10
424.6151225227688
 20
360.0193419024984
 30
0.0
 40
2.0
100
AcDbArc
 50
272.0000000000036
 51
0.0
  0
LINE
  5
10DD
330
2
100
AcDbEntity
  8
0
100
AcDbLine
 10
424.684921516174
 20
414.1553684573066
 30
0.0
 11
415.5453235293637
 21
414.4745302518516
 31
0.0
  0
LINE
  5
10DE
330
2
100
AcDbEntity
  8
0
100
AcDbLine
 10
424.684921516174
 20
358.0205602484605
 30
0.0
 11
415.5453235293637
 21
357.7013984539137
 31
0.0
  0
LINE
  5
10DF
330
2
100
AcDbEntity
  8
0
100
AcDbLine
 10
426.6151225227706
 20
360.0193419024984
 30
0.0
 11
426.6151225227688
 21
412.156586803267
 31
0.0
  0
LINE
  5
10E0
330
2
100
AcDbEntity
  8
0
100
AcDbLine
 10
350.6151225227688
 20
350.0879643528808
 30
0.0
 11
407.6151225227688
 21
350.0879643528808
 31
0.0
  0
LINE
  5
10E1
330
2
100
AcDbEntity
  8
0
100
AcDbLine
 10
350.6151225227688
 20
353.0879643528809
 30
0.0
 11
407.6151225227688
 21
353.0879643528809
 31
0.0
  0
LINE
  5
10E2
330
2
100
AcDbEntity
  8
0
100
AcDbLine
 10
350.6151225227688
 20
367.7959291870123
 30
0.0
 11
407.6151225227688
 21
367.7959291870123
 31
0.0
  0
LINE
  5
10E3
330
2
100
AcDbEntity
  8
0
100
AcDbLine
 10
350.6151225227688
 20
422.0879643528826
 30
0.0
 11
407.6151225227688
 21
422.0879643528826
 31
0.0
  0
LINE
  5
10E4
330
2
100
AcDbEntity
  8
0
100
AcDbLine
 10
350.6151225227688
 20
419.0879643528827
 30
0.0
 11
407.6151225227688
 21
419.0879643528827
 31
0.0
  0
LINE
  5
10E5
330
2
100
AcDbEntity
  8
0
100
AcDbLine
 10
350.6151225227688
 20
404.3799995187512
 30
0.0
 11
407.6151225227688
 21
404.3799995187512
 31
0.0
  0
LINE
  5
10E6
330
2
100
AcDbEntity
  8
0
100
AcDbLine
 10
664.6964528044766
 20
608.2434413353385
 30
0.0
 11
664.9496842810515
 21
637.2608944063377
 31
0.0
  0
ARC
  5
10E7
330
2
100
AcDbEntity
  8
0
100
AcDbCircle
 10
667.9018007433598
 20
631.7608944063376
 30
0.0
 40
3.0
100
AcDbArc
 50
90.0
 51
179.5000000000344
  0
ARC
  5
10E8
330
2
100
AcDbEntity
  8
0
100
AcDbCircle
 10
662.6965289583488
 20
608.2608944063358
 30
0.0
 40
2.0
100
AcDbArc
 50
270.0
 51
359.5000000000345
  0
LINE
  5
10E9
330
2
100
AcDbEntity
  8
0
100
AcDbLine
 10
631.7271491523854
 20
662.2608944063377
 30
0.0
 11
631.2209908205224
 21
604.2608944063377
 31
0.0
  0
ARC
  5
10EA
330
2
100
AcDbEntity
  8
0
100
AcDbCircle
 10
632.7254113719966
 20
604.7608944063322
 30
0.0
 40
1.5
100
AcDbArc
 50
90.0
 51
179.5000000000344
  0
LINE
  5
10EB
330
2
100
AcDbEntity
  8
0
100
AcDbLine
 10
664.7315125862826
 20
662.2608944063377
 30
0.0
 11
664.9496842810314
 21
637.2608944063377
 31
0.0
  0
ARC
  5
10EC
330
2
100
AcDbEntity
  8
0
100
AcDbCircle
 10
667.9018007433435
 20
642.7608944063377
 30
0.0
 40
3.0
100
AcDbArc
 50
180.4999999999655
 51
270.0
  0
LINE
  5
10ED
330
2
100
AcDbEntity
  8
0
100
AcDbLine
 10
333.3151225227695
 20
359.5879643528808
 30
0.0
 11
336.6151225227688
 21
359.5879643528827
 31
0.0
  0
LINE
  5
10EE
330
2
100
AcDbEntity
  8
HIDS
100
AcDbLine
 10
337.82222930395
 20
354.3808575716941
 30
0.0
 11
337.4080157415785
 21
354.7950711340657
 31
0.0
  0
LINE
  5
10EF
330
2
100
AcDbEntity
  8
0
100
AcDbLine
 10
336.615122522767
 20
357.5879643528845
 30
0.0
 11
337.1151225227706
 21
357.0879643528826
 31
0.0
  0
LINE
  5
10F0
330
2
100
AcDbEntity
  8
0
100
AcDbLine
 10
329.6151225227692
 20
359.5879643528808
 30
0.0
 11
328.6151225227693
 21
360.1653146220708
 31
0.0
  0
LINE
  5
10F1
330
2
100
AcDbEntity
  8
0
100
AcDbLine
 10
331.3151225227695
 20
360.2879643528816
 30
0.0
 11
332.9151225227699
 21
360.2879643528816
 31
0.0
  0
LINE
  5
10F2
330
2
100
AcDbEntity
  8
0
100
AcDbLine
 10
333.1151225227688
 20
359.7879643528816
 30
0.0
 11
333.3151225227695
 21
359.5879643528808
 31
0.0
  0
LINE
  5
10F3
330
2
100
AcDbEntity
  8
0
100
AcDbLine
 10
331.1151225227688
 20
359.7879643528816
 30
0.0
 11
331.1151225227688
 21
412.387964352882
 31
0.0
  0
LINE
  5
10F4
330
2
100
AcDbEntity
  8
0
100
AcDbLine
 10
329.6151225227692
 20
359.5879643528808
 30
0.0
 11
330.9151225227699
 21
359.5879643528808
 31
0.0
  0
LINE
  5
10F5
330
2
100
AcDbEntity
  8
0
100
AcDbLine
 10
333.3151225227677
 20
412.5879643528826
 30
0.0
 11
336.615122522767
 21
412.5879643528826
 31
0.0
  0
LINE
  5
10F6
330
2
100
AcDbEntity
  8
0
100
AcDbLine
 10
336.615122522767
 20
414.5879643528827
 30
0.0
 11
336.615122522767
 21
357.5879643528845
 31
0.0
  0
LINE
  5
10F7
330
2
100
AcDbEntity
  8
0
100
AcDbLine
 10
336.6151225227633
 20
412.5879643528826
 30
0.0
 11
336.6151225227633
 21
414.5879643528772
 31
0.0
  0
LINE
  5
10F8
330
2
100
AcDbEntity
  8
0
100
AcDbLine
 10
338.1151225227643
 20
346.1883614108613
 30
0.0
 11
338.1151225227643
 21
346.5879643528826
 31
0.0
  0
LINE
  5
10F9
330
2
100
AcDbEntity
  8
HIDS
100
AcDbLine
 10
338.1151225227633
 20
346.5879643528826
 30
0.0
 11
338.1151225227643
 21
356.5879643528826
 31
0.0
  0
LINE
  5
10FA
330
2
100
AcDbEntity
  8
0
100
AcDbLine
 10
338.1151225227643
 20
356.5879643528826
 30
0.0
 11
338.1151225227643
 21
415.5879643528827
 31
0.0
  0
LINE
  5
10FB
330
2
100
AcDbEntity
  8
HIDS
100
AcDbLine
 10
338.1151225227643
 20
415.5879643528827
 30
0.0
 11
338.1151225227643
 21
425.5879643528826
 31
0.0
  0
LINE
  5
10FC
330
2
100
AcDbEntity
  8
0
100
AcDbLine
 10
338.1151225227652
 20
425.5879643528826
 30
0.0
 11
338.1151225227652
 21
425.9875672949022
 31
0.0
  0
ARC
  5
10FD
330
2
100
AcDbEntity
  8
0
100
AcDbCircle
 10
339.1151225227643
 20
346.1883614108613
 30
0.0
 40
1.0
100
AcDbArc
 50
180.0
 51
269.5000000000084
  0
LINE
  5
10FE
330
2
100
AcDbEntity
  8
0
100
AcDbLine
 10
336.615122522767
 20
414.5879643528827
 30
0.0
 11
337.115122522767
 21
415.0879643528827
 31
0.0
  0
LINE
  5
10FF
330
2
100
AcDbEntity
  8
HIDS
100
AcDbLine
 10
337.82222930395
 20
417.7950711340693
 30
0.0
 11
337.4080157415767
 21
417.380857571696
 31
0.0
  0
LINE
  5
1100
330
2
100
AcDbEntity
  8
HIDS
100
AcDbLine
 10
337.1151225227624
 20
355.5021779152523
 30
0.0
 11
337.1151225227634
 21
356.5879643528826
 31
0.0
  0
LINE
  5
1101
330
2
100
AcDbEntity
  8
0
100
AcDbLine
 10
337.1151225227624
 20
356.5879643528826
 30
0.0
 11
337.1151225227624
 21
415.5879643528827
 31
0.0
  0
LINE
  5
1102
330
2
100
AcDbEntity
  8
HIDS
100
AcDbLine
 10
337.1151225227624
 20
415.5879643528827
 30
0.0
 11
337.1151225227624
 21
416.6737507905093
 31
0.0
  0
LINE
  5
1103
330
2
100
AcDbEntity
  8
0
100
AcDbLine
 10
328.6151225227656
 20
360.1653146220726
 30
0.0
 11
328.6151225227647
 21
412.0106140836909
 31
0.0
  0
LINE
  5
1104
330
2
100
AcDbEntity
  8
0
100
AcDbLine
 10
329.6151225227674
 20
412.5879643528826
 30
0.0
 11
330.9151225227681
 21
412.5879643528826
 31
0.0
  0
LINE
  5
1105
330
2
100
AcDbEntity
  8
0
100
AcDbLine
 10
333.115122522767
 20
412.387964352882
 30
0.0
 11
333.3151225227677
 21
412.5879643528826
 31
0.0
  0
LINE
  5
1106
330
2
100
AcDbEntity
  8
0
100
AcDbLine
 10
333.115122522767
 20
412.387964352882
 30
0.0
 11
333.1151225227279
 21
359.7879643529234
 31
0.0
  0
LINE
  5
1107
330
2
100
AcDbEntity
  8
0
100
AcDbLine
 10
331.3151225227677
 20
411.8879643528819
 30
0.0
 11
332.9151225227681
 21
411.8879643528819
 31
0.0
  0
LINE
  5
1108
330
2
100
AcDbEntity
  8
0
100
AcDbLine
 10
329.6151225227674
 20
412.5879643528826
 30
0.0
 11
328.6151225227674
 21
412.0106140836926
 31
0.0
  0
LINE
  5
1109
330
2
100
AcDbEntity
  8
0
100
AcDbLine
 10
350.615122522767
 20
427.0879643528827
 30
0.0
 11
350.6151225227715
 21
345.0879643528827
 31
0.0
  0
LINE
  5
110A
330
2
100
AcDbEntity
  8
0
100
AcDbLine
 10
350.6151225227715
 20
345.0879643528827
 30
0.0
 11
339.1063959872656
 21
345.1883994877974
 31
0.0
  0
ARC
  5
110B
330
2
100
AcDbEntity
  8
HIDS
100
AcDbCircle
 10
338.1151225227652
 20
355.5021779152523
 30
0.0
 40
1.0
100
AcDbArc
 50
180.0
 51
225.0000000000187
  0
ARC
  5
110C
330
2
100
AcDbEntity
  8
HIDS
100
AcDbCircle
 10
337.1151225227652
 20
353.6737507905075
 30
0.0
 40
1.0
100
AcDbArc
 50
0.0
 51
45.00000000001871
  0
ARC
  5
110D
330
2
100
AcDbEntity
  8
HIDS
100
AcDbCircle
 10
338.1151225227625
 20
416.6737507905093
 30
0.0
 40
1.0
100
AcDbArc
 50
134.9999999999812
 51
180.0
  0
ARC
  5
110E
330
2
100
AcDbEntity
  8
HIDS
100
AcDbCircle
 10
337.1151225227652
 20
418.5021779152578
 30
0.0
 40
1.0
100
AcDbArc
 50
314.9999999999812
 51
0.0
  0
ARC
  5
110F
330
2
100
AcDbEntity
  8
0
100
AcDbCircle
 10
330.9151225227681
 20
412.387964352882
 30
0.0
 40
0.2
100
AcDbArc
 50
0.0
 51
90.0
  0
ARC
  5
1110
330
2
100
AcDbEntity
  8
0
100
AcDbCircle
 10
331.3151225227677
 20
412.0879643528827
 30
0.0
 40
0.2
100
AcDbArc
 50
180.0
 51
270.0
  0
ARC
  5
1111
330
2
100
AcDbEntity
  8
0
100
AcDbCircle
 10
332.9151225227681
 20
412.0879643528827
 30
0.0
 40
0.2
100
AcDbArc
 50
270.0
 51
0.0
  0
ARC
  5
1112
330
2
100
AcDbEntity
  8
0
100
AcDbCircle
 10
330.9151225227699
 20
359.7879643528816
 30
0.0
 40
0.2
100
AcDbArc
 50
270.0
 51
0.0
  0
ARC
  5
1113
330
2
100
AcDbEntity
  8
0
100
AcDbCircle
 10
331.3151225227695
 20
360.0879643528808
 30
0.0
 40
0.2
100
AcDbArc
 50
90.0
 51
180.0
  0
ARC
  5
1114
330
2
100
AcDbEntity
  8
0
100
AcDbCircle
 10
332.9151225227699
 20
360.0879643528808
 30
0.0
 40
0.2
100
AcDbArc
 50
0.0
 51
90.0
  0
LINE
  5
1115
330
2
100
AcDbEntity
  8
0
100
AcDbLine
 10
329.6151225227692
 20
359.5879643528808
 30
0.0
 11
329.6151225227674
 21
412.5879643528826
 31
0.0
  0
LINE
  5
1116
330
2
100
AcDbEntity
  8
0
100
AcDbLine
 10
333.3151225227677
 20
412.5879643528826
 30
0.0
 11
333.3151225227695
 21
359.5879643528808
 31
0.0
  0
LINE
  5
1117
330
2
100
AcDbEntity
  8
0
100
AcDbLine
 10
350.6151225227706
 20
350.0879643528826
 30
0.0
 11
344.1063959872646
 21
350.0879643528826
 31
0.0
  0
LINE
  5
1118
330
2
100
AcDbEntity
  8
0
100
AcDbLine
 10
350.6151225227706
 20
353.0879643528827
 30
0.0
 11
344.1063959872646
 21
353.0879643528827
 31
0.0
  0
LINE
  5
1119
330
2
100
AcDbEntity
  8
0
100
AcDbLine
 10
350.615122522767
 20
419.0879643528827
 30
0.0
 11
344.1063959872656
 21
419.0879643528827
 31
0.0
  0
LINE
  5
111A
330
2
100
AcDbEntity
  8
0
100
AcDbLine
 10
350.615122522767
 20
422.0879643528826
 30
0.0
 11
344.1063959872646
 21
422.0879643528826
 31
0.0
  0
LINE
  5
111B
330
2
100
AcDbEntity
  8
0
100
AcDbLine
 10
350.6151225227688
 20
404.3799995187512
 30
0.0
 11
339.1151225227652
 21
404.3799995187512
 31
0.0
  0
LINE
  5
111C
330
2
100
AcDbEntity
  8
0
100
AcDbLine
 10
350.6151225227706
 20
367.7959291870141
 30
0.0
 11
339.1151225227652
 21
367.7959291870141
 31
0.0
  0
LINE
  5
111D
330
2
100
AcDbEntity
  8
0
100
AcDbLine
 10
339.1063959872656
 20
358.6229479793676
 30
0.0
 11
342.6194857905122
 21
358.5922897091171
 31
0.0
  0
LINE
  5
111E
330
2
100
AcDbEntity
  8
0
100
AcDbLine
 10
343.1151225227633
 20
358.0923087475842
 30
0.0
 11
343.1151225227633
 21
346.1447270719075
 31
0.0
  0
ARC
  5
111F
330
2
100
AcDbEntity
  8
0
100
AcDbCircle
 10
339.1151225227634
 20
359.6229099024351
 30
0.0
 40
1.0
100
AcDbArc
 50
180.0
 51
269.5000000000345
  0
ARC
  5
1120
330
2
100
AcDbEntity
  8
0
100
AcDbCircle
 10
342.6151225227633
 20
358.092308747586
 30
0.0
 40
0.5
100
AcDbArc
 50
0.0
 51
89.5000000000345
  0
ARC
  5
1121
330
2
100
AcDbEntity
  8
0
100
AcDbCircle
 10
344.1151225227633
 20
346.1447270719075
 30
0.0
 40
1.0
100
AcDbArc
 50
180.0
 51
269.5000000000084
  0
ARC
  5
1122
330
2
100
AcDbEntity
  8
0
100
AcDbCircle
 10
339.1151225227643
 20
425.9875672949022
 30
0.0
 40
1.0
100
AcDbArc
 50
90.49999999999155
 51
180.0
  0
LINE
  5
1123
330
2
100
AcDbEntity
  8
0
100
AcDbLine
 10
350.615122522767
 20
427.0879643528827
 30
0.0
 11
339.1063959872656
 21
426.9875292179661
 31
0.0
  0
LINE
  5
1124
330
2
100
AcDbEntity
  8
0
100
AcDbLine
 10
339.1063959872656
 20
413.5529807263977
 30
0.0
 11
342.6194857905122
 21
413.5836389966464
 31
0.0
  0
LINE
  5
1125
330
2
100
AcDbEntity
  8
0
100
AcDbLine
 10
343.1151225227633
 20
414.0836199581793
 30
0.0
 11
343.1151225227633
 21
426.031201633856
 31
0.0
  0
ARC
  5
1126
330
2
100
AcDbEntity
  8
0
100
AcDbCircle
 10
339.1151225227634
 20
412.5530188033283
 30
0.0
 40
1.0
100
AcDbArc
 50
90.49999999996549
 51
180.0
  0
ARC
  5
1127
330
2
100
AcDbEntity
  8
0
100
AcDbCircle
 10
342.6151225227633
 20
414.0836199581793
 30
0.0
 40
0.5
100
AcDbArc
 50
270.4999999999654
 51
0.0
  0
ARC
  5
1128
330
2
100
AcDbEntity
  8
0
100
AcDbCircle
 10
344.1151225227633
 20
426.031201633856
 30
0.0
 40
1.0
100
AcDbArc
 50
90.49999999999155
 51
180.0
  0
LINE
  5
1129
330
2
100
AcDbEntity
  8
0
100
AcDbLine
 10
336.015122522763
 20
415.5879643528827
 30
0.0
 11
335.6151225227633
 21
416.2807846759099
 31
0.0
  0
LINE
  5
112A
330
2
100
AcDbEntity
  8
0
100
AcDbLine
 10
341.6151225227634
 20
415.5879643528827
 30
0.0
 11
341.6151225227634
 21
425.5879643528826
 31
0.0
  0
LINE
  5
112B
330
2
100
AcDbEntity
  8
0
100
AcDbLine
 10
336.015122522763
 20
415.5879643528827
 30
0.0
 11
336.015122522763
 21
425.5879643528826
 31
0.0
  0
LINE
  5
112C
330
2
100
AcDbEntity
  8
0
100
AcDbLine
 10
343.1151225227633
 20
415.5879643528827
 30
0.0
 11
336.015122522763
 21
415.5879643528827
 31
0.0
  0
LINE
  5
112D
330
2
100
AcDbEntity
  8
0
100
AcDbLine
 10
343.1151225227633
 20
425.5879643528826
 30
0.0
 11
336.015122522763
 21
425.5879643528826
 31
0.0
  0
LINE
  5
112E
330
2
100
AcDbEntity
  8
0
100
AcDbLine
 10
336.015122522763
 20
425.5879643528826
 30
0.0
 11
335.6151225227633
 21
424.8951440298553
 31
0.0
  0
LINE
  5
112F
330
2
100
AcDbEntity
  8
0
100
AcDbLine
 10
335.6151225227633
 20
416.2807846759099
 30
0.0
 11
335.6151225227633
 21
424.8951440298553
 31
0.0
  0
LINE
  5
1130
330
2
100
AcDbEntity
  8
0
100
AcDbLine
 10
343.1151225227633
 20
425.5879643528826
 30
0.0
 11
343.1151225227633
 21
415.5879643528827
 31
0.0
  0
LINE
  5
1131
330
2
100
AcDbEntity
  8
0
100
AcDbLine
 10
336.015122522763
 20
356.5879643528826
 30
0.0
 11
335.6151225227633
 21
355.8951440298554
 31
0.0
  0
LINE
  5
1132
330
2
100
AcDbEntity
  8
0
100
AcDbLine
 10
341.6151225227634
 20
356.5879643528826
 30
0.0
 11
341.6151225227634
 21
346.5879643528826
 31
0.0
  0
LINE
  5
1133
330
2
100
AcDbEntity
  8
0
100
AcDbLine
 10
336.015122522763
 20
356.5879643528826
 30
0.0
 11
336.015122522763
 21
346.5879643528826
 31
0.0
  0
LINE
  5
1134
330
2
100
AcDbEntity
  8
0
100
AcDbLine
 10
343.1151225227633
 20
356.5879643528826
 30
0.0
 11
336.015122522763
 21
356.5879643528826
 31
0.0
  0
LINE
  5
1135
330
2
100
AcDbEntity
  8
0
100
AcDbLine
 10
343.1151225227633
 20
346.5879643528826
 30
0.0
 11
336.015122522763
 21
346.5879643528826
 31
0.0
  0
LINE
  5
1136
330
2
100
AcDbEntity
  8
0
100
AcDbLine
 10
336.015122522763
 20
346.5879643528826
 30
0.0
 11
335.6151225227633
 21
347.2807846759099
 31
0.0
  0
LINE
  5
1137
330
2
100
AcDbEntity
  8
0
100
AcDbLine
 10
335.6151225227633
 20
355.8951440298554
 30
0.0
 11
335.6151225227633
 21
347.2807846759099
 31
0.0
  0
LINE
  5
1138
330
2
100
AcDbEntity
  8
0
100
AcDbLine
 10
564.2315125862817
 20
679.5608944063369
 30
0.0
 11
564.2315125862826
 21
676.2608944063376
 31
0.0
  0
LINE
  5
1139
330
2
100
AcDbEntity
  8
HIDS
100
AcDbLine
 10
559.024405805095
 20
675.0537876251565
 30
0.0
 11
559.4386193674665
 21
675.4680011875279
 31
0.0
  0
LINE
  5
113A
330
2
100
AcDbEntity
  8
0
100
AcDbLine
 10
562.2315125862853
 20
676.2608944063394
 30
0.0
 11
561.7315125862835
 21
675.7608944063358
 31
0.0
  0
LINE
  5
113B
330
2
100
AcDbEntity
  8
0
100
AcDbLine
 10
564.2315125862817
 20
683.2608944063377
 30
0.0
 11
564.8088628554717
 21
684.2608944063377
 31
0.0
  0
LINE
  5
113C
330
2
100
AcDbEntity
  8
0
100
AcDbLine
 10
564.9315125862824
 20
681.5608944063369
 30
0.0
 11
564.9315125862824
 21
679.9608944063366
 31
0.0
  0
LINE
  5
113D
330
2
100
AcDbEntity
  8
0
100
AcDbLine
 10
564.4315125862824
 20
679.7608944063377
 30
0.0
 11
564.2315125862817
 21
679.5608944063369
 31
0.0
  0
LINE
  5
113E
330
2
100
AcDbEntity
  8
0
100
AcDbLine
 10
564.4315125862824
 20
681.7608944063376
 30
0.0
 11
617.0315125862828
 21
681.7608944063376
 31
0.0
  0
LINE
  5
113F
330
2
100
AcDbEntity
  8
0
100
AcDbLine
 10
564.2315125862817
 20
683.2608944063377
 30
0.0
 11
564.2315125862817
 21
681.9608944063365
 31
0.0
  0
LINE
  5
1140
330
2
100
AcDbEntity
  8
0
100
AcDbLine
 10
632.7315125862826
 20
672.7608944063431
 30
0.0
 11
653.2315125862835
 21
672.7608944063431
 31
0.0
  0
LINE
  5
1141
330
2
100
AcDbEntity
  8
0
100
AcDbLine
 10
663.2315125862835
 20
672.7608944063431
 30
0.0
 11
663.6485692638846
 21
672.7608944063431
 31
0.0
  0
LINE
  5
1142
330
2
100
AcDbEntity
  8
0
100
AcDbLine
 10
651.7315125862835
 20
669.7608944063431
 30
0.0
 11
663.6747498672568
 21
669.7608944063431
 31
0.0
  0
LINE
  5
1143
330
2
100
AcDbEntity
  8
0
100
AcDbLine
 10
617.2315125862835
 20
679.5608944063388
 30
0.0
 11
617.2315125862826
 21
676.2608944063394
 31
0.0
  0
LINE
  5
1144
330
2
100
AcDbEntity
  8
0
100
AcDbLine
 10
619.2315125862826
 20
676.2608944063394
 30
0.0
 11
562.2315125862853
 21
676.2608944063394
 31
0.0
  0
LINE
  5
1145
330
2
100
AcDbEntity
  8
0
100
AcDbLine
 10
617.2315125862835
 20
676.2608944063431
 30
0.0
 11
619.2315125862771
 21
676.2608944063431
 31
0.0
  0
LINE
  5
1146
330
2
100
AcDbEntity
  8
0
100
AcDbLine
 10
550.8319096442622
 20
674.7608944063413
 30
0.0
 11
551.2315125862744
 21
674.7608944063413
 31
0.0
  0
LINE
  5
1147
330
2
100
AcDbEntity
  8
HIDS
100
AcDbLine
 10
551.2315125862744
 20
674.7608944063413
 30
0.0
 11
561.2315125862744
 21
674.7608944063413
 31
0.0
  0
LINE
  5
1148
330
2
100
AcDbEntity
  8
0
100
AcDbLine
 10
561.2315125862744
 20
674.7608944063413
 30
0.0
 11
630.7315125862826
 21
674.7608944063413
 31
0.0
  0
ARC
  5
1149
330
2
100
AcDbEntity
  8
0
100
AcDbCircle
 10
550.8319096442622
 20
673.7608944063413
 30
0.0
 40
1.0
100
AcDbArc
 50
90.0
 51
179.5000000000344
  0
LINE
  5
114A
330
2
100
AcDbEntity
  8
0
100
AcDbLine
 10
619.2315125862826
 20
676.2608944063394
 30
0.0
 11
619.7315125862826
 21
675.7608944063394
 31
0.0
  0
LINE
  5
114B
330
2
100
AcDbEntity
  8
0
100
AcDbLine
 10
622.4386193674702
 20
675.0537876251565
 30
0.0
 11
622.0244058050968
 21
675.4680011875298
 31
0.0
  0
LINE
  5
114C
330
2
100
AcDbEntity
  8
HIDS
100
AcDbLine
 10
560.1457261486532
 20
675.7608944063431
 30
0.0
 11
561.2315125862744
 21
675.7608944063431
 31
0.0
  0
LINE
  5
114D
330
2
100
AcDbEntity
  8
0
100
AcDbLine
 10
561.2315125862744
 20
675.7608944063431
 30
0.0
 11
621.3172990239102
 21
675.7608944063431
 31
0.0
  0
ARC
  5
114E
330
2
100
AcDbEntity
  8
0
100
AcDbCircle
 10
632.7315125862826
 20
673.7608944063431
 30
0.0
 40
1.0
100
AcDbArc
 50
180.0
 51
270.0
  0
ARC
  5
114F
330
2
100
AcDbEntity
  8
0
100
AcDbCircle
 10
630.7315125862826
 20
673.7608944063413
 30
0.0
 40
1.0
100
AcDbArc
 50
0.0
 51
90.0
  0
LINE
  5
1150
330
2
100
AcDbEntity
  8
0
100
AcDbLine
 10
631.7315125862826
 20
673.7608944063431
 30
0.0
 11
631.7315125862826
 21
673.7608944063413
 31
0.0
  0
LINE
  5
1151
330
2
100
AcDbEntity
  8
0
100
AcDbLine
 10
564.8088628554735
 20
684.2608944063413
 30
0.0
 11
616.6541623170917
 21
684.2608944063413
 31
0.0
  0
LINE
  5
1152
330
2
100
AcDbEntity
  8
0
100
AcDbLine
 10
617.2315125862835
 20
683.2608944063395
 30
0.0
 11
617.2315125862835
 21
681.9608944063384
 31
0.0
  0
LINE
  5
1153
330
2
100
AcDbEntity
  8
0
100
AcDbLine
 10
617.0315125862828
 20
679.7608944063394
 30
0.0
 11
617.2315125862835
 21
679.5608944063388
 31
0.0
  0
LINE
  5
1154
330
2
100
AcDbEntity
  8
0
100
AcDbLine
 10
617.0315125862828
 20
679.7608944063394
 30
0.0
 11
564.4315125863243
 21
679.7608944063776
 31
0.0
  0
LINE
  5
1155
330
2
100
AcDbEntity
  8
0
100
AcDbLine
 10
616.5315125862828
 20
681.5608944063387
 30
0.0
 11
616.5315125862828
 21
679.9608944063384
 31
0.0
  0
LINE
  5
1156
330
2
100
AcDbEntity
  8
0
100
AcDbLine
 10
617.2315125862835
 20
683.2608944063395
 30
0.0
 11
616.6541623170935
 21
684.2608944063394
 31
0.0
  0
LINE
  5
1157
330
2
100
AcDbEntity
  8
0
100
AcDbLine
 10
664.7315125862835
 20
662.2608944063413
 30
0.0
 11
664.6485311869485
 21
671.7696209418408
 31
0.0
  0
ARC
  5
1158
330
2
100
AcDbEntity
  8
0
100
AcDbCircle
 10
663.6747498672568
 20
668.7608944063431
 30
0.0
 40
1.0
100
AcDbArc
 50
0.4999999999654926
 51
90.0
  0
ARC
  5
1159
330
2
100
AcDbEntity
  8
0
100
AcDbCircle
 10
663.6485692638846
 20
671.7608944063431
 30
0.0
 40
1.0
100
AcDbArc
 50
0.4999999999654926
 51
90.0
  0
LINE
  5
115A
330
2
100
AcDbEntity
  8
0
100
AcDbLine
 10
664.7315125862826
 20
662.2608944063431
 30
0.0
 11
549.7315125862826
 21
662.260894406334
 31
0.0
  0
LINE
  5
115B
330
2
100
AcDbEntity
  8
0
100
AcDbLine
 10
664.7315125862826
 20
662.2608944063431
 30
0.0
 11
661.2315125862826
 21
662.2608944063413
 31
0.0
  0
LINE
  5
115C
330
2
100
AcDbEntity
  8
0
100
AcDbLine
 10
549.7315125862826
 20
662.260894406334
 30
0.0
 11
549.8319477211983
 21
673.7696209418409
 31
0.0
  0
ARC
  5
115D
330
2
100
AcDbEntity
  8
HIDS
100
AcDbCircle
 10
560.1457261486532
 20
674.7608944063413
 30
0.0
 40
1.0
100
AcDbArc
 50
90.0
 51
134.9999999999997
  0
ARC
  5
115E
330
2
100
AcDbEntity
  8
HIDS
100
AcDbCircle
 10
558.3172990239074
 20
675.7608944063413
 30
0.0
 40
1.0
100
AcDbArc
 50
270.0
 51
314.9999999999997
  0
ARC
  5
115F
330
2
100
AcDbEntity
  8
0
100
AcDbCircle
 10
621.3172990239102
 20
674.7608944063431
 30
0.0
 40
1.0
100
AcDbArc
 50
45.00000000000029
 51
90.00000000002605
  0
ARC
  5
1160
330
2
100
AcDbEntity
  8
0
100
AcDbCircle
 10
623.1457261486577
 20
675.7608944063413
 30
0.0
 40
1.0
100
AcDbArc
 50
225.0000000000003
 51
270.0
  0
ARC
  5
1161
330
2
100
AcDbEntity
  8
0
100
AcDbCircle
 10
617.0315125862828
 20
681.9608944063384
 30
0.0
 40
0.2
100
AcDbArc
 50
270.0
 51
0.0
  0
ARC
  5
1162
330
2
100
AcDbEntity
  8
0
100
AcDbCircle
 10
616.7315125862835
 20
681.5608944063387
 30
0.0
 40
0.2
100
AcDbArc
 50
90.0
 51
180.0
  0
ARC
  5
1163
330
2
100
AcDbEntity
  8
0
100
AcDbCircle
 10
616.7315125862835
 20
679.9608944063384
 30
0.0
 40
0.2
100
AcDbArc
 50
180.0
 51
270.0
  0
ARC
  5
1164
330
2
100
AcDbEntity
  8
0
100
AcDbCircle
 10
564.4315125862824
 20
681.9608944063365
 30
0.0
 40
0.2
100
AcDbArc
 50
180.0
 51
270.0
  0
ARC
  5
1165
330
2
100
AcDbEntity
  8
0
100
AcDbCircle
 10
564.7315125862816
 20
681.5608944063369
 30
0.0
 40
0.2
100
AcDbArc
 50
0.0
 51
90.0
  0
ARC
  5
1166
330
2
100
AcDbEntity
  8
0
100
AcDbCircle
 10
564.7315125862816
 20
679.9608944063366
 30
0.0
 40
0.2
100
AcDbArc
 50
270.0
 51
0.0
  0
LINE
  5
1167
330
2
100
AcDbEntity
  8
0
100
AcDbLine
 10
564.2315125862817
 20
683.2608944063377
 30
0.0
 11
617.2315125862835
 21
683.2608944063395
 31
0.0
  0
LINE
  5
1168
330
2
100
AcDbEntity
  8
0
100
AcDbLine
 10
617.2315125862835
 20
679.5608944063388
 30
0.0
 11
564.2315125862817
 21
679.5608944063369
 31
0.0
  0
LINE
  5
1169
330
2
100
AcDbEntity
  8
0
100
AcDbLine
 10
554.7315125862835
 20
662.2608944063358
 30
0.0
 11
554.7315125862835
 21
668.7696209418409
 31
0.0
  0
LINE
  5
116A
330
2
100
AcDbEntity
  8
0
100
AcDbLine
 10
557.7315125862835
 20
662.2608944063358
 30
0.0
 11
557.7315125862835
 21
668.7696209418409
 31
0.0
  0
LINE
  5
116B
330
2
100
AcDbEntity
  8
0
100
AcDbLine
 10
572.4394774204149
 20
662.2608944063358
 30
0.0
 11
572.4394774204149
 21
673.7608944063413
 31
0.0
  0
LINE
  5
116C
330
2
100
AcDbEntity
  8
0
100
AcDbLine
 10
631.7315125862826
 20
673.7608944063413
 30
0.0
 11
631.7315125862826
 21
662.2608944063395
 31
0.0
  0
LINE
  5
116D
330
2
100
AcDbEntity
  8
0
100
AcDbLine
 10
651.2315125862835
 20
671.7608944063431
 30
0.0
 11
651.2315125862835
 21
670.2608944063431
 31
0.0
  0
ARC
  5
116E
330
2
100
AcDbEntity
  8
0
100
AcDbCircle
 10
650.2315125862835
 20
671.7608944063431
 30
0.0
 40
1.0
100
AcDbArc
 50
0.0
 51
90.0
  0
ARC
  5
116F
330
2
100
AcDbEntity
  8
0
100
AcDbCircle
 10
651.7315125862835
 20
670.2608944063431
 30
0.0
 40
0.5
100
AcDbArc
 50
180.0
 51
270.000000000026
  0
LINE
  5
1170
330
2
100
AcDbEntity
  8
0
100
AcDbLine
 10
563.2664962127676
 20
673.7696209418409
 30
0.0
 11
563.2358379425179
 21
670.2565311385933
 31
0.0
  0
LINE
  5
1171
330
2
100
AcDbEntity
  8
0
100
AcDbLine
 10
562.735856980985
 20
669.7608944063431
 30
0.0
 11
550.7882753053084
 21
669.7608944063431
 31
0.0
  0
ARC
  5
1172
330
2
100
AcDbEntity
  8
0
100
AcDbCircle
 10
564.266458135836
 20
673.7608944063431
 30
0.0
 40
1.0
100
AcDbArc
 50
90.0
 51
179.5000000000344
  0
ARC
  5
1173
330
2
100
AcDbEntity
  8
0
100
AcDbCircle
 10
562.7358569809859
 20
670.2608944063431
 30
0.0
 40
0.5
100
AcDbArc
 50
269.9999999999739
 51
359.5000000000345
  0
ARC
  5
1174
330
2
100
AcDbEntity
  8
0
100
AcDbCircle
 10
550.7882753053084
 20
668.7608944063431
 30
0.0
 40
1.0
100
AcDbArc
 50
90.0
 51
179.5000000000344
  0
LINE
  5
1175
330
2
100
AcDbEntity
  8
CENTER
  6
CENS
100
AcDbLine
 10
658.2315125862835
 20
659.2608944063377
 30
0.0
 11
658.2315125862835
 21
680.2608944063431
 31
0.0
  0
LINE
  5
1176
330
2
100
AcDbEntity
  8
0
100
AcDbLine
 10
663.2315125862835
 20
676.8608944063434
 30
0.0
 11
662.5386922632563
 21
677.2608944063431
 31
0.0
  0
LINE
  5
1177
330
2
100
AcDbEntity
  8
0
100
AcDbLine
 10
663.2315125862835
 20
671.2608944063431
 30
0.0
 11
653.2315125862835
 21
671.2608944063431
 31
0.0
  0
LINE
  5
1178
330
2
100
AcDbEntity
  8
0
100
AcDbLine
 10
663.2315125862835
 20
676.8608944063434
 30
0.0
 11
653.2315125862835
 21
676.8608944063434
 31
0.0
  0
LINE
  5
1179
330
2
100
AcDbEntity
  8
0
100
AcDbLine
 10
663.2315125862835
 20
669.7608944063431
 30
0.0
 11
663.2315125862835
 21
676.8608944063434
 31
0.0
  0
LINE
  5
117A
330
2
100
AcDbEntity
  8
0
100
AcDbLine
 10
653.2315125862835
 20
669.7608944063431
 30
0.0
 11
653.2315125862835
 21
676.8608944063434
 31
0.0
  0
LINE
  5
117B
330
2
100
AcDbEntity
  8
0
100
AcDbLine
 10
653.2315125862835
 20
676.8608944063434
 30
0.0
 11
653.9243329093108
 21
677.2608944063431
 31
0.0
  0
LINE
  5
117C
330
2
100
AcDbEntity
  8
0
100
AcDbLine
 10
662.5386922632563
 20
677.2608944063431
 30
0.0
 11
653.9243329093108
 21
677.2608944063431
 31
0.0
  0
LINE
  5
117D
330
2
100
AcDbEntity
  8
0
100
AcDbLine
 10
653.2315125862835
 20
669.7608944063431
 30
0.0
 11
663.2315125862835
 21
669.7608944063431
 31
0.0
  0
LINE
  5
117E
330
2
100
AcDbEntity
  8
CENTER
  6
CENS
100
AcDbLine
 10
556.2315125862745
 20
659.2608944063377
 30
0.0
 11
556.2315125862745
 21
680.2608944063431
 31
0.0
  0
LINE
  5
117F
330
2
100
AcDbEntity
  8
0
100
AcDbLine
 10
561.2315125862744
 20
676.8608944063434
 30
0.0
 11
560.5386922632471
 21
677.2608944063431
 31
0.0
  0
LINE
  5
1180
330
2
100
AcDbEntity
  8
0
100
AcDbLine
 10
561.2315125862744
 20
671.2608944063431
 30
0.0
 11
551.2315125862744
 21
671.2608944063431
 31
0.0
  0
LINE
  5
1181
330
2
100
AcDbEntity
  8
0
100
AcDbLine
 10
561.2315125862744
 20
676.8608944063434
 30
0.0
 11
551.2315125862744
 21
676.8608944063434
 31
0.0
  0
LINE
  5
1182
330
2
100
AcDbEntity
  8
0
100
AcDbLine
 10
561.2315125862744
 20
669.7608944063431
 30
0.0
 11
561.2315125862744
 21
676.8608944063434
 31
0.0
  0
LINE
  5
1183
330
2
100
AcDbEntity
  8
0
100
AcDbLine
 10
551.2315125862744
 20
669.7608944063431
 30
0.0
 11
551.2315125862744
 21
676.8608944063434
 31
0.0
  0
LINE
  5
1184
330
2
100
AcDbEntity
  8
0
100
AcDbLine
 10
551.2315125862744
 20
676.8608944063434
 30
0.0
 11
551.9243329093017
 21
677.2608944063431
 31
0.0
  0
LINE
  5
1185
330
2
100
AcDbEntity
  8
0
100
AcDbLine
 10
560.5386922632471
 20
677.2608944063431
 30
0.0
 11
551.9243329093017
 21
677.2608944063431
 31
0.0
  0
LINE
  5
1186
330
2
100
AcDbEntity
  8
0
100
AcDbLine
 10
551.2315125862744
 20
669.7608944063431
 30
0.0
 11
561.2315125862744
 21
669.7608944063431
 31
0.0
  0
LINE
  5
1187
330
2
100
AcDbEntity
  8
HIDS
100
AcDbLine
 10
653.2315125862835
 20
672.7608944063431
 30
0.0
 11
663.2315125862835
 21
672.7608944063431
 31
0.0
  0
LINE
  5
1188
330
2
100
AcDbEntity
  8
CENTER
  6
CENS
100
AcDbLine
 10
331.0364546126668
 20
420.5879643528827
 30
0.0
 11
355.5993082890484
 21
420.5879643528827
 31
0.0
  0
LINE
  5
1189
330
2
100
AcDbEntity
  8
CENTER
  6
CENS
100
AcDbLine
 10
331.0364546126668
 20
351.5879643528827
 30
0.0
 11
355.5993082890484
 21
351.5879643528827
 31
0.0
  0
LINE
  5
118A
330
2
100
AcDbEntity
  8
CENTER
100
AcDbLine
 10
238.3348256020237
 20
351.5879643528827
 30
0.0
 11
220.8348256020237
 21
351.5879643528827
 31
0.0
  0
LINE
  5
118B
330
2
100
AcDbEntity
  8
CENTER
100
AcDbLine
 10
127.5848256020233
 20
420.3379643528845
 30
0.0
 11
127.5848256020233
 21
402.8379643528845
 31
0.0
  0
CIRCLE
  5
118C
330
2
100
AcDbEntity
  8
HOJO
100
AcDbCircle
 10
230.0848256020233
 20
409.0879643528826
 30
0.0
 40
2.0
  0
LINE
  5
118D
330
2
100
AcDbEntity
  8
CENTER
100
AcDbLine
 10
133.9116205212669
 20
413.5879643528845
 30
0.0
 11
144.258030682781
 21
413.5879643528845
 31
0.0
  0
LINE
  5
118E
330
2
100
AcDbEntity
  8
CENTER
100
AcDbLine
 10
118.8348256020233
 20
411.5879643528844
 30
0.0
 11
136.3348256020233
 21
411.5879643528844
 31
0.0
  0
LINE
  5
118F
330
2
100
AcDbEntity
  8
CENTER
100
AcDbLine
 10
139.0848256020237
 20
418.7611694336413
 30
0.0
 11
139.0848256020237
 21
408.4147592721277
 31
0.0
  0
CIRCLE
  5
1190
330
2
100
AcDbEntity
  8
HOJO
100
AcDbCircle
 10
139.0848256020237
 20
413.5879643528845
 30
0.0
 40
2.0
  0
CIRCLE
  5
1191
330
2
100
AcDbEntity
  8
HOJO
100
AcDbCircle
 10
230.0848256020233
 20
363.0879643528826
 30
0.0
 40
2.0
  0
CIRCLE
  5
1192
330
2
100
AcDbEntity
  8
HOJO
100
AcDbCircle
 10
139.0848256020237
 20
358.5879643528808
 30
0.0
 40
2.0
  0
LINE
  5
1193
330
2
100
AcDbEntity
  8
CENTER
100
AcDbLine
 10
139.0848256020237
 20
352.6198912591993
 30
0.0
 11
139.0848256020237
 21
363.7611694336376
 31
0.0
  0
LINE
  5
1194
330
2
100
AcDbEntity
  8
CENTER
100
AcDbLine
 10
127.5848256020233
 20
351.8379643528808
 30
0.0
 11
127.5848256020233
 21
369.3379643528808
 31
0.0
  0
LINE
  5
1195
330
2
100
AcDbEntity
  8
CENTER
100
AcDbLine
 10
118.8348256020233
 20
360.5879643528808
 30
0.0
 11
136.3348256020233
 21
360.5879643528808
 31
0.0
  0
LINE
  5
1196
330
2
100
AcDbEntity
  8
CENTER
100
AcDbLine
 10
133.9116205212669
 20
358.5879643528808
 30
0.0
 11
144.258030682781
 21
358.5879643528808
 31
0.0
  0
ARC
  5
1197
330
2
100
AcDbEntity
  8
0
100
AcDbCircle
 10
232.9661296104552
 20
360.5879643528826
 30
0.0
 40
2.0
100
AcDbArc
 50
270.0
 51
3.96469786020805
  0
ARC
  5
1198
330
2
100
AcDbEntity
  8
0
100
AcDbCircle
 10
232.9661296104552
 20
411.5879643528827
 30
0.0
 40
2.0
100
AcDbArc
 50
356.0353021397919
 51
90.0
  0
ARC
  5
1199
330
2
100
AcDbEntity
  8
0
100
AcDbCircle
 10
274.865616913986
 20
408.6840077930721
 30
0.0
 40
40.0
100
AcDbArc
 50
166.6323257973733
 51
186.1769964048917
  0
ARC
  5
119A
330
2
100
AcDbEntity
  8
0
100
AcDbCircle
 10
274.8656169139855
 20
363.4919209126931
 30
0.0
 40
40.0
100
AcDbArc
 50
173.8230035951082
 51
193.3676742026266
  0
ARC
  5
119B
330
2
100
AcDbEntity
  8
0
100
AcDbCircle
 10
231.0848256020237
 20
350.0879643528826
 30
0.0
 40
5.0
100
AcDbArc
 50
270.0
 51
0.0
  0
ARC
  5
119C
330
2
100
AcDbEntity
  8
0
100
AcDbCircle
 10
231.0848256020237
 20
422.0879643528826
 30
0.0
 40
5.0
100
AcDbArc
 50
0.0
 51
90.0
  0
ARC
  5
119D
330
2
100
AcDbEntity
  8
0
100
AcDbCircle
 10
231.0848256020237
 20
419.0879643528827
 30
0.0
 40
5.0
100
AcDbArc
 50
346.6323257973734
 51
0.0
  0
LINE
  5
119E
330
2
100
AcDbEntity
  8
0
100
AcDbLine
 10
236.0848256020242
 20
419.0879643528827
 30
0.0
 11
236.0848256020242
 21
422.0879643528826
 31
0.0
  0
ARC
  5
119F
330
2
100
AcDbEntity
  8
0
100
AcDbCircle
 10
66.08482560202379
 20
386.0879643528826
 30
0.0
 40
170.0
100
AcDbArc
 50
353.8230035951083
 51
6.176996404891704
  0
ARC
  5
11A0
330
2
100
AcDbEntity
  8
0
100
AcDbCircle
 10
231.0848256020237
 20
353.0879643528827
 30
0.0
 40
5.0
100
AcDbArc
 50
0.0
 51
13.36767420262659
  0
LINE
  5
11A1
330
2
100
AcDbEntity
  8
0
100
AcDbLine
 10
236.0848256020242
 20
350.0879643528826
 30
0.0
 11
236.0848256020242
 21
353.0879643528827
 31
0.0
  0
ARC
  5
11A2
330
2
100
AcDbEntity
  8
0
100
AcDbCircle
 10
176.0848256020242
 20
405.087964352879
 30
0.0
 40
12.0
100
AcDbArc
 50
90.0
 51
180.0
  0
ARC
  5
11A3
330
2
100
AcDbEntity
  8
0
100
AcDbCircle
 10
214.0848256020201
 20
405.0879643528826
 30
0.0
 40
12.0
100
AcDbArc
 50
0.0
 51
90.0
  0
ARC
  5
11A4
330
2
100
AcDbEntity
  8
0
100
AcDbCircle
 10
176.0848256020242
 20
405.087964352879
 30
0.0
 40
13.0
100
AcDbArc
 50
90.0
 51
180.0
  0
ARC
  5
11A5
330
2
100
AcDbEntity
  8
0
100
AcDbCircle
 10
214.0848256020201
 20
405.0879643528826
 30
0.0
 40
13.0
100
AcDbArc
 50
0.0
 51
90.0
  0
CIRCLE
  5
11A6
330
2
100
AcDbEntity
  8
0
100
AcDbCircle
 10
195.0848256020242
 20
386.0879643528826
 30
0.0
 40
28.99999999999986
  0
CIRCLE
  5
11A7
330
2
100
AcDbEntity
  8
0
100
AcDbCircle
 10
195.0848256020242
 20
386.0879643528826
 30
0.0
 40
28.49999999999985
  0
CIRCLE
  5
11A8
330
2
100
AcDbEntity
  8
0
100
AcDbCircle
 10
195.0848256020242
 20
386.0879643528826
 30
0.0
 40
25.92259999999985
  0
CIRCLE
  5
11A9
330
2
100
AcDbEntity
  8
0
100
AcDbCircle
 10
195.0848256020242
 20
386.0879643528826
 30
0.0
 40
23.5774
  0
CIRCLE
  5
11AA
330
2
100
AcDbEntity
  8
0
100
AcDbCircle
 10
195.0848256020242
 20
386.0879643528826
 30
0.0
 40
26.49999999999986
  0
ARC
  5
11AB
330
2
100
AcDbEntity
  8
0
100
AcDbCircle
 10
127.5848256020233
 20
411.5879643528844
 30
0.0
 40
7.0
100
AcDbArc
 50
270.0
 51
0.0
  0
CIRCLE
  5
11AC
330
2
100
AcDbEntity
  8
0
100
AcDbCircle
 10
195.0848256020242
 20
386.0879643528826
 30
0.0
 40
23.0
  0
LINE
  5
11AD
330
2
100
AcDbEntity
  8
0
100
AcDbLine
 10
154.0848256020242
 20
350.0879643528772
 30
0.0
 11
154.0848256020242
 21
422.0879643528826
 31
0.0
  0
LINE
  5
11AE
330
2
100
AcDbEntity
  8
0
100
AcDbLine
 10
121.0848256020242
 20
412.0879643528844
 30
0.0
 11
121.0848256020242
 21
360.087964352879
 31
0.0
  0
ARC
  5
11AF
330
2
100
AcDbEntity
  8
0
100
AcDbCircle
 10
172.4887821618347
 20
465.868755664844
 30
0.0
 40
40.0
100
AcDbArc
 50
256.63232579737
 51
276.1769964048646
  0
LINE
  5
11B0
330
2
100
AcDbEntity
  8
0
100
AcDbLine
 10
214.0848256020251
 20
417.087964352879
 30
0.0
 11
176.0848256020251
 21
417.0879643528826
 31
0.0
  0
LINE
  5
11B1
330
2
100
AcDbEntity
  8
0
100
AcDbLine
 10
214.0848256020251
 20
418.087964352879
 30
0.0
 11
176.0848256020251
 21
418.0879643528826
 31
0.0
  0
ARC
  5
11B2
330
2
100
AcDbEntity
  8
0
100
AcDbCircle
 10
195.0848256020242
 20
257.0879643528826
 30
0.0
 40
170.0
100
AcDbArc
 50
83.82300359513532
 51
96.17699640486467
  0
ARC
  5
11B3
330
2
100
AcDbEntity
  8
0
100
AcDbCircle
 10
217.6808690422137
 20
465.868755664844
 30
0.0
 40
40.0
100
AcDbArc
 50
263.8230035951353
 51
283.3676742026299
  0
ARC
  5
11B4
330
2
100
AcDbEntity
  8
0
100
AcDbCircle
 10
229.5848256020237
 20
420.5879643528827
 30
0.0
 40
7.0
100
AcDbArc
 50
180.0
 51
270.0
  0
ARC
  5
11B5
330
2
100
AcDbEntity
  8
0
100
AcDbCircle
 10
228.0848256020238
 20
422.0879643528826
 30
0.0
 40
5.0
100
AcDbArc
 50
90.0
 51
103.36767420263
  0
LINE
  5
11B6
330
2
100
AcDbEntity
  8
0
100
AcDbLine
 10
231.0848256020237
 20
427.0879643528827
 30
0.0
 11
228.0848256020238
 21
427.0879643528827
 31
0.0
  0
ARC
  5
11B7
330
2
100
AcDbEntity
  8
0
100
AcDbCircle
 10
220.5848256020237
 20
423.9692683613141
 30
0.0
 40
2.0
100
AcDbArc
 50
0.0
 51
93.96469786020842
  0
LINE
  5
11B8
330
2
100
AcDbEntity
  8
0
100
AcDbLine
 10
222.5848256020237
 20
420.5879643528827
 30
0.0
 11
222.5848256020237
 21
423.9692683613141
 31
0.0
  0
CIRCLE
  5
11B9
330
2
100
AcDbEntity
  8
0
100
AcDbCircle
 10
230.0848256020233
 20
409.0879643528826
 30
0.0
 40
1.6
  0
CIRCLE
  5
11BA
330
2
100
AcDbEntity
  8
0
100
AcDbCircle
 10
230.0848256020233
 20
409.0879643528826
 30
0.0
 40
2.5
  0
CIRCLE
  5
11BB
330
2
100
AcDbEntity
  8
0
100
AcDbCircle
 10
230.0848256020233
 20
409.0879643528826
 30
0.0
 40
3.0
  0
LINE
  5
11BC
330
2
100
AcDbEntity
  8
0
100
AcDbLine
 10
229.5848256020237
 20
413.5879643528826
 30
0.0
 11
232.9661296104552
 21
413.5879643528826
 31
0.0
  0
LINE
  5
11BD
330
2
100
AcDbEntity
  8
0
100
AcDbLine
 10
127.0848256020233
 20
418.0879643528845
 30
0.0
 11
150.0848256020242
 21
418.0879643528881
 31
0.0
  0
CIRCLE
  5
11BE
330
2
100
AcDbEntity
  8
0
100
AcDbCircle
 10
139.0848256020237
 20
413.5879643528845
 30
0.0
 40
3.0
  0
LINE
  5
11BF
330
2
100
AcDbEntity
  8
0
100
AcDbLine
 10
162.0848256020242
 20
427.0879643528827
 30
0.0
 11
159.0848256020242
 21
427.0879643528827
 31
0.0
  0
ARC
  5
11C0
330
2
100
AcDbEntity
  8
0
100
AcDbCircle
 10
162.0848256020242
 20
422.0879643528826
 30
0.0
 40
5.0
100
AcDbArc
 50
76.63232579736996
 51
90.0
  0
ARC
  5
11C1
330
2
100
AcDbEntity
  8
0
100
AcDbCircle
 10
159.0848256020242
 20
422.0879643528826
 30
0.0
 40
5.0
100
AcDbArc
 50
90.0
 51
180.0
  0
CIRCLE
  5
11C2
330
2
100
AcDbEntity
  8
0
100
AcDbCircle
 10
139.0848256020237
 20
413.5879643528845
 30
0.0
 40
1.6
  0
CIRCLE
  5
11C3
330
2
100
AcDbEntity
  8
0
100
AcDbCircle
 10
139.0848256020237
 20
413.5879643528845
 30
0.0
 40
2.5
  0
ARC
  5
11C4
330
2
100
AcDbEntity
  8
0
100
AcDbCircle
 10
127.0848256020242
 20
412.0879643528844
 30
0.0
 40
6.0
100
AcDbArc
 50
90.0
 51
180.0
  0
LINE
  5
11C5
330
2
100
AcDbEntity
  8
0
100
AcDbLine
 10
134.5848256020233
 20
411.5879643528844
 30
0.0
 11
134.5848256020233
 21
416.0879643528863
 31
0.0
  0
ARC
  5
11C6
330
2
100
AcDbEntity
  8
0
100
AcDbCircle
 10
176.0848256020278
 20
367.0879643528826
 30
0.0
 40
12.0
100
AcDbArc
 50
180.0
 51
270.0
  0
ARC
  5
11C7
330
2
100
AcDbEntity
  8
0
100
AcDbCircle
 10
176.0848256020278
 20
367.0879643528826
 30
0.0
 40
13.0
100
AcDbArc
 50
180.0
 51
270.0
  0
ARC
  5
11C8
330
2
100
AcDbEntity
  8
0
100
AcDbCircle
 10
172.8322948768693
 20
306.2702810108679
 30
0.0
 40
40.0
100
AcDbArc
 50
83.91726555027865
 51
103.1629662673899
  0
ARC
  5
11C9
330
2
100
AcDbEntity
  8
0
100
AcDbCircle
 10
214.0848256020242
 20
367.0879643528863
 30
0.0
 40
12.0
100
AcDbArc
 50
270.0
 51
0.0
  0
ARC
  5
11CA
330
2
100
AcDbEntity
  8
0
100
AcDbCircle
 10
214.0848256020242
 20
367.0879643528863
 30
0.0
 40
13.0
100
AcDbArc
 50
270.0
 51
0.0
  0
ARC
  5
11CB
330
2
100
AcDbEntity
  8
0
100
AcDbCircle
 10
229.5848256020237
 20
351.5879643528827
 30
0.0
 40
7.0
100
AcDbArc
 50
90.0
 51
180.0
  0
LINE
  5
11CC
330
2
100
AcDbEntity
  8
0
100
AcDbLine
 10
226.0848256020242
 20
367.0879643528863
 30
0.0
 11
226.0848256020242
 21
405.0879643528826
 31
0.0
  0
LINE
  5
11CD
330
2
100
AcDbEntity
  8
0
100
AcDbLine
 10
227.0848256020242
 20
367.0879643528863
 30
0.0
 11
227.0848256020242
 21
405.0879643528826
 31
0.0
  0
CIRCLE
  5
11CE
330
2
100
AcDbEntity
  8
0
100
AcDbCircle
 10
230.0848256020233
 20
363.0879643528826
 30
0.0
 40
3.0
  0
CIRCLE
  5
11CF
330
2
100
AcDbEntity
  8
0
100
AcDbCircle
 10
230.0848256020233
 20
363.0879643528826
 30
0.0
 40
1.6
  0
CIRCLE
  5
11D0
330
2
100
AcDbEntity
  8
0
100
AcDbCircle
 10
230.0848256020233
 20
363.0879643528826
 30
0.0
 40
2.5
  0
LINE
  5
11D1
330
2
100
AcDbEntity
  8
0
100
AcDbLine
 10
214.0848256020251
 20
355.0879643528863
 30
0.0
 11
176.0848256020292
 21
355.0879643528826
 31
0.0
  0
LINE
  5
11D2
330
2
100
AcDbEntity
  8
0
100
AcDbLine
 10
214.0848256020251
 20
354.0879643528863
 30
0.0
 11
176.0848256020292
 21
354.0879643528827
 31
0.0
  0
ARC
  5
11D3
330
2
100
AcDbEntity
  8
0
100
AcDbCircle
 10
195.0848256020242
 20
515.0879643528826
 30
0.0
 40
170.0
100
AcDbArc
 50
263.9172655502786
 51
276.1769964048646
  0
ARC
  5
11D4
330
2
100
AcDbEntity
  8
0
100
AcDbCircle
 10
217.6808690422133
 20
306.3071730409195
 30
0.0
 40
40.0
100
AcDbArc
 50
76.63232579736996
 51
96.17699640486467
  0
ARC
  5
11D5
330
2
100
AcDbEntity
  8
0
100
AcDbCircle
 10
220.5848256020237
 20
348.2066603444512
 30
0.0
 40
2.0
100
AcDbArc
 50
266.0353021397915
 51
0.0
  0
LINE
  5
11D6
330
2
100
AcDbEntity
  8
0
100
AcDbLine
 10
229.5848256020237
 20
358.5879643528826
 30
0.0
 11
232.9661296104552
 21
358.5879643528826
 31
0.0
  0
LINE
  5
11D7
330
2
100
AcDbEntity
  8
0
100
AcDbLine
 10
222.5848256020237
 20
351.5879643528827
 30
0.0
 11
222.5848256020237
 21
348.2066603444512
 31
0.0
  0
ARC
  5
11D8
330
2
100
AcDbEntity
  8
0
100
AcDbCircle
 10
228.0848256020238
 20
350.0879643528826
 30
0.0
 40
5.0
100
AcDbArc
 50
256.63232579737
 51
270.0
  0
LINE
  5
11D9
330
2
100
AcDbEntity
  8
0
100
AcDbLine
 10
231.0848256020237
 20
345.0879643528827
 30
0.0
 11
228.0848256020238
 21
345.0879643528827
 31
0.0
  0
CIRCLE
  5
11DA
330
2
100
AcDbEntity
  8
0
100
AcDbCircle
 10
139.0848256020237
 20
358.5879643528808
 30
0.0
 40
2.5
  0
CIRCLE
  5
11DB
330
2
100
AcDbEntity
  8
0
100
AcDbCircle
 10
139.0848256020237
 20
358.5879643528808
 30
0.0
 40
1.6
  0
CIRCLE
  5
11DC
330
2
100
AcDbEntity
  8
0
100
AcDbCircle
 10
139.0848256020237
 20
358.5879643528808
 30
0.0
 40
3.0
  0
LINE
  5
11DD
330
2
100
AcDbEntity
  8
0
100
AcDbLine
 10
134.5848256020233
 20
360.5879643528808
 30
0.0
 11
134.5848256020233
 21
356.087964352879
 31
0.0
  0
ARC
  5
11DE
330
2
100
AcDbEntity
  8
0
100
AcDbCircle
 10
127.0848256020242
 20
360.087964352879
 30
0.0
 40
6.0
100
AcDbArc
 50
180.0
 51
270.0
  0
LINE
  5
11DF
330
2
100
AcDbEntity
  8
0
100
AcDbLine
 10
164.0848256020242
 20
367.0879643528863
 30
0.0
 11
164.0848256020242
 21
405.087964352879
 31
0.0
  0
LINE
  5
11E0
330
2
100
AcDbEntity
  8
0
100
AcDbLine
 10
163.0848256020242
 20
367.0879643528863
 30
0.0
 11
163.0848256020242
 21
405.087964352879
 31
0.0
  0
LINE
  5
11E1
330
2
100
AcDbEntity
  8
0
100
AcDbLine
 10
127.5848256020233
 20
404.5879643528845
 30
0.0
 11
123.0848256020242
 21
404.5879643528845
 31
0.0
  0
ARC
  5
11E2
330
2
100
AcDbEntity
  8
0
100
AcDbCircle
 10
127.5848256020233
 20
360.5879643528808
 30
0.0
 40
7.0
100
AcDbArc
 50
0.0
 51
90.0
  0
LINE
  5
11E3
330
2
100
AcDbEntity
  8
0
100
AcDbLine
 10
127.5848256020233
 20
367.5879643528809
 30
0.0
 11
123.0848256020242
 21
367.5879643528809
 31
0.0
  0
LINE
  5
11E4
330
2
100
AcDbEntity
  8
0
100
AcDbLine
 10
127.0848256020233
 20
354.087964352879
 30
0.0
 11
150.0848256020242
 21
354.0879643528772
 31
0.0
  0
ARC
  5
11E5
330
2
100
AcDbEntity
  8
0
100
AcDbCircle
 10
159.0848256020242
 20
350.0879643528826
 30
0.0
 40
5.0
100
AcDbArc
 50
180.0
 51
270.0
  0
LINE
  5
11E6
330
2
100
AcDbEntity
  8
0
100
AcDbLine
 10
162.5848256020242
 20
345.0879643528827
 30
0.0
 11
159.0848256020242
 21
345.0879643528827
 31
0.0
  0
ARC
  5
11E7
330
2
100
AcDbEntity
  8
0
100
AcDbCircle
 10
162.5848256020242
 20
350.0879643528826
 30
0.0
 40
5.0
100
AcDbArc
 50
270.0
 51
283.1629662673898
  0
ARC
  5
11E8
330
2
100
AcDbEntity
  8
0
100
AcDbCircle
 10
150.0848256020242
 20
422.0879643528881
 30
0.0
 40
4.0
100
AcDbArc
 50
270.0
 51
0.0
  0
ARC
  5
11E9
330
2
100
AcDbEntity
  8
0
100
AcDbCircle
 10
150.0848256020242
 20
350.0879643528772
 30
0.0
 40
4.0
100
AcDbArc
 50
0.0
 51
90.0
  0
LINE
  5
11EA
330
2
100
AcDbEntity
  8
0
100
AcDbLine
 10
223.2772137574445
 20
414.2803525083075
 30
0.0
 11
222.5701069762583
 21
413.5732457271208
 31
0.0
  0
LINE
  5
11EB
330
2
100
AcDbEntity
  8
0
100
AcDbLine
 10
223.2772137574499
 20
357.8955761974615
 30
0.0
 11
222.5701069762633
 21
358.6026829786481
 31
0.0
  0
LINE
  5
11EC
330
2
100
AcDbEntity
  8
0
100
AcDbLine
 10
167.5995442277896
 20
358.6026829786427
 30
0.0
 11
166.8924374466034
 21
357.895576197456
 31
0.0
  0
LINE
  5
11ED
330
2
100
AcDbEntity
  8
0
100
AcDbLine
 10
167.5995442277851
 20
413.5732457271172
 30
0.0
 11
166.8924374465984
 21
414.2803525083039
 31
0.0
  0
LINE
  5
11EE
330
2
100
AcDbEntity
  8
CENTER
100
AcDbLine
 10
229.5848256020319
 20
342.8379643528881
 30
0.0
 11
229.5848256020287
 21
360.3379643528881
 31
0.0
  0
ARC
  5
11EF
330
2
100
AcDbEntity
  8
0
100
AcDbCircle
 10
136.5848256020233
 20
416.0879643528863
 30
0.0
 40
2.0
100
AcDbArc
 50
90.0
 51
180.0
  0
ARC
  5
11F0
330
2
100
AcDbEntity
  8
0
100
AcDbCircle
 10
123.0848256020242
 20
402.5879643528845
 30
0.0
 40
2.0
100
AcDbArc
 50
90.0
 51
180.0
  0
ARC
  5
11F1
330
2
100
AcDbEntity
  8
0
100
AcDbCircle
 10
123.0848256020242
 20
369.5879643528808
 30
0.0
 40
2.0
100
AcDbArc
 50
180.0
 51
270.0
  0
ARC
  5
11F2
330
2
100
AcDbEntity
  8
0
100
AcDbCircle
 10
136.5848256020233
 20
356.087964352879
 30
0.0
 40
2.0
100
AcDbArc
 50
180.0
 51
270.0
  0
LINE
  5
11F3
330
2
100
AcDbEntity
  8
CENTER
100
AcDbLine
 10
238.3348256020237
 20
420.5879643528827
 30
0.0
 11
220.8348256020237
 21
420.5879643528827
 31
0.0
  0
LINE
  5
11F4
330
2
100
AcDbEntity
  8
CENTER
100
AcDbLine
 10
229.5848256020319
 20
429.3379643528754
 30
0.0
 11
229.5848256020287
 21
411.8379643528753
 31
0.0
  0
CIRCLE
  5
11F5
330
2
100
AcDbEntity
  8
0
100
AcDbCircle
 10
127.5848256020233
 20
411.5879643528844
 30
0.0
 40
5.000000000000113
  0
CIRCLE
  5
11F6
330
2
100
AcDbEntity
  8
0
100
AcDbCircle
 10
127.5848256020233
 20
411.5879643528844
 30
0.0
 40
4.307179676972509
  0
LINE
  5
11F7
330
2
100
AcDbEntity
  8
0
100
AcDbLine
 10
130.0848256020233
 20
413.0313400258585
 30
0.0
 11
130.0848256020233
 21
410.1445886799104
 31
0.0
  0
LINE
  5
11F8
330
2
100
AcDbEntity
  8
0
100
AcDbLine
 10
127.5848256020233
 20
408.7012130069363
 30
0.0
 11
130.0848256020233
 21
410.1445886799104
 31
0.0
  0
LINE
  5
11F9
330
2
100
AcDbEntity
  8
0
100
AcDbLine
 10
130.0848256020233
 20
413.0313400258585
 30
0.0
 11
127.5848256020233
 21
414.4747156988326
 31
0.0
  0
LINE
  5
11FA
330
2
100
AcDbEntity
  8
0
100
AcDbLine
 10
125.0848256020233
 20
413.0313400258585
 30
0.0
 11
125.0848256020233
 21
410.1445886799104
 31
0.0
  0
LINE
  5
11FB
330
2
100
AcDbEntity
  8
0
100
AcDbLine
 10
127.5848256020233
 20
408.7012130069363
 30
0.0
 11
125.0848256020233
 21
410.1445886799104
 31
0.0
  0
LINE
  5
11FC
330
2
100
AcDbEntity
  8
0
100
AcDbLine
 10
125.0848256020233
 20
413.0313400258585
 30
0.0
 11
127.5848256020233
 21
414.4747156988326
 31
0.0
  0
CIRCLE
  5
11FD
330
2
100
AcDbEntity
  8
0
100
AcDbCircle
 10
127.5848256020233
 20
360.5879643528808
 30
0.0
 40
5.000000000000113
  0
CIRCLE
  5
11FE
330
2
100
AcDbEntity
  8
0
100
AcDbCircle
 10
127.5848256020233
 20
360.5879643528808
 30
0.0
 40
4.307179676972509
  0
LINE
  5
11FF
330
2
100
AcDbEntity
  8
0
100
AcDbLine
 10
130.0848256020233
 20
362.0313400258549
 30
0.0
 11
130.0848256020233
 21
359.1445886799068
 31
0.0
  0
LINE
  5
1200
330
2
100
AcDbEntity
  8
0
100
AcDbLine
 10
127.5848256020233
 20
357.7012130069327
 30
0.0
 11
130.0848256020233
 21
359.1445886799068
 31
0.0
  0
LINE
  5
1201
330
2
100
AcDbEntity
  8
0
100
AcDbLine
 10
130.0848256020233
 20
362.0313400258531
 30
0.0
 11
127.5848256020233
 21
363.474715698829
 31
0.0
  0
LINE
  5
1202
330
2
100
AcDbEntity
  8
0
100
AcDbLine
 10
125.0848256020233
 20
362.0313400258531
 30
0.0
 11
125.0848256020233
 21
359.1445886799068
 31
0.0
  0
LINE
  5
1203
330
2
100
AcDbEntity
  8
0
100
AcDbLine
 10
127.5848256020233
 20
357.7012130069327
 30
0.0
 11
125.0848256020233
 21
359.1445886799068
 31
0.0
  0
LINE
  5
1204
330
2
100
AcDbEntity
  8
0
100
AcDbLine
 10
125.0848256020233
 20
362.0313400258531
 30
0.0
 11
127.5848256020233
 21
363.4747156988272
 31
0.0
  0
CIRCLE
  5
1205
330
2
100
AcDbEntity
  8
0
100
AcDbCircle
 10
229.5848256020306
 20
420.5879643528827
 30
0.0
 40
5.000000000000113
  0
CIRCLE
  5
1206
330
2
100
AcDbEntity
  8
0
100
AcDbCircle
 10
229.5848256020306
 20
420.5879643528827
 30
0.0
 40
4.307179676972509
  0
LINE
  5
1207
330
2
100
AcDbEntity
  8
0
100
AcDbLine
 10
232.0848256020306
 20
422.0313400258567
 30
0.0
 11
232.0848256020306
 21
419.1445886799086
 31
0.0
  0
LINE
  5
1208
330
2
100
AcDbEntity
  8
0
100
AcDbLine
 10
229.5848256020301
 20
417.7012130069345
 30
0.0
 11
232.0848256020306
 21
419.1445886799086
 31
0.0
  0
LINE
  5
1209
330
2
100
AcDbEntity
  8
0
100
AcDbLine
 10
232.0848256020306
 20
422.0313400258567
 30
0.0
 11
229.5848256020306
 21
423.4747156988308
 31
0.0
  0
LINE
  5
120A
330
2
100
AcDbEntity
  8
0
100
AcDbLine
 10
227.0848256020306
 20
422.0313400258567
 30
0.0
 11
227.0848256020306
 21
419.1445886799086
 31
0.0
  0
LINE
  5
120B
330
2
100
AcDbEntity
  8
0
100
AcDbLine
 10
229.5848256020301
 20
417.7012130069345
 30
0.0
 11
227.0848256020306
 21
419.1445886799086
 31
0.0
  0
LINE
  5
120C
330
2
100
AcDbEntity
  8
0
100
AcDbLine
 10
227.0848256020306
 20
422.0313400258567
 30
0.0
 11
229.5848256020306
 21
423.4747156988308
 31
0.0
  0
CIRCLE
  5
120D
330
2
100
AcDbEntity
  8
0
100
AcDbCircle
 10
229.5848256020306
 20
351.5879643528827
 30
0.0
 40
5.000000000000113
  0
CIRCLE
  5
120E
330
2
100
AcDbEntity
  8
0
100
AcDbCircle
 10
229.5848256020306
 20
351.5879643528827
 30
0.0
 40
4.307179676972509
  0
LINE
  5
120F
330
2
100
AcDbEntity
  8
0
100
AcDbLine
 10
232.0848256020306
 20
353.0313400258567
 30
0.0
 11
232.0848256020306
 21
350.1445886799086
 31
0.0
  0
LINE
  5
1210
330
2
100
AcDbEntity
  8
0
100
AcDbLine
 10
229.5848256020301
 20
348.7012130069345
 30
0.0
 11
232.0848256020306
 21
350.1445886799086
 31
0.0
  0
LINE
  5
1211
330
2
100
AcDbEntity
  8
0
100
AcDbLine
 10
232.0848256020306
 20
353.0313400258567
 30
0.0
 11
229.5848256020306
 21
354.4747156988308
 31
0.0
  0
LINE
  5
1212
330
2
100
AcDbEntity
  8
0
100
AcDbLine
 10
227.0848256020306
 20
353.0313400258567
 30
0.0
 11
227.0848256020306
 21
350.1445886799086
 31
0.0
  0
LINE
  5
1213
330
2
100
AcDbEntity
  8
0
100
AcDbLine
 10
229.5848256020301
 20
348.7012130069345
 30
0.0
 11
227.0848256020306
 21
350.1445886799086
 31
0.0
  0
LINE
  5
1214
330
2
100
AcDbEntity
  8
0
100
AcDbLine
 10
227.0848256020306
 20
353.0313400258567
 30
0.0
 11
229.5848256020306
 21
354.4747156988308
 31
0.0
  0
LINE
  5
1215
330
2
100
AcDbEntity
  8
CENTER
100
AcDbLine
 10
418.60533305379
 20
101.1381782432948
 30
0.0
 11
418.60533305379
 21
202.7047437440081
 31
0.0
  0
LINE
  5
1216
330
2
100
AcDbEntity
  8
0
100
AcDbLine
 10
456.60533305379
 20
116.9200065485268
 30
0.0
 11
456.60533305379
 21
139.1114654898222
 31
0.0
  0
LINE
  5
1217
330
2
100
AcDbEntity
  8
0
100
AcDbLine
 10
456.60533305379
 20
164.7285476072295
 30
0.0
 11
456.60533305379
 21
186.9200065485268
 31
0.0
  0
LINE
  5
1218
330
2
100
AcDbEntity
  8
0
100
AcDbLine
 10
451.6053330537899
 20
111.4261648803906
 30
0.0
 11
451.6053330537899
 21
138.8177920751416
 31
0.0
  0
LINE
  5
1219
330
2
100
AcDbEntity
  8
0
100
AcDbLine
 10
451.6053330537899
 20
165.0222210219101
 30
0.0
 11
451.6053330537899
 21
192.4167571069131
 31
0.0
  0
LINE
  5
121A
330
2
100
AcDbEntity
  8
0
100
AcDbLine
 10
451.6053330537899
 20
186.9200065485268
 30
0.0
 11
456.60533305379
 21
186.9200065485268
 31
0.0
  0
LINE
  5
121B
330
2
100
AcDbEntity
  8
CENTER
100
AcDbLine
 10
359.60533305379
 20
151.9200065485268
 30
0.0
 11
492.6053330537899
 21
151.920006548525
 31
0.0
  0
LINE
  5
121C
330
2
100
AcDbEntity
  8
0
100
AcDbLine
 10
451.6053330537899
 20
116.9200065485268
 30
0.0
 11
456.60533305379
 21
116.9200065485268
 31
0.0
  0
LINE
  5
121D
330
2
100
AcDbEntity
  8
0
100
AcDbLine
 10
393.60533305379
 20
110.920006548525
 30
0.0
 11
451.6053330537899
 21
111.4261648803906
 31
0.0
  0
LINE
  5
121E
330
2
100
AcDbEntity
  8
0
100
AcDbLine
 10
393.60533305379
 20
192.922915438777
 30
0.0
 11
451.6053330537899
 21
192.4167571069131
 31
0.0
  0
LINE
  5
121F
330
2
100
AcDbEntity
  8
0
100
AcDbLine
 10
393.60533305379
 20
183.0167807420742
 30
0.0
 11
393.60533305379
 21
192.922915438777
 31
0.0
  0
ARC
  5
1220
330
2
100
AcDbEntity
  8
0
100
AcDbCircle
 10
458.6053330537899
 20
182.3053541015336
 30
0.0
 40
2.0
100
AcDbArc
 50
180.0
 51
267.9999999999963
  0
ARC
  5
1221
330
2
100
AcDbEntity
  8
0
100
AcDbCircle
 10
467.6053330537899
 20
177.9886289989111
 30
0.0
 40
2.0
100
AcDbArc
 50
0.0
 51
87.99999999999636
  0
ARC
  5
1222
330
2
100
AcDbEntity
  8
0
100
AcDbCircle
 10
458.6053330537899
 20
121.53465899552
 30
0.0
 40
2.0
100
AcDbArc
 50
92.00000000000365
 51
180.0
  0
ARC
  5
1223
330
2
100
AcDbEntity
  8
0
100
AcDbCircle
 10
467.6053330537899
 20
125.8513840981425
 30
0.0
 40
2.0
100
AcDbArc
 50
272.0000000000036
 51
0.0
  0
LINE
  5
1224
330
2
100
AcDbEntity
  8
0
100
AcDbLine
 10
467.6751320471951
 20
179.9874106529508
 30
0.0
 11
458.5355340603848
 21
180.3065724474957
 31
0.0
  0
LINE
  5
1225
330
2
100
AcDbEntity
  8
0
100
AcDbLine
 10
467.6751320471951
 20
123.8526024441046
 30
0.0
 11
458.5355340603848
 21
123.5334406495579
 31
0.0
  0
LINE
  5
1226
330
2
100
AcDbEntity
  8
0
100
AcDbLine
 10
469.6053330537917
 20
125.8513840981425
 30
0.0
 11
469.60533305379
 21
137.4199605485258
 31
0.0
  0
LINE
  5
1227
330
2
100
AcDbEntity
  8
0
100
AcDbLine
 10
469.60533305379
 20
166.4199605485258
 30
0.0
 11
469.60533305379
 21
177.9886289989111
 31
0.0
  0
LINE
  5
1228
330
2
100
AcDbEntity
  8
0
100
AcDbLine
 10
393.60533305379
 20
115.920006548525
 30
0.0
 11
450.6053330537899
 21
115.920006548525
 31
0.0
  0
LINE
  5
1229
330
2
100
AcDbEntity
  8
0
100
AcDbLine
 10
393.60533305379
 20
118.920006548525
 30
0.0
 11
450.6053330537899
 21
118.920006548525
 31
0.0
  0
LINE
  5
122A
330
2
100
AcDbEntity
  8
0
100
AcDbLine
 10
393.60533305379
 20
133.6279713826564
 30
0.0
 11
450.6053330537899
 21
133.6279713826564
 31
0.0
  0
LINE
  5
122B
330
2
100
AcDbEntity
  8
0
100
AcDbLine
 10
393.60533305379
 20
187.9200065485268
 30
0.0
 11
450.6053330537899
 21
187.9200065485268
 31
0.0
  0
LINE
  5
122C
330
2
100
AcDbEntity
  8
0
100
AcDbLine
 10
393.60533305379
 20
184.9200065485268
 30
0.0
 11
450.6053330537899
 21
184.9200065485268
 31
0.0
  0
LINE
  5
122D
330
2
100
AcDbEntity
  8
0
100
AcDbLine
 10
393.60533305379
 20
170.2120417143954
 30
0.0
 11
450.6053330537899
 21
170.2120417143954
 31
0.0
  0
LINE
  5
122E
330
2
100
AcDbEntity
  8
0
100
AcDbLine
 10
376.3053330537907
 20
125.420006548525
 30
0.0
 11
379.6053330537899
 21
125.4200065485268
 31
0.0
  0
LINE
  5
122F
330
2
100
AcDbEntity
  8
0
100
AcDbLine
 10
372.6053330537863
 20
128.9200065485268
 30
0.0
 11
380.6053330537863
 21
128.9200065485268
 31
0.0
  0
LINE
  5
1230
330
2
100
AcDbEntity
  8
HIDS
100
AcDbLine
 10
380.8124398349712
 20
120.2128997673383
 30
0.0
 11
380.3982262725996
 21
120.6271133297098
 31
0.0
  0
LINE
  5
1231
330
2
100
AcDbEntity
  8
0
100
AcDbLine
 10
379.6053330537881
 20
123.4200065485286
 30
0.0
 11
380.1053330537918
 21
122.9200065485268
 31
0.0
  0
LINE
  5
1232
330
2
100
AcDbEntity
  8
0
100
AcDbLine
 10
372.6053330537899
 20
125.420006548525
 30
0.0
 11
371.6053330537899
 21
125.997356817715
 31
0.0
  0
LINE
  5
1233
330
2
100
AcDbEntity
  8
0
100
AcDbLine
 10
374.3053330537907
 20
126.1200065485257
 30
0.0
 11
375.9053330537911
 21
126.1200065485257
 31
0.0
  0
LINE
  5
1234
330
2
100
AcDbEntity
  8
0
100
AcDbLine
 10
376.10533305379
 20
125.6200065485257
 30
0.0
 11
376.3053330537907
 21
125.420006548525
 31
0.0
  0
LINE
  5
1235
330
2
100
AcDbEntity
  8
0
100
AcDbLine
 10
374.10533305379
 20
125.6200065485257
 30
0.0
 11
374.10533305379
 21
127.7334761934883
 31
0.0
  0
LINE
  5
1236
330
2
100
AcDbEntity
  8
0
100
AcDbLine
 10
374.10533305379
 20
176.1065369035653
 30
0.0
 11
374.10533305379
 21
178.2200065485261
 31
0.0
  0
LINE
  5
1237
330
2
100
AcDbEntity
  8
0
100
AcDbLine
 10
372.6053330537899
 20
125.420006548525
 30
0.0
 11
373.9053330537911
 21
125.420006548525
 31
0.0
  0
LINE
  5
1238
330
2
100
AcDbEntity
  8
0
100
AcDbLine
 10
372.6053330537863
 20
128.9200065485268
 30
0.0
 11
371.6053330537863
 21
128.3426562793368
 31
0.0
  0
LINE
  5
1239
330
2
100
AcDbEntity
  8
0
100
AcDbLine
 10
376.3053330537889
 20
178.4200065485268
 30
0.0
 11
379.6053330537881
 21
178.4200065485268
 31
0.0
  0
LINE
  5
123A
330
2
100
AcDbEntity
  8
0
100
AcDbLine
 10
372.6053330537863
 20
174.920006548525
 30
0.0
 11
380.6053330537863
 21
174.9200065485268
 31
0.0
  0
LINE
  5
123B
330
2
100
AcDbEntity
  8
0
100
AcDbLine
 10
379.6053330537881
 20
180.4200065485268
 30
0.0
 11
379.6053330537881
 21
175.9830700022351
 31
0.0
  0
LINE
  5
123C
330
2
100
AcDbEntity
  8
0
100
AcDbLine
 10
379.6053330537881
 20
127.8569430948166
 30
0.0
 11
379.6053330537881
 21
123.4200065485286
 31
0.0
  0
LINE
  5
123D
330
2
100
AcDbEntity
  8
0
100
AcDbLine
 10
379.6053330537845
 20
178.4200065485268
 30
0.0
 11
379.6053330537845
 21
180.4200065485213
 31
0.0
  0
LINE
  5
123E
330
2
100
AcDbEntity
  8
0
100
AcDbLine
 10
380.6053330537863
 20
128.537843195588
 30
0.0
 11
380.6053330537863
 21
137.4199605485258
 31
0.0
  0
LINE
  5
123F
330
2
100
AcDbEntity
  8
0
100
AcDbLine
 10
380.6053330537863
 20
166.4199605485258
 30
0.0
 11
380.6053330537863
 21
175.3021699014655
 31
0.0
  0
LINE
  5
1240
330
2
100
AcDbEntity
  8
0
100
AcDbLine
 10
380.6053330537863
 20
175.3021699014655
 30
0.0
 11
381.1820841119835
 21
175.3172726594396
 31
0.0
  0
LINE
  5
1241
330
2
100
AcDbEntity
  8
0
100
AcDbLine
 10
381.1053330537854
 20
112.0204036065054
 30
0.0
 11
381.1053330537854
 21
112.4200065485268
 31
0.0
  0
LINE
  5
1242
330
2
100
AcDbEntity
  8
HIDS
100
AcDbLine
 10
381.1053330537845
 20
112.4200065485268
 30
0.0
 11
381.1053330537854
 21
122.4200065485268
 31
0.0
  0
LINE
  5
1243
330
2
100
AcDbEntity
  8
0
100
AcDbLine
 10
381.1053330537854
 20
122.4200065485268
 30
0.0
 11
381.1053330537854
 21
128.4686193540413
 31
0.0
  0
LINE
  5
1244
330
2
100
AcDbEntity
  8
0
100
AcDbLine
 10
381.1053330537854
 20
175.3713937430105
 30
0.0
 11
381.1053330537854
 21
181.4200065485268
 31
0.0
  0
LINE
  5
1245
330
2
100
AcDbEntity
  8
HIDS
100
AcDbLine
 10
381.1053330537854
 20
181.4200065485268
 30
0.0
 11
381.1053330537854
 21
191.4200065485268
 31
0.0
  0
LINE
  5
1246
330
2
100
AcDbEntity
  8
0
100
AcDbLine
 10
381.1053330537863
 20
191.4200065485268
 30
0.0
 11
381.1053330537863
 21
191.8196094905463
 31
0.0
  0
ARC
  5
1247
330
2
100
AcDbEntity
  8
0
100
AcDbCircle
 10
382.1053330537854
 20
112.0204036065054
 30
0.0
 40
1.0
100
AcDbArc
 50
180.0
 51
269.5000000000084
  0
LINE
  5
1248
330
2
100
AcDbEntity
  8
0
100
AcDbLine
 10
379.6053330537881
 20
180.4200065485268
 30
0.0
 11
380.1053330537881
 21
180.9200065485268
 31
0.0
  0
LINE
  5
1249
330
2
100
AcDbEntity
  8
HIDS
100
AcDbLine
 10
380.8124398349712
 20
183.6271133297135
 30
0.0
 11
380.3982262725978
 21
183.2128997673401
 31
0.0
  0
LINE
  5
124A
330
2
100
AcDbEntity
  8
HIDS
100
AcDbLine
 10
380.1053330537836
 20
121.3342201108965
 30
0.0
 11
380.1053330537845
 21
122.4200065485268
 31
0.0
  0
LINE
  5
124B
330
2
100
AcDbEntity
  8
0
100
AcDbLine
 10
380.1053330537836
 20
122.4200065485268
 30
0.0
 11
380.1053330537836
 21
127.9750658556634
 31
0.0
  0
LINE
  5
124C
330
2
100
AcDbEntity
  8
0
100
AcDbLine
 10
380.1053330537836
 20
175.8649472413883
 30
0.0
 11
380.1053330537836
 21
181.4200065485268
 31
0.0
  0
LINE
  5
124D
330
2
100
AcDbEntity
  8
HIDS
100
AcDbLine
 10
380.1053330537836
 20
181.4200065485268
 30
0.0
 11
380.1053330537836
 21
182.5057929861534
 31
0.0
  0
LINE
  5
124E
330
2
100
AcDbEntity
  8
0
100
AcDbLine
 10
371.6053330537863
 20
125.9973568177168
 30
0.0
 11
371.6053330537863
 21
137.4199605485258
 31
0.0
  0
LINE
  5
124F
330
2
100
AcDbEntity
  8
0
100
AcDbLine
 10
371.6053330537863
 20
166.4199605485258
 30
0.0
 11
371.6053330537863
 21
177.842656279335
 31
0.0
  0
LINE
  5
1250
330
2
100
AcDbEntity
  8
0
100
AcDbLine
 10
372.6053330537863
 20
128.9200065485268
 30
0.0
 11
372.6053330537863
 21
137.4199605485258
 31
0.0
  0
LINE
  5
1251
330
2
100
AcDbEntity
  8
0
100
AcDbLine
 10
372.6053330537863
 20
166.4199605485258
 30
0.0
 11
372.6053330537863
 21
174.920006548525
 31
0.0
  0
LINE
  5
1252
330
2
100
AcDbEntity
  8
0
100
AcDbLine
 10
372.6053330537881
 20
178.4200065485268
 30
0.0
 11
373.9053330537892
 21
178.4200065485268
 31
0.0
  0
LINE
  5
1253
330
2
100
AcDbEntity
  8
0
100
AcDbLine
 10
376.1053330537881
 20
178.2200065485261
 30
0.0
 11
376.3053330537889
 21
178.4200065485268
 31
0.0
  0
LINE
  5
1254
330
2
100
AcDbEntity
  8
0
100
AcDbLine
 10
376.1053330537881
 20
178.2200065485261
 30
0.0
 11
376.1053330537863
 21
175.9092159818222
 31
0.0
  0
LINE
  5
1255
330
2
100
AcDbEntity
  8
0
100
AcDbLine
 10
376.1053330537508
 20
127.9307971152314
 30
0.0
 11
376.105333053749
 21
125.6200065485675
 31
0.0
  0
LINE
  5
1256
330
2
100
AcDbEntity
  8
0
100
AcDbLine
 10
374.3053330537889
 20
177.7200065485261
 30
0.0
 11
375.9053330537892
 21
177.7200065485261
 31
0.0
  0
LINE
  5
1257
330
2
100
AcDbEntity
  8
0
100
AcDbLine
 10
372.6053330537881
 20
178.4200065485268
 30
0.0
 11
371.6053330537882
 21
177.8426562793368
 31
0.0
  0
LINE
  5
1258
330
2
100
AcDbEntity
  8
0
100
AcDbLine
 10
372.6053330537863
 20
174.9200065485268
 30
0.0
 11
371.6053330537863
 21
175.497356817715
 31
0.0
  0
LINE
  5
1259
330
2
100
AcDbEntity
  8
0
100
AcDbLine
 10
393.6053330537881
 20
192.9200065485268
 30
0.0
 11
393.60533305379
 21
165.7191203073519
 31
0.0
  0
LINE
  5
125A
330
2
100
AcDbEntity
  8
0
100
AcDbLine
 10
393.6053330537909
 20
138.1208927897017
 30
0.0
 11
393.6053330537927
 21
110.9200065485268
 31
0.0
  0
LINE
  5
125B
330
2
100
AcDbEntity
  8
0
100
AcDbLine
 10
393.6053330537927
 20
110.9200065485268
 30
0.0
 11
382.0966065182867
 21
111.0204416834415
 31
0.0
  0
LINE
  5
125C
330
2
100
AcDbEntity
  8
0
100
AcDbLine
 10
380.6053330537863
 20
128.537843195588
 30
0.0
 11
381.182084111818
 21
128.5227404376176
 31
0.0
  0
ARC
  5
125D
330
2
100
AcDbEntity
  8
HIDS
100
AcDbCircle
 10
381.1053330537863
 20
121.3342201108965
 30
0.0
 40
1.0
100
AcDbArc
 50
180.0
 51
225.0000000000187
  0
ARC
  5
125E
330
2
100
AcDbEntity
  8
HIDS
100
AcDbCircle
 10
380.1053330537863
 20
119.5057929861516
 30
0.0
 40
1.0
100
AcDbArc
 50
0.0
 51
45.00000000001871
  0
ARC
  5
125F
330
2
100
AcDbEntity
  8
HIDS
100
AcDbCircle
 10
381.1053330537836
 20
182.5057929861534
 30
0.0
 40
1.0
100
AcDbArc
 50
134.9999999999812
 51
180.0
  0
ARC
  5
1260
330
2
100
AcDbEntity
  8
HIDS
100
AcDbCircle
 10
380.1053330537863
 20
184.3342201109019
 30
0.0
 40
1.0
100
AcDbArc
 50
314.9999999999812
 51
0.0
  0
ARC
  5
1261
330
2
100
AcDbEntity
  8
0
100
AcDbCircle
 10
373.9053330537892
 20
178.2200065485261
 30
0.0
 40
0.2
100
AcDbArc
 50
0.0
 51
90.0
  0
ARC
  5
1262
330
2
100
AcDbEntity
  8
0
100
AcDbCircle
 10
374.3053330537889
 20
177.9200065485268
 30
0.0
 40
0.2
100
AcDbArc
 50
180.0
 51
270.0
  0
ARC
  5
1263
330
2
100
AcDbEntity
  8
0
100
AcDbCircle
 10
375.9053330537892
 20
177.9200065485268
 30
0.0
 40
0.2
100
AcDbArc
 50
270.0
 51
0.0
  0
ARC
  5
1264
330
2
100
AcDbEntity
  8
0
100
AcDbCircle
 10
373.9053330537911
 20
125.6200065485257
 30
0.0
 40
0.2
100
AcDbArc
 50
270.0
 51
0.0
  0
ARC
  5
1265
330
2
100
AcDbEntity
  8
0
100
AcDbCircle
 10
374.3053330537907
 20
125.920006548525
 30
0.0
 40
0.2
100
AcDbArc
 50
90.0
 51
180.0
  0
ARC
  5
1266
330
2
100
AcDbEntity
  8
0
100
AcDbCircle
 10
375.9053330537911
 20
125.920006548525
 30
0.0
 40
0.2
100
AcDbArc
 50
0.0
 51
90.0
  0
LINE
  5
1267
330
2
100
AcDbEntity
  8
0
100
AcDbLine
 10
372.6053330537899
 20
125.420006548525
 30
0.0
 11
372.6053330537899
 21
127.3314774735566
 31
0.0
  0
LINE
  5
1268
330
2
100
AcDbEntity
  8
0
100
AcDbLine
 10
372.6053330537881
 20
176.508535623497
 30
0.0
 11
372.6053330537881
 21
178.4200065485268
 31
0.0
  0
LINE
  5
1269
330
2
100
AcDbEntity
  8
0
100
AcDbLine
 10
376.3053330537889
 20
178.4200065485268
 30
0.0
 11
376.3053330537889
 21
175.9155234183538
 31
0.0
  0
LINE
  5
126A
330
2
100
AcDbEntity
  8
0
100
AcDbLine
 10
376.3053330537907
 20
127.9244896786997
 30
0.0
 11
376.3053330537907
 21
125.420006548525
 31
0.0
  0
LINE
  5
126B
330
2
100
AcDbEntity
  8
0
100
AcDbLine
 10
393.6053330537918
 20
115.9200065485268
 30
0.0
 11
387.0966065182858
 21
115.9200065485268
 31
0.0
  0
LINE
  5
126C
330
2
100
AcDbEntity
  8
0
100
AcDbLine
 10
393.6053330537918
 20
118.9200065485268
 30
0.0
 11
387.0966065182858
 21
118.9200065485268
 31
0.0
  0
LINE
  5
126D
330
2
100
AcDbEntity
  8
0
100
AcDbLine
 10
393.60533305379
 20
184.9200065485268
 30
0.0
 11
387.0966065182885
 21
184.9200065485268
 31
0.0
  0
LINE
  5
126E
330
2
100
AcDbEntity
  8
0
100
AcDbLine
 10
393.6053330537881
 20
187.9200065485268
 30
0.0
 11
387.0966065182858
 21
187.9200065485268
 31
0.0
  0
LINE
  5
126F
330
2
100
AcDbEntity
  8
0
100
AcDbLine
 10
393.60533305379
 20
170.2120417143954
 30
0.0
 11
383.460494897906
 21
170.2120417143954
 31
0.0
  0
LINE
  5
1270
330
2
100
AcDbEntity
  8
0
100
AcDbLine
 10
393.6053330537918
 20
133.6279713826582
 30
0.0
 11
383.4283281296823
 21
133.6279713826582
 31
0.0
  0
LINE
  5
1271
330
2
100
AcDbEntity
  8
0
100
AcDbLine
 10
382.0966065182867
 20
124.4549901750118
 30
0.0
 11
385.6096963215334
 21
124.4243319047612
 31
0.0
  0
LINE
  5
1272
330
2
100
AcDbEntity
  8
0
100
AcDbLine
 10
386.1053330537845
 20
123.9243509432283
 30
0.0
 11
386.1053330537845
 21
111.9767692675516
 31
0.0
  0
ARC
  5
1273
330
2
100
AcDbEntity
  8
0
100
AcDbCircle
 10
382.1053330537845
 20
125.4549520980793
 30
0.0
 40
1.0
100
AcDbArc
 50
180.0
 51
269.5000000000345
  0
ARC
  5
1274
330
2
100
AcDbEntity
  8
0
100
AcDbCircle
 10
385.6053330537845
 20
123.9243509432301
 30
0.0
 40
0.5
100
AcDbArc
 50
0.0
 51
89.5000000000345
  0
ARC
  5
1275
330
2
100
AcDbEntity
  8
0
100
AcDbCircle
 10
387.1053330537845
 20
111.9767692675516
 30
0.0
 40
1.0
100
AcDbArc
 50
180.0
 51
269.5000000000084
  0
ARC
  5
1276
330
2
100
AcDbEntity
  8
0
100
AcDbCircle
 10
382.1053330537854
 20
191.8196094905463
 30
0.0
 40
1.0
100
AcDbArc
 50
90.49999999999155
 51
180.0
  0
LINE
  5
1277
330
2
100
AcDbEntity
  8
0
100
AcDbLine
 10
393.6053330537881
 20
192.9200065485268
 30
0.0
 11
382.0966065182867
 21
192.8195714136102
 31
0.0
  0
LINE
  5
1278
330
2
100
AcDbEntity
  8
0
100
AcDbLine
 10
382.0966065182867
 20
179.3850229220418
 30
0.0
 11
385.6096963215334
 21
179.4156811922906
 31
0.0
  0
LINE
  5
1279
330
2
100
AcDbEntity
  8
0
100
AcDbLine
 10
386.1053330537845
 20
179.9156621538234
 30
0.0
 11
386.1053330537845
 21
191.8632438295001
 31
0.0
  0
ARC
  5
127A
330
2
100
AcDbEntity
  8
0
100
AcDbCircle
 10
382.1053330537845
 20
178.3850609989725
 30
0.0
 40
1.0
100
AcDbArc
 50
90.49999999996549
 51
180.0
  0
ARC
  5
127B
330
2
100
AcDbEntity
  8
0
100
AcDbCircle
 10
385.6053330537845
 20
179.9156621538234
 30
0.0
 40
0.5
100
AcDbArc
 50
270.4999999999654
 51
0.0
  0
ARC
  5
127C
330
2
100
AcDbEntity
  8
0
100
AcDbCircle
 10
387.1053330537845
 20
191.8632438295001
 30
0.0
 40
1.0
100
AcDbArc
 50
90.49999999999155
 51
180.0
  0
LINE
  5
127D
330
2
100
AcDbEntity
  8
0
100
AcDbLine
 10
379.0053330537841
 20
181.4200065485268
 30
0.0
 11
378.6053330537845
 21
182.1128268715541
 31
0.0
  0
LINE
  5
127E
330
2
100
AcDbEntity
  8
0
100
AcDbLine
 10
384.6053330537845
 20
181.4200065485268
 30
0.0
 11
384.6053330537845
 21
191.4200065485268
 31
0.0
  0
LINE
  5
127F
330
2
100
AcDbEntity
  8
0
100
AcDbLine
 10
379.0053330537841
 20
181.4200065485268
 30
0.0
 11
379.0053330537841
 21
191.4200065485268
 31
0.0
  0
LINE
  5
1280
330
2
100
AcDbEntity
  8
0
100
AcDbLine
 10
386.1053330537845
 20
181.4200065485268
 30
0.0
 11
379.0053330537841
 21
181.4200065485268
 31
0.0
  0
LINE
  5
1281
330
2
100
AcDbEntity
  8
0
100
AcDbLine
 10
386.1053330537845
 20
191.4200065485268
 30
0.0
 11
379.0053330537841
 21
191.4200065485268
 31
0.0
  0
LINE
  5
1282
330
2
100
AcDbEntity
  8
0
100
AcDbLine
 10
379.0053330537841
 20
191.4200065485268
 30
0.0
 11
378.6053330537845
 21
190.7271862254995
 31
0.0
  0
LINE
  5
1283
330
2
100
AcDbEntity
  8
0
100
AcDbLine
 10
378.6053330537845
 20
182.1128268715541
 30
0.0
 11
378.6053330537845
 21
190.7271862254995
 31
0.0
  0
LINE
  5
1284
330
2
100
AcDbEntity
  8
0
100
AcDbLine
 10
386.1053330537845
 20
191.4200065485268
 30
0.0
 11
386.1053330537845
 21
181.4200065485268
 31
0.0
  0
LINE
  5
1285
330
2
100
AcDbEntity
  8
0
100
AcDbLine
 10
379.0053330537841
 20
122.4200065485268
 30
0.0
 11
378.6053330537845
 21
121.7271862254995
 31
0.0
  0
LINE
  5
1286
330
2
100
AcDbEntity
  8
0
100
AcDbLine
 10
384.6053330537845
 20
122.4200065485268
 30
0.0
 11
384.6053330537845
 21
112.4200065485268
 31
0.0
  0
LINE
  5
1287
330
2
100
AcDbEntity
  8
0
100
AcDbLine
 10
379.0053330537841
 20
122.4200065485268
 30
0.0
 11
379.0053330537841
 21
112.4200065485268
 31
0.0
  0
LINE
  5
1288
330
2
100
AcDbEntity
  8
0
100
AcDbLine
 10
386.1053330537845
 20
122.4200065485268
 30
0.0
 11
379.0053330537841
 21
122.4200065485268
 31
0.0
  0
LINE
  5
1289
330
2
100
AcDbEntity
  8
0
100
AcDbLine
 10
386.1053330537845
 20
112.4200065485268
 30
0.0
 11
379.0053330537841
 21
112.4200065485268
 31
0.0
  0
LINE
  5
128A
330
2
100
AcDbEntity
  8
0
100
AcDbLine
 10
379.0053330537841
 20
112.4200065485268
 30
0.0
 11
378.6053330537845
 21
113.112826871554
 31
0.0
  0
LINE
  5
128B
330
2
100
AcDbEntity
  8
0
100
AcDbLine
 10
378.6053330537845
 20
121.7271862254995
 30
0.0
 11
378.6053330537845
 21
113.112826871554
 31
0.0
  0
LINE
  5
128C
330
2
100
AcDbEntity
  8
CENTER
  6
CENS
100
AcDbLine
 10
374.0266651436879
 20
186.4200065485268
 30
0.0
 11
398.5895188200695
 21
186.4200065485268
 31
0.0
  0
LINE
  5
128D
330
2
100
AcDbEntity
  8
CENTER
  6
CENS
100
AcDbLine
 10
374.0266651436879
 20
117.4200065485268
 30
0.0
 11
398.5895188200695
 21
117.4200065485268
 31
0.0
  0
LINE
  5
128E
330
2
100
AcDbEntity
  8
0
100
AcDbLine
 10
482.60533305379
 20
166.417052977534
 30
0.0
 11
482.60533305379
 21
137.4199605485258
 31
0.0
  0
LINE
  5
128F
330
2
100
AcDbEntity
  8
CENTER
  6
CENS
100
AcDbLine
 10
474.60533305379
 20
155.8693495231576
 30
0.0
 11
474.60533305379
 21
172.6882581495841
 31
0.0
  0
LINE
  5
1290
330
2
100
AcDbEntity
  8
0
100
AcDbLine
 10
369.60533305379
 20
166.4199605485258
 30
0.0
 11
369.60533305379
 21
137.4199605485258
 31
0.0
  0
LINE
  5
1291
330
2
100
AcDbEntity
  8
0
100
AcDbLine
 10
384.5355595073408
 20
137.4199605485258
 30
0.0
 11
369.60533305379
 21
137.4199605485258
 31
0.0
  0
LINE
  5
1292
330
2
100
AcDbEntity
  8
0
 48
0.5
100
AcDbLine
 10
458.7445790125031
 20
137.4199605485258
 30
0.0
 11
482.60533305379
 21
137.4199605485258
 31
0.0
  0
LINE
  5
1293
330
2
100
AcDbEntity
  8
0
 48
0.5
100
AcDbLine
 10
369.6053415078306
 20
163.7199605485269
 30
0.0
 11
482.60533305379
 21
163.7199605485269
 31
0.0
  0
LINE
  5
1294
330
2
100
AcDbEntity
  8
0
 48
0.5
100
AcDbLine
 10
392.6053415078306
 20
161.417052977534
 30
0.0
 11
455.6053330537899
 21
161.417052977534
 31
0.0
  0
LINE
  5
1295
330
2
100
AcDbEntity
  8
0
 48
0.5
100
AcDbLine
 10
371.6053415078306
 20
160.9170529775322
 30
0.0
 11
371.6053415078306
 21
142.917052977534
 31
0.0
  0
LINE
  5
1296
330
2
100
AcDbEntity
  8
0
 48
0.5
100
AcDbLine
 10
381.6053415078306
 20
161.417052977534
 30
0.0
 11
381.6053415078306
 21
142.417052977534
 31
0.0
  0
LINE
  5
1297
330
2
100
AcDbEntity
  8
0
 48
0.5
100
AcDbLine
 10
380.455341507831
 20
161.417052977534
 30
0.0
 11
380.455341507831
 21
142.417052977534
 31
0.0
  0
LINE
  5
1298
330
2
100
AcDbEntity
  8
0
 48
0.5
100
AcDbLine
 10
381.6053415078306
 20
142.917052977534
 30
0.0
 11
392.6053415078306
 21
142.917052977534
 31
0.0
  0
LINE
  5
1299
330
2
100
AcDbEntity
  8
0
 48
0.5
100
AcDbLine
 10
371.6053415078306
 20
142.917052977534
 30
0.0
 11
380.455341507831
 21
142.917052977534
 31
0.0
  0
LINE
  5
129A
330
2
100
AcDbEntity
  8
0
 48
0.5
100
AcDbLine
 10
371.6053415078306
 20
142.917052977534
 30
0.0
 11
369.6053415078306
 21
141.762352439154
 31
0.0
  0
LINE
  5
129B
330
2
100
AcDbEntity
  8
0
 48
0.5
100
AcDbLine
 10
380.455341507831
 20
142.417052977534
 30
0.0
 11
381.6053415078306
 21
142.417052977534
 31
0.0
  0
LINE
  5
129C
330
2
100
AcDbEntity
  8
0
 48
0.5
100
AcDbLine
 10
381.6053415078306
 20
160.917052977534
 30
0.0
 11
392.6053415078306
 21
160.9170529775322
 31
0.0
  0
LINE
  5
129D
330
2
100
AcDbEntity
  8
0
 48
0.5
100
AcDbLine
 10
380.455341507831
 20
161.417052977534
 30
0.0
 11
381.6053415078306
 21
161.417052977534
 31
0.0
  0
LINE
  5
129E
330
2
100
AcDbEntity
  8
0
 48
0.5
100
AcDbLine
 10
371.6053415078306
 20
160.9170529775322
 30
0.0
 11
380.455341507831
 21
160.9170529775322
 31
0.0
  0
LINE
  5
129F
330
2
100
AcDbEntity
  8
0
 48
0.5
100
AcDbLine
 10
369.60533305379
 20
162.0746610869058
 30
0.0
 11
371.6053330537899
 21
160.9199605485258
 31
0.0
  0
LINE
  5
12A0
330
2
100
AcDbEntity
  8
0
 48
0.5
100
AcDbLine
 10
371.6053415078306
 20
160.9170529775322
 30
0.0
 11
369.6053415078306
 21
162.0717535159122
 31
0.0
  0
LINE
  5
12A1
330
2
100
AcDbEntity
  8
0
 48
0.5
100
AcDbLine
 10
392.6053415078306
 20
161.417052977534
 30
0.0
 11
392.6053415078306
 21
142.4229601195195
 31
0.0
  0
LINE
  5
12A2
330
2
100
AcDbEntity
  8
0
100
AcDbLine
 10
384.5356150902073
 20
166.4199605485258
 30
0.0
 11
369.60533305379
 21
166.4199605485258
 31
0.0
  0
LINE
  5
12A3
330
2
100
AcDbEntity
  8
0
 48
0.5
100
AcDbLine
 10
458.7445394396065
 20
166.4199605485258
 30
0.0
 11
482.60533305379
 21
166.4199605485258
 31
0.0
  0
LINE
  5
12A4
330
2
100
AcDbEntity
  8
0
 48
0.5
100
AcDbLine
 10
471.6053330537899
 20
161.4199605485258
 30
0.0
 11
477.60533305379
 21
161.4199605485258
 31
0.0
  0
LINE
  5
12A5
330
2
100
AcDbEntity
  8
0
 48
0.5
100
AcDbLine
 10
471.6053330537899
 20
142.4199605485258
 30
0.0
 11
477.60533305379
 21
142.4199605485258
 31
0.0
  0
LINE
  5
12A6
330
2
100
AcDbEntity
  8
0
 48
0.5
100
AcDbLine
 10
465.60533305379
 20
161.4199605485258
 30
0.0
 11
465.60533305379
 21
142.4199605485258
 31
0.0
  0
LINE
  5
12A7
330
2
100
AcDbEntity
  8
0
 48
0.5
100
AcDbLine
 10
466.7553330537896
 20
161.4199605485258
 30
0.0
 11
466.7553330537896
 21
142.4199605485258
 31
0.0
  0
LINE
  5
12A8
330
2
100
AcDbEntity
  8
0
 48
0.5
100
AcDbLine
 10
471.6053330537899
 20
142.4199605485258
 30
0.0
 11
471.6053330537899
 21
161.4199605485258
 31
0.0
  0
LINE
  5
12A9
330
2
100
AcDbEntity
  8
0
100
AcDbLine
 10
455.6053330537899
 20
161.417052977534
 30
0.0
 11
455.6053330537899
 21
142.4165589259403
 31
0.0
  0
LINE
  5
12AA
330
2
100
AcDbEntity
  8
0
 48
0.5
100
AcDbLine
 10
455.6053330537899
 20
142.9199605485258
 30
0.0
 11
465.60533305379
 21
142.9199605485258
 31
0.0
  0
LINE
  5
12AB
330
2
100
AcDbEntity
  8
0
100
AcDbLine
 10
455.6053330537899
 20
142.4165589259403
 30
0.0
 11
453.033732311994
 21
142.4165589259403
 31
0.0
  0
LINE
  5
12AC
330
2
100
AcDbEntity
  8
0
 48
0.5
100
AcDbLine
 10
466.7553330537896
 20
142.9199605485258
 30
0.0
 11
471.6053330537899
 21
142.9199605485258
 31
0.0
  0
LINE
  5
12AD
330
2
100
AcDbEntity
  8
0
 48
0.5
100
AcDbLine
 10
466.7553330537896
 20
142.4199605485258
 30
0.0
 11
465.60533305379
 21
142.4199605485258
 31
0.0
  0
LINE
  5
12AE
330
2
100
AcDbEntity
  8
0
 48
0.5
100
AcDbLine
 10
455.6053330537899
 20
160.9199605485258
 30
0.0
 11
465.60533305379
 21
160.9199605485258
 31
0.0
  0
LINE
  5
12AF
330
2
100
AcDbEntity
  8
0
 48
0.5
100
AcDbLine
 10
465.60533305379
 20
161.4199605485258
 30
0.0
 11
466.7553330537896
 21
161.4199605485258
 31
0.0
  0
LINE
  5
12B0
330
2
100
AcDbEntity
  8
0
 48
0.5
100
AcDbLine
 10
466.7553330537896
 20
160.9199605485258
 30
0.0
 11
471.6053330537899
 21
160.9199605485258
 31
0.0
  0
LINE
  5
12B1
330
2
100
AcDbEntity
  8
HOJO
100
AcDbLine
 10
472.1053330537936
 20
163.7199605485269
 30
0.0
 11
472.1053330537936
 21
166.4199605485258
 31
0.0
  0
LINE
  5
12B2
330
2
100
AcDbEntity
  8
0
100
AcDbLine
 10
472.5553330543063
 20
163.7199605485269
 30
0.0
 11
472.5553330543063
 21
166.4199605485258
 31
0.0
  0
LINE
  5
12B3
330
2
100
AcDbEntity
  8
0
 48
0.5
100
AcDbLine
 10
480.6053415078306
 20
160.9199605485258
 30
0.0
 11
480.6053415078316
 21
142.9199605485276
 31
0.0
  0
LINE
  5
12B4
330
2
100
AcDbEntity
  8
0
 48
0.5
100
AcDbLine
 10
477.6053415078306
 20
142.4199605485258
 30
0.0
 11
477.6053415078306
 21
161.4199605485258
 31
0.0
  0
LINE
  5
12B5
330
2
100
AcDbEntity
  8
0
 48
0.5
100
AcDbLine
 10
482.6053415078324
 20
141.7652600101476
 30
0.0
 11
480.6053415078316
 21
142.9199605485276
 31
0.0
  0
LINE
  5
12B6
330
2
100
AcDbEntity
  8
HOJO
100
AcDbLine
 10
477.1053415078306
 20
163.7199605485269
 30
0.0
 11
477.1053415078306
 21
166.4199605485258
 31
0.0
  0
LINE
  5
12B7
330
2
100
AcDbEntity
  8
0
100
AcDbLine
 10
476.6553415073151
 20
163.7199605485269
 30
0.0
 11
476.6553415073151
 21
166.4199605485258
 31
0.0
  0
LINE
  5
12B8
330
2
100
AcDbEntity
  8
0
100
AcDbLine
 10
480.6053415078316
 20
142.9199605485276
 30
0.0
 11
477.6053415078306
 21
142.9199605485276
 31
0.0
  0
LINE
  5
12B9
330
2
100
AcDbEntity
  8
0
100
AcDbLine
 10
480.6053415078306
 20
160.9199605485258
 30
0.0
 11
477.6053415078306
 21
160.9199605485258
 31
0.0
  0
LINE
  5
12BA
330
2
100
AcDbEntity
  8
0
100
AcDbLine
 10
480.6053415078306
 20
160.9199605485258
 30
0.0
 11
482.60533305379
 21
162.0746562059624
 31
0.0
  0
LINE
  5
12BB
330
2
100
AcDbEntity
  8
0
 48
0.5
100
AcDbLine
 10
392.6053415078306
 20
142.4229601195195
 30
0.0
 11
455.6053330537899
 21
142.4229601195195
 31
0.0
  0
LINE
  5
12BC
330
2
100
AcDbEntity
  8
0
100
AcDbLine
 10
468.60533305379
 20
128.9200065485268
 30
0.0
 11
468.60533305379
 21
137.4199605485258
 31
0.0
  0
LINE
  5
12BD
330
2
100
AcDbEntity
  8
0
100
AcDbLine
 10
468.60533305379
 20
166.4199605485258
 30
0.0
 11
468.60533305379
 21
174.920006548525
 31
0.0
  0
LINE
  5
12BE
330
2
100
AcDbEntity
  8
0
100
AcDbLine
 10
460.60533305379
 20
128.6818657642191
 30
0.0
 11
460.60533305379
 21
137.4199605485258
 31
0.0
  0
LINE
  5
12BF
330
2
100
AcDbEntity
  8
0
100
AcDbLine
 10
460.60533305379
 20
166.4199605485258
 30
0.0
 11
460.60533305379
 21
175.1581473328327
 31
0.0
  0
LINE
  5
12C0
330
2
100
AcDbEntity
  8
0
100
AcDbLine
 10
460.60533305379
 20
128.6818657642191
 30
0.0
 11
459.7990266194058
 21
128.6607518871672
 31
0.0
  0
LINE
  5
12C1
330
2
100
AcDbEntity
  8
0
100
AcDbLine
 10
468.60533305379
 20
128.9200065485268
 30
0.0
 11
460.6053330537909
 21
128.9200065485268
 31
0.0
  0
LINE
  5
12C2
330
2
100
AcDbEntity
  8
0
100
AcDbLine
 10
468.60533305379
 20
128.9200065485268
 30
0.0
 11
469.60533305379
 21
128.3426562793368
 31
0.0
  0
LINE
  5
12C3
330
2
100
AcDbEntity
  8
0
100
AcDbLine
 10
468.60533305379
 20
174.920006548525
 30
0.0
 11
460.6053330537918
 21
174.920006548525
 31
0.0
  0
LINE
  5
12C4
330
2
100
AcDbEntity
  8
0
100
AcDbLine
 10
468.60533305379
 20
174.9200065485268
 30
0.0
 11
469.60533305379
 21
175.497356817715
 31
0.0
  0
LINE
  5
12C5
330
2
100
AcDbEntity
  8
0
100
AcDbLine
 10
460.60533305379
 20
175.1581473328327
 30
0.0
 11
459.7990266194058
 21
175.1792612098846
 31
0.0
  0
SPLINE
  5
12C6
330
2
100
AcDbEntity
  8
HOJO
100
AcDbSpline
210
0.0
220
0.0
230
1.0
 70
     8
 71
     3
 72
    34
 73
    30
 74
     0
 42
0.0000000001
 43
0.0000000001
 40
0.3362490801349298
 40
0.3362490801349298
 40
0.3362490801349298
 40
0.3362490801349298
 40
2.025640917149685
 40
4.32094151344414
 40
6.375589722319439
 40
9.049541186356382
 40
11.45527314787573
 40
13.93495700308971
 40
16.33786532263532
 40
19.54572761550501
 40
21.38558869575908
 40
28.86979803234311
 40
33.1859970370878
 40
37.86645582948318
 40
45.37190962287592
 40
53.9865418647183
 40
62.6909315817348
 40
69.28563032391882
 40
78.28004835247928
 40
85.06020350068469
 40
90.23992781404917
 40
93.94649664053121
 40
96.69197151561816
 40
100.3021858601968
 40
102.6648877317443
 40
105.7348010616008
 40
109.5488637563299
 40
112.8347034321232
 40
115.1857403907296
 40
115.1857403907296
 40
115.1857403907296
 40
115.1857403907296
 10
371.6053330537863
 20
176.8352982758727
 30
0.0
 10
372.1380433537262
 20
176.655553644657
 30
0.0
 10
373.3985651486484
 20
176.2407870889813
 30
0.0
 10
375.3961042153507
 20
175.8100446879137
 30
0.0
 10
377.7182713907598
 20
176.0283884030807
 30
0.0
 10
380.1968909025875
 20
176.16910413751
 30
0.0
 10
382.3256787513739
 20
174.4945760553485
 30
0.0
 10
383.2856117440308
 20
172.1876807125712
 30
0.0
 10
383.4392662885213
 20
169.4842425103918
 30
0.0
 10
384.0026943761452
 20
167.0496616033081
 30
0.0
 10
386.6681553631272
 20
163.4472535645884
 30
0.0
 10
392.1100923435162
 20
166.1606388649518
 30
0.0
 10
397.4152652733421
 20
165.5015132949968
 30
0.0
 10
402.8987702117713
 20
164.3272836907338
 30
0.0
 10
409.8022510324174
 20
166.4068145047925
 30
0.0
 10
418.0281369575634
 20
163.4734320008131
 30
0.0
 10
425.9018970533809
 20
166.5386626875181
 30
0.0
 10
433.9766616824975
 20
164.3582299114289
 30
0.0
 10
441.4326813829095
 20
167.014134899054
 30
0.0
 10
448.3397198539553
 20
163.5296102436416
 30
0.0
 10
453.2440622853703
 20
165.9724699249339
 30
0.0
 10
457.7746712242817
 20
163.9240601994145
 30
0.0
 10
459.2483278439715
 20
167.6223367674204
 30
0.0
 10
460.1348274560443
 20
170.4386471566661
 30
0.0
 10
458.3221344929317
 20
173.2794812094683
 30
0.0
 10
460.4320245653346
 20
176.3840266145319
 30
0.0
 10
463.9511376807397
 20
176.923391124946
 30
0.0
 10
467.1526073551115
 20
176.2238001281287
 30
0.0
 10
468.869411557743
 20
177.1437870120037
 30
0.0
 10
469.60533305379
 20
177.4356703481528
 30
0.0
  0
SPLINE
  5
12C7
330
2
100
AcDbEntity
  8
HOJO
100
AcDbSpline
210
0.0
220
0.0
230
1.0
 70
     8
 71
     3
 72
    34
 73
    30
 74
     0
 42
0.0000000001
 43
0.0000000001
 40
0.3362490801349298
 40
0.3362490801349298
 40
0.3362490801349298
 40
0.3362490801349298
 40
2.025640917149685
 40
4.32094151344414
 40
6.375589722319439
 40
9.049541186356382
 40
11.45527314787573
 40
13.93495700308971
 40
16.33786532263532
 40
19.54572761550501
 40
21.38558869575908
 40
28.86979803234311
 40
33.1859970370878
 40
37.86645582948318
 40
45.37190962287592
 40
53.9865418647183
 40
62.6909315817348
 40
69.28563032391882
 40
78.28004835247928
 40
85.06020350068469
 40
90.23992781404917
 40
93.94649664053121
 40
96.69197151561816
 40
100.3021858601968
 40
102.6648877317443
 40
105.7348010616008
 40
109.5488637563299
 40
112.8347034321232
 40
115.1857403907296
 40
115.1857403907296
 40
115.1857403907296
 40
115.1857403907296
 10
371.6053330537863
 20
127.0047148211809
 30
0.0
 10
372.1380433537262
 20
127.1844594523948
 30
0.0
 10
373.3985651486484
 20
127.5992260080704
 30
0.0
 10
375.3961042153507
 20
128.0299684091381
 30
0.0
 10
377.7182713907598
 20
127.8116246939728
 30
0.0
 10
380.1968909025875
 20
127.6709089595418
 30
0.0
 10
382.3256787513739
 20
129.3454370417032
 30
0.0
 10
383.2856117440308
 20
131.6523323844806
 30
0.0
 10
383.4392662885213
 20
134.3557705866617
 30
0.0
 10
384.0026943761452
 20
136.7903514937454
 30
0.0
 10
386.6681553631272
 20
140.3927595324633
 30
0.0
 10
392.1100923435162
 20
137.6793742321017
 30
0.0
 10
397.4152652733421
 20
138.3384998020567
 30
0.0
 10
402.8987702117713
 20
139.5127294063179
 30
0.0
 10
409.8022510324174
 20
137.4331985922593
 30
0.0
 10
418.0281369575634
 20
140.3665810962387
 30
0.0
 10
425.9018970533809
 20
137.3013504095336
 30
0.0
 10
433.9766616824975
 20
139.4817831856228
 30
0.0
 10
441.4326813829095
 20
136.8258781979996
 30
0.0
 10
448.3397198539553
 20
140.3104028534101
 30
0.0
 10
453.2440622853703
 20
137.8675431721179
 30
0.0
 10
457.7746712242817
 20
139.9159528976372
 30
0.0
 10
459.2483278439715
 20
136.2176763296313
 30
0.0
 10
460.1348274560443
 20
133.4013659403856
 30
0.0
 10
458.3221344929317
 20
130.5605318875835
 30
0.0
 10
460.4320245653346
 20
127.4559864825199
 30
0.0
 10
463.9511376807397
 20
126.9166219721058
 30
0.0
 10
467.1526073551115
 20
127.616212968923
 30
0.0
 10
468.869411557743
 20
126.696226085048
 30
0.0
 10
469.60533305379
 20
126.4043427488989
 30
0.0
  0
LINE
  5
12C8
330
2
100
AcDbEntity
  8
0
100
AcDbLine
 10
468.60533305379
 20
174.920006548525
 30
0.0
 11
460.60533305379
 21
166.4199605485258
 31
0.0
  0
LINE
  5
12C9
330
2
100
AcDbEntity
  8
0
100
AcDbLine
 10
460.6053330537918
 20
174.920006548525
 30
0.0
 11
468.60533305379
 21
166.4199605485258
 31
0.0
  0
LINE
  5
12CA
330
2
100
AcDbEntity
  8
0
100
AcDbLine
 10
468.60533305379
 20
137.4199605485258
 30
0.0
 11
460.6053330537909
 21
128.9200065485268
 31
0.0
  0
LINE
  5
12CB
330
2
100
AcDbEntity
  8
0
100
AcDbLine
 10
460.60533305379
 20
137.4199605485258
 30
0.0
 11
468.60533305379
 21
128.9200065485268
 31
0.0
  0
LINE
  5
12CC
330
2
100
AcDbEntity
  8
0
100
AcDbLine
 10
372.6053330537863
 20
174.9200065485268
 30
0.0
 11
380.6053330537863
 21
166.4199605485258
 31
0.0
  0
LINE
  5
12CD
330
2
100
AcDbEntity
  8
0
100
AcDbLine
 10
380.6053330537863
 20
174.9200065485268
 30
0.0
 11
372.6053330537863
 21
166.4199605485258
 31
0.0
  0
LINE
  5
12CE
330
2
100
AcDbEntity
  8
0
100
AcDbLine
 10
372.6053330537863
 20
128.9200065485268
 30
0.0
 11
380.6053330537863
 21
137.4199605485258
 31
0.0
  0
LINE
  5
12CF
330
2
100
AcDbEntity
  8
0
100
AcDbLine
 10
372.6053330537863
 20
137.4199605485258
 30
0.0
 11
380.6053330537863
 21
128.9200065485268
 31
0.0
  0
LINE
  5
12D0
330
2
100
AcDbEntity
  8
0
100
AcDbLine
 10
439.6151225227688
 20
400.5850107818899
 30
0.0
 11
439.6151225227688
 21
371.5850107818899
 31
0.0
  0
LINE
  5
12D1
330
2
100
AcDbEntity
  8
0
100
AcDbLine
 10
326.6151225227693
 20
400.5879183528817
 30
0.0
 11
326.6151225227693
 21
371.5879183528816
 31
0.0
  0
LINE
  5
12D2
330
2
100
AcDbEntity
  8
0
100
AcDbLine
 10
328.6151225227656
 20
371.5879183528816
 30
0.0
 11
326.6151225227693
 21
371.5879183528816
 31
0.0
  0
LINE
  5
12D3
330
2
100
AcDbEntity
  8
0
 48
0.5
100
AcDbLine
 10
426.6151225227697
 20
371.5850107818899
 30
0.0
 11
439.6151225227688
 21
371.5850107818899
 31
0.0
  0
LINE
  5
12D4
330
2
100
AcDbEntity
  8
0
100
AcDbLine
 10
328.6151225227647
 20
400.5879183528817
 30
0.0
 11
326.6151225227693
 21
400.5879183528817
 31
0.0
  0
LINE
  5
12D5
330
2
100
AcDbEntity
  8
0
 48
0.5
100
AcDbLine
 10
426.6151225227688
 20
400.5879183528817
 30
0.0
 11
439.6151225227688
 21
400.5879183528817
 31
0.0
  0
CIRCLE
  5
12D6
330
2
100
AcDbEntity
  8
0
100
AcDbCircle
 10
431.6151225227688
 20
386.0879643528808
 30
0.0
 40
2.0
  0
CIRCLE
  5
12D7
330
2
100
AcDbEntity
  8
HOJO
100
AcDbCircle
 10
431.6151225227688
 20
386.0879643528808
 30
0.0
 40
2.5
  0
LINE
  5
12D8
330
2
100
AcDbEntity
  8
0
100
AcDbLine
 10
198.0348256020236
 20
397.8879673528811
 30
0.0
 11
198.0348256020236
 21
394.5907580114383
 31
0.0
  0
LINE
  5
12D9
330
2
100
AcDbEntity
  8
0
100
AcDbLine
 10
192.0348256020236
 20
397.8879673528811
 30
0.0
 11
192.0348256020236
 21
394.5554019818231
 31
0.0
  0
ARC
  5
12DA
330
2
100
AcDbEntity
  8
0
100
AcDbCircle
 10
195.0848256020237
 20
386.0879643528808
 30
0.0
 40
9.0
100
AcDbArc
 50
109.8091936367463
 51
70.86604897351834
  0
LINE
  5
12DB
330
2
100
AcDbEntity
  8
0
100
AcDbLine
 10
192.0348256020236
 20
397.8879673528811
 30
0.0
 11
198.0348256020236
 21
397.8879673528811
 31
0.0
  0
ARC
  5
12DC
330
2
100
AcDbEntity
  8
0
100
AcDbCircle
 10
195.0848256020242
 20
386.0879643528826
 30
0.0
 40
10.15765410937228
100
AcDbArc
 50
107.4735912242753
 51
73.1168144439335
  0
LINE
  5
12DD
330
2
100
AcDbEntity
  8
0
100
AcDbLine
 10
593.6815125862824
 20
397.8879673528809
 30
0.0
 11
593.6815125862824
 21
394.5907580114381
 31
0.0
  0
LINE
  5
12DE
330
2
100
AcDbEntity
  8
0
100
AcDbLine
 10
587.6815125862824
 20
397.8879673528809
 30
0.0
 11
587.6815125862824
 21
394.5554019818228
 31
0.0
  0
ARC
  5
12DF
330
2
100
AcDbEntity
  8
0
100
AcDbCircle
 10
590.7315125862817
 20
386.0879643528824
 30
0.0
 40
9.0
100
AcDbArc
 50
109.8091936367463
 51
70.86604897351834
  0
LINE
  5
12E0
330
2
100
AcDbEntity
  8
0
100
AcDbLine
 10
587.6815125862824
 20
397.8879673528809
 30
0.0
 11
593.6815125862824
 21
397.8879673528809
 31
0.0
  0
ARC
  5
12E1
330
2
100
AcDbEntity
  8
0
100
AcDbCircle
 10
590.7315125862817
 20
386.0879643528824
 30
0.0
 40
10.15765410937228
100
AcDbArc
 50
107.4735912242753
 51
73.1168144439335
  0
CIRCLE
  5
12E2
330
2
100
AcDbEntity
  8
0
100
AcDbCircle
 10
195.0848256020242
 20
386.0879643528826
 30
0.0
 40
14.49995399999997
  0
CIRCLE
  5
12E3
330
2
100
AcDbEntity
  8
0
100
AcDbCircle
 10
590.7315125862817
 20
386.0879643528824
 30
0.0
 40
14.49995400000048
  0
LINE
  5
12E4
330
2
100
AcDbEntity
  8
CENTER
100
AcDbLine
 10
230.0848256020233
 20
367.3815725171919
 30
0.0
 11
230.0848256020233
 21
358.7943561885716
 31
0.0
  0
LINE
  5
12E5
330
2
100
AcDbEntity
  8
CENTER
100
AcDbLine
 10
225.7912174377131
 20
363.0879643528826
 30
0.0
 11
234.3784337663334
 21
363.0879643528826
 31
0.0
  0
LINE
  5
12E6
330
2
100
AcDbEntity
  8
CENTER
100
AcDbLine
 10
230.0848256020233
 20
404.7943561885715
 30
0.0
 11
230.0848256020233
 21
413.3815725171919
 31
0.0
  0
LINE
  5
12E7
330
2
100
AcDbEntity
  8
CENTER
100
AcDbLine
 10
225.7912174377131
 20
409.0879643528826
 30
0.0
 11
234.3784337663334
 21
409.0879643528826
 31
0.0
  0
LINE
  5
12E8
330
2
100
AcDbEntity
  8
0
100
AcDbLine
 10
605.2314665862825
 20
573.2608944063376
 30
0.0
 11
576.2314665862825
 21
573.2608944063376
 31
0.0
  0
LINE
  5
12E9
330
2
100
AcDbEntity
  8
0
100
AcDbLine
 10
605.2314665862825
 20
686.2608944063376
 30
0.0
 11
576.2314665862825
 21
686.2608944063376
 31
0.0
  0
LINE
  5
12EA
330
2
100
AcDbEntity
  8
0
100
AcDbLine
 10
576.2314665862825
 20
684.2608944063413
 30
0.0
 11
576.2314665862825
 21
686.2608944063376
 31
0.0
  0
LINE
  5
12EB
330
2
100
AcDbEntity
  8
0
 48
0.5
100
AcDbLine
 10
576.2314665862825
 20
586.2608944063376
 30
0.0
 11
576.2314665862825
 21
573.2608944063376
 31
0.0
  0
LINE
  5
12EC
330
2
100
AcDbEntity
  8
0
100
AcDbLine
 10
605.2314665862825
 20
684.2608944063413
 30
0.0
 11
605.2314665862825
 21
686.2608944063376
 31
0.0
  0
LINE
  5
12ED
330
2
100
AcDbEntity
  8
0
 48
0.5
100
AcDbLine
 10
605.2314665862825
 20
586.2608944063376
 30
0.0
 11
605.2314665862825
 21
573.2608944063376
 31
0.0
  0
CIRCLE
  5
12EE
330
2
100
AcDbEntity
  8
0
100
AcDbCircle
 10
590.7315125862817
 20
581.2608944063376
 30
0.0
 40
2.0
  0
CIRCLE
  5
12EF
330
2
100
AcDbEntity
  8
HOJO
100
AcDbCircle
 10
590.7315125862817
 20
581.2608944063376
 30
0.0
 40
2.5
  0
LINE
  5
12F0
330
2
100
AcDbEntity
  8
CENTER
100
AcDbLine
 10
585.4501978929231
 20
581.2608944063376
 30
0.0
 11
596.0128272796403
 21
581.2608944063376
 31
0.0
  0
LINE
  5
12F1
330
2
100
AcDbEntity
  8
CENTER
100
AcDbLine
 10
431.6151225227688
 20
390.9258083065836
 30
0.0
 11
431.6151225227688
 21
381.2501203991781
 31
0.0
  0
LINE
  5
12F2
330
2
100
AcDbEntity
  8
0
100
AcDbLine
 10
609.0235477521503
 20
662.2608944063358
 30
0.0
 11
609.0235477521503
 21
673.7608944063413
 31
0.0
  0
LINE
  5
12F3
330
2
100
AcDbEntity
  8
0
100
AcDbLine
 10
626.7315125862835
 20
662.2608944063358
 30
0.0
 11
626.7315125862835
 21
673.7608944063413
 31
0.0
  0
LINE
  5
12F4
330
2
100
AcDbEntity
  8
0
100
AcDbLine
 10
623.7315125862835
 20
662.2608944063358
 30
0.0
 11
623.7315125862835
 21
673.7608944063413
 31
0.0
  0
LINE
  5
12F5
330
2
100
AcDbEntity
  8
0
100
AcDbLine
 10
336.0151225227666
 20
412.5879643528826
 30
0.0
 11
336.015122522763
 21
415.5879643528827
 31
0.0
  0
LINE
  5
12F6
330
2
100
AcDbEntity
  8
0
100
AcDbLine
 10
335.7264473881689
 20
416.0879643528799
 30
0.0
 11
335.615122522767
 21
415.8951440298563
 31
0.0
  0
LINE
  5
12F7
330
2
100
AcDbEntity
  8
0
100
AcDbLine
 10
335.615122522767
 20
412.5879643528826
 30
0.0
 11
335.615122522767
 21
415.8951440298563
 31
0.0
  0
LINE
  5
12F8
330
2
100
AcDbEntity
  8
0
100
AcDbLine
 10
336.0151225227666
 20
359.5879643528817
 30
0.0
 11
336.015122522763
 21
356.5879643528826
 31
0.0
  0
LINE
  5
12F9
330
2
100
AcDbEntity
  8
0
100
AcDbLine
 10
335.7264473881689
 20
356.0879643528845
 30
0.0
 11
335.615122522767
 21
356.2807846759072
 31
0.0
  0
LINE
  5
12FA
330
2
100
AcDbEntity
  8
0
100
AcDbLine
 10
335.615122522767
 20
359.5879643528817
 30
0.0
 11
335.615122522767
 21
356.2807846759072
 31
0.0
  0
LINE
  5
12FC
330
2
100
AcDbEntity
  8
PHAS
  6
SEKKEI_P_S
100
AcDbLine
 10
336.1151225227688
 20
357.5879643528827
 30
0.0
 11
336.1151225227688
 21
414.5879643528827
 31
0.0
  0
LINE
  5
12FD
330
2
100
AcDbEntity
  8
PHAS
  6
SEKKEI_P_S
100
AcDbLine
 10
310.6151225227693
 20
373.0518623528826
 30
0.0
 11
310.6151225227693
 21
399.1240421109717
 31
0.0
  0
LINE
  5
12FE
330
2
100
AcDbEntity
  8
PHAS
  6
SEKKEI_P_S
100
AcDbLine
 10
326.3151225227695
 20
360.707115778527
 30
0.0
 11
326.3151225227695
 21
411.4688129272392
 31
0.0
  0
LINE
  5
12FF
330
2
100
AcDbEntity
  8
PHAS
  6
SEKKEI_P_S
100
AcDbLine
 10
336.1151225227688
 20
357.5879643528827
 30
0.0
 11
329.2627653034576
 21
357.7075726930573
 31
0.0
  0
LINE
  5
1300
330
2
100
AcDbEntity
  8
PHAS
  6
SEKKEI_P_S
100
AcDbLine
 10
325.4887645227693
 20
366.2336553528824
 30
0.0
 11
325.4951243342318
 21
366.2325340826158
 31
0.0
  0
ARC
  5
1301
330
2
100
AcDbEntity
  8
PHAS
  6
SEKKEI_P_S
100
AcDbCircle
 10
325.3151225227695
 20
365.2488711855415
 30
0.0
 40
1.0
100
AcDbArc
 50
0.0
 51
79.99956533742575
  0
ARC
  5
1302
330
2
100
AcDbEntity
  8
PHAS
  6
SEKKEI_P_S
100
AcDbCircle
 10
329.3151225227695
 20
360.707115778527
 30
0.0
 40
3.0
100
AcDbArc
 50
180.0
 51
268.9999999999982
  0
LINE
  5
1303
330
2
100
AcDbEntity
  8
PHAS
  6
SEKKEI_P_S
100
AcDbLine
 10
314.7468442792571
 20
368.1278544166046
 30
0.0
 11
325.4887781714717
 21
366.2336776211798
 31
0.0
  0
ARC
  5
1304
330
2
100
AcDbEntity
  8
PHAS
  6
SEKKEI_P_S
100
AcDbCircle
 10
315.6151225227692
 20
373.0518865947945
 30
0.0
 40
5.0
100
AcDbArc
 50
180.0
 51
259.9995653374257
  0
LINE
  5
1305
330
2
100
AcDbEntity
  8
PHAS
  6
SEKKEI_P_S
100
AcDbLine
 10
336.1151225227688
 20
414.5879643528827
 30
0.0
 11
329.2627653034576
 21
414.468356012709
 31
0.0
  0
ARC
  5
1306
330
2
100
AcDbEntity
  8
PHAS
  6
SEKKEI_P_S
100
AcDbCircle
 10
325.308776360009
 20
406.9259139816606
 30
0.0
 40
1.0
100
AcDbArc
 50
280.0004346625742
 51
0.0
  0
ARC
  5
1307
330
2
100
AcDbEntity
  8
PHAS
  6
SEKKEI_P_S
100
AcDbCircle
 10
315.6151225227692
 20
399.1240421109717
 30
0.0
 40
5.0
100
AcDbArc
 50
100.0004346625742
 51
180.0
  0
LINE
  5
1308
330
2
100
AcDbEntity
  8
PHAS
  6
SEKKEI_P_S
100
AcDbLine
 10
314.7468442792571
 20
404.0480742891607
 30
0.0
 11
325.4887781714717
 21
405.9422510845863
 31
0.0
  0
ARC
  5
1309
330
2
100
AcDbEntity
  8
PHAS
  6
SEKKEI_P_S
100
AcDbCircle
 10
329.3151225227709
 20
411.4688129272384
 30
0.0
 40
3.0
100
AcDbArc
 50
91.00000000000177
 51
180.0
  0
LINE
  5
1345
330
2
100
AcDbEntity
  8
CENTER
100
AcDbLine
 10
940.5005600434062
 20
436.8697926581126
 30
0.0
 11
940.5005600434062
 21
335.3032271574002
 31
0.0
  0
LINE
  5
1346
330
2
100
AcDbEntity
  8
0
100
AcDbLine
 10
902.5005600434081
 20
421.0879643528815
 30
0.0
 11
902.5005600434081
 21
351.0879643528815
 31
0.0
  0
LINE
  5
1347
330
2
100
AcDbEntity
  8
0
100
AcDbLine
 10
907.5005600434071
 20
426.5818060210177
 30
0.0
 11
907.500560043408
 21
345.5912137944952
 31
0.0
  0
LINE
  5
1348
330
2
100
AcDbEntity
  8
0
100
AcDbLine
 10
907.5005600434062
 20
351.0879643528815
 30
0.0
 11
902.5005600434063
 21
351.0879643528815
 31
0.0
  0
LINE
  5
1349
330
2
100
AcDbEntity
  8
0
100
AcDbLine
 10
907.5005600434062
 20
421.0879643528815
 30
0.0
 11
902.5005600434063
 21
421.0879643528815
 31
0.0
  0
LINE
  5
134A
330
2
100
AcDbEntity
  8
0
100
AcDbLine
 10
965.500560043408
 20
427.0879643528815
 30
0.0
 11
965.500560043408
 21
417.1847385464308
 31
0.0
  0
LINE
  5
134B
330
2
100
AcDbEntity
  8
0
100
AcDbLine
 10
965.500560043408
 20
427.0879643528815
 30
0.0
 11
907.5005600434071
 21
426.5818060210177
 31
0.0
  0
LINE
  5
134C
330
2
100
AcDbEntity
  8
0
100
AcDbLine
 10
965.500560043408
 20
345.0850554626313
 30
0.0
 11
907.500560043408
 21
345.5912137944952
 31
0.0
  0
LINE
  5
134D
330
2
100
AcDbEntity
  8
0
100
AcDbLine
 10
965.500560043408
 20
354.9911901593341
 30
0.0
 11
965.500560043408
 21
345.0850554626313
 31
0.0
  0
LINE
  5
134E
330
2
100
AcDbEntity
  8
0
100
AcDbLine
 10
965.500560043408
 20
427.0879643528815
 30
0.0
 11
965.500560043408
 21
417.1847385464308
 31
0.0
  0
LINE
  5
134F
330
2
100
AcDbEntity
  8
0
100
AcDbLine
 10
965.500560043408
 20
354.9911901593341
 30
0.0
 11
965.500560043408
 21
345.0850554626313
 31
0.0
  0
ARC
  5
1350
330
2
100
AcDbEntity
  8
0
100
AcDbCircle
 10
900.5005600434081
 20
355.7026167998747
 30
0.0
 40
2.0
100
AcDbArc
 50
0.0
 51
87.99999999999636
  0
ARC
  5
1351
330
2
100
AcDbEntity
  8
0
100
AcDbCircle
 10
891.5005600434071
 20
360.0193419024954
 30
0.0
 40
2.0
100
AcDbArc
 50
180.0
 51
267.9999999999963
  0
ARC
  5
1352
330
2
100
AcDbEntity
  8
0
100
AcDbCircle
 10
900.5005600434081
 20
416.4733119058865
 30
0.0
 40
2.0
100
AcDbArc
 50
272.0000000000036
 51
0.0
  0
ARC
  5
1353
330
2
100
AcDbEntity
  8
0
100
AcDbCircle
 10
891.5005600434062
 20
412.1565868032658
 30
0.0
 40
2.0
100
AcDbArc
 50
92.00000000000365
 51
180.0
  0
LINE
  5
1354
330
2
100
AcDbEntity
  8
0
100
AcDbLine
 10
891.4307610500021
 20
358.0205602484575
 30
0.0
 11
900.5703590368131
 21
357.7013984539126
 31
0.0
  0
LINE
  5
1355
330
2
100
AcDbEntity
  8
0
100
AcDbLine
 10
891.4307610500012
 20
414.1553684573037
 30
0.0
 11
900.5703590368131
 21
414.4745302518486
 31
0.0
  0
LINE
  5
1356
330
2
100
AcDbEntity
  8
0
100
AcDbLine
 10
889.5005600434062
 20
412.1565868032658
 30
0.0
 11
889.500560043408
 21
360.0193419024954
 31
0.0
  0
LINE
  5
1357
330
2
100
AcDbEntity
  8
0
100
AcDbLine
 10
965.500560043408
 20
354.0923277867723
 30
0.0
 11
911.4831069724107
 21
354.5637309581189
 31
0.0
  0
LINE
  5
1358
330
2
100
AcDbEntity
  8
0
100
AcDbLine
 10
965.500560043408
 20
418.0836009189889
 30
0.0
 11
911.4831069724107
 21
417.6121977476459
 31
0.0
  0
LINE
  5
1359
330
2
100
AcDbEntity
  8
0
100
AcDbLine
 10
940.5005600434062
 20
354.5879643528815
 30
0.0
 11
912.4521792392517
 21
355.0403575916598
 31
0.0
  0
LINE
  5
135A
330
2
100
AcDbEntity
  8
0
100
AcDbLine
 10
940.5005600434062
 20
417.5879643528815
 30
0.0
 11
968.5489408475616
 21
417.1355711141051
 31
0.0
  0
LINE
  5
135B
330
2
100
AcDbEntity
  8
0
100
AcDbLine
 10
912.4521792392526
 20
417.1355711141051
 30
0.0
 11
940.5005600434062
 21
417.5879643528815
 31
0.0
  0
LINE
  5
135C
330
2
100
AcDbEntity
  8
0
100
AcDbLine
 10
968.5489408475616
 20
355.0403575916598
 30
0.0
 11
940.5005600434062
 21
354.5879643528815
 31
0.0
  0
LINE
  5
135D
330
2
100
AcDbEntity
  8
0
100
AcDbLine
 10
909.5005600434062
 20
415.6122739015182
 30
0.0
 11
909.5005600434062
 21
356.5636548042466
 31
0.0
  0
ARC
  5
135E
330
2
100
AcDbEntity
  8
0
100
AcDbCircle
 10
968.5005600434063
 20
414.1359612565093
 30
0.0
 40
3.0
100
AcDbArc
 50
0.0
 51
89.07595464723311
  0
ARC
  5
135F
330
2
100
AcDbEntity
  8
0
100
AcDbCircle
 10
968.5005600434063
 20
358.0399674492555
 30
0.0
 40
3.0
100
AcDbArc
 50
270.9240453527669
 51
0.0
  0
ARC
  5
1360
330
2
100
AcDbEntity
  8
0
100
AcDbCircle
 10
912.5005600434063
 20
358.0399674492555
 30
0.0
 40
3.0
100
AcDbArc
 50
180.0
 51
269.075954647207
  0
ARC
  5
1361
330
2
100
AcDbEntity
  8
0
100
AcDbCircle
 10
912.5005600434063
 20
414.1359612565093
 30
0.0
 40
3.0
100
AcDbArc
 50
90.9240453527669
 51
180.0
  0
ARC
  5
1362
330
2
100
AcDbEntity
  8
0
100
AcDbCircle
 10
911.5005600434063
 20
415.6122739015182
 30
0.0
 40
2.0
100
AcDbArc
 50
90.49999999999155
 51
180.0
  0
ARC
  5
1363
330
2
100
AcDbEntity
  8
0
100
AcDbCircle
 10
911.5005600434063
 20
356.5636548042466
 30
0.0
 40
2.0
100
AcDbArc
 50
180.0
 51
269.5000000000084
  0
LINE
  5
1364
330
2
100
AcDbEntity
  8
0
100
AcDbLine
 10
971.5005600434063
 20
414.1359612565093
 30
0.0
 11
971.5005600434063
 21
358.0399674492555
 31
0.0
  0
LINE
  5
1365
330
2
100
AcDbEntity
  8
0
100
AcDbLine
 10
908.5005600434062
 20
350.0879643528815
 30
0.0
 11
965.500560043408
 21
350.0879643528815
 31
0.0
  0
LINE
  5
1366
330
2
100
AcDbEntity
  8
0
100
AcDbLine
 10
908.5005600434071
 20
422.0879643528816
 30
0.0
 11
965.500560043408
 21
422.0879643528816
 31
0.0
  0
LINE
  5
1367
330
2
100
AcDbEntity
  8
0
100
AcDbLine
 10
982.8005600434073
 20
359.5879643528815
 30
0.0
 11
980.5005600434089
 21
359.5879643528815
 31
0.0
  0
LINE
  5
1368
330
2
100
AcDbEntity
  8
0
100
AcDbLine
 10
986.5005600434063
 20
359.5879643528797
 30
0.0
 11
987.5005600434072
 21
360.1653146220697
 31
0.0
  0
LINE
  5
1369
330
2
100
AcDbEntity
  8
0
100
AcDbLine
 10
984.8005600434074
 20
360.2879643528804
 30
0.0
 11
983.2005600434071
 21
360.2879643528804
 31
0.0
  0
LINE
  5
136A
330
2
100
AcDbEntity
  8
0
100
AcDbLine
 10
983.0005600434063
 20
359.7879643528804
 30
0.0
 11
982.8005600434073
 21
359.5879643528815
 31
0.0
  0
LINE
  5
136B
330
2
100
AcDbEntity
  8
0
100
AcDbLine
 10
985.0005600434062
 20
359.7879643528804
 30
0.0
 11
985.0005600434062
 21
412.3879643528808
 31
0.0
  0
LINE
  5
136C
330
2
100
AcDbEntity
  8
0
100
AcDbLine
 10
986.5005600434063
 20
359.5879643528797
 30
0.0
 11
985.200560043407
 21
359.5879643528815
 31
0.0
  0
LINE
  5
136D
330
2
100
AcDbEntity
  8
0
100
AcDbLine
 10
982.8005600434092
 20
412.5879643528815
 30
0.0
 11
980.5005600434089
 21
412.5879643528815
 31
0.0
  0
LINE
  5
136E
330
2
100
AcDbEntity
  8
0
100
AcDbLine
 10
979.500560043408
 20
406.5879643528833
 30
0.0
 11
979.500560043408
 21
365.5879643528797
 31
0.0
  0
LINE
  5
136F
330
2
100
AcDbEntity
  8
0
100
AcDbLine
 10
978.0005600434117
 20
346.1883614108602
 30
0.0
 11
978.0005600434117
 21
355.5879643528797
 31
0.0
  0
LINE
  5
1370
330
2
100
AcDbEntity
  8
0
100
AcDbLine
 10
978.0005600434117
 20
365.5879643528797
 30
0.0
 11
978.0005600434117
 21
406.5879643528833
 31
0.0
  0
LINE
  5
1371
330
2
100
AcDbEntity
  8
0
100
AcDbLine
 10
978.0005600434117
 20
416.5879643528834
 30
0.0
 11
978.0005600434117
 21
425.9875672949011
 31
0.0
  0
ARC
  5
1372
330
2
100
AcDbEntity
  8
0
100
AcDbCircle
 10
977.0005600434117
 20
346.1883614108602
 30
0.0
 40
1.0
100
AcDbArc
 50
270.5000000000175
 51
0.0
  0
LINE
  5
1373
330
2
100
AcDbEntity
  8
0
100
AcDbLine
 10
979.0005600434135
 20
365.5879643528797
 30
0.0
 11
979.0005600434135
 21
406.5879643528833
 31
0.0
  0
LINE
  5
1374
330
2
100
AcDbEntity
  8
0
100
AcDbLine
 10
987.5005600434107
 20
360.1653146220715
 30
0.0
 11
987.5005600434118
 21
412.0106140836897
 31
0.0
  0
LINE
  5
1375
330
2
100
AcDbEntity
  8
0
100
AcDbLine
 10
986.500560043409
 20
412.5879643528815
 30
0.0
 11
985.2005600434088
 21
412.5879643528815
 31
0.0
  0
LINE
  5
1376
330
2
100
AcDbEntity
  8
0
100
AcDbLine
 10
983.0005600434081
 20
412.3879643528808
 30
0.0
 11
982.8005600434092
 21
412.5879643528815
 31
0.0
  0
LINE
  5
1377
330
2
100
AcDbEntity
  8
0
100
AcDbLine
 10
983.0005600434081
 20
412.3879643528808
 30
0.0
 11
983.000560043448
 21
359.7879643529223
 31
0.0
  0
LINE
  5
1378
330
2
100
AcDbEntity
  8
0
100
AcDbLine
 10
984.8005600434092
 20
411.8879643528826
 30
0.0
 11
983.2005600434088
 21
411.8879643528808
 31
0.0
  0
LINE
  5
1379
330
2
100
AcDbEntity
  8
0
100
AcDbLine
 10
986.5005600434081
 20
412.5879643528815
 30
0.0
 11
987.5005600434089
 21
412.0106140836915
 31
0.0
  0
LINE
  5
137A
330
2
100
AcDbEntity
  8
0
100
AcDbLine
 10
965.5005600434099
 20
427.0879643528815
 30
0.0
 11
965.5005600434099
 21
417.1847385464308
 31
0.0
  0
LINE
  5
137B
330
2
100
AcDbEntity
  8
0
100
AcDbLine
 10
965.5005600434062
 20
354.9911901593341
 30
0.0
 11
965.5005600434044
 21
345.0879643528815
 31
0.0
  0
LINE
  5
137C
330
2
100
AcDbEntity
  8
0
100
AcDbLine
 10
973.0005600434099
 20
417.0312016338585
 30
0.0
 11
973.0005600434081
 21
405.1098005615522
 31
0.0
  0
LINE
  5
137D
330
2
100
AcDbEntity
  8
0
100
AcDbLine
 10
976.0005600434098
 20
417.0050210304863
 30
0.0
 11
976.0005600434098
 21
416.5879643528834
 31
0.0
  0
LINE
  5
137E
330
2
100
AcDbEntity
  8
0
100
AcDbLine
 10
976.0005600434089
 20
406.5879643528833
 30
0.0
 11
976.0005600434062
 21
365.5879643528797
 31
0.0
  0
LINE
  5
137F
330
2
100
AcDbEntity
  8
0
100
AcDbLine
 10
976.0005600434062
 20
355.5879643528797
 30
0.0
 11
976.0005600434062
 21
355.1709076752768
 31
0.0
  0
ARC
  5
1380
330
2
100
AcDbEntity
  8
0
100
AcDbCircle
 10
975.0005600434063
 20
355.1709076752768
 30
0.0
 40
1.0
100
AcDbArc
 50
270.4999999999915
 51
0.0
  0
LINE
  5
1381
330
2
100
AcDbEntity
  8
0
100
AcDbLine
 10
965.5005600434044
 20
345.0879643528815
 30
0.0
 11
977.0092865789104
 21
345.1883994877963
 31
0.0
  0
ARC
  5
1382
330
2
100
AcDbEntity
  8
0
100
AcDbCircle
 10
985.2005600434088
 20
412.3879643528808
 30
0.0
 40
0.2
100
AcDbArc
 50
90.0
 51
180.0
  0
ARC
  5
1383
330
2
100
AcDbEntity
  8
0
100
AcDbCircle
 10
984.8005600434092
 20
412.0879643528815
 30
0.0
 40
0.2
100
AcDbArc
 50
270.0
 51
0.0
  0
ARC
  5
1384
330
2
100
AcDbEntity
  8
0
100
AcDbCircle
 10
983.2005600434088
 20
412.0879643528815
 30
0.0
 40
0.2
100
AcDbArc
 50
180.0
 51
270.0
  0
ARC
  5
1385
330
2
100
AcDbEntity
  8
0
100
AcDbCircle
 10
985.200560043407
 20
359.7879643528804
 30
0.0
 40
0.2
100
AcDbArc
 50
180.0
 51
269.9999999999739
  0
ARC
  5
1386
330
2
100
AcDbEntity
  8
0
100
AcDbCircle
 10
984.8005600434074
 20
360.0879643528797
 30
0.0
 40
0.2
100
AcDbArc
 50
0.0
 51
89.99999999997395
  0
ARC
  5
1387
330
2
100
AcDbEntity
  8
0
100
AcDbCircle
 10
983.2005600434071
 20
360.0879643528815
 30
0.0
 40
0.2
100
AcDbArc
 50
89.99999999997395
 51
180.0
  0
LINE
  5
1388
330
2
100
AcDbEntity
  8
0
100
AcDbLine
 10
986.5005600434063
 20
359.5879643528797
 30
0.0
 11
986.500560043409
 21
412.5879643528815
 31
0.0
  0
LINE
  5
1389
330
2
100
AcDbEntity
  8
0
100
AcDbLine
 10
982.8005600434092
 20
412.5879643528815
 30
0.0
 11
982.8005600434073
 21
359.5879643528815
 31
0.0
  0
ARC
  5
138A
330
2
100
AcDbEntity
  8
0
100
AcDbCircle
 10
977.0005600434117
 20
425.9875672949011
 30
0.0
 40
1.0
100
AcDbArc
 50
0.0
 51
89.49999999998238
  0
LINE
  5
138B
330
2
100
AcDbEntity
  8
0
100
AcDbLine
 10
965.5005600434099
 20
427.0879643528815
 30
0.0
 11
977.0092865789104
 21
426.987529217965
 31
0.0
  0
LINE
  5
138C
330
2
100
AcDbEntity
  8
0
100
AcDbLine
 10
965.5005600434099
 20
418.0879643528833
 30
0.0
 11
975.0092865789076
 21
418.0049829535501
 31
0.0
  0
ARC
  5
138D
330
2
100
AcDbEntity
  8
0
100
AcDbCircle
 10
972.0005600434099
 20
417.0312016338585
 30
0.0
 40
1.0
100
AcDbArc
 50
0.0
 51
89.50000000000846
  0
ARC
  5
138E
330
2
100
AcDbEntity
  8
0
100
AcDbCircle
 10
975.0005600434098
 20
417.0050210304863
 30
0.0
 40
1.0
100
AcDbArc
 50
0.0
 51
89.50000000000846
  0
LINE
  5
138F
330
2
100
AcDbEntity
  8
0
100
AcDbLine
 10
965.5005600434099
 20
354.0879643528797
 30
0.0
 11
975.009286578904
 21
354.1709457522129
 31
0.0
  0
LINE
  5
1390
330
2
100
AcDbEntity
  8
0
100
AcDbLine
 10
973.4961967756602
 20
404.6098196000212
 30
0.0
 11
975.0092865789076
 21
404.5966150653521
 31
0.0
  0
ARC
  5
1391
330
2
100
AcDbEntity
  8
0
100
AcDbCircle
 10
973.500560043408
 20
405.1098005615522
 30
0.0
 40
0.5
100
AcDbArc
 50
180.0
 51
269.4999999999824
  0
ARC
  5
1392
330
2
100
AcDbEntity
  8
0
100
AcDbCircle
 10
975.000560043408
 20
403.5966531422882
 30
0.0
 40
1.0
100
AcDbArc
 50
0.0
 51
89.50000000000846
  0
LINE
  5
1393
330
2
100
AcDbEntity
  8
0
100
AcDbLine
 10
973.0005600434099
 20
355.1447270719045
 30
0.0
 11
973.0005600434081
 21
367.066128144209
 31
0.0
  0
ARC
  5
1394
330
2
100
AcDbEntity
  8
0
100
AcDbCircle
 10
972.0005600434099
 20
355.1447270719045
 30
0.0
 40
1.0
100
AcDbArc
 50
270.4999999999915
 51
0.0
  0
LINE
  5
1395
330
2
100
AcDbEntity
  8
0
100
AcDbLine
 10
973.4961967756602
 20
367.5661091057418
 30
0.0
 11
975.0092865789076
 21
367.5793136404109
 31
0.0
  0
ARC
  5
1396
330
2
100
AcDbEntity
  8
0
100
AcDbCircle
 10
973.500560043408
 20
367.066128144209
 30
0.0
 40
0.5
100
AcDbArc
 50
90.50000000001761
 51
180.0
  0
ARC
  5
1397
330
2
100
AcDbEntity
  8
0
100
AcDbCircle
 10
975.000560043408
 20
368.5792755634748
 30
0.0
 40
1.0
100
AcDbArc
 50
270.4999999999915
 51
0.0
  0
LINE
  5
1398
330
2
100
AcDbEntity
  8
0
100
AcDbLine
 10
980.1005600434084
 20
406.5879643528833
 30
0.0
 11
980.5005600434089
 21
407.2807846759106
 31
0.0
  0
LINE
  5
1399
330
2
100
AcDbEntity
  8
0
100
AcDbLine
 10
974.500560043409
 20
406.5879643528833
 30
0.0
 11
974.500560043409
 21
416.5879643528834
 31
0.0
  0
LINE
  5
139A
330
2
100
AcDbEntity
  8
0
100
AcDbLine
 10
980.1005600434084
 20
406.5879643528833
 30
0.0
 11
980.1005600434084
 21
416.5879643528834
 31
0.0
  0
LINE
  5
139B
330
2
100
AcDbEntity
  8
0
100
AcDbLine
 10
973.000560043409
 20
406.5879643528833
 30
0.0
 11
980.1005600434084
 21
406.5879643528833
 31
0.0
  0
LINE
  5
139C
330
2
100
AcDbEntity
  8
0
100
AcDbLine
 10
973.000560043409
 20
416.5879643528834
 30
0.0
 11
980.1005600434084
 21
416.5879643528834
 31
0.0
  0
LINE
  5
139D
330
2
100
AcDbEntity
  8
0
100
AcDbLine
 10
980.1005600434084
 20
416.5879643528834
 30
0.0
 11
980.5005600434089
 21
415.8951440298561
 31
0.0
  0
LINE
  5
139E
330
2
100
AcDbEntity
  8
0
100
AcDbLine
 10
980.5005600434089
 20
407.2807846759106
 30
0.0
 11
980.5005600434089
 21
415.8951440298561
 31
0.0
  0
LINE
  5
139F
330
2
100
AcDbEntity
  8
0
100
AcDbLine
 10
973.000560043409
 20
416.5879643528834
 30
0.0
 11
973.000560043409
 21
406.5879643528833
 31
0.0
  0
LINE
  5
13A0
330
2
100
AcDbEntity
  8
0
100
AcDbLine
 10
980.1005600434084
 20
365.5879643528797
 30
0.0
 11
980.5005600434089
 21
364.8951440298525
 31
0.0
  0
LINE
  5
13A1
330
2
100
AcDbEntity
  8
0
100
AcDbLine
 10
974.500560043409
 20
365.5879643528797
 30
0.0
 11
974.500560043409
 21
355.5879643528797
 31
0.0
  0
LINE
  5
13A2
330
2
100
AcDbEntity
  8
0
100
AcDbLine
 10
980.1005600434084
 20
365.5879643528797
 30
0.0
 11
980.1005600434084
 21
355.5879643528797
 31
0.0
  0
LINE
  5
13A3
330
2
100
AcDbEntity
  8
0
100
AcDbLine
 10
973.000560043409
 20
365.5879643528797
 30
0.0
 11
980.1005600434084
 21
365.5879643528797
 31
0.0
  0
LINE
  5
13A4
330
2
100
AcDbEntity
  8
0
100
AcDbLine
 10
973.000560043409
 20
355.5879643528797
 30
0.0
 11
980.1005600434084
 21
355.5879643528797
 31
0.0
  0
LINE
  5
13A5
330
2
100
AcDbEntity
  8
0
100
AcDbLine
 10
980.1005600434084
 20
355.5879643528797
 30
0.0
 11
980.5005600434089
 21
356.280784675907
 31
0.0
  0
LINE
  5
13A6
330
2
100
AcDbEntity
  8
0
100
AcDbLine
 10
980.5005600434089
 20
364.8951440298525
 30
0.0
 11
980.5005600434089
 21
356.280784675907
 31
0.0
  0
LINE
  5
13A7
330
2
100
AcDbEntity
  8
CENTER
  6
CENS
100
AcDbLine
 10
983.5005600434099
 20
411.5879643528833
 30
0.0
 11
962.5005600434045
 21
411.5879643528833
 31
0.0
  0
LINE
  5
13A8
330
2
100
AcDbEntity
  8
CENTER
  6
CENS
100
AcDbLine
 10
983.500560043409
 20
360.5879643528797
 30
0.0
 11
962.5005600434034
 21
360.5879643528797
 31
0.0
  0
LINE
  5
13A9
330
2
100
AcDbEntity
  8
CENTER
100
AcDbLine
 10
999.5005600434062
 20
386.0879643528815
 30
0.0
 11
866.5005600434062
 21
386.0879643528815
 31
0.0
  0
LINE
  5
13AA
330
2
100
AcDbEntity
  8
0
100
AcDbLine
 10
876.5005600434063
 20
371.5880103528807
 30
0.0
 11
876.5005600434063
 21
400.5880103528825
 31
0.0
  0
LINE
  5
13AB
330
2
100
AcDbEntity
  8
0
100
AcDbLine
 10
989.5005600434062
 20
371.5880103528807
 30
0.0
 11
989.5005600434062
 21
400.5880103528825
 31
0.0
  0
LINE
  5
13AC
330
2
100
AcDbEntity
  8
0
100
AcDbLine
 10
987.5005600434098
 20
400.5880103528825
 30
0.0
 11
989.5005600434062
 21
400.5880103528825
 31
0.0
  0
LINE
  5
13AD
330
2
100
AcDbEntity
  8
0
 48
0.5
100
AcDbLine
 10
889.5005600434062
 20
400.5880103528825
 30
0.0
 11
876.5005600434063
 21
400.5880103528825
 31
0.0
  0
LINE
  5
13AE
330
2
100
AcDbEntity
  8
0
100
AcDbLine
 10
987.5005600434118
 20
371.5880103528807
 30
0.0
 11
989.5005600434062
 21
371.5880103528807
 31
0.0
  0
LINE
  5
13AF
330
2
100
AcDbEntity
  8
0
 48
0.5
100
AcDbLine
 10
889.5005600434071
 20
371.5880103528807
 30
0.0
 11
876.5005600434063
 21
371.5880103528807
 31
0.0
  0
LINE
  5
13B0
330
2
100
AcDbEntity
  8
0
100
AcDbLine
 10
980.3892351780062
 20
416.0879643528797
 30
0.0
 11
980.5005600434135
 21
416.2807846759097
 31
0.0
  0
LINE
  5
13B1
330
2
100
AcDbEntity
  8
0
100
AcDbLine
 10
980.100560043413
 20
415.5879643528824
 30
0.0
 11
980.100560043413
 21
425.5879643528825
 31
0.0
  0
LINE
  5
13B2
330
2
100
AcDbEntity
  8
0
100
AcDbLine
 10
978.0005600434117
 20
425.5879643528825
 30
0.0
 11
980.100560043413
 21
425.5879643528825
 31
0.0
  0
LINE
  5
13B3
330
2
100
AcDbEntity
  8
0
100
AcDbLine
 10
980.100560043413
 20
425.5879643528825
 30
0.0
 11
980.5005600434135
 21
424.8951440298552
 31
0.0
  0
LINE
  5
13B4
330
2
100
AcDbEntity
  8
0
100
AcDbLine
 10
980.5005600434135
 20
416.2807846759097
 30
0.0
 11
980.5005600434135
 21
424.8951440298552
 31
0.0
  0
LINE
  5
13B5
330
2
100
AcDbEntity
  8
0
100
AcDbLine
 10
980.3892351780062
 20
356.0879643528851
 30
0.0
 11
980.5005600434135
 21
355.8951440298552
 31
0.0
  0
LINE
  5
13B6
330
2
100
AcDbEntity
  8
0
100
AcDbLine
 10
980.100560043413
 20
356.5879643528824
 30
0.0
 11
980.100560043413
 21
346.5879643528824
 31
0.0
  0
LINE
  5
13B7
330
2
100
AcDbEntity
  8
0
100
AcDbLine
 10
978.0005600434117
 20
346.5879643528824
 30
0.0
 11
980.100560043413
 21
346.5879643528824
 31
0.0
  0
LINE
  5
13B8
330
2
100
AcDbEntity
  8
0
100
AcDbLine
 10
980.100560043413
 20
346.5879643528824
 30
0.0
 11
980.5005600434135
 21
347.2807846759097
 31
0.0
  0
LINE
  5
13B9
330
2
100
AcDbEntity
  8
0
100
AcDbLine
 10
980.5005600434135
 20
355.8951440298552
 30
0.0
 11
980.5005600434135
 21
347.2807846759097
 31
0.0
  0
LINE
  5
13BA
330
2
100
AcDbEntity
  8
CENTER
  6
CENS
100
AcDbLine
 10
985.0792279535083
 20
420.5879643528824
 30
0.0
 11
960.5163742771267
 21
420.5879643528824
 31
0.0
  0
LINE
  5
13BB
330
2
100
AcDbEntity
  8
CENTER
  6
CENS
100
AcDbLine
 10
985.0792279535092
 20
351.5879643528824
 30
0.0
 11
960.5163742771276
 21
351.5879643528824
 31
0.0
  0
LINE
  5
13BC
330
2
100
AcDbEntity
  8
0
100
AcDbLine
 10
730.7664173961313
 20
619.2265935422565
 30
0.0
 11
708.6791553652886
 21
618.8410589494215
 31
0.0
  0
LINE
  5
13BD
330
2
100
AcDbEntity
  8
0
100
AcDbLine
 10
710.7315125832567
 20
664.6449058347589
 30
0.0
 11
730.7664173961313
 21
664.2951952704188
 31
0.0
  0
LINE
  5
13BE
330
2
100
AcDbEntity
  8
0
100
AcDbLine
 10
710.7315125832577
 20
609.8768829779165
 30
0.0
 11
730.7664173961313
 21
610.2265935422565
 31
0.0
  0
LINE
  5
13BF
330
2
100
AcDbEntity
  8
0
100
AcDbLine
 10
732.7315125832567
 20
612.2262889325684
 30
0.0
 11
732.7315125832567
 21
662.2954998801069
 31
0.0
  0
ARC
  5
13C0
330
2
100
AcDbEntity
  8
0
100
AcDbCircle
 10
730.7315125832567
 20
621.2262889325693
 30
0.0
 40
2.0
100
AcDbArc
 50
270.9999999999757
 51
0.0
  0
ARC
  5
13C1
330
2
100
AcDbEntity
  8
0
100
AcDbCircle
 10
730.7315125832567
 20
662.2954998801069
 30
0.0
 40
2.0
100
AcDbArc
 50
0.0
 51
88.99999999999822
  0
LINE
  5
13C2
330
2
100
AcDbEntity
  8
0
100
AcDbLine
 10
734.6791586866404
 20
617.2333375497382
 30
0.0
 11
735.7315125832567
 21
617.2608944063377
 31
0.0
  0
ARC
  5
13C3
330
2
100
AcDbEntity
  8
0
100
AcDbCircle
 10
730.7315125832567
 20
612.2262889325684
 30
0.0
 40
2.0
100
AcDbArc
 50
271.0000000000017
 51
0.0
  0
LINE
  5
13C4
330
2
100
AcDbEntity
  8
0
100
AcDbLine
 10
705.7315125846001
 20
667.1997682534047
 30
0.0
 11
705.7315125846001
 21
607.3220205592706
 31
0.0
  0
LINE
  5
13C5
330
2
100
AcDbEntity
  8
0
100
AcDbLine
 10
697.7315125832567
 20
606.2608944063376
 30
0.0
 11
704.7402391200987
 21
606.3220586362067
 31
0.0
  0
ARC
  5
13C6
330
2
100
AcDbEntity
  8
0
100
AcDbCircle
 10
708.7315125846
 20
615.8415158639527
 30
0.0
 40
3.0
100
AcDbArc
 50
91.00000000000177
 51
180.0
  0
ARC
  5
13C7
330
2
100
AcDbEntity
  8
0
100
AcDbCircle
 10
940.500560043408
 20
386.0879643528806
 30
0.0
 40
27.00000000000004
100
AcDbArc
 50
133.6028189727125
 51
260.4059317731223
  0
LINE
  5
13C8
330
2
100
AcDbEntity
  8
0
100
AcDbLine
 10
958.5005600434081
 20
361.0879643528806
 30
0.0
 11
958.5005600434081
 21
365.0879643528806
 31
0.0
  0
LINE
  5
13C9
330
2
100
AcDbEntity
  8
0
100
AcDbLine
 10
968.5005600434081
 20
355.0879643528806
 30
0.0
 11
912.500560043408
 21
355.0879643528806
 31
0.0
  0
LINE
  5
13CA
330
2
100
AcDbEntity
  8
0
100
AcDbLine
 10
937.7049075531951
 20
359.0879643528806
 30
0.0
 11
956.500560043408
 21
359.0879643528806
 31
0.0
  0
ARC
  5
13CB
330
2
100
AcDbEntity
  8
0
100
AcDbCircle
 10
912.500560043408
 20
358.0879643528806
 30
0.0
 40
3.0
100
AcDbArc
 50
180.0
 51
270.0
  0
ARC
  5
13CC
330
2
100
AcDbEntity
  8
0
100
AcDbCircle
 10
956.500560043408
 20
361.0879643528806
 30
0.0
 40
2.0
100
AcDbArc
 50
270.0
 51
0.0
  0
ARC
  5
13CD
330
2
100
AcDbEntity
  8
0
100
AcDbCircle
 10
968.5005600434081
 20
358.0879643528806
 30
0.0
 40
3.0
100
AcDbArc
 50
270.0
 51
0.0
  0
LINE
  5
13CE
330
2
100
AcDbEntity
  8
0
100
AcDbLine
 10
912.4525631548943
 20
417.0879643528806
 30
0.0
 11
926.3144193817772
 21
417.0879643528825
 31
0.0
  0
LINE
  5
13CF
330
2
100
AcDbEntity
  8
0
100
AcDbLine
 10
938.6867007050343
 20
417.0879643528842
 30
0.0
 11
968.5005600434081
 21
417.0879643528888
 31
0.0
  0
CIRCLE
  5
13D0
330
2
100
AcDbEntity
  8
0
100
AcDbCircle
 10
940.500560043408
 20
386.0879643528806
 30
0.0
 40
14.99999999999994
  0
LINE
  5
13D1
330
2
100
AcDbEntity
  8
0
100
AcDbLine
 10
924.5005600434081
 20
406.0879643528806
 30
0.0
 11
956.5005600434062
 21
406.0879643528806
 31
0.0
  0
LINE
  5
13D2
330
2
100
AcDbEntity
  8
0
100
AcDbLine
 10
956.5005600434062
 20
366.0879643528806
 30
0.0
 11
924.5005600434081
 21
366.0879643528806
 31
0.0
  0
ARC
  5
13D3
330
2
100
AcDbEntity
  8
0
100
AcDbCircle
 10
940.500560043408
 20
386.0879643528806
 30
0.0
 40
27.00000000000004
100
AcDbArc
 50
313.6028189727125
 51
80.40593177312233
  0
LINE
  5
13D4
330
2
100
AcDbEntity
  8
0
100
AcDbLine
 10
920.5005600434081
 20
370.0879643528806
 30
0.0
 11
920.5005600434081
 21
402.0879643528806
 31
0.0
  0
ARC
  5
13D5
330
2
100
AcDbEntity
  8
0
100
AcDbCircle
 10
924.5005600434081
 20
370.0879643528806
 30
0.0
 40
4.0
100
AcDbArc
 50
180.0
 51
270.0
  0
LINE
  5
13D6
330
2
100
AcDbEntity
  8
0
100
AcDbLine
 10
943.2962125336191
 20
413.0879643528806
 30
0.0
 11
924.5005600434081
 21
413.0879643528806
 31
0.0
  0
LINE
  5
13D7
330
2
100
AcDbEntity
  8
0
100
AcDbLine
 10
922.500560043408
 20
411.0879643528806
 30
0.0
 11
922.500560043408
 21
407.0879643528806
 31
0.0
  0
ARC
  5
13D8
330
2
100
AcDbEntity
  8
0
100
AcDbCircle
 10
920.5005600434081
 20
407.0879643528806
 30
0.0
 40
2.0
100
AcDbArc
 50
313.6028189727125
 51
0.0
  0
ARC
  5
13D9
330
2
100
AcDbEntity
  8
0
100
AcDbCircle
 10
924.5005600434081
 20
402.0879643528806
 30
0.0
 40
4.0
100
AcDbArc
 50
90.0
 51
180.0
  0
ARC
  5
13DA
330
2
100
AcDbEntity
  8
0
100
AcDbCircle
 10
912.500560043408
 20
414.0879643528806
 30
0.0
 40
3.0
100
AcDbArc
 50
90.0
 51
180.0
  0
ARC
  5
13DB
330
2
100
AcDbEntity
  8
0
100
AcDbCircle
 10
924.5005600434081
 20
411.0879643528806
 30
0.0
 40
2.0
100
AcDbArc
 50
90.0
 51
180.0
  0
LINE
  5
13DC
330
2
100
AcDbEntity
  8
0
100
AcDbLine
 10
960.5005600434063
 20
402.0879643528806
 30
0.0
 11
960.5005600434063
 21
370.0879643528806
 31
0.0
  0
ARC
  5
13DD
330
2
100
AcDbEntity
  8
0
100
AcDbCircle
 10
960.5005600434081
 20
365.0879643528806
 30
0.0
 40
2.0
100
AcDbArc
 50
133.6028189727125
 51
180.0
  0
ARC
  5
13DE
330
2
100
AcDbEntity
  8
0
100
AcDbCircle
 10
956.5005600434062
 20
370.0879643528806
 30
0.0
 40
4.0
100
AcDbArc
 50
270.0
 51
0.0
  0
ARC
  5
13DF
330
2
100
AcDbEntity
  8
0
100
AcDbCircle
 10
956.5005600434062
 20
402.0879643528806
 30
0.0
 40
4.0
100
AcDbArc
 50
0.0
 51
90.0
  0
ARC
  5
13E0
330
2
100
AcDbEntity
  8
0
100
AcDbCircle
 10
968.5005600434081
 20
414.0879643528806
 30
0.0
 40
3.0
100
AcDbArc
 50
0.0
 51
90.0
  0
ARC
  5
13E1
330
2
100
AcDbEntity
  8
0
100
AcDbCircle
 10
704.7315125846
 20
607.3220205592706
 30
0.0
 40
1.0
100
AcDbArc
 50
270.4999999999915
 51
0.0
  0
LINE
  5
13E2
330
2
100
AcDbEntity
  8
0
100
AcDbLine
 10
735.7315125832567
 20
657.2608944063376
 30
0.0
 11
735.7315125832567
 21
617.2608944063377
 31
0.0
  0
ARC
  5
13E3
330
2
100
AcDbEntity
  8
0
100
AcDbCircle
 10
734.7315125832567
 20
615.2340228997872
 30
0.0
 40
2.0
100
AcDbArc
 50
91.50000000001575
 51
180.0
  0
LINE
  5
13E4
330
2
100
AcDbEntity
  8
0
100
AcDbLine
 10
734.6791586866413
 20
657.2884512629371
 30
0.0
 11
735.7315125832577
 21
657.2608944063376
 31
0.0
  0
ARC
  5
13E5
330
2
100
AcDbEntity
  8
0
100
AcDbCircle
 10
734.7315125832567
 20
659.287765912888
 30
0.0
 40
2.0
100
AcDbArc
 50
180.0
 51
268.4999999999842
  0
ARC
  5
13E6
330
2
100
AcDbEntity
  8
0
100
AcDbCircle
 10
937.7049075531951
 20
362.0879643528806
 30
0.0
 40
3.0
100
AcDbArc
 50
248.4451812910238
 51
270.0
  0
ARC
  5
13E7
330
2
100
AcDbEntity
  8
0
100
AcDbCircle
 10
935.5005600434081
 20
356.5075654373832
 30
0.0
 40
3.0
100
AcDbArc
 50
68.44518129102394
 51
80.40593177312233
  0
ARC
  5
13E8
330
2
100
AcDbEntity
  8
0
100
AcDbCircle
 10
943.2962125336191
 20
410.0879643528806
 30
0.0
 40
3.0
100
AcDbArc
 50
68.44518129102394
 51
90.0
  0
ARC
  5
13E9
330
2
100
AcDbEntity
  8
0
100
AcDbCircle
 10
945.5005600434081
 20
415.6683632683789
 30
0.0
 40
3.0
100
AcDbArc
 50
248.4451812910238
 51
260.4059317731223
  0
LINE
  5
13EA
330
2
100
AcDbEntity
  8
HIDS
100
AcDbLine
 10
938.2505600434081
 20
413.0879643528806
 30
0.0
 11
938.2505600434081
 21
403.442718744689
 31
0.0
  0
LINE
  5
13EB
330
2
100
AcDbEntity
  8
HIDS
100
AcDbLine
 10
926.7505600434081
 20
413.0879643528806
 30
0.0
 11
926.7505600434081
 21
396.9132819001852
 31
0.0
  0
CIRCLE
  5
13EC
330
2
100
AcDbEntity
  8
HIDS
100
AcDbCircle
 10
940.500560043408
 20
386.0879643528806
 30
0.0
 40
17.4999999999992
  0
LINE
  5
13ED
330
2
100
AcDbEntity
  8
0
100
AcDbLine
 10
697.7315125832567
 20
668.2608944063376
 30
0.0
 11
704.7402391200987
 21
668.1997301764686
 31
0.0
  0
ARC
  5
13EE
330
2
100
AcDbEntity
  8
0
100
AcDbCircle
 10
704.7315125846
 20
667.1997682534047
 30
0.0
 40
1.0
100
AcDbArc
 50
0.0
 51
89.50000000000846
  0
ARC
  5
13EF
330
2
100
AcDbEntity
  8
0
100
AcDbCircle
 10
710.2062401278874
 20
669.6548361397917
 30
0.0
 40
5.0
100
AcDbArc
 50
204.1532073122305
 51
206.4985685482887
  0
LINE
  5
13F0
330
2
100
AcDbEntity
  8
0
100
AcDbLine
 10
730.7315125832567
 20
639.2958045361938
 30
0.0
 11
708.7315125846
 21
639.6798159645913
 31
0.0
  0
CIRCLE
  5
13F1
330
2
100
AcDbEntity
  8
0
100
AcDbCircle
 10
913.6305023583183
 20
412.9580220379694
 30
0.0
 40
1.732050807568871
  0
LWPOLYLINE
  5
13F2
330
2
100
AcDbEntity
  8
0
100
AcDbPolyline
 90
        6
 70
     1
 43
0.0
 10
915.1305023583184
 20
413.8240474417544
 10
913.6305023583183
 20
414.6900728455385
 10
912.1305023583184
 20
413.8240474417544
 10
912.1305023583184
 20
412.0919966341853
 10
913.6305023583183
 20
411.2259712304004
 10
915.1305023583184
 20
412.0919966341853
  0
CIRCLE
  5
13F3
330
2
100
AcDbEntity
  8
0
100
AcDbCircle
 10
913.6305023583183
 20
412.9580220379694
 30
0.0
 40
3.499999999999717
  0
CIRCLE
  5
13F4
330
2
100
AcDbEntity
  8
0
100
AcDbCircle
 10
913.6305023583183
 20
412.9580220379694
 30
0.0
 40
2.980384757729353
  0
CIRCLE
  5
13F5
330
2
100
AcDbEntity
  8
0
100
AcDbCircle
 10
967.3706177284959
 20
412.9580220379694
 30
0.0
 40
1.732050807568871
  0
LWPOLYLINE
  5
13F6
330
2
100
AcDbEntity
  8
0
100
AcDbPolyline
 90
        6
 70
     1
 43
0.0
 10
968.8706177284959
 20
413.8240474417544
 10
967.3706177284959
 20
414.6900728455385
 10
965.870617728496
 20
413.8240474417544
 10
965.870617728496
 20
412.0919966341853
 10
967.3706177284959
 20
411.2259712304004
 10
968.8706177284959
 20
412.0919966341853
  0
CIRCLE
  5
13F7
330
2
100
AcDbEntity
  8
0
100
AcDbCircle
 10
967.3706177284959
 20
412.9580220379694
 30
0.0
 40
3.499999999999717
  0
CIRCLE
  5
13F8
330
2
100
AcDbEntity
  8
0
100
AcDbCircle
 10
967.3706177284959
 20
412.9580220379694
 30
0.0
 40
2.980384757729353
  0
CIRCLE
  5
13F9
330
2
100
AcDbEntity
  8
0
100
AcDbCircle
 10
967.3706177284959
 20
359.2179066677918
 30
0.0
 40
1.732050807568871
  0
LWPOLYLINE
  5
13FA
330
2
100
AcDbEntity
  8
0
100
AcDbPolyline
 90
        6
 70
     1
 43
0.0
 10
968.8706177284959
 20
360.0839320715768
 10
967.3706177284959
 20
360.9499574753609
 10
965.870617728496
 20
360.0839320715768
 10
965.870617728496
 20
358.3518812640077
 10
967.3706177284959
 20
357.4858558602227
 10
968.8706177284959
 20
358.3518812640077
  0
CIRCLE
  5
13FB
330
2
100
AcDbEntity
  8
0
100
AcDbCircle
 10
967.3706177284959
 20
359.2179066677918
 30
0.0
 40
3.499999999999717
  0
CIRCLE
  5
13FC
330
2
100
AcDbEntity
  8
0
100
AcDbCircle
 10
967.3706177284959
 20
359.2179066677918
 30
0.0
 40
2.980384757729353
  0
CIRCLE
  5
13FD
330
2
100
AcDbEntity
  8
0
100
AcDbCircle
 10
913.6305023583183
 20
359.2179066677918
 30
0.0
 40
1.732050807568871
  0
LWPOLYLINE
  5
13FE
330
2
100
AcDbEntity
  8
0
100
AcDbPolyline
 90
        6
 70
     1
 43
0.0
 10
915.1305023583184
 20
360.0839320715768
 10
913.6305023583183
 20
360.9499574753609
 10
912.1305023583184
 20
360.0839320715768
 10
912.1305023583184
 20
358.3518812640077
 10
913.6305023583183
 20
357.4858558602227
 10
915.1305023583184
 20
358.3518812640077
  0
CIRCLE
  5
13FF
330
2
100
AcDbEntity
  8
0
100
AcDbCircle
 10
913.6305023583183
 20
359.2179066677918
 30
0.0
 40
3.499999999999717
  0
CIRCLE
  5
1400
330
2
100
AcDbEntity
  8
0
100
AcDbCircle
 10
913.6305023583183
 20
359.2179066677918
 30
0.0
 40
2.980384757729353
  0
LINE
  5
1401
330
2
100
AcDbEntity
  8
CENTER
100
AcDbLine
 10
913.6305023583183
 20
418.7907111205659
 30
0.0
 11
913.6305023583183
 21
407.1253329553729
 31
0.0
  0
LINE
  5
1402
330
2
100
AcDbEntity
  8
CENTER
100
AcDbLine
 10
907.7978132757218
 20
412.9580220379694
 30
0.0
 11
919.4631914409157
 21
412.9580220379694
 31
0.0
  0
LINE
  5
1403
330
2
100
AcDbEntity
  8
CENTER
100
AcDbLine
 10
967.3706177284959
 20
418.7907111205668
 30
0.0
 11
967.3706177284959
 21
407.1253329553729
 31
0.0
  0
LINE
  5
1404
330
2
100
AcDbEntity
  8
CENTER
100
AcDbLine
 10
961.5379286458994
 20
412.9580220379694
 30
0.0
 11
973.2033068110935
 21
412.9580220379694
 31
0.0
  0
LINE
  5
1405
330
2
100
AcDbEntity
  8
CENTER
100
AcDbLine
 10
967.3706177284959
 20
365.0505957503892
 30
0.0
 11
967.3706177284959
 21
353.3852175851953
 31
0.0
  0
LINE
  5
1406
330
2
100
AcDbEntity
  8
CENTER
100
AcDbLine
 10
961.5379286458994
 20
359.2179066677918
 30
0.0
 11
973.2033068110935
 21
359.2179066677918
 31
0.0
  0
LINE
  5
1407
330
2
100
AcDbEntity
  8
CENTER
100
AcDbLine
 10
913.6305023583183
 20
365.0505957503892
 30
0.0
 11
913.6305023583183
 21
353.3852175851953
 31
0.0
  0
LINE
  5
1408
330
2
100
AcDbEntity
  8
CENTER
100
AcDbLine
 10
907.7978132757218
 20
359.2179066677918
 30
0.0
 11
919.4631914409157
 21
359.2179066677918
 31
0.0
  0
ARC
  5
1409
330
2
100
AcDbEntity
  8
0
100
AcDbCircle
 10
708.7024857727112
 20
606.8410091990663
 30
0.0
 40
3.0
100
AcDbArc
 50
172.0232228966861
 51
173.0933050840563
  0
ARC
  5
140A
330
2
100
AcDbEntity
  8
0
100
AcDbCircle
 10
708.7024857727112
 20
667.680779613609
 30
0.0
 40
3.0
100
AcDbArc
 50
186.9066949159436
 51
187.9767771033138
  0
LINE
  5
140B
330
2
100
AcDbEntity
  8
0
100
AcDbLine
 10
706.7315125832577
 20
606.8908367212489
 30
0.0
 11
705.7315125832576
 21
606.8908367212489
 31
0.0
  0
LINE
  5
140C
330
2
100
AcDbEntity
  8
0
100
AcDbLine
 10
705.7315125832576
 20
606.8908367212489
 30
0.0
 11
705.7315125832576
 21
613.8908367212488
 31
0.0
  0
LINE
  5
140D
330
2
100
AcDbEntity
  8
0
100
AcDbLine
 10
705.7315125832576
 20
613.8908367212488
 30
0.0
 11
706.7315125832577
 21
613.8908367212488
 31
0.0
  0
LINE
  5
140E
330
2
100
AcDbEntity
  8
0
100
AcDbLine
 10
706.7315125832577
 20
613.8908367212488
 30
0.0
 11
706.7315125832577
 21
606.8908367212489
 31
0.0
  0
LINE
  5
140F
330
2
100
AcDbEntity
  8
0
100
AcDbLine
 10
710.7315125832577
 20
607.4104519635193
 30
0.0
 11
710.7315125832577
 21
613.3712214789775
 31
0.0
  0
LINE
  5
1410
330
2
100
AcDbEntity
  8
0
100
AcDbLine
 10
710.4315125832575
 20
613.8908367212488
 30
0.0
 11
710.4315125832575
 21
606.8908367212489
 31
0.0
  0
LINE
  5
1411
330
2
100
AcDbEntity
  8
0
100
AcDbLine
 10
710.4315125832575
 20
613.8908367212488
 30
0.0
 11
706.7315125832577
 21
613.8908367212488
 31
0.0
  0
LINE
  5
1412
330
2
100
AcDbEntity
  8
0
100
AcDbLine
 10
710.4315125832575
 20
613.8908367212488
 30
0.0
 11
710.7315125832577
 21
613.3712214789775
 31
0.0
  0
LINE
  5
1413
330
2
100
AcDbEntity
  8
0
100
AcDbLine
 10
710.7315125832577
 20
607.4104519635193
 30
0.0
 11
710.4315125832575
 21
606.8908367212489
 31
0.0
  0
LINE
  5
1414
330
2
100
AcDbEntity
  8
0
100
AcDbLine
 10
706.7315125832577
 20
606.8908367212489
 30
0.0
 11
710.4315125832575
 21
606.8908367212489
 31
0.0
  0
LINE
  5
1415
330
2
100
AcDbEntity
  8
0
100
AcDbLine
 10
706.7315125832577
 20
660.6309520914265
 30
0.0
 11
705.7315125832576
 21
660.6309520914265
 31
0.0
  0
LINE
  5
1416
330
2
100
AcDbEntity
  8
0
100
AcDbLine
 10
705.7315125832576
 20
660.6309520914265
 30
0.0
 11
705.7315125832576
 21
667.6309520914265
 31
0.0
  0
LINE
  5
1417
330
2
100
AcDbEntity
  8
0
100
AcDbLine
 10
705.7315125832576
 20
667.6309520914265
 30
0.0
 11
706.7315125832577
 21
667.6309520914265
 31
0.0
  0
LINE
  5
1418
330
2
100
AcDbEntity
  8
0
100
AcDbLine
 10
706.7315125832577
 20
667.6309520914265
 30
0.0
 11
706.7315125832577
 21
660.6309520914265
 31
0.0
  0
LINE
  5
1419
330
2
100
AcDbEntity
  8
0
100
AcDbLine
 10
710.7315125832577
 20
661.1505673336969
 30
0.0
 11
710.7315125832577
 21
667.1113368491551
 31
0.0
  0
LINE
  5
141A
330
2
100
AcDbEntity
  8
0
100
AcDbLine
 10
710.4315125832565
 20
667.6309520914265
 30
0.0
 11
710.4315125832565
 21
660.6309520914265
 31
0.0
  0
LINE
  5
141B
330
2
100
AcDbEntity
  8
0
100
AcDbLine
 10
710.4315125832565
 20
667.6309520914265
 30
0.0
 11
706.7315125832577
 21
667.6309520914265
 31
0.0
  0
LINE
  5
141C
330
2
100
AcDbEntity
  8
0
100
AcDbLine
 10
710.4315125832565
 20
667.6309520914265
 30
0.0
 11
710.7315125832577
 21
667.1113368491551
 31
0.0
  0
LINE
  5
141D
330
2
100
AcDbEntity
  8
0
100
AcDbLine
 10
710.7315125832577
 20
661.1505673336969
 30
0.0
 11
710.4315125832565
 21
660.6309520914265
 31
0.0
  0
LINE
  5
141E
330
2
100
AcDbEntity
  8
0
100
AcDbLine
 10
706.7315125832577
 20
660.6309520914265
 30
0.0
 11
710.4315125832565
 21
660.6309520914265
 31
0.0
  0
LINE
  5
141F
330
2
100
AcDbEntity
  8
CENTER
  6
CENS
100
AcDbLine
 10
715.7315125832568
 20
610.3908367212479
 30
0.0
 11
692.7315554936342
 21
610.3908367212479
 31
0.0
  0
LINE
  5
1420
330
2
100
AcDbEntity
  8
CENTER
  6
CENS
100
AcDbLine
 10
715.7315125832568
 20
664.1309520914255
 30
0.0
 11
692.7315554936342
 21
664.1309520914255
 31
0.0
  0
LINE
  5
1422
330
2
100
AcDbEntity
  8
CENTER
  6
CENS
100
AcDbLine
 10
932.500560043408
 20
419.7749627434605
 30
0.0
 11
932.500560043408
 21
372.7287896753314
 31
0.0
  0
LINE
  5
1423
330
2
100
AcDbEntity
  8
0
100
AcDbLine
 10
928.2735407827706
 20
386.8379643528815
 30
0.0
 11
936.5715016320329
 21
386.8379643528815
 31
0.0
  0
LINE
  5
1424
330
2
100
AcDbEntity
  8
0
100
AcDbLine
 10
928.2735407827706
 20
385.3379643528815
 30
0.0
 11
936.5715016320329
 21
385.3379643528815
 31
0.0
  0
LINE
  5
1425
330
2
100
AcDbEntity
  8
0
100
AcDbLine
 10
952.7275793040455
 20
385.3379643528815
 30
0.0
 11
944.4296184547832
 21
385.3379643528815
 31
0.0
  0
LINE
  5
1426
330
2
100
AcDbEntity
  8
0
100
AcDbLine
 10
944.4296184547832
 20
386.8379643528815
 30
0.0
 11
952.7275793040455
 21
386.8379643528815
 31
0.0
  0
CIRCLE
  5
1427
330
2
100
AcDbEntity
  8
0
100
AcDbCircle
 10
940.500560043408
 20
386.0879643528815
 30
0.0
 40
3.999999999998976
  0
ARC
  5
1428
330
2
100
AcDbEntity
  8
0
100
AcDbCircle
 10
940.500560043408
 20
386.0879643528815
 30
0.0
 40
4.577350269188627
100
AcDbArc
 50
189.4304498503549
 51
350.569550149645
  0
ARC
  5
1429
330
2
100
AcDbEntity
  8
0
100
AcDbCircle
 10
940.500560043408
 20
386.0879643528815
 30
0.0
 40
4.577350269188627
100
AcDbArc
 50
9.430449850354946
 51
170.569550149645
  0
LINE
  5
142A
330
2
100
AcDbEntity
  8
HIDS
100
AcDbLine
 10
929.317425420236
 20
391.0879643528815
 30
0.0
 11
936.000560043408
 21
391.0879643528815
 31
0.0
  0
LINE
  5
142B
330
2
100
AcDbEntity
  8
0
100
AcDbLine
 10
929.0005600434081
 20
394.7879643528813
 30
0.0
 11
931.8766108320554
 21
394.7879643528813
 31
0.0
  0
LINE
  5
142C
330
2
100
AcDbEntity
  8
0
100
AcDbLine
 10
929.0005600434081
 20
394.7879643528813
 30
0.0
 11
929.5201752856794
 21
395.0879643528815
 31
0.0
  0
LINE
  5
142D
330
2
100
AcDbEntity
  8
HIDS
100
AcDbLine
 10
929.317425420236
 20
391.0879643528815
 30
0.0
 11
936.5005600434081
 21
391.0879643528815
 31
0.0
  0
LINE
  5
142E
330
2
100
AcDbEntity
  8
0
100
AcDbLine
 10
929.0005600434081
 20
394.7879643528813
 30
0.0
 11
929.0005600434081
 21
391.0879643528815
 31
0.0
  0
LINE
  5
142F
330
2
100
AcDbEntity
  8
HIDS
100
AcDbLine
 10
930.500560043408
 20
391.0879643528815
 30
0.0
 11
930.8338933767419
 21
389.4212976862145
 31
0.0
  0
LINE
  5
1430
330
2
100
AcDbEntity
  8
HIDS
100
AcDbLine
 10
934.5005600434081
 20
391.0879643528815
 30
0.0
 11
934.1672267100751
 21
389.4212976862145
 31
0.0
  0
LINE
  5
1431
330
2
100
AcDbEntity
  8
HIDS
100
AcDbLine
 10
934.5005600434081
 20
391.0879643528815
 30
0.0
 11
934.5005600434081
 21
386.8379643528815
 31
0.0
  0
LINE
  5
1432
330
2
100
AcDbEntity
  8
HIDS
100
AcDbLine
 10
930.500560043408
 20
391.0879643528815
 30
0.0
 11
930.500560043408
 21
386.8379643528815
 31
0.0
  0
LINE
  5
1433
330
2
100
AcDbEntity
  8
HIDS
100
AcDbLine
 10
930.0005600434081
 20
391.0879643528815
 30
0.0
 11
930.0005600434081
 21
386.8379643528815
 31
0.0
  0
LINE
  5
1434
330
2
100
AcDbEntity
  8
HIDS
100
AcDbLine
 10
935.000560043408
 20
391.0879643528815
 30
0.0
 11
935.000560043408
 21
386.8379643528815
 31
0.0
  0
LINE
  5
1435
330
2
100
AcDbEntity
  8
HIDS
100
AcDbLine
 10
934.5005600434081
 20
385.3379643528815
 30
0.0
 11
934.5005600434081
 21
376.8879643528817
 31
0.0
  0
LINE
  5
1436
330
2
100
AcDbEntity
  8
HIDS
100
AcDbLine
 10
934.1672267100751
 20
385.3379643528815
 30
0.0
 11
934.1672267100751
 21
376.5546310195478
 31
0.0
  0
LINE
  5
1437
330
2
100
AcDbEntity
  8
HIDS
100
AcDbLine
 10
930.8338933767419
 20
385.3379643528815
 30
0.0
 11
930.8338933767419
 21
378.5634673228096
 31
0.0
  0
LINE
  5
1438
330
2
100
AcDbEntity
  8
0
100
AcDbLine
 10
930.500560043408
 20
379.0124785038388
 30
0.0
 11
930.500560043408
 21
376.8879643528817
 31
0.0
  0
LINE
  5
1439
330
2
100
AcDbEntity
  8
HIDS
100
AcDbLine
 10
934.5005600434081
 20
385.3379643528815
 30
0.0
 11
934.5005600434081
 21
375.4079596712345
 31
0.0
  0
LINE
  5
143A
330
2
100
AcDbEntity
  8
HIDS
100
AcDbLine
 10
934.5005600434081
 20
376.8879643528817
 30
0.0
 11
932.500560043408
 21
376.8879643528817
 31
0.0
  0
LINE
  5
143B
330
2
100
AcDbEntity
  8
0
100
AcDbLine
 10
933.7005600434087
 20
376.0879643528815
 30
0.0
 11
933.4250741943662
 21
376.0879643528815
 31
0.0
  0
LINE
  5
143C
330
2
100
AcDbEntity
  8
HOJO
100
AcDbLine
 10
930.8338933767419
 20
378.5634673228096
 30
0.0
 11
930.8338933767419
 21
376.5546310195478
 31
0.0
  0
LINE
  5
143D
330
2
100
AcDbEntity
  8
0
100
AcDbLine
 10
931.3005600434092
 20
376.0879643528815
 30
0.0
 11
933.4250741943662
 21
376.0879643528815
 31
0.0
  0
LINE
  5
143E
330
2
100
AcDbEntity
  8
0
100
AcDbLine
 10
930.500560043408
 20
376.8879643528817
 30
0.0
 11
932.4121423984045
 21
376.8879643528817
 31
0.0
  0
LINE
  5
143F
330
2
100
AcDbEntity
  8
0
100
AcDbLine
 10
932.4121423984045
 20
376.8879643528817
 30
0.0
 11
932.500560043408
 21
376.8879643528817
 31
0.0
  0
LINE
  5
1440
330
2
100
AcDbEntity
  8
0
100
AcDbLine
 10
930.500560043408
 20
376.8879643528817
 30
0.0
 11
931.3005600434092
 21
376.0879643528815
 31
0.0
  0
LINE
  5
1441
330
2
100
AcDbEntity
  8
HIDS
100
AcDbLine
 10
934.5005600434081
 20
376.8879643528817
 30
0.0
 11
933.7005600434087
 21
376.0879643528815
 31
0.0
  0
LINE
  5
1442
330
2
100
AcDbEntity
  8
HIDS
100
AcDbLine
 10
930.500560043408
 20
385.3379643528815
 30
0.0
 11
930.500560043408
 21
379.0124785038388
 31
0.0
  0
LINE
  5
1443
330
2
100
AcDbEntity
  8
HIDS
100
AcDbLine
 10
930.500560043408
 20
385.3379643528815
 30
0.0
 11
930.500560043408
 21
379.0124785038388
 31
0.0
  0
LINE
  5
1444
330
2
100
AcDbEntity
  8
HIDS
100
AcDbLine
 10
934.5005600434081
 20
389.4212976862145
 30
0.0
 11
930.500560043408
 21
389.4212976862145
 31
0.0
  0
LINE
  5
1445
330
2
100
AcDbEntity
  8
HOJO
100
AcDbLine
 10
930.8338933767419
 20
386.8379643528815
 30
0.0
 11
930.8338933767419
 21
385.3379643528815
 31
0.0
  0
LINE
  5
1446
330
2
100
AcDbEntity
  8
0
100
AcDbLine
 10
930.500560043408
 20
386.8379643528815
 30
0.0
 11
930.500560043408
 21
385.3379643528815
 31
0.0
  0
LINE
  5
1447
330
2
100
AcDbEntity
  8
HIDS
100
AcDbLine
 10
930.8338933767419
 20
389.4212976862145
 30
0.0
 11
930.8338933767419
 21
386.8379643528815
 31
0.0
  0
LINE
  5
1448
330
2
100
AcDbEntity
  8
HOJO
100
AcDbLine
 10
934.1672267100751
 20
386.8379643528815
 30
0.0
 11
934.1672267100751
 21
385.3379643528815
 31
0.0
  0
LINE
  5
1449
330
2
100
AcDbEntity
  8
0
100
AcDbLine
 10
934.5005600434081
 20
386.8379643528815
 30
0.0
 11
934.5005600434081
 21
385.3379643528815
 31
0.0
  0
LINE
  5
144A
330
2
100
AcDbEntity
  8
HIDS
100
AcDbLine
 10
934.1672267100751
 20
389.4212976862145
 30
0.0
 11
934.1672267100751
 21
386.8379643528815
 31
0.0
  0
LINE
  5
144B
330
2
100
AcDbEntity
  8
HIDS
100
AcDbLine
 10
936.5005600434081
 20
397.666500529791
 30
0.0
 11
936.5005600434081
 21
391.0879643528815
 31
0.0
  0
LINE
  5
144C
330
2
100
AcDbEntity
  8
HIDS
100
AcDbLine
 10
931.8766108320554
 20
394.7879643528813
 30
0.0
 11
936.000560043408
 21
394.7879643528813
 31
0.0
  0
LINE
  5
144D
330
2
100
AcDbEntity
  8
HIDS
100
AcDbLine
 10
935.4809448011376
 20
395.0879643528815
 30
0.0
 11
932.1901749741112
 21
395.0879643528815
 31
0.0
  0
LINE
  5
144E
330
2
100
AcDbEntity
  8
0
100
AcDbLine
 10
932.1901749741112
 20
395.0879643528815
 30
0.0
 11
929.5201752856794
 21
395.0879643528815
 31
0.0
  0
LINE
  5
144F
330
2
100
AcDbEntity
  8
HIDS
100
AcDbLine
 10
936.000560043408
 20
391.0879643528815
 30
0.0
 11
936.000560043408
 21
394.7879643528813
 31
0.0
  0
LINE
  5
1450
330
2
100
AcDbEntity
  8
HIDS
100
AcDbLine
 10
935.4809448011376
 20
395.0879643528815
 30
0.0
 11
936.000560043408
 21
394.7879643528813
 31
0.0
  0
LINE
  5
1451
330
2
100
AcDbEntity
  8
0
100
AcDbLine
 10
929.0005600434081
 20
391.0879643528815
 30
0.0
 11
929.317425420236
 21
391.0879643528815
 31
0.0
  0
LINE
  5
1452
330
2
100
AcDbEntity
  8
0
100
AcDbLine
 10
927.6255600434081
 20
417.3379643528815
 30
0.0
 11
937.375560043408
 21
417.3379643528815
 31
0.0
  0
ARC
  5
1453
330
2
100
AcDbEntity
  8
0
100
AcDbCircle
 10
927.6255600434081
 20
413.0879643528815
 30
0.0
 40
4.25
100
AcDbArc
 50
90.0
 51
180.0
  0
LINE
  5
1454
330
2
100
AcDbEntity
  8
0
100
AcDbLine
 10
941.5005600434081
 20
413.0879643528815
 30
0.0
 11
923.3755600434081
 21
413.0879643528815
 31
0.0
  0
CIRCLE
  5
1455
330
2
100
AcDbEntity
  8
0
100
AcDbCircle
 10
723.7315125832567
 20
629.2608944063377
 30
0.0
 40
8.858967454193532
  0
LINE
  5
1456
330
2
100
AcDbEntity
  8
CENTER
  6
CENS
100
AcDbLine
 10
723.7315125832576
 20
618.1417909677556
 30
0.0
 11
723.7315125832576
 21
640.3799978449206
 31
0.0
  0
LINE
  5
1457
330
2
100
AcDbEntity
  8
CENTER
  6
CENS
100
AcDbLine
 10
734.8506160218396
 20
629.2608944063377
 30
0.0
 11
712.6124091446747
 21
629.2608944063377
 31
0.0
  0
LINE
  5
1459
330
2
100
AcDbEntity
  8
CENTER
100
AcDbLine
 10
956.4105124678857
 20
404.9978669295787
 30
0.0
 11
956.4105124678857
 21
398.9978669295788
 31
0.0
  0
CIRCLE
  5
145A
330
2
100
AcDbEntity
  8
HOJO
100
AcDbCircle
 10
956.4105124678857
 20
401.9978704617825
 30
0.0
 40
1.5
  0
CIRCLE
  5
145B
330
2
100
AcDbEntity
  8
0
100
AcDbCircle
 10
956.4105124678857
 20
401.9978704617825
 30
0.0
 40
1.25
  0
CIRCLE
  5
145C
330
2
100
AcDbEntity
  8
CENTER
100
AcDbCircle
 10
940.500560043408
 20
386.0879643528815
 30
0.0
 40
22.50003524773091
  0
LINE
  5
145D
330
2
100
AcDbEntity
  8
CENTER
100
AcDbLine
 10
953.4105124678855
 20
401.9978669295788
 30
0.0
 11
959.4105124678856
 21
401.9978669295788
 31
0.0
  0
LINE
  5
145E
330
2
100
AcDbEntity
  8
CENTER
100
AcDbLine
 10
924.5906574667108
 20
398.9979203095936
 30
0.0
 11
924.5906574667108
 21
404.9979203095936
 31
0.0
  0
CIRCLE
  5
145F
330
2
100
AcDbEntity
  8
HOJO
100
AcDbCircle
 10
924.5906574667108
 20
401.9980446880699
 30
0.0
 40
1.5
  0
CIRCLE
  5
1460
330
2
100
AcDbEntity
  8
0
100
AcDbCircle
 10
924.5906574667108
 20
401.9980446880699
 30
0.0
 40
1.25
  0
LINE
  5
1461
330
2
100
AcDbEntity
  8
CENTER
100
AcDbLine
 10
921.5906574667108
 20
401.9979203095936
 30
0.0
 11
927.5906574667107
 21
401.9979203095936
 31
0.0
  0
LINE
  5
1462
330
2
100
AcDbEntity
  8
CENTER
100
AcDbLine
 10
927.5906574667107
 20
370.1781826223896
 30
0.0
 11
921.5906574667108
 21
370.1781826223896
 31
0.0
  0
CIRCLE
  5
1463
330
2
100
AcDbEntity
  8
HOJO
100
AcDbCircle
 10
924.5906574667108
 20
370.1780617761842
 30
0.0
 40
1.5
  0
CIRCLE
  5
1464
330
2
100
AcDbEntity
  8
0
100
AcDbCircle
 10
924.5906574667108
 20
370.1780617761842
 30
0.0
 40
1.25
  0
LINE
  5
1465
330
2
100
AcDbEntity
  8
CENTER
100
AcDbLine
 10
924.5906574667108
 20
367.1781826223896
 30
0.0
 11
924.5906574667108
 21
373.1781826223896
 31
0.0
  0
LINE
  5
1466
330
2
100
AcDbEntity
  8
CENTER
100
AcDbLine
 10
956.4104626201054
 20
373.1780617761842
 30
0.0
 11
956.4104626201054
 21
367.1780617761843
 31
0.0
  0
CIRCLE
  5
1467
330
2
100
AcDbEntity
  8
0
100
AcDbCircle
 10
956.4104626201054
 20
370.1780617761842
 30
0.0
 40
1.25
  0
CIRCLE
  5
1468
330
2
100
AcDbEntity
  8
HOJO
100
AcDbCircle
 10
956.4104626201054
 20
370.1780617761842
 30
0.0
 40
1.5
  0
LINE
  5
1469
330
2
100
AcDbEntity
  8
CENTER
100
AcDbLine
 10
959.4104626201053
 20
370.1780617761842
 30
0.0
 11
953.4104626201054
 21
370.1780617761842
 31
0.0
  0
LINE
  5
146A
330
2
100
AcDbEntity
  8
0
100
AcDbLine
 10
55.04992078914916
 20
413.1222652169638
 30
0.0
 11
75.08482560202287
 21
413.4719757813039
 31
0.0
  0
LINE
  5
146B
330
2
100
AcDbEntity
  8
0
100
AcDbLine
 10
51.13717949863917
 20
406.1155212094821
 30
0.0
 11
50.08482560202287
 21
406.0879643528826
 31
0.0
  0
ARC
  5
146C
330
2
100
AcDbEntity
  8
0
100
AcDbCircle
 10
55.08482560202287
 20
411.1225698266519
 30
0.0
 40
2.0
100
AcDbArc
 50
91.00000000000177
 51
180.0
  0
LINE
  5
146D
330
2
100
AcDbEntity
  8
0
100
AcDbLine
 10
88.08482560202378
 20
417.0879643528826
 30
0.0
 11
81.07609906652511
 21
417.0268001230254
 31
0.0
  0
ARC
  5
146E
330
2
100
AcDbEntity
  8
0
100
AcDbCircle
 10
81.08482560202288
 20
416.0268381999615
 30
0.0
 40
1.0
100
AcDbArc
 50
90.49999999999155
 51
180.0
  0
ARC
  5
146F
330
2
100
AcDbEntity
  8
0
100
AcDbCircle
 10
77.11385241256926
 20
416.507849560154
 30
0.0
 40
3.0
100
AcDbArc
 50
352.0232228967157
 51
353.0933050840563
  0
LINE
  5
1470
330
2
100
AcDbEntity
  8
0
100
AcDbLine
 10
50.08482560202287
 20
406.0879643528826
 30
0.0
 11
50.08482560202287
 21
366.0879643528827
 31
0.0
  0
ARC
  5
1471
330
2
100
AcDbEntity
  8
0
100
AcDbCircle
 10
51.08482560202379
 20
408.1148358594339
 30
0.0
 40
2.0
100
AcDbArc
 50
271.5000000000157
 51
0.0
  0
LINE
  5
1472
330
2
100
AcDbEntity
  8
CENTER
  6
CENS
100
AcDbLine
 10
62.08482560336711
 20
419.7749627434625
 30
0.0
 11
62.08482560336711
 21
396.4150367410957
 31
0.0
  0
LINE
  5
1473
330
2
100
AcDbEntity
  8
0
100
AcDbLine
 10
55.04992078914916
 20
359.0536634888015
 30
0.0
 11
75.08482560202287
 21
358.7039529244614
 31
0.0
  0
LINE
  5
1474
330
2
100
AcDbEntity
  8
0
100
AcDbLine
 10
51.13717949863917
 20
366.0604074962833
 30
0.0
 11
50.08482560202287
 21
366.0879643528827
 31
0.0
  0
ARC
  5
1475
330
2
100
AcDbEntity
  8
0
100
AcDbCircle
 10
55.08482560202287
 20
361.0533588791143
 30
0.0
 40
2.0
100
AcDbArc
 50
180.0
 51
268.9999999999982
  0
LINE
  5
1476
330
2
100
AcDbEntity
  8
0
100
AcDbLine
 10
88.08482560202378
 20
355.0879643528826
 30
0.0
 11
81.07609906652511
 21
355.1491285827399
 31
0.0
  0
ARC
  5
1477
330
2
100
AcDbEntity
  8
0
100
AcDbCircle
 10
81.08482560202379
 20
356.1490905058038
 30
0.0
 40
1.0
100
AcDbArc
 50
180.0
 51
269.5000000000084
  0
ARC
  5
1478
330
2
100
AcDbEntity
  8
0
100
AcDbCircle
 10
77.11385241256926
 20
355.6680791456113
 30
0.0
 40
3.0
100
AcDbArc
 50
6.906694915943661
 51
7.976777103284242
  0
ARC
  5
1479
330
2
100
AcDbEntity
  8
0
100
AcDbCircle
 10
51.08482560202379
 20
364.0610928463323
 30
0.0
 40
2.0
100
AcDbArc
 50
0.0
 51
88.49999999998424
  0
LINE
  5
147A
330
2
100
AcDbEntity
  8
0
100
AcDbLine
 10
54.08482560202651
 20
366.5243409760881
 30
0.0
 11
79.08482560202378
 21
366.0879643528827
 31
0.0
  0
LINE
  5
147B
330
2
100
AcDbEntity
  8
0
100
AcDbLine
 10
53.08482560202287
 20
361.0533588791143
 30
0.0
 11
53.08482560202287
 21
411.1225698266519
 31
0.0
  0
LINE
  5
147C
330
2
100
AcDbEntity
  8
0
100
AcDbLine
 10
80.08482560202379
 20
416.0268381999615
 30
0.0
 11
80.08482560202287
 21
356.1490905058038
 31
0.0
  0
LINE
  5
147D
330
2
100
AcDbEntity
  8
0
100
AcDbLine
 10
79.08482560202287
 20
416.4580220379715
 30
0.0
 11
80.08482560202287
 21
416.4580220379715
 31
0.0
  0
LINE
  5
147E
330
2
100
AcDbEntity
  8
0
100
AcDbLine
 10
80.08482560202287
 20
416.4580220379715
 30
0.0
 11
80.08482560202287
 21
409.4580220379715
 31
0.0
  0
LINE
  5
147F
330
2
100
AcDbEntity
  8
0
100
AcDbLine
 10
80.08482560202287
 20
409.4580220379715
 30
0.0
 11
79.08482560202287
 21
409.4580220379715
 31
0.0
  0
LINE
  5
1480
330
2
100
AcDbEntity
  8
0
100
AcDbLine
 10
79.08482560202287
 20
409.4580220379715
 30
0.0
 11
79.08482560202287
 21
416.4580220379715
 31
0.0
  0
LINE
  5
1481
330
2
100
AcDbEntity
  8
0
100
AcDbLine
 10
75.08482560202287
 20
415.938406795701
 30
0.0
 11
75.08482560202287
 21
409.9776372802428
 31
0.0
  0
LINE
  5
1482
330
2
100
AcDbEntity
  8
0
100
AcDbLine
 10
75.38482560202306
 20
409.4580220379715
 30
0.0
 11
75.38482560202306
 21
416.4580220379715
 31
0.0
  0
LINE
  5
1483
330
2
100
AcDbEntity
  8
0
100
AcDbLine
 10
75.38482560202306
 20
409.4580220379715
 30
0.0
 11
79.08482560202287
 21
409.4580220379715
 31
0.0
  0
LINE
  5
1484
330
2
100
AcDbEntity
  8
0
100
AcDbLine
 10
75.38482560202306
 20
409.4580220379715
 30
0.0
 11
75.08482560202287
 21
409.9776372802428
 31
0.0
  0
LINE
  5
1485
330
2
100
AcDbEntity
  8
0
100
AcDbLine
 10
75.08482560202287
 20
415.938406795701
 30
0.0
 11
75.38482560202306
 21
416.4580220379715
 31
0.0
  0
LINE
  5
1486
330
2
100
AcDbEntity
  8
0
100
AcDbLine
 10
79.08482560202287
 20
416.4580220379715
 30
0.0
 11
75.38482560202306
 21
416.4580220379715
 31
0.0
  0
LINE
  5
1487
330
2
100
AcDbEntity
  8
0
100
AcDbLine
 10
79.08482560202287
 20
362.7179066677939
 30
0.0
 11
80.08482560202287
 21
362.7179066677939
 31
0.0
  0
LINE
  5
1488
330
2
100
AcDbEntity
  8
0
100
AcDbLine
 10
80.08482560202287
 20
362.7179066677939
 30
0.0
 11
80.08482560202287
 21
355.7179066677939
 31
0.0
  0
LINE
  5
1489
330
2
100
AcDbEntity
  8
0
100
AcDbLine
 10
80.08482560202287
 20
355.7179066677939
 30
0.0
 11
79.08482560202287
 21
355.7179066677939
 31
0.0
  0
LINE
  5
148A
330
2
100
AcDbEntity
  8
0
100
AcDbLine
 10
79.08482560202287
 20
355.7179066677939
 30
0.0
 11
79.08482560202287
 21
362.7179066677939
 31
0.0
  0
LINE
  5
148B
330
2
100
AcDbEntity
  8
0
100
AcDbLine
 10
75.08482560202287
 20
362.1982914255234
 30
0.0
 11
75.08482560202287
 21
356.2375219100652
 31
0.0
  0
LINE
  5
148C
330
2
100
AcDbEntity
  8
0
100
AcDbLine
 10
75.38482560202396
 20
355.7179066677939
 30
0.0
 11
75.38482560202396
 21
362.7179066677939
 31
0.0
  0
LINE
  5
148D
330
2
100
AcDbEntity
  8
0
100
AcDbLine
 10
75.38482560202396
 20
355.7179066677939
 30
0.0
 11
79.08482560202287
 21
355.7179066677939
 31
0.0
  0
LINE
  5
148E
330
2
100
AcDbEntity
  8
0
100
AcDbLine
 10
75.38482560202396
 20
355.7179066677939
 30
0.0
 11
75.08482560202287
 21
356.2375219100652
 31
0.0
  0
LINE
  5
148F
330
2
100
AcDbEntity
  8
0
100
AcDbLine
 10
75.08482560202287
 20
362.1982914255234
 30
0.0
 11
75.38482560202396
 21
362.7179066677939
 31
0.0
  0
LINE
  5
1490
330
2
100
AcDbEntity
  8
0
100
AcDbLine
 10
79.08482560202287
 20
362.7179066677939
 30
0.0
 11
75.38482560202396
 21
362.7179066677939
 31
0.0
  0
LINE
  5
1491
330
2
100
AcDbEntity
  8
CENTER
  6
CENS
100
AcDbLine
 10
70.08482560202378
 20
412.9580220379724
 30
0.0
 11
93.08478269164629
 21
412.9580220379724
 31
0.0
  0
LINE
  5
1492
330
2
100
AcDbEntity
  8
CENTER
  6
CENS
100
AcDbLine
 10
70.08482560202378
 20
359.2179066677948
 30
0.0
 11
93.08478269164629
 21
359.2179066677948
 31
0.0
  0
LINE
  5
1493
330
2
100
AcDbEntity
  8
0
100
AcDbLine
 10
57.15543930404987
 20
417.1596264915245
 30
0.0
 11
67.15391625561392
 21
417.3341505558976
 31
0.0
  0
ARC
  5
1494
330
2
100
AcDbEntity
  8
0
100
AcDbCircle
 10
67.22372588136318
 20
413.334759775272
 30
0.0
 40
3.99999999999998
100
AcDbArc
 50
1.000000000001775
 51
90.99999999997569
  0
LINE
  5
1495
330
2
100
AcDbEntity
  8
0
100
AcDbLine
 10
71.22311666198879
 20
413.4045694010213
 30
0.0
 11
53.22585814917352
 21
413.0904260851496
 31
0.0
  0
ARC
  5
1496
330
2
100
AcDbEntity
  8
0
100
AcDbCircle
 10
57.22524892979913
 20
413.1602357108989
 30
0.0
 40
4.000000000000023
100
AcDbArc
 50
90.99999999997569
 51
181.0000000000017
  0
LINE
  5
1497
330
2
100
AcDbEntity
  8
0
100
AcDbLine
 10
923.500560043408
 20
413.0879643528815
 30
0.0
 11
923.500560043408
 21
413.0879643528815
 31
0.0
  0
ARC
  5
1498
330
2
100
AcDbEntity
  8
0
100
AcDbCircle
 10
937.125560043408
 20
413.0879643528815
 30
0.0
 40
4.25
100
AcDbArc
 50
0.0
 51
90.0
  0
LINE
  5
1499
330
2
100
AcDbEntity
  8
0
100
AcDbLine
 10
730.7664173991545
 20
413.1222652169636
 30
0.0
 11
710.7315125862808
 21
413.4719757813036
 31
0.0
  0
LINE
  5
149A
330
2
100
AcDbEntity
  8
0
100
AcDbLine
 10
732.7315125862798
 20
403.253164368738
 30
0.0
 11
732.7315125862808
 21
411.1225698266517
 31
0.0
  0
LINE
  5
149B
330
2
100
AcDbEntity
  8
0
100
AcDbLine
 10
734.6791586896645
 20
406.1155212094818
 30
0.0
 11
735.7315125862808
 21
406.0879643528824
 31
0.0
  0
ARC
  5
149C
330
2
100
AcDbEntity
  8
0
100
AcDbCircle
 10
730.7315125862808
 20
411.1225698266517
 30
0.0
 40
2.0
100
AcDbArc
 50
0.0
 51
88.99999999999822
  0
LINE
  5
149D
330
2
100
AcDbEntity
  8
0
100
AcDbLine
 10
697.7315125862799
 20
417.0879643528825
 30
0.0
 11
704.7402391217786
 21
417.0268001230252
 31
0.0
  0
ARC
  5
149E
330
2
100
AcDbEntity
  8
0
100
AcDbCircle
 10
704.7315125862808
 20
416.0268381999613
 30
0.0
 40
1.0
100
AcDbArc
 50
0.0
 51
89.50000000000846
  0
LINE
  5
149F
330
2
100
AcDbEntity
  8
0
100
AcDbLine
 10
705.7315125862808
 20
416.0268381999613
 30
0.0
 11
705.7315125862799
 21
393.4118503713744
 31
0.0
  0
ARC
  5
14A0
330
2
100
AcDbEntity
  8
0
100
AcDbCircle
 10
708.7024857757344
 20
416.5078495601538
 30
0.0
 40
3.0
100
AcDbArc
 50
186.9066949159436
 51
187.9767771032842
  0
LINE
  5
14A1
330
2
100
AcDbEntity
  8
0
100
AcDbLine
 10
735.7315125862808
 20
406.0879643528824
 30
0.0
 11
735.7315125862808
 21
366.0879643528824
 31
0.0
  0
ARC
  5
14A2
330
2
100
AcDbEntity
  8
0
100
AcDbCircle
 10
734.7315125862799
 20
408.1148358594337
 30
0.0
 40
2.0
100
AcDbArc
 50
180.0
 51
268.4999999999842
  0
LINE
  5
14A3
330
2
100
AcDbEntity
  8
CENTER
  6
CENS
100
AcDbLine
 10
723.7315125849366
 20
419.7749627434623
 30
0.0
 11
723.7315125849366
 21
396.5891867500691
 31
0.0
  0
LINE
  5
14A4
330
2
100
AcDbEntity
  8
0
100
AcDbLine
 10
730.7664173991545
 20
359.0536634888013
 30
0.0
 11
710.7315125862808
 21
358.7039529244612
 31
0.0
  0
LINE
  5
14A5
330
2
100
AcDbEntity
  8
0
100
AcDbLine
 10
734.6791586896645
 20
366.060407496283
 30
0.0
 11
735.7315125862808
 21
366.0879643528824
 31
0.0
  0
ARC
  5
14A6
330
2
100
AcDbEntity
  8
0
100
AcDbCircle
 10
730.7315125862808
 20
361.0533588791141
 30
0.0
 40
2.0
100
AcDbArc
 50
271.0000000000017
 51
0.0
  0
LINE
  5
14A7
330
2
100
AcDbEntity
  8
0
100
AcDbLine
 10
697.7315125862799
 20
355.0879643528824
 30
0.0
 11
704.7402391217786
 21
355.1491285827397
 31
0.0
  0
ARC
  5
14A8
330
2
100
AcDbEntity
  8
0
100
AcDbCircle
 10
704.7315125862799
 20
356.1490905058036
 30
0.0
 40
1.0
100
AcDbArc
 50
270.4999999999915
 51
0.0
  0
ARC
  5
14A9
330
2
100
AcDbEntity
  8
0
100
AcDbCircle
 10
708.7024857757344
 20
355.668079145611
 30
0.0
 40
3.0
100
AcDbArc
 50
172.0232228967157
 51
173.0933050840563
  0
ARC
  5
14AA
330
2
100
AcDbEntity
  8
0
100
AcDbCircle
 10
734.7315125862799
 20
364.0610928463321
 30
0.0
 40
2.0
100
AcDbArc
 50
91.50000000001575
 51
180.0
  0
LINE
  5
14AB
330
2
100
AcDbEntity
  8
0
100
AcDbLine
 10
731.7315125862771
 20
405.651587729677
 30
0.0
 11
706.7315125862799
 21
406.0879643528824
 31
0.0
  0
SPLINE
  5
14AC
330
2
100
AcDbEntity
  8
HOJO
100
AcDbSpline
210
0.0
220
0.0
230
1.0
 70
     8
 71
     3
 72
    15
 73
    11
 74
     0
 42
0.0000000001
 43
0.0000000001
 40
1.229586671925319
 40
1.229586671925319
 40
1.229586671925319
 40
1.229586671925319
 40
9.059721493801909
 40
14.01454332224558
 40
17.68854249089321
 40
25.49282471102274
 40
30.81266567978604
 40
35.19147887412627
 40
39.07871238777226
 40
41.18872123517163
 40
41.18872123517163
 40
41.18872123517163
 40
41.18872123517163
 10
735.731512586288
 20
403.6601270297833
 30
0.0
 10
732.9213731753018
 20
403.3929367414385
 30
0.0
 10
728.5127553939539
 20
402.6938128485444
 30
0.0
 10
725.6211086113165
 20
397.7226907340191
 30
0.0
 10
719.92695541346
 20
394.0379178915709
 30
0.0
 10
715.2481128762012
 20
394.8027538939696
 30
0.0
 10
709.5761313911427
 20
394.024298421793
 30
0.0
 10
705.0945796404041
 20
393.3473506720202
 30
0.0
 10
700.6063858503587
 20
392.3809394032796
 30
0.0
 10
698.7429812539178
 20
386.7007263295891
 30
0.0
 10
698.5253382377461
 20
386.0879643528824
 30
0.0
  0
LINE
  5
14AD
330
2
100
AcDbEntity
  8
0
100
AcDbLine
 10
732.7315125862808
 20
361.0533588791141
 30
0.0
 11
732.7315125862808
 21
386.0879643528824
 31
0.0
  0
LINE
  5
14AE
330
2
100
AcDbEntity
  8
0
100
AcDbLine
 10
705.7315125862799
 20
386.0879643528824
 30
0.0
 11
705.7315125862808
 21
356.1490905058036
 31
0.0
  0
LINE
  5
14AF
330
2
100
AcDbEntity
  8
0
100
AcDbLine
 10
706.7315125862807
 20
416.4580220379712
 30
0.0
 11
705.7315125862808
 21
416.4580220379712
 31
0.0
  0
LINE
  5
14B0
330
2
100
AcDbEntity
  8
0
100
AcDbLine
 10
705.7315125862808
 20
416.4580220379712
 30
0.0
 11
705.7315125862808
 21
409.4580220379712
 31
0.0
  0
LINE
  5
14B1
330
2
100
AcDbEntity
  8
0
100
AcDbLine
 10
705.7315125862808
 20
409.4580220379712
 30
0.0
 11
706.7315125862807
 21
409.4580220379712
 31
0.0
  0
LINE
  5
14B2
330
2
100
AcDbEntity
  8
0
100
AcDbLine
 10
706.7315125862807
 20
409.4580220379712
 30
0.0
 11
706.7315125862807
 21
416.4580220379712
 31
0.0
  0
LINE
  5
14B3
330
2
100
AcDbEntity
  8
0
100
AcDbLine
 10
710.7315125862808
 20
415.9384067957008
 30
0.0
 11
710.7315125862808
 21
409.9776372802426
 31
0.0
  0
LINE
  5
14B4
330
2
100
AcDbEntity
  8
0
100
AcDbLine
 10
710.4315125862806
 20
409.4580220379712
 30
0.0
 11
710.4315125862806
 21
416.4580220379712
 31
0.0
  0
LINE
  5
14B5
330
2
100
AcDbEntity
  8
0
100
AcDbLine
 10
710.4315125862806
 20
409.4580220379712
 30
0.0
 11
706.7315125862807
 21
409.4580220379712
 31
0.0
  0
LINE
  5
14B6
330
2
100
AcDbEntity
  8
0
100
AcDbLine
 10
710.4315125862806
 20
409.4580220379712
 30
0.0
 11
710.7315125862808
 21
409.9776372802426
 31
0.0
  0
LINE
  5
14B7
330
2
100
AcDbEntity
  8
0
100
AcDbLine
 10
710.7315125862808
 20
415.9384067957008
 30
0.0
 11
710.4315125862806
 21
416.4580220379712
 31
0.0
  0
LINE
  5
14B8
330
2
100
AcDbEntity
  8
0
100
AcDbLine
 10
706.7315125862807
 20
416.4580220379712
 30
0.0
 11
710.4315125862806
 21
416.4580220379712
 31
0.0
  0
LINE
  5
14B9
330
2
100
AcDbEntity
  8
0
100
AcDbLine
 10
706.7315125862807
 20
362.7179066677936
 30
0.0
 11
705.7315125862808
 21
362.7179066677936
 31
0.0
  0
LINE
  5
14BA
330
2
100
AcDbEntity
  8
0
100
AcDbLine
 10
705.7315125862808
 20
362.7179066677936
 30
0.0
 11
705.7315125862808
 21
355.7179066677936
 31
0.0
  0
LINE
  5
14BB
330
2
100
AcDbEntity
  8
0
100
AcDbLine
 10
705.7315125862808
 20
355.7179066677936
 30
0.0
 11
706.7315125862807
 21
355.7179066677936
 31
0.0
  0
LINE
  5
14BC
330
2
100
AcDbEntity
  8
0
100
AcDbLine
 10
706.7315125862807
 20
355.7179066677936
 30
0.0
 11
706.7315125862807
 21
362.7179066677936
 31
0.0
  0
LINE
  5
14BD
330
2
100
AcDbEntity
  8
0
100
AcDbLine
 10
710.7315125862808
 20
362.1982914255232
 30
0.0
 11
710.7315125862808
 21
356.237521910065
 31
0.0
  0
LINE
  5
14BE
330
2
100
AcDbEntity
  8
0
100
AcDbLine
 10
710.4315125862797
 20
355.7179066677936
 30
0.0
 11
710.4315125862797
 21
362.7179066677936
 31
0.0
  0
LINE
  5
14BF
330
2
100
AcDbEntity
  8
0
100
AcDbLine
 10
710.4315125862797
 20
355.7179066677936
 30
0.0
 11
706.7315125862807
 21
355.7179066677936
 31
0.0
  0
LINE
  5
14C0
330
2
100
AcDbEntity
  8
0
100
AcDbLine
 10
710.4315125862797
 20
355.7179066677936
 30
0.0
 11
710.7315125862808
 21
356.237521910065
 31
0.0
  0
LINE
  5
14C1
330
2
100
AcDbEntity
  8
0
100
AcDbLine
 10
710.7315125862808
 20
362.1982914255232
 30
0.0
 11
710.4315125862797
 21
362.7179066677936
 31
0.0
  0
LINE
  5
14C2
330
2
100
AcDbEntity
  8
0
100
AcDbLine
 10
706.7315125862807
 20
362.7179066677936
 30
0.0
 11
710.4315125862797
 21
362.7179066677936
 31
0.0
  0
LINE
  5
14C3
330
2
100
AcDbEntity
  8
CENTER
  6
CENS
100
AcDbLine
 10
715.7315125862798
 20
412.9580220379721
 30
0.0
 11
692.7315554966574
 21
412.9580220379721
 31
0.0
  0
LINE
  5
14C4
330
2
100
AcDbEntity
  8
CENTER
  6
CENS
100
AcDbLine
 10
715.7315125862798
 20
359.2179066677946
 30
0.0
 11
692.7315554966574
 21
359.2179066677946
 31
0.0
  0
LINE
  5
14C5
330
2
100
AcDbEntity
  8
0
100
AcDbLine
 10
731.7315125862799
 20
401.0879643528824
 30
0.0
 11
735.7315125862808
 21
401.0879643528824
 31
0.0
  0
ARC
  5
14C6
330
2
100
AcDbEntity
  8
0
100
AcDbCircle
 10
729.7315125862799
 20
401.2075829051465
 30
0.0
 40
2.0
100
AcDbArc
 50
0.0
 51
52.22196899339028
  0
LINE
  5
14C7
330
2
100
AcDbEntity
  8
0
100
AcDbLine
 10
731.7315125862799
 20
401.2075829051465
 30
0.0
 11
731.7315125862799
 21
386.0879643528824
 31
0.0
  0
LINE
  5
14C8
330
2
100
AcDbEntity
  8
0
100
AcDbLine
 10
719.2315125862807
 20
390.0879643528824
 30
0.0
 11
730.2315125862808
 21
390.0879643528824
 31
0.0
  0
LINE
  5
14C9
330
2
100
AcDbEntity
  8
0
100
AcDbLine
 10
719.2315125862807
 20
386.0879643528824
 30
0.0
 11
719.2315125862807
 21
394.6481527819169
 31
0.0
  0
LINE
  5
14CA
330
2
100
AcDbEntity
  8
0
100
AcDbLine
 10
725.6673920162013
 20
398.3379643528824
 30
0.0
 11
731.2315125862808
 21
398.3379643528824
 31
0.0
  0
LINE
  5
14CB
330
2
100
AcDbEntity
  8
0
100
AcDbLine
 10
731.2315125862808
 20
398.3379643528824
 30
0.0
 11
731.2315125862808
 21
386.0879643528824
 31
0.0
  0
LINE
  5
14CC
330
2
100
AcDbEntity
  8
0
100
AcDbLine
 10
730.2315125862808
 20
390.0879643528824
 30
0.0
 11
730.2315125862808
 21
386.0879643528824
 31
0.0
  0
LINE
  5
14CD
330
2
100
AcDbEntity
  8
0
100
AcDbLine
 10
730.2315125862808
 20
390.0879643528824
 30
0.0
 11
731.2315125862808
 21
390.6653146220724
 31
0.0
  0
LINE
  5
14CE
330
2
100
AcDbEntity
  8
0
100
AcDbLine
 10
717.2315125862808
 20
394.4919526373688
 30
0.0
 11
717.2315125862808
 21
386.0879643528824
 31
0.0
  0
LINE
  5
14CF
330
2
100
AcDbEntity
  8
0
100
AcDbLine
 10
710.7315125862808
 20
390.0879643528824
 30
0.0
 11
717.2315125862808
 21
390.0879643528824
 31
0.0
  0
LINE
  5
14D0
330
2
100
AcDbEntity
  8
0
100
AcDbLine
 10
712.7315125862808
 20
390.0879643528824
 30
0.0
 11
717.2315125862808
 21
390.0879643528824
 31
0.0
  0
LINE
  5
14D1
330
2
100
AcDbEntity
  8
0
100
AcDbLine
 10
707.2315125862807
 20
390.3379643528824
 30
0.0
 11
707.2315125862807
 21
386.0879643528824
 31
0.0
  0
LINE
  5
14D2
330
2
100
AcDbEntity
  8
0
100
AcDbLine
 10
710.7315125862808
 20
390.0879643528824
 30
0.0
 11
710.7315125862808
 21
386.0879643528824
 31
0.0
  0
LINE
  5
14D3
330
2
100
AcDbEntity
  8
0
100
AcDbLine
 10
710.7315125862808
 20
390.3379643528824
 30
0.0
 11
707.2315125862807
 21
390.3379643528824
 31
0.0
  0
LINE
  5
14D4
330
2
100
AcDbEntity
  8
0
100
AcDbLine
 10
710.7315125862808
 20
390.0879643528824
 30
0.0
 11
710.7315125862808
 21
390.3379643528824
 31
0.0
  0
LINE
  5
14D5
330
2
100
AcDbEntity
  8
0
100
AcDbLine
 10
707.2315125862807
 20
389.5879643528824
 30
0.0
 11
705.2107866441168
 21
386.0879643528824
 31
0.0
  0
LINE
  5
14D6
330
2
100
AcDbEntity
  8
0
100
AcDbLine
 10
728.6608988842537
 20
417.1596264915242
 30
0.0
 11
718.6624219326898
 21
417.3341505558974
 31
0.0
  0
ARC
  5
14D7
330
2
100
AcDbEntity
  8
0
100
AcDbCircle
 10
718.5926123069405
 20
413.3347597752718
 30
0.0
 40
3.99999999999998
100
AcDbArc
 50
89.0000000000243
 51
178.9999999999982
  0
LINE
  5
14D8
330
2
100
AcDbEntity
  8
0
100
AcDbLine
 10
714.5932215263148
 20
413.404569401021
 30
0.0
 11
732.5904800391302
 21
413.0904260851494
 31
0.0
  0
ARC
  5
14D9
330
2
100
AcDbEntity
  8
0
100
AcDbCircle
 10
728.5910892585045
 20
413.1602357108986
 30
0.0
 40
4.000000000000023
100
AcDbArc
 50
358.9999999999982
 51
89.0000000000243
  0
CIRCLE
  5
1A51
330
2
100
AcDbEntity
  8
0
100
AcDbCircle
 10
940.5005600434083
 20
386.0879643528815
 30
0.0
 40
12.25
  0
CIRCLE
  5
1A7C
330
2
100
AcDbEntity
  8
0
100
AcDbCircle
 10
590.7315125862817
 20
386.0879643528824
 30
0.0
 40
23.5774
  0
ENDSEC
  0
SECTION
  2
OBJECTS
  0
DICTIONARY
  5
7
330
0
100
AcDbDictionary
  3
ACAD_COLOR
350
190A
  3
ACAD_GROUP
350
75
  3
ACAD_LAYOUT
350
61
  3
ACAD_MATERIAL
350
18E0
  3
ACAD_MLEADERSTYLE
350
192F
  3
ACAD_MLINESTYLE
350
76
  3
ACAD_PLOTSETTINGS
350
77
  3
ACAD_PLOTSTYLENAME
350
6
  3
ACAD_SCALELIST
350
190D
  3
ACAD_TABLESTYLE
350
190B
  3
ACAD_VISUALSTYLE
350
18F9
  3
ACADDIM
350
480
  3
ACDB_RECOMPOSE_DATA
350
1A27
  3
ACDBHEADERROUNDTRIPXREC
350
1A96
  3
ACDBVARIABLEDICTIONARY
350
102
  3
DWGPROPS
350
1A53
  0
DICTIONARY
  5
1A30
330
6E
100
AcDbDictionary
280
     1
  3
ACAD_XREC_ROUNDTRIP
360
1A5B
  0
DICTIONARY
  5
B12
330
66
100
AcDbDictionary
280
     1
  3
ACAD_LAYERSTATES
360
B13
  0
DICTIONARY
  5
195E
330
5E
100
AcDbDictionary
280
     1
  3
ACAD_XREC_ROUNDTRIP
360
1A56
  3
ADSK_XREC_LAYER_RECONCILED
360
195F
  0
DICTIONARY
  5
1960
330
3E
100
AcDbDictionary
280
     1
  3
ACAD_XREC_ROUNDTRIP
360
1A55
  3
ADSK_XREC_LAYER_RECONCILED
360
1961
  0
DICTIONARY
  5
1966
330
2B5
100
AcDbDictionary
280
     1
  3
ACAD_XREC_ROUNDTRIP
360
1A61
  3
ADSK_XREC_LAYER_RECONCILED
360
1967
  0
DICTIONARY
  5
1968
330
2BA
100
AcDbDictionary
280
     1
  3
ACAD_XREC_ROUNDTRIP
360
1A62
  3
ADSK_XREC_LAYER_RECONCILED
360
1969
  0
DICTIONARY
  5
196C
330
3FA
100
AcDbDictionary
280
     1
  3
ACAD_XREC_ROUNDTRIP
360
1A64
  3
ADSK_XREC_LAYER_RECONCILED
360
196D
  0
DICTIONARY
  5
196E
330
478
100
AcDbDictionary
280
     1
  3
ACAD_XREC_ROUNDTRIP
360
1A65
  3
ADSK_XREC_LAYER_RECONCILED
360
196F
  0
DICTIONARY
  5
1AB7
330
2
100
AcDbDictionary
280
     1
  3
ACAD_LAYOUTSELFREF
360
1AB8
  0
DICTIONARY
  5
1AB9
330
1A90
100
AcDbDictionary
280
     1
  3
ACAD_LAYOUTSELFREF
360
1ABA
  0
DICTIONARY
  5
190A
102
{ACAD_REACTORS
330
7
102
}
330
7
100
AcDbDictionary
  0
DICTIONARY
  5
75
102
{ACAD_REACTORS
330
7
102
}
330
7
100
AcDbDictionary
  0
DICTIONARY
  5
61
102
{ACAD_REACTORS
330
7
102
}
330
7
100
AcDbDictionary
  0
DICTIONARY
  5
18E0
102
{ACAD_REACTORS
330
7
102
}
330
7
100
AcDbDictionary
  3
BYBLOCK
350
18E9
  3
BYLAYER
350
18E1
  3
GLOBAL
350
18F1
  0
DICTIONARY
  5
192F
102
{ACAD_REACTORS
330
7
102
}
330
7
100
AcDbDictionary
  3
STANDARD
350
1930
  0
DICTIONARY
  5
76
102
{ACAD_REACTORS
330
7
102
}
330
7
100
AcDbDictionary
  3
STANDARD
350
78
  0
DICTIONARY
  5
77
102
{ACAD_REACTORS
330
7
102
}
330
7
100
AcDbDictionary
  0
ACDBDICTIONARYWDFLT
  5
6
102
{ACAD_REACTORS
330
7
102
}
330
7
100
AcDbDictionary
281
     1
  3
Normal
350
5
100
AcDbDictionaryWithDefault
340
5
  0
DICTIONARY
  5
190D
102
{ACAD_REACTORS
330
7
102
}
330
7
100
AcDbDictionary
  3
A0
350
190E
  3
A1
350
190F
  3
A2
350
1910
  3
A3
350
1911
  3
A4
350
1912
  3
A5
350
1913
  3
A6
350
1914
  3
A7
350
1915
  3
A8
350
1916
  3
A9
350
1917
  3
B0
350
1918
  3
B1
350
1919
  3
B2
350
191A
  3
B3
350
191B
  3
B4
350
191C
  3
B5
350
191D
  3
B6
350
191E
  3
B7
350
191F
  3
B8
350
1920
  3
B9
350
1921
  3
C0
350
1922
  3
C1
350
1923
  3
C2
350
1924
  3
C3
350
1925
  3
C4
350
1926
  3
C5
350
1927
  3
C6
350
1928
  3
C7
350
1929
  3
C8
350
192A
  3
C9
350
192B
  3
D0
350
192C
  3
D1
350
192D
  3
D2
350
192E
  0
DICTIONARY
  5
190B
102
{ACAD_REACTORS
330
7
102
}
330
7
100
AcDbDictionary
  3
STANDARD
350
190C
  0
DICTIONARY
  5
18F9
102
{ACAD_REACTORS
330
7
102
}
330
7
100
AcDbDictionary
  3
2DWIREFRAME
350
18FF
  3
3D_HIDDEN
350
1901
  3
3DWIREFRAME
350
1900
  3
BASIC
350
18FE
  3
BRIGHTEN
350
1905
  3
COLORCHANGE
350
1909
  3
CONCEPTUAL
350
1902
  3
DIM
350
1904
  3
FACEPATTERN
350
1908
  3
FLAT
350
18FA
  3
FLATWITHEDGES
350
18FB
  3
GOURAUD
350
18FC
  3
GOURAUDWITHEDGES
350
18FD
  3
LINEPATTERN
350
1907
  3
REALISTIC
350
1903
  3
THICKEN
350
1906
  0
XRECORD
  5
480
102
{ACAD_REACTORS
330
7
102
}
330
7
100
AcDbXrecord
 90
   990106
  3

 60
     0
 61
     0
 62
     1
 63
     3
 64
     1
 65
     0
 66
     0
 67
     3
 68
     1
 69
     0
 70
     0
 71
     0
 72
     0
 40
0.0
170
     2
340
0
  0
XRECORD
  5
1A27
102
{ACAD_REACTORS
330
7
102
}
330
7
100
AcDbXrecord
 90
        1
330
190C
  0
DICTIONARY
  5
1A96
102
{ACAD_REACTORS
330
7
102
}
330
7
100
AcDbDictionary
  3
CEPSNTYPE
350
1AA0
  3
DIMSTYLEDATA
350
1AA4
  3
FINGERPRINTGUID
350
1AA1
  3
HYPERLINKBASE
350
1A99
  3
INSUNITS
350
1A9F
  3
LAYOUTDICT
350
1A9B
  3
LWETCUNION
350
1A9E
  3
PLOTSETDICT
350
1A9C
  3
PLOTSTYLNAMDICT
350
1A9D
  3
PSVPSCALE
350
1AA3
  3
PUCSBASE
350
1AA7
  3
PUCSORGBACK
350
1AAD
  3
PUCSORGBOTTOM
350
1AA9
  3
PUCSORGFRONT
350
1AAC
  3
PUCSORGLEFT
350
1AAA
  3
PUCSORGRIGHT
350
1AAB
  3
PUCSORGTOP
350
1AA8
  3
PUCSORTHOREF
350
1AA5
  3
PUCSORTHOVIEW
350
1AA6
  3
STYLESHEET
350
1A9A
  3
TSTACKALIGN
350
1A97
  3
TSTACKSIZE
350
1A98
  3
UCSBASE
350
1AB0
  3
UCSORGBACK
350
1AB6
  3
UCSORGBOTTOM
350
1AB2
  3
UCSORGFRONT
350
1AB5
  3
UCSORGLEFT
350
1AB3
  3
UCSORGRIGHT
350
1AB4
  3
UCSORGTOP
350
1AB1
  3
UCSORTHOREF
350
1AAE
  3
UCSORTHOVIEW
350
1AAF
  3
VERSIONGUID
350
1AA2
  0
DICTIONARY
  5
102
102
{ACAD_REACTORS
330
7
102
}
330
7
100
AcDbDictionary
  3
CANNOSCALE
350
1A4C
  3
CMLEADERSTYLE
350
1A4B
  3
CTABLESTYLE
350
1A4A
  3
DIMASSOC
350
103
  3
INDEXCTL
350
1A4D
  3
SORTENTS
350
549
  0
XRECORD
  5
1A53
102
{ACAD_REACTORS
330
7
102
}
330
7
100
AcDbXrecord
  1
DWGPROPS COOKIE
  2

  3

  4

  6

  7

  8
ymorima
  9

300
=
301
=
302
=
303
=
304
=
305
=
306
=
307
=
308
=
309
=
 40
0.0082749189814815
 41
2454411.648913483
 42
2454412.448284676
  1

 90
        0
  0
XRECORD
  5
1A5B
102
{ACAD_REACTORS
330
1A30
102
}
330
1A30
100
AcDbXrecord
102
VTR_0.000_0.000_1.000_1.000_VISUALSTYLE
340
18FF
102
VTR_0.000_0.000_1.000_1.000_GRIDDISPLAY
 70
     3
102
VTR_0.000_0.000_1.000_1.000_GRIDMAJOR
 70
     5
102
VTR_0.000_0.000_1.000_1.000_DEFAULTLIGHTING
280
     1
102
VTR_0.000_0.000_1.000_1.000_DEFAULTLIGHTINGTYPE
 70
     1
102
VTR_0.000_0.000_1.000_1.000_BRIGHTNESS
141
0.0
102
VTR_0.000_0.000_1.000_1.000_CONTRAST
142
0.0
  0
DICTIONARY
  5
B13
102
{ACAD_REACTORS
330
B12
102
}
330
B12
100
AcDbDictionary
  0
XRECORD
  5
1A56
102
{ACAD_REACTORS
330
195E
102
}
330
195E
100
AcDbXrecord
102
MATERIAL
340
18F1
  0
XRECORD
  5
195F
102
{ACAD_REACTORS
330
195E
102
}
330
195E
100
AcDbXrecord
290
     1
  0
XRECORD
  5
1A55
102
{ACAD_REACTORS
330
1960
102
}
330
1960
100
AcDbXrecord
102
MATERIAL
340
18F1
  0
XRECORD
  5
1961
102
{ACAD_REACTORS
330
1960
102
}
330
1960
100
AcDbXrecord
290
     1
  0
XRECORD
  5
1A61
102
{ACAD_REACTORS
330
1966
102
}
330
1966
100
AcDbXrecord
102
MATERIAL
340
18F1
  0
XRECORD
  5
1967
102
{ACAD_REACTORS
330
1966
102
}
330
1966
100
AcDbXrecord
290
     1
  0
XRECORD
  5
1A62
102
{ACAD_REACTORS
330
1968
102
}
330
1968
100
AcDbXrecord
102
MATERIAL
340
18F1
  0
XRECORD
  5
1969
102
{ACAD_REACTORS
330
1968
102
}
330
1968
100
AcDbXrecord
290
     1
  0
XRECORD
  5
1A64
102
{ACAD_REACTORS
330
196C
102
}
330
196C
100
AcDbXrecord
102
MATERIAL
340
18F1
  0
XRECORD
  5
196D
102
{ACAD_REACTORS
330
196C
102
}
330
196C
100
AcDbXrecord
290
     1
  0
XRECORD
  5
1A65
102
{ACAD_REACTORS
330
196E
102
}
330
196E
100
AcDbXrecord
102
MATERIAL
340
18F1
  0
XRECORD
  5
196F
102
{ACAD_REACTORS
330
196E
102
}
330
196E
100
AcDbXrecord
290
     1
  0
XRECORD
  5
1AB8
102
{ACAD_REACTORS
330
1AB7
102
}
330
1AB7
100
AcDbXrecord
340
2
  0
XRECORD
  5
1ABA
102
{ACAD_REACTORS
330
1AB9
102
}
330
1AB9
100
AcDbXrecord
340
1A90
  0
ACAD_PROXY_OBJECT
  5
18E9
102
{ACAD_XDICTIONARY
360
18EA
102
}
102
{ACAD_REACTORS
330
18E0
102
}
330
18E0
100
AcDbProxyObject
 90
      499
 91
      510
 93
     1340
310
42109E509B1BD8DAC02004014080404555555555555953FAA155555555555654FEA9AA400014080404555555555555953FAA155555555555654FEA9AA400000000000000E03F4080404555555555555953FAA155555555555654FEA9AA4014080404555555555555953FAA155555555555654FEA9AA4010201011555555555
310
55654FEA8555555555555953FAA6A9005020101155555555555654FEA8555555555555953FAA6A9000
 94
        0
1001
ACAD
1000
AcadProxyRoundTripData
1071
      504
1071
   655383
1070
     0
  0
ACAD_PROXY_OBJECT
  5
18E1
102
{ACAD_XDICTIONARY
360
18E2
102
}
102
{ACAD_REACTORS
330
18E0
102
}
330
18E0
100
AcDbProxyObject
 90
      499
 91
      510
 93
     1340
310
42109E53185E595C802004014080404555555555555953FAA155555555555654FEA9AA400014080404555555555555953FAA155555555555654FEA9AA400000000000000E03F4080404555555555555953FAA155555555555654FEA9AA4014080404555555555555953FAA155555555555654FEA9AA4010201011555555555
310
55654FEA8555555555555953FAA6A9005020101155555555555654FEA8555555555555953FAA6A9000
 94
        0
1001
ACAD
1000
AcadProxyRoundTripData
1071
      504
1071
   655383
1070
     0
  0
ACAD_PROXY_OBJECT
  5
18F1
102
{ACAD_XDICTIONARY
360
18F2
102
}
102
{ACAD_REACTORS
330
18E0
102
}
330
18E0
100
AcDbProxyObject
 90
      499
 91
      510
 93
     1332
310
41D1DB1BD8985B002004014080404555555555555953FAA155555555555654FEA9AA400014080404555555555555953FAA155555555555654FEA9AA400000000000000E03F4080404555555555555953FAA155555555555654FEA9AA4014080404555555555555953FAA155555555555654FEA9AA401020101155555555555
310
654FEA8555555555555953FAA6A9005020101155555555555654FEA8555555555555953FAA6A9000
 94
        0
1001
ACAD
1000
AcadProxyRoundTripData
1071
      504
1071
   655383
1070
     0
  0
ACAD_PROXY_OBJECT
  5
1930
102
{ACAD_REACTORS
330
192F
102
}
330
192F
100
AcDbProxyObject
 90
      499
 91
      510
 93
      618
310
40901902A4063FBFFFFFE056BD1B81E855B9FC0AD7A3703D0AD73F4254DD185B99185C990000AD7A3703D0AC73F90141901A02B5E8DC0F42B1CFC02B5E8DC0F42B1CFE5764000000000000300FC6
340
6A
340
0
340
16
340
0
 94
        0
1001
ACAD_MLEADERVER
1070
     2
1001
ACAD
1000
AcadProxyRoundTripData
1071
      508
1071
   655383
1070
     0
  0
MLINESTYLE
  5
78
102
{ACAD_REACTORS
330
76
102
}
330
76
100
AcDbMlineStyle
  2
STANDARD
 70
     0
  3

 62
     0
 51
90.0
 52
90.0
 71
     2
 49
0.5
 62
   256
  6
BYLAYER
 49
-0.5
 62
   256
  6
BYLAYER
  0
ACDBPLACEHOLDER
  5
5
102
{ACAD_REACTORS
330
6
102
}
330
6
100
AcDbPlaceHolder
280
     0
  0
ACAD_PROXY_OBJECT
  5
190E
102
{ACAD_REACTORS
330
190D
102
}
330
190D
100
AcDbProxyObject
 90
      499
 91
      510
 93
       49
310
904313A3100598
 94
        0
1001
ACAD
1000
AcadProxyRoundTripData
1071
      507
1071
   655383
1070
     0
  0
ACAD_PROXY_OBJECT
  5
190F
102
{ACAD_REACTORS
330
190D
102
}
330
190D
100
AcDbProxyObject
 90
      499
 91
      510
 93
      113
310
904313A3200400000000000000406B
 94
        0
1001
ACAD
1000
AcadProxyRoundTripData
1071
      507
1071
   655383
1070
     0
  0
ACAD_PROXY_OBJECT
  5
1910
102
{ACAD_REACTORS
330
190D
102
}
330
190D
100
AcDbProxyObject
 90
      499
 91
      510
 93
      113
310
904313A3400400000000000010406B
 94
        0
1001
ACAD
1000
AcadProxyRoundTripData
1071
      507
1071
   655383
1070
     0
  0
ACAD_PROXY_OBJECT
  5
1911
102
{ACAD_REACTORS
330
190D
102
}
330
190D
100
AcDbProxyObject
 90
      499
 91
      510
 93
      113
310
904313A3500400000000000014406B
 94
        0
1001
ACAD
1000
AcadProxyRoundTripData
1071
      507
1071
   655383
1070
     0
  0
ACAD_PROXY_OBJECT
  5
1912
102
{ACAD_REACTORS
330
190D
102
}
330
190D
100
AcDbProxyObject
 90
      499
 91
      510
 93
      113
310
904313A3800400000000000020406B
 94
        0
1001
ACAD
1000
AcadProxyRoundTripData
1071
      507
1071
   655383
1070
     0
  0
ACAD_PROXY_OBJECT
  5
1913
102
{ACAD_REACTORS
330
190D
102
}
330
190D
100
AcDbProxyObject
 90
      499
 91
      510
 93
      121
310
905313A3130004000000000000244051
 94
        0
1001
ACAD
1000
AcadProxyRoundTripData
1071
      507
1071
   655383
1070
     0
  0
ACAD_PROXY_OBJECT
  5
1914
102
{ACAD_REACTORS
330
190D
102
}
330
190D
100
AcDbProxyObject
 90
      499
 91
      510
 93
      121
310
905313A3136004000000000000304051
 94
        0
1001
ACAD
1000
AcadProxyRoundTripData
1071
      507
1071
   655383
1070
     0
  0
ACAD_PROXY_OBJECT
  5
1915
102
{ACAD_REACTORS
330
190D
102
}
330
190D
100
AcDbProxyObject
 90
      499
 91
      510
 93
      121
310
905313A3230004000000000000344051
 94
        0
1001
ACAD
1000
AcadProxyRoundTripData
1071
      507
1071
   655383
1070
     0
  0
ACAD_PROXY_OBJECT
  5
1916
102
{ACAD_REACTORS
330
190D
102
}
330
190D
100
AcDbProxyObject
 90
      499
 91
      510
 93
      121
310
905313A33300040000000000003E4051
 94
        0
1001
ACAD
1000
AcadProxyRoundTripData
1071
      507
1071
   655383
1070
     0
  0
ACAD_PROXY_OBJECT
  5
1917
102
{ACAD_REACTORS
330
190D
102
}
330
190D
100
AcDbProxyObject
 90
      499
 91
      510
 93
      121
310
905313A3430004000000000000444051
 94
        0
1001
ACAD
1000
AcadProxyRoundTripData
1071
      507
1071
   655383
1070
     0
  0
ACAD_PROXY_OBJECT
  5
1918
102
{ACAD_REACTORS
330
190D
102
}
330
190D
100
AcDbProxyObject
 90
      499
 91
      510
 93
      121
310
905313A3530004000000000000494051
 94
        0
1001
ACAD
1000
AcadProxyRoundTripData
1071
      507
1071
   655383
1070
     0
  0
ACAD_PROXY_OBJECT
  5
1919
102
{ACAD_REACTORS
330
190D
102
}
330
190D
100
AcDbProxyObject
 90
      499
 91
      510
 93
      129
310
906313A313030004000000000000594038
 94
        0
1001
ACAD
1000
AcadProxyRoundTripData
1071
      507
1071
   655383
1070
     0
  0
ACAD_PROXY_OBJECT
  5
191A
102
{ACAD_REACTORS
330
190D
102
}
330
190D
100
AcDbProxyObject
 90
      499
 91
      510
 93
      113
310
904323A31000000000000000010159
 94
        0
1001
ACAD
1000
AcadProxyRoundTripData
1071
      507
1071
   655383
1070
     0
  0
ACAD_PROXY_OBJECT
  5
191B
102
{ACAD_REACTORS
330
190D
102
}
330
190D
100
AcDbProxyObject
 90
      499
 91
      510
 93
      113
310
904343A31000000000000000410159
 94
        0
1001
ACAD
1000
AcadProxyRoundTripData
1071
      507
1071
   655383
1070
     0
  0
ACAD_PROXY_OBJECT
  5
191C
102
{ACAD_REACTORS
330
190D
102
}
330
190D
100
AcDbProxyObject
 90
      499
 91
      510
 93
      113
310
904383A31000000000000000810159
 94
        0
1001
ACAD
1000
AcadProxyRoundTripData
1071
      507
1071
   655383
1070
     0
  0
ACAD_PROXY_OBJECT
  5
191D
102
{ACAD_REACTORS
330
190D
102
}
330
190D
100
AcDbProxyObject
 90
      499
 91
      510
 93
      121
310
90531303A31000000000000000910140
 94
        0
1001
ACAD
1000
AcadProxyRoundTripData
1071
      507
1071
   655383
1070
     0
  0
ACAD_PROXY_OBJECT
  5
191E
102
{ACAD_REACTORS
330
190D
102
}
330
190D
100
AcDbProxyObject
 90
      499
 91
      510
 93
      129
310
9063130303A31000000000000001650138
 94
        0
1001
ACAD
1000
AcadProxyRoundTripData
1071
      507
1071
   655383
1070
     0
  0
ACAD_PROXY_OBJECT
  5
191F
102
{ACAD_REACTORS
330
190D
102
}
330
190D
100
AcDbProxyObject
 90
      499
 91
      510
 93
      265
310
90F312F31323822203D2031272D302200000000000000200FC00000000000028402B
 94
        0
1001
ACAD
1000
AcadProxyRoundTripData
1071
      507
1071
   655383
1070
     0
  0
ACAD_PROXY_OBJECT
  5
1920
102
{ACAD_REACTORS
330
190D
102
}
330
190D
100
AcDbProxyObject
 90
      499
 91
      510
 93
      257
310
90E312F363422203D2031272D302200000000000000240FC000000000000284040
 94
        0
1001
ACAD
1000
AcadProxyRoundTripData
1071
      507
1071
   655383
1070
     0
  0
ACAD_PROXY_OBJECT
  5
1921
102
{ACAD_REACTORS
330
190D
102
}
330
190D
100
AcDbProxyObject
 90
      499
 91
      510
 93
      257
310
90E312F333222203D2031272D302200000000000000280FC000000000000284040
 94
        0
1001
ACAD
1000
AcadProxyRoundTripData
1071
      507
1071
   655383
1070
     0
  0
ACAD_PROXY_OBJECT
  5
1922
102
{ACAD_REACTORS
330
190D
102
}
330
190D
100
AcDbProxyObject
 90
      499
 91
      510
 93
      257
310
90E312F313622203D2031272D3022000000000000002C0FC000000000000284040
 94
        0
1001
ACAD
1000
AcadProxyRoundTripData
1071
      507
1071
   655383
1070
     0
  0
ACAD_PROXY_OBJECT
  5
1923
102
{ACAD_REACTORS
330
190D
102
}
330
190D
100
AcDbProxyObject
 90
      499
 91
      510
 93
      257
310
90E332F333222203D2031272D3022000000000000002E0FC000000000000284040
 94
        0
1001
ACAD
1000
AcadProxyRoundTripData
1071
      507
1071
   655383
1070
     0
  0
ACAD_PROXY_OBJECT
  5
1924
102
{ACAD_REACTORS
330
190D
102
}
330
190D
100
AcDbProxyObject
 90
      499
 91
      510
 93
      249
310
90D312F3822203D2031272D302200000000000000300FC000000000000284040
 94
        0
1001
ACAD
1000
AcadProxyRoundTripData
1071
      507
1071
   655383
1070
     0
  0
ACAD_PROXY_OBJECT
  5
1925
102
{ACAD_REACTORS
330
190D
102
}
330
190D
100
AcDbProxyObject
 90
      499
 91
      510
 93
      257
310
90E332F313622203D2031272D302200000000000000320FC000000000000284040
 94
        0
1001
ACAD
1000
AcadProxyRoundTripData
1071
      507
1071
   655383
1070
     0
  0
ACAD_PROXY_OBJECT
  5
1926
102
{ACAD_REACTORS
330
190D
102
}
330
190D
100
AcDbProxyObject
 90
      499
 91
      510
 93
      249
310
90D312F3422203D2031272D302200000000000000340FC000000000000284040
 94
        0
1001
ACAD
1000
AcadProxyRoundTripData
1071
      507
1071
   655383
1070
     0
  0
ACAD_PROXY_OBJECT
  5
1927
102
{ACAD_REACTORS
330
190D
102
}
330
190D
100
AcDbProxyObject
 90
      499
 91
      510
 93
      249
310
90D332F3822203D2031272D302200000000000000360FC000000000000284040
 94
        0
1001
ACAD
1000
AcadProxyRoundTripData
1071
      507
1071
   655383
1070
     0
  0
ACAD_PROXY_OBJECT
  5
1928
102
{ACAD_REACTORS
330
190D
102
}
330
190D
100
AcDbProxyObject
 90
      499
 91
      510
 93
      249
310
90D312F3222203D2031272D302200000000000000380FC000000000000284040
 94
        0
1001
ACAD
1000
AcadProxyRoundTripData
1071
      507
1071
   655383
1070
     0
  0
ACAD_PROXY_OBJECT
  5
1929
102
{ACAD_REACTORS
330
190D
102
}
330
190D
100
AcDbProxyObject
 90
      499
 91
      510
 93
      249
310
90D332F3422203D2031272D3022000000000000003A0FC000000000000284040
 94
        0
1001
ACAD
1000
AcadProxyRoundTripData
1071
      507
1071
   655383
1070
     0
  0
ACAD_PROXY_OBJECT
  5
192A
102
{ACAD_REACTORS
330
190D
102
}
330
190D
100
AcDbProxyObject
 90
      499
 91
      510
 93
      169
310
90B3122203D2031272D3022004000000000000284020
 94
        0
1001
ACAD
1000
AcadProxyRoundTripData
1071
      507
1071
   655383
1070
     0
  0
ACAD_PROXY_OBJECT
  5
192B
102
{ACAD_REACTORS
330
190D
102
}
330
190D
100
AcDbProxyObject
 90
      499
 91
      510
 93
      265
310
90F312D312F3222203D2031272D3022000000000000003E0FC00000000000028402B
 94
        0
1001
ACAD
1000
AcadProxyRoundTripData
1071
      507
1071
   655383
1070
     0
  0
ACAD_PROXY_OBJECT
  5
192C
102
{ACAD_REACTORS
330
190D
102
}
330
190D
100
AcDbProxyObject
 90
      499
 91
      510
 93
      233
310
90B3322203D2031272D30220000000000000002100000000000000284000
 94
        0
1001
ACAD
1000
AcadProxyRoundTripData
1071
      507
1071
   655383
1070
     0
  0
ACAD_PROXY_OBJECT
  5
192D
102
{ACAD_REACTORS
330
190D
102
}
330
190D
100
AcDbProxyObject
 90
      499
 91
      510
 93
      233
310
90B3622203D2031272D30220000000000000006100000000000000284000
 94
        0
1001
ACAD
1000
AcadProxyRoundTripData
1071
      507
1071
   655383
1070
     0
  0
ACAD_PROXY_OBJECT
  5
192E
102
{ACAD_REACTORS
330
190D
102
}
330
190D
100
AcDbProxyObject
 90
      499
 91
      510
 93
      257
310
90E31272D3022203D2031272D3022000000000000000A100000000000000284040
 94
        0
1001
ACAD
1000
AcadProxyRoundTripData
1071
      507
1071
   655383
1070
     0
  0
ACAD_PROXY_OBJECT
  5
190C
102
{ACAD_XDICTIONARY
360
1A25
102
}
102
{ACAD_REACTORS
330
190B
102
}
330
190B
100
AcDbProxyObject
 90
      499
 91
      510
 93
     1849
310
4254DD185B99185C990028B81E85EB51B8AE3F2E07A17AD46E2B8FC02B5E8DC0F42B1CFD028000000C1008070000C3001FDFF8000000C1003FBFF000000182007F7FE00000030400FEFFC00000060801FDFF8000000C1003FBFF00000018200000000000000681FA0B0000001820100E000186003FBFF000000182007F7FE0
310
0000030400FEFFC00000060801FDFF8000000C1003FBFF000000182007F7FE000000304000AD7A3703D0AC73F4160000003040201C00030C007F7FE00000030400FEFFC00000060801FDFF8000000C1003FBFF000000182007F7FE00000030400FEFFC000000608000
340
16
340
16
340
16
 94
        0
1001
ACAD
1000
AcadProxyRoundTripData
1071
      506
1071
   655383
1070
     0
  0
ACAD_PROXY_OBJECT
  5
18FF
102
{ACAD_REACTORS
330
18F9
102
}
330
18F9
100
AcDbProxyObject
 90
      499
 91
      510
 93
      444
310
430C9915DA5C99599C985B59401049028333333333333E3BF0000000000000FB0107901411070040501600405405064090741402480A0340
 94
        0
1001
ACAD
1000
AcDbSavedByObjectVersion
1070
     0
1000
AcadProxyRoundTripData
1071
      505
1071
   655383
1070
     0
  0
ACAD_PROXY_OBJECT
  5
1901
102
{ACAD_REACTORS
330
18F9
102
}
330
18F9
100
AcDbProxyObject
 90
      499
 91
      510
 93
      508
310
428CD108121A5919195B8010640502408333333333333E3BF0000000000000FB01079024090700405020000000000001110200405405064090740C02480A0340
 94
        0
1001
ACAD
1000
AcDbSavedByObjectVersion
1070
     0
1000
AcadProxyRoundTripData
1071
      505
1071
   655383
1070
     0
  0
ACAD_PROXY_OBJECT
  5
1900
102
{ACAD_REACTORS
330
18F9
102
}
330
18F9
100
AcDbProxyObject
 90
      499
 91
      510
 93
      444
310
430CD915DA5C99599C985B59401059028333333333333E3BF0000000000000FB0107901411070040501600405405064090741402480A0340
 94
        0
1001
ACAD
1000
AcDbSavedByObjectVersion
1070
     0
1000
AcadProxyRoundTripData
1071
      505
1071
   655383
1070
     0
  0
ACAD_PROXY_OBJECT
  5
18FE
102
{ACAD_REACTORS
330
18F9
102
}
330
18F9
100
AcDbProxyObject
 90
      499
 91
      510
 93
      396
310
4190985CDA58C0107406404333333333333E3BF0000000000000FB0107A41107004050150841D405064090741402480A0356
 94
        0
1001
ACAD
1000
AcDbSavedByObjectVersion
1070
     0
1000
AcadProxyRoundTripData
1071
      505
1071
   655383
1070
     0
  0
ACAD_PROXY_OBJECT
  5
1905
102
{ACAD_REACTORS
330
18F9
102
}
330
18F9
100
AcDbProxyObject
 90
      499
 91
      510
 93
      436
310
42509C9A59DA1D195B8010C409028333333333333E3BF0000000000000FB010790141107004050150841D405064090741402480A029956
 94
        0
1001
ACAD
1000
AcDbSavedByObjectVersion
1070
     0
1000
AcadProxyRoundTripData
1071
      505
1071
   655383
1070
     0
  0
ACAD_PROXY_OBJECT
  5
1909
102
{ACAD_REACTORS
330
18F9
102
}
330
18F9
100
AcDbProxyObject
 90
      499
 91
      510
 93
      460
310
4310DBDB1BDC90DA185B99D9401104090240C333333333333E3BF0000000000000FB0108901411070040501508421405064090741402480A0354
 94
        0
1001
ACAD
1000
AcDbSavedByObjectVersion
1070
     0
1000
AcadProxyRoundTripData
1071
      505
1071
   655383
1070
     0
  0
ACAD_PROXY_OBJECT
  5
1902
102
{ACAD_REACTORS
330
18F9
102
}
330
18F9
100
AcDbProxyObject
 90
      499
 91
      510
 93
      508
310
42D0DBDB98D95C1D1D585B0010940D028333333333333E3BF0000000000000FB0107902409070040501000000000000111010841D405064090740C02480A0340
 94
        0
1001
ACAD
1000
AcDbSavedByObjectVersion
1070
     0
1000
AcadProxyRoundTripData
1071
      505
1071
   655383
1070
     0
  0
ACAD_PROXY_OBJECT
  5
1904
102
{ACAD_REACTORS
330
18F9
102
}
330
18F9
100
AcDbProxyObject
 90
      499
 91
      510
 93
      420
310
41111A5B4010B409028333333333333E3BF0000000000000FB010790141107004050150841D405064090741402480A02677FFFFFDB
 94
        0
1001
ACAD
1000
AcDbSavedByObjectVersion
1070
     0
1000
AcadProxyRoundTripData
1071
      505
1071
   655383
1070
     0
  0
ACAD_PROXY_OBJECT
  5
1908
102
{ACAD_REACTORS
330
18F9
102
}
330
18F9
100
AcDbProxyObject
 90
      499
 91
      510
 93
      452
310
43119858D95C185D1D195C9B8010F409028333333333333E3BF0000000000000FB010790141107004050150841D405064090741402480A0350
 94
        0
1001
ACAD
1000
AcDbSavedByObjectVersion
1070
     0
1000
AcadProxyRoundTripData
1071
      505
1071
   655383
1070
     0
  0
ACAD_PROXY_OBJECT
  5
18FA
102
{ACAD_REACTORS
330
18F9
102
}
330
18F9
100
AcDbProxyObject
 90
      499
 91
      510
 93
      396
310
41519B185D00240901404333333333333E3BF0000000000000F9010740A41107004050150841D405064090741402480A1B55
 94
        0
1001
ACAD
1000
AcDbSavedByObjectVersion
1070
     0
1000
AcadProxyRoundTripData
1071
      505
1071
   655383
1070
     0
  0
ACAD_PROXY_OBJECT
  5
18FB
102
{ACAD_REACTORS
330
18F9
102
}
330
18F9
100
AcDbProxyObject
 90
      499
 91
      510
 93
      484
310
43919B185D15DA5D1A115919D95CC010140901404333333333333E3BF0000000000000F9010740901411070040501600405405064090741402480A1B50
 94
        0
1001
ACAD
1000
AcDbSavedByObjectVersion
1070
     0
1000
AcadProxyRoundTripData
1071
      505
1071
   655383
1070
     0
  0
ACAD_PROXY_OBJECT
  5
18FC
102
{ACAD_REACTORS
330
18F9
102
}
330
18F9
100
AcDbProxyObject
 90
      499
 91
      510
 93
      420
310
4211DBDD5C985D590010240902404333333333333E3BF0000000000000F9010740A411070040501641D405064090741402480A1B50
 94
        0
1001
ACAD
1000
AcDbSavedByObjectVersion
1070
     0
1000
AcadProxyRoundTripData
1071
      505
1071
   655383
1070
     0
  0
ACAD_PROXY_OBJECT
  5
18FD
102
{ACAD_REACTORS
330
18F9
102
}
330
18F9
100
AcDbProxyObject
 90
      499
 91
      510
 93
      508
310
4451DBDD5C985D5915DA5D1A115919D95CC010340902404333333333333E3BF0000000000000F9010740901411070040501600405405064090741402480A1B50
 94
        0
1001
ACAD
1000
AcDbSavedByObjectVersion
1070
     0
1000
AcadProxyRoundTripData
1071
      505
1071
   655383
1070
     0
  0
ACAD_PROXY_OBJECT
  5
1907
102
{ACAD_REACTORS
330
18F9
102
}
330
18F9
100
AcDbProxyObject
 90
      499
 91
      510
 93
      452
310
43131A5B995C185D1D195C9B8010E409028333333333333E3BF0000000000000FB010790141107004050750841D405064090741402483A0350
 94
        0
1001
ACAD
1000
AcDbSavedByObjectVersion
1070
     0
1000
AcadProxyRoundTripData
1071
      505
1071
   655383
1070
     0
  0
ACAD_PROXY_OBJECT
  5
1903
102
{ACAD_REACTORS
330
18F9
102
}
330
18F9
100
AcDbProxyObject
 90
      499
 91
      510
 93
      428
310
429499585B1A5CDD1A58C0108409028333333333333E3BF0000000000000FB01079019070040501508421405064090741402480A1B45
 94
        0
1001
ACAD
1000
AcDbSavedByObjectVersion
1070
     0
1000
AcadProxyRoundTripData
1071
      505
1071
   655383
1070
     0
  0
ACAD_PROXY_OBJECT
  5
1906
102
{ACAD_REACTORS
330
18F9
102
}
330
18F9
100
AcDbProxyObject
 90
      499
 91
      510
 93
      420
310
42151A1A58DAD95B8010D409028333333333333E3BF0000000000000FB010790141107004050150C41D405064090741402480A0352
 94
        0
1001
ACAD
1000
AcDbSavedByObjectVersion
1070
     0
1000
AcadProxyRoundTripData
1071
      505
1071
   655383
1070
     0
  0
XRECORD
  5
1AA0
102
{ACAD_REACTORS
330
1A96
102
}
330
1A96
100
AcDbXrecord
 90
        0
  0
XRECORD
  5
1AA4
102
{ACAD_REACTORS
330
1A96
102
}
330
1A96
100
AcDbXrecord
1000
DSTYLE
1002
{
1070
   179
 70
     2
1070
   277
 70
     6
1002
}
  0
XRECORD
  5
1AA1
102
{ACAD_REACTORS
330
1A96
102
}
330
1A96
100
AcDbXrecord
  1
{6385560B-F4B1-4644-A7C2-A3E32AC3D232}
  0
XRECORD
  5
1A99
102
{ACAD_REACTORS
330
1A96
102
}
330
1A96
100
AcDbXrecord
  1

  0
XRECORD
  5
1A9F
102
{ACAD_REACTORS
330
1A96
102
}
330
1A96
100
AcDbXrecord
 90
        0
  0
XRECORD
  5
1A9B
102
{ACAD_REACTORS
330
1A96
102
}
330
1A96
100
AcDbXrecord
340
61
  0
XRECORD
  5
1A9E
102
{ACAD_REACTORS
330
1A96
102
}
330
1A96
100
AcDbXrecord
 90
    10781
  0
XRECORD
  5
1A9C
102
{ACAD_REACTORS
330
1A96
102
}
330
1A96
100
AcDbXrecord
340
77
  0
XRECORD
  5
1A9D
102
{ACAD_REACTORS
330
1A96
102
}
330
1A96
100
AcDbXrecord
340
6
  0
XRECORD
  5
1AA3
102
{ACAD_REACTORS
330
1A96
102
}
330
1A96
100
AcDbXrecord
 40
0.0
  0
XRECORD
  5
1AA7
102
{ACAD_REACTORS
330
1A96
102
}
330
1A96
100
AcDbXrecord
340
0
  0
XRECORD
  5
1AAD
102
{ACAD_REACTORS
330
1A96
102
}
330
1A96
100
AcDbXrecord
 10
0.0
 20
0.0
 30
0.0
  0
XRECORD
  5
1AA9
102
{ACAD_REACTORS
330
1A96
102
}
330
1A96
100
AcDbXrecord
 10
0.0
 20
0.0
 30
0.0
  0
XRECORD
  5
1AAC
102
{ACAD_REACTORS
330
1A96
102
}
330
1A96
100
AcDbXrecord
 10
0.0
 20
0.0
 30
0.0
  0
XRECORD
  5
1AAA
102
{ACAD_REACTORS
330
1A96
102
}
330
1A96
100
AcDbXrecord
 10
0.0
 20
0.0
 30
0.0
  0
XRECORD
  5
1AAB
102
{ACAD_REACTORS
330
1A96
102
}
330
1A96
100
AcDbXrecord
 10
0.0
 20
0.0
 30
0.0
  0
XRECORD
  5
1AA8
102
{ACAD_REACTORS
330
1A96
102
}
330
1A96
100
AcDbXrecord
 10
0.0
 20
0.0
 30
0.0
  0
XRECORD
  5
1AA5
102
{ACAD_REACTORS
330
1A96
102
}
330
1A96
100
AcDbXrecord
340
0
  0
XRECORD
  5
1AA6
102
{ACAD_REACTORS
330
1A96
102
}
330
1A96
100
AcDbXrecord
 70
     0
  0
XRECORD
  5
1A9A
102
{ACAD_REACTORS
330
1A96
102
}
330
1A96
100
AcDbXrecord
  1
Sekkei.ctb
  0
XRECORD
  5
1A97
102
{ACAD_REACTORS
330
1A96
102
}
330
1A96
100
AcDbXrecord
 90
        1
  0
XRECORD
  5
1A98
102
{ACAD_REACTORS
330
1A96
102
}
330
1A96
100
AcDbXrecord
 90
       70
  0
XRECORD
  5
1AB0
102
{ACAD_REACTORS
330
1A96
102
}
330
1A96
100
AcDbXrecord
340
0
  0
XRECORD
  5
1AB6
102
{ACAD_REACTORS
330
1A96
102
}
330
1A96
100
AcDbXrecord
 10
0.0
 20
0.0
 30
0.0
  0
XRECORD
  5
1AB2
102
{ACAD_REACTORS
330
1A96
102
}
330
1A96
100
AcDbXrecord
 10
0.0
 20
0.0
 30
0.0
  0
XRECORD
  5
1AB5
102
{ACAD_REACTORS
330
1A96
102
}
330
1A96
100
AcDbXrecord
 10
0.0
 20
0.0
 30
0.0
  0
XRECORD
  5
1AB3
102
{ACAD_REACTORS
330
1A96
102
}
330
1A96
100
AcDbXrecord
 10
0.0
 20
0.0
 30
0.0
  0
XRECORD
  5
1AB4
102
{ACAD_REACTORS
330
1A96
102
}
330
1A96
100
AcDbXrecord
 10
0.0
 20
0.0
 30
0.0
  0
XRECORD
  5
1AB1
102
{ACAD_REACTORS
330
1A96
102
}
330
1A96
100
AcDbXrecord
 10
0.0
 20
0.0
 30
0.0
  0
XRECORD
  5
1AAE
102
{ACAD_REACTORS
330
1A96
102
}
330
1A96
100
AcDbXrecord
340
0
  0
XRECORD
  5
1AAF
102
{ACAD_REACTORS
330
1A96
102
}
330
1A96
100
AcDbXrecord
 70
     0
  0
XRECORD
  5
1AA2
102
{ACAD_REACTORS
330
1A96
102
}
330
1A96
100
AcDbXrecord
  1
{3AD03563-E684-4E03-B96A-ECFE6D3FD73F}
  0
DICTIONARYVAR
  5
1A4C
102
{ACAD_REACTORS
330
102
102
}
330
102
100
DictionaryVariables
280
     0
  1
1:1
  0
DICTIONARYVAR
  5
1A4B
102
{ACAD_REACTORS
330
102
102
}
330
102
100
DictionaryVariables
280
     0
  1
STANDARD
  0
DICTIONARYVAR
  5
1A4A
102
{ACAD_REACTORS
330
102
102
}
330
102
100
DictionaryVariables
280
     0
  1
STANDARD
  0
DICTIONARYVAR
  5
103
102
{ACAD_REACTORS
330
102
102
}
330
102
100
DictionaryVariables
280
     0
  1
1
  0
DICTIONARYVAR
  5
1A4D
102
{ACAD_REACTORS
330
102
102
}
330
102
100
DictionaryVariables
280
     0
  1
0
  0
DICTIONARYVAR
  5
549
102
{ACAD_REACTORS
330
102
102
}
330
102
100
DictionaryVariables
280
     0
  1
96
  0
DICTIONARY
  5
18EA
330
18E9
100
AcDbDictionary
280
     1
  3
ACAD_XREC_ROUNDTRIP
360
1A6F
  3
BUMPTILE
360
18EC
  3
DIFFUSETILE
360
18EB
  3
OPACITYTILE
360
18EF
  3
REFLECTIONTILE
360
18EE
  3
REFRACTIONTILE
360
18F0
  3
SPECULARTILE
360
18ED
  0
DICTIONARY
  5
18E2
330
18E1
100
AcDbDictionary
280
     1
  3
ACAD_XREC_ROUNDTRIP
360
1A6E
  3
BUMPTILE
360
18E4
  3
DIFFUSETILE
360
18E3
  3
OPACITYTILE
360
18E7
  3
REFLECTIONTILE
360
18E6
  3
REFRACTIONTILE
360
18E8
  3
SPECULARTILE
360
18E5
  0
DICTIONARY
  5
18F2
330
18F1
100
AcDbDictionary
280
     1
  3
ACAD_XREC_ROUNDTRIP
360
1A70
  3
BUMPTILE
360
18F4
  3
DIFFUSETILE
360
18F3
  3
OPACITYTILE
360
18F7
  3
REFLECTIONTILE
360
18F6
  3
REFRACTIONTILE
360
18F8
  3
SPECULARTILE
360
18F5
  0
DICTIONARY
  5
1A25
330
190C
100
AcDbDictionary
280
     1
  3
ACAD_ROUNDTRIP_2008_TABLES
360
1A52
  3
ACAD_XREC_ROUNDTRIP
360
1A71
  0
XRECORD
  5
1A6F
102
{ACAD_REACTORS
330
18EA
102
}
330
18EA
100
AcDbXrecord
102
MATERIAL
148
0.0
149
0.0
149
0.0
 93
        0
 94
      127
282
     0
 72
     0
 77
     0
171
     0
175
     0
179
     0
273
     0
  0
XRECORD
  5
18EC
102
{ACAD_REACTORS
330
18EA
102
}
330
18EA
100
AcDbXrecord
270
     1
271
     1
  0
XRECORD
  5
18EB
102
{ACAD_REACTORS
330
18EA
102
}
330
18EA
100
AcDbXrecord
270
     1
271
     1
  0
XRECORD
  5
18EF
102
{ACAD_REACTORS
330
18EA
102
}
330
18EA
100
AcDbXrecord
270
     1
271
     1
  0
XRECORD
  5
18EE
102
{ACAD_REACTORS
330
18EA
102
}
330
18EA
100
AcDbXrecord
270
     1
271
     1
  0
XRECORD
  5
18F0
102
{ACAD_REACTORS
330
18EA
102
}
330
18EA
100
AcDbXrecord
270
     1
271
     1
  0
XRECORD
  5
18ED
102
{ACAD_REACTORS
330
18EA
102
}
330
18EA
100
AcDbXrecord
270
     1
271
     1
  0
XRECORD
  5
1A6E
102
{ACAD_REACTORS
330
18E2
102
}
330
18E2
100
AcDbXrecord
102
MATERIAL
148
0.0
149
0.0
149
0.0
 93
        0
 94
      127
282
     0
 72
     0
 77
     0
171
     0
175
     0
179
     0
273
     0
  0
XRECORD
  5
18E4
102
{ACAD_REACTORS
330
18E2
102
}
330
18E2
100
AcDbXrecord
270
     1
271
     1
  0
XRECORD
  5
18E3
102
{ACAD_REACTORS
330
18E2
102
}
330
18E2
100
AcDbXrecord
270
     1
271
     1
  0
XRECORD
  5
18E7
102
{ACAD_REACTORS
330
18E2
102
}
330
18E2
100
AcDbXrecord
270
     1
271
     1
  0
XRECORD
  5
18E6
102
{ACAD_REACTORS
330
18E2
102
}
330
18E2
100
AcDbXrecord
270
     1
271
     1
  0
XRECORD
  5
18E8
102
{ACAD_REACTORS
330
18E2
102
}
330
18E2
100
AcDbXrecord
270
     1
271
     1
  0
XRECORD
  5
18E5
102
{ACAD_REACTORS
330
18E2
102
}
330
18E2
100
AcDbXrecord
270
     1
271
     1
  0
XRECORD
  5
1A70
102
{ACAD_REACTORS
330
18F2
102
}
330
18F2
100
AcDbXrecord
102
MATERIAL
148
0.0
149
0.0
149
0.0
 93
        0
 94
      127
282
     0
 72
     0
 77
     0
171
     0
175
     0
179
     0
273
     0
  0
XRECORD
  5
18F4
102
{ACAD_REACTORS
330
18F2
102
}
330
18F2
100
AcDbXrecord
270
     1
271
     1
  0
XRECORD
  5
18F3
102
{ACAD_REACTORS
330
18F2
102
}
330
18F2
100
AcDbXrecord
270
     1
271
     1
  0
XRECORD
  5
18F7
102
{ACAD_REACTORS
330
18F2
102
}
330
18F2
100
AcDbXrecord
270
     1
271
     1
  0
XRECORD
  5
18F6
102
{ACAD_REACTORS
330
18F2
102
}
330
18F2
100
AcDbXrecord
270
     1
271
     1
  0
XRECORD
  5
18F8
102
{ACAD_REACTORS
330
18F2
102
}
330
18F2
100
AcDbXrecord
270
     1
271
     1
  0
XRECORD
  5
18F5
102
{ACAD_REACTORS
330
18F2
102
}
330
18F2
100
AcDbXrecord
270
     1
271
     1
  0
ACAD_PROXY_OBJECT
  5
1A52
102
{ACAD_REACTORS
330
1A25
102
}
330
1A25
100
AcDbProxyObject
 90
      499
 91
      510
 93
     1044
310
40D054060020000020000003200101A000080002A5058000000C100000000000000340FE901405075F5449544C450041501A8000000C800406800020000A9416000000304000AD7A3703D0AC73FA409014217D2115051115480105406A0000003200101A000080002A5028000000C10002B5E8DC0F42B1CFE903409065F444
310
15441004
340
16
340
16
340
16
 94
        0
1001
ACAD
1000
AcadProxyRoundTripData
1071
      509
1071
   655383
1070
     0
  0
XRECORD
  5
1A71
102
{ACAD_REACTORS
330
1A25
102
}
330
1A25
100
AcDbXrecord
102
ACAD_ROUNDTRIP_PRE2007_TABLESTYLE
 90
      512
 91
        0
  1

 92
      512
 93
        0
  2

 94
      512
 95
        0
  3

  0
ENDSEC
  0
EOF
