  0
SECTION
  2
HEADER
  9
$ACADVER
  1
AC1014
  9
$ACADMAINTVER
 70
     9
  9
$DWGCODEPAGE
  3
ANSI_932
  9
$INSBASE
 10
0.0
 20
0.0
 30
0.0
  9
$EXTMIN
 10
39.64009878151069
 20
101.138179390975
 30
0.0
  9
$EXTMAX
 10
1004.055833222893
 20
696.2608955540178
 30
0.0
  9
$LIMMIN
 10
0.0
 20
0.0
  9
$LIMMAX
 10
297.0
 20
210.0
  9
$ORTHOMODE
 70
     1
  9
$REGENMODE
 70
     1
  9
$FILLMODE
 70
     1
  9
$QTEXTMODE
 70
     0
  9
$MIRRTEXT
 70
     0
  9
$DRAGMODE
 70
     2
  9
$LTSCALE
 40
3.0
  9
$OSMODE
 70
    37
  9
$ATTMODE
 70
     1
  9
$TEXTSIZE
 40
2.0
  9
$TRACEWID
 40
1.0
  9
$TEXTSTYLE
  7
STANDARD
  9
$CLAYER
  8
0
  9
$CELTYPE
  6
BYLAYER
  9
$CECOLOR
 62
   256
  9
$CELTSCALE
 40
1.0
  9
$DELOBJ
 70
     1
  9
$DISPSILH
 70
     0
  9
$DIMSCALE
 40
3.0
  9
$DIMASZ
 40
1.8
  9
$DIMEXO
 40
0.625
  9
$DIMDLI
 40
3.75
  9
$DIMRND
 40
0.0
  9
$DIMDLE
 40
0.0
  9
$DIMEXE
 40
0.8
  9
$DIMTP
 40
0.0
  9
$DIMTM
 40
0.0
  9
$DIMTXT
 40
1.8
  9
$DIMCEN
 40
2.5
  9
$DIMTSZ
 40
0.0
  9
$DIMTOL
 70
     0
  9
$DIMLIM
 70
     0
  9
$DIMTIH
 70
     0
  9
$DIMTOH
 70
     0
  9
$DIMSE1
 70
     0
  9
$DIMSE2
 70
     0
  9
$DIMTAD
 70
     1
  9
$DIMZIN
 70
     8
  9
$DIMBLK
  1

  9
$DIMASO
 70
     1
  9
$DIMSHO
 70
     1
  9
$DIMPOST
  1

  9
$DIMAPOST
  1

  9
$DIMALT
 70
     0
  9
$DIMALTD
 70
     4
  9
$DIMALTF
 40
0.0394
  9
$DIMLFAC
 40
1.0
  9
$DIMTOFL
 70
     1
  9
$DIMTVP
 40
0.0
  9
$DIMTIX
 70
     0
  9
$DIMSOXD
 70
     0
  9
$DIMSAH
 70
     0
  9
$DIMBLK1
  1

  9
$DIMBLK2
  1

  9
$DIMSTYLE
  2
STANDARD
  9
$DIMCLRD
 70
     0
  9
$DIMCLRE
 70
     0
  9
$DIMCLRT
 70
     0
  9
$DIMTFAC
 40
1.0
  9
$DIMGAP
 40
0.75
  9
$DIMJUST
 70
     0
  9
$DIMSD1
 70
     0
  9
$DIMSD2
 70
     0
  9
$DIMTOLJ
 70
     1
  9
$DIMTZIN
 70
     0
  9
$DIMALTZ
 70
     0
  9
$DIMALTTZ
 70
     0
  9
$DIMFIT
 70
     3
  9
$DIMUPT
 70
     0
  9
$DIMUNIT
 70
     8
  9
$DIMDEC
 70
     2
  9
$DIMTDEC
 70
     2
  9
$DIMALTU
 70
     8
  9
$DIMALTTD
 70
     4
  9
$DIMTXSTY
  7
STANDARD
  9
$DIMAUNIT
 70
     0
  9
$LUNITS
 70
     2
  9
$LUPREC
 70
     3
  9
$SKETCHINC
 40
1.0
  9
$FILLETRAD
 40
10.0
  9
$AUNITS
 70
     0
  9
$AUPREC
 70
     2
  9
$MENU
  1
.
  9
$ELEVATION
 40
0.0
  9
$PELEVATION
 40
0.0
  9
$THICKNESS
 40
0.0
  9
$LIMCHECK
 70
     0
  9
$BLIPMODE
 70
     0
  9
$CHAMFERA
 40
0.0
  9
$CHAMFERB
 40
0.0
  9
$CHAMFERC
 40
20.0
  9
$CHAMFERD
 40
0.0
  9
$SKPOLY
 70
     0
  9
$TDCREATE
 40
2454411.650650856
  9
$TDUPDATE
 40
2454424.596939016
  9
$TDINDWG
 40
0.0053786921
  9
$TDUSRTIMER
 40
0.0053786921
  9
$USRTIMER
 70
     1
  9
$ANGBASE
 50
0.0
  9
$ANGDIR
 70
     0
  9
$PDMODE
 70
     0
  9
$PDSIZE
 40
-10.0
  9
$PLINEWID
 40
0.0
  9
$COORDS
 70
     0
  9
$SPLFRAME
 70
     0
  9
$SPLINETYPE
 70
     6
  9
$SPLINESEGS
 70
     8
  9
$ATTDIA
 70
     0
  9
$ATTREQ
 70
     1
  9
$HANDLING
 70
-16383
  9
$HANDSEED
  5
1A27
  9
$SURFTAB1
 70
     6
  9
$SURFTAB2
 70
     6
  9
$SURFTYPE
 70
     6
  9
$SURFU
 70
     6
  9
$SURFV
 70
     6
  9
$UCSNAME
  2

  9
$UCSORG
 10
0.0
 20
0.0
 30
0.0
  9
$UCSXDIR
 10
1.0
 20
0.0
 30
0.0
  9
$UCSYDIR
 10
0.0
 20
1.0
 30
0.0
  9
$PUCSNAME
  2

  9
$PUCSORG
 10
0.0
 20
0.0
 30
0.0
  9
$PUCSXDIR
 10
1.0
 20
0.0
 30
0.0
  9
$PUCSYDIR
 10
0.0
 20
1.0
 30
0.0
  9
$USERI1
 70
     0
  9
$USERI2
 70
     0
  9
$USERI3
 70
     0
  9
$USERI4
 70
     0
  9
$USERI5
 70
     0
  9
$USERR1
 40
0.0
  9
$USERR2
 40
0.0
  9
$USERR3
 40
0.0
  9
$USERR4
 40
0.0
  9
$USERR5
 40
0.0
  9
$WORLDVIEW
 70
     1
  9
$SHADEDGE
 70
     3
  9
$SHADEDIF
 70
    70
  9
$TILEMODE
 70
     1
  9
$MAXACTVP
 70
    48
  9
$PINSBASE
 10
0.0
 20
0.0
 30
0.0
  9
$PLIMCHECK
 70
     0
  9
$PEXTMIN
 10
0.0
 20
0.0
 30
0.0
  9
$PEXTMAX
 10
0.0
 20
0.0
 30
0.0
  9
$PLIMMIN
 10
0.0
 20
0.0
  9
$PLIMMAX
 10
12.0
 20
9.0
  9
$UNITMODE
 70
     0
  9
$VISRETAIN
 70
     1
  9
$PLINEGEN
 70
     0
  9
$PSLTSCALE
 70
     1
  9
$TREEDEPTH
 70
  3020
  9
$PICKSTYLE
 70
     1
  9
$CMLSTYLE
  2
STANDARD
  9
$CMLJUST
 70
     0
  9
$CMLSCALE
 40
1.0
  9
$PROXYGRAPHICS
 70
     1
  9
$MEASUREMENT
 70
     0
  0
ENDSEC
  0
SECTION
  2
CLASSES
  0
CLASS
  1
DICTIONARYVAR
  2
AcDbDictionaryVar
  3
AutoCAD 2000
 90
        0
280
     0
281
     0
  0
CLASS
  1
ACDBDICTIONARYWDFLT
  2
AcDbDictionaryWithDefault
  3
AutoCAD 2000
 90
        0
280
     0
281
     0
  0
CLASS
  1
ACDBPLACEHOLDER
  2
AcDbPlaceHolder
  3
AutoCAD 2000
 90
        0
280
     0
281
     0
  0
CLASS
  1
LAYOUT
  2
AcDbLayout
  3
AutoCAD 2000
 90
        0
280
     0
281
     0
  0
CLASS
  1
MATERIAL
  2
AcDbMaterial
  3
ObjectDBX Classes
 90
     1153
280
     0
281
     0
  0
CLASS
  1
VISUALSTYLE
  2
AcDbVisualStyle
  3
ObjectDBX Classes
 90
     4095
280
     0
281
     0
  0
CLASS
  1
TABLESTYLE
  2
AcDbTableStyle
  3
ObjectDBX Classes
 90
     4095
280
     0
281
     0
  0
CLASS
  1
SCALE
  2
AcDbScale
  3
ObjectDBX Classes
 90
     1153
280
     0
281
     0
  0
CLASS
  1
MLEADERSTYLE
  2
AcDbMLeaderStyle
  3
ACDB_MLEADERSTYLE_CLASS
 90
     4095
280
     0
281
     0
  0
CLASS
  1
CELLSTYLEMAP
  2
AcDbCellStyleMap
  3
ObjectDBX Classes
 90
     1152
280
     0
281
     0
  0
CLASS
  1
ACAD_PROXY_OBJECT_WRAPPER
  2
AcDbProxyObjectWrapper
  3
AutoCAD 2000
 90
        0
280
     0
281
     0
  0
CLASS
  1
LONG_TRANSACTION
  2
AcDbLongTransaction
  3
AutoCAD 2000
 90
        0
280
     0
281
     0
  0
CLASS
  1
LWPOLYLINE
  2
AcDbPolyline
  3
AutoCAD 2000
 90
        0
280
     0
281
     1
  0
CLASS
  1
HATCH
  2
AcDbHatch
  3
AutoCAD 2000
 90
        0
280
     0
281
     1
  0
CLASS
  1
XRECORD
  2
AcDbXrecord
  3
AutoCAD 2000
 90
        0
280
     0
281
     0
  0
ENDSEC
  0
SECTION
  2
TABLES
  0
TABLE
  2
VPORT
  5
6E
102
{ACAD_XDICTIONARY
360
1973
102
}
330
0
100
AcDbSymbolTable
 70
     2
  0
VPORT
  5
1A01
330
6E
100
AcDbSymbolTableRecord
100
AcDbViewportTableRecord
  2
*ACTIVE
 70
     0
 10
0.0
 20
0.0
 11
1.0
 21
1.0
 12
593.7858348716786
 22
380.5131965415886
 13
0.0
 23
0.0
 14
10.0
 24
10.0
 15
10.0
 25
10.0
 16
0.0
 26
0.0
 36
1.0
 17
0.0
 27
0.0
 37
0.0
 40
636.4803937958209
 41
1.753504672897196
 42
50.0
 43
0.0
 44
0.0
 50
0.0
 51
0.0
 71
     0
 72
   100
 73
     1
 74
     3
 75
     0
 76
     0
 77
     0
 78
     0
  0
ENDTAB
  0
TABLE
  2
LTYPE
  5
69
330
0
100
AcDbSymbolTable
 70
     7
  0
LTYPE
  5
6A
330
69
100
AcDbSymbolTableRecord
100
AcDbLinetypeTableRecord
  2
BYBLOCK
 70
     0
  3

 72
    65
 73
     0
 40
0.0
  0
LTYPE
  5
6B
330
69
100
AcDbSymbolTableRecord
100
AcDbLinetypeTableRecord
  2
BYLAYER
 70
     0
  3

 72
    65
 73
     0
 40
0.0
  0
LTYPE
  5
8
330
69
100
AcDbSymbolTableRecord
100
AcDbLinetypeTableRecord
  2
CONTINUOUS
 70
     0
  3
Solid line
 72
    65
 73
     0
 40
0.0
  0
LTYPE
  5
27C
330
69
100
AcDbSymbolTableRecord
100
AcDbLinetypeTableRecord
  2
SEKKEI_A2_
 70
     0
  3
center(A2)  ____ _ ____ _ ____ _ ____ _ ____ _ 
 72
    65
 73
     4
 40
14.28749999999999
 49
9.525
 74
     0
 49
-1.587499999999999
 74
     0
 49
1.587499999999999
 74
     0
 49
-1.587499999999999
 74
     0
  0
LTYPE
  5
494
330
69
100
AcDbSymbolTableRecord
100
AcDbLinetypeTableRecord
  2
SEKKEI_P_S
 70
     0
  3
Phantom_S   __ _ _ __ _ _ __ _ _ ___
 72
    65
 73
     6
 40
7.5
 49
3.75
 74
     0
 49
-0.75
 74
     0
 49
0.75
 74
     0
 49
-0.75
 74
     0
 49
0.75
 74
     0
 49
-0.75
 74
     0
  0
LTYPE
  5
7EF
330
69
100
AcDbSymbolTableRecord
100
AcDbLinetypeTableRecord
  2
PHANTOM3
 70
     0
  3
Phantom  ___ _ _ ___ _ _ ___ _ _ ___ _ _
 72
    65
 73
     6
 40
9.0
 49
4.0
 74
     0
 49
-1.0
 74
     0
 49
1.0
 74
     0
 49
-1.0
 74
     0
 49
1.0
 74
     0
 49
-1.0
 74
     0
  0
LTYPE
  5
7F0
330
69
100
AcDbSymbolTableRecord
100
AcDbLinetypeTableRecord
  2
HIDDEN3
 70
     0
  3
Hidden (.3x) _ _ _ _ _ _ _ _ _ _ _ _ _ _ _ _ _
 72
    65
 73
     2
 40
2.857499999999999
 49
1.905
 74
     0
 49
-0.9525
 74
     0
  0
LTYPE
  5
B12
330
69
100
AcDbSymbolTableRecord
100
AcDbLinetypeTableRecord
  2
CENS
 70
     0
  3
(一点鎖線１)---- - ---- - ---- - ---- - ---- - 
 72
    65
 73
     4
 40
7.0
 49
4.0
 74
     0
 49
-1.0
 74
     0
 49
1.0
 74
     0
 49
-1.0
 74
     0
  0
ENDTAB
  0
TABLE
  2
LAYER
  5
66
102
{ACAD_XDICTIONARY
360
B13
102
}
330
0
100
AcDbSymbolTable
 70
    10
  0
LAYER
  5
5E
102
{ACAD_XDICTIONARY
360
1956
102
}
330
66
100
AcDbSymbolTableRecord
100
AcDbLayerTableRecord
  2
0
 70
     0
 62
     7
  6
CONTINUOUS
  0
LAYER
  5
3E
102
{ACAD_XDICTIONARY
360
1958
102
}
330
66
100
AcDbSymbolTableRecord
100
AcDbLayerTableRecord
  2
CENTER
 70
     0
 62
     3
  6
SEKKEI_A2_
  0
LAYER
  5
2B5
102
{ACAD_XDICTIONARY
360
195E
102
}
330
66
100
AcDbSymbolTableRecord
100
AcDbLayerTableRecord
  2
HIDS
 70
     0
 62
     1
  6
HIDDEN3
  0
LAYER
  5
2BA
102
{ACAD_XDICTIONARY
360
1960
102
}
330
66
100
AcDbSymbolTableRecord
100
AcDbLayerTableRecord
  2
HOJO
 70
     0
 62
     4
  6
CONTINUOUS
  0
LAYER
  5
3FA
102
{ACAD_XDICTIONARY
360
1964
102
}
330
66
100
AcDbSymbolTableRecord
100
AcDbLayerTableRecord
  2
TITLE
 70
     0
 62
     4
  6
CONTINUOUS
  0
LAYER
  5
478
102
{ACAD_XDICTIONARY
360
1966
102
}
330
66
100
AcDbSymbolTableRecord
100
AcDbLayerTableRecord
  2
PHAS
 70
     0
 62
     2
  6
PHANTOM3
  0
ENDTAB
  0
TABLE
  2
STYLE
  5
67
330
0
100
AcDbSymbolTable
 70
     2
  0
STYLE
  5
16
330
67
100
AcDbSymbolTableRecord
100
AcDbTextStyleTableRecord
  2
STANDARD
 70
     0
 40
0.0
 41
1.0
 50
0.0
 71
     0
 42
2.0
  3
simplex.shx
  4
extfont.shx
  0
ENDTAB
  0
TABLE
  2
VIEW
  5
6C
330
0
100
AcDbSymbolTable
 70
     0
  0
ENDTAB
  0
TABLE
  2
UCS
  5
6D
330
0
100
AcDbSymbolTable
 70
     0
  0
ENDTAB
  0
TABLE
  2
APPID
  5
70
330
0
100
AcDbSymbolTable
 70
     4
  0
APPID
  5
71
330
70
100
AcDbSymbolTableRecord
100
AcDbRegAppTableRecord
  2
ACAD
 70
     0
  0
APPID
  5
18AD
330
70
100
AcDbSymbolTableRecord
100
AcDbRegAppTableRecord
  2
ACAD_MLEADERVER
 70
     0
  0
APPID
  5
191F
330
70
100
AcDbSymbolTableRecord
100
AcDbRegAppTableRecord
  2
ACAD_DSTYLE_DIMRADIAL_EXTENSION
 70
     0
  0
APPID
  5
1993
330
70
100
AcDbSymbolTableRecord
100
AcDbRegAppTableRecord
  2
ACAD_EXEMPT_FROM_CAD_STANDARDS
 70
     0
  0
ENDTAB
  0
TABLE
  2
DIMSTYLE
  5
72
330
0
100
AcDbSymbolTable
 70
     1
  0
DIMSTYLE
105
73
330
72
100
AcDbSymbolTableRecord
100
AcDbDimStyleTableRecord
  2
STANDARD
 70
     0
  3

  4

  5

  6

  7

 40
3.0
 41
1.8
 42
0.625
 43
3.75
 44
0.8
 45
0.0
 46
0.0
 47
0.0
 48
0.0
140
1.8
141
2.5
142
0.0
143
0.0394
144
1.0
145
0.0
146
1.0
147
0.75
 71
     0
 72
     0
 73
     0
 74
     0
 75
     0
 76
     0
 77
     1
 78
     8
170
     0
171
     4
172
     1
173
     0
174
     0
175
     0
176
     0
177
     0
178
     0
270
     8
271
     2
272
     2
273
     8
274
     4
340
16
275
     0
280
     0
281
     0
282
     0
283
     1
284
     0
285
     0
286
     0
287
     3
288
     0
  0
ENDTAB
  0
TABLE
  2
BLOCK_RECORD
  5
1
330
0
100
AcDbSymbolTable
 70
    56
  0
BLOCK_RECORD
  5
2
102
{ACAD_XDICTIONARY
360
1A23
102
}
330
1
100
AcDbSymbolTableRecord
100
AcDbBlockTableRecord
  2
*MODEL_SPACE
  0
BLOCK_RECORD
  5
19FC
102
{ACAD_XDICTIONARY
360
1A25
102
}
330
1
100
AcDbSymbolTableRecord
100
AcDbBlockTableRecord
  2
*PAPER_SPACE
  0
ENDTAB
  0
ENDSEC
  0
SECTION
  2
BLOCKS
  0
BLOCK
  5
5D
330
2
100
AcDbEntity
  8
0
100
AcDbBlockBegin
  2
*MODEL_SPACE
 70
     0
 10
0.0
 20
0.0
 30
0.0
  3
*MODEL_SPACE
  1

  0
ENDBLK
  5
5F
330
2
100
AcDbEntity
  8
0
100
AcDbBlockEnd
  0
BLOCK
  5
19FE
330
19FC
100
AcDbEntity
 67
     1
  8
0
100
AcDbBlockBegin
  2
*PAPER_SPACE
 70
     0
 10
0.0
 20
0.0
 30
0.0
  3
*PAPER_SPACE
  1

  0
ENDBLK
  5
19FF
330
19FC
100
AcDbEntity
 67
     1
  8
0
100
AcDbBlockEnd
  0
ENDSEC
  0
SECTION
  2
ENTITIES
  0
TEXT
  5
FEF
330
2
100
AcDbEntity
  8
TITLE
100
AcDbText
 10
305.5471916534786
 20
635.9658358561516
 30
0.0
 40
7.5
  1
AFCZ18S-10~30M200S1
100
AcDbText
  0
TEXT
  5
FF0
330
2
100
AcDbEntity
  8
TITLE
100
AcDbText
 10
305.5471916534786
 20
624.9658358561516
 30
0.0
 40
7.5
  1
AFCZ18S-10~30L200S1
100
AcDbText
  0
LINE
  5
FF2
330
2
100
AcDbEntity
  8
CENTER
100
AcDbLine
 10
250.6400987815104
 20
386.0879655005629
 30
0.0
 11
39.64009878151069
 21
386.0879655005629
 31
0.0
  0
LINE
  5
FF3
330
2
100
AcDbEntity
  8
CENTER
100
AcDbLine
 10
199.6400987815109
 20
335.0879655005629
 30
0.0
 11
199.6400987815109
 21
437.0879655005629
 31
0.0
  0
LINE
  5
FF4
330
2
100
AcDbEntity
  8
CENTER
100
AcDbLine
 10
595.2867857657702
 20
696.2608955540178
 30
0.0
 11
595.2867857657683
 21
563.2608955540178
 31
0.0
  0
LINE
  5
FF5
330
2
100
AcDbEntity
  8
CENTER
100
AcDbLine
 10
536.2867857657684
 20
386.0879655005626
 30
0.0
 11
755.2867857657665
 21
386.0879655005626
 31
0.0
  0
LINE
  5
FF6
330
2
100
AcDbEntity
  8
CENTER
100
AcDbLine
 10
544.5049574605381
 20
637.2608955540179
 30
0.0
 11
755.2867857657665
 21
637.2608955540177
 31
0.0
  0
CIRCLE
  5
FF7
330
2
100
AcDbEntity
  8
CENTER
100
AcDbCircle
 10
595.2867857657683
 20
386.0879655005626
 30
0.0
 40
49.0
  0
LINE
  5
FF8
330
2
100
AcDbEntity
  8
CENTER
100
AcDbLine
 10
550.8015043915301
 20
430.5732468748013
 30
0.0
 11
639.7720671400084
 21
341.602684126324
 31
0.0
  0
LINE
  5
FF9
330
2
100
AcDbEntity
  8
CENTER
100
AcDbLine
 10
639.7720671400084
 20
430.573246874801
 30
0.0
 11
550.8015043915301
 21
341.602684126324
 31
0.0
  0
LINE
  5
FFA
330
2
100
AcDbEntity
  8
CENTER
100
AcDbLine
 10
595.2867857657683
 20
327.0879655005626
 30
0.0
 11
595.2867857657683
 21
445.0879655005627
 31
0.0
  0
CIRCLE
  5
FFB
330
2
100
AcDbEntity
  8
HOJO
100
AcDbCircle
 10
560.638553487628
 20
351.4397332224214
 30
0.0
 40
3.0
  0
CIRCLE
  5
FFC
330
2
100
AcDbEntity
  8
HOJO
100
AcDbCircle
 10
629.9350180439096
 20
351.4397332224214
 30
0.0
 40
3.0
  0
CIRCLE
  5
FFD
330
2
100
AcDbEntity
  8
HOJO
100
AcDbCircle
 10
560.638553487629
 20
420.7361977787039
 30
0.0
 40
3.0
  0
CIRCLE
  5
FFE
330
2
100
AcDbEntity
  8
HOJO
100
AcDbCircle
 10
629.9350180439096
 20
420.7361977787039
 30
0.0
 40
3.0
  0
LINE
  5
FFF
330
2
100
AcDbEntity
  8
CENTER
100
AcDbLine
 10
553.638553487629
 20
420.7361977787039
 30
0.0
 11
567.6385534876289
 21
420.7361977787039
 31
0.0
  0
LINE
  5
1000
330
2
100
AcDbEntity
  8
CENTER
100
AcDbLine
 10
560.638553487629
 20
427.7361977787038
 30
0.0
 11
560.638553487628
 21
413.7361977787039
 31
0.0
  0
LINE
  5
1001
330
2
100
AcDbEntity
  8
CENTER
100
AcDbLine
 10
560.638553487629
 20
344.4397332224214
 30
0.0
 11
560.638553487629
 21
358.4397332224214
 31
0.0
  0
LINE
  5
1002
330
2
100
AcDbEntity
  8
CENTER
100
AcDbLine
 10
553.638553487629
 20
351.4397332224214
 30
0.0
 11
567.6385534876289
 21
351.4397332224214
 31
0.0
  0
LINE
  5
1003
330
2
100
AcDbEntity
  8
CENTER
100
AcDbLine
 10
636.9350180439096
 20
351.4397332224214
 30
0.0
 11
622.9350180439096
 21
351.4397332224214
 31
0.0
  0
LINE
  5
1004
330
2
100
AcDbEntity
  8
CENTER
100
AcDbLine
 10
629.9350180439096
 20
344.4397332224214
 30
0.0
 11
629.9350180439096
 21
358.4397332224214
 31
0.0
  0
LINE
  5
1005
330
2
100
AcDbEntity
  8
CENTER
100
AcDbLine
 10
629.9350180439096
 20
427.7361977787038
 30
0.0
 11
629.9350180439096
 21
413.7361977787039
 31
0.0
  0
LINE
  5
1006
330
2
100
AcDbEntity
  8
CENTER
100
AcDbLine
 10
636.9350180439096
 20
420.7361977787039
 30
0.0
 11
622.9350180439096
 21
420.7361977787039
 31
0.0
  0
LINE
  5
1007
330
2
100
AcDbEntity
  8
0
100
AcDbLine
 10
663.2867857657702
 20
418.0879655005645
 30
0.0
 11
640.2867857657684
 21
418.0879655005663
 31
0.0
  0
LINE
  5
1008
330
2
100
AcDbEntity
  8
0
100
AcDbLine
 10
663.2867857657702
 20
354.087965500559
 30
0.0
 11
640.2867857657692
 21
354.0879655005572
 31
0.0
  0
CIRCLE
  5
1009
330
2
100
AcDbEntity
  8
0
100
AcDbCircle
 10
595.2867857657702
 20
386.0879655005626
 30
0.0
 40
28.0
  0
CIRCLE
  5
100A
330
2
100
AcDbEntity
  8
0
100
AcDbCircle
 10
595.2867857657702
 20
386.0879655005626
 30
0.0
 40
35.00000000000011
  0
CIRCLE
  5
100B
330
2
100
AcDbEntity
  8
0
100
AcDbCircle
 10
595.2867857657692
 20
386.0879655005626
 30
0.0
 40
23.0
  0
CIRCLE
  5
100C
330
2
100
AcDbEntity
  8
0
100
AcDbCircle
 10
560.638553487629
 20
351.4397332224214
 30
0.0
 40
2.399999999999999
  0
CIRCLE
  5
100D
330
2
100
AcDbEntity
  8
HOJO
100
AcDbCircle
 10
560.638553487629
 20
351.4397332224214
 30
0.0
 40
3.0
  0
CIRCLE
  5
100E
330
2
100
AcDbEntity
  8
0
100
AcDbCircle
 10
560.638553487629
 20
420.736197778702
 30
0.0
 40
2.399999999999999
  0
CIRCLE
  5
100F
330
2
100
AcDbEntity
  8
HOJO
100
AcDbCircle
 10
560.638553487629
 20
420.736197778702
 30
0.0
 40
3.0
  0
LINE
  5
1010
330
2
100
AcDbEntity
  8
0
100
AcDbLine
 10
636.2867857657702
 20
350.0879655005572
 30
0.0
 11
636.2867857657702
 21
422.0879655005626
 31
0.0
  0
CIRCLE
  5
1011
330
2
100
AcDbEntity
  8
0
100
AcDbCircle
 10
629.9350180439096
 20
351.4397332224214
 30
0.0
 40
2.399999999999999
  0
CIRCLE
  5
1012
330
2
100
AcDbEntity
  8
HOJO
100
AcDbCircle
 10
629.9350180439096
 20
351.4397332224214
 30
0.0
 40
3.0
  0
ARC
  5
1013
330
2
100
AcDbEntity
  8
0
100
AcDbCircle
 10
631.2867857657701
 20
350.0879655005626
 30
0.0
 40
5.0
100
AcDbArc
 50
270.0
 51
0.0
  0
CIRCLE
  5
1014
330
2
100
AcDbEntity
  8
0
100
AcDbCircle
 10
629.9350180439096
 20
420.736197778702
 30
0.0
 40
2.399999999999999
  0
CIRCLE
  5
1015
330
2
100
AcDbEntity
  8
HOJO
100
AcDbCircle
 10
629.9350180439096
 20
420.736197778702
 30
0.0
 40
3.0
  0
ARC
  5
1016
330
2
100
AcDbEntity
  8
0
100
AcDbCircle
 10
631.2867857657693
 20
422.0879655005626
 30
0.0
 40
5.0
100
AcDbArc
 50
0.0
 51
90.0
  0
LINE
  5
1017
330
2
100
AcDbEntity
  8
0
100
AcDbLine
 10
694.2867857657666
 20
356.5879655005626
 30
0.0
 11
694.2867857657666
 21
415.5879655005627
 31
0.0
  0
LINE
  5
1018
330
2
100
AcDbEntity
  8
0
100
AcDbLine
 10
669.2867857657692
 20
412.0879655005644
 30
0.0
 11
669.2867857657702
 21
360.087965500559
 31
0.0
  0
LINE
  5
1019
330
2
100
AcDbEntity
  8
0
100
AcDbLine
 10
702.2867857657665
 20
417.5879655005626
 30
0.0
 11
702.2867857657665
 21
354.5879655005626
 31
0.0
  0
LINE
  5
101A
330
2
100
AcDbEntity
  8
0
100
AcDbLine
 10
702.2867857657665
 20
355.0879655005626
 30
0.0
 11
696.2867857657665
 21
355.0879655005626
 31
0.0
  0
ARC
  5
101B
330
2
100
AcDbEntity
  8
0
100
AcDbCircle
 10
663.2867857657702
 20
360.087965500559
 30
0.0
 40
6.0
100
AcDbArc
 50
270.0
 51
0.0
  0
ARC
  5
101C
330
2
100
AcDbEntity
  8
0
100
AcDbCircle
 10
696.2867857657665
 20
357.0879655005626
 30
0.0
 40
2.0
100
AcDbArc
 50
180.0
 51
270.0
  0
LINE
  5
101D
330
2
100
AcDbEntity
  8
0
100
AcDbLine
 10
696.2867857657665
 20
417.0879655005626
 30
0.0
 11
702.2867857657665
 21
417.0879655005626
 31
0.0
  0
ARC
  5
101E
330
2
100
AcDbEntity
  8
0
100
AcDbCircle
 10
663.2867857657693
 20
412.0879655005644
 30
0.0
 40
6.0
100
AcDbArc
 50
0.0
 51
89.99999999997395
  0
ARC
  5
101F
330
2
100
AcDbEntity
  8
0
100
AcDbCircle
 10
696.2867857657665
 20
415.0879655005627
 30
0.0
 40
2.0
100
AcDbArc
 50
90.0
 51
180.0
  0
LINE
  5
1020
330
2
100
AcDbEntity
  8
0
100
AcDbLine
 10
560.2867857657702
 20
599.2608955540197
 30
0.0
 11
564.9980550435275
 21
599.2608955540197
 31
0.0
  0
LINE
  5
1021
330
2
100
AcDbEntity
  8
0
100
AcDbLine
 10
560.2867857657693
 20
599.2608955540179
 30
0.0
 11
630.2867857657693
 21
599.2608955540179
 31
0.0
  0
LINE
  5
1022
330
2
100
AcDbEntity
  8
0
100
AcDbLine
 10
554.792944097634
 20
604.2608955540178
 30
0.0
 11
635.7762640000092
 21
604.2608955540178
 31
0.0
  0
LINE
  5
1023
330
2
100
AcDbEntity
  8
0
100
AcDbLine
 10
554.2867857657693
 20
662.2608955540179
 30
0.0
 11
554.792944097634
 21
604.2608955540178
 31
0.0
  0
LINE
  5
1024
330
2
100
AcDbEntity
  8
0
100
AcDbLine
 10
560.2867857657693
 20
604.2608955540178
 30
0.0
 11
560.2867857657693
 21
599.2608955540179
 31
0.0
  0
LINE
  5
1025
330
2
100
AcDbEntity
  8
0
100
AcDbLine
 10
702.2867857627434
 20
668.2608955540179
 30
0.0
 11
702.2867857627434
 21
606.260895554016
 31
0.0
  0
LINE
  5
1026
330
2
100
AcDbEntity
  8
0
100
AcDbLine
 10
702.2867857627434
 20
668.2608955540179
 30
0.0
 11
702.2867857627434
 21
606.2608955540179
 31
0.0
  0
LINE
  5
1027
330
2
100
AcDbEntity
  8
0
100
AcDbLine
 10
630.2867857657702
 20
599.2608955540197
 30
0.0
 11
625.5755164880119
 21
599.2608955540197
 31
0.0
  0
LINE
  5
1028
330
2
100
AcDbEntity
  8
0
100
AcDbLine
 10
667.2518021378355
 20
606.260895554016
 30
0.0
 11
637.2806845514833
 21
606.2608955540124
 31
0.0
  0
LINE
  5
1029
330
2
100
AcDbEntity
  8
0
100
AcDbLine
 10
630.2867857657693
 20
604.2608955540178
 30
0.0
 11
630.2867857657693
 21
599.2608955540179
 31
0.0
  0
LINE
  5
102A
330
2
100
AcDbEntity
  8
0
100
AcDbLine
 10
92.64009878151046
 20
355.0879655005629
 30
0.0
 11
98.64009878151046
 21
355.0879655005629
 31
0.0
  0
LINE
  5
102B
330
2
100
AcDbEntity
  8
0
100
AcDbLine
 10
98.64009878151092
 20
417.0879655005629
 30
0.0
 11
92.64009878151091
 21
417.0879655005629
 31
0.0
  0
LINE
  5
102C
330
2
100
AcDbEntity
  8
0
100
AcDbLine
 10
100.6400987815104
 20
356.5879655005629
 30
0.0
 11
100.6400987815109
 21
415.5879655005628
 31
0.0
  0
ARC
  5
102D
330
2
100
AcDbEntity
  8
0
100
AcDbCircle
 10
98.64009878151092
 20
415.0879655005629
 30
0.0
 40
2.0
100
AcDbArc
 50
0.0
 51
89.99999999997395
  0
ARC
  5
102E
330
2
100
AcDbEntity
  8
0
100
AcDbCircle
 10
98.64009878151046
 20
357.0879655005629
 30
0.0
 40
2.0
100
AcDbArc
 50
270.0
 51
0.0
  0
LINE
  5
102F
330
2
100
AcDbEntity
  8
0
100
AcDbLine
 10
92.64009878151046
 20
355.0879655005629
 30
0.0
 11
92.64009878151046
 21
417.0879655005629
 31
0.0
  0
LINE
  5
1030
330
2
100
AcDbEntity
  8
0
100
AcDbLine
 10
92.64009878151091
 20
354.5879655005629
 30
0.0
 11
92.64009878151046
 21
417.5879655005629
 31
0.0
  0
ARC
  5
1031
330
2
100
AcDbEntity
  8
0
100
AcDbCircle
 10
572.6907423255798
 20
465.868756812524
 30
0.0
 40
40.0
100
AcDbArc
 50
256.6323257973708
 51
276.1769964048646
  0
ARC
  5
1032
330
2
100
AcDbEntity
  8
0
100
AcDbCircle
 10
562.2867857657693
 20
422.0879655005626
 30
0.0
 40
5.0
100
AcDbArc
 50
76.63232579737094
 51
90.0
  0
LINE
  5
1033
330
2
100
AcDbEntity
  8
0
100
AcDbLine
 10
559.2867857657684
 20
427.0879655005627
 30
0.0
 11
562.2867857657693
 21
427.0879655005627
 31
0.0
  0
ARC
  5
1034
330
2
100
AcDbEntity
  8
0
100
AcDbCircle
 10
595.2867857657692
 20
257.0879655005626
 30
0.0
 40
170.0
100
AcDbArc
 50
83.82300359513532
 51
96.17699640486467
  0
ARC
  5
1035
330
2
100
AcDbEntity
  8
0
100
AcDbCircle
 10
617.8828292059579
 20
465.868756812524
 30
0.0
 40
40.0
100
AcDbArc
 50
263.8230035951353
 51
283.3676742026291
  0
LINE
  5
1036
330
2
100
AcDbEntity
  8
0
100
AcDbLine
 10
631.2867857657693
 20
427.0879655005627
 30
0.0
 11
628.2867857657683
 21
427.0879655005627
 31
0.0
  0
ARC
  5
1037
330
2
100
AcDbEntity
  8
0
100
AcDbCircle
 10
628.2867857657683
 20
422.0879655005626
 30
0.0
 40
5.0
100
AcDbArc
 50
90.0
 51
103.367674202629
  0
ARC
  5
1038
330
2
100
AcDbEntity
  8
0
100
AcDbCircle
 10
559.2867857657684
 20
422.0879655005626
 30
0.0
 40
5.0
100
AcDbArc
 50
90.0
 51
180.0
  0
ARC
  5
1039
330
2
100
AcDbEntity
  8
0
100
AcDbCircle
 10
515.505994453807
 20
408.6840089407521
 30
0.0
 40
40.0
100
AcDbArc
 50
353.8230035951091
 51
13.36767420262995
  0
ARC
  5
103A
330
2
100
AcDbEntity
  8
0
100
AcDbCircle
 10
515.5059944538061
 20
363.4919220603749
 30
0.0
 40
40.0
100
AcDbArc
 50
346.63232579737
 51
6.176996404890894
  0
ARC
  5
103B
330
2
100
AcDbEntity
  8
0
100
AcDbCircle
 10
559.2867857657684
 20
353.0879655005627
 30
0.0
 40
5.0
100
AcDbArc
 50
166.63232579737
 51
180.0
  0
LINE
  5
103C
330
2
100
AcDbEntity
  8
0
100
AcDbLine
 10
554.2867857657683
 20
350.0879655005626
 30
0.0
 11
554.2867857657683
 21
353.0879655005627
 31
0.0
  0
ARC
  5
103D
330
2
100
AcDbEntity
  8
0
100
AcDbCircle
 10
724.2867857657683
 20
386.0879655005608
 30
0.0
 40
170.0
100
AcDbArc
 50
173.823003595109
 51
186.1769964048908
  0
LINE
  5
103E
330
2
100
AcDbEntity
  8
0
100
AcDbLine
 10
554.2867857657693
 20
422.0879655005626
 30
0.0
 11
554.2867857657693
 21
419.0879655005627
 31
0.0
  0
ARC
  5
103F
330
2
100
AcDbEntity
  8
0
100
AcDbCircle
 10
559.2867857657693
 20
419.0879655005627
 30
0.0
 40
5.0
100
AcDbArc
 50
180.0
 51
193.3676742026299
  0
ARC
  5
1040
330
2
100
AcDbEntity
  8
0
100
AcDbCircle
 10
559.2867857657684
 20
350.0879655005626
 30
0.0
 40
5.0
100
AcDbArc
 50
180.0
 51
270.0
  0
LINE
  5
1041
330
2
100
AcDbEntity
  8
0
100
AcDbLine
 10
559.2867857657684
 20
345.0879655005627
 30
0.0
 11
562.2867857657693
 21
345.0879655005627
 31
0.0
  0
ARC
  5
1042
330
2
100
AcDbEntity
  8
0
100
AcDbCircle
 10
572.6907423255798
 20
306.3071741886013
 30
0.0
 40
40.0
100
AcDbArc
 50
83.82300359513532
 51
103.367674202629
  0
ARC
  5
1043
330
2
100
AcDbEntity
  8
0
100
AcDbCircle
 10
562.2867857657693
 20
350.0879655005626
 30
0.0
 40
5.0
100
AcDbArc
 50
270.0
 51
283.3676742026291
  0
ARC
  5
1044
330
2
100
AcDbEntity
  8
0
100
AcDbCircle
 10
595.2867857657692
 20
515.0879655005626
 30
0.0
 40
170.0
100
AcDbArc
 50
263.8230035951353
 51
276.1769964048646
  0
ARC
  5
1045
330
2
100
AcDbEntity
  8
0
100
AcDbCircle
 10
617.8828292059579
 20
306.3071741886013
 30
0.0
 40
40.0
100
AcDbArc
 50
76.63232579737094
 51
96.17699640486467
  0
ARC
  5
1046
330
2
100
AcDbEntity
  8
0
100
AcDbCircle
 10
628.2867857657692
 20
350.0879655005626
 30
0.0
 40
5.0
100
AcDbArc
 50
256.6323257973708
 51
270.0
  0
LINE
  5
1047
330
2
100
AcDbEntity
  8
0
100
AcDbLine
 10
631.2867857657693
 20
345.0879655005627
 30
0.0
 11
628.2867857657692
 21
345.0879655005627
 31
0.0
  0
ARC
  5
1048
330
2
100
AcDbEntity
  8
0
100
AcDbCircle
 10
640.2867857657702
 20
422.0879655005663
 30
0.0
 40
4.0
100
AcDbArc
 50
180.0
 51
270.0
  0
ARC
  5
1049
330
2
100
AcDbEntity
  8
0
100
AcDbCircle
 10
640.2867857657702
 20
350.0879655005572
 30
0.0
 40
4.0
100
AcDbArc
 50
90.0
 51
180.0
  0
ARC
  5
104A
330
2
100
AcDbEntity
  8
0
100
AcDbCircle
 10
625.6721333187751
 20
597.2608955540179
 30
0.0
 40
2.0
100
AcDbArc
 50
90.0
 51
177.9999999999963
  0
ARC
  5
104B
330
2
100
AcDbEntity
  8
0
100
AcDbCircle
 10
621.3554082161545
 20
588.2608955540178
 30
0.0
 40
2.0
100
AcDbArc
 50
270.0
 51
357.9999999999963
  0
ARC
  5
104C
330
2
100
AcDbEntity
  8
0
100
AcDbCircle
 10
564.9014382127634
 20
597.2608955540179
 30
0.0
 40
2.0
100
AcDbArc
 50
2.000000000003654
 51
90.0
  0
ARC
  5
104D
330
2
100
AcDbEntity
  8
0
100
AcDbCircle
 10
569.2181633153841
 20
588.2608955540178
 30
0.0
 40
2.0
100
AcDbArc
 50
182.0000000000036
 51
270.0
  0
LINE
  5
104E
330
2
100
AcDbEntity
  8
0
100
AcDbLine
 10
623.3541898701924
 20
588.1910965606127
 30
0.0
 11
623.6733516647372
 21
597.330694547423
 31
0.0
  0
LINE
  5
104F
330
2
100
AcDbEntity
  8
0
100
AcDbLine
 10
567.2193816613462
 20
588.1910965606127
 30
0.0
 11
566.9002198668013
 21
597.330694547423
 31
0.0
  0
LINE
  5
1050
330
2
100
AcDbEntity
  8
0
100
AcDbLine
 10
569.2181633153841
 20
586.260895554016
 30
0.0
 11
621.3554082161545
 21
586.2608955540179
 31
0.0
  0
ARC
  5
1051
330
2
100
AcDbEntity
  8
0
100
AcDbCircle
 10
123.6400987815009
 20
411.087965500572
 30
0.0
 40
2.0
100
AcDbArc
 50
270.0
 51
0.0
  0
ARC
  5
1052
330
2
100
AcDbEntity
  8
0
100
AcDbCircle
 10
123.6400987815009
 20
361.087965500572
 30
0.0
 40
2.0
100
AcDbArc
 50
0.0
 51
90.0
  0
LINE
  5
1053
330
2
100
AcDbEntity
  8
0
100
AcDbLine
 10
122.6400987815009
 20
383.587965500572
 30
0.0
 11
115.1270058187842
 21
383.587965500572
 31
0.0
  0
LINE
  5
1054
330
2
100
AcDbEntity
  8
0
100
AcDbLine
 10
122.6400987815009
 20
388.587965500572
 30
0.0
 11
115.1270058187842
 21
388.587965500572
 31
0.0
  0
ARC
  5
1055
330
2
100
AcDbEntity
  8
0
100
AcDbCircle
 10
113.1270058187842
 20
411.087965500572
 30
0.0
 40
2.0
100
AcDbArc
 50
216.8698976458671
 51
270.0
  0
LINE
  5
1056
330
2
100
AcDbEntity
  8
0
100
AcDbLine
 10
123.6924599863136
 20
409.087965500572
 30
0.0
 11
113.1270058187842
 21
409.087965500572
 31
0.0
  0
LINE
  5
1057
330
2
100
AcDbEntity
  8
0
100
AcDbLine
 10
120.6400987815109
 20
367.087965500572
 30
0.0
 11
116.8729725111993
 21
367.087965500572
 31
0.0
  0
ARC
  5
1058
330
2
100
AcDbEntity
  8
0
100
AcDbCircle
 10
113.1270058187842
 20
361.087965500572
 30
0.0
 40
2.0
100
AcDbArc
 50
90.0
 51
143.1301023541299
  0
LINE
  5
1059
330
2
100
AcDbEntity
  8
0
100
AcDbLine
 10
123.6400987815009
 20
363.087965500572
 30
0.0
 11
113.1270058187842
 21
363.087965500572
 31
0.0
  0
LINE
  5
105A
330
2
100
AcDbEntity
  8
0
100
AcDbLine
 10
109.1270058187842
 20
411.087965500572
 30
0.0
 11
105.6222188033943
 21
411.087965500572
 31
0.0
  0
ARC
  5
105B
330
2
100
AcDbEntity
  8
0
100
AcDbCircle
 10
109.1270058187842
 20
408.0879655005701
 30
0.0
 40
3.0
100
AcDbArc
 50
0.0
 51
90.0
  0
LINE
  5
105C
330
2
100
AcDbEntity
  8
0
100
AcDbLine
 10
109.1270058187842
 20
361.087965500572
 30
0.0
 11
105.6222188033957
 21
361.087965500572
 31
0.0
  0
ARC
  5
105D
330
2
100
AcDbEntity
  8
0
100
AcDbCircle
 10
109.1270058187842
 20
364.087965500572
 30
0.0
 40
3.0
100
AcDbArc
 50
270.0
 51
0.0
  0
LINE
  5
105E
330
2
100
AcDbEntity
  8
0
100
AcDbLine
 10
112.1270058187842
 20
364.087965500572
 30
0.0
 11
112.1270058187842
 21
408.0879655005701
 31
0.0
  0
ARC
  5
105F
330
2
100
AcDbEntity
  8
0
100
AcDbCircle
 10
122.6400987815009
 20
380.587965500572
 30
0.0
 40
3.0
100
AcDbArc
 50
0.0
 51
90.0
  0
ARC
  5
1060
330
2
100
AcDbEntity
  8
0
100
AcDbCircle
 10
122.6400987815009
 20
391.587965500572
 30
0.0
 40
3.0
100
AcDbArc
 50
270.0
 51
0.0
  0
ARC
  5
1061
330
2
100
AcDbEntity
  8
0
100
AcDbCircle
 10
115.1270058187842
 20
380.587965500572
 30
0.0
 40
3.0
100
AcDbArc
 50
90.0
 51
180.0
  0
ARC
  5
1062
330
2
100
AcDbEntity
  8
0
100
AcDbCircle
 10
115.1270058187842
 20
391.587965500572
 30
0.0
 40
3.0
100
AcDbArc
 50
180.0
 51
270.0
  0
ARC
  5
1063
330
2
100
AcDbEntity
  8
0
100
AcDbCircle
 10
120.6400987815109
 20
362.087965500572
 30
0.0
 40
5.0
100
AcDbArc
 50
0.0
 51
90.0
  0
ARC
  5
1064
330
2
100
AcDbEntity
  8
0
100
AcDbCircle
 10
116.8729725111993
 20
362.087965500572
 30
0.0
 40
5.0
100
AcDbArc
 50
90.0
 51
165.5224878140709
  0
ARC
  5
1065
330
2
100
AcDbEntity
  8
0
100
AcDbCircle
 10
120.6400987815104
 20
410.0879655005538
 30
0.0
 40
5.0
100
AcDbArc
 50
270.0
 51
0.0
  0
ARC
  5
1066
330
2
100
AcDbEntity
  8
0
100
AcDbCircle
 10
116.8729725111993
 20
410.0879655005538
 30
0.0
 40
5.0
100
AcDbArc
 50
194.477512185929
 51
270.0
  0
LINE
  5
1067
330
2
100
AcDbEntity
  8
0
100
AcDbLine
 10
120.6400987815104
 20
405.0879655005537
 30
0.0
 11
116.8729725111993
 21
405.0879655005537
 31
0.0
  0
LINE
  5
1068
330
2
100
AcDbEntity
  8
0
100
AcDbLine
 10
682.7998787284859
 20
408.0879655005626
 30
0.0
 11
682.7998787284859
 21
364.0879655005627
 31
0.0
  0
LINE
  5
1069
330
2
100
AcDbEntity
  8
0
100
AcDbLine
 10
685.7998787284859
 20
411.0879655005627
 30
0.0
 11
689.3046657438817
 21
411.0879655005627
 31
0.0
  0
LINE
  5
106A
330
2
100
AcDbEntity
  8
0
100
AcDbLine
 10
671.2867857657684
 20
409.0879655005626
 30
0.0
 11
681.7998787284859
 21
409.0879655005626
 31
0.0
  0
ARC
  5
106B
330
2
100
AcDbEntity
  8
0
100
AcDbCircle
 10
685.7998787284859
 20
408.0879655005626
 30
0.0
 40
3.0
100
AcDbArc
 50
90.0
 51
180.0
  0
ARC
  5
106C
330
2
100
AcDbEntity
  8
0
100
AcDbCircle
 10
681.7998787284859
 20
411.0879655005627
 30
0.0
 40
2.0
100
AcDbArc
 50
270.0
 51
323.1301023541328
  0
ARC
  5
106D
330
2
100
AcDbEntity
  8
0
100
AcDbCircle
 10
674.2867857657593
 20
410.0879655005626
 30
0.0
 40
5.0
100
AcDbArc
 50
180.0
 51
270.0
  0
ARC
  5
106E
330
2
100
AcDbEntity
  8
0
100
AcDbCircle
 10
678.0539120360709
 20
410.0879655005626
 30
0.0
 40
5.0
100
AcDbArc
 50
270.0
 51
345.5224878140709
  0
LINE
  5
106F
330
2
100
AcDbEntity
  8
0
100
AcDbLine
 10
674.2867857657593
 20
405.0879655005626
 30
0.0
 11
678.0539120360709
 21
405.0879655005626
 31
0.0
  0
ARC
  5
1070
330
2
100
AcDbEntity
  8
0
100
AcDbCircle
 10
671.2867857657684
 20
411.0879655005627
 30
0.0
 40
2.0
100
AcDbArc
 50
180.0
 51
270.0
  0
LINE
  5
1071
330
2
100
AcDbEntity
  8
0
100
AcDbLine
 10
672.2867857657684
 20
383.5879655005626
 30
0.0
 11
679.799878728486
 21
383.5879655005626
 31
0.0
  0
LINE
  5
1072
330
2
100
AcDbEntity
  8
0
100
AcDbLine
 10
672.2867857657684
 20
388.5879655005627
 30
0.0
 11
679.799878728486
 21
388.5879655005627
 31
0.0
  0
ARC
  5
1073
330
2
100
AcDbEntity
  8
0
100
AcDbCircle
 10
672.2867857657684
 20
391.5879655005626
 30
0.0
 40
3.0
100
AcDbArc
 50
180.0
 51
270.0
  0
ARC
  5
1074
330
2
100
AcDbEntity
  8
0
100
AcDbCircle
 10
672.2867857657684
 20
380.5879655005627
 30
0.0
 40
3.0
100
AcDbArc
 50
90.0
 51
180.0
  0
ARC
  5
1075
330
2
100
AcDbEntity
  8
0
100
AcDbCircle
 10
679.799878728486
 20
391.5879655005626
 30
0.0
 40
3.0
100
AcDbArc
 50
270.0
 51
0.0
  0
ARC
  5
1076
330
2
100
AcDbEntity
  8
0
100
AcDbCircle
 10
679.799878728486
 20
380.5879655005627
 30
0.0
 40
3.0
100
AcDbArc
 50
0.0
 51
90.0
  0
ARC
  5
1077
330
2
100
AcDbEntity
  8
0
100
AcDbCircle
 10
674.2867857657593
 20
362.0879655005808
 30
0.0
 40
5.0
100
AcDbArc
 50
90.0
 51
180.0
  0
LINE
  5
1078
330
2
100
AcDbEntity
  8
0
100
AcDbLine
 10
674.2867857657593
 20
367.0879655005808
 30
0.0
 11
678.0539120360709
 21
367.0879655005808
 31
0.0
  0
ARC
  5
1079
330
2
100
AcDbEntity
  8
0
100
AcDbCircle
 10
678.0539120360709
 20
362.0879655005808
 30
0.0
 40
5.0
100
AcDbArc
 50
14.47751218592907
 51
90.0
  0
LINE
  5
107A
330
2
100
AcDbEntity
  8
0
100
AcDbLine
 10
671.2344245609556
 20
363.0879655005626
 30
0.0
 11
681.7998787284859
 21
363.0879655005626
 31
0.0
  0
ARC
  5
107B
330
2
100
AcDbEntity
  8
0
100
AcDbCircle
 10
681.7998787284859
 20
361.0879655005626
 30
0.0
 40
2.0
100
AcDbArc
 50
36.86989764586714
 51
90.0
  0
ARC
  5
107C
330
2
100
AcDbEntity
  8
0
100
AcDbCircle
 10
685.7998787284859
 20
364.0879655005627
 30
0.0
 40
3.0
100
AcDbArc
 50
180.0
 51
270.0
  0
ARC
  5
107D
330
2
100
AcDbEntity
  8
0
100
AcDbCircle
 10
671.2867857657684
 20
361.0879655005626
 30
0.0
 40
2.0
100
AcDbArc
 50
90.0
 51
180.0
  0
LINE
  5
107E
330
2
100
AcDbEntity
  8
0
100
AcDbLine
 10
685.7998787284859
 20
361.0879655005626
 30
0.0
 11
689.3046657438817
 21
361.0879655005626
 31
0.0
  0
ARC
  5
107F
330
2
100
AcDbEntity
  8
0
100
AcDbCircle
 10
685.7092563785345
 20
659.2608955536432
 30
0.0
 40
3.0
100
AcDbArc
 50
90.0
 51
178.5000000000102
  0
ARC
  5
1080
330
2
100
AcDbEntity
  8
0
100
AcDbCircle
 10
689.3068962772831
 20
667.2608955536432
 30
0.0
 40
5.0
100
AcDbArc
 50
270.0
 51
351.7867893013297
  0
ARC
  5
1081
330
2
100
AcDbEntity
  8
0
100
AcDbCircle
 10
696.235099507613
 20
666.2608955540179
 30
0.0
 40
2.0
100
AcDbArc
 50
90.0
 51
178.5000000000102
  0
LINE
  5
1082
330
2
100
AcDbEntity
  8
0
100
AcDbLine
 10
702.2867857657701
 20
668.2608955540179
 30
0.0
 11
696.235099507613
 21
668.2608955540179
 31
0.0
  0
LINE
  5
1083
330
2
100
AcDbEntity
  8
0
100
AcDbLine
 10
685.7092563785345
 20
662.2608955536431
 30
0.0
 11
689.3068962772831
 21
662.2608955536431
 31
0.0
  0
ARC
  5
1084
330
2
100
AcDbEntity
  8
0
100
AcDbCircle
 10
681.7092563788165
 20
662.2608955540179
 30
0.0
 40
2.0
100
AcDbArc
 50
270.0
 51
323.1301023487886
  0
LINE
  5
1085
330
2
100
AcDbEntity
  8
0
100
AcDbLine
 10
681.7092563788165
 20
660.2608955540179
 30
0.0
 11
671.2868619225392
 21
660.2608955540179
 31
0.0
  0
ARC
  5
1086
330
2
100
AcDbEntity
  8
0
100
AcDbCircle
 10
671.2867857657693
 20
662.2608955540179
 30
0.0
 40
2.0
100
AcDbArc
 50
180.0
 51
270.0
  0
ARC
  5
1087
330
2
100
AcDbEntity
  8
0
100
AcDbCircle
 10
674.2867857657692
 20
661.2608955540179
 30
0.0
 40
5.0
100
AcDbArc
 50
180.0
 51
270.0
  0
LINE
  5
1088
330
2
100
AcDbEntity
  8
0
100
AcDbLine
 10
677.9632896862167
 20
656.2608955540179
 30
0.0
 11
674.2867857657702
 21
656.2608955540179
 31
0.0
  0
ARC
  5
1089
330
2
100
AcDbEntity
  8
0
100
AcDbCircle
 10
677.9632896862167
 20
661.2608955540179
 30
0.0
 40
5.0
100
AcDbArc
 50
270.0
 51
345.5224878112707
  0
ARC
  5
108A
330
2
100
AcDbEntity
  8
0
100
AcDbCircle
 10
671.2867857657693
 20
612.2608955540161
 30
0.0
 40
2.0
100
AcDbArc
 50
90.0
 51
180.0
  0
LINE
  5
108B
330
2
100
AcDbEntity
  8
0
100
AcDbLine
 10
681.7092563788165
 20
614.260895554016
 30
0.0
 11
671.2868619225392
 21
614.260895554016
 31
0.0
  0
ARC
  5
108C
330
2
100
AcDbEntity
  8
0
100
AcDbCircle
 10
674.2867857657692
 20
613.2608955540161
 30
0.0
 40
5.0
100
AcDbArc
 50
90.0
 51
180.0
  0
LINE
  5
108D
330
2
100
AcDbEntity
  8
0
100
AcDbLine
 10
677.9632896862167
 20
618.260895554016
 30
0.0
 11
674.2867857657702
 21
618.260895554016
 31
0.0
  0
ARC
  5
108E
330
2
100
AcDbEntity
  8
0
100
AcDbCircle
 10
677.9632896862167
 20
613.2608955540161
 30
0.0
 40
5.0
100
AcDbArc
 50
14.47751218872929
 51
90.0
  0
ARC
  5
108F
330
2
100
AcDbEntity
  8
0
100
AcDbCircle
 10
681.7092563788165
 20
612.2608955540161
 30
0.0
 40
2.0
100
AcDbArc
 50
36.86989765121137
 51
90.0
  0
ARC
  5
1090
330
2
100
AcDbEntity
  8
0
100
AcDbCircle
 10
685.7092563785345
 20
615.2608955543926
 30
0.0
 40
3.0
100
AcDbArc
 50
181.4999999999897
 51
270.0
  0
LINE
  5
1091
330
2
100
AcDbEntity
  8
0
100
AcDbLine
 10
682.7102844036089
 20
615.1823647094695
 30
0.0
 11
682.1321377265548
 21
637.2608955540179
 31
0.0
  0
ARC
  5
1092
330
2
100
AcDbEntity
  8
0
100
AcDbCircle
 10
679.2751319177114
 20
631.7608955540179
 30
0.0
 40
3.0
100
AcDbArc
 50
1.499999999989693
 51
90.0
  0
LINE
  5
1093
330
2
100
AcDbEntity
  8
0
100
AcDbLine
 10
685.7092563785345
 20
612.2608955543926
 30
0.0
 11
689.3068962772831
 21
612.2608955543926
 31
0.0
  0
ARC
  5
1094
330
2
100
AcDbEntity
  8
0
100
AcDbCircle
 10
689.3068962772831
 20
607.2608955543926
 30
0.0
 40
5.0
100
AcDbArc
 50
8.213210698670247
 51
90.0
  0
ARC
  5
1095
330
2
100
AcDbEntity
  8
0
100
AcDbCircle
 10
696.235099507613
 20
608.2608955540178
 30
0.0
 40
2.0
100
AcDbArc
 50
181.4999999999897
 51
270.0
  0
LINE
  5
1096
330
2
100
AcDbEntity
  8
0
100
AcDbLine
 10
694.235784857662
 20
608.2085416574007
 30
0.0
 11
693.4750221971198
 21
637.2608955540179
 31
0.0
  0
LINE
  5
1097
330
2
100
AcDbEntity
  8
0
100
AcDbLine
 10
702.2867857657701
 20
606.2608955540179
 30
0.0
 11
696.235099507613
 21
606.2608955540179
 31
0.0
  0
LINE
  5
1098
330
2
100
AcDbEntity
  8
0
100
AcDbLine
 10
682.7102844036089
 20
659.3394263985662
 30
0.0
 11
682.1321377265548
 21
637.2608955540179
 31
0.0
  0
ARC
  5
1099
330
2
100
AcDbEntity
  8
0
100
AcDbCircle
 10
679.2751319177114
 20
642.7608955540179
 30
0.0
 40
3.0
100
AcDbArc
 50
270.0
 51
358.5000000000103
  0
LINE
  5
109A
330
2
100
AcDbEntity
  8
0
100
AcDbLine
 10
694.235784857662
 20
666.3132494506332
 30
0.0
 11
693.4750221971198
 21
637.2608955540179
 31
0.0
  0
LINE
  5
109B
330
2
100
AcDbEntity
  8
0
100
AcDbLine
 10
672.4570739228465
 20
634.7608955540179
 30
0.0
 11
679.2751319177114
 21
634.7608955540179
 31
0.0
  0
LINE
  5
109C
330
2
100
AcDbEntity
  8
0
100
AcDbLine
 10
672.4570739228302
 20
639.7608955540179
 30
0.0
 11
679.2751319177122
 21
639.7608955540179
 31
0.0
  0
LINE
  5
109D
330
2
100
AcDbEntity
  8
0
100
AcDbLine
 10
663.2998787265542
 20
662.2608955540179
 30
0.0
 11
663.92902631173
 21
638.2347186057102
 31
0.0
  0
ARC
  5
109E
330
2
100
AcDbEntity
  8
0
100
AcDbCircle
 10
664.9286836367054
 20
638.2608955540178
 30
0.0
 40
1.0
100
AcDbArc
 50
181.4999999999897
 51
270.0
  0
LINE
  5
109F
330
2
100
AcDbEntity
  8
0
100
AcDbLine
 10
664.9286836367054
 20
637.2608955540179
 30
0.0
 11
669.2867857657692
 21
637.2608955540179
 31
0.0
  0
LINE
  5
10A0
330
2
100
AcDbEntity
  8
0
100
AcDbLine
 10
693.4750221971198
 20
637.2608955540179
 30
0.0
 11
702.2867857627434
 21
637.2608955540179
 31
0.0
  0
LINE
  5
10A1
330
2
100
AcDbEntity
  8
0
100
AcDbLine
 10
631.2867857657701
 20
662.2608955540179
 30
0.0
 11
631.2867857657701
 21
605.7608955540179
 31
0.0
  0
LINE
  5
10A2
330
2
100
AcDbEntity
  8
0
100
AcDbLine
 10
628.2867857657692
 20
662.2608955540179
 30
0.0
 11
628.2867857657692
 21
605.7608955540179
 31
0.0
  0
LINE
  5
10A3
330
2
100
AcDbEntity
  8
0
100
AcDbLine
 10
613.5788209316379
 20
662.2608955540179
 30
0.0
 11
613.5788209316379
 21
605.7608955540179
 31
0.0
  0
LINE
  5
10A4
330
2
100
AcDbEntity
  8
0
100
AcDbLine
 10
576.9947505999052
 20
662.2608955540179
 30
0.0
 11
576.9947505999052
 21
605.7608955540179
 31
0.0
  0
LINE
  5
10A5
330
2
100
AcDbEntity
  8
0
100
AcDbLine
 10
562.2867857657702
 20
662.2608955540179
 30
0.0
 11
562.2867857657711
 21
605.7608955540179
 31
0.0
  0
LINE
  5
10A6
330
2
100
AcDbEntity
  8
0
100
AcDbLine
 10
559.2867857657702
 20
662.2608955540179
 30
0.0
 11
559.2867857657702
 21
605.7608955540179
 31
0.0
  0
LINE
  5
10A7
330
2
100
AcDbEntity
  8
0
100
AcDbLine
 10
592.0843016812541
 20
351.914839122959
 30
0.0
 11
593.3443022243308
 21
351.914839122959
 31
0.0
  0
LINE
  5
10A8
330
2
100
AcDbEntity
  8
0
100
AcDbLine
 10
593.8343016812478
 20
355.414839122948
 30
0.0
 11
592.0843016812541
 21
351.914839122959
 31
0.0
  0
ARC
  5
10A9
330
2
100
AcDbEntity
  8
0
100
AcDbCircle
 10
596.7392698487373
 20
354.2248391229512
 30
0.0
 40
1.189999999995825
100
AcDbArc
 50
307.5189678668057
 51
90.0
  0
LINE
  5
10AA
330
2
100
AcDbEntity
  8
0
100
AcDbLine
 10
597.4640084523352
 20
353.2809885222503
 30
0.0
 11
598.3333510872681
 21
351.914839122959
 31
0.0
  0
LINE
  5
10AB
330
2
100
AcDbEntity
  8
0
100
AcDbLine
 10
597.0733505441912
 20
351.914839122959
 30
0.0
 11
598.3333510872681
 21
351.914839122959
 31
0.0
  0
LINE
  5
10AC
330
2
100
AcDbEntity
  8
0
100
AcDbLine
 10
594.499301681245
 20
351.914839122959
 30
0.0
 11
595.5492698487423
 21
351.914839122959
 31
0.0
  0
LINE
  5
10AD
330
2
100
AcDbEntity
  8
0
100
AcDbLine
 10
593.6068022243298
 20
352.4398391229567
 30
0.0
 11
593.3443022243308
 21
351.914839122959
 31
0.0
  0
LINE
  5
10AE
330
2
100
AcDbEntity
  8
0
100
AcDbLine
 10
593.6068022243298
 20
352.4398391229567
 30
0.0
 11
594.499301681245
 21
352.4398391229567
 31
0.0
  0
LINE
  5
10AF
330
2
100
AcDbEntity
  8
0
100
AcDbLine
 10
594.499301681245
 20
352.4398391229567
 30
0.0
 11
594.499301681245
 21
351.914839122959
 31
0.0
  0
LINE
  5
10B0
330
2
100
AcDbEntity
  8
0
100
AcDbLine
 10
594.1668022243275
 20
353.5598391229539
 30
0.0
 11
594.499301681245
 21
353.5598391229539
 31
0.0
  0
LINE
  5
10B1
330
2
100
AcDbEntity
  8
0
100
AcDbLine
 10
594.499301681245
 20
354.2248380367889
 30
0.0
 11
594.499301681245
 21
353.5598391229539
 31
0.0
  0
LINE
  5
10B2
330
2
100
AcDbEntity
  8
0
100
AcDbLine
 10
594.499301681245
 20
354.2248380367889
 30
0.0
 11
594.1668022243275
 21
353.5598391229539
 31
0.0
  0
LINE
  5
10B3
330
2
100
AcDbEntity
  8
0
100
AcDbLine
 10
595.6980516812409
 20
354.0760891229527
 30
0.0
 11
597.0733505441912
 21
351.914839122959
 31
0.0
  0
LINE
  5
10B4
330
2
100
AcDbEntity
  8
0
100
AcDbLine
 10
595.5492698487423
 20
354.2248391229512
 30
0.0
 11
595.5492698487423
 21
351.914839122959
 31
0.0
  0
LINE
  5
10B5
330
2
100
AcDbEntity
  8
0
100
AcDbLine
 10
595.5492698487423
 20
354.2248391229512
 30
0.0
 11
596.6649266812374
 21
354.2248391229512
 31
0.0
  0
LINE
  5
10B6
330
2
100
AcDbEntity
  8
0
100
AcDbLine
 10
595.6980516812409
 20
354.0760891229527
 30
0.0
 11
596.6649266812374
 21
354.0760891229527
 31
0.0
  0
ARC
  5
10B7
330
2
100
AcDbEntity
  8
0
100
AcDbCircle
 10
596.6649266812374
 20
354.150464122951
 30
0.0
 40
0.0743749999997391
100
AcDbArc
 50
270.0
 51
90.0
  0
LINE
  5
10B8
330
2
100
AcDbEntity
  8
0
100
AcDbLine
 10
593.8343016812478
 20
355.414839122948
 30
0.0
 11
596.7392698487373
 21
355.414839122948
 31
0.0
  0
LINE
  5
10B9
330
2
100
AcDbEntity
  8
0
100
AcDbLine
 10
92.64009878151046
 20
354.5879655005629
 30
0.0
 11
98.64009878151046
 21
354.5879655005629
 31
0.0
  0
ARC
  5
10BA
330
2
100
AcDbEntity
  8
0
100
AcDbCircle
 10
98.64009878151046
 20
356.5879655005629
 30
0.0
 40
2.0
100
AcDbArc
 50
270.0
 51
0.0
  0
ARC
  5
10BB
330
2
100
AcDbEntity
  8
0
100
AcDbCircle
 10
105.6222188033957
 20
356.087965500572
 30
0.0
 40
5.0
100
AcDbArc
 50
90.0
 51
175.9039562419073
  0
LINE
  5
10BC
330
2
100
AcDbEntity
  8
0
100
AcDbLine
 10
98.64009878151092
 20
417.5879655005629
 30
0.0
 11
92.64009878151091
 21
417.5879655005629
 31
0.0
  0
ARC
  5
10BD
330
2
100
AcDbEntity
  8
0
100
AcDbCircle
 10
98.64009878151092
 20
415.5879655005628
 30
0.0
 40
2.0
100
AcDbArc
 50
0.0
 51
89.99999999997395
  0
ARC
  5
10BE
330
2
100
AcDbEntity
  8
0
100
AcDbCircle
 10
105.6222188033943
 20
416.087965500572
 30
0.0
 40
5.0
100
AcDbArc
 50
184.0960437581962
 51
270.0
  0
LINE
  5
10BF
330
2
100
AcDbEntity
  8
0
100
AcDbLine
 10
696.2867857657665
 20
417.5879655005626
 30
0.0
 11
702.2867857657665
 21
417.5879655005626
 31
0.0
  0
ARC
  5
10C0
330
2
100
AcDbEntity
  8
0
100
AcDbCircle
 10
696.2867857657665
 20
415.5879655005627
 30
0.0
 40
2.0
100
AcDbArc
 50
90.0
 51
180.0
  0
ARC
  5
10C1
330
2
100
AcDbEntity
  8
0
100
AcDbCircle
 10
689.3046657438817
 20
416.0879655005627
 30
0.0
 40
5.0
100
AcDbArc
 50
270.0
 51
355.9039562418037
  0
ARC
  5
10C2
330
2
100
AcDbEntity
  8
0
100
AcDbCircle
 10
696.2867857657665
 20
356.5879655005626
 30
0.0
 40
2.0
100
AcDbArc
 50
180.0
 51
270.0
  0
LINE
  5
10C3
330
2
100
AcDbEntity
  8
0
100
AcDbLine
 10
702.2867857657665
 20
354.5879655005626
 30
0.0
 11
696.2867857657665
 21
354.5879655005626
 31
0.0
  0
ARC
  5
10C4
330
2
100
AcDbEntity
  8
0
100
AcDbCircle
 10
689.3046657438817
 20
356.0879655005626
 30
0.0
 40
5.0
100
AcDbArc
 50
4.096043758196293
 51
90.0
  0
LINE
  5
10C5
330
2
100
AcDbEntity
  8
CENTER
100
AcDbLine
 10
380.1703957022555
 20
335.3061371953318
 30
0.0
 11
380.1703957022555
 21
436.8727026960441
 31
0.0
  0
LINE
  5
10C6
330
2
100
AcDbEntity
  8
0
100
AcDbLine
 10
418.1703957022555
 20
351.0879655005629
 30
0.0
 11
418.1703957022555
 21
421.0879655005629
 31
0.0
  0
LINE
  5
10C7
330
2
100
AcDbEntity
  8
0
100
AcDbLine
 10
413.1703957022555
 20
345.5941238324267
 30
0.0
 11
413.1703957022555
 21
426.5847160589492
 31
0.0
  0
LINE
  5
10C8
330
2
100
AcDbEntity
  8
0
100
AcDbLine
 10
413.1703957022555
 20
421.0879655005629
 30
0.0
 11
418.1703957022555
 21
421.0879655005629
 31
0.0
  0
LINE
  5
10C9
330
2
100
AcDbEntity
  8
CENTER
100
AcDbLine
 10
305.1703957022559
 20
386.0879655005638
 30
0.0
 11
454.1703957022555
 21
386.0879655005611
 31
0.0
  0
LINE
  5
10CA
330
2
100
AcDbEntity
  8
0
100
AcDbLine
 10
413.1703957022555
 20
351.0879655005629
 30
0.0
 11
418.1703957022555
 21
351.0879655005629
 31
0.0
  0
LINE
  5
10CB
330
2
100
AcDbEntity
  8
0
100
AcDbLine
 10
355.1703957022555
 20
345.0879655005629
 30
0.0
 11
413.1703957022555
 21
345.5941238324267
 31
0.0
  0
LINE
  5
10CC
330
2
100
AcDbEntity
  8
0
100
AcDbLine
 10
355.1703957022555
 20
427.0908743908131
 30
0.0
 11
413.1703957022555
 21
426.5847160589492
 31
0.0
  0
LINE
  5
10CD
330
2
100
AcDbEntity
  8
0
100
AcDbLine
 10
355.1703957022555
 20
417.1847396941102
 30
0.0
 11
355.1703957022555
 21
427.0908743908131
 31
0.0
  0
ARC
  5
10CE
330
2
100
AcDbEntity
  8
0
100
AcDbCircle
 10
420.1703957022555
 20
416.4733130535696
 30
0.0
 40
2.0
100
AcDbArc
 50
180.0
 51
267.9999999999963
  0
ARC
  5
10CF
330
2
100
AcDbEntity
  8
0
100
AcDbCircle
 10
429.1703957022555
 20
412.1565879509471
 30
0.0
 40
2.0
100
AcDbArc
 50
0.0
 51
87.99999999999636
  0
ARC
  5
10D0
330
2
100
AcDbEntity
  8
0
100
AcDbCircle
 10
420.1703957022555
 20
355.7026179475561
 30
0.0
 40
2.0
100
AcDbArc
 50
92.00000000000365
 51
180.0
  0
ARC
  5
10D1
330
2
100
AcDbEntity
  8
0
100
AcDbCircle
 10
429.1703957022555
 20
360.0193430501786
 30
0.0
 40
2.0
100
AcDbArc
 50
272.0000000000036
 51
0.0
  0
LINE
  5
10D2
330
2
100
AcDbEntity
  8
0
100
AcDbLine
 10
429.2401946956606
 20
414.1553696049869
 30
0.0
 11
420.1005967088503
 21
414.4745313995318
 31
0.0
  0
LINE
  5
10D3
330
2
100
AcDbEntity
  8
0
100
AcDbLine
 10
429.2401946956606
 20
358.0205613961407
 30
0.0
 11
420.1005967088503
 21
357.7013996015939
 31
0.0
  0
LINE
  5
10D4
330
2
100
AcDbEntity
  8
0
100
AcDbLine
 10
431.1703957022573
 20
360.0193430501786
 30
0.0
 11
431.1703957022555
 21
412.1565879509471
 31
0.0
  0
LINE
  5
10D5
330
2
100
AcDbEntity
  8
0
100
AcDbLine
 10
355.1703957022555
 20
350.087965500561
 30
0.0
 11
412.1703957022555
 21
350.087965500561
 31
0.0
  0
LINE
  5
10D6
330
2
100
AcDbEntity
  8
0
100
AcDbLine
 10
355.1703957022555
 20
353.0879655005611
 30
0.0
 11
412.1703957022555
 21
353.0879655005611
 31
0.0
  0
LINE
  5
10D7
330
2
100
AcDbEntity
  8
0
100
AcDbLine
 10
355.1703957022555
 20
367.7959303346925
 30
0.0
 11
412.1703957022555
 21
367.7959303346925
 31
0.0
  0
LINE
  5
10D8
330
2
100
AcDbEntity
  8
0
100
AcDbLine
 10
355.1703957022555
 20
422.0879655005629
 30
0.0
 11
412.1703957022555
 21
422.0879655005629
 31
0.0
  0
LINE
  5
10D9
330
2
100
AcDbEntity
  8
0
100
AcDbLine
 10
355.1703957022555
 20
419.0879655005629
 30
0.0
 11
412.1703957022555
 21
419.0879655005629
 31
0.0
  0
LINE
  5
10DA
330
2
100
AcDbEntity
  8
0
100
AcDbLine
 10
355.1703957022555
 20
404.3800006664315
 30
0.0
 11
412.1703957022555
 21
404.3800006664315
 31
0.0
  0
LINE
  5
10DB
330
2
100
AcDbEntity
  8
0
100
AcDbLine
 10
669.2517259839632
 20
608.2434424830187
 30
0.0
 11
669.5049574605381
 21
637.2608955540179
 31
0.0
  0
ARC
  5
10DC
330
2
100
AcDbEntity
  8
0
100
AcDbCircle
 10
672.4570739228465
 20
631.7608955540179
 30
0.0
 40
3.0
100
AcDbArc
 50
90.0
 51
179.5000000000344
  0
ARC
  5
10DD
330
2
100
AcDbEntity
  8
0
100
AcDbCircle
 10
667.2518021378355
 20
608.2608955540161
 30
0.0
 40
2.0
100
AcDbArc
 50
270.0
 51
359.5000000000345
  0
LINE
  5
10DE
330
2
100
AcDbEntity
  8
0
100
AcDbLine
 10
636.2824223318721
 20
662.2608955540179
 30
0.0
 11
635.7762640000092
 21
604.2608955540178
 31
0.0
  0
ARC
  5
10DF
330
2
100
AcDbEntity
  8
0
100
AcDbCircle
 10
637.2806845514833
 20
604.7608955540124
 30
0.0
 40
1.5
100
AcDbArc
 50
90.0
 51
179.5000000000344
  0
LINE
  5
10E0
330
2
100
AcDbEntity
  8
0
100
AcDbLine
 10
669.2867857657692
 20
662.2608955540179
 30
0.0
 11
669.5049574605182
 21
637.2608955540179
 31
0.0
  0
ARC
  5
10E1
330
2
100
AcDbEntity
  8
0
100
AcDbCircle
 10
672.4570739228302
 20
642.7608955540179
 30
0.0
 40
3.0
100
AcDbArc
 50
180.4999999999655
 51
270.0
  0
LINE
  5
10E2
330
2
100
AcDbEntity
  8
0
100
AcDbLine
 10
337.8703957022562
 20
359.5879655005611
 30
0.0
 11
341.1703957022555
 21
359.5879655005629
 31
0.0
  0
LINE
  5
10E3
330
2
100
AcDbEntity
  8
HIDS
100
AcDbLine
 10
342.3775024834367
 20
354.3808587193744
 30
0.0
 11
341.9632889210652
 21
354.7950722817459
 31
0.0
  0
LINE
  5
10E4
330
2
100
AcDbEntity
  8
0
100
AcDbLine
 10
341.1703957022536
 20
357.5879655005647
 30
0.0
 11
341.6703957022573
 21
357.0879655005629
 31
0.0
  0
LINE
  5
10E5
330
2
100
AcDbEntity
  8
0
100
AcDbLine
 10
334.1703957022559
 20
359.5879655005611
 30
0.0
 11
333.1703957022559
 21
360.165315769751
 31
0.0
  0
LINE
  5
10E6
330
2
100
AcDbEntity
  8
0
100
AcDbLine
 10
335.8703957022562
 20
360.2879655005618
 30
0.0
 11
337.4703957022566
 21
360.2879655005618
 31
0.0
  0
LINE
  5
10E7
330
2
100
AcDbEntity
  8
0
100
AcDbLine
 10
337.6703957022555
 20
359.7879655005618
 30
0.0
 11
337.8703957022562
 21
359.5879655005611
 31
0.0
  0
LINE
  5
10E8
330
2
100
AcDbEntity
  8
0
100
AcDbLine
 10
335.6703957022555
 20
359.7879655005618
 30
0.0
 11
335.6703957022555
 21
412.3879655005621
 31
0.0
  0
LINE
  5
10E9
330
2
100
AcDbEntity
  8
0
100
AcDbLine
 10
334.1703957022559
 20
359.5879655005611
 30
0.0
 11
335.4703957022566
 21
359.5879655005611
 31
0.0
  0
LINE
  5
10EA
330
2
100
AcDbEntity
  8
0
100
AcDbLine
 10
337.8703957022544
 20
412.5879655005629
 30
0.0
 11
341.1703957022536
 21
412.5879655005629
 31
0.0
  0
LINE
  5
10EB
330
2
100
AcDbEntity
  8
0
100
AcDbLine
 10
341.1703957022536
 20
414.5879655005629
 30
0.0
 11
341.1703957022536
 21
357.5879655005647
 31
0.0
  0
LINE
  5
10EC
330
2
100
AcDbEntity
  8
0
100
AcDbLine
 10
341.17039570225
 20
412.5879655005629
 30
0.0
 11
341.17039570225
 21
414.5879655005574
 31
0.0
  0
LINE
  5
10ED
330
2
100
AcDbEntity
  8
0
100
AcDbLine
 10
342.6703957022509
 20
346.1883625585415
 30
0.0
 11
342.6703957022509
 21
346.5879655005629
 31
0.0
  0
LINE
  5
10EE
330
2
100
AcDbEntity
  8
HIDS
100
AcDbLine
 10
342.67039570225
 20
346.5879655005629
 30
0.0
 11
342.6703957022509
 21
356.5879655005629
 31
0.0
  0
LINE
  5
10EF
330
2
100
AcDbEntity
  8
0
100
AcDbLine
 10
342.6703957022509
 20
356.5879655005629
 30
0.0
 11
342.6703957022509
 21
415.5879655005628
 31
0.0
  0
LINE
  5
10F0
330
2
100
AcDbEntity
  8
HIDS
100
AcDbLine
 10
342.6703957022509
 20
415.5879655005628
 30
0.0
 11
342.6703957022509
 21
425.5879655005629
 31
0.0
  0
LINE
  5
10F1
330
2
100
AcDbEntity
  8
0
100
AcDbLine
 10
342.6703957022518
 20
425.5879655005629
 30
0.0
 11
342.6703957022518
 21
425.9875684425824
 31
0.0
  0
ARC
  5
10F2
330
2
100
AcDbEntity
  8
0
100
AcDbCircle
 10
343.6703957022509
 20
346.1883625585415
 30
0.0
 40
1.0
100
AcDbArc
 50
180.0
 51
269.5000000000084
  0
LINE
  5
10F3
330
2
100
AcDbEntity
  8
0
100
AcDbLine
 10
341.1703957022536
 20
414.5879655005629
 30
0.0
 11
341.6703957022537
 21
415.0879655005629
 31
0.0
  0
LINE
  5
10F4
330
2
100
AcDbEntity
  8
HIDS
100
AcDbLine
 10
342.3775024834367
 20
417.7950722817495
 30
0.0
 11
341.9632889210634
 21
417.3808587193762
 31
0.0
  0
LINE
  5
10F5
330
2
100
AcDbEntity
  8
HIDS
100
AcDbLine
 10
341.6703957022491
 20
355.5021790629325
 30
0.0
 11
341.67039570225
 21
356.5879655005629
 31
0.0
  0
LINE
  5
10F6
330
2
100
AcDbEntity
  8
0
100
AcDbLine
 10
341.6703957022491
 20
356.5879655005629
 30
0.0
 11
341.6703957022491
 21
415.5879655005628
 31
0.0
  0
LINE
  5
10F7
330
2
100
AcDbEntity
  8
HIDS
100
AcDbLine
 10
341.6703957022491
 20
415.5879655005628
 30
0.0
 11
341.6703957022491
 21
416.6737519381896
 31
0.0
  0
LINE
  5
10F8
330
2
100
AcDbEntity
  8
0
100
AcDbLine
 10
333.1703957022523
 20
360.1653157697529
 30
0.0
 11
333.1703957022514
 21
412.010615231371
 31
0.0
  0
LINE
  5
10F9
330
2
100
AcDbEntity
  8
0
100
AcDbLine
 10
334.1703957022541
 20
412.5879655005629
 30
0.0
 11
335.4703957022548
 21
412.5879655005629
 31
0.0
  0
LINE
  5
10FA
330
2
100
AcDbEntity
  8
0
100
AcDbLine
 10
337.6703957022537
 20
412.3879655005621
 30
0.0
 11
337.8703957022544
 21
412.5879655005629
 31
0.0
  0
LINE
  5
10FB
330
2
100
AcDbEntity
  8
0
100
AcDbLine
 10
337.6703957022537
 20
412.3879655005621
 30
0.0
 11
337.6703957022145
 21
359.7879655006036
 31
0.0
  0
LINE
  5
10FC
330
2
100
AcDbEntity
  8
0
100
AcDbLine
 10
335.8703957022544
 20
411.8879655005621
 30
0.0
 11
337.4703957022548
 21
411.8879655005621
 31
0.0
  0
LINE
  5
10FD
330
2
100
AcDbEntity
  8
0
100
AcDbLine
 10
334.1703957022541
 20
412.5879655005629
 30
0.0
 11
333.1703957022541
 21
412.0106152313729
 31
0.0
  0
LINE
  5
10FE
330
2
100
AcDbEntity
  8
0
100
AcDbLine
 10
355.1703957022537
 20
427.0879655005629
 30
0.0
 11
355.1703957022582
 21
345.0879655005629
 31
0.0
  0
LINE
  5
10FF
330
2
100
AcDbEntity
  8
0
100
AcDbLine
 10
355.1703957022582
 20
345.0879655005629
 30
0.0
 11
343.6616691667523
 21
345.1884006354776
 31
0.0
  0
ARC
  5
1100
330
2
100
AcDbEntity
  8
HIDS
100
AcDbCircle
 10
342.6703957022518
 20
355.5021790629325
 30
0.0
 40
1.0
100
AcDbArc
 50
180.0
 51
225.0000000000118
  0
ARC
  5
1101
330
2
100
AcDbEntity
  8
HIDS
100
AcDbCircle
 10
341.6703957022519
 20
353.6737519381877
 30
0.0
 40
1.0
100
AcDbArc
 50
0.0
 51
45.0000000000118
  0
ARC
  5
1102
330
2
100
AcDbEntity
  8
HIDS
100
AcDbCircle
 10
342.6703957022491
 20
416.6737519381896
 30
0.0
 40
1.0
100
AcDbArc
 50
134.9999999999882
 51
180.0
  0
ARC
  5
1103
330
2
100
AcDbEntity
  8
HIDS
100
AcDbCircle
 10
341.6703957022519
 20
418.502179062938
 30
0.0
 40
1.0
100
AcDbArc
 50
314.9999999999881
 51
0.0
  0
ARC
  5
1104
330
2
100
AcDbEntity
  8
0
100
AcDbCircle
 10
335.4703957022548
 20
412.3879655005621
 30
0.0
 40
0.2
100
AcDbArc
 50
0.0
 51
90.0
  0
ARC
  5
1105
330
2
100
AcDbEntity
  8
0
100
AcDbCircle
 10
335.8703957022544
 20
412.0879655005628
 30
0.0
 40
0.2
100
AcDbArc
 50
180.0
 51
270.0
  0
ARC
  5
1106
330
2
100
AcDbEntity
  8
0
100
AcDbCircle
 10
337.4703957022548
 20
412.0879655005628
 30
0.0
 40
0.2
100
AcDbArc
 50
270.0
 51
0.0
  0
ARC
  5
1107
330
2
100
AcDbEntity
  8
0
100
AcDbCircle
 10
335.4703957022566
 20
359.7879655005618
 30
0.0
 40
0.2
100
AcDbArc
 50
270.0
 51
0.0
  0
ARC
  5
1108
330
2
100
AcDbEntity
  8
0
100
AcDbCircle
 10
335.8703957022562
 20
360.0879655005611
 30
0.0
 40
0.2
100
AcDbArc
 50
90.0
 51
180.0
  0
ARC
  5
1109
330
2
100
AcDbEntity
  8
0
100
AcDbCircle
 10
337.4703957022566
 20
360.0879655005611
 30
0.0
 40
0.2
100
AcDbArc
 50
0.0
 51
90.0
  0
LINE
  5
110A
330
2
100
AcDbEntity
  8
0
100
AcDbLine
 10
334.1703957022559
 20
359.5879655005611
 30
0.0
 11
334.1703957022541
 21
412.5879655005629
 31
0.0
  0
LINE
  5
110B
330
2
100
AcDbEntity
  8
0
100
AcDbLine
 10
337.8703957022544
 20
412.5879655005629
 30
0.0
 11
337.8703957022562
 21
359.5879655005611
 31
0.0
  0
LINE
  5
110C
330
2
100
AcDbEntity
  8
0
100
AcDbLine
 10
355.1703957022573
 20
350.0879655005629
 30
0.0
 11
348.6616691667514
 21
350.0879655005629
 31
0.0
  0
LINE
  5
110D
330
2
100
AcDbEntity
  8
0
100
AcDbLine
 10
355.1703957022573
 20
353.0879655005629
 30
0.0
 11
348.6616691667514
 21
353.0879655005629
 31
0.0
  0
LINE
  5
110E
330
2
100
AcDbEntity
  8
0
100
AcDbLine
 10
355.1703957022537
 20
419.0879655005629
 30
0.0
 11
348.6616691667522
 21
419.0879655005629
 31
0.0
  0
LINE
  5
110F
330
2
100
AcDbEntity
  8
0
100
AcDbLine
 10
355.1703957022537
 20
422.0879655005629
 30
0.0
 11
348.6616691667514
 21
422.0879655005629
 31
0.0
  0
LINE
  5
1110
330
2
100
AcDbEntity
  8
0
100
AcDbLine
 10
355.1703957022555
 20
404.3800006664315
 30
0.0
 11
343.6703957022519
 21
404.3800006664315
 31
0.0
  0
LINE
  5
1111
330
2
100
AcDbEntity
  8
0
100
AcDbLine
 10
355.1703957022573
 20
367.7959303346943
 30
0.0
 11
343.6703957022519
 21
367.7959303346943
 31
0.0
  0
LINE
  5
1112
330
2
100
AcDbEntity
  8
0
100
AcDbLine
 10
343.6616691667523
 20
358.6229491270478
 30
0.0
 11
347.1747589699989
 21
358.5922908567973
 31
0.0
  0
LINE
  5
1113
330
2
100
AcDbEntity
  8
0
100
AcDbLine
 10
347.67039570225
 20
358.0923098952644
 30
0.0
 11
347.67039570225
 21
346.1447282195877
 31
0.0
  0
ARC
  5
1114
330
2
100
AcDbEntity
  8
0
100
AcDbCircle
 10
343.67039570225
 20
359.6229110501154
 30
0.0
 40
1.0
100
AcDbArc
 50
180.0
 51
269.5000000000345
  0
ARC
  5
1115
330
2
100
AcDbEntity
  8
0
100
AcDbCircle
 10
347.17039570225
 20
358.0923098952662
 30
0.0
 40
0.5
100
AcDbArc
 50
0.0
 51
89.5000000000345
  0
ARC
  5
1116
330
2
100
AcDbEntity
  8
0
100
AcDbCircle
 10
348.67039570225
 20
346.1447282195877
 30
0.0
 40
1.0
100
AcDbArc
 50
180.0
 51
269.5000000000084
  0
ARC
  5
1117
330
2
100
AcDbEntity
  8
0
100
AcDbCircle
 10
343.6703957022509
 20
425.9875684425824
 30
0.0
 40
1.0
100
AcDbArc
 50
90.49999999999155
 51
180.0
  0
LINE
  5
1118
330
2
100
AcDbEntity
  8
0
100
AcDbLine
 10
355.1703957022537
 20
427.0879655005629
 30
0.0
 11
343.6616691667523
 21
426.9875303656463
 31
0.0
  0
LINE
  5
1119
330
2
100
AcDbEntity
  8
0
100
AcDbLine
 10
343.6616691667523
 20
413.5529818740779
 30
0.0
 11
347.1747589699989
 21
413.5836401443267
 31
0.0
  0
LINE
  5
111A
330
2
100
AcDbEntity
  8
0
100
AcDbLine
 10
347.67039570225
 20
414.0836211058595
 30
0.0
 11
347.67039570225
 21
426.0312027815362
 31
0.0
  0
ARC
  5
111B
330
2
100
AcDbEntity
  8
0
100
AcDbCircle
 10
343.67039570225
 20
412.5530199510086
 30
0.0
 40
1.0
100
AcDbArc
 50
90.49999999996549
 51
180.0
  0
ARC
  5
111C
330
2
100
AcDbEntity
  8
0
100
AcDbCircle
 10
347.17039570225
 20
414.0836211058595
 30
0.0
 40
0.5
100
AcDbArc
 50
270.4999999999654
 51
0.0
  0
ARC
  5
111D
330
2
100
AcDbEntity
  8
0
100
AcDbCircle
 10
348.67039570225
 20
426.0312027815362
 30
0.0
 40
1.0
100
AcDbArc
 50
90.49999999999155
 51
180.0
  0
LINE
  5
111E
330
2
100
AcDbEntity
  8
0
100
AcDbLine
 10
340.5703957022497
 20
415.5879655005628
 30
0.0
 11
340.17039570225
 21
416.2807858235901
 31
0.0
  0
LINE
  5
111F
330
2
100
AcDbEntity
  8
0
100
AcDbLine
 10
346.17039570225
 20
415.5879655005628
 30
0.0
 11
346.17039570225
 21
425.5879655005629
 31
0.0
  0
LINE
  5
1120
330
2
100
AcDbEntity
  8
0
100
AcDbLine
 10
340.5703957022497
 20
415.5879655005628
 30
0.0
 11
340.5703957022497
 21
425.5879655005629
 31
0.0
  0
LINE
  5
1121
330
2
100
AcDbEntity
  8
0
100
AcDbLine
 10
347.67039570225
 20
415.5879655005628
 30
0.0
 11
340.5703957022497
 21
415.5879655005628
 31
0.0
  0
LINE
  5
1122
330
2
100
AcDbEntity
  8
0
100
AcDbLine
 10
347.67039570225
 20
425.5879655005629
 30
0.0
 11
340.5703957022497
 21
425.5879655005629
 31
0.0
  0
LINE
  5
1123
330
2
100
AcDbEntity
  8
0
100
AcDbLine
 10
340.5703957022497
 20
425.5879655005629
 30
0.0
 11
340.17039570225
 21
424.8951451775356
 31
0.0
  0
LINE
  5
1124
330
2
100
AcDbEntity
  8
0
100
AcDbLine
 10
340.17039570225
 20
416.2807858235901
 30
0.0
 11
340.17039570225
 21
424.8951451775356
 31
0.0
  0
LINE
  5
1125
330
2
100
AcDbEntity
  8
0
100
AcDbLine
 10
347.67039570225
 20
425.5879655005629
 30
0.0
 11
347.67039570225
 21
415.5879655005628
 31
0.0
  0
LINE
  5
1126
330
2
100
AcDbEntity
  8
0
100
AcDbLine
 10
340.5703957022497
 20
356.5879655005629
 30
0.0
 11
340.17039570225
 21
355.8951451775356
 31
0.0
  0
LINE
  5
1127
330
2
100
AcDbEntity
  8
0
100
AcDbLine
 10
346.17039570225
 20
356.5879655005629
 30
0.0
 11
346.17039570225
 21
346.5879655005629
 31
0.0
  0
LINE
  5
1128
330
2
100
AcDbEntity
  8
0
100
AcDbLine
 10
340.5703957022497
 20
356.5879655005629
 30
0.0
 11
340.5703957022497
 21
346.5879655005629
 31
0.0
  0
LINE
  5
1129
330
2
100
AcDbEntity
  8
0
100
AcDbLine
 10
347.67039570225
 20
356.5879655005629
 30
0.0
 11
340.5703957022497
 21
356.5879655005629
 31
0.0
  0
LINE
  5
112A
330
2
100
AcDbEntity
  8
0
100
AcDbLine
 10
347.67039570225
 20
346.5879655005629
 30
0.0
 11
340.5703957022497
 21
346.5879655005629
 31
0.0
  0
LINE
  5
112B
330
2
100
AcDbEntity
  8
0
100
AcDbLine
 10
340.5703957022497
 20
346.5879655005629
 30
0.0
 11
340.17039570225
 21
347.2807858235901
 31
0.0
  0
LINE
  5
112C
330
2
100
AcDbEntity
  8
0
100
AcDbLine
 10
340.17039570225
 20
355.8951451775356
 30
0.0
 11
340.17039570225
 21
347.2807858235901
 31
0.0
  0
LINE
  5
112D
330
2
100
AcDbEntity
  8
0
100
AcDbLine
 10
568.7867857657684
 20
679.5608955540171
 30
0.0
 11
568.7867857657693
 21
676.2608955540179
 31
0.0
  0
LINE
  5
112E
330
2
100
AcDbEntity
  8
HIDS
100
AcDbLine
 10
563.5796789845817
 20
675.0537887728366
 30
0.0
 11
563.9938925469532
 21
675.4680023352082
 31
0.0
  0
LINE
  5
112F
330
2
100
AcDbEntity
  8
0
100
AcDbLine
 10
566.786785765772
 20
676.2608955540197
 30
0.0
 11
566.2867857657702
 21
675.7608955540161
 31
0.0
  0
LINE
  5
1130
330
2
100
AcDbEntity
  8
0
100
AcDbLine
 10
568.7867857657684
 20
683.2608955540178
 30
0.0
 11
569.3641360349584
 21
684.2608955540178
 31
0.0
  0
LINE
  5
1131
330
2
100
AcDbEntity
  8
0
100
AcDbLine
 10
569.486785765769
 20
681.5608955540171
 30
0.0
 11
569.486785765769
 21
679.9608955540167
 31
0.0
  0
LINE
  5
1132
330
2
100
AcDbEntity
  8
0
100
AcDbLine
 10
568.9867857657691
 20
679.7608955540178
 30
0.0
 11
568.7867857657684
 21
679.5608955540171
 31
0.0
  0
LINE
  5
1133
330
2
100
AcDbEntity
  8
0
100
AcDbLine
 10
568.9867857657691
 20
681.7608955540179
 30
0.0
 11
621.5867857657695
 21
681.7608955540179
 31
0.0
  0
LINE
  5
1134
330
2
100
AcDbEntity
  8
0
100
AcDbLine
 10
568.7867857657684
 20
683.2608955540178
 30
0.0
 11
568.7867857657684
 21
681.9608955540168
 31
0.0
  0
LINE
  5
1135
330
2
100
AcDbEntity
  8
0
100
AcDbLine
 10
637.2867857657693
 20
672.7608955540233
 30
0.0
 11
657.7867857657702
 21
672.7608955540233
 31
0.0
  0
LINE
  5
1136
330
2
100
AcDbEntity
  8
0
100
AcDbLine
 10
667.7867857657702
 20
672.7608955540233
 30
0.0
 11
668.2038424433713
 21
672.7608955540233
 31
0.0
  0
LINE
  5
1137
330
2
100
AcDbEntity
  8
0
100
AcDbLine
 10
656.2867857657701
 20
669.7608955540233
 30
0.0
 11
668.2300230467435
 21
669.7608955540233
 31
0.0
  0
LINE
  5
1138
330
2
100
AcDbEntity
  8
0
100
AcDbLine
 10
621.7867857657702
 20
679.5608955540189
 30
0.0
 11
621.7867857657693
 21
676.2608955540197
 31
0.0
  0
LINE
  5
1139
330
2
100
AcDbEntity
  8
0
100
AcDbLine
 10
623.7867857657692
 20
676.2608955540197
 30
0.0
 11
566.786785765772
 21
676.2608955540197
 31
0.0
  0
LINE
  5
113A
330
2
100
AcDbEntity
  8
0
100
AcDbLine
 10
621.7867857657702
 20
676.2608955540233
 30
0.0
 11
623.7867857657638
 21
676.2608955540233
 31
0.0
  0
LINE
  5
113B
330
2
100
AcDbEntity
  8
0
100
AcDbLine
 10
555.3871828237488
 20
674.7608955540215
 30
0.0
 11
555.7867857657611
 21
674.7608955540215
 31
0.0
  0
LINE
  5
113C
330
2
100
AcDbEntity
  8
HIDS
100
AcDbLine
 10
555.7867857657611
 20
674.7608955540215
 30
0.0
 11
565.7867857657611
 21
674.7608955540215
 31
0.0
  0
LINE
  5
113D
330
2
100
AcDbEntity
  8
0
100
AcDbLine
 10
565.7867857657611
 20
674.7608955540215
 30
0.0
 11
635.2867857657693
 21
674.7608955540215
 31
0.0
  0
ARC
  5
113E
330
2
100
AcDbEntity
  8
0
100
AcDbCircle
 10
555.3871828237488
 20
673.7608955540215
 30
0.0
 40
1.0
100
AcDbArc
 50
90.0
 51
179.5000000000344
  0
LINE
  5
113F
330
2
100
AcDbEntity
  8
0
100
AcDbLine
 10
623.7867857657692
 20
676.2608955540197
 30
0.0
 11
624.2867857657692
 21
675.7608955540197
 31
0.0
  0
LINE
  5
1140
330
2
100
AcDbEntity
  8
0
100
AcDbLine
 10
626.9938925469569
 20
675.0537887728366
 30
0.0
 11
626.5796789845835
 21
675.46800233521
 31
0.0
  0
LINE
  5
1141
330
2
100
AcDbEntity
  8
HIDS
100
AcDbLine
 10
564.7009993281399
 20
675.7608955540233
 30
0.0
 11
565.7867857657611
 21
675.7608955540233
 31
0.0
  0
LINE
  5
1142
330
2
100
AcDbEntity
  8
0
100
AcDbLine
 10
565.7867857657611
 20
675.7608955540233
 30
0.0
 11
625.8725722033968
 21
675.7608955540233
 31
0.0
  0
ARC
  5
1143
330
2
100
AcDbEntity
  8
0
100
AcDbCircle
 10
637.2867857657693
 20
673.7608955540233
 30
0.0
 40
1.0
100
AcDbArc
 50
180.0
 51
270.0
  0
ARC
  5
1144
330
2
100
AcDbEntity
  8
0
100
AcDbCircle
 10
635.2867857657693
 20
673.7608955540215
 30
0.0
 40
1.0
100
AcDbArc
 50
0.0
 51
90.0
  0
LINE
  5
1145
330
2
100
AcDbEntity
  8
0
100
AcDbLine
 10
636.2867857657692
 20
673.7608955540233
 30
0.0
 11
636.2867857657692
 21
673.7608955540215
 31
0.0
  0
LINE
  5
1146
330
2
100
AcDbEntity
  8
0
100
AcDbLine
 10
569.3641360349602
 20
684.2608955540215
 30
0.0
 11
621.2094354965784
 21
684.2608955540215
 31
0.0
  0
LINE
  5
1147
330
2
100
AcDbEntity
  8
0
100
AcDbLine
 10
621.7867857657702
 20
683.2608955540197
 30
0.0
 11
621.7867857657702
 21
681.9608955540186
 31
0.0
  0
LINE
  5
1148
330
2
100
AcDbEntity
  8
0
100
AcDbLine
 10
621.5867857657695
 20
679.7608955540197
 30
0.0
 11
621.7867857657702
 21
679.5608955540189
 31
0.0
  0
LINE
  5
1149
330
2
100
AcDbEntity
  8
0
100
AcDbLine
 10
621.5867857657695
 20
679.7608955540197
 30
0.0
 11
568.9867857658109
 21
679.7608955540579
 31
0.0
  0
LINE
  5
114A
330
2
100
AcDbEntity
  8
0
100
AcDbLine
 10
621.0867857657695
 20
681.560895554019
 30
0.0
 11
621.0867857657695
 21
679.9608955540186
 31
0.0
  0
LINE
  5
114B
330
2
100
AcDbEntity
  8
0
100
AcDbLine
 10
621.7867857657702
 20
683.2608955540197
 30
0.0
 11
621.2094354965802
 21
684.2608955540197
 31
0.0
  0
LINE
  5
114C
330
2
100
AcDbEntity
  8
0
100
AcDbLine
 10
669.2867857657702
 20
662.2608955540215
 30
0.0
 11
669.2038043664352
 21
671.7696220895211
 31
0.0
  0
ARC
  5
114D
330
2
100
AcDbEntity
  8
0
100
AcDbCircle
 10
668.2300230467435
 20
668.7608955540233
 30
0.0
 40
1.0
100
AcDbArc
 50
0.4999999999654926
 51
90.0
  0
ARC
  5
114E
330
2
100
AcDbEntity
  8
0
100
AcDbCircle
 10
668.2038424433713
 20
671.7608955540233
 30
0.0
 40
1.0
100
AcDbArc
 50
0.4999999999654926
 51
90.0
  0
LINE
  5
114F
330
2
100
AcDbEntity
  8
0
100
AcDbLine
 10
669.2867857657692
 20
662.2608955540234
 30
0.0
 11
554.2867857657693
 21
662.2608955540142
 31
0.0
  0
LINE
  5
1150
330
2
100
AcDbEntity
  8
0
100
AcDbLine
 10
669.2867857657692
 20
662.2608955540234
 30
0.0
 11
665.7867857657692
 21
662.2608955540215
 31
0.0
  0
LINE
  5
1151
330
2
100
AcDbEntity
  8
0
100
AcDbLine
 10
554.2867857657693
 20
662.2608955540142
 30
0.0
 11
554.3872209006849
 21
673.7696220895211
 31
0.0
  0
ARC
  5
1152
330
2
100
AcDbEntity
  8
HIDS
100
AcDbCircle
 10
564.7009993281399
 20
674.7608955540215
 30
0.0
 40
1.0
100
AcDbArc
 50
90.0
 51
134.9999999999928
  0
ARC
  5
1153
330
2
100
AcDbEntity
  8
HIDS
100
AcDbCircle
 10
562.8725722033941
 20
675.7608955540215
 30
0.0
 40
1.0
100
AcDbArc
 50
270.0
 51
314.9999999999928
  0
ARC
  5
1154
330
2
100
AcDbEntity
  8
0
100
AcDbCircle
 10
625.8725722033968
 20
674.7608955540234
 30
0.0
 40
1.0
100
AcDbArc
 50
45.00000000000719
 51
90.00000000002605
  0
ARC
  5
1155
330
2
100
AcDbEntity
  8
0
100
AcDbCircle
 10
627.7009993281445
 20
675.7608955540215
 30
0.0
 40
1.0
100
AcDbArc
 50
225.0000000000071
 51
270.0
  0
ARC
  5
1156
330
2
100
AcDbEntity
  8
0
100
AcDbCircle
 10
621.5867857657695
 20
681.9608955540186
 30
0.0
 40
0.2
100
AcDbArc
 50
270.0
 51
0.0
  0
ARC
  5
1157
330
2
100
AcDbEntity
  8
0
100
AcDbCircle
 10
621.2867857657702
 20
681.560895554019
 30
0.0
 40
0.2
100
AcDbArc
 50
90.0
 51
180.0
  0
ARC
  5
1158
330
2
100
AcDbEntity
  8
0
100
AcDbCircle
 10
621.2867857657702
 20
679.9608955540186
 30
0.0
 40
0.2
100
AcDbArc
 50
180.0
 51
270.0
  0
ARC
  5
1159
330
2
100
AcDbEntity
  8
0
100
AcDbCircle
 10
568.9867857657691
 20
681.9608955540168
 30
0.0
 40
0.2
100
AcDbArc
 50
180.0
 51
270.0
  0
ARC
  5
115A
330
2
100
AcDbEntity
  8
0
100
AcDbCircle
 10
569.2867857657684
 20
681.5608955540171
 30
0.0
 40
0.2
100
AcDbArc
 50
0.0
 51
90.0
  0
ARC
  5
115B
330
2
100
AcDbEntity
  8
0
100
AcDbCircle
 10
569.2867857657684
 20
679.9608955540167
 30
0.0
 40
0.2
100
AcDbArc
 50
270.0
 51
0.0
  0
LINE
  5
115C
330
2
100
AcDbEntity
  8
0
100
AcDbLine
 10
568.7867857657684
 20
683.2608955540178
 30
0.0
 11
621.7867857657702
 21
683.2608955540197
 31
0.0
  0
LINE
  5
115D
330
2
100
AcDbEntity
  8
0
100
AcDbLine
 10
621.7867857657702
 20
679.5608955540189
 30
0.0
 11
568.7867857657684
 21
679.5608955540171
 31
0.0
  0
LINE
  5
115E
330
2
100
AcDbEntity
  8
0
100
AcDbLine
 10
559.2867857657702
 20
662.2608955540161
 30
0.0
 11
559.2867857657702
 21
668.7696220895211
 31
0.0
  0
LINE
  5
115F
330
2
100
AcDbEntity
  8
0
100
AcDbLine
 10
562.2867857657702
 20
662.2608955540161
 30
0.0
 11
562.2867857657702
 21
668.7696220895211
 31
0.0
  0
LINE
  5
1160
330
2
100
AcDbEntity
  8
0
100
AcDbLine
 10
576.9947505999016
 20
662.2608955540161
 30
0.0
 11
576.9947505999016
 21
673.7608955540215
 31
0.0
  0
LINE
  5
1161
330
2
100
AcDbEntity
  8
0
100
AcDbLine
 10
636.2867857657692
 20
673.7608955540215
 30
0.0
 11
636.2867857657692
 21
662.2608955540197
 31
0.0
  0
LINE
  5
1162
330
2
100
AcDbEntity
  8
0
100
AcDbLine
 10
655.7867857657702
 20
671.7608955540233
 30
0.0
 11
655.7867857657702
 21
670.2608955540234
 31
0.0
  0
ARC
  5
1163
330
2
100
AcDbEntity
  8
0
100
AcDbCircle
 10
654.7867857657702
 20
671.7608955540233
 30
0.0
 40
1.0
100
AcDbArc
 50
0.0
 51
90.0
  0
ARC
  5
1164
330
2
100
AcDbEntity
  8
0
100
AcDbCircle
 10
656.2867857657701
 20
670.2608955540234
 30
0.0
 40
0.5
100
AcDbArc
 50
180.0
 51
270.000000000026
  0
LINE
  5
1165
330
2
100
AcDbEntity
  8
0
100
AcDbLine
 10
567.8217693922542
 20
673.7696220895211
 30
0.0
 11
567.7911111220046
 21
670.2565322862735
 31
0.0
  0
LINE
  5
1166
330
2
100
AcDbEntity
  8
0
100
AcDbLine
 10
567.2911301604718
 20
669.7608955540233
 30
0.0
 11
555.343548484795
 21
669.7608955540233
 31
0.0
  0
ARC
  5
1167
330
2
100
AcDbEntity
  8
0
100
AcDbCircle
 10
568.8217313153227
 20
673.7608955540233
 30
0.0
 40
1.0
100
AcDbArc
 50
90.0
 51
179.5000000000344
  0
ARC
  5
1168
330
2
100
AcDbEntity
  8
0
100
AcDbCircle
 10
567.2911301604727
 20
670.2608955540234
 30
0.0
 40
0.5
100
AcDbArc
 50
269.9999999999739
 51
359.5000000000345
  0
ARC
  5
1169
330
2
100
AcDbEntity
  8
0
100
AcDbCircle
 10
555.343548484795
 20
668.7608955540233
 30
0.0
 40
1.0
100
AcDbArc
 50
90.0
 51
179.5000000000344
  0
LINE
  5
116A
330
2
100
AcDbEntity
  8
CENTER
  6
CENS
100
AcDbLine
 10
662.7867857657702
 20
659.2608955540178
 30
0.0
 11
662.7867857657702
 21
680.2608955540233
 31
0.0
  0
LINE
  5
116B
330
2
100
AcDbEntity
  8
0
100
AcDbLine
 10
667.7867857657702
 20
676.8608955540237
 30
0.0
 11
667.0939654427429
 21
677.2608955540233
 31
0.0
  0
LINE
  5
116C
330
2
100
AcDbEntity
  8
0
100
AcDbLine
 10
667.7867857657702
 20
671.2608955540233
 30
0.0
 11
657.7867857657702
 21
671.2608955540233
 31
0.0
  0
LINE
  5
116D
330
2
100
AcDbEntity
  8
0
100
AcDbLine
 10
667.7867857657702
 20
676.8608955540237
 30
0.0
 11
657.7867857657702
 21
676.8608955540237
 31
0.0
  0
LINE
  5
116E
330
2
100
AcDbEntity
  8
0
100
AcDbLine
 10
667.7867857657702
 20
669.7608955540233
 30
0.0
 11
667.7867857657702
 21
676.8608955540237
 31
0.0
  0
LINE
  5
116F
330
2
100
AcDbEntity
  8
0
100
AcDbLine
 10
657.7867857657702
 20
669.7608955540233
 30
0.0
 11
657.7867857657702
 21
676.8608955540237
 31
0.0
  0
LINE
  5
1170
330
2
100
AcDbEntity
  8
0
100
AcDbLine
 10
657.7867857657702
 20
676.8608955540237
 30
0.0
 11
658.4796060887974
 21
677.2608955540233
 31
0.0
  0
LINE
  5
1171
330
2
100
AcDbEntity
  8
0
100
AcDbLine
 10
667.0939654427429
 20
677.2608955540233
 30
0.0
 11
658.4796060887974
 21
677.2608955540233
 31
0.0
  0
LINE
  5
1172
330
2
100
AcDbEntity
  8
0
100
AcDbLine
 10
657.7867857657702
 20
669.7608955540233
 30
0.0
 11
667.7867857657702
 21
669.7608955540233
 31
0.0
  0
LINE
  5
1173
330
2
100
AcDbEntity
  8
CENTER
  6
CENS
100
AcDbLine
 10
560.7867857657611
 20
659.2608955540178
 30
0.0
 11
560.7867857657611
 21
680.2608955540233
 31
0.0
  0
LINE
  5
1174
330
2
100
AcDbEntity
  8
0
100
AcDbLine
 10
565.7867857657611
 20
676.8608955540237
 30
0.0
 11
565.0939654427339
 21
677.2608955540233
 31
0.0
  0
LINE
  5
1175
330
2
100
AcDbEntity
  8
0
100
AcDbLine
 10
565.7867857657611
 20
671.2608955540233
 30
0.0
 11
555.7867857657611
 21
671.2608955540233
 31
0.0
  0
LINE
  5
1176
330
2
100
AcDbEntity
  8
0
100
AcDbLine
 10
565.7867857657611
 20
676.8608955540237
 30
0.0
 11
555.7867857657611
 21
676.8608955540237
 31
0.0
  0
LINE
  5
1177
330
2
100
AcDbEntity
  8
0
100
AcDbLine
 10
565.7867857657611
 20
669.7608955540233
 30
0.0
 11
565.7867857657611
 21
676.8608955540237
 31
0.0
  0
LINE
  5
1178
330
2
100
AcDbEntity
  8
0
100
AcDbLine
 10
555.7867857657611
 20
669.7608955540233
 30
0.0
 11
555.7867857657611
 21
676.8608955540237
 31
0.0
  0
LINE
  5
1179
330
2
100
AcDbEntity
  8
0
100
AcDbLine
 10
555.7867857657611
 20
676.8608955540237
 30
0.0
 11
556.4796060887884
 21
677.2608955540233
 31
0.0
  0
LINE
  5
117A
330
2
100
AcDbEntity
  8
0
100
AcDbLine
 10
565.0939654427339
 20
677.2608955540233
 30
0.0
 11
556.4796060887884
 21
677.2608955540233
 31
0.0
  0
LINE
  5
117B
330
2
100
AcDbEntity
  8
0
100
AcDbLine
 10
555.7867857657611
 20
669.7608955540233
 30
0.0
 11
565.7867857657611
 21
669.7608955540233
 31
0.0
  0
LINE
  5
117C
330
2
100
AcDbEntity
  8
HIDS
100
AcDbLine
 10
657.7867857657702
 20
672.7608955540233
 30
0.0
 11
667.7867857657702
 21
672.7608955540233
 31
0.0
  0
LINE
  5
117D
330
2
100
AcDbEntity
  8
CENTER
  6
CENS
100
AcDbLine
 10
335.5917277921534
 20
420.5879655005629
 30
0.0
 11
360.154581468535
 21
420.5879655005629
 31
0.0
  0
LINE
  5
117E
330
2
100
AcDbEntity
  8
CENTER
  6
CENS
100
AcDbLine
 10
335.5917277921534
 20
351.5879655005629
 30
0.0
 11
360.154581468535
 21
351.5879655005629
 31
0.0
  0
LINE
  5
117F
330
2
100
AcDbEntity
  8
CENTER
100
AcDbLine
 10
242.8900987815104
 20
351.5879655005629
 30
0.0
 11
225.3900987815104
 21
351.5879655005629
 31
0.0
  0
LINE
  5
1180
330
2
100
AcDbEntity
  8
CENTER
100
AcDbLine
 10
132.14009878151
 20
420.3379655005647
 30
0.0
 11
132.14009878151
 21
402.8379655005647
 31
0.0
  0
CIRCLE
  5
1181
330
2
100
AcDbEntity
  8
HOJO
100
AcDbCircle
 10
234.6400987815099
 20
409.0879655005629
 30
0.0
 40
2.0
  0
LINE
  5
1182
330
2
100
AcDbEntity
  8
CENTER
100
AcDbLine
 10
138.4668937007536
 20
413.5879655005647
 30
0.0
 11
148.8133038622677
 21
413.5879655005647
 31
0.0
  0
LINE
  5
1183
330
2
100
AcDbEntity
  8
CENTER
100
AcDbLine
 10
123.39009878151
 20
411.5879655005647
 30
0.0
 11
140.8900987815099
 21
411.5879655005647
 31
0.0
  0
LINE
  5
1184
330
2
100
AcDbEntity
  8
CENTER
100
AcDbLine
 10
143.6400987815104
 20
418.7611705813215
 30
0.0
 11
143.6400987815104
 21
408.4147604198078
 31
0.0
  0
CIRCLE
  5
1185
330
2
100
AcDbEntity
  8
HOJO
100
AcDbCircle
 10
143.6400987815104
 20
413.5879655005647
 30
0.0
 40
2.0
  0
CIRCLE
  5
1186
330
2
100
AcDbEntity
  8
HOJO
100
AcDbCircle
 10
234.6400987815099
 20
363.0879655005629
 30
0.0
 40
2.0
  0
CIRCLE
  5
1187
330
2
100
AcDbEntity
  8
HOJO
100
AcDbCircle
 10
143.6400987815104
 20
358.587965500561
 30
0.0
 40
2.0
  0
LINE
  5
1188
330
2
100
AcDbEntity
  8
CENTER
100
AcDbLine
 10
143.6400987815104
 20
352.6198924068795
 30
0.0
 11
143.6400987815104
 21
363.7611705813179
 31
0.0
  0
LINE
  5
1189
330
2
100
AcDbEntity
  8
CENTER
100
AcDbLine
 10
132.14009878151
 20
351.8379655005611
 30
0.0
 11
132.14009878151
 21
369.337965500561
 31
0.0
  0
LINE
  5
118A
330
2
100
AcDbEntity
  8
CENTER
100
AcDbLine
 10
123.39009878151
 20
360.587965500561
 30
0.0
 11
140.8900987815099
 21
360.587965500561
 31
0.0
  0
LINE
  5
118B
330
2
100
AcDbEntity
  8
CENTER
100
AcDbLine
 10
138.4668937007536
 20
358.587965500561
 30
0.0
 11
148.8133038622677
 21
358.587965500561
 31
0.0
  0
ARC
  5
118C
330
2
100
AcDbEntity
  8
0
100
AcDbCircle
 10
237.5214027899419
 20
360.5879655005629
 30
0.0
 40
2.0
100
AcDbArc
 50
270.0
 51
3.96469786020805
  0
ARC
  5
118D
330
2
100
AcDbEntity
  8
0
100
AcDbCircle
 10
237.5214027899419
 20
411.5879655005628
 30
0.0
 40
2.0
100
AcDbArc
 50
356.0353021397919
 51
90.0
  0
ARC
  5
118E
330
2
100
AcDbEntity
  8
0
100
AcDbCircle
 10
279.4208900934727
 20
408.6840089407524
 30
0.0
 40
40.0
100
AcDbArc
 50
166.63232579737
 51
186.1769964048908
  0
ARC
  5
118F
330
2
100
AcDbEntity
  8
0
100
AcDbCircle
 10
279.4208900934723
 20
363.4919220603733
 30
0.0
 40
40.0
100
AcDbArc
 50
173.823003595109
 51
193.3676742026299
  0
ARC
  5
1190
330
2
100
AcDbEntity
  8
0
100
AcDbCircle
 10
235.6400987815104
 20
350.0879655005629
 30
0.0
 40
5.0
100
AcDbArc
 50
270.0
 51
0.0
  0
ARC
  5
1191
330
2
100
AcDbEntity
  8
0
100
AcDbCircle
 10
235.6400987815104
 20
422.0879655005629
 30
0.0
 40
5.0
100
AcDbArc
 50
0.0
 51
90.0
  0
ARC
  5
1192
330
2
100
AcDbEntity
  8
0
100
AcDbCircle
 10
235.6400987815104
 20
419.0879655005629
 30
0.0
 40
5.0
100
AcDbArc
 50
346.63232579737
 51
0.0
  0
LINE
  5
1193
330
2
100
AcDbEntity
  8
0
100
AcDbLine
 10
240.6400987815109
 20
419.0879655005629
 30
0.0
 11
240.6400987815109
 21
422.0879655005629
 31
0.0
  0
ARC
  5
1194
330
2
100
AcDbEntity
  8
0
100
AcDbCircle
 10
70.64009878151046
 20
386.0879655005629
 30
0.0
 40
170.0
100
AcDbArc
 50
353.8230035951091
 51
6.176996404890894
  0
ARC
  5
1195
330
2
100
AcDbEntity
  8
0
100
AcDbCircle
 10
235.6400987815104
 20
353.0879655005629
 30
0.0
 40
5.0
100
AcDbArc
 50
0.0
 51
13.36767420262995
  0
LINE
  5
1196
330
2
100
AcDbEntity
  8
0
100
AcDbLine
 10
240.6400987815109
 20
350.0879655005629
 30
0.0
 11
240.6400987815109
 21
353.0879655005629
 31
0.0
  0
ARC
  5
1197
330
2
100
AcDbEntity
  8
0
100
AcDbCircle
 10
180.6400987815109
 20
405.0879655005592
 30
0.0
 40
12.0
100
AcDbArc
 50
90.0
 51
180.0
  0
ARC
  5
1198
330
2
100
AcDbEntity
  8
0
100
AcDbCircle
 10
218.6400987815068
 20
405.0879655005629
 30
0.0
 40
12.0
100
AcDbArc
 50
0.0
 51
90.0
  0
ARC
  5
1199
330
2
100
AcDbEntity
  8
0
100
AcDbCircle
 10
180.6400987815109
 20
405.0879655005592
 30
0.0
 40
13.0
100
AcDbArc
 50
90.0
 51
180.0
  0
ARC
  5
119A
330
2
100
AcDbEntity
  8
0
100
AcDbCircle
 10
218.6400987815068
 20
405.0879655005629
 30
0.0
 40
13.0
100
AcDbArc
 50
0.0
 51
90.0
  0
CIRCLE
  5
119B
330
2
100
AcDbEntity
  8
0
100
AcDbCircle
 10
199.6400987815109
 20
386.0879655005629
 30
0.0
 40
28.99999999999986
  0
CIRCLE
  5
119C
330
2
100
AcDbEntity
  8
0
100
AcDbCircle
 10
199.6400987815109
 20
386.0879655005629
 30
0.0
 40
28.49999999999985
  0
CIRCLE
  5
119D
330
2
100
AcDbEntity
  8
0
100
AcDbCircle
 10
199.6400987815109
 20
386.0879655005629
 30
0.0
 40
25.92259999999985
  0
CIRCLE
  5
119E
330
2
100
AcDbEntity
  8
0
100
AcDbCircle
 10
199.6400987815109
 20
386.0879655005629
 30
0.0
 40
23.5774
  0
CIRCLE
  5
119F
330
2
100
AcDbEntity
  8
0
100
AcDbCircle
 10
199.6400987815109
 20
386.0879655005629
 30
0.0
 40
26.49999999999986
  0
ARC
  5
11A0
330
2
100
AcDbEntity
  8
0
100
AcDbCircle
 10
132.14009878151
 20
411.5879655005647
 30
0.0
 40
7.0
100
AcDbArc
 50
270.0
 51
0.0
  0
CIRCLE
  5
11A1
330
2
100
AcDbEntity
  8
0
100
AcDbCircle
 10
199.6400987815109
 20
386.0879655005629
 30
0.0
 40
23.0
  0
LINE
  5
11A2
330
2
100
AcDbEntity
  8
0
100
AcDbLine
 10
158.6400987815109
 20
350.0879655005574
 30
0.0
 11
158.6400987815109
 21
422.0879655005629
 31
0.0
  0
LINE
  5
11A3
330
2
100
AcDbEntity
  8
0
100
AcDbLine
 10
125.6400987815109
 20
412.0879655005647
 30
0.0
 11
125.6400987815109
 21
360.0879655005592
 31
0.0
  0
ARC
  5
11A4
330
2
100
AcDbEntity
  8
0
100
AcDbCircle
 10
177.0440553413213
 20
465.8687568125243
 30
0.0
 40
40.0
100
AcDbArc
 50
256.6323257973708
 51
276.1769964048646
  0
LINE
  5
11A5
330
2
100
AcDbEntity
  8
0
100
AcDbLine
 10
218.6400987815118
 20
417.0879655005593
 30
0.0
 11
180.6400987815118
 21
417.0879655005629
 31
0.0
  0
LINE
  5
11A6
330
2
100
AcDbEntity
  8
0
100
AcDbLine
 10
218.6400987815118
 20
418.0879655005592
 30
0.0
 11
180.6400987815118
 21
418.0879655005629
 31
0.0
  0
ARC
  5
11A7
330
2
100
AcDbEntity
  8
0
100
AcDbCircle
 10
199.6400987815109
 20
257.0879655005629
 30
0.0
 40
170.0
100
AcDbArc
 50
83.82300359513532
 51
96.17699640486467
  0
ARC
  5
11A8
330
2
100
AcDbEntity
  8
0
100
AcDbCircle
 10
222.2361422217004
 20
465.8687568125243
 30
0.0
 40
40.0
100
AcDbArc
 50
263.8230035951353
 51
283.3676742026291
  0
ARC
  5
11A9
330
2
100
AcDbEntity
  8
0
100
AcDbCircle
 10
234.1400987815104
 20
420.5879655005629
 30
0.0
 40
7.0
100
AcDbArc
 50
180.0
 51
270.0
  0
ARC
  5
11AA
330
2
100
AcDbEntity
  8
0
100
AcDbCircle
 10
232.6400987815104
 20
422.0879655005629
 30
0.0
 40
5.0
100
AcDbArc
 50
90.0
 51
103.367674202629
  0
LINE
  5
11AB
330
2
100
AcDbEntity
  8
0
100
AcDbLine
 10
235.6400987815104
 20
427.0879655005629
 30
0.0
 11
232.6400987815104
 21
427.0879655005629
 31
0.0
  0
ARC
  5
11AC
330
2
100
AcDbEntity
  8
0
100
AcDbCircle
 10
225.1400987815104
 20
423.9692695089943
 30
0.0
 40
2.0
100
AcDbArc
 50
0.0
 51
93.96469786020883
  0
LINE
  5
11AD
330
2
100
AcDbEntity
  8
0
100
AcDbLine
 10
227.1400987815104
 20
420.5879655005629
 30
0.0
 11
227.1400987815104
 21
423.9692695089943
 31
0.0
  0
CIRCLE
  5
11AE
330
2
100
AcDbEntity
  8
0
100
AcDbCircle
 10
234.6400987815099
 20
409.0879655005629
 30
0.0
 40
1.6
  0
CIRCLE
  5
11AF
330
2
100
AcDbEntity
  8
0
100
AcDbCircle
 10
234.6400987815099
 20
409.0879655005629
 30
0.0
 40
2.5
  0
CIRCLE
  5
11B0
330
2
100
AcDbEntity
  8
0
100
AcDbCircle
 10
234.6400987815099
 20
409.0879655005629
 30
0.0
 40
3.0
  0
LINE
  5
11B1
330
2
100
AcDbEntity
  8
0
100
AcDbLine
 10
234.1400987815104
 20
413.5879655005629
 30
0.0
 11
237.5214027899419
 21
413.5879655005629
 31
0.0
  0
LINE
  5
11B2
330
2
100
AcDbEntity
  8
0
100
AcDbLine
 10
131.64009878151
 20
418.0879655005647
 30
0.0
 11
154.6400987815109
 21
418.0879655005683
 31
0.0
  0
CIRCLE
  5
11B3
330
2
100
AcDbEntity
  8
0
100
AcDbCircle
 10
143.6400987815104
 20
413.5879655005647
 30
0.0
 40
3.0
  0
LINE
  5
11B4
330
2
100
AcDbEntity
  8
0
100
AcDbLine
 10
166.6400987815109
 20
427.0879655005629
 30
0.0
 11
163.6400987815109
 21
427.0879655005629
 31
0.0
  0
ARC
  5
11B5
330
2
100
AcDbEntity
  8
0
100
AcDbCircle
 10
166.6400987815109
 20
422.0879655005629
 30
0.0
 40
5.0
100
AcDbArc
 50
76.63232579737094
 51
90.0
  0
ARC
  5
11B6
330
2
100
AcDbEntity
  8
0
100
AcDbCircle
 10
163.6400987815109
 20
422.0879655005629
 30
0.0
 40
5.0
100
AcDbArc
 50
90.0
 51
180.0
  0
CIRCLE
  5
11B7
330
2
100
AcDbEntity
  8
0
100
AcDbCircle
 10
143.6400987815104
 20
413.5879655005647
 30
0.0
 40
1.6
  0
CIRCLE
  5
11B8
330
2
100
AcDbEntity
  8
0
100
AcDbCircle
 10
143.6400987815104
 20
413.5879655005647
 30
0.0
 40
2.5
  0
ARC
  5
11B9
330
2
100
AcDbEntity
  8
0
100
AcDbCircle
 10
131.6400987815109
 20
412.0879655005647
 30
0.0
 40
6.0
100
AcDbArc
 50
90.0
 51
180.0
  0
LINE
  5
11BA
330
2
100
AcDbEntity
  8
0
100
AcDbLine
 10
139.14009878151
 20
411.5879655005647
 30
0.0
 11
139.14009878151
 21
416.0879655005665
 31
0.0
  0
ARC
  5
11BB
330
2
100
AcDbEntity
  8
0
100
AcDbCircle
 10
180.6400987815145
 20
367.0879655005629
 30
0.0
 40
12.0
100
AcDbArc
 50
180.0
 51
270.0
  0
ARC
  5
11BC
330
2
100
AcDbEntity
  8
0
100
AcDbCircle
 10
180.6400987815145
 20
367.0879655005629
 30
0.0
 40
13.0
100
AcDbArc
 50
180.0
 51
270.0
  0
ARC
  5
11BD
330
2
100
AcDbEntity
  8
0
100
AcDbCircle
 10
177.387568056356
 20
306.2702821585481
 30
0.0
 40
40.0
100
AcDbArc
 50
83.91726555027865
 51
103.1629662673778
  0
ARC
  5
11BE
330
2
100
AcDbEntity
  8
0
100
AcDbCircle
 10
218.6400987815109
 20
367.0879655005665
 30
0.0
 40
12.0
100
AcDbArc
 50
270.0
 51
0.0
  0
ARC
  5
11BF
330
2
100
AcDbEntity
  8
0
100
AcDbCircle
 10
218.6400987815109
 20
367.0879655005665
 30
0.0
 40
13.0
100
AcDbArc
 50
270.0
 51
0.0
  0
ARC
  5
11C0
330
2
100
AcDbEntity
  8
0
100
AcDbCircle
 10
234.1400987815104
 20
351.5879655005629
 30
0.0
 40
7.0
100
AcDbArc
 50
90.0
 51
180.0
  0
LINE
  5
11C1
330
2
100
AcDbEntity
  8
0
100
AcDbLine
 10
230.6400987815109
 20
367.0879655005665
 30
0.0
 11
230.6400987815109
 21
405.0879655005629
 31
0.0
  0
LINE
  5
11C2
330
2
100
AcDbEntity
  8
0
100
AcDbLine
 10
231.6400987815109
 20
367.0879655005665
 30
0.0
 11
231.6400987815109
 21
405.0879655005629
 31
0.0
  0
CIRCLE
  5
11C3
330
2
100
AcDbEntity
  8
0
100
AcDbCircle
 10
234.6400987815099
 20
363.0879655005629
 30
0.0
 40
3.0
  0
CIRCLE
  5
11C4
330
2
100
AcDbEntity
  8
0
100
AcDbCircle
 10
234.6400987815099
 20
363.0879655005629
 30
0.0
 40
1.6
  0
CIRCLE
  5
11C5
330
2
100
AcDbEntity
  8
0
100
AcDbCircle
 10
234.6400987815099
 20
363.0879655005629
 30
0.0
 40
2.5
  0
LINE
  5
11C6
330
2
100
AcDbEntity
  8
0
100
AcDbLine
 10
218.6400987815118
 20
355.0879655005665
 30
0.0
 11
180.6400987815159
 21
355.0879655005629
 31
0.0
  0
LINE
  5
11C7
330
2
100
AcDbEntity
  8
0
100
AcDbLine
 10
218.6400987815118
 20
354.0879655005665
 30
0.0
 11
180.6400987815159
 21
354.0879655005629
 31
0.0
  0
ARC
  5
11C8
330
2
100
AcDbEntity
  8
0
100
AcDbCircle
 10
199.6400987815109
 20
515.0879655005629
 30
0.0
 40
170.0
100
AcDbArc
 50
263.9172655502786
 51
276.1769964048646
  0
ARC
  5
11C9
330
2
100
AcDbEntity
  8
0
100
AcDbCircle
 10
222.2361422216999
 20
306.3071741885997
 30
0.0
 40
40.0
100
AcDbArc
 50
76.63232579737094
 51
96.17699640486467
  0
ARC
  5
11CA
330
2
100
AcDbEntity
  8
0
100
AcDbCircle
 10
225.1400987815104
 20
348.2066614921314
 30
0.0
 40
2.0
100
AcDbArc
 50
266.0353021397911
 51
0.0
  0
LINE
  5
11CB
330
2
100
AcDbEntity
  8
0
100
AcDbLine
 10
234.1400987815104
 20
358.5879655005629
 30
0.0
 11
237.5214027899419
 21
358.5879655005629
 31
0.0
  0
LINE
  5
11CC
330
2
100
AcDbEntity
  8
0
100
AcDbLine
 10
227.1400987815104
 20
351.5879655005629
 30
0.0
 11
227.1400987815104
 21
348.2066614921314
 31
0.0
  0
ARC
  5
11CD
330
2
100
AcDbEntity
  8
0
100
AcDbCircle
 10
232.6400987815104
 20
350.0879655005629
 30
0.0
 40
5.0
100
AcDbArc
 50
256.6323257973708
 51
270.0
  0
LINE
  5
11CE
330
2
100
AcDbEntity
  8
0
100
AcDbLine
 10
235.6400987815104
 20
345.0879655005629
 30
0.0
 11
232.6400987815104
 21
345.0879655005629
 31
0.0
  0
CIRCLE
  5
11CF
330
2
100
AcDbEntity
  8
0
100
AcDbCircle
 10
143.6400987815104
 20
358.587965500561
 30
0.0
 40
2.5
  0
CIRCLE
  5
11D0
330
2
100
AcDbEntity
  8
0
100
AcDbCircle
 10
143.6400987815104
 20
358.587965500561
 30
0.0
 40
1.6
  0
CIRCLE
  5
11D1
330
2
100
AcDbEntity
  8
0
100
AcDbCircle
 10
143.6400987815104
 20
358.587965500561
 30
0.0
 40
3.0
  0
LINE
  5
11D2
330
2
100
AcDbEntity
  8
0
100
AcDbLine
 10
139.14009878151
 20
360.587965500561
 30
0.0
 11
139.14009878151
 21
356.0879655005592
 31
0.0
  0
ARC
  5
11D3
330
2
100
AcDbEntity
  8
0
100
AcDbCircle
 10
131.6400987815109
 20
360.0879655005592
 30
0.0
 40
6.0
100
AcDbArc
 50
180.0
 51
270.0
  0
LINE
  5
11D4
330
2
100
AcDbEntity
  8
0
100
AcDbLine
 10
168.6400987815109
 20
367.0879655005665
 30
0.0
 11
168.6400987815109
 21
405.0879655005592
 31
0.0
  0
LINE
  5
11D5
330
2
100
AcDbEntity
  8
0
100
AcDbLine
 10
167.6400987815109
 20
367.0879655005665
 30
0.0
 11
167.6400987815109
 21
405.0879655005592
 31
0.0
  0
LINE
  5
11D6
330
2
100
AcDbEntity
  8
0
100
AcDbLine
 10
132.14009878151
 20
404.5879655005647
 30
0.0
 11
127.6400987815109
 21
404.5879655005647
 31
0.0
  0
ARC
  5
11D7
330
2
100
AcDbEntity
  8
0
100
AcDbCircle
 10
132.14009878151
 20
360.587965500561
 30
0.0
 40
7.0
100
AcDbArc
 50
0.0
 51
90.0
  0
LINE
  5
11D8
330
2
100
AcDbEntity
  8
0
100
AcDbLine
 10
132.14009878151
 20
367.5879655005611
 30
0.0
 11
127.6400987815109
 21
367.5879655005611
 31
0.0
  0
LINE
  5
11D9
330
2
100
AcDbEntity
  8
0
100
AcDbLine
 10
131.64009878151
 20
354.0879655005592
 30
0.0
 11
154.6400987815109
 21
354.0879655005574
 31
0.0
  0
ARC
  5
11DA
330
2
100
AcDbEntity
  8
0
100
AcDbCircle
 10
163.6400987815109
 20
350.0879655005629
 30
0.0
 40
5.0
100
AcDbArc
 50
180.0
 51
270.0
  0
LINE
  5
11DB
330
2
100
AcDbEntity
  8
0
100
AcDbLine
 10
167.1400987815109
 20
345.0879655005629
 30
0.0
 11
163.6400987815109
 21
345.0879655005629
 31
0.0
  0
ARC
  5
11DC
330
2
100
AcDbEntity
  8
0
100
AcDbCircle
 10
167.1400987815109
 20
350.0879655005629
 30
0.0
 40
5.0
100
AcDbArc
 50
270.0
 51
283.1629662673778
  0
ARC
  5
11DD
330
2
100
AcDbEntity
  8
0
100
AcDbCircle
 10
154.6400987815109
 20
422.0879655005683
 30
0.0
 40
4.0
100
AcDbArc
 50
270.0
 51
0.0
  0
ARC
  5
11DE
330
2
100
AcDbEntity
  8
0
100
AcDbCircle
 10
154.6400987815109
 20
350.0879655005574
 30
0.0
 40
4.0
100
AcDbArc
 50
0.0
 51
90.0
  0
LINE
  5
11DF
330
2
100
AcDbEntity
  8
0
100
AcDbLine
 10
227.8324869369312
 20
414.2803536559878
 30
0.0
 11
227.1253801557449
 21
413.5732468748011
 31
0.0
  0
LINE
  5
11E0
330
2
100
AcDbEntity
  8
0
100
AcDbLine
 10
227.8324869369366
 20
357.8955773451417
 30
0.0
 11
227.12538015575
 21
358.6026841263283
 31
0.0
  0
LINE
  5
11E1
330
2
100
AcDbEntity
  8
0
100
AcDbLine
 10
172.1548174072763
 20
358.6026841263229
 30
0.0
 11
171.4477106260901
 21
357.8955773451362
 31
0.0
  0
LINE
  5
11E2
330
2
100
AcDbEntity
  8
0
100
AcDbLine
 10
172.1548174072718
 20
413.5732468747974
 30
0.0
 11
171.4477106260851
 21
414.2803536559841
 31
0.0
  0
LINE
  5
11E3
330
2
100
AcDbEntity
  8
CENTER
100
AcDbLine
 10
234.1400987815186
 20
342.8379655005683
 30
0.0
 11
234.1400987815154
 21
360.3379655005683
 31
0.0
  0
ARC
  5
11E4
330
2
100
AcDbEntity
  8
0
100
AcDbCircle
 10
141.14009878151
 20
416.0879655005665
 30
0.0
 40
2.0
100
AcDbArc
 50
90.0
 51
180.0
  0
ARC
  5
11E5
330
2
100
AcDbEntity
  8
0
100
AcDbCircle
 10
127.6400987815109
 20
402.5879655005647
 30
0.0
 40
2.0
100
AcDbArc
 50
90.0
 51
180.0
  0
ARC
  5
11E6
330
2
100
AcDbEntity
  8
0
100
AcDbCircle
 10
127.6400987815109
 20
369.5879655005611
 30
0.0
 40
2.0
100
AcDbArc
 50
180.0
 51
270.0
  0
ARC
  5
11E7
330
2
100
AcDbEntity
  8
0
100
AcDbCircle
 10
141.14009878151
 20
356.0879655005592
 30
0.0
 40
2.0
100
AcDbArc
 50
180.0
 51
270.0
  0
LINE
  5
11E8
330
2
100
AcDbEntity
  8
CENTER
100
AcDbLine
 10
242.8900987815104
 20
420.5879655005629
 30
0.0
 11
225.3900987815104
 21
420.5879655005629
 31
0.0
  0
LINE
  5
11E9
330
2
100
AcDbEntity
  8
CENTER
100
AcDbLine
 10
234.1400987815186
 20
429.3379655005556
 30
0.0
 11
234.1400987815154
 21
411.8379655005556
 31
0.0
  0
CIRCLE
  5
11EA
330
2
100
AcDbEntity
  8
0
100
AcDbCircle
 10
132.14009878151
 20
411.5879655005647
 30
0.0
 40
5.000000000000113
  0
CIRCLE
  5
11EB
330
2
100
AcDbEntity
  8
0
100
AcDbCircle
 10
132.14009878151
 20
411.5879655005647
 30
0.0
 40
4.307179676972509
  0
LINE
  5
11EC
330
2
100
AcDbEntity
  8
0
100
AcDbLine
 10
134.6400987815099
 20
413.0313411735388
 30
0.0
 11
134.6400987815099
 21
410.1445898275906
 31
0.0
  0
LINE
  5
11ED
330
2
100
AcDbEntity
  8
0
100
AcDbLine
 10
132.14009878151
 20
408.7012141546166
 30
0.0
 11
134.6400987815099
 21
410.1445898275906
 31
0.0
  0
LINE
  5
11EE
330
2
100
AcDbEntity
  8
0
100
AcDbLine
 10
134.6400987815099
 20
413.0313411735388
 30
0.0
 11
132.14009878151
 21
414.4747168465128
 31
0.0
  0
LINE
  5
11EF
330
2
100
AcDbEntity
  8
0
100
AcDbLine
 10
129.64009878151
 20
413.0313411735388
 30
0.0
 11
129.64009878151
 21
410.1445898275906
 31
0.0
  0
LINE
  5
11F0
330
2
100
AcDbEntity
  8
0
100
AcDbLine
 10
132.14009878151
 20
408.7012141546166
 30
0.0
 11
129.64009878151
 21
410.1445898275906
 31
0.0
  0
LINE
  5
11F1
330
2
100
AcDbEntity
  8
0
100
AcDbLine
 10
129.64009878151
 20
413.0313411735388
 30
0.0
 11
132.14009878151
 21
414.4747168465128
 31
0.0
  0
CIRCLE
  5
11F2
330
2
100
AcDbEntity
  8
0
100
AcDbCircle
 10
132.14009878151
 20
360.587965500561
 30
0.0
 40
5.000000000000113
  0
CIRCLE
  5
11F3
330
2
100
AcDbEntity
  8
0
100
AcDbCircle
 10
132.14009878151
 20
360.587965500561
 30
0.0
 40
4.307179676972509
  0
LINE
  5
11F4
330
2
100
AcDbEntity
  8
0
100
AcDbLine
 10
134.6400987815099
 20
362.0313411735351
 30
0.0
 11
134.6400987815099
 21
359.144589827587
 31
0.0
  0
LINE
  5
11F5
330
2
100
AcDbEntity
  8
0
100
AcDbLine
 10
132.14009878151
 20
357.7012141546129
 30
0.0
 11
134.6400987815099
 21
359.144589827587
 31
0.0
  0
LINE
  5
11F6
330
2
100
AcDbEntity
  8
0
100
AcDbLine
 10
134.6400987815099
 20
362.0313411735333
 30
0.0
 11
132.14009878151
 21
363.4747168465092
 31
0.0
  0
LINE
  5
11F7
330
2
100
AcDbEntity
  8
0
100
AcDbLine
 10
129.64009878151
 20
362.0313411735333
 30
0.0
 11
129.64009878151
 21
359.144589827587
 31
0.0
  0
LINE
  5
11F8
330
2
100
AcDbEntity
  8
0
100
AcDbLine
 10
132.14009878151
 20
357.7012141546129
 30
0.0
 11
129.64009878151
 21
359.144589827587
 31
0.0
  0
LINE
  5
11F9
330
2
100
AcDbEntity
  8
0
100
AcDbLine
 10
129.64009878151
 20
362.0313411735333
 30
0.0
 11
132.14009878151
 21
363.4747168465074
 31
0.0
  0
CIRCLE
  5
11FA
330
2
100
AcDbEntity
  8
0
100
AcDbCircle
 10
234.1400987815172
 20
420.5879655005629
 30
0.0
 40
5.000000000000113
  0
CIRCLE
  5
11FB
330
2
100
AcDbEntity
  8
0
100
AcDbCircle
 10
234.1400987815172
 20
420.5879655005629
 30
0.0
 40
4.307179676972509
  0
LINE
  5
11FC
330
2
100
AcDbEntity
  8
0
100
AcDbLine
 10
236.6400987815172
 20
422.031341173537
 30
0.0
 11
236.6400987815172
 21
419.1445898275888
 31
0.0
  0
LINE
  5
11FD
330
2
100
AcDbEntity
  8
0
100
AcDbLine
 10
234.1400987815168
 20
417.7012141546147
 30
0.0
 11
236.6400987815172
 21
419.1445898275888
 31
0.0
  0
LINE
  5
11FE
330
2
100
AcDbEntity
  8
0
100
AcDbLine
 10
236.6400987815172
 20
422.031341173537
 30
0.0
 11
234.1400987815172
 21
423.474716846511
 31
0.0
  0
LINE
  5
11FF
330
2
100
AcDbEntity
  8
0
100
AcDbLine
 10
231.6400987815173
 20
422.031341173537
 30
0.0
 11
231.6400987815173
 21
419.1445898275888
 31
0.0
  0
LINE
  5
1200
330
2
100
AcDbEntity
  8
0
100
AcDbLine
 10
234.1400987815168
 20
417.7012141546147
 30
0.0
 11
231.6400987815173
 21
419.1445898275888
 31
0.0
  0
LINE
  5
1201
330
2
100
AcDbEntity
  8
0
100
AcDbLine
 10
231.6400987815173
 20
422.031341173537
 30
0.0
 11
234.1400987815172
 21
423.474716846511
 31
0.0
  0
CIRCLE
  5
1202
330
2
100
AcDbEntity
  8
0
100
AcDbCircle
 10
234.1400987815172
 20
351.5879655005629
 30
0.0
 40
5.000000000000113
  0
CIRCLE
  5
1203
330
2
100
AcDbEntity
  8
0
100
AcDbCircle
 10
234.1400987815172
 20
351.5879655005629
 30
0.0
 40
4.307179676972509
  0
LINE
  5
1204
330
2
100
AcDbEntity
  8
0
100
AcDbLine
 10
236.6400987815172
 20
353.0313411735369
 30
0.0
 11
236.6400987815172
 21
350.1445898275888
 31
0.0
  0
LINE
  5
1205
330
2
100
AcDbEntity
  8
0
100
AcDbLine
 10
234.1400987815168
 20
348.7012141546147
 30
0.0
 11
236.6400987815172
 21
350.1445898275888
 31
0.0
  0
LINE
  5
1206
330
2
100
AcDbEntity
  8
0
100
AcDbLine
 10
236.6400987815172
 20
353.0313411735369
 30
0.0
 11
234.1400987815172
 21
354.474716846511
 31
0.0
  0
LINE
  5
1207
330
2
100
AcDbEntity
  8
0
100
AcDbLine
 10
231.6400987815173
 20
353.0313411735369
 30
0.0
 11
231.6400987815173
 21
350.1445898275888
 31
0.0
  0
LINE
  5
1208
330
2
100
AcDbEntity
  8
0
100
AcDbLine
 10
234.1400987815168
 20
348.7012141546147
 30
0.0
 11
231.6400987815173
 21
350.1445898275888
 31
0.0
  0
LINE
  5
1209
330
2
100
AcDbEntity
  8
0
100
AcDbLine
 10
231.6400987815173
 20
353.0313411735369
 30
0.0
 11
234.1400987815172
 21
354.474716846511
 31
0.0
  0
LINE
  5
120A
330
2
100
AcDbEntity
  8
CENTER
100
AcDbLine
 10
423.1606062332766
 20
101.138179390975
 30
0.0
 11
423.1606062332766
 21
202.7047448916883
 31
0.0
  0
LINE
  5
120B
330
2
100
AcDbEntity
  8
0
100
AcDbLine
 10
461.1606062332766
 20
116.920007696207
 30
0.0
 11
461.1606062332766
 21
139.1114666375024
 31
0.0
  0
LINE
  5
120C
330
2
100
AcDbEntity
  8
0
100
AcDbLine
 10
461.1606062332766
 20
164.7285487549098
 30
0.0
 11
461.1606062332766
 21
186.920007696207
 31
0.0
  0
LINE
  5
120D
330
2
100
AcDbEntity
  8
0
100
AcDbLine
 10
456.1606062332766
 20
111.4261660280708
 30
0.0
 11
456.1606062332766
 21
138.8177932228218
 31
0.0
  0
LINE
  5
120E
330
2
100
AcDbEntity
  8
0
100
AcDbLine
 10
456.1606062332766
 20
165.0222221695904
 30
0.0
 11
456.1606062332766
 21
192.4167582545933
 31
0.0
  0
LINE
  5
120F
330
2
100
AcDbEntity
  8
0
100
AcDbLine
 10
456.1606062332766
 20
186.920007696207
 30
0.0
 11
461.1606062332766
 21
186.920007696207
 31
0.0
  0
LINE
  5
1210
330
2
100
AcDbEntity
  8
CENTER
100
AcDbLine
 10
364.1606062332766
 20
151.920007696207
 30
0.0
 11
497.1606062332766
 21
151.9200076962052
 31
0.0
  0
LINE
  5
1211
330
2
100
AcDbEntity
  8
0
100
AcDbLine
 10
456.1606062332766
 20
116.920007696207
 30
0.0
 11
461.1606062332766
 21
116.920007696207
 31
0.0
  0
LINE
  5
1212
330
2
100
AcDbEntity
  8
0
100
AcDbLine
 10
398.1606062332766
 20
110.9200076962052
 30
0.0
 11
456.1606062332766
 21
111.4261660280708
 31
0.0
  0
LINE
  5
1213
330
2
100
AcDbEntity
  8
0
100
AcDbLine
 10
398.1606062332766
 20
192.9229165864572
 30
0.0
 11
456.1606062332766
 21
192.4167582545933
 31
0.0
  0
LINE
  5
1214
330
2
100
AcDbEntity
  8
0
100
AcDbLine
 10
398.1606062332766
 20
183.0167818897544
 30
0.0
 11
398.1606062332766
 21
192.9229165864572
 31
0.0
  0
ARC
  5
1215
330
2
100
AcDbEntity
  8
0
100
AcDbCircle
 10
463.1606062332767
 20
182.3053552492138
 30
0.0
 40
2.0
100
AcDbArc
 50
180.0
 51
267.9999999999963
  0
ARC
  5
1216
330
2
100
AcDbEntity
  8
0
100
AcDbCircle
 10
472.1606062332766
 20
177.9886301465913
 30
0.0
 40
2.0
100
AcDbArc
 50
0.0
 51
87.99999999999636
  0
ARC
  5
1217
330
2
100
AcDbEntity
  8
0
100
AcDbCircle
 10
463.1606062332767
 20
121.5346601432002
 30
0.0
 40
2.0
100
AcDbArc
 50
92.00000000000365
 51
180.0
  0
ARC
  5
1218
330
2
100
AcDbEntity
  8
0
100
AcDbCircle
 10
472.1606062332766
 20
125.8513852458227
 30
0.0
 40
2.0
100
AcDbArc
 50
272.0000000000036
 51
0.0
  0
LINE
  5
1219
330
2
100
AcDbEntity
  8
0
100
AcDbLine
 10
472.2304052266817
 20
179.987411800631
 30
0.0
 11
463.0908072398715
 21
180.3065735951759
 31
0.0
  0
LINE
  5
121A
330
2
100
AcDbEntity
  8
0
100
AcDbLine
 10
472.2304052266817
 20
123.8526035917848
 30
0.0
 11
463.0908072398715
 21
123.5334417972381
 31
0.0
  0
LINE
  5
121B
330
2
100
AcDbEntity
  8
0
100
AcDbLine
 10
474.1606062332785
 20
125.8513852458227
 30
0.0
 11
474.1606062332766
 21
137.419961696206
 31
0.0
  0
LINE
  5
121C
330
2
100
AcDbEntity
  8
0
100
AcDbLine
 10
474.1606062332766
 20
166.419961696206
 30
0.0
 11
474.1606062332766
 21
177.9886301465913
 31
0.0
  0
LINE
  5
121D
330
2
100
AcDbEntity
  8
0
100
AcDbLine
 10
398.1606062332766
 20
115.9200076962052
 30
0.0
 11
455.1606062332766
 21
115.9200076962052
 31
0.0
  0
LINE
  5
121E
330
2
100
AcDbEntity
  8
0
100
AcDbLine
 10
398.1606062332766
 20
118.9200076962052
 30
0.0
 11
455.1606062332766
 21
118.9200076962052
 31
0.0
  0
LINE
  5
121F
330
2
100
AcDbEntity
  8
0
100
AcDbLine
 10
398.1606062332766
 20
133.6279725303366
 30
0.0
 11
455.1606062332766
 21
133.6279725303366
 31
0.0
  0
LINE
  5
1220
330
2
100
AcDbEntity
  8
0
100
AcDbLine
 10
398.1606062332766
 20
187.920007696207
 30
0.0
 11
455.1606062332766
 21
187.920007696207
 31
0.0
  0
LINE
  5
1221
330
2
100
AcDbEntity
  8
0
100
AcDbLine
 10
398.1606062332766
 20
184.920007696207
 30
0.0
 11
455.1606062332766
 21
184.920007696207
 31
0.0
  0
LINE
  5
1222
330
2
100
AcDbEntity
  8
0
100
AcDbLine
 10
398.1606062332766
 20
170.2120428620756
 30
0.0
 11
455.1606062332766
 21
170.2120428620756
 31
0.0
  0
LINE
  5
1223
330
2
100
AcDbEntity
  8
0
100
AcDbLine
 10
380.8606062332774
 20
125.4200076962052
 30
0.0
 11
384.1606062332766
 21
125.420007696207
 31
0.0
  0
LINE
  5
1224
330
2
100
AcDbEntity
  8
0
100
AcDbLine
 10
377.160606233273
 20
128.920007696207
 30
0.0
 11
385.160606233273
 21
128.920007696207
 31
0.0
  0
LINE
  5
1225
330
2
100
AcDbEntity
  8
HIDS
100
AcDbLine
 10
385.3677130144578
 20
120.2129009150185
 30
0.0
 11
384.9534994520863
 21
120.62711447739
 31
0.0
  0
LINE
  5
1226
330
2
100
AcDbEntity
  8
0
100
AcDbLine
 10
384.1606062332748
 20
123.4200076962088
 30
0.0
 11
384.6606062332785
 21
122.920007696207
 31
0.0
  0
LINE
  5
1227
330
2
100
AcDbEntity
  8
0
100
AcDbLine
 10
377.1606062332766
 20
125.4200076962052
 30
0.0
 11
376.1606062332766
 21
125.9973579653952
 31
0.0
  0
LINE
  5
1228
330
2
100
AcDbEntity
  8
0
100
AcDbLine
 10
378.8606062332774
 20
126.1200076962059
 30
0.0
 11
380.4606062332777
 21
126.1200076962059
 31
0.0
  0
LINE
  5
1229
330
2
100
AcDbEntity
  8
0
100
AcDbLine
 10
380.6606062332766
 20
125.6200076962059
 30
0.0
 11
380.8606062332774
 21
125.4200076962052
 31
0.0
  0
LINE
  5
122A
330
2
100
AcDbEntity
  8
0
100
AcDbLine
 10
378.6606062332766
 20
125.6200076962059
 30
0.0
 11
378.6606062332766
 21
127.7334773411685
 31
0.0
  0
LINE
  5
122B
330
2
100
AcDbEntity
  8
0
100
AcDbLine
 10
378.6606062332766
 20
176.1065380512455
 30
0.0
 11
378.6606062332766
 21
178.2200076962063
 31
0.0
  0
LINE
  5
122C
330
2
100
AcDbEntity
  8
0
100
AcDbLine
 10
377.1606062332766
 20
125.4200076962052
 30
0.0
 11
378.4606062332777
 21
125.4200076962052
 31
0.0
  0
LINE
  5
122D
330
2
100
AcDbEntity
  8
0
100
AcDbLine
 10
377.160606233273
 20
128.920007696207
 30
0.0
 11
376.160606233273
 21
128.342657427017
 31
0.0
  0
LINE
  5
122E
330
2
100
AcDbEntity
  8
0
100
AcDbLine
 10
380.8606062332756
 20
178.420007696207
 30
0.0
 11
384.1606062332748
 21
178.420007696207
 31
0.0
  0
LINE
  5
122F
330
2
100
AcDbEntity
  8
0
100
AcDbLine
 10
377.160606233273
 20
174.9200076962052
 30
0.0
 11
385.160606233273
 21
174.920007696207
 31
0.0
  0
LINE
  5
1230
330
2
100
AcDbEntity
  8
0
100
AcDbLine
 10
384.1606062332748
 20
180.420007696207
 30
0.0
 11
384.1606062332748
 21
175.9830711499153
 31
0.0
  0
LINE
  5
1231
330
2
100
AcDbEntity
  8
0
100
AcDbLine
 10
384.1606062332748
 20
127.8569442424969
 30
0.0
 11
384.1606062332748
 21
123.4200076962088
 31
0.0
  0
LINE
  5
1232
330
2
100
AcDbEntity
  8
0
100
AcDbLine
 10
384.1606062332712
 20
178.420007696207
 30
0.0
 11
384.1606062332712
 21
180.4200076962015
 31
0.0
  0
LINE
  5
1233
330
2
100
AcDbEntity
  8
0
100
AcDbLine
 10
385.160606233273
 20
128.5378443432683
 30
0.0
 11
385.160606233273
 21
137.419961696206
 31
0.0
  0
LINE
  5
1234
330
2
100
AcDbEntity
  8
0
100
AcDbLine
 10
385.160606233273
 20
166.419961696206
 30
0.0
 11
385.160606233273
 21
175.3021710491457
 31
0.0
  0
LINE
  5
1235
330
2
100
AcDbEntity
  8
0
100
AcDbLine
 10
385.160606233273
 20
175.3021710491457
 30
0.0
 11
385.7373572914703
 21
175.3172738071198
 31
0.0
  0
LINE
  5
1236
330
2
100
AcDbEntity
  8
0
100
AcDbLine
 10
385.6606062332721
 20
112.0204047541856
 30
0.0
 11
385.6606062332721
 21
112.420007696207
 31
0.0
  0
LINE
  5
1237
330
2
100
AcDbEntity
  8
HIDS
100
AcDbLine
 10
385.6606062332712
 20
112.420007696207
 30
0.0
 11
385.6606062332721
 21
122.420007696207
 31
0.0
  0
LINE
  5
1238
330
2
100
AcDbEntity
  8
0
100
AcDbLine
 10
385.6606062332721
 20
122.420007696207
 30
0.0
 11
385.6606062332721
 21
128.4686205017215
 31
0.0
  0
LINE
  5
1239
330
2
100
AcDbEntity
  8
0
100
AcDbLine
 10
385.6606062332721
 20
175.3713948906907
 30
0.0
 11
385.6606062332721
 21
181.420007696207
 31
0.0
  0
LINE
  5
123A
330
2
100
AcDbEntity
  8
HIDS
100
AcDbLine
 10
385.6606062332721
 20
181.420007696207
 30
0.0
 11
385.6606062332721
 21
191.420007696207
 31
0.0
  0
LINE
  5
123B
330
2
100
AcDbEntity
  8
0
100
AcDbLine
 10
385.660606233273
 20
191.420007696207
 30
0.0
 11
385.660606233273
 21
191.8196106382266
 31
0.0
  0
ARC
  5
123C
330
2
100
AcDbEntity
  8
0
100
AcDbCircle
 10
386.6606062332721
 20
112.0204047541856
 30
0.0
 40
1.0
100
AcDbArc
 50
180.0
 51
269.5000000000084
  0
LINE
  5
123D
330
2
100
AcDbEntity
  8
0
100
AcDbLine
 10
384.1606062332748
 20
180.420007696207
 30
0.0
 11
384.6606062332748
 21
180.920007696207
 31
0.0
  0
LINE
  5
123E
330
2
100
AcDbEntity
  8
HIDS
100
AcDbLine
 10
385.3677130144578
 20
183.6271144773937
 30
0.0
 11
384.9534994520845
 21
183.2129009150203
 31
0.0
  0
LINE
  5
123F
330
2
100
AcDbEntity
  8
HIDS
100
AcDbLine
 10
384.6606062332702
 20
121.3342212585767
 30
0.0
 11
384.6606062332712
 21
122.420007696207
 31
0.0
  0
LINE
  5
1240
330
2
100
AcDbEntity
  8
0
100
AcDbLine
 10
384.6606062332702
 20
122.420007696207
 30
0.0
 11
384.6606062332702
 21
127.9750670033436
 31
0.0
  0
LINE
  5
1241
330
2
100
AcDbEntity
  8
0
100
AcDbLine
 10
384.6606062332702
 20
175.8649483890686
 30
0.0
 11
384.6606062332702
 21
181.420007696207
 31
0.0
  0
LINE
  5
1242
330
2
100
AcDbEntity
  8
HIDS
100
AcDbLine
 10
384.6606062332702
 20
181.420007696207
 30
0.0
 11
384.6606062332702
 21
182.5057941338337
 31
0.0
  0
LINE
  5
1243
330
2
100
AcDbEntity
  8
0
100
AcDbLine
 10
376.160606233273
 20
125.997357965397
 30
0.0
 11
376.160606233273
 21
137.419961696206
 31
0.0
  0
LINE
  5
1244
330
2
100
AcDbEntity
  8
0
100
AcDbLine
 10
376.160606233273
 20
166.419961696206
 30
0.0
 11
376.160606233273
 21
177.8426574270152
 31
0.0
  0
LINE
  5
1245
330
2
100
AcDbEntity
  8
0
100
AcDbLine
 10
377.160606233273
 20
128.920007696207
 30
0.0
 11
377.160606233273
 21
137.419961696206
 31
0.0
  0
LINE
  5
1246
330
2
100
AcDbEntity
  8
0
100
AcDbLine
 10
377.160606233273
 20
166.419961696206
 30
0.0
 11
377.160606233273
 21
174.9200076962052
 31
0.0
  0
LINE
  5
1247
330
2
100
AcDbEntity
  8
0
100
AcDbLine
 10
377.1606062332748
 20
178.420007696207
 30
0.0
 11
378.4606062332759
 21
178.420007696207
 31
0.0
  0
LINE
  5
1248
330
2
100
AcDbEntity
  8
0
100
AcDbLine
 10
380.6606062332748
 20
178.2200076962063
 30
0.0
 11
380.8606062332756
 21
178.420007696207
 31
0.0
  0
LINE
  5
1249
330
2
100
AcDbEntity
  8
0
100
AcDbLine
 10
380.6606062332748
 20
178.2200076962063
 30
0.0
 11
380.660606233273
 21
175.9092171295024
 31
0.0
  0
LINE
  5
124A
330
2
100
AcDbEntity
  8
0
100
AcDbLine
 10
380.6606062332375
 20
127.9307982629116
 30
0.0
 11
380.6606062332357
 21
125.6200076962477
 31
0.0
  0
LINE
  5
124B
330
2
100
AcDbEntity
  8
0
100
AcDbLine
 10
378.8606062332755
 20
177.7200076962063
 30
0.0
 11
380.4606062332759
 21
177.7200076962063
 31
0.0
  0
LINE
  5
124C
330
2
100
AcDbEntity
  8
0
100
AcDbLine
 10
377.1606062332748
 20
178.420007696207
 30
0.0
 11
376.1606062332748
 21
177.842657427017
 31
0.0
  0
LINE
  5
124D
330
2
100
AcDbEntity
  8
0
100
AcDbLine
 10
377.160606233273
 20
174.920007696207
 30
0.0
 11
376.160606233273
 21
175.4973579653952
 31
0.0
  0
LINE
  5
124E
330
2
100
AcDbEntity
  8
0
100
AcDbLine
 10
398.1606062332748
 20
192.920007696207
 30
0.0
 11
398.1606062332766
 21
165.7191214550321
 31
0.0
  0
LINE
  5
124F
330
2
100
AcDbEntity
  8
0
100
AcDbLine
 10
398.1606062332776
 20
138.1208939373819
 30
0.0
 11
398.1606062332794
 21
110.920007696207
 31
0.0
  0
LINE
  5
1250
330
2
100
AcDbEntity
  8
0
100
AcDbLine
 10
398.1606062332794
 20
110.920007696207
 30
0.0
 11
386.6518796977734
 21
111.0204428311217
 31
0.0
  0
LINE
  5
1251
330
2
100
AcDbEntity
  8
0
100
AcDbLine
 10
385.160606233273
 20
128.5378443432683
 30
0.0
 11
385.7373572913047
 21
128.5227415852978
 31
0.0
  0
ARC
  5
1252
330
2
100
AcDbEntity
  8
HIDS
100
AcDbCircle
 10
385.660606233273
 20
121.3342212585767
 30
0.0
 40
1.0
100
AcDbArc
 50
180.0
 51
225.0000000000118
  0
ARC
  5
1253
330
2
100
AcDbEntity
  8
HIDS
100
AcDbCircle
 10
384.660606233273
 20
119.5057941338319
 30
0.0
 40
1.0
100
AcDbArc
 50
0.0
 51
45.0000000000118
  0
ARC
  5
1254
330
2
100
AcDbEntity
  8
HIDS
100
AcDbCircle
 10
385.6606062332703
 20
182.5057941338337
 30
0.0
 40
1.0
100
AcDbArc
 50
134.9999999999882
 51
180.0
  0
ARC
  5
1255
330
2
100
AcDbEntity
  8
HIDS
100
AcDbCircle
 10
384.660606233273
 20
184.3342212585822
 30
0.0
 40
1.0
100
AcDbArc
 50
314.9999999999881
 51
0.0
  0
ARC
  5
1256
330
2
100
AcDbEntity
  8
0
100
AcDbCircle
 10
378.4606062332759
 20
178.2200076962063
 30
0.0
 40
0.2
100
AcDbArc
 50
0.0
 51
90.0
  0
ARC
  5
1257
330
2
100
AcDbEntity
  8
0
100
AcDbCircle
 10
378.8606062332755
 20
177.920007696207
 30
0.0
 40
0.2
100
AcDbArc
 50
180.0
 51
270.0
  0
ARC
  5
1258
330
2
100
AcDbEntity
  8
0
100
AcDbCircle
 10
380.4606062332759
 20
177.920007696207
 30
0.0
 40
0.2
100
AcDbArc
 50
270.0
 51
0.0
  0
ARC
  5
1259
330
2
100
AcDbEntity
  8
0
100
AcDbCircle
 10
378.4606062332777
 20
125.6200076962059
 30
0.0
 40
0.2
100
AcDbArc
 50
270.0
 51
0.0
  0
ARC
  5
125A
330
2
100
AcDbEntity
  8
0
100
AcDbCircle
 10
378.8606062332774
 20
125.9200076962052
 30
0.0
 40
0.2
100
AcDbArc
 50
90.0
 51
180.0
  0
ARC
  5
125B
330
2
100
AcDbEntity
  8
0
100
AcDbCircle
 10
380.4606062332777
 20
125.9200076962052
 30
0.0
 40
0.2
100
AcDbArc
 50
0.0
 51
90.0
  0
LINE
  5
125C
330
2
100
AcDbEntity
  8
0
100
AcDbLine
 10
377.1606062332766
 20
125.4200076962052
 30
0.0
 11
377.1606062332766
 21
127.3314786212368
 31
0.0
  0
LINE
  5
125D
330
2
100
AcDbEntity
  8
0
100
AcDbLine
 10
377.1606062332748
 20
176.5085367711772
 30
0.0
 11
377.1606062332748
 21
178.420007696207
 31
0.0
  0
LINE
  5
125E
330
2
100
AcDbEntity
  8
0
100
AcDbLine
 10
380.8606062332756
 20
178.420007696207
 30
0.0
 11
380.8606062332756
 21
175.915524566034
 31
0.0
  0
LINE
  5
125F
330
2
100
AcDbEntity
  8
0
100
AcDbLine
 10
380.8606062332774
 20
127.92449082638
 30
0.0
 11
380.8606062332774
 21
125.4200076962052
 31
0.0
  0
LINE
  5
1260
330
2
100
AcDbEntity
  8
0
100
AcDbLine
 10
398.1606062332785
 20
115.920007696207
 30
0.0
 11
391.6518796977725
 21
115.920007696207
 31
0.0
  0
LINE
  5
1261
330
2
100
AcDbEntity
  8
0
100
AcDbLine
 10
398.1606062332785
 20
118.920007696207
 30
0.0
 11
391.6518796977725
 21
118.920007696207
 31
0.0
  0
LINE
  5
1262
330
2
100
AcDbEntity
  8
0
100
AcDbLine
 10
398.1606062332766
 20
184.920007696207
 30
0.0
 11
391.6518796977752
 21
184.920007696207
 31
0.0
  0
LINE
  5
1263
330
2
100
AcDbEntity
  8
0
100
AcDbLine
 10
398.1606062332748
 20
187.920007696207
 30
0.0
 11
391.6518796977725
 21
187.920007696207
 31
0.0
  0
LINE
  5
1264
330
2
100
AcDbEntity
  8
0
100
AcDbLine
 10
398.1606062332766
 20
170.2120428620756
 30
0.0
 11
388.0157680773927
 21
170.2120428620756
 31
0.0
  0
LINE
  5
1265
330
2
100
AcDbEntity
  8
0
100
AcDbLine
 10
398.1606062332785
 20
133.6279725303384
 30
0.0
 11
387.983601309169
 21
133.6279725303384
 31
0.0
  0
LINE
  5
1266
330
2
100
AcDbEntity
  8
0
100
AcDbLine
 10
386.6518796977734
 20
124.454991322692
 30
0.0
 11
390.16496950102
 21
124.4243330524414
 31
0.0
  0
LINE
  5
1267
330
2
100
AcDbEntity
  8
0
100
AcDbLine
 10
390.6606062332712
 20
123.9243520909085
 30
0.0
 11
390.6606062332712
 21
111.9767704152319
 31
0.0
  0
ARC
  5
1268
330
2
100
AcDbEntity
  8
0
100
AcDbCircle
 10
386.6606062332712
 20
125.4549532457595
 30
0.0
 40
1.0
100
AcDbArc
 50
180.0
 51
269.5000000000345
  0
ARC
  5
1269
330
2
100
AcDbEntity
  8
0
100
AcDbCircle
 10
390.1606062332712
 20
123.9243520909104
 30
0.0
 40
0.5
100
AcDbArc
 50
0.0
 51
89.5000000000345
  0
ARC
  5
126A
330
2
100
AcDbEntity
  8
0
100
AcDbCircle
 10
391.6606062332712
 20
111.9767704152319
 30
0.0
 40
1.0
100
AcDbArc
 50
180.0
 51
269.5000000000084
  0
ARC
  5
126B
330
2
100
AcDbEntity
  8
0
100
AcDbCircle
 10
386.6606062332721
 20
191.8196106382266
 30
0.0
 40
1.0
100
AcDbArc
 50
90.49999999999155
 51
180.0
  0
LINE
  5
126C
330
2
100
AcDbEntity
  8
0
100
AcDbLine
 10
398.1606062332748
 20
192.920007696207
 30
0.0
 11
386.6518796977734
 21
192.8195725612905
 31
0.0
  0
LINE
  5
126D
330
2
100
AcDbEntity
  8
0
100
AcDbLine
 10
386.6518796977734
 20
179.385024069722
 30
0.0
 11
390.16496950102
 21
179.4156823399708
 31
0.0
  0
LINE
  5
126E
330
2
100
AcDbEntity
  8
0
100
AcDbLine
 10
390.6606062332712
 20
179.9156633015036
 30
0.0
 11
390.6606062332712
 21
191.8632449771804
 31
0.0
  0
ARC
  5
126F
330
2
100
AcDbEntity
  8
0
100
AcDbCircle
 10
386.6606062332712
 20
178.3850621466527
 30
0.0
 40
1.0
100
AcDbArc
 50
90.49999999996549
 51
180.0
  0
ARC
  5
1270
330
2
100
AcDbEntity
  8
0
100
AcDbCircle
 10
390.1606062332712
 20
179.9156633015036
 30
0.0
 40
0.5
100
AcDbArc
 50
270.4999999999654
 51
0.0
  0
ARC
  5
1271
330
2
100
AcDbEntity
  8
0
100
AcDbCircle
 10
391.6606062332712
 20
191.8632449771804
 30
0.0
 40
1.0
100
AcDbArc
 50
90.49999999999155
 51
180.0
  0
LINE
  5
1272
330
2
100
AcDbEntity
  8
0
100
AcDbLine
 10
383.5606062332708
 20
181.420007696207
 30
0.0
 11
383.1606062332712
 21
182.1128280192343
 31
0.0
  0
LINE
  5
1273
330
2
100
AcDbEntity
  8
0
100
AcDbLine
 10
389.1606062332712
 20
181.420007696207
 30
0.0
 11
389.1606062332712
 21
191.420007696207
 31
0.0
  0
LINE
  5
1274
330
2
100
AcDbEntity
  8
0
100
AcDbLine
 10
383.5606062332708
 20
181.420007696207
 30
0.0
 11
383.5606062332708
 21
191.420007696207
 31
0.0
  0
LINE
  5
1275
330
2
100
AcDbEntity
  8
0
100
AcDbLine
 10
390.6606062332712
 20
181.420007696207
 30
0.0
 11
383.5606062332708
 21
181.420007696207
 31
0.0
  0
LINE
  5
1276
330
2
100
AcDbEntity
  8
0
100
AcDbLine
 10
390.6606062332712
 20
191.420007696207
 30
0.0
 11
383.5606062332708
 21
191.420007696207
 31
0.0
  0
LINE
  5
1277
330
2
100
AcDbEntity
  8
0
100
AcDbLine
 10
383.5606062332708
 20
191.420007696207
 30
0.0
 11
383.1606062332712
 21
190.7271873731797
 31
0.0
  0
LINE
  5
1278
330
2
100
AcDbEntity
  8
0
100
AcDbLine
 10
383.1606062332712
 20
182.1128280192343
 30
0.0
 11
383.1606062332712
 21
190.7271873731797
 31
0.0
  0
LINE
  5
1279
330
2
100
AcDbEntity
  8
0
100
AcDbLine
 10
390.6606062332712
 20
191.420007696207
 30
0.0
 11
390.6606062332712
 21
181.420007696207
 31
0.0
  0
LINE
  5
127A
330
2
100
AcDbEntity
  8
0
100
AcDbLine
 10
383.5606062332708
 20
122.420007696207
 30
0.0
 11
383.1606062332712
 21
121.7271873731798
 31
0.0
  0
LINE
  5
127B
330
2
100
AcDbEntity
  8
0
100
AcDbLine
 10
389.1606062332712
 20
122.420007696207
 30
0.0
 11
389.1606062332712
 21
112.420007696207
 31
0.0
  0
LINE
  5
127C
330
2
100
AcDbEntity
  8
0
100
AcDbLine
 10
383.5606062332708
 20
122.420007696207
 30
0.0
 11
383.5606062332708
 21
112.420007696207
 31
0.0
  0
LINE
  5
127D
330
2
100
AcDbEntity
  8
0
100
AcDbLine
 10
390.6606062332712
 20
122.420007696207
 30
0.0
 11
383.5606062332708
 21
122.420007696207
 31
0.0
  0
LINE
  5
127E
330
2
100
AcDbEntity
  8
0
100
AcDbLine
 10
390.6606062332712
 20
112.420007696207
 30
0.0
 11
383.5606062332708
 21
112.420007696207
 31
0.0
  0
LINE
  5
127F
330
2
100
AcDbEntity
  8
0
100
AcDbLine
 10
383.5606062332708
 20
112.420007696207
 30
0.0
 11
383.1606062332712
 21
113.1128280192343
 31
0.0
  0
LINE
  5
1280
330
2
100
AcDbEntity
  8
0
100
AcDbLine
 10
383.1606062332712
 20
121.7271873731798
 30
0.0
 11
383.1606062332712
 21
113.1128280192343
 31
0.0
  0
LINE
  5
1281
330
2
100
AcDbEntity
  8
CENTER
  6
CENS
100
AcDbLine
 10
378.5819383231746
 20
186.420007696207
 30
0.0
 11
403.1447919995562
 21
186.420007696207
 31
0.0
  0
LINE
  5
1282
330
2
100
AcDbEntity
  8
CENTER
  6
CENS
100
AcDbLine
 10
378.5819383231746
 20
117.420007696207
 30
0.0
 11
403.1447919995562
 21
117.420007696207
 31
0.0
  0
LINE
  5
1283
330
2
100
AcDbEntity
  8
0
100
AcDbLine
 10
487.1606062332766
 20
166.4170541252143
 30
0.0
 11
487.1606062332766
 21
137.419961696206
 31
0.0
  0
LINE
  5
1284
330
2
100
AcDbEntity
  8
CENTER
  6
CENS
100
AcDbLine
 10
479.1606062332767
 20
155.8693506708378
 30
0.0
 11
479.1606062332767
 21
172.6882592972643
 31
0.0
  0
LINE
  5
1285
330
2
100
AcDbEntity
  8
0
100
AcDbLine
 10
374.1606062332766
 20
166.419961696206
 30
0.0
 11
374.1606062332766
 21
137.419961696206
 31
0.0
  0
LINE
  5
1286
330
2
100
AcDbEntity
  8
0
100
AcDbLine
 10
389.0908326868275
 20
137.419961696206
 30
0.0
 11
374.1606062332766
 21
137.419961696206
 31
0.0
  0
LINE
  5
1287
330
2
100
AcDbEntity
  8
0
 48
0.5
100
AcDbLine
 10
463.2998521919899
 20
137.419961696206
 30
0.0
 11
487.1606062332766
 21
137.419961696206
 31
0.0
  0
LINE
  5
1288
330
2
100
AcDbEntity
  8
0
 48
0.5
100
AcDbLine
 10
374.1606146873173
 20
163.7199616962071
 30
0.0
 11
487.1606062332766
 21
163.7199616962071
 31
0.0
  0
LINE
  5
1289
330
2
100
AcDbEntity
  8
0
 48
0.5
100
AcDbLine
 10
397.1606146873173
 20
161.4170541252143
 30
0.0
 11
460.1606062332766
 21
161.4170541252143
 31
0.0
  0
LINE
  5
128A
330
2
100
AcDbEntity
  8
0
 48
0.5
100
AcDbLine
 10
376.1606146873173
 20
160.9170541252124
 30
0.0
 11
376.1606146873173
 21
142.9170541252142
 31
0.0
  0
LINE
  5
128B
330
2
100
AcDbEntity
  8
0
 48
0.5
100
AcDbLine
 10
386.1606146873173
 20
161.4170541252143
 30
0.0
 11
386.1606146873173
 21
142.4170541252142
 31
0.0
  0
LINE
  5
128C
330
2
100
AcDbEntity
  8
0
 48
0.5
100
AcDbLine
 10
385.0106146873176
 20
161.4170541252143
 30
0.0
 11
385.0106146873176
 21
142.4170541252142
 31
0.0
  0
LINE
  5
128D
330
2
100
AcDbEntity
  8
0
 48
0.5
100
AcDbLine
 10
386.1606146873173
 20
142.9170541252142
 30
0.0
 11
397.1606146873173
 21
142.9170541252142
 31
0.0
  0
LINE
  5
128E
330
2
100
AcDbEntity
  8
0
 48
0.5
100
AcDbLine
 10
376.1606146873173
 20
142.9170541252142
 30
0.0
 11
385.0106146873176
 21
142.9170541252142
 31
0.0
  0
LINE
  5
128F
330
2
100
AcDbEntity
  8
0
 48
0.5
100
AcDbLine
 10
376.1606146873173
 20
142.9170541252142
 30
0.0
 11
374.1606146873173
 21
141.7623535868343
 31
0.0
  0
LINE
  5
1290
330
2
100
AcDbEntity
  8
0
 48
0.5
100
AcDbLine
 10
385.0106146873176
 20
142.4170541252142
 30
0.0
 11
386.1606146873173
 21
142.4170541252142
 31
0.0
  0
LINE
  5
1291
330
2
100
AcDbEntity
  8
0
 48
0.5
100
AcDbLine
 10
386.1606146873173
 20
160.9170541252142
 30
0.0
 11
397.1606146873173
 21
160.9170541252124
 31
0.0
  0
LINE
  5
1292
330
2
100
AcDbEntity
  8
0
 48
0.5
100
AcDbLine
 10
385.0106146873176
 20
161.4170541252143
 30
0.0
 11
386.1606146873173
 21
161.4170541252143
 31
0.0
  0
LINE
  5
1293
330
2
100
AcDbEntity
  8
0
 48
0.5
100
AcDbLine
 10
376.1606146873173
 20
160.9170541252124
 30
0.0
 11
385.0106146873176
 21
160.9170541252124
 31
0.0
  0
LINE
  5
1294
330
2
100
AcDbEntity
  8
0
 48
0.5
100
AcDbLine
 10
374.1606062332766
 20
162.074662234586
 30
0.0
 11
376.1606062332766
 21
160.919961696206
 31
0.0
  0
LINE
  5
1295
330
2
100
AcDbEntity
  8
0
 48
0.5
100
AcDbLine
 10
376.1606146873173
 20
160.9170541252124
 30
0.0
 11
374.1606146873173
 21
162.0717546635924
 31
0.0
  0
LINE
  5
1296
330
2
100
AcDbEntity
  8
0
 48
0.5
100
AcDbLine
 10
397.1606146873173
 20
161.4170541252143
 30
0.0
 11
397.1606146873173
 21
142.4229612671998
 31
0.0
  0
LINE
  5
1297
330
2
100
AcDbEntity
  8
0
100
AcDbLine
 10
389.090888269694
 20
166.419961696206
 30
0.0
 11
374.1606062332766
 21
166.419961696206
 31
0.0
  0
LINE
  5
1298
330
2
100
AcDbEntity
  8
0
 48
0.5
100
AcDbLine
 10
463.2998126190932
 20
166.419961696206
 30
0.0
 11
487.1606062332766
 21
166.419961696206
 31
0.0
  0
LINE
  5
1299
330
2
100
AcDbEntity
  8
0
 48
0.5
100
AcDbLine
 10
476.1606062332766
 20
161.419961696206
 30
0.0
 11
482.1606062332766
 21
161.419961696206
 31
0.0
  0
LINE
  5
129A
330
2
100
AcDbEntity
  8
0
 48
0.5
100
AcDbLine
 10
476.1606062332766
 20
142.419961696206
 30
0.0
 11
482.1606062332766
 21
142.419961696206
 31
0.0
  0
LINE
  5
129B
330
2
100
AcDbEntity
  8
0
 48
0.5
100
AcDbLine
 10
470.1606062332766
 20
161.419961696206
 30
0.0
 11
470.1606062332766
 21
142.419961696206
 31
0.0
  0
LINE
  5
129C
330
2
100
AcDbEntity
  8
0
 48
0.5
100
AcDbLine
 10
471.3106062332762
 20
161.419961696206
 30
0.0
 11
471.3106062332762
 21
142.419961696206
 31
0.0
  0
LINE
  5
129D
330
2
100
AcDbEntity
  8
0
 48
0.5
100
AcDbLine
 10
476.1606062332766
 20
142.419961696206
 30
0.0
 11
476.1606062332766
 21
161.419961696206
 31
0.0
  0
LINE
  5
129E
330
2
100
AcDbEntity
  8
0
100
AcDbLine
 10
460.1606062332766
 20
161.4170541252143
 30
0.0
 11
460.1606062332766
 21
142.4165600736205
 31
0.0
  0
LINE
  5
129F
330
2
100
AcDbEntity
  8
0
 48
0.5
100
AcDbLine
 10
460.1606062332766
 20
142.919961696206
 30
0.0
 11
470.1606062332766
 21
142.919961696206
 31
0.0
  0
LINE
  5
12A0
330
2
100
AcDbEntity
  8
0
100
AcDbLine
 10
460.1606062332766
 20
142.4165600736205
 30
0.0
 11
457.5890054914807
 21
142.4165600736205
 31
0.0
  0
LINE
  5
12A1
330
2
100
AcDbEntity
  8
0
 48
0.5
100
AcDbLine
 10
471.3106062332762
 20
142.919961696206
 30
0.0
 11
476.1606062332766
 21
142.919961696206
 31
0.0
  0
LINE
  5
12A2
330
2
100
AcDbEntity
  8
0
 48
0.5
100
AcDbLine
 10
471.3106062332762
 20
142.419961696206
 30
0.0
 11
470.1606062332766
 21
142.419961696206
 31
0.0
  0
LINE
  5
12A3
330
2
100
AcDbEntity
  8
0
 48
0.5
100
AcDbLine
 10
460.1606062332766
 20
160.919961696206
 30
0.0
 11
470.1606062332766
 21
160.919961696206
 31
0.0
  0
LINE
  5
12A4
330
2
100
AcDbEntity
  8
0
 48
0.5
100
AcDbLine
 10
470.1606062332766
 20
161.419961696206
 30
0.0
 11
471.3106062332762
 21
161.419961696206
 31
0.0
  0
LINE
  5
12A5
330
2
100
AcDbEntity
  8
0
 48
0.5
100
AcDbLine
 10
471.3106062332762
 20
160.919961696206
 30
0.0
 11
476.1606062332766
 21
160.919961696206
 31
0.0
  0
LINE
  5
12A6
330
2
100
AcDbEntity
  8
HOJO
100
AcDbLine
 10
476.6606062332803
 20
163.7199616962071
 30
0.0
 11
476.6606062332803
 21
166.419961696206
 31
0.0
  0
LINE
  5
12A7
330
2
100
AcDbEntity
  8
0
100
AcDbLine
 10
477.110606233793
 20
163.7199616962071
 30
0.0
 11
477.110606233793
 21
166.419961696206
 31
0.0
  0
LINE
  5
12A8
330
2
100
AcDbEntity
  8
0
 48
0.5
100
AcDbLine
 10
485.1606146873173
 20
160.919961696206
 30
0.0
 11
485.1606146873182
 21
142.9199616962078
 31
0.0
  0
LINE
  5
12A9
330
2
100
AcDbEntity
  8
0
 48
0.5
100
AcDbLine
 10
482.1606146873173
 20
142.419961696206
 30
0.0
 11
482.1606146873173
 21
161.419961696206
 31
0.0
  0
LINE
  5
12AA
330
2
100
AcDbEntity
  8
0
 48
0.5
100
AcDbLine
 10
487.1606146873191
 20
141.7652611578278
 30
0.0
 11
485.1606146873182
 21
142.9199616962078
 31
0.0
  0
LINE
  5
12AB
330
2
100
AcDbEntity
  8
HOJO
100
AcDbLine
 10
481.6606146873173
 20
163.7199616962071
 30
0.0
 11
481.6606146873173
 21
166.419961696206
 31
0.0
  0
LINE
  5
12AC
330
2
100
AcDbEntity
  8
0
100
AcDbLine
 10
481.2106146868018
 20
163.7199616962071
 30
0.0
 11
481.2106146868018
 21
166.419961696206
 31
0.0
  0
LINE
  5
12AD
330
2
100
AcDbEntity
  8
0
100
AcDbLine
 10
485.1606146873182
 20
142.9199616962078
 30
0.0
 11
482.1606146873173
 21
142.9199616962078
 31
0.0
  0
LINE
  5
12AE
330
2
100
AcDbEntity
  8
0
100
AcDbLine
 10
485.1606146873173
 20
160.919961696206
 30
0.0
 11
482.1606146873173
 21
160.919961696206
 31
0.0
  0
LINE
  5
12AF
330
2
100
AcDbEntity
  8
0
100
AcDbLine
 10
485.1606146873173
 20
160.919961696206
 30
0.0
 11
487.1606062332766
 21
162.0746573536426
 31
0.0
  0
LINE
  5
12B0
330
2
100
AcDbEntity
  8
0
 48
0.5
100
AcDbLine
 10
397.1606146873173
 20
142.4229612671998
 30
0.0
 11
460.1606062332766
 21
142.4229612671998
 31
0.0
  0
LINE
  5
12B1
330
2
100
AcDbEntity
  8
0
100
AcDbLine
 10
473.1606062332766
 20
128.920007696207
 30
0.0
 11
473.1606062332766
 21
137.419961696206
 31
0.0
  0
LINE
  5
12B2
330
2
100
AcDbEntity
  8
0
100
AcDbLine
 10
473.1606062332766
 20
166.419961696206
 30
0.0
 11
473.1606062332766
 21
174.9200076962052
 31
0.0
  0
LINE
  5
12B3
330
2
100
AcDbEntity
  8
0
100
AcDbLine
 10
465.1606062332766
 20
128.6818669118993
 30
0.0
 11
465.1606062332766
 21
137.419961696206
 31
0.0
  0
LINE
  5
12B4
330
2
100
AcDbEntity
  8
0
100
AcDbLine
 10
465.1606062332766
 20
166.419961696206
 30
0.0
 11
465.1606062332766
 21
175.1581484805129
 31
0.0
  0
LINE
  5
12B5
330
2
100
AcDbEntity
  8
0
100
AcDbLine
 10
465.1606062332766
 20
128.6818669118993
 30
0.0
 11
464.3542997988925
 21
128.6607530348474
 31
0.0
  0
LINE
  5
12B6
330
2
100
AcDbEntity
  8
0
100
AcDbLine
 10
473.1606062332766
 20
128.920007696207
 30
0.0
 11
465.1606062332775
 21
128.920007696207
 31
0.0
  0
LINE
  5
12B7
330
2
100
AcDbEntity
  8
0
100
AcDbLine
 10
473.1606062332766
 20
128.920007696207
 30
0.0
 11
474.1606062332766
 21
128.342657427017
 31
0.0
  0
LINE
  5
12B8
330
2
100
AcDbEntity
  8
0
100
AcDbLine
 10
473.1606062332766
 20
174.9200076962052
 30
0.0
 11
465.1606062332785
 21
174.9200076962052
 31
0.0
  0
LINE
  5
12B9
330
2
100
AcDbEntity
  8
0
100
AcDbLine
 10
473.1606062332766
 20
174.920007696207
 30
0.0
 11
474.1606062332766
 21
175.4973579653952
 31
0.0
  0
LINE
  5
12BA
330
2
100
AcDbEntity
  8
0
100
AcDbLine
 10
465.1606062332766
 20
175.1581484805129
 30
0.0
 11
464.3542997988925
 21
175.1792623575648
 31
0.0
  0
SPLINE
  5
12BB
330
2
100
AcDbEntity
  8
HOJO
100
AcDbSpline
210
0.0
220
0.0
230
1.0
 70
     8
 71
     3
 72
    34
 73
    30
 74
     0
 42
0.0000000001
 43
0.0000000001
 40
0.3362490801349298
 40
0.3362490801349298
 40
0.3362490801349298
 40
0.3362490801349298
 40
2.025640917149685
 40
4.32094151344414
 40
6.375589722319439
 40
9.049541186356382
 40
11.45527314787573
 40
13.93495700308971
 40
16.33786532263532
 40
19.54572761550501
 40
21.38558869575908
 40
28.86979803234311
 40
33.1859970370878
 40
37.86645582948318
 40
45.37190962287592
 40
53.9865418647183
 40
62.6909315817348
 40
69.28563032391882
 40
78.28004835247928
 40
85.06020350068469
 40
90.23992781404917
 40
93.94649664053121
 40
96.69197151561816
 40
100.3021858601968
 40
102.6648877317443
 40
105.7348010616008
 40
109.5488637563299
 40
112.8347034321232
 40
115.1857403907296
 40
115.1857403907296
 40
115.1857403907296
 40
115.1857403907296
 10
376.160606233273
 20
176.8352994235529
 30
0.0
 10
376.6933165332129
 20
176.6555547923372
 30
0.0
 10
377.9538383281351
 20
176.2407882366615
 30
0.0
 10
379.9513773948374
 20
175.8100458355939
 30
0.0
 10
382.2735445702464
 20
176.028389550761
 30
0.0
 10
384.7521640820741
 20
176.1691052851902
 30
0.0
 10
386.8809519308606
 20
174.4945772030287
 30
0.0
 10
387.8408849235174
 20
172.1876818602514
 30
0.0
 10
387.994539468008
 20
169.4842436580721
 30
0.0
 10
388.5579675556318
 20
167.0496627509883
 30
0.0
 10
391.2234285426139
 20
163.4472547122687
 30
0.0
 10
396.6653655230029
 20
166.160640012632
 30
0.0
 10
401.9705384528288
 20
165.501514442677
 30
0.0
 10
407.4540433912579
 20
164.327284838414
 30
0.0
 10
414.357524211904
 20
166.4068156524727
 30
0.0
 10
422.5834101370501
 20
163.4734331484933
 30
0.0
 10
430.4571702328676
 20
166.5386638351984
 30
0.0
 10
438.5319348619841
 20
164.3582310591091
 30
0.0
 10
445.9879545623961
 20
167.0141360467342
 30
0.0
 10
452.894993033442
 20
163.5296113913219
 30
0.0
 10
457.799335464857
 20
165.9724710726141
 30
0.0
 10
462.3299444037684
 20
163.9240613470947
 30
0.0
 10
463.8036010234582
 20
167.6223379151006
 30
0.0
 10
464.690100635531
 20
170.4386483043463
 30
0.0
 10
462.8774076724185
 20
173.2794823571485
 30
0.0
 10
464.9872977448212
 20
176.3840277622121
 30
0.0
 10
468.5064108602264
 20
176.9233922726262
 30
0.0
 10
471.7078805345981
 20
176.2238012758089
 30
0.0
 10
473.4246847372296
 20
177.1437881596839
 30
0.0
 10
474.1606062332766
 20
177.435671495833
 30
0.0
  0
SPLINE
  5
12BC
330
2
100
AcDbEntity
  8
HOJO
100
AcDbSpline
210
0.0
220
0.0
230
1.0
 70
     8
 71
     3
 72
    34
 73
    30
 74
     0
 42
0.0000000001
 43
0.0000000001
 40
0.3362490801349298
 40
0.3362490801349298
 40
0.3362490801349298
 40
0.3362490801349298
 40
2.025640917149685
 40
4.32094151344414
 40
6.375589722319439
 40
9.049541186356382
 40
11.45527314787573
 40
13.93495700308971
 40
16.33786532263532
 40
19.54572761550501
 40
21.38558869575908
 40
28.86979803234311
 40
33.1859970370878
 40
37.86645582948318
 40
45.37190962287592
 40
53.9865418647183
 40
62.6909315817348
 40
69.28563032391882
 40
78.28004835247928
 40
85.06020350068469
 40
90.23992781404917
 40
93.94649664053121
 40
96.69197151561816
 40
100.3021858601968
 40
102.6648877317443
 40
105.7348010616008
 40
109.5488637563299
 40
112.8347034321232
 40
115.1857403907296
 40
115.1857403907296
 40
115.1857403907296
 40
115.1857403907296
 10
376.160606233273
 20
127.0047159688611
 30
0.0
 10
376.6933165332129
 20
127.184460600075
 30
0.0
 10
377.9538383281351
 20
127.5992271557507
 30
0.0
 10
379.9513773948374
 20
128.0299695568183
 30
0.0
 10
382.2735445702464
 20
127.8116258416531
 30
0.0
 10
384.7521640820741
 20
127.670910107222
 30
0.0
 10
386.8809519308606
 20
129.3454381893835
 30
0.0
 10
387.8408849235174
 20
131.6523335321608
 30
0.0
 10
387.994539468008
 20
134.355771734342
 30
0.0
 10
388.5579675556318
 20
136.7903526414257
 30
0.0
 10
391.2234285426139
 20
140.3927606801435
 30
0.0
 10
396.6653655230029
 20
137.679375379782
 30
0.0
 10
401.9705384528288
 20
138.338500949737
 30
0.0
 10
407.4540433912579
 20
139.5127305539982
 30
0.0
 10
414.357524211904
 20
137.4331997399395
 30
0.0
 10
422.5834101370501
 20
140.3665822439189
 30
0.0
 10
430.4571702328676
 20
137.3013515572138
 30
0.0
 10
438.5319348619841
 20
139.481784333303
 30
0.0
 10
445.9879545623961
 20
136.8258793456798
 30
0.0
 10
452.894993033442
 20
140.3104040010903
 30
0.0
 10
457.799335464857
 20
137.8675443197981
 30
0.0
 10
462.3299444037684
 20
139.9159540453175
 30
0.0
 10
463.8036010234582
 20
136.2176774773116
 30
0.0
 10
464.690100635531
 20
133.4013670880659
 30
0.0
 10
462.8774076724185
 20
130.5605330352637
 30
0.0
 10
464.9872977448212
 20
127.4559876302001
 30
0.0
 10
468.5064108602264
 20
126.916623119786
 30
0.0
 10
471.7078805345981
 20
127.6162141166033
 30
0.0
 10
473.4246847372296
 20
126.6962272327282
 30
0.0
 10
474.1606062332766
 20
126.4043438965791
 30
0.0
  0
LINE
  5
12BD
330
2
100
AcDbEntity
  8
0
100
AcDbLine
 10
473.1606062332766
 20
174.9200076962052
 30
0.0
 11
465.1606062332766
 21
166.419961696206
 31
0.0
  0
LINE
  5
12BE
330
2
100
AcDbEntity
  8
0
100
AcDbLine
 10
465.1606062332785
 20
174.9200076962052
 30
0.0
 11
473.1606062332766
 21
166.419961696206
 31
0.0
  0
LINE
  5
12BF
330
2
100
AcDbEntity
  8
0
100
AcDbLine
 10
473.1606062332766
 20
137.419961696206
 30
0.0
 11
465.1606062332775
 21
128.920007696207
 31
0.0
  0
LINE
  5
12C0
330
2
100
AcDbEntity
  8
0
100
AcDbLine
 10
465.1606062332766
 20
137.419961696206
 30
0.0
 11
473.1606062332766
 21
128.920007696207
 31
0.0
  0
LINE
  5
12C1
330
2
100
AcDbEntity
  8
0
100
AcDbLine
 10
377.160606233273
 20
174.920007696207
 30
0.0
 11
385.160606233273
 21
166.419961696206
 31
0.0
  0
LINE
  5
12C2
330
2
100
AcDbEntity
  8
0
100
AcDbLine
 10
385.160606233273
 20
174.920007696207
 30
0.0
 11
377.160606233273
 21
166.419961696206
 31
0.0
  0
LINE
  5
12C3
330
2
100
AcDbEntity
  8
0
100
AcDbLine
 10
377.160606233273
 20
128.920007696207
 30
0.0
 11
385.160606233273
 21
137.419961696206
 31
0.0
  0
LINE
  5
12C4
330
2
100
AcDbEntity
  8
0
100
AcDbLine
 10
377.160606233273
 20
137.419961696206
 30
0.0
 11
385.160606233273
 21
128.920007696207
 31
0.0
  0
LINE
  5
12C5
330
2
100
AcDbEntity
  8
0
100
AcDbLine
 10
444.1703957022554
 20
400.5850119295701
 30
0.0
 11
444.1703957022554
 21
371.5850119295701
 31
0.0
  0
LINE
  5
12C6
330
2
100
AcDbEntity
  8
0
100
AcDbLine
 10
331.1703957022559
 20
400.5879195005618
 30
0.0
 11
331.1703957022559
 21
371.5879195005618
 31
0.0
  0
LINE
  5
12C7
330
2
100
AcDbEntity
  8
0
100
AcDbLine
 10
333.1703957022523
 20
371.5879195005618
 30
0.0
 11
331.1703957022559
 21
371.5879195005618
 31
0.0
  0
LINE
  5
12C8
330
2
100
AcDbEntity
  8
0
 48
0.5
100
AcDbLine
 10
431.1703957022564
 20
371.5850119295701
 30
0.0
 11
444.1703957022554
 21
371.5850119295701
 31
0.0
  0
LINE
  5
12C9
330
2
100
AcDbEntity
  8
0
100
AcDbLine
 10
333.1703957022514
 20
400.5879195005618
 30
0.0
 11
331.1703957022559
 21
400.5879195005618
 31
0.0
  0
LINE
  5
12CA
330
2
100
AcDbEntity
  8
0
 48
0.5
100
AcDbLine
 10
431.1703957022555
 20
400.5879195005618
 30
0.0
 11
444.1703957022554
 21
400.5879195005618
 31
0.0
  0
CIRCLE
  5
12CB
330
2
100
AcDbEntity
  8
0
100
AcDbCircle
 10
436.1703957022554
 20
386.0879655005611
 30
0.0
 40
2.0
  0
CIRCLE
  5
12CC
330
2
100
AcDbEntity
  8
HOJO
100
AcDbCircle
 10
436.1703957022554
 20
386.0879655005611
 30
0.0
 40
2.5
  0
LINE
  5
12CD
330
2
100
AcDbEntity
  8
0
100
AcDbLine
 10
202.5900987815102
 20
397.8879685005614
 30
0.0
 11
202.5900987815102
 21
394.5907591591185
 31
0.0
  0
LINE
  5
12CE
330
2
100
AcDbEntity
  8
0
100
AcDbLine
 10
196.5900987815102
 20
397.8879685005614
 30
0.0
 11
196.5900987815102
 21
394.5554031295033
 31
0.0
  0
ARC
  5
12CF
330
2
100
AcDbEntity
  8
0
100
AcDbCircle
 10
199.6400987815104
 20
386.0879655005611
 30
0.0
 40
9.0
100
AcDbArc
 50
109.8091936367598
 51
70.8660489735051
  0
LINE
  5
12D0
330
2
100
AcDbEntity
  8
0
100
AcDbLine
 10
196.5900987815102
 20
397.8879685005614
 30
0.0
 11
202.5900987815102
 21
397.8879685005614
 31
0.0
  0
ARC
  5
12D1
330
2
100
AcDbEntity
  8
0
100
AcDbCircle
 10
199.6400987815109
 20
386.0879655005629
 30
0.0
 40
10.15765410937228
100
AcDbArc
 50
107.4735912242868
 51
73.1168144439442
  0
LINE
  5
12D2
330
2
100
AcDbEntity
  8
0
100
AcDbLine
 10
598.2367857657691
 20
397.8879685005611
 30
0.0
 11
598.2367857657691
 21
394.5907591591183
 31
0.0
  0
LINE
  5
12D3
330
2
100
AcDbEntity
  8
0
100
AcDbLine
 10
592.2367857657691
 20
397.8879685005611
 30
0.0
 11
592.2367857657691
 21
394.5554031295031
 31
0.0
  0
ARC
  5
12D4
330
2
100
AcDbEntity
  8
0
100
AcDbCircle
 10
595.2867857657683
 20
386.0879655005626
 30
0.0
 40
9.0
100
AcDbArc
 50
109.8091936367598
 51
70.8660489735051
  0
LINE
  5
12D5
330
2
100
AcDbEntity
  8
0
100
AcDbLine
 10
592.2367857657691
 20
397.8879685005611
 30
0.0
 11
598.2367857657691
 21
397.8879685005611
 31
0.0
  0
ARC
  5
12D6
330
2
100
AcDbEntity
  8
0
100
AcDbCircle
 10
595.2867857657683
 20
386.0879655005626
 30
0.0
 40
10.15765410937228
100
AcDbArc
 50
107.4735912242868
 51
73.1168144439442
  0
CIRCLE
  5
12D7
330
2
100
AcDbEntity
  8
0
100
AcDbCircle
 10
199.6400987815109
 20
386.0879655005629
 30
0.0
 40
14.49995399999997
  0
CIRCLE
  5
12D8
330
2
100
AcDbEntity
  8
0
100
AcDbCircle
 10
595.2867857657683
 20
386.0879655005626
 30
0.0
 40
14.49995400000048
  0
LINE
  5
12D9
330
2
100
AcDbEntity
  8
CENTER
100
AcDbLine
 10
234.6400987815099
 20
367.3815736648721
 30
0.0
 11
234.6400987815099
 21
358.7943573362518
 31
0.0
  0
LINE
  5
12DA
330
2
100
AcDbEntity
  8
CENTER
100
AcDbLine
 10
230.3464906171998
 20
363.0879655005629
 30
0.0
 11
238.9337069458201
 21
363.0879655005629
 31
0.0
  0
LINE
  5
12DB
330
2
100
AcDbEntity
  8
CENTER
100
AcDbLine
 10
234.6400987815099
 20
404.7943573362518
 30
0.0
 11
234.6400987815099
 21
413.3815736648721
 31
0.0
  0
LINE
  5
12DC
330
2
100
AcDbEntity
  8
CENTER
100
AcDbLine
 10
230.3464906171998
 20
409.0879655005629
 30
0.0
 11
238.9337069458201
 21
409.0879655005629
 31
0.0
  0
LINE
  5
12DD
330
2
100
AcDbEntity
  8
0
100
AcDbLine
 10
609.7867397657692
 20
573.2608955540179
 30
0.0
 11
580.7867397657692
 21
573.2608955540179
 31
0.0
  0
LINE
  5
12DE
330
2
100
AcDbEntity
  8
0
100
AcDbLine
 10
609.7867397657692
 20
686.2608955540179
 30
0.0
 11
580.7867397657692
 21
686.2608955540179
 31
0.0
  0
LINE
  5
12DF
330
2
100
AcDbEntity
  8
0
100
AcDbLine
 10
580.7867397657692
 20
684.2608955540215
 30
0.0
 11
580.7867397657692
 21
686.2608955540179
 31
0.0
  0
LINE
  5
12E0
330
2
100
AcDbEntity
  8
0
 48
0.5
100
AcDbLine
 10
580.7867397657692
 20
586.2608955540179
 30
0.0
 11
580.7867397657692
 21
573.2608955540179
 31
0.0
  0
LINE
  5
12E1
330
2
100
AcDbEntity
  8
0
100
AcDbLine
 10
609.7867397657692
 20
684.2608955540215
 30
0.0
 11
609.7867397657692
 21
686.2608955540179
 31
0.0
  0
LINE
  5
12E2
330
2
100
AcDbEntity
  8
0
 48
0.5
100
AcDbLine
 10
609.7867397657692
 20
586.2608955540179
 30
0.0
 11
609.7867397657692
 21
573.2608955540179
 31
0.0
  0
CIRCLE
  5
12E3
330
2
100
AcDbEntity
  8
0
100
AcDbCircle
 10
595.2867857657683
 20
581.2608955540179
 30
0.0
 40
2.0
  0
CIRCLE
  5
12E4
330
2
100
AcDbEntity
  8
HOJO
100
AcDbCircle
 10
595.2867857657683
 20
581.2608955540179
 30
0.0
 40
2.5
  0
LINE
  5
12E5
330
2
100
AcDbEntity
  8
CENTER
100
AcDbLine
 10
590.0054710724098
 20
581.2608955540179
 30
0.0
 11
600.5681004591269
 21
581.2608955540179
 31
0.0
  0
LINE
  5
12E6
330
2
100
AcDbEntity
  8
CENTER
100
AcDbLine
 10
436.1703957022554
 20
390.9258094542638
 30
0.0
 11
436.1703957022554
 21
381.2501215468583
 31
0.0
  0
LINE
  5
12E7
330
2
100
AcDbEntity
  8
0
100
AcDbLine
 10
613.578820931637
 20
662.2608955540161
 30
0.0
 11
613.578820931637
 21
673.7608955540215
 31
0.0
  0
LINE
  5
12E8
330
2
100
AcDbEntity
  8
0
100
AcDbLine
 10
631.2867857657701
 20
662.2608955540161
 30
0.0
 11
631.2867857657701
 21
673.7608955540215
 31
0.0
  0
LINE
  5
12E9
330
2
100
AcDbEntity
  8
0
100
AcDbLine
 10
628.2867857657702
 20
662.2608955540161
 30
0.0
 11
628.2867857657702
 21
673.7608955540215
 31
0.0
  0
LINE
  5
12EA
330
2
100
AcDbEntity
  8
0
100
AcDbLine
 10
340.5703957022533
 20
412.5879655005629
 30
0.0
 11
340.5703957022497
 21
415.5879655005628
 31
0.0
  0
LINE
  5
12EB
330
2
100
AcDbEntity
  8
0
100
AcDbLine
 10
340.2817205676555
 20
416.0879655005602
 30
0.0
 11
340.1703957022537
 21
415.8951451775365
 31
0.0
  0
LINE
  5
12EC
330
2
100
AcDbEntity
  8
0
100
AcDbLine
 10
340.1703957022537
 20
412.5879655005629
 30
0.0
 11
340.1703957022537
 21
415.8951451775365
 31
0.0
  0
LINE
  5
12ED
330
2
100
AcDbEntity
  8
0
100
AcDbLine
 10
340.5703957022533
 20
359.587965500562
 30
0.0
 11
340.5703957022497
 21
356.5879655005629
 31
0.0
  0
LINE
  5
12EE
330
2
100
AcDbEntity
  8
0
100
AcDbLine
 10
340.2817205676555
 20
356.0879655005647
 30
0.0
 11
340.1703957022537
 21
356.2807858235874
 31
0.0
  0
LINE
  5
12EF
330
2
100
AcDbEntity
  8
0
100
AcDbLine
 10
340.1703957022537
 20
359.587965500562
 30
0.0
 11
340.1703957022537
 21
356.2807858235874
 31
0.0
  0
LINE
  5
12F1
330
2
100
AcDbEntity
  8
PHAS
  6
SEKKEI_P_S
100
AcDbLine
 10
340.6703957022555
 20
357.5879655005629
 30
0.0
 11
340.6703957022555
 21
414.5879655005629
 31
0.0
  0
LINE
  5
12F2
330
2
100
AcDbEntity
  8
PHAS
  6
SEKKEI_P_S
100
AcDbLine
 10
315.1703957022559
 20
373.0518635005628
 30
0.0
 11
315.1703957022559
 21
399.1240432586519
 31
0.0
  0
LINE
  5
12F3
330
2
100
AcDbEntity
  8
PHAS
  6
SEKKEI_P_S
100
AcDbLine
 10
330.8703957022562
 20
360.7071169262072
 30
0.0
 11
330.8703957022562
 21
411.4688140749195
 31
0.0
  0
LINE
  5
12F4
330
2
100
AcDbEntity
  8
PHAS
  6
SEKKEI_P_S
100
AcDbLine
 10
340.6703957022555
 20
357.5879655005629
 30
0.0
 11
333.8180384829442
 21
357.7075738407375
 31
0.0
  0
LINE
  5
12F5
330
2
100
AcDbEntity
  8
PHAS
  6
SEKKEI_P_S
100
AcDbLine
 10
330.0440377022559
 20
366.2336565005626
 30
0.0
 11
330.0503975137185
 21
366.232535230296
 31
0.0
  0
ARC
  5
12F6
330
2
100
AcDbEntity
  8
PHAS
  6
SEKKEI_P_S
100
AcDbCircle
 10
329.8703957022562
 20
365.2488723332217
 30
0.0
 40
1.0
100
AcDbArc
 50
0.0
 51
79.99956533742575
  0
ARC
  5
12F7
330
2
100
AcDbEntity
  8
PHAS
  6
SEKKEI_P_S
100
AcDbCircle
 10
333.8703957022562
 20
360.7071169262072
 30
0.0
 40
3.0
100
AcDbArc
 50
180.0
 51
268.9999999999982
  0
LINE
  5
12F8
330
2
100
AcDbEntity
  8
PHAS
  6
SEKKEI_P_S
100
AcDbLine
 10
319.3021174587438
 20
368.1278555642848
 30
0.0
 11
330.0440513509584
 21
366.2336787688601
 31
0.0
  0
ARC
  5
12F9
330
2
100
AcDbEntity
  8
PHAS
  6
SEKKEI_P_S
100
AcDbCircle
 10
320.1703957022559
 20
373.0518877424747
 30
0.0
 40
5.0
100
AcDbArc
 50
180.0
 51
259.9995653374257
  0
LINE
  5
12FA
330
2
100
AcDbEntity
  8
PHAS
  6
SEKKEI_P_S
100
AcDbLine
 10
340.6703957022555
 20
414.5879655005629
 30
0.0
 11
333.8180384829442
 21
414.4683571603891
 31
0.0
  0
ARC
  5
12FB
330
2
100
AcDbEntity
  8
PHAS
  6
SEKKEI_P_S
100
AcDbCircle
 10
329.8640495394956
 20
406.9259151293409
 30
0.0
 40
1.0
100
AcDbArc
 50
280.0004346625742
 51
0.0
  0
ARC
  5
12FC
330
2
100
AcDbEntity
  8
PHAS
  6
SEKKEI_P_S
100
AcDbCircle
 10
320.1703957022559
 20
399.1240432586519
 30
0.0
 40
5.0
100
AcDbArc
 50
100.0004346625742
 51
180.0
  0
LINE
  5
12FD
330
2
100
AcDbEntity
  8
PHAS
  6
SEKKEI_P_S
100
AcDbLine
 10
319.3021174587438
 20
404.048075436841
 30
0.0
 11
330.0440513509584
 21
405.9422522322666
 31
0.0
  0
ARC
  5
12FE
330
2
100
AcDbEntity
  8
PHAS
  6
SEKKEI_P_S
100
AcDbCircle
 10
333.8703957022576
 20
411.4688140749185
 30
0.0
 40
3.0
100
AcDbArc
 50
91.00000000000177
 51
180.0
  0
LINE
  5
1338
330
2
100
AcDbEntity
  8
CENTER
100
AcDbLine
 10
945.0558332228929
 20
436.8697938057929
 30
0.0
 11
945.0558332228929
 21
335.3032283050804
 31
0.0
  0
LINE
  5
1339
330
2
100
AcDbEntity
  8
0
100
AcDbLine
 10
907.0558332228948
 20
421.0879655005618
 30
0.0
 11
907.0558332228948
 21
351.0879655005617
 31
0.0
  0
LINE
  5
133A
330
2
100
AcDbEntity
  8
0
100
AcDbLine
 10
912.0558332228938
 20
426.5818071686979
 30
0.0
 11
912.0558332228947
 21
345.5912149421754
 31
0.0
  0
LINE
  5
133B
330
2
100
AcDbEntity
  8
0
100
AcDbLine
 10
912.0558332228929
 20
351.0879655005617
 30
0.0
 11
907.0558332228928
 21
351.0879655005617
 31
0.0
  0
LINE
  5
133C
330
2
100
AcDbEntity
  8
0
100
AcDbLine
 10
912.0558332228929
 20
421.0879655005618
 30
0.0
 11
907.0558332228928
 21
421.0879655005618
 31
0.0
  0
LINE
  5
133D
330
2
100
AcDbEntity
  8
0
100
AcDbLine
 10
970.0558332228947
 20
427.0879655005617
 30
0.0
 11
970.0558332228947
 21
417.1847396941109
 31
0.0
  0
LINE
  5
133E
330
2
100
AcDbEntity
  8
0
100
AcDbLine
 10
970.0558332228947
 20
427.0879655005617
 30
0.0
 11
912.0558332228938
 21
426.5818071686979
 31
0.0
  0
LINE
  5
133F
330
2
100
AcDbEntity
  8
0
100
AcDbLine
 10
970.0558332228947
 20
345.0850566103115
 30
0.0
 11
912.0558332228947
 21
345.5912149421754
 31
0.0
  0
LINE
  5
1340
330
2
100
AcDbEntity
  8
0
100
AcDbLine
 10
970.0558332228947
 20
354.9911913070143
 30
0.0
 11
970.0558332228947
 21
345.0850566103115
 31
0.0
  0
LINE
  5
1341
330
2
100
AcDbEntity
  8
0
100
AcDbLine
 10
970.0558332228947
 20
427.0879655005617
 30
0.0
 11
970.0558332228947
 21
417.1847396941109
 31
0.0
  0
LINE
  5
1342
330
2
100
AcDbEntity
  8
0
100
AcDbLine
 10
970.0558332228947
 20
354.9911913070143
 30
0.0
 11
970.0558332228947
 21
345.0850566103115
 31
0.0
  0
ARC
  5
1343
330
2
100
AcDbEntity
  8
0
100
AcDbCircle
 10
905.0558332228947
 20
355.7026179475549
 30
0.0
 40
2.0
100
AcDbArc
 50
0.0
 51
87.99999999999636
  0
ARC
  5
1344
330
2
100
AcDbEntity
  8
0
100
AcDbCircle
 10
896.0558332228938
 20
360.0193430501756
 30
0.0
 40
2.0
100
AcDbArc
 50
180.0
 51
267.9999999999963
  0
ARC
  5
1345
330
2
100
AcDbEntity
  8
0
100
AcDbCircle
 10
905.0558332228947
 20
416.4733130535667
 30
0.0
 40
2.0
100
AcDbArc
 50
272.0000000000036
 51
0.0
  0
ARC
  5
1346
330
2
100
AcDbEntity
  8
0
100
AcDbCircle
 10
896.0558332228929
 20
412.156587950946
 30
0.0
 40
2.0
100
AcDbArc
 50
92.00000000000365
 51
180.0
  0
LINE
  5
1347
330
2
100
AcDbEntity
  8
0
100
AcDbLine
 10
895.9860342294886
 20
358.0205613961378
 30
0.0
 11
905.1256322162998
 21
357.7013996015928
 31
0.0
  0
LINE
  5
1348
330
2
100
AcDbEntity
  8
0
100
AcDbLine
 10
895.9860342294877
 20
414.1553696049839
 30
0.0
 11
905.1256322162998
 21
414.4745313995288
 31
0.0
  0
LINE
  5
1349
330
2
100
AcDbEntity
  8
0
100
AcDbLine
 10
894.0558332228929
 20
412.156587950946
 30
0.0
 11
894.0558332228947
 21
360.0193430501756
 31
0.0
  0
LINE
  5
134A
330
2
100
AcDbEntity
  8
0
100
AcDbLine
 10
970.0558332228947
 20
354.0923289344526
 30
0.0
 11
916.0383801518973
 21
354.5637321057991
 31
0.0
  0
LINE
  5
134B
330
2
100
AcDbEntity
  8
0
100
AcDbLine
 10
970.0558332228947
 20
418.0836020666691
 30
0.0
 11
943.1474270908347
 21
417.8487759638951
 31
0.0
  0
LINE
  5
134C
330
2
100
AcDbEntity
  8
0
100
AcDbLine
 10
945.0558332228929
 20
354.5879655005617
 30
0.0
 11
917.0074524187384
 21
355.04035873934
 31
0.0
  0
LINE
  5
134D
330
2
100
AcDbEntity
  8
0
100
AcDbLine
 10
945.0558332228929
 20
417.5879655005617
 30
0.0
 11
973.1042140270483
 21
417.1355722617852
 31
0.0
  0
LINE
  5
134E
330
2
100
AcDbEntity
  8
0
100
AcDbLine
 10
917.0074524187393
 20
417.1355722617852
 30
0.0
 11
925.7364468079995
 21
417.27636249387
 31
0.0
  0
LINE
  5
134F
330
2
100
AcDbEntity
  8
0
100
AcDbLine
 10
973.1042140270483
 20
355.04035873934
 30
0.0
 11
945.0558332228929
 21
354.5879655005617
 31
0.0
  0
LINE
  5
1350
330
2
100
AcDbEntity
  8
0
100
AcDbLine
 10
914.0558332228929
 20
415.6122750491984
 30
0.0
 11
914.0558332228934
 21
414.6224537782591
 31
0.0
  0
ARC
  5
1351
330
2
100
AcDbEntity
  8
0
100
AcDbCircle
 10
973.0558332228929
 20
414.1359624041895
 30
0.0
 40
3.0
100
AcDbArc
 50
44.35180023891199
 51
89.07595464723311
  0
ARC
  5
1352
330
2
100
AcDbEntity
  8
0
100
AcDbCircle
 10
973.0558332228929
 20
358.0399685969358
 30
0.0
 40
3.0
100
AcDbArc
 50
270.9240453527669
 51
0.0
  0
ARC
  5
1353
330
2
100
AcDbEntity
  8
0
100
AcDbCircle
 10
917.055833222893
 20
358.0399685969358
 30
0.0
 40
3.0
100
AcDbArc
 50
224.3518002433267
 51
269.075954647207
  0
ARC
  5
1354
330
2
100
AcDbEntity
  8
0
100
AcDbCircle
 10
917.055833222893
 20
414.1359624041895
 30
0.0
 40
3.0
100
AcDbArc
 50
90.9240453527669
 51
135.6481997621661
  0
ARC
  5
1355
330
2
100
AcDbEntity
  8
0
100
AcDbCircle
 10
916.0558332228928
 20
415.6122750491984
 30
0.0
 40
2.0
100
AcDbArc
 50
90.49999999999155
 51
180.0
  0
ARC
  5
1356
330
2
100
AcDbEntity
  8
0
100
AcDbCircle
 10
916.0558332228928
 20
356.5636559519269
 30
0.0
 40
2.0
100
AcDbArc
 50
180.0
 51
269.5000000000084
  0
LINE
  5
1357
330
2
100
AcDbEntity
  8
0
100
AcDbLine
 10
913.0558332228929
 20
350.0879655005618
 30
0.0
 11
970.0558332228947
 21
350.0879655005618
 31
0.0
  0
LINE
  5
1358
330
2
100
AcDbEntity
  8
0
100
AcDbLine
 10
913.0558332228938
 20
422.0879655005617
 30
0.0
 11
970.0558332228947
 21
422.0879655005617
 31
0.0
  0
LINE
  5
1359
330
2
100
AcDbEntity
  8
0
100
AcDbLine
 10
987.355833222894
 20
359.5879655005617
 30
0.0
 11
985.0558332228956
 21
359.5879655005617
 31
0.0
  0
LINE
  5
135A
330
2
100
AcDbEntity
  8
0
100
AcDbLine
 10
991.0558332228928
 20
359.5879655005599
 30
0.0
 11
992.0558332228939
 21
360.1653157697499
 31
0.0
  0
LINE
  5
135B
330
2
100
AcDbEntity
  8
0
100
AcDbLine
 10
989.3558332228939
 20
360.2879655005606
 30
0.0
 11
987.7558332228936
 21
360.2879655005606
 31
0.0
  0
LINE
  5
135C
330
2
100
AcDbEntity
  8
0
100
AcDbLine
 10
987.555833222893
 20
359.7879655005606
 30
0.0
 11
987.355833222894
 21
359.5879655005617
 31
0.0
  0
LINE
  5
135D
330
2
100
AcDbEntity
  8
0
100
AcDbLine
 10
989.5558332228929
 20
359.7879655005606
 30
0.0
 11
989.5558332228929
 21
412.387965500561
 31
0.0
  0
LINE
  5
135E
330
2
100
AcDbEntity
  8
0
100
AcDbLine
 10
991.0558332228928
 20
359.5879655005599
 30
0.0
 11
989.7558332228937
 21
359.5879655005617
 31
0.0
  0
LINE
  5
135F
330
2
100
AcDbEntity
  8
0
100
AcDbLine
 10
987.3558332228958
 20
412.5879655005618
 30
0.0
 11
985.0558332228956
 21
412.5879655005618
 31
0.0
  0
LINE
  5
1360
330
2
100
AcDbEntity
  8
0
100
AcDbLine
 10
984.0558332228948
 20
406.5879655005636
 30
0.0
 11
984.0558332228948
 21
365.5879655005599
 31
0.0
  0
LINE
  5
1361
330
2
100
AcDbEntity
  8
0
100
AcDbLine
 10
982.5558332228984
 20
346.1883625585404
 30
0.0
 11
982.5558332228984
 21
355.5879655005599
 31
0.0
  0
LINE
  5
1362
330
2
100
AcDbEntity
  8
0
100
AcDbLine
 10
982.5558332228984
 20
365.5879655005599
 30
0.0
 11
982.5558332228984
 21
406.5879655005636
 31
0.0
  0
LINE
  5
1363
330
2
100
AcDbEntity
  8
0
100
AcDbLine
 10
982.5558332228984
 20
416.5879655005635
 30
0.0
 11
982.5558332228984
 21
425.9875684425812
 31
0.0
  0
ARC
  5
1364
330
2
100
AcDbEntity
  8
0
100
AcDbCircle
 10
981.5558332228984
 20
346.1883625585404
 30
0.0
 40
1.0
100
AcDbArc
 50
270.5000000000175
 51
0.0
  0
LINE
  5
1365
330
2
100
AcDbEntity
  8
0
100
AcDbLine
 10
983.5558332229002
 20
365.5879655005599
 30
0.0
 11
983.5558332229002
 21
406.5879655005636
 31
0.0
  0
LINE
  5
1366
330
2
100
AcDbEntity
  8
0
100
AcDbLine
 10
992.0558332228974
 20
360.1653157697517
 30
0.0
 11
992.0558332228983
 21
412.01061523137
 31
0.0
  0
LINE
  5
1367
330
2
100
AcDbEntity
  8
0
100
AcDbLine
 10
991.0558332228957
 20
412.5879655005618
 30
0.0
 11
989.7558332228955
 21
412.5879655005618
 31
0.0
  0
LINE
  5
1368
330
2
100
AcDbEntity
  8
0
100
AcDbLine
 10
987.5558332228948
 20
412.387965500561
 30
0.0
 11
987.3558332228958
 21
412.5879655005618
 31
0.0
  0
LINE
  5
1369
330
2
100
AcDbEntity
  8
0
100
AcDbLine
 10
987.5558332228948
 20
412.387965500561
 30
0.0
 11
987.5558332229347
 21
359.7879655006025
 31
0.0
  0
LINE
  5
136A
330
2
100
AcDbEntity
  8
0
100
AcDbLine
 10
989.3558332228959
 20
411.8879655005629
 30
0.0
 11
987.7558332228955
 21
411.887965500561
 31
0.0
  0
LINE
  5
136B
330
2
100
AcDbEntity
  8
0
100
AcDbLine
 10
991.0558332228948
 20
412.5879655005618
 30
0.0
 11
992.0558332228956
 21
412.0106152313717
 31
0.0
  0
LINE
  5
136C
330
2
100
AcDbEntity
  8
0
100
AcDbLine
 10
970.0558332228965
 20
427.0879655005617
 30
0.0
 11
970.0558332228965
 21
417.1847396941109
 31
0.0
  0
LINE
  5
136D
330
2
100
AcDbEntity
  8
0
100
AcDbLine
 10
970.0558332228929
 20
354.9911913070143
 30
0.0
 11
970.0558332228911
 21
345.0879655005617
 31
0.0
  0
LINE
  5
136E
330
2
100
AcDbEntity
  8
0
100
AcDbLine
 10
977.5558332228966
 20
417.0312027815387
 30
0.0
 11
977.5558332228948
 21
405.1098017092325
 31
0.0
  0
LINE
  5
136F
330
2
100
AcDbEntity
  8
0
100
AcDbLine
 10
980.5558332228965
 20
417.0050221781664
 30
0.0
 11
980.5558332228965
 21
416.5879655005635
 31
0.0
  0
LINE
  5
1370
330
2
100
AcDbEntity
  8
0
100
AcDbLine
 10
980.5558332228956
 20
406.5879655005636
 30
0.0
 11
980.555833222893
 21
365.5879655005599
 31
0.0
  0
LINE
  5
1371
330
2
100
AcDbEntity
  8
0
100
AcDbLine
 10
980.555833222893
 20
355.5879655005599
 30
0.0
 11
980.555833222893
 21
355.170908822957
 31
0.0
  0
ARC
  5
1372
330
2
100
AcDbEntity
  8
0
100
AcDbCircle
 10
979.555833222893
 20
355.170908822957
 30
0.0
 40
1.0
100
AcDbArc
 50
270.4999999999915
 51
0.0
  0
LINE
  5
1373
330
2
100
AcDbEntity
  8
0
100
AcDbLine
 10
970.0558332228911
 20
345.0879655005617
 30
0.0
 11
981.5645597583971
 21
345.1884006354765
 31
0.0
  0
ARC
  5
1374
330
2
100
AcDbEntity
  8
0
100
AcDbCircle
 10
989.7558332228955
 20
412.387965500561
 30
0.0
 40
0.2
100
AcDbArc
 50
90.0
 51
180.0
  0
ARC
  5
1375
330
2
100
AcDbEntity
  8
0
100
AcDbCircle
 10
989.3558332228959
 20
412.0879655005618
 30
0.0
 40
0.2
100
AcDbArc
 50
270.0
 51
0.0
  0
ARC
  5
1376
330
2
100
AcDbEntity
  8
0
100
AcDbCircle
 10
987.7558332228955
 20
412.0879655005618
 30
0.0
 40
0.2
100
AcDbArc
 50
180.0
 51
270.0
  0
ARC
  5
1377
330
2
100
AcDbEntity
  8
0
100
AcDbCircle
 10
989.7558332228937
 20
359.7879655005606
 30
0.0
 40
0.2
100
AcDbArc
 50
180.0
 51
269.9999999999739
  0
ARC
  5
1378
330
2
100
AcDbEntity
  8
0
100
AcDbCircle
 10
989.3558332228939
 20
360.0879655005599
 30
0.0
 40
0.2
100
AcDbArc
 50
0.0
 51
89.99999999997395
  0
ARC
  5
1379
330
2
100
AcDbEntity
  8
0
100
AcDbCircle
 10
987.7558332228936
 20
360.0879655005617
 30
0.0
 40
0.2
100
AcDbArc
 50
89.99999999997395
 51
180.0
  0
LINE
  5
137A
330
2
100
AcDbEntity
  8
0
100
AcDbLine
 10
991.0558332228928
 20
359.5879655005599
 30
0.0
 11
991.0558332228957
 21
412.5879655005618
 31
0.0
  0
LINE
  5
137B
330
2
100
AcDbEntity
  8
0
100
AcDbLine
 10
987.3558332228958
 20
412.5879655005618
 30
0.0
 11
987.355833222894
 21
359.5879655005617
 31
0.0
  0
ARC
  5
137C
330
2
100
AcDbEntity
  8
0
100
AcDbCircle
 10
981.5558332228984
 20
425.9875684425812
 30
0.0
 40
1.0
100
AcDbArc
 50
0.0
 51
89.49999999998238
  0
LINE
  5
137D
330
2
100
AcDbEntity
  8
0
100
AcDbLine
 10
970.0558332228965
 20
427.0879655005617
 30
0.0
 11
981.5645597583971
 21
426.9875303656452
 31
0.0
  0
LINE
  5
137E
330
2
100
AcDbEntity
  8
0
100
AcDbLine
 10
970.0558332228965
 20
418.0879655005636
 30
0.0
 11
979.5645597583943
 21
418.0049841012303
 31
0.0
  0
ARC
  5
137F
330
2
100
AcDbEntity
  8
0
100
AcDbCircle
 10
976.5558332228966
 20
417.0312027815387
 30
0.0
 40
1.0
100
AcDbArc
 50
0.0
 51
89.50000000000846
  0
ARC
  5
1380
330
2
100
AcDbEntity
  8
0
100
AcDbCircle
 10
979.5558332228965
 20
417.0050221781664
 30
0.0
 40
1.0
100
AcDbArc
 50
0.0
 51
89.50000000000846
  0
LINE
  5
1381
330
2
100
AcDbEntity
  8
0
100
AcDbLine
 10
970.0558332228965
 20
354.0879655005599
 30
0.0
 11
979.5645597583908
 21
354.1709468998931
 31
0.0
  0
LINE
  5
1382
330
2
100
AcDbEntity
  8
0
100
AcDbLine
 10
978.0514699551467
 20
404.6098207477014
 30
0.0
 11
979.5645597583943
 21
404.5966162130324
 31
0.0
  0
ARC
  5
1383
330
2
100
AcDbEntity
  8
0
100
AcDbCircle
 10
978.0558332228947
 20
405.1098017092325
 30
0.0
 40
0.5
100
AcDbArc
 50
180.0
 51
269.4999999999824
  0
ARC
  5
1384
330
2
100
AcDbEntity
  8
0
100
AcDbCircle
 10
979.5558332228948
 20
403.5966542899685
 30
0.0
 40
1.0
100
AcDbArc
 50
0.0
 51
89.50000000000846
  0
LINE
  5
1385
330
2
100
AcDbEntity
  8
0
100
AcDbLine
 10
977.5558332228966
 20
355.1447282195848
 30
0.0
 11
977.5558332228948
 21
367.0661292918892
 31
0.0
  0
ARC
  5
1386
330
2
100
AcDbEntity
  8
0
100
AcDbCircle
 10
976.5558332228966
 20
355.1447282195848
 30
0.0
 40
1.0
100
AcDbArc
 50
270.4999999999915
 51
0.0
  0
LINE
  5
1387
330
2
100
AcDbEntity
  8
0
100
AcDbLine
 10
978.0514699551467
 20
367.566110253422
 30
0.0
 11
979.5645597583943
 21
367.5793147880911
 31
0.0
  0
ARC
  5
1388
330
2
100
AcDbEntity
  8
0
100
AcDbCircle
 10
978.0558332228947
 20
367.0661292918892
 30
0.0
 40
0.5
100
AcDbArc
 50
90.50000000001761
 51
180.0
  0
ARC
  5
1389
330
2
100
AcDbEntity
  8
0
100
AcDbCircle
 10
979.5558332228948
 20
368.579276711155
 30
0.0
 40
1.0
100
AcDbArc
 50
270.4999999999915
 51
0.0
  0
LINE
  5
138A
330
2
100
AcDbEntity
  8
0
100
AcDbLine
 10
984.6558332228951
 20
406.5879655005636
 30
0.0
 11
985.0558332228956
 21
407.2807858235909
 31
0.0
  0
LINE
  5
138B
330
2
100
AcDbEntity
  8
0
100
AcDbLine
 10
979.0558332228956
 20
406.5879655005636
 30
0.0
 11
979.0558332228956
 21
416.5879655005635
 31
0.0
  0
LINE
  5
138C
330
2
100
AcDbEntity
  8
0
100
AcDbLine
 10
984.6558332228951
 20
406.5879655005636
 30
0.0
 11
984.6558332228951
 21
416.5879655005635
 31
0.0
  0
LINE
  5
138D
330
2
100
AcDbEntity
  8
0
100
AcDbLine
 10
977.5558332228957
 20
406.5879655005636
 30
0.0
 11
984.6558332228951
 21
406.5879655005636
 31
0.0
  0
LINE
  5
138E
330
2
100
AcDbEntity
  8
0
100
AcDbLine
 10
977.5558332228957
 20
416.5879655005635
 30
0.0
 11
984.6558332228951
 21
416.5879655005635
 31
0.0
  0
LINE
  5
138F
330
2
100
AcDbEntity
  8
0
100
AcDbLine
 10
984.6558332228951
 20
416.5879655005635
 30
0.0
 11
985.0558332228956
 21
415.8951451775363
 31
0.0
  0
LINE
  5
1390
330
2
100
AcDbEntity
  8
0
100
AcDbLine
 10
985.0558332228956
 20
407.2807858235909
 30
0.0
 11
985.0558332228956
 21
415.8951451775363
 31
0.0
  0
LINE
  5
1391
330
2
100
AcDbEntity
  8
0
100
AcDbLine
 10
977.5558332228957
 20
416.5879655005635
 30
0.0
 11
977.5558332228957
 21
406.5879655005636
 31
0.0
  0
LINE
  5
1392
330
2
100
AcDbEntity
  8
0
100
AcDbLine
 10
984.6558332228951
 20
365.5879655005599
 30
0.0
 11
985.0558332228956
 21
364.8951451775327
 31
0.0
  0
LINE
  5
1393
330
2
100
AcDbEntity
  8
0
100
AcDbLine
 10
979.0558332228956
 20
365.5879655005599
 30
0.0
 11
979.0558332228956
 21
355.5879655005599
 31
0.0
  0
LINE
  5
1394
330
2
100
AcDbEntity
  8
0
100
AcDbLine
 10
984.6558332228951
 20
365.5879655005599
 30
0.0
 11
984.6558332228951
 21
355.5879655005599
 31
0.0
  0
LINE
  5
1395
330
2
100
AcDbEntity
  8
0
100
AcDbLine
 10
977.5558332228957
 20
365.5879655005599
 30
0.0
 11
984.6558332228951
 21
365.5879655005599
 31
0.0
  0
LINE
  5
1396
330
2
100
AcDbEntity
  8
0
100
AcDbLine
 10
977.5558332228957
 20
355.5879655005599
 30
0.0
 11
984.6558332228951
 21
355.5879655005599
 31
0.0
  0
LINE
  5
1397
330
2
100
AcDbEntity
  8
0
100
AcDbLine
 10
984.6558332228951
 20
355.5879655005599
 30
0.0
 11
985.0558332228956
 21
356.2807858235872
 31
0.0
  0
LINE
  5
1398
330
2
100
AcDbEntity
  8
0
100
AcDbLine
 10
985.0558332228956
 20
364.8951451775327
 30
0.0
 11
985.0558332228956
 21
356.2807858235872
 31
0.0
  0
LINE
  5
1399
330
2
100
AcDbEntity
  8
CENTER
  6
CENS
100
AcDbLine
 10
988.0558332228966
 20
411.5879655005636
 30
0.0
 11
967.055833222891
 21
411.5879655005636
 31
0.0
  0
LINE
  5
139A
330
2
100
AcDbEntity
  8
CENTER
  6
CENS
100
AcDbLine
 10
988.0558332228956
 20
360.5879655005599
 30
0.0
 11
967.0558332228901
 21
360.5879655005599
 31
0.0
  0
LINE
  5
139B
330
2
100
AcDbEntity
  8
CENTER
100
AcDbLine
 10
1004.055833222893
 20
386.0879655005618
 30
0.0
 11
871.0558332228929
 21
386.0879655005618
 31
0.0
  0
LINE
  5
139C
330
2
100
AcDbEntity
  8
0
100
AcDbLine
 10
881.0558332228929
 20
371.5880115005609
 30
0.0
 11
881.0558332228929
 21
400.5880115005628
 31
0.0
  0
LINE
  5
139D
330
2
100
AcDbEntity
  8
0
100
AcDbLine
 10
994.0558332228929
 20
371.5880115005609
 30
0.0
 11
994.0558332228929
 21
400.5880115005628
 31
0.0
  0
LINE
  5
139E
330
2
100
AcDbEntity
  8
0
100
AcDbLine
 10
992.0558332228965
 20
400.5880115005628
 30
0.0
 11
994.0558332228929
 21
400.5880115005628
 31
0.0
  0
LINE
  5
139F
330
2
100
AcDbEntity
  8
0
 48
0.5
100
AcDbLine
 10
894.0558332228929
 20
400.5880115005628
 30
0.0
 11
881.0558332228929
 21
400.5880115005628
 31
0.0
  0
LINE
  5
13A0
330
2
100
AcDbEntity
  8
0
100
AcDbLine
 10
992.0558332228983
 20
371.5880115005609
 30
0.0
 11
994.0558332228929
 21
371.5880115005609
 31
0.0
  0
LINE
  5
13A1
330
2
100
AcDbEntity
  8
0
 48
0.5
100
AcDbLine
 10
894.0558332228938
 20
371.5880115005609
 30
0.0
 11
881.0558332228929
 21
371.5880115005609
 31
0.0
  0
LINE
  5
13A2
330
2
100
AcDbEntity
  8
0
100
AcDbLine
 10
984.9445083574929
 20
416.0879655005599
 30
0.0
 11
985.0558332229002
 21
416.2807858235899
 31
0.0
  0
LINE
  5
13A3
330
2
100
AcDbEntity
  8
0
100
AcDbLine
 10
984.6558332228996
 20
415.5879655005627
 30
0.0
 11
984.6558332228996
 21
425.5879655005626
 31
0.0
  0
LINE
  5
13A4
330
2
100
AcDbEntity
  8
0
100
AcDbLine
 10
982.5558332228984
 20
425.5879655005626
 30
0.0
 11
984.6558332228996
 21
425.5879655005626
 31
0.0
  0
LINE
  5
13A5
330
2
100
AcDbEntity
  8
0
100
AcDbLine
 10
984.6558332228996
 20
425.5879655005626
 30
0.0
 11
985.0558332229002
 21
424.8951451775353
 31
0.0
  0
LINE
  5
13A6
330
2
100
AcDbEntity
  8
0
100
AcDbLine
 10
985.0558332229002
 20
416.2807858235899
 30
0.0
 11
985.0558332229002
 21
424.8951451775353
 31
0.0
  0
LINE
  5
13A7
330
2
100
AcDbEntity
  8
0
100
AcDbLine
 10
984.9445083574929
 20
356.0879655005654
 30
0.0
 11
985.0558332229002
 21
355.8951451775354
 31
0.0
  0
LINE
  5
13A8
330
2
100
AcDbEntity
  8
0
100
AcDbLine
 10
984.6558332228996
 20
356.5879655005626
 30
0.0
 11
984.6558332228996
 21
346.5879655005626
 31
0.0
  0
LINE
  5
13A9
330
2
100
AcDbEntity
  8
0
100
AcDbLine
 10
982.5558332228984
 20
346.5879655005626
 30
0.0
 11
984.6558332228996
 21
346.5879655005626
 31
0.0
  0
LINE
  5
13AA
330
2
100
AcDbEntity
  8
0
100
AcDbLine
 10
984.6558332228996
 20
346.5879655005626
 30
0.0
 11
985.0558332229002
 21
347.2807858235899
 31
0.0
  0
LINE
  5
13AB
330
2
100
AcDbEntity
  8
0
100
AcDbLine
 10
985.0558332229002
 20
355.8951451775354
 30
0.0
 11
985.0558332229002
 21
347.2807858235899
 31
0.0
  0
LINE
  5
13AC
330
2
100
AcDbEntity
  8
CENTER
  6
CENS
100
AcDbLine
 10
989.634501132995
 20
420.5879655005626
 30
0.0
 11
965.0716474566134
 21
420.5879655005626
 31
0.0
  0
LINE
  5
13AD
330
2
100
AcDbEntity
  8
CENTER
  6
CENS
100
AcDbLine
 10
989.6345011329959
 20
351.5879655005627
 30
0.0
 11
965.0716474566143
 21
351.5879655005627
 31
0.0
  0
LINE
  5
13AF
330
2
100
AcDbEntity
  8
0
100
AcDbLine
 10
915.1285977852991
 20
361.0734211112183
 30
0.0
 11
915.0558332228943
 21
386.0879655005581
 31
0.0
  0
LINE
  5
13B0
330
2
100
AcDbEntity
  8
0
100
AcDbLine
 10
974.9830686604896
 20
361.0734211112183
 30
0.0
 11
975.0558332228942
 21
386.0879655005581
 31
0.0
  0
LINE
  5
13B1
330
2
100
AcDbEntity
  8
0
100
AcDbLine
 10
976.1034399841173
 20
358.0395846964036
 30
0.0
 11
976.5558332228925
 21
386.0879655005618
 31
0.0
  0
LINE
  5
13B2
330
2
100
AcDbEntity
  8
0
100
AcDbLine
 10
914.0082264616703
 20
358.0395846964036
 30
0.0
 11
913.5558332228951
 21
386.0879655005618
 31
0.0
  0
CIRCLE
  5
13B3
330
2
100
AcDbEntity
  8
0
100
AcDbCircle
 10
945.0558332228938
 20
386.0879655005581
 30
0.0
 40
25.00000000345432
  0
LINE
  5
13B4
330
2
100
AcDbEntity
  8
0
100
AcDbLine
 10
920.1285766313281
 20
356.0879655005581
 30
0.0
 11
969.9830898144606
 21
356.0879655005581
 31
0.0
  0
LINE
  5
13B5
330
2
100
AcDbEntity
  8
0
100
AcDbLine
 10
917.007836319267
 20
355.0879655005581
 30
0.0
 11
973.1038301265208
 21
355.0879655005581
 31
0.0
  0
ARC
  5
13B6
330
2
100
AcDbEntity
  8
0
100
AcDbCircle
 10
920.1285766313281
 20
361.0879655005581
 30
0.0
 40
5.0
100
AcDbArc
 50
180.166666660018
 51
270.0
  0
ARC
  5
13B7
330
2
100
AcDbEntity
  8
0
100
AcDbCircle
 10
917.007836319267
 20
358.0879655005581
 30
0.0
 40
3.0
100
AcDbArc
 50
180.9240453527669
 51
270.0
  0
ARC
  5
13B8
330
2
100
AcDbEntity
  8
0
100
AcDbCircle
 10
969.9830898144606
 20
361.0879655005581
 30
0.0
 40
5.0
100
AcDbArc
 50
270.0
 51
359.833333340008
  0
ARC
  5
13B9
330
2
100
AcDbEntity
  8
0
100
AcDbCircle
 10
973.1038301265208
 20
358.0879655005581
 30
0.0
 40
3.0
100
AcDbArc
 50
270.0
 51
359.0759546472331
  0
LINE
  5
13BA
330
2
100
AcDbEntity
  8
HIDS
100
AcDbLine
 10
965.0901340869754
 20
358.0530606876844
 30
0.0
 11
965.1692626231611
 21
362.586331489644
 31
0.0
  0
ARC
  5
13BB
330
2
100
AcDbEntity
  8
HIDS
100
AcDbCircle
 10
963.0904386966626
 20
358.0879655005581
 30
0.0
 40
2.0
100
AcDbArc
 50
270.0
 51
358.9999999999721
  0
ARC
  5
13BC
330
2
100
AcDbEntity
  8
HIDS
100
AcDbCircle
 10
968.1688057086303
 20
362.5339742703316
 30
0.0
 40
3.0
100
AcDbArc
 50
134.4585514346996
 51
178.9999999999982
  0
LINE
  5
13BD
330
2
100
AcDbEntity
  8
0
100
AcDbLine
 10
920.1285766313281
 20
416.0879655005581
 30
0.0
 11
969.9830898144606
 21
416.0879655005581
 31
0.0
  0
LINE
  5
13BE
330
2
100
AcDbEntity
  8
0
100
AcDbLine
 10
917.007836319267
 20
417.0879655005581
 30
0.0
 11
925.6828498766877
 21
417.0879655005581
 31
0.0
  0
LINE
  5
13BF
330
2
100
AcDbEntity
  8
0
100
AcDbLine
 10
943.4288165691041
 20
417.0879655005581
 30
0.0
 11
973.1038301265208
 21
417.0879655005581
 31
0.0
  0
LINE
  5
13C0
330
2
100
AcDbEntity
  8
0
100
AcDbLine
 10
915.1285977852991
 20
411.1025098898979
 30
0.0
 11
915.0558332228943
 21
386.0879655005581
 31
0.0
  0
LINE
  5
13C1
330
2
100
AcDbEntity
  8
0
100
AcDbLine
 10
914.0082264616703
 20
414.1363463047134
 30
0.0
 11
913.5558332228951
 21
386.0879655005618
 31
0.0
  0
LINE
  5
13C2
330
2
100
AcDbEntity
  8
HIDS
100
AcDbLine
 10
928.8058332228947
 20
416.0879655005581
 30
0.0
 11
929.0534013415713
 21
401.9047974805624
 31
0.0
  0
LINE
  5
13C3
330
2
100
AcDbEntity
  8
0
100
AcDbLine
 10
913.5558332228939
 20
386.0879655005581
 30
0.0
 11
915.0558332228937
 21
386.0879655005181
 31
0.0
  0
ARC
  5
13C4
330
2
100
AcDbEntity
  8
0
100
AcDbCircle
 10
920.1285766313281
 20
411.0879655005581
 30
0.0
 40
5.0
100
AcDbArc
 50
90.0
 51
179.8333333399819
  0
ARC
  5
13C5
330
2
100
AcDbEntity
  8
0
100
AcDbCircle
 10
917.007836319267
 20
414.0879655005581
 30
0.0
 40
3.0
100
AcDbArc
 50
90.0
 51
179.075954647233
  0
LINE
  5
13C6
330
2
100
AcDbEntity
  8
HIDS
100
AcDbLine
 10
940.3058332228939
 20
416.0879655005581
 30
0.0
 11
940.1655315990488
 21
408.0500908537185
 31
0.0
  0
LINE
  5
13C7
330
2
100
AcDbEntity
  8
0
100
AcDbLine
 10
974.9830686604896
 20
411.1025098898988
 30
0.0
 11
975.0558332228942
 21
386.0879655005581
 31
0.0
  0
LINE
  5
13C8
330
2
100
AcDbEntity
  8
0
100
AcDbLine
 10
976.1034399841173
 20
414.1363463047134
 30
0.0
 11
976.5558332228925
 21
386.0879655005618
 31
0.0
  0
LINE
  5
13C9
330
2
100
AcDbEntity
  8
0
100
AcDbLine
 10
975.0558332228939
 20
386.0879655005454
 30
0.0
 11
976.5558332228938
 21
386.0879655005581
 31
0.0
  0
ARC
  5
13CA
330
2
100
AcDbEntity
  8
0
100
AcDbCircle
 10
969.9830898144606
 20
411.0879655005581
 30
0.0
 40
5.0
100
AcDbArc
 50
0.1666666599919691
 51
90.0
  0
ARC
  5
13CB
330
2
100
AcDbEntity
  8
0
100
AcDbCircle
 10
973.1038301265208
 20
414.0879655005581
 30
0.0
 40
3.0
100
AcDbArc
 50
0.9240453527669025
 51
90.0
  0
LINE
  5
13CC
330
2
100
AcDbEntity
  8
CENTER
100
AcDbLine
 10
920.3070958813645
 20
414.3367028420878
 30
0.0
 11
920.3070958813645
 21
407.3367028420878
 31
0.0
  0
LINE
  5
13CD
330
2
100
AcDbEntity
  8
CENTER
100
AcDbLine
 10
923.8070958813645
 20
410.8367028420878
 30
0.0
 11
916.8070958813645
 21
410.8367028420878
 31
0.0
  0
LINE
  5
13CE
330
2
100
AcDbEntity
  8
CENTER
100
AcDbLine
 10
916.807095881365
 20
361.3392281590293
 30
0.0
 11
923.8070958813651
 21
361.3392281590293
 31
0.0
  0
LINE
  5
13CF
330
2
100
AcDbEntity
  8
CENTER
100
AcDbLine
 10
920.3070958813651
 20
364.8392281590293
 30
0.0
 11
920.3070958813651
 21
357.8392281590293
 31
0.0
  0
LINE
  5
13D0
330
2
100
AcDbEntity
  8
CENTER
100
AcDbLine
 10
969.8045705644231
 20
357.8392281590302
 30
0.0
 11
969.8045705644231
 21
364.8392281590302
 31
0.0
  0
LINE
  5
13D1
330
2
100
AcDbEntity
  8
CENTER
100
AcDbLine
 10
966.3045705644231
 20
361.3392281590302
 30
0.0
 11
973.3045705644231
 21
361.3392281590302
 31
0.0
  0
LINE
  5
13D2
330
2
100
AcDbEntity
  8
CENTER
100
AcDbLine
 10
973.3045705644231
 20
410.8367028420878
 30
0.0
 11
966.3045705644231
 21
410.8367028420878
 31
0.0
  0
LINE
  5
13D3
330
2
100
AcDbEntity
  8
CENTER
100
AcDbLine
 10
969.8045705644231
 20
407.3367028420878
 30
0.0
 11
969.8045705644231
 21
414.3367028420878
 31
0.0
  0
LINE
  5
13D4
330
2
100
AcDbEntity
  8
0
100
AcDbLine
 10
710.2867857627443
 20
660.6308955540186
 30
0.0
 11
710.2867857627434
 21
613.8908955540189
 31
0.0
  0
LINE
  5
13D5
330
2
100
AcDbEntity
  8
0
100
AcDbLine
 10
735.2867857627434
 20
640.2608955540179
 30
0.0
 11
735.2867857627434
 21
663.2608955540178
 31
0.0
  0
ARC
  5
13D6
330
2
100
AcDbEntity
  8
0
100
AcDbCircle
 10
739.2867857627434
 20
663.2608955540178
 30
0.0
 40
4.0
100
AcDbArc
 50
90.0
 51
180.0
  0
LINE
  5
13D7
330
2
100
AcDbEntity
  8
0
100
AcDbLine
 10
745.2867857627434
 20
667.2608955540178
 30
0.0
 11
714.7924804949716
 21
667.2608955540178
 31
0.0
  0
LINE
  5
13D8
330
2
100
AcDbEntity
  8
0
100
AcDbLine
 10
709.2867857627443
 20
668.2608955540179
 30
0.0
 11
702.2867857627434
 21
668.2608955540179
 31
0.0
  0
ARC
  5
13D9
330
2
100
AcDbEntity
  8
0
100
AcDbCircle
 10
711.9325370738088
 20
670.2608955540179
 30
0.0
 40
3.0
100
AcDbArc
 50
228.5903778907302
 51
241.2428429585923
  0
ARC
  5
13DA
330
2
100
AcDbEntity
  8
0
100
AcDbCircle
 10
709.2867857627443
 20
667.2608955540178
 30
0.0
 40
1.0
100
AcDbArc
 50
21.71561728325768
 51
90.0
  0
ARC
  5
13DB
330
2
100
AcDbEntity
  8
0
100
AcDbCircle
 10
739.2867857627434
 20
611.2608955540179
 30
0.0
 40
4.0
100
AcDbArc
 50
180.0
 51
270.0
  0
ARC
  5
13DC
330
2
100
AcDbEntity
  8
0
100
AcDbCircle
 10
732.2867857627434
 20
614.2608955540179
 30
0.0
 40
3.0
100
AcDbArc
 50
0.0
 51
90.0
  0
ARC
  5
13DD
330
2
100
AcDbEntity
  8
0
100
AcDbCircle
 10
732.2867857627434
 20
640.2608955540179
 30
0.0
 40
3.0
100
AcDbArc
 50
270.0
 51
0.0
  0
LINE
  5
13DE
330
2
100
AcDbEntity
  8
0
100
AcDbLine
 10
721.2867857627434
 20
620.2608955540179
 30
0.0
 11
721.2867857627434
 21
634.2608955540178
 31
0.0
  0
LINE
  5
13DF
330
2
100
AcDbEntity
  8
0
100
AcDbLine
 10
732.2867857627434
 20
637.2608955540179
 30
0.0
 11
724.2867857627434
 21
637.2608955540179
 31
0.0
  0
ARC
  5
13E0
330
2
100
AcDbEntity
  8
0
100
AcDbCircle
 10
724.2867857627434
 20
634.2608955540178
 30
0.0
 40
3.0
100
AcDbArc
 50
90.0
 51
180.0
  0
LINE
  5
13E1
330
2
100
AcDbEntity
  8
0
100
AcDbLine
 10
732.2867857627434
 20
617.2608955540178
 30
0.0
 11
724.2867857627434
 21
617.2608955540178
 31
0.0
  0
LINE
  5
13E2
330
2
100
AcDbEntity
  8
0
100
AcDbLine
 10
735.2867857627434
 20
611.2608955540179
 30
0.0
 11
735.2867857627434
 21
614.2608955540179
 31
0.0
  0
ARC
  5
13E3
330
2
100
AcDbEntity
  8
0
100
AcDbCircle
 10
724.2867857627434
 20
620.2608955540179
 30
0.0
 40
3.0
100
AcDbArc
 50
180.0
 51
270.0
  0
LINE
  5
13E4
330
2
100
AcDbEntity
  8
0
100
AcDbLine
 10
745.2867857627434
 20
607.2608955540179
 30
0.0
 11
714.792480494972
 21
607.2608955540179
 31
0.0
  0
LINE
  5
13E5
330
2
100
AcDbEntity
  8
0
100
AcDbLine
 10
709.2867857627433
 20
606.2608955540179
 30
0.0
 11
702.2867857627434
 21
606.2608955540179
 31
0.0
  0
ARC
  5
13E6
330
2
100
AcDbEntity
  8
0
100
AcDbCircle
 10
711.9325370738079
 20
604.2608955540178
 30
0.0
 40
3.0
100
AcDbArc
 50
118.7571570414074
 51
131.4096221092842
  0
ARC
  5
13E7
330
2
100
AcDbEntity
  8
0
100
AcDbCircle
 10
709.2867857627433
 20
607.2608955540179
 30
0.0
 40
1.0
100
AcDbArc
 50
270.0
 51
338.2843827167423
  0
LINE
  5
13E8
330
2
100
AcDbEntity
  8
0
100
AcDbLine
 10
745.2867857627434
 20
607.2608955540179
 30
0.0
 11
745.2867857627434
 21
667.2608955540178
 31
0.0
  0
CIRCLE
  5
13E9
330
2
100
AcDbEntity
  8
CENTER
100
AcDbCircle
 10
945.0558332228938
 20
386.0879655005581
 30
0.0
 40
35.00000000000006
  0
LINE
  5
13EA
330
2
100
AcDbEntity
  8
0
100
AcDbLine
 10
735.6919147109334
 20
409.2977872246736
 30
0.0
 11
735.7418359854505
 21
412.1577751263119
 31
0.0
  0
LINE
  5
13EB
330
2
100
AcDbEntity
  8
0
100
AcDbLine
 10
710.1581503873294
 20
393.4574813959077
 30
0.0
 11
709.7628291850314
 21
416.1054179070013
 31
0.0
  0
LINE
  5
13EC
330
2
100
AcDbEntity
  8
0
100
AcDbLine
 10
702.2867857657665
 20
386.0879655005626
 30
0.0
 11
702.746825118953
 21
386.0879655005627
 31
0.0
  0
ARC
  5
13ED
330
2
100
AcDbEntity
  8
0
100
AcDbCircle
 10
718.2032211410687
 20
411.3267319613367
 30
0.0
 40
3.0
100
AcDbArc
 50
270.000000000013
 51
359.0000000000242
  0
LINE
  5
13EE
330
2
100
AcDbEntity
  8
0
100
AcDbLine
 10
732.6745078941312
 20
408.3267319613376
 30
0.0
 11
718.2032211410687
 21
408.3267319613376
 31
0.0
  0
LINE
  5
13EF
330
2
100
AcDbEntity
  8
0
100
AcDbLine
 10
714.7924804979948
 20
356.0879655005626
 30
0.0
 11
745.2867857657666
 21
356.0879655005626
 31
0.0
  0
LINE
  5
13F0
330
2
100
AcDbEntity
  8
0
100
AcDbLine
 10
735.2867857657665
 20
386.0879655005626
 30
0.0
 11
735.7418359854509
 21
360.0181558748134
 31
0.0
  0
ARC
  5
13F1
330
2
100
AcDbEntity
  8
0
100
AcDbCircle
 10
739.7412267660761
 20
360.0879655005627
 30
0.0
 40
4.0
100
AcDbArc
 50
181.0000000000017
 51
270.0
  0
ARC
  5
13F2
330
2
100
AcDbEntity
  8
0
100
AcDbCircle
 10
723.2521802919973
 20
414.0879655005626
 30
0.0
 40
2.0
100
AcDbArc
 50
90.0
 51
179.0000000000242
  0
LINE
  5
13F3
330
2
100
AcDbEntity
  8
0
100
AcDbLine
 10
721.2524849016849
 20
414.1228703134382
 30
0.0
 11
721.2027642265383
 21
411.2743747420261
 31
0.0
  0
LINE
  5
13F4
330
2
100
AcDbEntity
  8
0
100
AcDbLine
 10
710.2867857657748
 20
386.0879655005626
 30
0.0
 11
709.7628291850323
 21
356.0705130941258
 31
0.0
  0
ARC
  5
13F5
330
2
100
AcDbEntity
  8
0
100
AcDbCircle
 10
711.40873280094
 20
353.0879655005627
 30
0.0
 40
3.0
100
AcDbArc
 50
118.7571570414074
 51
131.4096221092698
  0
ARC
  5
13F6
330
2
100
AcDbEntity
  8
0
100
AcDbCircle
 10
708.7629814898759
 20
356.0879655005626
 30
0.0
 40
1.0
100
AcDbArc
 50
270.0
 51
358.9999999999721
  0
LINE
  5
13F7
330
2
100
AcDbEntity
  8
0
100
AcDbLine
 10
702.2867857657665
 20
355.0879655005626
 30
0.0
 11
708.7629814898759
 21
355.0879655005626
 31
0.0
  0
LINE
  5
13F8
330
2
100
AcDbEntity
  8
0
100
AcDbLine
 10
714.7924804979948
 20
416.0879655005627
 30
0.0
 11
745.2867857657666
 21
416.0879655005627
 31
0.0
  0
LINE
  5
13F9
330
2
100
AcDbEntity
  8
CENTER
  6
CENS
100
AcDbLine
 10
731.2867857657665
 20
425.0879655005663
 30
0.0
 11
731.2867857657665
 21
402.6055557828165
 31
0.0
  0
ARC
  5
13FA
330
2
100
AcDbEntity
  8
0
100
AcDbCircle
 10
739.7412267660756
 20
412.0879655005627
 30
0.0
 40
4.0
100
AcDbArc
 50
90.0
 51
178.9999999999982
  0
ARC
  5
13FB
330
2
100
AcDbEntity
  8
0
100
AcDbCircle
 10
711.408732800939
 20
419.0879655005627
 30
0.0
 40
3.0
100
AcDbArc
 50
228.5903778907442
 51
241.2428429585923
  0
ARC
  5
13FC
330
2
100
AcDbEntity
  8
0
100
AcDbCircle
 10
708.7629814898746
 20
416.0879655005627
 30
0.0
 40
1.0
100
AcDbArc
 50
1.000000000001775
 51
90.0
  0
LINE
  5
13FD
330
2
100
AcDbEntity
  8
0
100
AcDbLine
 10
702.2867857657665
 20
417.0879655005626
 30
0.0
 11
708.7629814898746
 21
417.0879655005626
 31
0.0
  0
LINE
  5
13FE
330
2
100
AcDbEntity
  8
0
100
AcDbLine
 10
745.2867857657666
 20
416.0879655005627
 30
0.0
 11
745.2867857657666
 21
356.0879655005626
 31
0.0
  0
LINE
  5
13FF
330
2
100
AcDbEntity
  8
0
100
AcDbLine
 10
710.878860898395
 20
416.4579655005635
 30
0.0
 11
709.878860898395
 21
416.4579655005635
 31
0.0
  0
LINE
  5
1400
330
2
100
AcDbEntity
  8
0
100
AcDbLine
 10
709.878860898395
 20
416.4579655005635
 30
0.0
 11
709.878860898395
 21
409.4579655005635
 31
0.0
  0
LINE
  5
1401
330
2
100
AcDbEntity
  8
0
100
AcDbLine
 10
709.878860898395
 20
409.4579655005635
 30
0.0
 11
710.878860898395
 21
409.4579655005635
 31
0.0
  0
LINE
  5
1402
330
2
100
AcDbEntity
  8
0
100
AcDbLine
 10
710.878860898395
 20
409.4579655005635
 30
0.0
 11
710.878860898395
 21
416.4579655005635
 31
0.0
  0
LINE
  5
1403
330
2
100
AcDbEntity
  8
0
100
AcDbLine
 10
714.878860898395
 20
415.938350258293
 30
0.0
 11
714.878860898395
 21
409.9775807428339
 31
0.0
  0
LINE
  5
1404
330
2
100
AcDbEntity
  8
0
100
AcDbLine
 10
714.5788608983949
 20
409.4579655005635
 30
0.0
 11
714.5788608983949
 21
416.4579655005635
 31
0.0
  0
LINE
  5
1405
330
2
100
AcDbEntity
  8
0
100
AcDbLine
 10
714.5788608983949
 20
409.4579655005635
 30
0.0
 11
710.878860898395
 21
409.4579655005635
 31
0.0
  0
LINE
  5
1406
330
2
100
AcDbEntity
  8
0
100
AcDbLine
 10
714.5788608983949
 20
409.4579655005635
 30
0.0
 11
714.878860898395
 21
409.9775807428339
 31
0.0
  0
LINE
  5
1407
330
2
100
AcDbEntity
  8
0
100
AcDbLine
 10
714.878860898395
 20
415.938350258293
 30
0.0
 11
714.5788608983949
 21
416.4579655005635
 31
0.0
  0
LINE
  5
1408
330
2
100
AcDbEntity
  8
0
100
AcDbLine
 10
710.878860898395
 20
416.4579655005635
 30
0.0
 11
714.5788608983949
 21
416.4579655005635
 31
0.0
  0
LINE
  5
1409
330
2
100
AcDbEntity
  8
CENTER
  6
CENS
100
AcDbLine
 10
719.8177681711449
 20
412.9579655005635
 30
0.0
 11
696.8178110815224
 21
412.9579655005635
 31
0.0
  0
LINE
  5
140A
330
2
100
AcDbEntity
  8
CENTER
  6
CENS
100
AcDbLine
 10
719.8177681711449
 20
359.2179655005628
 30
0.0
 11
696.8178110815224
 21
359.2179655005628
 31
0.0
  0
LINE
  5
140B
330
2
100
AcDbEntity
  8
CENTER
  6
CENS
100
AcDbLine
 10
719.8177681681218
 20
610.3908955540189
 30
0.0
 11
696.8178110784992
 21
610.3908955540189
 31
0.0
  0
LINE
  5
140C
330
2
100
AcDbEntity
  8
0
100
AcDbLine
 10
710.8788608953719
 20
606.8908955540189
 30
0.0
 11
709.8788608953718
 21
606.8908955540189
 31
0.0
  0
LINE
  5
140D
330
2
100
AcDbEntity
  8
0
100
AcDbLine
 10
709.8788608953718
 20
613.8908955540189
 30
0.0
 11
710.8788608953719
 21
613.8908955540189
 31
0.0
  0
LINE
  5
140E
330
2
100
AcDbEntity
  8
0
100
AcDbLine
 10
710.8788608953719
 20
613.8908955540189
 30
0.0
 11
710.8788608953719
 21
606.8908955540189
 31
0.0
  0
LINE
  5
140F
330
2
100
AcDbEntity
  8
0
100
AcDbLine
 10
714.8788608953719
 20
607.4105107962894
 30
0.0
 11
714.8788608953719
 21
613.3712803117484
 31
0.0
  0
LINE
  5
1410
330
2
100
AcDbEntity
  8
0
100
AcDbLine
 10
714.5788608953717
 20
613.8908955540189
 30
0.0
 11
714.5788608953717
 21
606.8908955540189
 31
0.0
  0
LINE
  5
1411
330
2
100
AcDbEntity
  8
0
100
AcDbLine
 10
714.5788608953717
 20
613.8908955540189
 30
0.0
 11
710.8788608953719
 21
613.8908955540189
 31
0.0
  0
LINE
  5
1412
330
2
100
AcDbEntity
  8
0
100
AcDbLine
 10
714.5788608953717
 20
613.8908955540189
 30
0.0
 11
714.8788608953719
 21
613.3712803117484
 31
0.0
  0
LINE
  5
1413
330
2
100
AcDbEntity
  8
0
100
AcDbLine
 10
714.8788608953719
 20
607.4105107962894
 30
0.0
 11
714.5788608953717
 21
606.8908955540189
 31
0.0
  0
LINE
  5
1414
330
2
100
AcDbEntity
  8
0
100
AcDbLine
 10
710.8788608953719
 20
606.8908955540189
 30
0.0
 11
714.5788608953717
 21
606.8908955540189
 31
0.0
  0
LINE
  5
1415
330
2
100
AcDbEntity
  8
0
100
AcDbLine
 10
709.8788608953718
 20
606.8908955540189
 30
0.0
 11
709.8788608953718
 21
613.8908955540189
 31
0.0
  0
LINE
  5
1416
330
2
100
AcDbEntity
  8
0
100
AcDbLine
 10
709.8788608953718
 20
613.8908955540189
 30
0.0
 11
709.8788608953718
 21
606.8908955540189
 31
0.0
  0
LINE
  5
1417
330
2
100
AcDbEntity
  8
CENTER
  6
CENS
100
AcDbLine
 10
719.8177681681218
 20
664.1308955540186
 30
0.0
 11
696.8178110784992
 21
664.1308955540186
 31
0.0
  0
LINE
  5
1418
330
2
100
AcDbEntity
  8
0
100
AcDbLine
 10
710.8788608953719
 20
667.6308955540187
 30
0.0
 11
709.8788608953718
 21
667.6308955540187
 31
0.0
  0
LINE
  5
1419
330
2
100
AcDbEntity
  8
0
100
AcDbLine
 10
709.8788608953718
 20
660.6308955540186
 30
0.0
 11
710.8788608953719
 21
660.6308955540186
 31
0.0
  0
LINE
  5
141A
330
2
100
AcDbEntity
  8
0
100
AcDbLine
 10
710.8788608953719
 20
660.6308955540186
 30
0.0
 11
710.8788608953719
 21
667.6308955540187
 31
0.0
  0
LINE
  5
141B
330
2
100
AcDbEntity
  8
0
100
AcDbLine
 10
714.8788608953719
 20
667.1112803117482
 30
0.0
 11
714.8788608953719
 21
661.1505107962891
 31
0.0
  0
LINE
  5
141C
330
2
100
AcDbEntity
  8
0
100
AcDbLine
 10
714.5788608953717
 20
660.6308955540186
 30
0.0
 11
714.5788608953717
 21
667.6308955540187
 31
0.0
  0
LINE
  5
141D
330
2
100
AcDbEntity
  8
0
100
AcDbLine
 10
714.5788608953717
 20
660.6308955540186
 30
0.0
 11
710.8788608953719
 21
660.6308955540186
 31
0.0
  0
LINE
  5
141E
330
2
100
AcDbEntity
  8
0
100
AcDbLine
 10
714.5788608953717
 20
660.6308955540186
 30
0.0
 11
714.8788608953719
 21
661.1505107962891
 31
0.0
  0
LINE
  5
141F
330
2
100
AcDbEntity
  8
0
100
AcDbLine
 10
714.8788608953719
 20
667.1112803117482
 30
0.0
 11
714.5788608953717
 21
667.6308955540187
 31
0.0
  0
LINE
  5
1420
330
2
100
AcDbEntity
  8
0
100
AcDbLine
 10
710.8788608953719
 20
667.6308955540187
 30
0.0
 11
714.5788608953717
 21
667.6308955540187
 31
0.0
  0
LINE
  5
1421
330
2
100
AcDbEntity
  8
0
100
AcDbLine
 10
709.8788608953718
 20
667.6308955540187
 30
0.0
 11
709.8788608953718
 21
660.6308955540186
 31
0.0
  0
LINE
  5
1422
330
2
100
AcDbEntity
  8
0
100
AcDbLine
 10
709.8788608953718
 20
660.6308955540186
 30
0.0
 11
709.8788608953718
 21
667.6308955540187
 31
0.0
  0
LINE
  5
1423
330
2
100
AcDbEntity
  8
0
100
AcDbLine
 10
710.878860898395
 20
355.7179655005636
 30
0.0
 11
709.878860898395
 21
355.7179655005636
 31
0.0
  0
LINE
  5
1424
330
2
100
AcDbEntity
  8
0
100
AcDbLine
 10
709.878860898395
 20
355.7179655005636
 30
0.0
 11
709.878860898395
 21
362.7179655005637
 31
0.0
  0
LINE
  5
1425
330
2
100
AcDbEntity
  8
0
100
AcDbLine
 10
709.878860898395
 20
362.7179655005637
 30
0.0
 11
710.878860898395
 21
362.7179655005637
 31
0.0
  0
LINE
  5
1426
330
2
100
AcDbEntity
  8
0
100
AcDbLine
 10
710.878860898395
 20
362.7179655005637
 30
0.0
 11
710.878860898395
 21
355.7179655005636
 31
0.0
  0
LINE
  5
1427
330
2
100
AcDbEntity
  8
0
100
AcDbLine
 10
714.878860898395
 20
356.2375807428341
 30
0.0
 11
714.878860898395
 21
362.1983502582932
 31
0.0
  0
LINE
  5
1428
330
2
100
AcDbEntity
  8
0
100
AcDbLine
 10
714.5788608983949
 20
362.7179655005637
 30
0.0
 11
714.5788608983949
 21
355.7179655005636
 31
0.0
  0
LINE
  5
1429
330
2
100
AcDbEntity
  8
0
100
AcDbLine
 10
714.5788608983949
 20
362.7179655005637
 30
0.0
 11
710.878860898395
 21
362.7179655005637
 31
0.0
  0
LINE
  5
142A
330
2
100
AcDbEntity
  8
0
100
AcDbLine
 10
714.5788608983949
 20
362.7179655005637
 30
0.0
 11
714.878860898395
 21
362.1983502582932
 31
0.0
  0
LINE
  5
142B
330
2
100
AcDbEntity
  8
0
100
AcDbLine
 10
714.878860898395
 20
356.2375807428341
 30
0.0
 11
714.5788608983949
 21
355.7179655005636
 31
0.0
  0
LINE
  5
142C
330
2
100
AcDbEntity
  8
0
100
AcDbLine
 10
710.878860898395
 20
355.7179655005636
 30
0.0
 11
714.5788608983949
 21
355.7179655005636
 31
0.0
  0
LINE
  5
142D
330
2
100
AcDbEntity
  8
0
100
AcDbLine
 10
735.7867751567164
 20
391.5879655005636
 30
0.0
 11
725.7867751567155
 21
391.5879655005636
 31
0.0
  0
LINE
  5
142E
330
2
100
AcDbEntity
  8
0
100
AcDbLine
 10
735.786775156716
 20
391.5879655005626
 30
0.0
 11
735.786775156716
 21
386.0879655005626
 31
0.0
  0
LINE
  5
142F
330
2
100
AcDbEntity
  8
0
100
AcDbLine
 10
737.7867751567159
 20
392.7426660389426
 30
0.0
 11
735.786775156716
 21
391.5879655005626
 31
0.0
  0
LINE
  5
1430
330
2
100
AcDbEntity
  8
0
100
AcDbLine
 10
708.7867751567164
 20
391.8379655005626
 30
0.0
 11
708.7867751567164
 21
386.0879655005626
 31
0.0
  0
LINE
  5
1431
330
2
100
AcDbEntity
  8
0
100
AcDbLine
 10
735.786775156716
 20
391.5879655005626
 30
0.0
 11
725.7867751567159
 21
391.5879655005626
 31
0.0
  0
LINE
  5
1432
330
2
100
AcDbEntity
  8
0
100
AcDbLine
 10
730.6989893353893
 20
400.8379655005627
 30
0.0
 11
737.7867751567159
 21
400.8379655005627
 31
0.0
  0
LINE
  5
1433
330
2
100
AcDbEntity
  8
0
100
AcDbLine
 10
737.7867751567159
 20
400.8379655005627
 30
0.0
 11
737.7867751567159
 21
386.0879655005626
 31
0.0
  0
LINE
  5
1434
330
2
100
AcDbEntity
  8
0
100
AcDbLine
 10
723.786775156716
 20
396.3726466872866
 30
0.0
 11
723.786775156716
 21
386.0879655005626
 31
0.0
  0
LINE
  5
1435
330
2
100
AcDbEntity
  8
0
100
AcDbLine
 10
725.7867751567159
 20
396.8980468347179
 30
0.0
 11
725.7867751567159
 21
386.0879655005626
 31
0.0
  0
LINE
  5
1436
330
2
100
AcDbEntity
  8
0
100
AcDbLine
 10
716.7867751567164
 20
391.8379655005626
 30
0.0
 11
708.7867751567164
 21
391.8379655005626
 31
0.0
  0
LINE
  5
1437
330
2
100
AcDbEntity
  8
0
100
AcDbLine
 10
716.7867751567164
 20
386.0879655005626
 30
0.0
 11
716.7867751567164
 21
391.8379655005626
 31
0.0
  0
LINE
  5
1438
330
2
100
AcDbEntity
  8
0
100
AcDbLine
 10
723.786775156716
 20
391.5879655005626
 30
0.0
 11
716.7867751567164
 21
391.5879655005626
 31
0.0
  0
LINE
  5
1439
330
2
100
AcDbEntity
  8
0
100
AcDbLine
 10
705.9000238107683
 20
386.0879655005626
 30
0.0
 11
708.7867751567164
 21
391.0879655005627
 31
0.0
  0
LINE
  5
143A
330
2
100
AcDbEntity
  8
0
100
AcDbLine
 10
738.2867857657665
 20
411.0879655005627
 30
0.0
 11
738.286785765767
 21
386.0879655005626
 31
0.0
  0
LINE
  5
143B
330
2
100
AcDbEntity
  8
0
100
AcDbLine
 10
745.2867857657666
 20
411.0879655005627
 30
0.0
 11
738.2867857657665
 21
411.0879655005627
 31
0.0
  0
LINE
  5
143D
330
2
100
AcDbEntity
  8
0
100
AcDbLine
 10
930.3249133602399
 20
385.3379655005618
 30
0.0
 11
934.5558332228961
 21
385.3379655005618
 31
0.0
  0
LINE
  5
143E
330
2
100
AcDbEntity
  8
0
100
AcDbLine
 10
930.3249133602399
 20
386.8379655005617
 30
0.0
 11
934.5558332228961
 21
386.8379655005617
 31
0.0
  0
LINE
  5
143F
330
2
100
AcDbEntity
  8
0
100
AcDbLine
 10
959.0558332228962
 20
386.8379655005617
 30
0.0
 11
959.0558332228962
 21
385.3379655005618
 31
0.0
  0
LINE
  5
1440
330
2
100
AcDbEntity
  8
0
100
AcDbLine
 10
950.5044569023194
 20
386.8379655005617
 30
0.0
 11
959.0558332228962
 21
386.8379655005617
 31
0.0
  0
LINE
  5
1441
330
2
100
AcDbEntity
  8
0
100
AcDbLine
 10
959.0558332228962
 20
385.3379655005618
 30
0.0
 11
950.5044569023194
 21
385.3379655005618
 31
0.0
  0
LINE
  5
1442
330
2
100
AcDbEntity
  8
HIDS
100
AcDbLine
 10
938.5558332228956
 20
399.3285281774268
 30
0.0
 11
938.5558332228956
 21
391.0879655005617
 31
0.0
  0
LINE
  5
1443
330
2
100
AcDbEntity
  8
HIDS
100
AcDbLine
 10
936.2224998895626
 20
376.5546321672289
 30
0.0
 11
936.2224998895626
 21
374.2754838721219
 31
0.0
  0
LINE
  5
1444
330
2
100
AcDbEntity
  8
HIDS
100
AcDbLine
 10
936.5558332228957
 20
385.3379655005618
 30
0.0
 11
936.5558332228957
 21
374.0334020493199
 31
0.0
  0
LINE
  5
1445
330
2
100
AcDbEntity
  8
HIDS
100
AcDbLine
 10
932.0558332228957
 20
391.0879655005617
 30
0.0
 11
932.0558332228957
 21
386.8379655005617
 31
0.0
  0
LINE
  5
1446
330
2
100
AcDbEntity
  8
HIDS
100
AcDbLine
 10
937.0558332228956
 20
391.0879655005617
 30
0.0
 11
937.0558332228956
 21
386.8379655005617
 31
0.0
  0
LINE
  5
1447
330
2
100
AcDbEntity
  8
HIDS
100
AcDbLine
 10
931.179144136518
 20
391.0879655005617
 30
0.0
 11
938.5558332228956
 21
391.0879655005617
 31
0.0
  0
LINE
  5
1448
330
2
100
AcDbEntity
  8
CENTER
  6
CENS
100
AcDbLine
 10
934.5558332228961
 20
425.0879655005618
 30
0.0
 11
934.5558332228961
 21
370.9362628609659
 31
0.0
  0
LINE
  5
1449
330
2
100
AcDbEntity
  8
HIDS
100
AcDbLine
 10
932.5558332228961
 20
391.0879655005617
 30
0.0
 11
932.5558332228961
 21
386.8379655005617
 31
0.0
  0
LINE
  5
144A
330
2
100
AcDbEntity
  8
HIDS
100
AcDbLine
 10
932.8891665562295
 20
389.4212988338957
 30
0.0
 11
932.8891665562295
 21
386.8379655005617
 31
0.0
  0
LINE
  5
144B
330
2
100
AcDbEntity
  8
HIDS
100
AcDbLine
 10
936.2224998895626
 20
389.4212988338957
 30
0.0
 11
936.2224998895626
 21
386.8379655005617
 31
0.0
  0
LINE
  5
144C
330
2
100
AcDbEntity
  8
HIDS
100
AcDbLine
 10
936.555833222896
 20
391.0879655005617
 30
0.0
 11
936.555833222896
 21
386.8379655005617
 31
0.0
  0
LINE
  5
144D
330
2
100
AcDbEntity
  8
HIDS
100
AcDbLine
 10
936.555833222896
 20
376.887965500561
 30
0.0
 11
933.526631168981
 21
376.887965500561
 31
0.0
  0
LINE
  5
144E
330
2
100
AcDbEntity
  8
HIDS
100
AcDbLine
 10
935.7558332228963
 20
376.0879655005617
 30
0.0
 11
934.2132090017953
 21
376.0879655005617
 31
0.0
  0
LINE
  5
144F
330
2
100
AcDbEntity
  8
0
100
AcDbLine
 10
933.3558332228959
 20
376.0879655005617
 30
0.0
 11
934.2132090017953
 21
376.0879655005617
 31
0.0
  0
LINE
  5
1450
330
2
100
AcDbEntity
  8
0
100
AcDbLine
 10
932.5558332228961
 20
376.887965500561
 30
0.0
 11
933.3558332228959
 21
376.0879655005617
 31
0.0
  0
LINE
  5
1451
330
2
100
AcDbEntity
  8
0
100
AcDbLine
 10
932.5558332228961
 20
376.887965500561
 30
0.0
 11
933.526631168981
 21
376.887965500561
 31
0.0
  0
LINE
  5
1452
330
2
100
AcDbEntity
  8
HIDS
100
AcDbLine
 10
936.555833222896
 20
376.887965500561
 30
0.0
 11
935.7558332228963
 21
376.0879655005617
 31
0.0
  0
LINE
  5
1453
330
2
100
AcDbEntity
  8
0
100
AcDbLine
 10
931.0558332228961
 20
391.0879655005617
 30
0.0
 11
931.179144136518
 21
391.0879655005617
 31
0.0
  0
LINE
  5
1454
330
2
100
AcDbEntity
  8
HIDS
100
AcDbLine
 10
936.555833222896
 20
389.4212988338957
 30
0.0
 11
932.5558332228961
 21
389.4212988338957
 31
0.0
  0
LINE
  5
1455
330
2
100
AcDbEntity
  8
0
100
AcDbLine
 10
931.0558332228961
 20
394.7879655005625
 30
0.0
 11
933.1448089176564
 21
394.7879655005625
 31
0.0
  0
LINE
  5
1456
330
2
100
AcDbEntity
  8
HIDS
100
AcDbLine
 10
937.5362179806252
 20
395.0879655005617
 30
0.0
 11
933.3698373303759
 21
395.0879655005617
 31
0.0
  0
LINE
  5
1457
330
2
100
AcDbEntity
  8
0
100
AcDbLine
 10
931.0558332228961
 20
394.7879655005625
 30
0.0
 11
931.0558332228961
 21
391.0879655005617
 31
0.0
  0
LINE
  5
1458
330
2
100
AcDbEntity
  8
HIDS
100
AcDbLine
 10
932.5558332228961
 20
391.0879655005617
 30
0.0
 11
932.8891665562295
 21
389.4212988338957
 31
0.0
  0
LINE
  5
1459
330
2
100
AcDbEntity
  8
0
100
AcDbLine
 10
931.0558332228961
 20
394.7879655005625
 30
0.0
 11
931.5754484651669
 21
395.0879655005617
 31
0.0
  0
LINE
  5
145A
330
2
100
AcDbEntity
  8
HIDS
100
AcDbLine
 10
938.0558332228961
 20
391.0879655005617
 30
0.0
 11
938.0558332228961
 21
394.7879655005625
 31
0.0
  0
LINE
  5
145B
330
2
100
AcDbEntity
  8
HIDS
100
AcDbLine
 10
936.555833222896
 20
391.0879655005617
 30
0.0
 11
936.2224998895626
 21
389.4212988338957
 31
0.0
  0
LINE
  5
145C
330
2
100
AcDbEntity
  8
HIDS
100
AcDbLine
 10
937.5362179806252
 20
395.0879655005617
 30
0.0
 11
938.0558332228961
 21
394.7879655005625
 31
0.0
  0
LINE
  5
145E
330
2
100
AcDbEntity
  8
0
100
AcDbLine
 10
934.5558332228961
 20
386.8379655005617
 30
0.0
 11
939.6072095434728
 21
386.8379655005617
 31
0.0
  0
LINE
  5
145F
330
2
100
AcDbEntity
  8
0
100
AcDbLine
 10
934.5558332228961
 20
385.3379655005618
 30
0.0
 11
939.6072095434728
 21
385.3379655005618
 31
0.0
  0
LINE
  5
1461
330
2
100
AcDbEntity
  8
HIDS
100
AcDbLine
 10
933.1448089176564
 20
394.7879655005625
 30
0.0
 11
938.0558332228961
 21
394.7879655005625
 31
0.0
  0
LINE
  5
1462
330
2
100
AcDbEntity
  8
0
100
AcDbLine
 10
933.3698373303759
 20
395.0879655005617
 30
0.0
 11
931.5754484651669
 21
395.0879655005617
 31
0.0
  0
LINE
  5
1463
330
2
100
AcDbEntity
  8
HIDS
100
AcDbLine
 10
931.179144136518
 20
391.0879655005617
 30
0.0
 11
938.0558332228961
 21
391.0879655005617
 31
0.0
  0
LINE
  5
1464
330
2
100
AcDbEntity
  8
0
100
AcDbLine
 10
936.555833222896
 20
386.8379655005617
 30
0.0
 11
936.555833222896
 21
385.3379655005618
 31
0.0
  0
LINE
  5
1465
330
2
100
AcDbEntity
  8
HOJO
100
AcDbLine
 10
936.2224998895626
 20
386.8379655005617
 30
0.0
 11
936.2224998895626
 21
385.3379655005618
 31
0.0
  0
LINE
  5
1466
330
2
100
AcDbEntity
  8
HOJO
100
AcDbLine
 10
932.8891665562295
 20
386.8379655005617
 30
0.0
 11
932.8891665562295
 21
385.3379655005618
 31
0.0
  0
LINE
  5
1467
330
2
100
AcDbEntity
  8
0
100
AcDbLine
 10
932.5558332228961
 20
386.8379655005617
 30
0.0
 11
932.5558332228961
 21
385.3379655005618
 31
0.0
  0
LINE
  5
1468
330
2
100
AcDbEntity
  8
HIDS
100
AcDbLine
 10
932.5558332228961
 20
385.3379655005618
 30
0.0
 11
932.5558332228961
 21
378.2577356188783
 31
0.0
  0
LINE
  5
1469
330
2
100
AcDbEntity
  8
HIDS
100
AcDbLine
 10
932.8891665562295
 20
385.3379655005618
 30
0.0
 11
932.8891665562295
 21
377.7492172598347
 31
0.0
  0
LINE
  5
146A
330
2
100
AcDbEntity
  8
HIDS
100
AcDbLine
 10
936.2224998895626
 20
385.3379655005618
 30
0.0
 11
936.2224998895626
 21
376.5546321672289
 31
0.0
  0
LINE
  5
146B
330
2
100
AcDbEntity
  8
HIDS
100
AcDbLine
 10
936.555833222896
 20
385.3379655005618
 30
0.0
 11
936.555833222896
 21
376.887965500561
 31
0.0
  0
LINE
  5
146C
330
2
100
AcDbEntity
  8
HOJO
100
AcDbLine
 10
932.8891665562295
 20
377.7492172598347
 30
0.0
 11
932.8891665562295
 21
376.5546321672289
 31
0.0
  0
LINE
  5
146D
330
2
100
AcDbEntity
  8
0
100
AcDbLine
 10
932.5558332228961
 20
378.2577356188783
 30
0.0
 11
932.5558332228961
 21
376.887965500561
 31
0.0
  0
CIRCLE
  5
146E
330
2
100
AcDbEntity
  8
0
100
AcDbCircle
 10
945.0558332228961
 20
386.0879655005618
 30
0.0
 40
5.499999999997157
  0
ARC
  5
146F
330
2
100
AcDbEntity
  8
0
100
AcDbCircle
 10
945.0558332228961
 20
386.0879655005618
 30
0.0
 40
6.654700538376232
100
AcDbArc
 50
6.471114411194036
 51
173.5288855888059
  0
ARC
  5
1470
330
2
100
AcDbEntity
  8
0
100
AcDbCircle
 10
945.0558332228961
 20
386.0879655005618
 30
0.0
 40
6.654700538376232
100
AcDbArc
 50
186.471114411194
 51
353.5288855888059
  0
SPLINE
  5
1471
330
2
100
AcDbEntity
  8
HOJO
100
AcDbSpline
210
0.0
220
0.0
230
1.0
 70
     8
 71
     3
 72
    20
 73
    16
 74
     0
 42
0.0000000001
 43
0.0000000001
 40
0.0
 40
0.0
 40
0.0
 40
0.0
 40
5.311626210389601
 40
7.954639692924123
 40
10.24579206730457
 40
14.18281221953265
 40
18.83794314114633
 40
26.54246833222011
 40
31.19712602527561
 40
34.95638115537181
 40
42.12378530287149
 40
45.78553747213095
 40
50.20353689726185
 40
53.26513166942802
 40
54.23175360515262
 40
54.23175360515262
 40
54.23175360515262
 40
54.23175360515262
 10
745.2867857657666
 20
412.7754142225793
 30
0.0
 10
743.573806599878
 20
412.6673721723525
 30
0.0
 10
741.008465680467
 20
412.5055694499494
 30
0.0
 10
737.2367117933899
 20
412.2534367777805
 30
0.0
 10
735.9175705772559
 20
409.3209952928144
 30
0.0
 10
733.4823612089653
 20
406.6664864695193
 30
0.0
 10
731.6443128658156
 20
401.5151910363545
 30
0.0
 10
727.5194764563384
 20
396.8054436847294
 30
0.0
 10
722.0418289533317
 20
396.1681122503103
 30
0.0
 10
717.1284434437661
 20
394.4817933036027
 30
0.0
 10
712.2944440970077
 20
393.8618062116282
 30
0.0
 10
707.2567173323691
 20
392.9065821939673
 30
0.0
 10
704.1855667109993
 20
390.3723703512167
 30
0.0
 10
703.1855924162737
 20
387.6941298303261
 30
0.0
 10
702.8295528910412
 20
386.3991168002556
 30
0.0
 10
702.746825118953
 20
386.0879655005626
 30
0.0
  0
LINE
  5
1472
330
2
100
AcDbEntity
  8
0
100
AcDbLine
 10
736.2867857657666
 20
420.0879655005627
 30
0.0
 11
726.2867857657665
 21
420.0879655005627
 31
0.0
  0
ARC
  5
1473
330
2
100
AcDbEntity
  8
0
100
AcDbCircle
 10
726.2867857657665
 20
416.0879655005627
 30
0.0
 40
4.0
100
AcDbArc
 50
90.0
 51
180.0
  0
ARC
  5
1474
330
2
100
AcDbEntity
  8
0
100
AcDbCircle
 10
736.2867857657666
 20
416.0879655005627
 30
0.0
 40
4.000000000000028
100
AcDbArc
 50
0.0
 51
90.0
  0
LINE
  5
1475
330
2
100
AcDbEntity
  8
0
100
AcDbLine
 10
929.5558332228962
 20
420.0879655005618
 30
0.0
 11
939.5558332228961
 21
420.0879655005618
 31
0.0
  0
ARC
  5
1476
330
2
100
AcDbEntity
  8
0
100
AcDbCircle
 10
939.5558332228961
 20
416.0879655005618
 30
0.0
 40
3.999999999999971
100
AcDbArc
 50
359.9999999999478
 51
90.0
  0
ARC
  5
1477
330
2
100
AcDbEntity
  8
0
100
AcDbCircle
 10
929.5558332228962
 20
416.0879655005618
 30
0.0
 40
4.000000000000056
100
AcDbArc
 50
90.0
 51
180.0000000000521
  0
ARC
  5
1478
330
2
100
AcDbEntity
  8
0
100
AcDbCircle
 10
971.9033445978544
 20
412.9805596545928
 30
0.0
 40
3.499999999999717
100
AcDbArc
 50
331.4660973942784
 51
117.7026032046093
  0
ARC
  5
1479
330
2
100
AcDbEntity
  8
0
100
AcDbCircle
 10
971.9033445978544
 20
412.9805596545928
 30
0.0
 40
2.980384757729353
100
AcDbArc
 50
347.9891694961489
 51
101.1795311027486
  0
ARC
  5
147A
330
2
100
AcDbEntity
  8
0
100
AcDbCircle
 10
918.1632390688646
 20
412.93547687552
 30
0.0
 40
3.499999999999717
100
AcDbArc
 50
61.46609739427881
 51
207.7026032046107
  0
ARC
  5
147B
330
2
100
AcDbEntity
  8
0
100
AcDbCircle
 10
918.1632390688646
 20
412.93547687552
 30
0.0
 40
2.980384757729353
100
AcDbArc
 50
77.98916949613524
 51
191.1795311027489
  0
ARC
  5
147C
330
2
100
AcDbEntity
  8
0
100
AcDbCircle
 10
918.2083218479375
 20
359.1953713465307
 30
0.0
 40
3.499999999999717
100
AcDbArc
 50
151.4660973942784
 51
297.7026032046093
  0
ARC
  5
147D
330
2
100
AcDbEntity
  8
0
100
AcDbCircle
 10
918.2083218479375
 20
359.1953713465307
 30
0.0
 40
2.980384757729353
100
AcDbArc
 50
167.9891694961488
 51
281.1795311027486
  0
ARC
  5
147E
330
2
100
AcDbEntity
  8
0
100
AcDbCircle
 10
971.9484273769271
 20
359.2404541256035
 30
0.0
 40
3.499999999999717
100
AcDbArc
 50
241.4660973942788
 51
27.70260320461076
  0
ARC
  5
147F
330
2
100
AcDbEntity
  8
0
100
AcDbCircle
 10
971.9484273769271
 20
359.2404541256035
 30
0.0
 40
2.980384757729353
100
AcDbArc
 50
257.9891694961351
 51
11.17953110274902
  0
CIRCLE
  5
1480
330
2
100
AcDbEntity
  8
0
100
AcDbCircle
 10
731.2867857627434
 20
626.7608955540179
 30
0.0
 40
9.0
  0
LINE
  5
1481
330
2
100
AcDbEntity
  8
CENTER
  6
CENS
100
AcDbLine
 10
731.2867857627434
 20
615.2203846498949
 30
0.0
 11
731.2867857627434
 21
638.3014064581427
 31
0.0
  0
LINE
  5
1482
330
2
100
AcDbEntity
  8
CENTER
  6
CENS
100
AcDbLine
 10
742.8272966668673
 20
626.7608955540188
 30
0.0
 11
719.7462748586194
 21
626.7608955540188
 31
0.0
  0
LINE
  5
1484
330
2
100
AcDbEntity
  8
HIDS
100
AcDbLine
 10
925.0215323588168
 20
414.1228703134391
 30
0.0
 11
924.9424038226312
 21
409.5895995114795
 31
0.0
  0
ARC
  5
1485
330
2
100
AcDbEntity
  8
HIDS
100
AcDbCircle
 10
927.0212277491296
 20
414.0879655005654
 30
0.0
 40
2.0
100
AcDbArc
 50
90.0
 51
178.9999999999721
  0
ARC
  5
1486
330
2
100
AcDbEntity
  8
HIDS
100
AcDbCircle
 10
921.942860737162
 20
409.6419567307919
 30
0.0
 40
3.0
100
AcDbArc
 50
314.4585514346786
 51
359.0000000000242
  0
LINE
  5
1487
330
2
100
AcDbEntity
  8
0
100
AcDbLine
 10
59.64009878151159
 20
386.0879655005629
 30
0.0
 11
59.18504856182676
 21
412.1577751263122
 31
0.0
  0
LINE
  5
1488
330
2
100
AcDbEntity
  8
0
100
AcDbLine
 10
84.64009878150296
 20
386.0879655005629
 30
0.0
 11
85.1640553622458
 21
416.1054179070015
 31
0.0
  0
LINE
  5
1489
330
2
100
AcDbEntity
  8
0
100
AcDbLine
 10
92.64009878151069
 20
386.0879655005629
 30
0.0
 11
49.64009878151069
 21
386.0879655005629
 31
0.0
  0
ARC
  5
148A
330
2
100
AcDbEntity
  8
0
100
AcDbCircle
 10
76.72366340620851
 20
360.8491990397888
 30
0.0
 40
3.0
100
AcDbArc
 50
90.00000000001303
 51
179.0000000000242
  0
LINE
  5
148B
330
2
100
AcDbEntity
  8
0
100
AcDbLine
 10
62.25237665314603
 20
363.8491990397888
 30
0.0
 11
76.72366340620851
 21
363.8491990397888
 31
0.0
  0
LINE
  5
148C
330
2
100
AcDbEntity
  8
0
100
AcDbLine
 10
80.13440404928246
 20
356.0879655005629
 30
0.0
 11
49.64009878151069
 21
356.0879655005629
 31
0.0
  0
LINE
  5
148D
330
2
100
AcDbEntity
  8
0
100
AcDbLine
 10
59.64009878151069
 20
386.0879655005629
 30
0.0
 11
59.18504856182631
 21
360.0181558748136
 31
0.0
  0
ARC
  5
148E
330
2
100
AcDbEntity
  8
0
100
AcDbCircle
 10
55.18565778120114
 20
360.0879655005629
 30
0.0
 40
4.0
100
AcDbArc
 50
270.0
 51
358.9999999999982
  0
ARC
  5
148F
330
2
100
AcDbEntity
  8
0
100
AcDbCircle
 10
71.67470425527994
 20
358.0879655005629
 30
0.0
 40
2.0
100
AcDbArc
 50
270.0
 51
359.0000000000242
  0
LINE
  5
1490
330
2
100
AcDbEntity
  8
0
100
AcDbLine
 10
73.6743996455923
 20
358.0530606876891
 30
0.0
 11
73.72412032073885
 21
360.9015562591012
 31
0.0
  0
LINE
  5
1491
330
2
100
AcDbEntity
  8
0
100
AcDbLine
 10
84.6400987815025
 20
386.0879655005629
 30
0.0
 11
85.16405536224487
 21
356.070513094126
 31
0.0
  0
ARC
  5
1492
330
2
100
AcDbEntity
  8
0
100
AcDbCircle
 10
83.51815174633726
 20
353.0879655005629
 30
0.0
 40
3.0
100
AcDbArc
 50
48.59037789073019
 51
61.24284295859256
  0
ARC
  5
1493
330
2
100
AcDbEntity
  8
0
100
AcDbCircle
 10
86.16390305740129
 20
356.0879655005629
 30
0.0
 40
1.0
100
AcDbArc
 50
181.0000000000017
 51
270.0
  0
LINE
  5
1494
330
2
100
AcDbEntity
  8
0
100
AcDbLine
 10
92.64009878151069
 20
355.0879655005629
 30
0.0
 11
86.16390305740129
 21
355.0879655005629
 31
0.0
  0
LINE
  5
1495
330
2
100
AcDbEntity
  8
0
100
AcDbLine
 10
80.13440404928246
 20
416.0879655005628
 30
0.0
 11
49.64009878151069
 21
416.0879655005628
 31
0.0
  0
LINE
  5
1496
330
2
100
AcDbEntity
  8
CENTER
  6
CENS
100
AcDbLine
 10
63.64009878151069
 20
425.0879655005666
 30
0.0
 11
63.64009878151069
 21
402.6055557828168
 31
0.0
  0
ARC
  5
1497
330
2
100
AcDbEntity
  8
0
100
AcDbCircle
 10
55.1856577812016
 20
412.0879655005628
 30
0.0
 40
4.0
100
AcDbArc
 50
1.000000000001775
 51
90.0
  0
ARC
  5
1498
330
2
100
AcDbEntity
  8
0
100
AcDbCircle
 10
83.51815174633816
 20
419.0879655005629
 30
0.0
 40
3.0
100
AcDbArc
 50
298.7571570414076
 51
311.4096221092556
  0
ARC
  5
1499
330
2
100
AcDbEntity
  8
0
100
AcDbCircle
 10
86.16390305740265
 20
416.0879655005628
 30
0.0
 40
1.0
100
AcDbArc
 50
90.0
 51
178.9999999999982
  0
LINE
  5
149A
330
2
100
AcDbEntity
  8
0
100
AcDbLine
 10
92.64009878151069
 20
417.0879655005629
 30
0.0
 11
86.16390305740265
 21
417.0879655005629
 31
0.0
  0
LINE
  5
149B
330
2
100
AcDbEntity
  8
0
100
AcDbLine
 10
49.64009878151069
 20
416.0879655005628
 30
0.0
 11
49.64009878151069
 21
356.0879655005629
 31
0.0
  0
LINE
  5
149C
330
2
100
AcDbEntity
  8
0
100
AcDbLine
 10
84.04802364888224
 20
416.4579655005637
 30
0.0
 11
85.04802364888224
 21
416.4579655005637
 31
0.0
  0
LINE
  5
149D
330
2
100
AcDbEntity
  8
0
100
AcDbLine
 10
85.04802364888224
 20
416.4579655005637
 30
0.0
 11
85.04802364888224
 21
409.4579655005636
 31
0.0
  0
LINE
  5
149E
330
2
100
AcDbEntity
  8
0
100
AcDbLine
 10
85.04802364888224
 20
409.4579655005636
 30
0.0
 11
84.04802364888224
 21
409.4579655005636
 31
0.0
  0
LINE
  5
149F
330
2
100
AcDbEntity
  8
0
100
AcDbLine
 10
84.04802364888224
 20
409.4579655005636
 30
0.0
 11
84.04802364888224
 21
416.4579655005637
 31
0.0
  0
LINE
  5
14A0
330
2
100
AcDbEntity
  8
0
100
AcDbLine
 10
80.04802364888224
 20
415.9383502582932
 30
0.0
 11
80.04802364888224
 21
409.9775807428342
 31
0.0
  0
LINE
  5
14A1
330
2
100
AcDbEntity
  8
0
100
AcDbLine
 10
80.34802364888241
 20
409.4579655005636
 30
0.0
 11
80.34802364888241
 21
416.4579655005637
 31
0.0
  0
LINE
  5
14A2
330
2
100
AcDbEntity
  8
0
100
AcDbLine
 10
80.34802364888241
 20
409.4579655005636
 30
0.0
 11
84.04802364888224
 21
409.4579655005636
 31
0.0
  0
LINE
  5
14A3
330
2
100
AcDbEntity
  8
0
100
AcDbLine
 10
80.34802364888241
 20
409.4579655005636
 30
0.0
 11
80.04802364888224
 21
409.9775807428342
 31
0.0
  0
LINE
  5
14A4
330
2
100
AcDbEntity
  8
0
100
AcDbLine
 10
80.04802364888224
 20
415.9383502582932
 30
0.0
 11
80.34802364888241
 21
416.4579655005637
 31
0.0
  0
LINE
  5
14A5
330
2
100
AcDbEntity
  8
0
100
AcDbLine
 10
84.04802364888224
 20
416.4579655005637
 30
0.0
 11
80.34802364888241
 21
416.4579655005637
 31
0.0
  0
LINE
  5
14A6
330
2
100
AcDbEntity
  8
CENTER
  6
CENS
100
AcDbLine
 10
75.1091163761323
 20
412.9579655005636
 30
0.0
 11
98.10907346575483
 21
412.9579655005636
 31
0.0
  0
LINE
  5
14A7
330
2
100
AcDbEntity
  8
CENTER
  6
CENS
100
AcDbLine
 10
75.1091163761323
 20
359.217965500563
 30
0.0
 11
98.10907346575483
 21
359.217965500563
 31
0.0
  0
LINE
  5
14A8
330
2
100
AcDbEntity
  8
0
100
AcDbLine
 10
84.04802364888224
 20
355.7179655005639
 30
0.0
 11
85.04802364888224
 21
355.7179655005639
 31
0.0
  0
LINE
  5
14A9
330
2
100
AcDbEntity
  8
0
100
AcDbLine
 10
85.04802364888224
 20
355.7179655005639
 30
0.0
 11
85.04802364888224
 21
362.7179655005639
 31
0.0
  0
LINE
  5
14AA
330
2
100
AcDbEntity
  8
0
100
AcDbLine
 10
85.04802364888224
 20
362.7179655005639
 30
0.0
 11
84.04802364888224
 21
362.7179655005639
 31
0.0
  0
LINE
  5
14AB
330
2
100
AcDbEntity
  8
0
100
AcDbLine
 10
84.04802364888224
 20
362.7179655005639
 30
0.0
 11
84.04802364888224
 21
355.7179655005639
 31
0.0
  0
LINE
  5
14AC
330
2
100
AcDbEntity
  8
0
100
AcDbLine
 10
80.04802364888224
 20
356.2375807428344
 30
0.0
 11
80.04802364888224
 21
362.1983502582934
 31
0.0
  0
LINE
  5
14AD
330
2
100
AcDbEntity
  8
0
100
AcDbLine
 10
80.34802364888241
 20
362.7179655005639
 30
0.0
 11
80.34802364888241
 21
355.7179655005639
 31
0.0
  0
LINE
  5
14AE
330
2
100
AcDbEntity
  8
0
100
AcDbLine
 10
80.34802364888241
 20
362.7179655005639
 30
0.0
 11
84.04802364888224
 21
362.7179655005639
 31
0.0
  0
LINE
  5
14AF
330
2
100
AcDbEntity
  8
0
100
AcDbLine
 10
80.34802364888241
 20
362.7179655005639
 30
0.0
 11
80.04802364888224
 21
362.1983502582934
 31
0.0
  0
LINE
  5
14B0
330
2
100
AcDbEntity
  8
0
100
AcDbLine
 10
80.04802364888224
 20
356.2375807428344
 30
0.0
 11
80.34802364888241
 21
355.7179655005639
 31
0.0
  0
LINE
  5
14B1
330
2
100
AcDbEntity
  8
0
100
AcDbLine
 10
84.04802364888224
 20
355.7179655005639
 30
0.0
 11
80.34802364888241
 21
355.7179655005639
 31
0.0
  0
LINE
  5
14B2
330
2
100
AcDbEntity
  8
0
100
AcDbLine
 10
58.64009878151069
 20
420.0879655005628
 30
0.0
 11
68.64009878151069
 21
420.0879655005628
 31
0.0
  0
ARC
  5
14B3
330
2
100
AcDbEntity
  8
0
100
AcDbCircle
 10
68.64009878151069
 20
416.0879655005628
 30
0.0
 40
4.0
100
AcDbArc
 50
0.0
 51
90.0
  0
ARC
  5
14B4
330
2
100
AcDbEntity
  8
0
100
AcDbCircle
 10
58.64009878151069
 20
416.0879655005628
 30
0.0
 40
4.000000000000028
100
AcDbArc
 50
90.0
 51
180.0
  0
CIRCLE
  5
14B5
330
2
100
AcDbEntity
  8
0
100
AcDbCircle
 10
920.3070958813645
 20
410.8367028420878
 30
0.0
 40
2.0
  0
CIRCLE
  5
14B6
330
2
100
AcDbEntity
  8
HOJO
100
AcDbCircle
 10
920.3070958813645
 20
410.8367028420878
 30
0.0
 40
2.5
  0
CIRCLE
  5
14B7
330
2
100
AcDbEntity
  8
0
100
AcDbCircle
 10
920.3070958813651
 20
361.3392281590293
 30
0.0
 40
2.0
  0
CIRCLE
  5
14B8
330
2
100
AcDbEntity
  8
HOJO
100
AcDbCircle
 10
920.3070958813651
 20
361.3392281590293
 30
0.0
 40
2.5
  0
CIRCLE
  5
14B9
330
2
100
AcDbEntity
  8
0
100
AcDbCircle
 10
969.8045705644231
 20
361.3392281590293
 30
0.0
 40
2.0
  0
CIRCLE
  5
14BA
330
2
100
AcDbEntity
  8
HOJO
100
AcDbCircle
 10
969.8045705644231
 20
361.3392281590293
 30
0.0
 40
2.5
  0
CIRCLE
  5
14BB
330
2
100
AcDbEntity
  8
0
100
AcDbCircle
 10
969.8045705644231
 20
410.8367028420878
 30
0.0
 40
2.0
  0
CIRCLE
  5
14BC
330
2
100
AcDbEntity
  8
HOJO
100
AcDbCircle
 10
969.8045705644231
 20
410.8367028420878
 30
0.0
 40
2.5
  0
LINE
  5
14BD
330
2
100
AcDbEntity
  8
0
100
AcDbLine
 10
738.2867857657665
 20
408.5879655005626
 30
0.0
 11
735.186119094149
 21
408.5879655005626
 31
0.0
  0
CIRCLE
  5
14BE
330
2
100
AcDbEntity
  8
0
100
AcDbCircle
 10
945.0558332228961
 20
386.0879655005618
 30
0.0
 40
22.5
  0
LINE
  5
14C0
330
2
100
AcDbEntity
  8
0
100
AcDbLine
 10
914.0558332228934
 20
357.5534772228571
 30
0.0
 11
914.0558332228929
 21
356.5636559519269
 31
0.0
  0
LINE
  5
14C2
330
2
100
AcDbEntity
  8
0
100
AcDbLine
 10
943.2754198138272
 20
417.5592491552543
 30
0.0
 11
945.0558332228929
 21
417.5879655005617
 31
0.0
  0
LINE
  5
14C3
330
2
100
AcDbEntity
  8
0
100
AcDbLine
 10
925.8942607333688
 20
417.698209862122
 30
0.0
 11
916.0383801518973
 21
417.6121988953262
 31
0.0
  0
CIRCLE
  5
19C1
330
2
100
AcDbEntity
  8
0
100
AcDbCircle
 10
945.0558332229086
 20
386.0879655005618
 30
0.0
 40
14.75
  0
CIRCLE
  5
19E8
330
2
100
AcDbEntity
  8
0
100
AcDbCircle
 10
595.2867857657683
 20
386.0879655005626
 30
0.0
 40
23.5774
  0
ENDSEC
  0
SECTION
  2
OBJECTS
  0
DICTIONARY
  5
7
330
0
100
AcDbDictionary
  3
ACAD_COLOR
350
18F6
  3
ACAD_GROUP
350
75
  3
ACAD_LAYOUT
350
61
  3
ACAD_MATERIAL
350
18CC
  3
ACAD_MLEADERSTYLE
350
191B
  3
ACAD_MLINESTYLE
350
76
  3
ACAD_PLOTSETTINGS
350
77
  3
ACAD_PLOTSTYLENAME
350
6
  3
ACAD_SCALELIST
350
18F9
  3
ACAD_TABLESTYLE
350
18F7
  3
ACAD_VISUALSTYLE
350
18E5
  3
ACADDIM
350
480
  3
ACDB_RECOMPOSE_DATA
350
196A
  3
ACDBHEADERROUNDTRIPXREC
350
1A02
  3
ACDBVARIABLEDICTIONARY
350
102
  3
DWGPROPS
350
19C3
  0
DICTIONARY
  5
1973
330
6E
100
AcDbDictionary
280
     1
  3
ACAD_XREC_ROUNDTRIP
360
19CB
  0
DICTIONARY
  5
B13
330
66
100
AcDbDictionary
280
     1
  3
ACAD_LAYERSTATES
360
B14
  0
DICTIONARY
  5
1956
330
5E
100
AcDbDictionary
280
     1
  3
ACAD_XREC_ROUNDTRIP
360
19C6
  3
ADSK_XREC_LAYER_RECONCILED
360
1957
  0
DICTIONARY
  5
1958
330
3E
100
AcDbDictionary
280
     1
  3
ACAD_XREC_ROUNDTRIP
360
19C5
  3
ADSK_XREC_LAYER_RECONCILED
360
1959
  0
DICTIONARY
  5
195E
330
2B5
100
AcDbDictionary
280
     1
  3
ACAD_XREC_ROUNDTRIP
360
19D1
  3
ADSK_XREC_LAYER_RECONCILED
360
195F
  0
DICTIONARY
  5
1960
330
2BA
100
AcDbDictionary
280
     1
  3
ACAD_XREC_ROUNDTRIP
360
19D2
  3
ADSK_XREC_LAYER_RECONCILED
360
1961
  0
DICTIONARY
  5
1964
330
3FA
100
AcDbDictionary
280
     1
  3
ACAD_XREC_ROUNDTRIP
360
19D4
  3
ADSK_XREC_LAYER_RECONCILED
360
1965
  0
DICTIONARY
  5
1966
330
478
100
AcDbDictionary
280
     1
  3
ACAD_XREC_ROUNDTRIP
360
19D5
  3
ADSK_XREC_LAYER_RECONCILED
360
1967
  0
DICTIONARY
  5
1A23
330
2
100
AcDbDictionary
280
     1
  3
ACAD_LAYOUTSELFREF
360
1A24
  0
DICTIONARY
  5
1A25
330
19FC
100
AcDbDictionary
280
     1
  3
ACAD_LAYOUTSELFREF
360
1A26
  0
DICTIONARY
  5
18F6
102
{ACAD_REACTORS
330
7
102
}
330
7
100
AcDbDictionary
  0
DICTIONARY
  5
75
102
{ACAD_REACTORS
330
7
102
}
330
7
100
AcDbDictionary
  0
DICTIONARY
  5
61
102
{ACAD_REACTORS
330
7
102
}
330
7
100
AcDbDictionary
  0
DICTIONARY
  5
18CC
102
{ACAD_REACTORS
330
7
102
}
330
7
100
AcDbDictionary
  3
BYBLOCK
350
18D5
  3
BYLAYER
350
18CD
  3
GLOBAL
350
18DD
  0
DICTIONARY
  5
191B
102
{ACAD_REACTORS
330
7
102
}
330
7
100
AcDbDictionary
  3
STANDARD
350
191C
  0
DICTIONARY
  5
76
102
{ACAD_REACTORS
330
7
102
}
330
7
100
AcDbDictionary
  3
STANDARD
350
78
  0
DICTIONARY
  5
77
102
{ACAD_REACTORS
330
7
102
}
330
7
100
AcDbDictionary
  0
ACDBDICTIONARYWDFLT
  5
6
102
{ACAD_REACTORS
330
7
102
}
330
7
100
AcDbDictionary
281
     1
  3
Normal
350
5
100
AcDbDictionaryWithDefault
340
5
  0
DICTIONARY
  5
18F9
102
{ACAD_REACTORS
330
7
102
}
330
7
100
AcDbDictionary
  3
A0
350
18FA
  3
A1
350
18FB
  3
A2
350
18FC
  3
A3
350
18FD
  3
A4
350
18FE
  3
A5
350
18FF
  3
A6
350
1900
  3
A7
350
1901
  3
A8
350
1902
  3
A9
350
1903
  3
B0
350
1904
  3
B1
350
1905
  3
B2
350
1906
  3
B3
350
1907
  3
B4
350
1908
  3
B5
350
1909
  3
B6
350
190A
  3
B7
350
190B
  3
B8
350
190C
  3
B9
350
190D
  3
C0
350
190E
  3
C1
350
190F
  3
C2
350
1910
  3
C3
350
1911
  3
C4
350
1912
  3
C5
350
1913
  3
C6
350
1914
  3
C7
350
1915
  3
C8
350
1916
  3
C9
350
1917
  3
D0
350
1918
  3
D1
350
1919
  3
D2
350
191A
  0
DICTIONARY
  5
18F7
102
{ACAD_REACTORS
330
7
102
}
330
7
100
AcDbDictionary
  3
STANDARD
350
18F8
  0
DICTIONARY
  5
18E5
102
{ACAD_REACTORS
330
7
102
}
330
7
100
AcDbDictionary
  3
2DWIREFRAME
350
18EB
  3
3D_HIDDEN
350
18ED
  3
3DWIREFRAME
350
18EC
  3
BASIC
350
18EA
  3
BRIGHTEN
350
18F1
  3
COLORCHANGE
350
18F5
  3
CONCEPTUAL
350
18EE
  3
DIM
350
18F0
  3
FACEPATTERN
350
18F4
  3
FLAT
350
18E6
  3
FLATWITHEDGES
350
18E7
  3
GOURAUD
350
18E8
  3
GOURAUDWITHEDGES
350
18E9
  3
LINEPATTERN
350
18F3
  3
REALISTIC
350
18EF
  3
THICKEN
350
18F2
  0
XRECORD
  5
480
102
{ACAD_REACTORS
330
7
102
}
330
7
100
AcDbXrecord
 90
   990106
  3

 60
     0
 61
     0
 62
     1
 63
     3
 64
     1
 65
     0
 66
     0
 67
     3
 68
     1
 69
     0
 70
     0
 71
     0
 72
     0
 40
0.0
170
     2
340
0
  0
XRECORD
  5
196A
102
{ACAD_REACTORS
330
7
102
}
330
7
100
AcDbXrecord
 90
        1
330
18F8
  0
DICTIONARY
  5
1A02
102
{ACAD_REACTORS
330
7
102
}
330
7
100
AcDbDictionary
  3
CEPSNTYPE
350
1A0C
  3
DIMSTYLEDATA
350
1A10
  3
FINGERPRINTGUID
350
1A0D
  3
HYPERLINKBASE
350
1A05
  3
INSUNITS
350
1A0B
  3
LAYOUTDICT
350
1A07
  3
LWETCUNION
350
1A0A
  3
PLOTSETDICT
350
1A08
  3
PLOTSTYLNAMDICT
350
1A09
  3
PSVPSCALE
350
1A0F
  3
PUCSBASE
350
1A13
  3
PUCSORGBACK
350
1A19
  3
PUCSORGBOTTOM
350
1A15
  3
PUCSORGFRONT
350
1A18
  3
PUCSORGLEFT
350
1A16
  3
PUCSORGRIGHT
350
1A17
  3
PUCSORGTOP
350
1A14
  3
PUCSORTHOREF
350
1A11
  3
PUCSORTHOVIEW
350
1A12
  3
STYLESHEET
350
1A06
  3
TSTACKALIGN
350
1A03
  3
TSTACKSIZE
350
1A04
  3
UCSBASE
350
1A1C
  3
UCSORGBACK
350
1A22
  3
UCSORGBOTTOM
350
1A1E
  3
UCSORGFRONT
350
1A21
  3
UCSORGLEFT
350
1A1F
  3
UCSORGRIGHT
350
1A20
  3
UCSORGTOP
350
1A1D
  3
UCSORTHOREF
350
1A1A
  3
UCSORTHOVIEW
350
1A1B
  3
VERSIONGUID
350
1A0E
  0
DICTIONARY
  5
102
102
{ACAD_REACTORS
330
7
102
}
330
7
100
AcDbDictionary
  3
CANNOSCALE
350
198D
  3
CMLEADERSTYLE
350
198C
  3
CTABLESTYLE
350
198B
  3
DIMASSOC
350
103
  3
INDEXCTL
350
198E
  3
SORTENTS
350
549
  0
XRECORD
  5
19C3
102
{ACAD_REACTORS
330
7
102
}
330
7
100
AcDbXrecord
  1
DWGPROPS COOKIE
  2

  3

  4

  6

  7

  8
ymorima
  9

300
=
301
=
302
=
303
=
304
=
305
=
306
=
307
=
308
=
309
=
 40
0.0049054166666667
 41
2454411.650650856
 42
2454412.447824977
  1

 90
        0
  0
XRECORD
  5
19CB
102
{ACAD_REACTORS
330
1973
102
}
330
1973
100
AcDbXrecord
102
VTR_0.000_0.000_1.000_1.000_VISUALSTYLE
340
18EB
102
VTR_0.000_0.000_1.000_1.000_GRIDDISPLAY
 70
     3
102
VTR_0.000_0.000_1.000_1.000_GRIDMAJOR
 70
     5
102
VTR_0.000_0.000_1.000_1.000_DEFAULTLIGHTING
280
     1
102
VTR_0.000_0.000_1.000_1.000_DEFAULTLIGHTINGTYPE
 70
     1
102
VTR_0.000_0.000_1.000_1.000_BRIGHTNESS
141
0.0
102
VTR_0.000_0.000_1.000_1.000_CONTRAST
142
0.0
  0
DICTIONARY
  5
B14
102
{ACAD_REACTORS
330
B13
102
}
330
B13
100
AcDbDictionary
  0
XRECORD
  5
19C6
102
{ACAD_REACTORS
330
1956
102
}
330
1956
100
AcDbXrecord
102
MATERIAL
340
18DD
  0
XRECORD
  5
1957
102
{ACAD_REACTORS
330
1956
102
}
330
1956
100
AcDbXrecord
290
     1
  0
XRECORD
  5
19C5
102
{ACAD_REACTORS
330
1958
102
}
330
1958
100
AcDbXrecord
102
MATERIAL
340
18DD
  0
XRECORD
  5
1959
102
{ACAD_REACTORS
330
1958
102
}
330
1958
100
AcDbXrecord
290
     1
  0
XRECORD
  5
19D1
102
{ACAD_REACTORS
330
195E
102
}
330
195E
100
AcDbXrecord
102
MATERIAL
340
18DD
  0
XRECORD
  5
195F
102
{ACAD_REACTORS
330
195E
102
}
330
195E
100
AcDbXrecord
290
     1
  0
XRECORD
  5
19D2
102
{ACAD_REACTORS
330
1960
102
}
330
1960
100
AcDbXrecord
102
MATERIAL
340
18DD
  0
XRECORD
  5
1961
102
{ACAD_REACTORS
330
1960
102
}
330
1960
100
AcDbXrecord
290
     1
  0
XRECORD
  5
19D4
102
{ACAD_REACTORS
330
1964
102
}
330
1964
100
AcDbXrecord
102
MATERIAL
340
18DD
  0
XRECORD
  5
1965
102
{ACAD_REACTORS
330
1964
102
}
330
1964
100
AcDbXrecord
290
     1
  0
XRECORD
  5
19D5
102
{ACAD_REACTORS
330
1966
102
}
330
1966
100
AcDbXrecord
102
MATERIAL
340
18DD
  0
XRECORD
  5
1967
102
{ACAD_REACTORS
330
1966
102
}
330
1966
100
AcDbXrecord
290
     1
  0
XRECORD
  5
1A24
102
{ACAD_REACTORS
330
1A23
102
}
330
1A23
100
AcDbXrecord
340
2
  0
XRECORD
  5
1A26
102
{ACAD_REACTORS
330
1A25
102
}
330
1A25
100
AcDbXrecord
340
19FC
  0
ACAD_PROXY_OBJECT
  5
18D5
102
{ACAD_XDICTIONARY
360
18D6
102
}
102
{ACAD_REACTORS
330
18CC
102
}
330
18CC
100
AcDbProxyObject
 90
      499
 91
      510
 93
     1340
310
42109E509B1BD8DAC02004014080404555555555555953FAA155555555555654FEA9AA400014080404555555555555953FAA155555555555654FEA9AA400000000000000E03F4080404555555555555953FAA155555555555654FEA9AA4014080404555555555555953FAA155555555555654FEA9AA4010201011555555555
310
55654FEA8555555555555953FAA6A9005020101155555555555654FEA8555555555555953FAA6A900F
 94
        0
1001
ACAD
1000
AcadProxyRoundTripData
1071
      504
1071
   655383
1070
     0
  0
ACAD_PROXY_OBJECT
  5
18CD
102
{ACAD_XDICTIONARY
360
18CE
102
}
102
{ACAD_REACTORS
330
18CC
102
}
330
18CC
100
AcDbProxyObject
 90
      499
 91
      510
 93
     1340
310
42109E53185E595C802004014080404555555555555953FAA155555555555654FEA9AA400014080404555555555555953FAA155555555555654FEA9AA400000000000000E03F4080404555555555555953FAA155555555555654FEA9AA4014080404555555555555953FAA155555555555654FEA9AA4010201011555555555
310
55654FEA8555555555555953FAA6A9005020101155555555555654FEA8555555555555953FAA6A900F
 94
        0
1001
ACAD
1000
AcadProxyRoundTripData
1071
      504
1071
   655383
1070
     0
  0
ACAD_PROXY_OBJECT
  5
18DD
102
{ACAD_XDICTIONARY
360
18DE
102
}
102
{ACAD_REACTORS
330
18CC
102
}
330
18CC
100
AcDbProxyObject
 90
      499
 91
      510
 93
     1332
310
41D1DB1BD8985B002004014080404555555555555953FAA155555555555654FEA9AA400014080404555555555555953FAA155555555555654FEA9AA400000000000000E03F4080404555555555555953FAA155555555555654FEA9AA4014080404555555555555953FAA155555555555654FEA9AA401020101155555555555
310
654FEA8555555555555953FAA6A9005020101155555555555654FEA8555555555555953FAA6A9000
 94
        0
1001
ACAD
1000
AcadProxyRoundTripData
1071
      504
1071
   655383
1070
     0
  0
ACAD_PROXY_OBJECT
  5
191C
102
{ACAD_REACTORS
330
191B
102
}
330
191B
100
AcDbProxyObject
 90
      499
 91
      510
 93
      618
310
40901902A4063FBFFFFFE056BD1B81E855B9FC0AD7A3703D0AD73F4254DD185B99185C990000AD7A3703D0AC73F90141901A02B5E8DC0F42B1CFC02B5E8DC0F42B1CFE5764000000000000300FC6
340
6A
340
0
340
16
340
0
 94
        0
1001
ACAD_MLEADERVER
1070
     2
1001
ACAD
1000
AcadProxyRoundTripData
1071
      508
1071
   655383
1070
     0
  0
MLINESTYLE
  5
78
102
{ACAD_REACTORS
330
76
102
}
330
76
100
AcDbMlineStyle
  2
STANDARD
 70
     0
  3

 62
     0
 51
90.0
 52
90.0
 71
     2
 49
0.5
 62
   256
  6
BYLAYER
 49
-0.5
 62
   256
  6
BYLAYER
  0
ACDBPLACEHOLDER
  5
5
102
{ACAD_REACTORS
330
6
102
}
330
6
100
AcDbPlaceHolder
280
     0
  0
ACAD_PROXY_OBJECT
  5
18FA
102
{ACAD_REACTORS
330
18F9
102
}
330
18F9
100
AcDbProxyObject
 90
      499
 91
      510
 93
       49
310
904313A3100598
 94
        0
1001
ACAD
1000
AcadProxyRoundTripData
1071
      507
1071
   655383
1070
     0
  0
ACAD_PROXY_OBJECT
  5
18FB
102
{ACAD_REACTORS
330
18F9
102
}
330
18F9
100
AcDbProxyObject
 90
      499
 91
      510
 93
      113
310
904313A3200400000000000000406B
 94
        0
1001
ACAD
1000
AcadProxyRoundTripData
1071
      507
1071
   655383
1070
     0
  0
ACAD_PROXY_OBJECT
  5
18FC
102
{ACAD_REACTORS
330
18F9
102
}
330
18F9
100
AcDbProxyObject
 90
      499
 91
      510
 93
      113
310
904313A3400400000000000010406B
 94
        0
1001
ACAD
1000
AcadProxyRoundTripData
1071
      507
1071
   655383
1070
     0
  0
ACAD_PROXY_OBJECT
  5
18FD
102
{ACAD_REACTORS
330
18F9
102
}
330
18F9
100
AcDbProxyObject
 90
      499
 91
      510
 93
      113
310
904313A3500400000000000014406B
 94
        0
1001
ACAD
1000
AcadProxyRoundTripData
1071
      507
1071
   655383
1070
     0
  0
ACAD_PROXY_OBJECT
  5
18FE
102
{ACAD_REACTORS
330
18F9
102
}
330
18F9
100
AcDbProxyObject
 90
      499
 91
      510
 93
      113
310
904313A3800400000000000020406B
 94
        0
1001
ACAD
1000
AcadProxyRoundTripData
1071
      507
1071
   655383
1070
     0
  0
ACAD_PROXY_OBJECT
  5
18FF
102
{ACAD_REACTORS
330
18F9
102
}
330
18F9
100
AcDbProxyObject
 90
      499
 91
      510
 93
      121
310
905313A3130004000000000000244051
 94
        0
1001
ACAD
1000
AcadProxyRoundTripData
1071
      507
1071
   655383
1070
     0
  0
ACAD_PROXY_OBJECT
  5
1900
102
{ACAD_REACTORS
330
18F9
102
}
330
18F9
100
AcDbProxyObject
 90
      499
 91
      510
 93
      121
310
905313A3136004000000000000304051
 94
        0
1001
ACAD
1000
AcadProxyRoundTripData
1071
      507
1071
   655383
1070
     0
  0
ACAD_PROXY_OBJECT
  5
1901
102
{ACAD_REACTORS
330
18F9
102
}
330
18F9
100
AcDbProxyObject
 90
      499
 91
      510
 93
      121
310
905313A3230004000000000000344051
 94
        0
1001
ACAD
1000
AcadProxyRoundTripData
1071
      507
1071
   655383
1070
     0
  0
ACAD_PROXY_OBJECT
  5
1902
102
{ACAD_REACTORS
330
18F9
102
}
330
18F9
100
AcDbProxyObject
 90
      499
 91
      510
 93
      121
310
905313A33300040000000000003E4051
 94
        0
1001
ACAD
1000
AcadProxyRoundTripData
1071
      507
1071
   655383
1070
     0
  0
ACAD_PROXY_OBJECT
  5
1903
102
{ACAD_REACTORS
330
18F9
102
}
330
18F9
100
AcDbProxyObject
 90
      499
 91
      510
 93
      121
310
905313A3430004000000000000444051
 94
        0
1001
ACAD
1000
AcadProxyRoundTripData
1071
      507
1071
   655383
1070
     0
  0
ACAD_PROXY_OBJECT
  5
1904
102
{ACAD_REACTORS
330
18F9
102
}
330
18F9
100
AcDbProxyObject
 90
      499
 91
      510
 93
      121
310
905313A3530004000000000000494051
 94
        0
1001
ACAD
1000
AcadProxyRoundTripData
1071
      507
1071
   655383
1070
     0
  0
ACAD_PROXY_OBJECT
  5
1905
102
{ACAD_REACTORS
330
18F9
102
}
330
18F9
100
AcDbProxyObject
 90
      499
 91
      510
 93
      129
310
906313A313030004000000000000594038
 94
        0
1001
ACAD
1000
AcadProxyRoundTripData
1071
      507
1071
   655383
1070
     0
  0
ACAD_PROXY_OBJECT
  5
1906
102
{ACAD_REACTORS
330
18F9
102
}
330
18F9
100
AcDbProxyObject
 90
      499
 91
      510
 93
      113
310
904323A31000000000000000010159
 94
        0
1001
ACAD
1000
AcadProxyRoundTripData
1071
      507
1071
   655383
1070
     0
  0
ACAD_PROXY_OBJECT
  5
1907
102
{ACAD_REACTORS
330
18F9
102
}
330
18F9
100
AcDbProxyObject
 90
      499
 91
      510
 93
      113
310
904343A31000000000000000410159
 94
        0
1001
ACAD
1000
AcadProxyRoundTripData
1071
      507
1071
   655383
1070
     0
  0
ACAD_PROXY_OBJECT
  5
1908
102
{ACAD_REACTORS
330
18F9
102
}
330
18F9
100
AcDbProxyObject
 90
      499
 91
      510
 93
      113
310
904383A31000000000000000810159
 94
        0
1001
ACAD
1000
AcadProxyRoundTripData
1071
      507
1071
   655383
1070
     0
  0
ACAD_PROXY_OBJECT
  5
1909
102
{ACAD_REACTORS
330
18F9
102
}
330
18F9
100
AcDbProxyObject
 90
      499
 91
      510
 93
      121
310
90531303A31000000000000000910140
 94
        0
1001
ACAD
1000
AcadProxyRoundTripData
1071
      507
1071
   655383
1070
     0
  0
ACAD_PROXY_OBJECT
  5
190A
102
{ACAD_REACTORS
330
18F9
102
}
330
18F9
100
AcDbProxyObject
 90
      499
 91
      510
 93
      129
310
9063130303A31000000000000001650138
 94
        0
1001
ACAD
1000
AcadProxyRoundTripData
1071
      507
1071
   655383
1070
     0
  0
ACAD_PROXY_OBJECT
  5
190B
102
{ACAD_REACTORS
330
18F9
102
}
330
18F9
100
AcDbProxyObject
 90
      499
 91
      510
 93
      265
310
90F312F31323822203D2031272D302200000000000000200FC00000000000028402B
 94
        0
1001
ACAD
1000
AcadProxyRoundTripData
1071
      507
1071
   655383
1070
     0
  0
ACAD_PROXY_OBJECT
  5
190C
102
{ACAD_REACTORS
330
18F9
102
}
330
18F9
100
AcDbProxyObject
 90
      499
 91
      510
 93
      257
310
90E312F363422203D2031272D302200000000000000240FC000000000000284040
 94
        0
1001
ACAD
1000
AcadProxyRoundTripData
1071
      507
1071
   655383
1070
     0
  0
ACAD_PROXY_OBJECT
  5
190D
102
{ACAD_REACTORS
330
18F9
102
}
330
18F9
100
AcDbProxyObject
 90
      499
 91
      510
 93
      257
310
90E312F333222203D2031272D302200000000000000280FC000000000000284040
 94
        0
1001
ACAD
1000
AcadProxyRoundTripData
1071
      507
1071
   655383
1070
     0
  0
ACAD_PROXY_OBJECT
  5
190E
102
{ACAD_REACTORS
330
18F9
102
}
330
18F9
100
AcDbProxyObject
 90
      499
 91
      510
 93
      257
310
90E312F313622203D2031272D3022000000000000002C0FC000000000000284040
 94
        0
1001
ACAD
1000
AcadProxyRoundTripData
1071
      507
1071
   655383
1070
     0
  0
ACAD_PROXY_OBJECT
  5
190F
102
{ACAD_REACTORS
330
18F9
102
}
330
18F9
100
AcDbProxyObject
 90
      499
 91
      510
 93
      257
310
90E332F333222203D2031272D3022000000000000002E0FC000000000000284040
 94
        0
1001
ACAD
1000
AcadProxyRoundTripData
1071
      507
1071
   655383
1070
     0
  0
ACAD_PROXY_OBJECT
  5
1910
102
{ACAD_REACTORS
330
18F9
102
}
330
18F9
100
AcDbProxyObject
 90
      499
 91
      510
 93
      249
310
90D312F3822203D2031272D302200000000000000300FC000000000000284040
 94
        0
1001
ACAD
1000
AcadProxyRoundTripData
1071
      507
1071
   655383
1070
     0
  0
ACAD_PROXY_OBJECT
  5
1911
102
{ACAD_REACTORS
330
18F9
102
}
330
18F9
100
AcDbProxyObject
 90
      499
 91
      510
 93
      257
310
90E332F313622203D2031272D302200000000000000320FC000000000000284040
 94
        0
1001
ACAD
1000
AcadProxyRoundTripData
1071
      507
1071
   655383
1070
     0
  0
ACAD_PROXY_OBJECT
  5
1912
102
{ACAD_REACTORS
330
18F9
102
}
330
18F9
100
AcDbProxyObject
 90
      499
 91
      510
 93
      249
310
90D312F3422203D2031272D302200000000000000340FC000000000000284040
 94
        0
1001
ACAD
1000
AcadProxyRoundTripData
1071
      507
1071
   655383
1070
     0
  0
ACAD_PROXY_OBJECT
  5
1913
102
{ACAD_REACTORS
330
18F9
102
}
330
18F9
100
AcDbProxyObject
 90
      499
 91
      510
 93
      249
310
90D332F3822203D2031272D302200000000000000360FC000000000000284040
 94
        0
1001
ACAD
1000
AcadProxyRoundTripData
1071
      507
1071
   655383
1070
     0
  0
ACAD_PROXY_OBJECT
  5
1914
102
{ACAD_REACTORS
330
18F9
102
}
330
18F9
100
AcDbProxyObject
 90
      499
 91
      510
 93
      249
310
90D312F3222203D2031272D302200000000000000380FC000000000000284040
 94
        0
1001
ACAD
1000
AcadProxyRoundTripData
1071
      507
1071
   655383
1070
     0
  0
ACAD_PROXY_OBJECT
  5
1915
102
{ACAD_REACTORS
330
18F9
102
}
330
18F9
100
AcDbProxyObject
 90
      499
 91
      510
 93
      249
310
90D332F3422203D2031272D3022000000000000003A0FC000000000000284040
 94
        0
1001
ACAD
1000
AcadProxyRoundTripData
1071
      507
1071
   655383
1070
     0
  0
ACAD_PROXY_OBJECT
  5
1916
102
{ACAD_REACTORS
330
18F9
102
}
330
18F9
100
AcDbProxyObject
 90
      499
 91
      510
 93
      169
310
90B3122203D2031272D3022004000000000000284020
 94
        0
1001
ACAD
1000
AcadProxyRoundTripData
1071
      507
1071
   655383
1070
     0
  0
ACAD_PROXY_OBJECT
  5
1917
102
{ACAD_REACTORS
330
18F9
102
}
330
18F9
100
AcDbProxyObject
 90
      499
 91
      510
 93
      265
310
90F312D312F3222203D2031272D3022000000000000003E0FC00000000000028402B
 94
        0
1001
ACAD
1000
AcadProxyRoundTripData
1071
      507
1071
   655383
1070
     0
  0
ACAD_PROXY_OBJECT
  5
1918
102
{ACAD_REACTORS
330
18F9
102
}
330
18F9
100
AcDbProxyObject
 90
      499
 91
      510
 93
      233
310
90B3322203D2031272D30220000000000000002100000000000000284000
 94
        0
1001
ACAD
1000
AcadProxyRoundTripData
1071
      507
1071
   655383
1070
     0
  0
ACAD_PROXY_OBJECT
  5
1919
102
{ACAD_REACTORS
330
18F9
102
}
330
18F9
100
AcDbProxyObject
 90
      499
 91
      510
 93
      233
310
90B3622203D2031272D30220000000000000006100000000000000284000
 94
        0
1001
ACAD
1000
AcadProxyRoundTripData
1071
      507
1071
   655383
1070
     0
  0
ACAD_PROXY_OBJECT
  5
191A
102
{ACAD_REACTORS
330
18F9
102
}
330
18F9
100
AcDbProxyObject
 90
      499
 91
      510
 93
      257
310
90E31272D3022203D2031272D3022000000000000000A100000000000000284040
 94
        0
1001
ACAD
1000
AcadProxyRoundTripData
1071
      507
1071
   655383
1070
     0
  0
ACAD_PROXY_OBJECT
  5
18F8
102
{ACAD_XDICTIONARY
360
1968
102
}
102
{ACAD_REACTORS
330
18F7
102
}
330
18F7
100
AcDbProxyObject
 90
      499
 91
      510
 93
     1849
310
4254DD185B99185C990028B81E85EB51B8AE3F2E07A17AD46E2B8FC02B5E8DC0F42B1CFD028000000C1008070000C3001FDFF8000000C1003FBFF000000182007F7FE00000030400FEFFC00000060801FDFF8000000C1003FBFF00000018200000000000000681FA0B0000001820100E000186003FBFF000000182007F7FE0
310
0000030400FEFFC00000060801FDFF8000000C1003FBFF000000182007F7FE000000304000AD7A3703D0AC73F4160000003040201C00030C007F7FE00000030400FEFFC00000060801FDFF8000000C1003FBFF000000182007F7FE00000030400FEFFC000000608054
340
16
340
16
340
16
 94
        0
1001
ACAD
1000
AcadProxyRoundTripData
1071
      506
1071
   655383
1070
     0
  0
ACAD_PROXY_OBJECT
  5
18EB
102
{ACAD_REACTORS
330
18E5
102
}
330
18E5
100
AcDbProxyObject
 90
      499
 91
      510
 93
      444
310
430C9915DA5C99599C985B59401049028333333333333E3BF0000000000000FB0107901411070040501600405405064090741402480A0340
 94
        0
1001
ACAD
1000
AcDbSavedByObjectVersion
1070
     0
1000
AcadProxyRoundTripData
1071
      505
1071
   655383
1070
     0
  0
ACAD_PROXY_OBJECT
  5
18ED
102
{ACAD_REACTORS
330
18E5
102
}
330
18E5
100
AcDbProxyObject
 90
      499
 91
      510
 93
      508
310
428CD108121A5919195B8010640502408333333333333E3BF0000000000000FB01079024090700405020000000000001110200405405064090740C02480A0340
 94
        0
1001
ACAD
1000
AcDbSavedByObjectVersion
1070
     0
1000
AcadProxyRoundTripData
1071
      505
1071
   655383
1070
     0
  0
ACAD_PROXY_OBJECT
  5
18EC
102
{ACAD_REACTORS
330
18E5
102
}
330
18E5
100
AcDbProxyObject
 90
      499
 91
      510
 93
      444
310
430CD915DA5C99599C985B59401059028333333333333E3BF0000000000000FB0107901411070040501600405405064090741402480A0340
 94
        0
1001
ACAD
1000
AcDbSavedByObjectVersion
1070
     0
1000
AcadProxyRoundTripData
1071
      505
1071
   655383
1070
     0
  0
ACAD_PROXY_OBJECT
  5
18EA
102
{ACAD_REACTORS
330
18E5
102
}
330
18E5
100
AcDbProxyObject
 90
      499
 91
      510
 93
      396
310
4190985CDA58C0107406404333333333333E3BF0000000000000FB0107A41107004050150841D405064090741402480A0356
 94
        0
1001
ACAD
1000
AcDbSavedByObjectVersion
1070
     0
1000
AcadProxyRoundTripData
1071
      505
1071
   655383
1070
     0
  0
ACAD_PROXY_OBJECT
  5
18F1
102
{ACAD_REACTORS
330
18E5
102
}
330
18E5
100
AcDbProxyObject
 90
      499
 91
      510
 93
      436
310
42509C9A59DA1D195B8010C409028333333333333E3BF0000000000000FB010790141107004050150841D405064090741402480A029956
 94
        0
1001
ACAD
1000
AcDbSavedByObjectVersion
1070
     0
1000
AcadProxyRoundTripData
1071
      505
1071
   655383
1070
     0
  0
ACAD_PROXY_OBJECT
  5
18F5
102
{ACAD_REACTORS
330
18E5
102
}
330
18E5
100
AcDbProxyObject
 90
      499
 91
      510
 93
      460
310
4310DBDB1BDC90DA185B99D9401104090240C333333333333E3BF0000000000000FB0108901411070040501508421405064090741402480A0354
 94
        0
1001
ACAD
1000
AcDbSavedByObjectVersion
1070
     0
1000
AcadProxyRoundTripData
1071
      505
1071
   655383
1070
     0
  0
ACAD_PROXY_OBJECT
  5
18EE
102
{ACAD_REACTORS
330
18E5
102
}
330
18E5
100
AcDbProxyObject
 90
      499
 91
      510
 93
      508
310
42D0DBDB98D95C1D1D585B0010940D028333333333333E3BF0000000000000FB0107902409070040501000000000000111010841D405064090740C02480A0340
 94
        0
1001
ACAD
1000
AcDbSavedByObjectVersion
1070
     0
1000
AcadProxyRoundTripData
1071
      505
1071
   655383
1070
     0
  0
ACAD_PROXY_OBJECT
  5
18F0
102
{ACAD_REACTORS
330
18E5
102
}
330
18E5
100
AcDbProxyObject
 90
      499
 91
      510
 93
      420
310
41111A5B4010B409028333333333333E3BF0000000000000FB010790141107004050150841D405064090741402480A02677FFFFFDB
 94
        0
1001
ACAD
1000
AcDbSavedByObjectVersion
1070
     0
1000
AcadProxyRoundTripData
1071
      505
1071
   655383
1070
     0
  0
ACAD_PROXY_OBJECT
  5
18F4
102
{ACAD_REACTORS
330
18E5
102
}
330
18E5
100
AcDbProxyObject
 90
      499
 91
      510
 93
      452
310
43119858D95C185D1D195C9B8010F409028333333333333E3BF0000000000000FB010790141107004050150841D405064090741402480A0350
 94
        0
1001
ACAD
1000
AcDbSavedByObjectVersion
1070
     0
1000
AcadProxyRoundTripData
1071
      505
1071
   655383
1070
     0
  0
ACAD_PROXY_OBJECT
  5
18E6
102
{ACAD_REACTORS
330
18E5
102
}
330
18E5
100
AcDbProxyObject
 90
      499
 91
      510
 93
      396
310
41519B185D00240901404333333333333E3BF0000000000000F9010740A41107004050150841D405064090741402480A1B55
 94
        0
1001
ACAD
1000
AcDbSavedByObjectVersion
1070
     0
1000
AcadProxyRoundTripData
1071
      505
1071
   655383
1070
     0
  0
ACAD_PROXY_OBJECT
  5
18E7
102
{ACAD_REACTORS
330
18E5
102
}
330
18E5
100
AcDbProxyObject
 90
      499
 91
      510
 93
      484
310
43919B185D15DA5D1A115919D95CC010140901404333333333333E3BF0000000000000F9010740901411070040501600405405064090741402480A1B50
 94
        0
1001
ACAD
1000
AcDbSavedByObjectVersion
1070
     0
1000
AcadProxyRoundTripData
1071
      505
1071
   655383
1070
     0
  0
ACAD_PROXY_OBJECT
  5
18E8
102
{ACAD_REACTORS
330
18E5
102
}
330
18E5
100
AcDbProxyObject
 90
      499
 91
      510
 93
      420
310
4211DBDD5C985D590010240902404333333333333E3BF0000000000000F9010740A411070040501641D405064090741402480A1B50
 94
        0
1001
ACAD
1000
AcDbSavedByObjectVersion
1070
     0
1000
AcadProxyRoundTripData
1071
      505
1071
   655383
1070
     0
  0
ACAD_PROXY_OBJECT
  5
18E9
102
{ACAD_REACTORS
330
18E5
102
}
330
18E5
100
AcDbProxyObject
 90
      499
 91
      510
 93
      508
310
4451DBDD5C985D5915DA5D1A115919D95CC010340902404333333333333E3BF0000000000000F9010740901411070040501600405405064090741402480A1B50
 94
        0
1001
ACAD
1000
AcDbSavedByObjectVersion
1070
     0
1000
AcadProxyRoundTripData
1071
      505
1071
   655383
1070
     0
  0
ACAD_PROXY_OBJECT
  5
18F3
102
{ACAD_REACTORS
330
18E5
102
}
330
18E5
100
AcDbProxyObject
 90
      499
 91
      510
 93
      452
310
43131A5B995C185D1D195C9B8010E409028333333333333E3BF0000000000000FB010790141107004050750841D405064090741402483A0350
 94
        0
1001
ACAD
1000
AcDbSavedByObjectVersion
1070
     0
1000
AcadProxyRoundTripData
1071
      505
1071
   655383
1070
     0
  0
ACAD_PROXY_OBJECT
  5
18EF
102
{ACAD_REACTORS
330
18E5
102
}
330
18E5
100
AcDbProxyObject
 90
      499
 91
      510
 93
      428
310
429499585B1A5CDD1A58C0108409028333333333333E3BF0000000000000FB01079019070040501508421405064090741402480A1B45
 94
        0
1001
ACAD
1000
AcDbSavedByObjectVersion
1070
     0
1000
AcadProxyRoundTripData
1071
      505
1071
   655383
1070
     0
  0
ACAD_PROXY_OBJECT
  5
18F2
102
{ACAD_REACTORS
330
18E5
102
}
330
18E5
100
AcDbProxyObject
 90
      499
 91
      510
 93
      420
310
42151A1A58DAD95B8010D409028333333333333E3BF0000000000000FB010790141107004050150C41D405064090741402480A0352
 94
        0
1001
ACAD
1000
AcDbSavedByObjectVersion
1070
     0
1000
AcadProxyRoundTripData
1071
      505
1071
   655383
1070
     0
  0
XRECORD
  5
1A0C
102
{ACAD_REACTORS
330
1A02
102
}
330
1A02
100
AcDbXrecord
 90
        0
  0
XRECORD
  5
1A10
102
{ACAD_REACTORS
330
1A02
102
}
330
1A02
100
AcDbXrecord
1000
DSTYLE
1002
{
1070
   179
 70
     2
1070
   277
 70
     6
1002
}
  0
XRECORD
  5
1A0D
102
{ACAD_REACTORS
330
1A02
102
}
330
1A02
100
AcDbXrecord
  1
{6385560B-F4B1-4644-A7C2-A3E32AC3D232}
  0
XRECORD
  5
1A05
102
{ACAD_REACTORS
330
1A02
102
}
330
1A02
100
AcDbXrecord
  1

  0
XRECORD
  5
1A0B
102
{ACAD_REACTORS
330
1A02
102
}
330
1A02
100
AcDbXrecord
 90
        0
  0
XRECORD
  5
1A07
102
{ACAD_REACTORS
330
1A02
102
}
330
1A02
100
AcDbXrecord
340
61
  0
XRECORD
  5
1A0A
102
{ACAD_REACTORS
330
1A02
102
}
330
1A02
100
AcDbXrecord
 90
    10781
  0
XRECORD
  5
1A08
102
{ACAD_REACTORS
330
1A02
102
}
330
1A02
100
AcDbXrecord
340
77
  0
XRECORD
  5
1A09
102
{ACAD_REACTORS
330
1A02
102
}
330
1A02
100
AcDbXrecord
340
6
  0
XRECORD
  5
1A0F
102
{ACAD_REACTORS
330
1A02
102
}
330
1A02
100
AcDbXrecord
 40
0.0
  0
XRECORD
  5
1A13
102
{ACAD_REACTORS
330
1A02
102
}
330
1A02
100
AcDbXrecord
340
0
  0
XRECORD
  5
1A19
102
{ACAD_REACTORS
330
1A02
102
}
330
1A02
100
AcDbXrecord
 10
0.0
 20
0.0
 30
0.0
  0
XRECORD
  5
1A15
102
{ACAD_REACTORS
330
1A02
102
}
330
1A02
100
AcDbXrecord
 10
0.0
 20
0.0
 30
0.0
  0
XRECORD
  5
1A18
102
{ACAD_REACTORS
330
1A02
102
}
330
1A02
100
AcDbXrecord
 10
0.0
 20
0.0
 30
0.0
  0
XRECORD
  5
1A16
102
{ACAD_REACTORS
330
1A02
102
}
330
1A02
100
AcDbXrecord
 10
0.0
 20
0.0
 30
0.0
  0
XRECORD
  5
1A17
102
{ACAD_REACTORS
330
1A02
102
}
330
1A02
100
AcDbXrecord
 10
0.0
 20
0.0
 30
0.0
  0
XRECORD
  5
1A14
102
{ACAD_REACTORS
330
1A02
102
}
330
1A02
100
AcDbXrecord
 10
0.0
 20
0.0
 30
0.0
  0
XRECORD
  5
1A11
102
{ACAD_REACTORS
330
1A02
102
}
330
1A02
100
AcDbXrecord
340
0
  0
XRECORD
  5
1A12
102
{ACAD_REACTORS
330
1A02
102
}
330
1A02
100
AcDbXrecord
 70
     0
  0
XRECORD
  5
1A06
102
{ACAD_REACTORS
330
1A02
102
}
330
1A02
100
AcDbXrecord
  1
Sekkei.ctb
  0
XRECORD
  5
1A03
102
{ACAD_REACTORS
330
1A02
102
}
330
1A02
100
AcDbXrecord
 90
        1
  0
XRECORD
  5
1A04
102
{ACAD_REACTORS
330
1A02
102
}
330
1A02
100
AcDbXrecord
 90
       70
  0
XRECORD
  5
1A1C
102
{ACAD_REACTORS
330
1A02
102
}
330
1A02
100
AcDbXrecord
340
0
  0
XRECORD
  5
1A22
102
{ACAD_REACTORS
330
1A02
102
}
330
1A02
100
AcDbXrecord
 10
0.0
 20
0.0
 30
0.0
  0
XRECORD
  5
1A1E
102
{ACAD_REACTORS
330
1A02
102
}
330
1A02
100
AcDbXrecord
 10
0.0
 20
0.0
 30
0.0
  0
XRECORD
  5
1A21
102
{ACAD_REACTORS
330
1A02
102
}
330
1A02
100
AcDbXrecord
 10
0.0
 20
0.0
 30
0.0
  0
XRECORD
  5
1A1F
102
{ACAD_REACTORS
330
1A02
102
}
330
1A02
100
AcDbXrecord
 10
0.0
 20
0.0
 30
0.0
  0
XRECORD
  5
1A20
102
{ACAD_REACTORS
330
1A02
102
}
330
1A02
100
AcDbXrecord
 10
0.0
 20
0.0
 30
0.0
  0
XRECORD
  5
1A1D
102
{ACAD_REACTORS
330
1A02
102
}
330
1A02
100
AcDbXrecord
 10
0.0
 20
0.0
 30
0.0
  0
XRECORD
  5
1A1A
102
{ACAD_REACTORS
330
1A02
102
}
330
1A02
100
AcDbXrecord
340
0
  0
XRECORD
  5
1A1B
102
{ACAD_REACTORS
330
1A02
102
}
330
1A02
100
AcDbXrecord
 70
     0
  0
XRECORD
  5
1A0E
102
{ACAD_REACTORS
330
1A02
102
}
330
1A02
100
AcDbXrecord
  1
{F13EBAC8-C96D-4297-9773-B81A618B4E0B}
  0
DICTIONARYVAR
  5
198D
102
{ACAD_REACTORS
330
102
102
}
330
102
100
DictionaryVariables
280
     0
  1
1:1
  0
DICTIONARYVAR
  5
198C
102
{ACAD_REACTORS
330
102
102
}
330
102
100
DictionaryVariables
280
     0
  1
STANDARD
  0
DICTIONARYVAR
  5
198B
102
{ACAD_REACTORS
330
102
102
}
330
102
100
DictionaryVariables
280
     0
  1
STANDARD
  0
DICTIONARYVAR
  5
103
102
{ACAD_REACTORS
330
102
102
}
330
102
100
DictionaryVariables
280
     0
  1
1
  0
DICTIONARYVAR
  5
198E
102
{ACAD_REACTORS
330
102
102
}
330
102
100
DictionaryVariables
280
     0
  1
0
  0
DICTIONARYVAR
  5
549
102
{ACAD_REACTORS
330
102
102
}
330
102
100
DictionaryVariables
280
     0
  1
96
  0
DICTIONARY
  5
18D6
330
18D5
100
AcDbDictionary
280
     1
  3
ACAD_XREC_ROUNDTRIP
360
19DD
  3
BUMPTILE
360
18D8
  3
DIFFUSETILE
360
18D7
  3
OPACITYTILE
360
18DB
  3
REFLECTIONTILE
360
18DA
  3
REFRACTIONTILE
360
18DC
  3
SPECULARTILE
360
18D9
  0
DICTIONARY
  5
18CE
330
18CD
100
AcDbDictionary
280
     1
  3
ACAD_XREC_ROUNDTRIP
360
19DC
  3
BUMPTILE
360
18D0
  3
DIFFUSETILE
360
18CF
  3
OPACITYTILE
360
18D3
  3
REFLECTIONTILE
360
18D2
  3
REFRACTIONTILE
360
18D4
  3
SPECULARTILE
360
18D1
  0
DICTIONARY
  5
18DE
330
18DD
100
AcDbDictionary
280
     1
  3
ACAD_XREC_ROUNDTRIP
360
19DE
  3
BUMPTILE
360
18E0
  3
DIFFUSETILE
360
18DF
  3
OPACITYTILE
360
18E3
  3
REFLECTIONTILE
360
18E2
  3
REFRACTIONTILE
360
18E4
  3
SPECULARTILE
360
18E1
  0
DICTIONARY
  5
1968
330
18F8
100
AcDbDictionary
280
     1
  3
ACAD_ROUNDTRIP_2008_TABLES
360
19C2
  3
ACAD_XREC_ROUNDTRIP
360
19DF
  0
XRECORD
  5
19DD
102
{ACAD_REACTORS
330
18D6
102
}
330
18D6
100
AcDbXrecord
102
MATERIAL
148
0.0
149
0.0
149
0.0
 93
        0
 94
      127
282
     0
 72
     0
 77
     0
171
     0
175
     0
179
     0
273
     0
  0
XRECORD
  5
18D8
102
{ACAD_REACTORS
330
18D6
102
}
330
18D6
100
AcDbXrecord
270
     1
271
     1
  0
XRECORD
  5
18D7
102
{ACAD_REACTORS
330
18D6
102
}
330
18D6
100
AcDbXrecord
270
     1
271
     1
  0
XRECORD
  5
18DB
102
{ACAD_REACTORS
330
18D6
102
}
330
18D6
100
AcDbXrecord
270
     1
271
     1
  0
XRECORD
  5
18DA
102
{ACAD_REACTORS
330
18D6
102
}
330
18D6
100
AcDbXrecord
270
     1
271
     1
  0
XRECORD
  5
18DC
102
{ACAD_REACTORS
330
18D6
102
}
330
18D6
100
AcDbXrecord
270
     1
271
     1
  0
XRECORD
  5
18D9
102
{ACAD_REACTORS
330
18D6
102
}
330
18D6
100
AcDbXrecord
270
     1
271
     1
  0
XRECORD
  5
19DC
102
{ACAD_REACTORS
330
18CE
102
}
330
18CE
100
AcDbXrecord
102
MATERIAL
148
0.0
149
0.0
149
0.0
 93
        0
 94
      127
282
     0
 72
     0
 77
     0
171
     0
175
     0
179
     0
273
     0
  0
XRECORD
  5
18D0
102
{ACAD_REACTORS
330
18CE
102
}
330
18CE
100
AcDbXrecord
270
     1
271
     1
  0
XRECORD
  5
18CF
102
{ACAD_REACTORS
330
18CE
102
}
330
18CE
100
AcDbXrecord
270
     1
271
     1
  0
XRECORD
  5
18D3
102
{ACAD_REACTORS
330
18CE
102
}
330
18CE
100
AcDbXrecord
270
     1
271
     1
  0
XRECORD
  5
18D2
102
{ACAD_REACTORS
330
18CE
102
}
330
18CE
100
AcDbXrecord
270
     1
271
     1
  0
XRECORD
  5
18D4
102
{ACAD_REACTORS
330
18CE
102
}
330
18CE
100
AcDbXrecord
270
     1
271
     1
  0
XRECORD
  5
18D1
102
{ACAD_REACTORS
330
18CE
102
}
330
18CE
100
AcDbXrecord
270
     1
271
     1
  0
XRECORD
  5
19DE
102
{ACAD_REACTORS
330
18DE
102
}
330
18DE
100
AcDbXrecord
102
MATERIAL
148
0.0
149
0.0
149
0.0
 93
        0
 94
      127
282
     0
 72
     0
 77
     0
171
     0
175
     0
179
     0
273
     0
  0
XRECORD
  5
18E0
102
{ACAD_REACTORS
330
18DE
102
}
330
18DE
100
AcDbXrecord
270
     1
271
     1
  0
XRECORD
  5
18DF
102
{ACAD_REACTORS
330
18DE
102
}
330
18DE
100
AcDbXrecord
270
     1
271
     1
  0
XRECORD
  5
18E3
102
{ACAD_REACTORS
330
18DE
102
}
330
18DE
100
AcDbXrecord
270
     1
271
     1
  0
XRECORD
  5
18E2
102
{ACAD_REACTORS
330
18DE
102
}
330
18DE
100
AcDbXrecord
270
     1
271
     1
  0
XRECORD
  5
18E4
102
{ACAD_REACTORS
330
18DE
102
}
330
18DE
100
AcDbXrecord
270
     1
271
     1
  0
XRECORD
  5
18E1
102
{ACAD_REACTORS
330
18DE
102
}
330
18DE
100
AcDbXrecord
270
     1
271
     1
  0
ACAD_PROXY_OBJECT
  5
19C2
102
{ACAD_REACTORS
330
1968
102
}
330
1968
100
AcDbProxyObject
 90
      499
 91
      510
 93
     1044
310
40D054060020000020000003200101A000080002A5058000000C100000000000000340FE901405075F5449544C450041501A8000000C800406800020000A9416000000304000AD7A3703D0AC73FA409014217D2115051115480105406A0000003200101A000080002A5028000000C10002B5E8DC0F42B1CFE903409065F444
310
15441004
340
16
340
16
340
16
 94
        0
1001
ACAD
1000
AcadProxyRoundTripData
1071
      509
1071
   655383
1070
     0
  0
XRECORD
  5
19DF
102
{ACAD_REACTORS
330
1968
102
}
330
1968
100
AcDbXrecord
102
ACAD_ROUNDTRIP_PRE2007_TABLESTYLE
 90
      512
 91
        0
  1

 92
      512
 93
        0
  2

 94
      512
 95
        0
  3

  0
ENDSEC
  0
EOF
