  0
SECTION
  2
HEADER
  9
$ACADVER
  1
AC1014
  9
$ACADMAINTVER
 70
     9
  9
$DWGCODEPAGE
  3
ANSI_932
  9
$INSBASE
 10
0.0
 20
0.0
 30
0.0
  9
$EXTMIN
 10
38.97301088895346
 20
101.5827054078191
 30
0.0
  9
$EXTMAX
 10
1003.388745330339
 20
696.7054215708621
 30
0.0
  9
$LIMMIN
 10
0.0
 20
0.0
  9
$LIMMAX
 10
297.0
 20
210.0
  9
$ORTHOMODE
 70
     1
  9
$REGENMODE
 70
     1
  9
$FILLMODE
 70
     1
  9
$QTEXTMODE
 70
     0
  9
$MIRRTEXT
 70
     0
  9
$DRAGMODE
 70
     2
  9
$LTSCALE
 40
3.0
  9
$OSMODE
 70
    37
  9
$ATTMODE
 70
     1
  9
$TEXTSIZE
 40
2.0
  9
$TRACEWID
 40
1.0
  9
$TEXTSTYLE
  7
STANDARD
  9
$CLAYER
  8
0
  9
$CELTYPE
  6
BYLAYER
  9
$CECOLOR
 62
   256
  9
$CELTSCALE
 40
1.0
  9
$DELOBJ
 70
     1
  9
$DISPSILH
 70
     0
  9
$DIMSCALE
 40
3.0
  9
$DIMASZ
 40
1.8
  9
$DIMEXO
 40
0.625
  9
$DIMDLI
 40
3.75
  9
$DIMRND
 40
0.0
  9
$DIMDLE
 40
0.0
  9
$DIMEXE
 40
0.8
  9
$DIMTP
 40
0.0
  9
$DIMTM
 40
0.0
  9
$DIMTXT
 40
1.8
  9
$DIMCEN
 40
2.5
  9
$DIMTSZ
 40
0.0
  9
$DIMTOL
 70
     0
  9
$DIMLIM
 70
     0
  9
$DIMTIH
 70
     0
  9
$DIMTOH
 70
     0
  9
$DIMSE1
 70
     0
  9
$DIMSE2
 70
     0
  9
$DIMTAD
 70
     1
  9
$DIMZIN
 70
     8
  9
$DIMBLK
  1

  9
$DIMASO
 70
     1
  9
$DIMSHO
 70
     1
  9
$DIMPOST
  1

  9
$DIMAPOST
  1

  9
$DIMALT
 70
     0
  9
$DIMALTD
 70
     4
  9
$DIMALTF
 40
0.0394
  9
$DIMLFAC
 40
1.0
  9
$DIMTOFL
 70
     1
  9
$DIMTVP
 40
0.0
  9
$DIMTIX
 70
     0
  9
$DIMSOXD
 70
     0
  9
$DIMSAH
 70
     0
  9
$DIMBLK1
  1

  9
$DIMBLK2
  1

  9
$DIMSTYLE
  2
STANDARD
  9
$DIMCLRD
 70
     0
  9
$DIMCLRE
 70
     0
  9
$DIMCLRT
 70
     0
  9
$DIMTFAC
 40
1.0
  9
$DIMGAP
 40
0.75
  9
$DIMJUST
 70
     0
  9
$DIMSD1
 70
     0
  9
$DIMSD2
 70
     0
  9
$DIMTOLJ
 70
     1
  9
$DIMTZIN
 70
     0
  9
$DIMALTZ
 70
     0
  9
$DIMALTTZ
 70
     0
  9
$DIMFIT
 70
     3
  9
$DIMUPT
 70
     0
  9
$DIMUNIT
 70
     8
  9
$DIMDEC
 70
     2
  9
$DIMTDEC
 70
     2
  9
$DIMALTU
 70
     8
  9
$DIMALTTD
 70
     4
  9
$DIMTXSTY
  7
STANDARD
  9
$DIMAUNIT
 70
     0
  9
$LUNITS
 70
     2
  9
$LUPREC
 70
     3
  9
$SKETCHINC
 40
1.0
  9
$FILLETRAD
 40
10.0
  9
$AUNITS
 70
     0
  9
$AUPREC
 70
     2
  9
$MENU
  1
.
  9
$ELEVATION
 40
0.0
  9
$PELEVATION
 40
0.0
  9
$THICKNESS
 40
0.0
  9
$LIMCHECK
 70
     0
  9
$BLIPMODE
 70
     0
  9
$CHAMFERA
 40
0.0
  9
$CHAMFERB
 40
0.0
  9
$CHAMFERC
 40
20.0
  9
$CHAMFERD
 40
0.0
  9
$SKPOLY
 70
     0
  9
$TDCREATE
 40
2454411.652630208
  9
$TDUPDATE
 40
2454424.597138484
  9
$TDINDWG
 40
0.0102443056
  9
$TDUSRTIMER
 40
0.0102443056
  9
$USRTIMER
 70
     1
  9
$ANGBASE
 50
0.0
  9
$ANGDIR
 70
     0
  9
$PDMODE
 70
     0
  9
$PDSIZE
 40
-10.0
  9
$PLINEWID
 40
0.0
  9
$COORDS
 70
     0
  9
$SPLFRAME
 70
     0
  9
$SPLINETYPE
 70
     6
  9
$SPLINESEGS
 70
     8
  9
$ATTDIA
 70
     0
  9
$ATTREQ
 70
     1
  9
$HANDLING
 70
-16383
  9
$HANDSEED
  5
1A27
  9
$SURFTAB1
 70
     6
  9
$SURFTAB2
 70
     6
  9
$SURFTYPE
 70
     6
  9
$SURFU
 70
     6
  9
$SURFV
 70
     6
  9
$UCSNAME
  2

  9
$UCSORG
 10
0.0
 20
0.0
 30
0.0
  9
$UCSXDIR
 10
1.0
 20
0.0
 30
0.0
  9
$UCSYDIR
 10
0.0
 20
1.0
 30
0.0
  9
$PUCSNAME
  2

  9
$PUCSORG
 10
0.0
 20
0.0
 30
0.0
  9
$PUCSXDIR
 10
1.0
 20
0.0
 30
0.0
  9
$PUCSYDIR
 10
0.0
 20
1.0
 30
0.0
  9
$USERI1
 70
     0
  9
$USERI2
 70
     0
  9
$USERI3
 70
     0
  9
$USERI4
 70
     0
  9
$USERI5
 70
     0
  9
$USERR1
 40
0.0
  9
$USERR2
 40
0.0
  9
$USERR3
 40
0.0
  9
$USERR4
 40
0.0
  9
$USERR5
 40
0.0
  9
$WORLDVIEW
 70
     1
  9
$SHADEDGE
 70
     3
  9
$SHADEDIF
 70
    70
  9
$TILEMODE
 70
     1
  9
$MAXACTVP
 70
    48
  9
$PINSBASE
 10
0.0
 20
0.0
 30
0.0
  9
$PLIMCHECK
 70
     0
  9
$PEXTMIN
 10
0.0
 20
0.0
 30
0.0
  9
$PEXTMAX
 10
0.0
 20
0.0
 30
0.0
  9
$PLIMMIN
 10
0.0
 20
0.0
  9
$PLIMMAX
 10
12.0
 20
9.0
  9
$UNITMODE
 70
     0
  9
$VISRETAIN
 70
     1
  9
$PLINEGEN
 70
     0
  9
$PSLTSCALE
 70
     1
  9
$TREEDEPTH
 70
  3020
  9
$PICKSTYLE
 70
     1
  9
$CMLSTYLE
  2
STANDARD
  9
$CMLJUST
 70
     0
  9
$CMLSCALE
 40
1.0
  9
$PROXYGRAPHICS
 70
     1
  9
$MEASUREMENT
 70
     0
  0
ENDSEC
  0
SECTION
  2
CLASSES
  0
CLASS
  1
DICTIONARYVAR
  2
AcDbDictionaryVar
  3
AutoCAD 2000
 90
        0
280
     0
281
     0
  0
CLASS
  1
ACDBDICTIONARYWDFLT
  2
AcDbDictionaryWithDefault
  3
AutoCAD 2000
 90
        0
280
     0
281
     0
  0
CLASS
  1
ACDBPLACEHOLDER
  2
AcDbPlaceHolder
  3
AutoCAD 2000
 90
        0
280
     0
281
     0
  0
CLASS
  1
LAYOUT
  2
AcDbLayout
  3
AutoCAD 2000
 90
        0
280
     0
281
     0
  0
CLASS
  1
MATERIAL
  2
AcDbMaterial
  3
ObjectDBX Classes
 90
     1153
280
     0
281
     0
  0
CLASS
  1
VISUALSTYLE
  2
AcDbVisualStyle
  3
ObjectDBX Classes
 90
     4095
280
     0
281
     0
  0
CLASS
  1
TABLESTYLE
  2
AcDbTableStyle
  3
ObjectDBX Classes
 90
     4095
280
     0
281
     0
  0
CLASS
  1
SCALE
  2
AcDbScale
  3
ObjectDBX Classes
 90
     1153
280
     0
281
     0
  0
CLASS
  1
MLEADERSTYLE
  2
AcDbMLeaderStyle
  3
ACDB_MLEADERSTYLE_CLASS
 90
     4095
280
     0
281
     0
  0
CLASS
  1
CELLSTYLEMAP
  2
AcDbCellStyleMap
  3
ObjectDBX Classes
 90
     1152
280
     0
281
     0
  0
CLASS
  1
ACAD_PROXY_OBJECT_WRAPPER
  2
AcDbProxyObjectWrapper
  3
AutoCAD 2000
 90
        0
280
     0
281
     0
  0
CLASS
  1
LONG_TRANSACTION
  2
AcDbLongTransaction
  3
AutoCAD 2000
 90
        0
280
     0
281
     0
  0
CLASS
  1
LWPOLYLINE
  2
AcDbPolyline
  3
AutoCAD 2000
 90
        0
280
     0
281
     1
  0
CLASS
  1
HATCH
  2
AcDbHatch
  3
AutoCAD 2000
 90
        0
280
     0
281
     1
  0
CLASS
  1
XRECORD
  2
AcDbXrecord
  3
AutoCAD 2000
 90
        0
280
     0
281
     0
  0
ENDSEC
  0
SECTION
  2
TABLES
  0
TABLE
  2
VPORT
  5
6E
102
{ACAD_XDICTIONARY
360
1977
102
}
330
0
100
AcDbSymbolTable
 70
     2
  0
VPORT
  5
1A01
330
6E
100
AcDbSymbolTableRecord
100
AcDbViewportTableRecord
  2
*ACTIVE
 70
     0
 10
0.0
 20
0.0
 11
1.0
 21
1.0
 12
593.1284796668694
 22
380.9421774930621
 13
0.0
 23
0.0
 14
10.0
 24
10.0
 15
10.0
 25
10.0
 16
0.0
 26
0.0
 36
1.0
 17
0.0
 27
0.0
 37
0.0
 40
636.5117672091098
 41
1.753504672897196
 42
50.0
 43
0.0
 44
0.0
 50
0.0
 51
0.0
 71
     0
 72
   100
 73
     1
 74
     3
 75
     0
 76
     0
 77
     0
 78
     0
  0
ENDTAB
  0
TABLE
  2
LTYPE
  5
69
330
0
100
AcDbSymbolTable
 70
     7
  0
LTYPE
  5
6A
330
69
100
AcDbSymbolTableRecord
100
AcDbLinetypeTableRecord
  2
BYBLOCK
 70
     0
  3

 72
    65
 73
     0
 40
0.0
  0
LTYPE
  5
6B
330
69
100
AcDbSymbolTableRecord
100
AcDbLinetypeTableRecord
  2
BYLAYER
 70
     0
  3

 72
    65
 73
     0
 40
0.0
  0
LTYPE
  5
8
330
69
100
AcDbSymbolTableRecord
100
AcDbLinetypeTableRecord
  2
CONTINUOUS
 70
     0
  3
Solid line
 72
    65
 73
     0
 40
0.0
  0
LTYPE
  5
27C
330
69
100
AcDbSymbolTableRecord
100
AcDbLinetypeTableRecord
  2
SEKKEI_A2_
 70
     0
  3
center(A2)  ____ _ ____ _ ____ _ ____ _ ____ _ 
 72
    65
 73
     4
 40
14.28749999999999
 49
9.525
 74
     0
 49
-1.587499999999999
 74
     0
 49
1.587499999999999
 74
     0
 49
-1.587499999999999
 74
     0
  0
LTYPE
  5
494
330
69
100
AcDbSymbolTableRecord
100
AcDbLinetypeTableRecord
  2
SEKKEI_P_S
 70
     0
  3
Phantom_S   __ _ _ __ _ _ __ _ _ ___
 72
    65
 73
     6
 40
7.5
 49
3.75
 74
     0
 49
-0.75
 74
     0
 49
0.75
 74
     0
 49
-0.75
 74
     0
 49
0.75
 74
     0
 49
-0.75
 74
     0
  0
LTYPE
  5
7EF
330
69
100
AcDbSymbolTableRecord
100
AcDbLinetypeTableRecord
  2
PHANTOM3
 70
     0
  3
Phantom  ___ _ _ ___ _ _ ___ _ _ ___ _ _
 72
    65
 73
     6
 40
9.0
 49
4.0
 74
     0
 49
-1.0
 74
     0
 49
1.0
 74
     0
 49
-1.0
 74
     0
 49
1.0
 74
     0
 49
-1.0
 74
     0
  0
LTYPE
  5
7F0
330
69
100
AcDbSymbolTableRecord
100
AcDbLinetypeTableRecord
  2
HIDDEN3
 70
     0
  3
Hidden (.3x) _ _ _ _ _ _ _ _ _ _ _ _ _ _ _ _ _
 72
    65
 73
     2
 40
2.857499999999999
 49
1.905
 74
     0
 49
-0.9525
 74
     0
  0
LTYPE
  5
B12
330
69
100
AcDbSymbolTableRecord
100
AcDbLinetypeTableRecord
  2
CENS
 70
     0
  3
(一点鎖線１)---- - ---- - ---- - ---- - ---- - 
 72
    65
 73
     4
 40
7.0
 49
4.0
 74
     0
 49
-1.0
 74
     0
 49
1.0
 74
     0
 49
-1.0
 74
     0
  0
ENDTAB
  0
TABLE
  2
LAYER
  5
66
102
{ACAD_XDICTIONARY
360
B13
102
}
330
0
100
AcDbSymbolTable
 70
    10
  0
LAYER
  5
5E
102
{ACAD_XDICTIONARY
360
195A
102
}
330
66
100
AcDbSymbolTableRecord
100
AcDbLayerTableRecord
  2
0
 70
     0
 62
     7
  6
CONTINUOUS
  0
LAYER
  5
3E
102
{ACAD_XDICTIONARY
360
195C
102
}
330
66
100
AcDbSymbolTableRecord
100
AcDbLayerTableRecord
  2
CENTER
 70
     0
 62
     3
  6
SEKKEI_A2_
  0
LAYER
  5
2B5
102
{ACAD_XDICTIONARY
360
1962
102
}
330
66
100
AcDbSymbolTableRecord
100
AcDbLayerTableRecord
  2
HIDS
 70
     0
 62
     1
  6
HIDDEN3
  0
LAYER
  5
2BA
102
{ACAD_XDICTIONARY
360
1964
102
}
330
66
100
AcDbSymbolTableRecord
100
AcDbLayerTableRecord
  2
HOJO
 70
     0
 62
     4
  6
CONTINUOUS
  0
LAYER
  5
3FA
102
{ACAD_XDICTIONARY
360
1968
102
}
330
66
100
AcDbSymbolTableRecord
100
AcDbLayerTableRecord
  2
TITLE
 70
     0
 62
     4
  6
CONTINUOUS
  0
LAYER
  5
478
102
{ACAD_XDICTIONARY
360
196A
102
}
330
66
100
AcDbSymbolTableRecord
100
AcDbLayerTableRecord
  2
PHAS
 70
     0
 62
     2
  6
PHANTOM3
  0
ENDTAB
  0
TABLE
  2
STYLE
  5
67
330
0
100
AcDbSymbolTable
 70
     2
  0
STYLE
  5
16
330
67
100
AcDbSymbolTableRecord
100
AcDbTextStyleTableRecord
  2
STANDARD
 70
     0
 40
0.0
 41
1.0
 50
0.0
 71
     0
 42
2.0
  3
simplex.shx
  4
extfont.shx
  0
ENDTAB
  0
TABLE
  2
VIEW
  5
6C
330
0
100
AcDbSymbolTable
 70
     0
  0
ENDTAB
  0
TABLE
  2
UCS
  5
6D
330
0
100
AcDbSymbolTable
 70
     0
  0
ENDTAB
  0
TABLE
  2
APPID
  5
70
330
0
100
AcDbSymbolTable
 70
     4
  0
APPID
  5
71
330
70
100
AcDbSymbolTableRecord
100
AcDbRegAppTableRecord
  2
ACAD
 70
     0
  0
APPID
  5
192C
330
70
100
AcDbSymbolTableRecord
100
AcDbRegAppTableRecord
  2
ACAD_MLEADERVER
 70
     0
  0
APPID
  5
192F
330
70
100
AcDbSymbolTableRecord
100
AcDbRegAppTableRecord
  2
ACAD_DSTYLE_DIMRADIAL_EXTENSION
 70
     0
  0
APPID
  5
1995
330
70
100
AcDbSymbolTableRecord
100
AcDbRegAppTableRecord
  2
ACAD_EXEMPT_FROM_CAD_STANDARDS
 70
     0
  0
ENDTAB
  0
TABLE
  2
DIMSTYLE
  5
72
330
0
100
AcDbSymbolTable
 70
     1
  0
DIMSTYLE
105
73
330
72
100
AcDbSymbolTableRecord
100
AcDbDimStyleTableRecord
  2
STANDARD
 70
     0
  3

  4

  5

  6

  7

 40
3.0
 41
1.8
 42
0.625
 43
3.75
 44
0.8
 45
0.0
 46
0.0
 47
0.0
 48
0.0
140
1.8
141
2.5
142
0.0
143
0.0394
144
1.0
145
0.0
146
1.0
147
0.75
 71
     0
 72
     0
 73
     0
 74
     0
 75
     0
 76
     0
 77
     1
 78
     8
170
     0
171
     4
172
     1
173
     0
174
     0
175
     0
176
     0
177
     0
178
     0
270
     8
271
     2
272
     2
273
     8
274
     4
340
16
275
     0
280
     0
281
     0
282
     0
283
     1
284
     0
285
     0
286
     0
287
     3
288
     0
  0
ENDTAB
  0
TABLE
  2
BLOCK_RECORD
  5
1
330
0
100
AcDbSymbolTable
 70
    56
  0
BLOCK_RECORD
  5
2
102
{ACAD_XDICTIONARY
360
1A23
102
}
330
1
100
AcDbSymbolTableRecord
100
AcDbBlockTableRecord
  2
*MODEL_SPACE
  0
BLOCK_RECORD
  5
19FC
102
{ACAD_XDICTIONARY
360
1A25
102
}
330
1
100
AcDbSymbolTableRecord
100
AcDbBlockTableRecord
  2
*PAPER_SPACE
  0
ENDTAB
  0
ENDSEC
  0
SECTION
  2
BLOCKS
  0
BLOCK
  5
5D
330
2
100
AcDbEntity
  8
0
100
AcDbBlockBegin
  2
*MODEL_SPACE
 70
     0
 10
0.0
 20
0.0
 30
0.0
  3
*MODEL_SPACE
  1

  0
ENDBLK
  5
5F
330
2
100
AcDbEntity
  8
0
100
AcDbBlockEnd
  0
BLOCK
  5
19FE
330
19FC
100
AcDbEntity
 67
     1
  8
0
100
AcDbBlockBegin
  2
*PAPER_SPACE
 70
     0
 10
0.0
 20
0.0
 30
0.0
  3
*PAPER_SPACE
  1

  0
ENDBLK
  5
19FF
330
19FC
100
AcDbEntity
 67
     1
  8
0
100
AcDbBlockEnd
  0
ENDSEC
  0
SECTION
  2
ENTITIES
  0
TEXT
  5
FF5
330
2
100
AcDbEntity
  8
TITLE
100
AcDbText
 10
308.0422589586301
 20
637.0924243687467
 30
0.0
 40
7.5
  1
AFCZ18S-10~30M200S2
100
AcDbText
  0
TEXT
  5
FF6
330
2
100
AcDbEntity
  8
TITLE
100
AcDbText
 10
308.0422589586301
 20
626.0924243687467
 30
0.0
 40
7.5
  1
AFCZ18S-10~30L200S2
100
AcDbText
  0
LINE
  5
FF8
330
2
100
AcDbEntity
  8
CENTER
100
AcDbLine
 10
249.9730108889534
 20
386.532491517407
 30
0.0
 11
38.97301088895346
 21
386.532491517407
 31
0.0
  0
LINE
  5
FF9
330
2
100
AcDbEntity
  8
CENTER
100
AcDbLine
 10
198.9730108889539
 20
335.5324915174071
 30
0.0
 11
198.9730108889539
 21
437.532491517407
 31
0.0
  0
LINE
  5
FFA
330
2
100
AcDbEntity
  8
CENTER
100
AcDbLine
 10
594.6196978732132
 20
696.7054215708621
 30
0.0
 11
594.6196978732114
 21
563.7054215708622
 31
0.0
  0
LINE
  5
FFB
330
2
100
AcDbEntity
  8
CENTER
100
AcDbLine
 10
535.6196978732113
 20
386.5324915174068
 30
0.0
 11
754.6196978732096
 21
386.5324915174068
 31
0.0
  0
LINE
  5
FFC
330
2
100
AcDbEntity
  8
CENTER
100
AcDbLine
 10
543.8378695679812
 20
637.7054215708621
 30
0.0
 11
754.6196978732096
 21
637.705421570862
 31
0.0
  0
CIRCLE
  5
FFD
330
2
100
AcDbEntity
  8
CENTER
100
AcDbCircle
 10
594.6196978732114
 20
386.5324915174068
 30
0.0
 40
49.0
  0
LINE
  5
FFE
330
2
100
AcDbEntity
  8
CENTER
100
AcDbLine
 10
550.1344164989732
 20
431.0177728916455
 30
0.0
 11
639.1049792474514
 21
342.0472101431682
 31
0.0
  0
LINE
  5
FFF
330
2
100
AcDbEntity
  8
CENTER
100
AcDbLine
 10
639.1049792474514
 20
431.0177728916452
 30
0.0
 11
550.1344164989732
 21
342.0472101431682
 31
0.0
  0
LINE
  5
1000
330
2
100
AcDbEntity
  8
CENTER
100
AcDbLine
 10
594.6196978732114
 20
327.5324915174068
 30
0.0
 11
594.6196978732114
 21
445.5324915174069
 31
0.0
  0
CIRCLE
  5
1001
330
2
100
AcDbEntity
  8
HOJO
100
AcDbCircle
 10
559.9714655950711
 20
351.8842592392656
 30
0.0
 40
3.0
  0
CIRCLE
  5
1002
330
2
100
AcDbEntity
  8
HOJO
100
AcDbCircle
 10
629.2679301513526
 20
351.8842592392656
 30
0.0
 40
3.0
  0
CIRCLE
  5
1003
330
2
100
AcDbEntity
  8
HOJO
100
AcDbCircle
 10
559.971465595072
 20
421.1807237955481
 30
0.0
 40
3.0
  0
CIRCLE
  5
1004
330
2
100
AcDbEntity
  8
HOJO
100
AcDbCircle
 10
629.2679301513526
 20
421.1807237955481
 30
0.0
 40
3.0
  0
LINE
  5
1005
330
2
100
AcDbEntity
  8
CENTER
100
AcDbLine
 10
552.9714655950719
 20
421.1807237955481
 30
0.0
 11
566.971465595072
 21
421.1807237955481
 31
0.0
  0
LINE
  5
1006
330
2
100
AcDbEntity
  8
CENTER
100
AcDbLine
 10
559.971465595072
 20
428.180723795548
 30
0.0
 11
559.9714655950711
 21
414.1807237955481
 31
0.0
  0
LINE
  5
1007
330
2
100
AcDbEntity
  8
CENTER
100
AcDbLine
 10
559.971465595072
 20
344.8842592392656
 30
0.0
 11
559.971465595072
 21
358.8842592392656
 31
0.0
  0
LINE
  5
1008
330
2
100
AcDbEntity
  8
CENTER
100
AcDbLine
 10
552.9714655950719
 20
351.8842592392656
 30
0.0
 11
566.971465595072
 21
351.8842592392656
 31
0.0
  0
LINE
  5
1009
330
2
100
AcDbEntity
  8
CENTER
100
AcDbLine
 10
636.2679301513526
 20
351.8842592392656
 30
0.0
 11
622.2679301513526
 21
351.8842592392656
 31
0.0
  0
LINE
  5
100A
330
2
100
AcDbEntity
  8
CENTER
100
AcDbLine
 10
629.2679301513526
 20
344.8842592392656
 30
0.0
 11
629.2679301513526
 21
358.8842592392656
 31
0.0
  0
LINE
  5
100B
330
2
100
AcDbEntity
  8
CENTER
100
AcDbLine
 10
629.2679301513526
 20
428.180723795548
 30
0.0
 11
629.2679301513526
 21
414.1807237955481
 31
0.0
  0
LINE
  5
100C
330
2
100
AcDbEntity
  8
CENTER
100
AcDbLine
 10
636.2679301513526
 20
421.1807237955481
 30
0.0
 11
622.2679301513526
 21
421.1807237955481
 31
0.0
  0
LINE
  5
100D
330
2
100
AcDbEntity
  8
0
100
AcDbLine
 10
662.6196978732131
 20
418.5324915174087
 30
0.0
 11
639.6196978732113
 21
418.5324915174104
 31
0.0
  0
LINE
  5
100E
330
2
100
AcDbEntity
  8
0
100
AcDbLine
 10
662.6196978732131
 20
354.5324915174032
 30
0.0
 11
639.6196978732123
 21
354.5324915174014
 31
0.0
  0
CIRCLE
  5
100F
330
2
100
AcDbEntity
  8
0
100
AcDbCircle
 10
594.6196978732132
 20
386.5324915174068
 30
0.0
 40
28.0
  0
CIRCLE
  5
1010
330
2
100
AcDbEntity
  8
0
100
AcDbCircle
 10
594.6196978732132
 20
386.5324915174068
 30
0.0
 40
35.00000000000011
  0
CIRCLE
  5
1011
330
2
100
AcDbEntity
  8
0
100
AcDbCircle
 10
594.6196978732123
 20
386.5324915174068
 30
0.0
 40
23.0
  0
CIRCLE
  5
1012
330
2
100
AcDbEntity
  8
0
100
AcDbCircle
 10
559.971465595072
 20
351.8842592392656
 30
0.0
 40
2.399999999999999
  0
CIRCLE
  5
1013
330
2
100
AcDbEntity
  8
HOJO
100
AcDbCircle
 10
559.971465595072
 20
351.8842592392656
 30
0.0
 40
3.0
  0
CIRCLE
  5
1014
330
2
100
AcDbEntity
  8
0
100
AcDbCircle
 10
559.971465595072
 20
421.1807237955462
 30
0.0
 40
2.399999999999999
  0
CIRCLE
  5
1015
330
2
100
AcDbEntity
  8
HOJO
100
AcDbCircle
 10
559.971465595072
 20
421.1807237955462
 30
0.0
 40
3.0
  0
LINE
  5
1016
330
2
100
AcDbEntity
  8
0
100
AcDbLine
 10
635.6196978732132
 20
350.5324915174014
 30
0.0
 11
635.6196978732132
 21
422.5324915174068
 31
0.0
  0
CIRCLE
  5
1017
330
2
100
AcDbEntity
  8
0
100
AcDbCircle
 10
629.2679301513526
 20
351.8842592392656
 30
0.0
 40
2.399999999999999
  0
CIRCLE
  5
1018
330
2
100
AcDbEntity
  8
HOJO
100
AcDbCircle
 10
629.2679301513526
 20
351.8842592392656
 30
0.0
 40
3.0
  0
ARC
  5
1019
330
2
100
AcDbEntity
  8
0
100
AcDbCircle
 10
630.6196978732132
 20
350.5324915174068
 30
0.0
 40
5.0
100
AcDbArc
 50
270.0
 51
0.0
  0
CIRCLE
  5
101A
330
2
100
AcDbEntity
  8
0
100
AcDbCircle
 10
629.2679301513526
 20
421.1807237955462
 30
0.0
 40
2.399999999999999
  0
CIRCLE
  5
101B
330
2
100
AcDbEntity
  8
HOJO
100
AcDbCircle
 10
629.2679301513526
 20
421.1807237955462
 30
0.0
 40
3.0
  0
ARC
  5
101C
330
2
100
AcDbEntity
  8
0
100
AcDbCircle
 10
630.6196978732123
 20
422.5324915174068
 30
0.0
 40
5.0
100
AcDbArc
 50
0.0
 51
90.0
  0
LINE
  5
101D
330
2
100
AcDbEntity
  8
0
100
AcDbLine
 10
693.6196978732096
 20
357.0324915174068
 30
0.0
 11
693.6196978732096
 21
416.0324915174069
 31
0.0
  0
LINE
  5
101E
330
2
100
AcDbEntity
  8
0
100
AcDbLine
 10
668.6196978732123
 20
412.5324915174086
 30
0.0
 11
668.6196978732132
 21
360.5324915174032
 31
0.0
  0
LINE
  5
101F
330
2
100
AcDbEntity
  8
0
100
AcDbLine
 10
701.6196978732096
 20
418.0324915174068
 30
0.0
 11
701.6196978732096
 21
355.0324915174068
 31
0.0
  0
LINE
  5
1020
330
2
100
AcDbEntity
  8
0
100
AcDbLine
 10
701.6196978732096
 20
355.5324915174068
 30
0.0
 11
695.6196978732095
 21
355.5324915174068
 31
0.0
  0
ARC
  5
1021
330
2
100
AcDbEntity
  8
0
100
AcDbCircle
 10
662.6196978732131
 20
360.5324915174032
 30
0.0
 40
6.0
100
AcDbArc
 50
270.0
 51
0.0
  0
ARC
  5
1022
330
2
100
AcDbEntity
  8
0
100
AcDbCircle
 10
695.6196978732095
 20
357.5324915174068
 30
0.0
 40
2.0
100
AcDbArc
 50
180.0
 51
270.0
  0
LINE
  5
1023
330
2
100
AcDbEntity
  8
0
100
AcDbLine
 10
695.6196978732095
 20
417.5324915174068
 30
0.0
 11
701.6196978732096
 21
417.5324915174068
 31
0.0
  0
ARC
  5
1024
330
2
100
AcDbEntity
  8
0
100
AcDbCircle
 10
662.6196978732123
 20
412.5324915174086
 30
0.0
 40
6.0
100
AcDbArc
 50
0.0
 51
89.99999999997395
  0
ARC
  5
1025
330
2
100
AcDbEntity
  8
0
100
AcDbCircle
 10
695.6196978732095
 20
415.5324915174068
 30
0.0
 40
2.0
100
AcDbArc
 50
90.0
 51
180.0
  0
LINE
  5
1026
330
2
100
AcDbEntity
  8
0
100
AcDbLine
 10
559.6196978732132
 20
599.705421570864
 30
0.0
 11
564.3309671509705
 21
599.705421570864
 31
0.0
  0
LINE
  5
1027
330
2
100
AcDbEntity
  8
0
100
AcDbLine
 10
559.6196978732122
 20
599.7054215708621
 30
0.0
 11
629.6196978732123
 21
599.7054215708621
 31
0.0
  0
LINE
  5
1028
330
2
100
AcDbEntity
  8
0
100
AcDbLine
 10
554.125856205077
 20
604.7054215708621
 30
0.0
 11
635.1091761074521
 21
604.7054215708621
 31
0.0
  0
LINE
  5
1029
330
2
100
AcDbEntity
  8
0
100
AcDbLine
 10
553.6196978732123
 20
662.7054215708621
 30
0.0
 11
554.125856205077
 21
604.7054215708621
 31
0.0
  0
LINE
  5
102A
330
2
100
AcDbEntity
  8
0
100
AcDbLine
 10
559.6196978732122
 20
604.7054215708621
 30
0.0
 11
559.6196978732122
 21
599.7054215708621
 31
0.0
  0
LINE
  5
102B
330
2
100
AcDbEntity
  8
0
100
AcDbLine
 10
701.6196978701864
 20
668.7054215708622
 30
0.0
 11
701.6196978701864
 21
606.7054215708603
 31
0.0
  0
LINE
  5
102C
330
2
100
AcDbEntity
  8
0
100
AcDbLine
 10
701.6196978701864
 20
668.7054215708622
 30
0.0
 11
701.6196978701864
 21
606.7054215708622
 31
0.0
  0
LINE
  5
102D
330
2
100
AcDbEntity
  8
0
100
AcDbLine
 10
629.6196978732132
 20
599.705421570864
 30
0.0
 11
624.908428595455
 21
599.705421570864
 31
0.0
  0
LINE
  5
102E
330
2
100
AcDbEntity
  8
0
100
AcDbLine
 10
666.5847142452784
 20
606.7054215708603
 30
0.0
 11
636.6135966589263
 21
606.7054215708567
 31
0.0
  0
LINE
  5
102F
330
2
100
AcDbEntity
  8
0
100
AcDbLine
 10
629.6196978732123
 20
604.7054215708621
 30
0.0
 11
629.6196978732123
 21
599.7054215708621
 31
0.0
  0
LINE
  5
1030
330
2
100
AcDbEntity
  8
0
100
AcDbLine
 10
91.97301088895347
 20
355.532491517407
 30
0.0
 11
97.97301088895347
 21
355.532491517407
 31
0.0
  0
LINE
  5
1031
330
2
100
AcDbEntity
  8
0
100
AcDbLine
 10
97.97301088895393
 20
417.5324915174071
 30
0.0
 11
91.97301088895391
 21
417.5324915174071
 31
0.0
  0
LINE
  5
1032
330
2
100
AcDbEntity
  8
0
100
AcDbLine
 10
99.97301088895348
 20
357.0324915174071
 30
0.0
 11
99.97301088895392
 21
416.032491517407
 31
0.0
  0
ARC
  5
1033
330
2
100
AcDbEntity
  8
0
100
AcDbCircle
 10
97.97301088895393
 20
415.532491517407
 30
0.0
 40
2.0
100
AcDbArc
 50
0.0
 51
89.99999999997395
  0
ARC
  5
1034
330
2
100
AcDbEntity
  8
0
100
AcDbCircle
 10
97.97301088895347
 20
357.532491517407
 30
0.0
 40
2.0
100
AcDbArc
 50
270.0
 51
0.0
  0
LINE
  5
1035
330
2
100
AcDbEntity
  8
0
100
AcDbLine
 10
91.97301088895347
 20
355.532491517407
 30
0.0
 11
91.97301088895347
 21
417.5324915174071
 31
0.0
  0
LINE
  5
1036
330
2
100
AcDbEntity
  8
0
100
AcDbLine
 10
91.97301088895391
 20
355.0324915174071
 30
0.0
 11
91.97301088895347
 21
418.0324915174071
 31
0.0
  0
ARC
  5
1037
330
2
100
AcDbEntity
  8
0
100
AcDbCircle
 10
572.0236544330227
 20
466.3132828293682
 30
0.0
 40
40.0
100
AcDbArc
 50
256.6323257973709
 51
276.1769964048646
  0
ARC
  5
1038
330
2
100
AcDbEntity
  8
0
100
AcDbCircle
 10
561.6196978732123
 20
422.5324915174068
 30
0.0
 40
5.0
100
AcDbArc
 50
76.63232579737094
 51
90.0
  0
LINE
  5
1039
330
2
100
AcDbEntity
  8
0
100
AcDbLine
 10
558.6196978732114
 20
427.5324915174068
 30
0.0
 11
561.6196978732123
 21
427.5324915174068
 31
0.0
  0
ARC
  5
103A
330
2
100
AcDbEntity
  8
0
100
AcDbCircle
 10
594.6196978732123
 20
257.5324915174068
 30
0.0
 40
170.0
100
AcDbArc
 50
83.82300359513532
 51
96.17699640486467
  0
ARC
  5
103B
330
2
100
AcDbEntity
  8
0
100
AcDbCircle
 10
617.2157413134009
 20
466.3132828293682
 30
0.0
 40
40.0
100
AcDbArc
 50
263.8230035951353
 51
283.367674202629
  0
LINE
  5
103C
330
2
100
AcDbEntity
  8
0
100
AcDbLine
 10
630.6196978732123
 20
427.5324915174068
 30
0.0
 11
627.6196978732114
 21
427.5324915174068
 31
0.0
  0
ARC
  5
103D
330
2
100
AcDbEntity
  8
0
100
AcDbCircle
 10
627.6196978732114
 20
422.5324915174068
 30
0.0
 40
5.0
100
AcDbArc
 50
90.0
 51
103.367674202629
  0
ARC
  5
103E
330
2
100
AcDbEntity
  8
0
100
AcDbCircle
 10
558.6196978732114
 20
422.5324915174068
 30
0.0
 40
5.0
100
AcDbArc
 50
90.0
 51
180.0
  0
ARC
  5
103F
330
2
100
AcDbEntity
  8
0
100
AcDbCircle
 10
514.83890656125
 20
409.1285349575963
 30
0.0
 40
40.0
100
AcDbArc
 50
353.8230035951083
 51
13.36767420262659
  0
ARC
  5
1040
330
2
100
AcDbEntity
  8
0
100
AcDbCircle
 10
514.8389065612491
 20
363.9364480772191
 30
0.0
 40
40.0
100
AcDbArc
 50
346.6323257973734
 51
6.176996404891704
  0
ARC
  5
1041
330
2
100
AcDbEntity
  8
0
100
AcDbCircle
 10
558.6196978732114
 20
353.5324915174068
 30
0.0
 40
5.0
100
AcDbArc
 50
166.6323257973733
 51
180.0
  0
LINE
  5
1042
330
2
100
AcDbEntity
  8
0
100
AcDbLine
 10
553.6196978732114
 20
350.5324915174068
 30
0.0
 11
553.6196978732114
 21
353.5324915174068
 31
0.0
  0
ARC
  5
1043
330
2
100
AcDbEntity
  8
0
100
AcDbCircle
 10
723.6196978732114
 20
386.532491517405
 30
0.0
 40
170.0
100
AcDbArc
 50
173.8230035951082
 51
186.1769964048917
  0
LINE
  5
1044
330
2
100
AcDbEntity
  8
0
100
AcDbLine
 10
553.6196978732123
 20
422.5324915174068
 30
0.0
 11
553.6196978732123
 21
419.5324915174068
 31
0.0
  0
ARC
  5
1045
330
2
100
AcDbEntity
  8
0
100
AcDbCircle
 10
558.6196978732123
 20
419.5324915174068
 30
0.0
 40
5.0
100
AcDbArc
 50
180.0
 51
193.3676742026266
  0
ARC
  5
1046
330
2
100
AcDbEntity
  8
0
100
AcDbCircle
 10
558.6196978732114
 20
350.5324915174068
 30
0.0
 40
5.0
100
AcDbArc
 50
180.0
 51
270.0
  0
LINE
  5
1047
330
2
100
AcDbEntity
  8
0
100
AcDbLine
 10
558.6196978732114
 20
345.5324915174068
 30
0.0
 11
561.6196978732123
 21
345.5324915174068
 31
0.0
  0
ARC
  5
1048
330
2
100
AcDbEntity
  8
0
100
AcDbCircle
 10
572.0236544330227
 20
306.7517002054454
 30
0.0
 40
40.0
100
AcDbArc
 50
83.82300359513532
 51
103.367674202629
  0
ARC
  5
1049
330
2
100
AcDbEntity
  8
0
100
AcDbCircle
 10
561.6196978732123
 20
350.5324915174068
 30
0.0
 40
5.0
100
AcDbArc
 50
270.0
 51
283.367674202629
  0
ARC
  5
104A
330
2
100
AcDbEntity
  8
0
100
AcDbCircle
 10
594.6196978732123
 20
515.5324915174069
 30
0.0
 40
170.0
100
AcDbArc
 50
263.8230035951353
 51
276.1769964048646
  0
ARC
  5
104B
330
2
100
AcDbEntity
  8
0
100
AcDbCircle
 10
617.2157413134009
 20
306.7517002054454
 30
0.0
 40
40.0
100
AcDbArc
 50
76.63232579737094
 51
96.17699640486467
  0
ARC
  5
104C
330
2
100
AcDbEntity
  8
0
100
AcDbCircle
 10
627.6196978732123
 20
350.5324915174068
 30
0.0
 40
5.0
100
AcDbArc
 50
256.6323257973709
 51
270.0
  0
LINE
  5
104D
330
2
100
AcDbEntity
  8
0
100
AcDbLine
 10
630.6196978732123
 20
345.5324915174068
 30
0.0
 11
627.6196978732123
 21
345.5324915174068
 31
0.0
  0
ARC
  5
104E
330
2
100
AcDbEntity
  8
0
100
AcDbCircle
 10
639.6196978732132
 20
422.5324915174105
 30
0.0
 40
4.0
100
AcDbArc
 50
180.0
 51
270.0
  0
ARC
  5
104F
330
2
100
AcDbEntity
  8
0
100
AcDbCircle
 10
639.6196978732132
 20
350.5324915174014
 30
0.0
 40
4.0
100
AcDbArc
 50
90.0
 51
180.0
  0
ARC
  5
1050
330
2
100
AcDbEntity
  8
0
100
AcDbCircle
 10
625.0050454262182
 20
597.7054215708622
 30
0.0
 40
2.0
100
AcDbArc
 50
90.0
 51
177.9999999999963
  0
ARC
  5
1051
330
2
100
AcDbEntity
  8
0
100
AcDbCircle
 10
620.6883203235975
 20
588.7054215708622
 30
0.0
 40
2.0
100
AcDbArc
 50
270.0
 51
357.9999999999963
  0
ARC
  5
1052
330
2
100
AcDbEntity
  8
0
100
AcDbCircle
 10
564.2343503202064
 20
597.7054215708622
 30
0.0
 40
2.0
100
AcDbArc
 50
2.000000000003654
 51
90.0
  0
ARC
  5
1053
330
2
100
AcDbEntity
  8
0
100
AcDbCircle
 10
568.5510754228271
 20
588.7054215708622
 30
0.0
 40
2.0
100
AcDbArc
 50
182.0000000000036
 51
270.0
  0
LINE
  5
1054
330
2
100
AcDbEntity
  8
0
100
AcDbLine
 10
622.6871019776353
 20
588.635622577457
 30
0.0
 11
623.0062637721803
 21
597.7752205642673
 31
0.0
  0
LINE
  5
1055
330
2
100
AcDbEntity
  8
0
100
AcDbLine
 10
566.5522937687892
 20
588.635622577457
 30
0.0
 11
566.2331319742443
 21
597.7752205642673
 31
0.0
  0
LINE
  5
1056
330
2
100
AcDbEntity
  8
0
100
AcDbLine
 10
568.5510754228271
 20
586.7054215708604
 30
0.0
 11
620.6883203235975
 21
586.7054215708622
 31
0.0
  0
ARC
  5
1057
330
2
100
AcDbEntity
  8
0
100
AcDbCircle
 10
122.9730108889439
 20
411.5324915174161
 30
0.0
 40
2.0
100
AcDbArc
 50
270.0
 51
0.0
  0
ARC
  5
1058
330
2
100
AcDbEntity
  8
0
100
AcDbCircle
 10
122.9730108889439
 20
361.5324915174161
 30
0.0
 40
2.0
100
AcDbArc
 50
0.0
 51
90.0
  0
LINE
  5
1059
330
2
100
AcDbEntity
  8
0
100
AcDbLine
 10
121.9730108889439
 20
384.0324915174162
 30
0.0
 11
114.4599179262272
 21
384.0324915174162
 31
0.0
  0
LINE
  5
105A
330
2
100
AcDbEntity
  8
0
100
AcDbLine
 10
121.9730108889439
 20
389.0324915174161
 30
0.0
 11
114.4599179262272
 21
389.0324915174161
 31
0.0
  0
ARC
  5
105B
330
2
100
AcDbEntity
  8
0
100
AcDbCircle
 10
112.4599179262272
 20
411.5324915174161
 30
0.0
 40
2.0
100
AcDbArc
 50
216.8698976458671
 51
270.0
  0
LINE
  5
105C
330
2
100
AcDbEntity
  8
0
100
AcDbLine
 10
123.0253720937566
 20
409.5324915174161
 30
0.0
 11
112.4599179262272
 21
409.5324915174161
 31
0.0
  0
LINE
  5
105D
330
2
100
AcDbEntity
  8
0
100
AcDbLine
 10
119.9730108889539
 20
367.5324915174162
 30
0.0
 11
116.2058846186423
 21
367.5324915174162
 31
0.0
  0
ARC
  5
105E
330
2
100
AcDbEntity
  8
0
100
AcDbCircle
 10
112.4599179262272
 20
361.5324915174161
 30
0.0
 40
2.0
100
AcDbArc
 50
90.0
 51
143.1301023541299
  0
LINE
  5
105F
330
2
100
AcDbEntity
  8
0
100
AcDbLine
 10
122.9730108889439
 20
363.5324915174162
 30
0.0
 11
112.4599179262272
 21
363.5324915174162
 31
0.0
  0
LINE
  5
1060
330
2
100
AcDbEntity
  8
0
100
AcDbLine
 10
108.4599179262272
 20
411.5324915174161
 30
0.0
 11
104.9551309108373
 21
411.5324915174161
 31
0.0
  0
ARC
  5
1061
330
2
100
AcDbEntity
  8
0
100
AcDbCircle
 10
108.4599179262272
 20
408.5324915174143
 30
0.0
 40
3.0
100
AcDbArc
 50
0.0
 51
90.0
  0
LINE
  5
1062
330
2
100
AcDbEntity
  8
0
100
AcDbLine
 10
108.4599179262272
 20
361.5324915174161
 30
0.0
 11
104.9551309108387
 21
361.5324915174161
 31
0.0
  0
ARC
  5
1063
330
2
100
AcDbEntity
  8
0
100
AcDbCircle
 10
108.4599179262272
 20
364.5324915174161
 30
0.0
 40
3.0
100
AcDbArc
 50
270.0
 51
0.0
  0
LINE
  5
1064
330
2
100
AcDbEntity
  8
0
100
AcDbLine
 10
111.4599179262272
 20
364.5324915174161
 30
0.0
 11
111.4599179262272
 21
408.5324915174143
 31
0.0
  0
ARC
  5
1065
330
2
100
AcDbEntity
  8
0
100
AcDbCircle
 10
121.9730108889439
 20
381.0324915174161
 30
0.0
 40
3.0
100
AcDbArc
 50
0.0
 51
90.0
  0
ARC
  5
1066
330
2
100
AcDbEntity
  8
0
100
AcDbCircle
 10
121.9730108889439
 20
392.0324915174162
 30
0.0
 40
3.0
100
AcDbArc
 50
270.0
 51
0.0
  0
ARC
  5
1067
330
2
100
AcDbEntity
  8
0
100
AcDbCircle
 10
114.4599179262272
 20
381.0324915174161
 30
0.0
 40
3.0
100
AcDbArc
 50
90.0
 51
180.0
  0
ARC
  5
1068
330
2
100
AcDbEntity
  8
0
100
AcDbCircle
 10
114.4599179262272
 20
392.0324915174162
 30
0.0
 40
3.0
100
AcDbArc
 50
180.0
 51
270.0
  0
ARC
  5
1069
330
2
100
AcDbEntity
  8
0
100
AcDbCircle
 10
119.9730108889539
 20
362.5324915174161
 30
0.0
 40
5.0
100
AcDbArc
 50
0.0
 51
90.0
  0
ARC
  5
106A
330
2
100
AcDbEntity
  8
0
100
AcDbCircle
 10
116.2058846186423
 20
362.5324915174161
 30
0.0
 40
5.0
100
AcDbArc
 50
90.0
 51
165.5224878140709
  0
ARC
  5
106B
330
2
100
AcDbEntity
  8
0
100
AcDbCircle
 10
119.9730108889534
 20
410.5324915173979
 30
0.0
 40
5.0
100
AcDbArc
 50
270.0
 51
0.0
  0
ARC
  5
106C
330
2
100
AcDbEntity
  8
0
100
AcDbCircle
 10
116.2058846186423
 20
410.5324915173979
 30
0.0
 40
5.0
100
AcDbArc
 50
194.477512185929
 51
270.0
  0
LINE
  5
106D
330
2
100
AcDbEntity
  8
0
100
AcDbLine
 10
119.9730108889534
 20
405.5324915173979
 30
0.0
 11
116.2058846186423
 21
405.5324915173979
 31
0.0
  0
LINE
  5
106E
330
2
100
AcDbEntity
  8
0
100
AcDbLine
 10
682.132790835929
 20
408.5324915174068
 30
0.0
 11
682.132790835929
 21
364.5324915174068
 31
0.0
  0
LINE
  5
106F
330
2
100
AcDbEntity
  8
0
100
AcDbLine
 10
685.1327908359289
 20
411.5324915174069
 30
0.0
 11
688.6375778513247
 21
411.5324915174069
 31
0.0
  0
LINE
  5
1070
330
2
100
AcDbEntity
  8
0
100
AcDbLine
 10
670.6196978732114
 20
409.5324915174068
 30
0.0
 11
681.1327908359289
 21
409.5324915174068
 31
0.0
  0
ARC
  5
1071
330
2
100
AcDbEntity
  8
0
100
AcDbCircle
 10
685.1327908359289
 20
408.5324915174068
 30
0.0
 40
3.0
100
AcDbArc
 50
90.0
 51
180.0
  0
ARC
  5
1072
330
2
100
AcDbEntity
  8
0
100
AcDbCircle
 10
681.1327908359289
 20
411.5324915174069
 30
0.0
 40
2.0
100
AcDbArc
 50
270.0
 51
323.1301023541328
  0
ARC
  5
1073
330
2
100
AcDbEntity
  8
0
100
AcDbCircle
 10
673.6196978732023
 20
410.5324915174068
 30
0.0
 40
5.0
100
AcDbArc
 50
180.0
 51
270.0
  0
ARC
  5
1074
330
2
100
AcDbEntity
  8
0
100
AcDbCircle
 10
677.3868241435138
 20
410.5324915174068
 30
0.0
 40
5.0
100
AcDbArc
 50
270.0
 51
345.5224878140709
  0
LINE
  5
1075
330
2
100
AcDbEntity
  8
0
100
AcDbLine
 10
673.6196978732023
 20
405.5324915174068
 30
0.0
 11
677.3868241435138
 21
405.5324915174068
 31
0.0
  0
ARC
  5
1076
330
2
100
AcDbEntity
  8
0
100
AcDbCircle
 10
670.6196978732114
 20
411.5324915174069
 30
0.0
 40
2.0
100
AcDbArc
 50
180.0
 51
270.0
  0
LINE
  5
1077
330
2
100
AcDbEntity
  8
0
100
AcDbLine
 10
671.6196978732114
 20
384.0324915174068
 30
0.0
 11
679.1327908359289
 21
384.0324915174068
 31
0.0
  0
LINE
  5
1078
330
2
100
AcDbEntity
  8
0
100
AcDbLine
 10
671.6196978732114
 20
389.0324915174068
 30
0.0
 11
679.1327908359289
 21
389.0324915174068
 31
0.0
  0
ARC
  5
1079
330
2
100
AcDbEntity
  8
0
100
AcDbCircle
 10
671.6196978732114
 20
392.0324915174068
 30
0.0
 40
3.0
100
AcDbArc
 50
180.0
 51
270.0
  0
ARC
  5
107A
330
2
100
AcDbEntity
  8
0
100
AcDbCircle
 10
671.6196978732114
 20
381.0324915174068
 30
0.0
 40
3.0
100
AcDbArc
 50
90.0
 51
180.0
  0
ARC
  5
107B
330
2
100
AcDbEntity
  8
0
100
AcDbCircle
 10
679.1327908359289
 20
392.0324915174068
 30
0.0
 40
3.0
100
AcDbArc
 50
270.0
 51
0.0
  0
ARC
  5
107C
330
2
100
AcDbEntity
  8
0
100
AcDbCircle
 10
679.1327908359289
 20
381.0324915174068
 30
0.0
 40
3.0
100
AcDbArc
 50
0.0
 51
90.0
  0
ARC
  5
107D
330
2
100
AcDbEntity
  8
0
100
AcDbCircle
 10
673.6196978732023
 20
362.532491517425
 30
0.0
 40
5.0
100
AcDbArc
 50
90.0
 51
180.0
  0
LINE
  5
107E
330
2
100
AcDbEntity
  8
0
100
AcDbLine
 10
673.6196978732023
 20
367.532491517425
 30
0.0
 11
677.3868241435138
 21
367.532491517425
 31
0.0
  0
ARC
  5
107F
330
2
100
AcDbEntity
  8
0
100
AcDbCircle
 10
677.3868241435138
 20
362.532491517425
 30
0.0
 40
5.0
100
AcDbArc
 50
14.47751218592907
 51
90.0
  0
LINE
  5
1080
330
2
100
AcDbEntity
  8
0
100
AcDbLine
 10
670.5673366683986
 20
363.5324915174068
 30
0.0
 11
681.1327908359289
 21
363.5324915174068
 31
0.0
  0
ARC
  5
1081
330
2
100
AcDbEntity
  8
0
100
AcDbCircle
 10
681.1327908359289
 20
361.5324915174068
 30
0.0
 40
2.0
100
AcDbArc
 50
36.86989764586714
 51
90.0
  0
ARC
  5
1082
330
2
100
AcDbEntity
  8
0
100
AcDbCircle
 10
685.1327908359289
 20
364.5324915174068
 30
0.0
 40
3.0
100
AcDbArc
 50
180.0
 51
270.0
  0
ARC
  5
1083
330
2
100
AcDbEntity
  8
0
100
AcDbCircle
 10
670.6196978732114
 20
361.5324915174068
 30
0.0
 40
2.0
100
AcDbArc
 50
90.0
 51
180.0
  0
LINE
  5
1084
330
2
100
AcDbEntity
  8
0
100
AcDbLine
 10
685.1327908359289
 20
361.5324915174068
 30
0.0
 11
688.6375778513247
 21
361.5324915174068
 31
0.0
  0
ARC
  5
1085
330
2
100
AcDbEntity
  8
0
100
AcDbCircle
 10
685.0421684859774
 20
659.7054215704875
 30
0.0
 40
3.0
100
AcDbArc
 50
90.0
 51
178.5000000000102
  0
ARC
  5
1086
330
2
100
AcDbEntity
  8
0
100
AcDbCircle
 10
688.6398083847261
 20
667.7054215704875
 30
0.0
 40
5.0
100
AcDbArc
 50
270.0
 51
351.7867893013297
  0
ARC
  5
1087
330
2
100
AcDbEntity
  8
0
100
AcDbCircle
 10
695.5680116150561
 20
666.7054215708621
 30
0.0
 40
2.0
100
AcDbArc
 50
90.0
 51
178.5000000000102
  0
LINE
  5
1088
330
2
100
AcDbEntity
  8
0
100
AcDbLine
 10
701.6196978732132
 20
668.7054215708622
 30
0.0
 11
695.5680116150561
 21
668.7054215708622
 31
0.0
  0
LINE
  5
1089
330
2
100
AcDbEntity
  8
0
100
AcDbLine
 10
685.0421684859774
 20
662.7054215704874
 30
0.0
 11
688.6398083847261
 21
662.7054215704874
 31
0.0
  0
ARC
  5
108A
330
2
100
AcDbEntity
  8
0
100
AcDbCircle
 10
681.0421684862594
 20
662.7054215708621
 30
0.0
 40
2.0
100
AcDbArc
 50
270.0
 51
323.1301023487886
  0
LINE
  5
108B
330
2
100
AcDbEntity
  8
0
100
AcDbLine
 10
681.0421684862594
 20
660.7054215708622
 30
0.0
 11
670.6197740299821
 21
660.7054215708622
 31
0.0
  0
ARC
  5
108C
330
2
100
AcDbEntity
  8
0
100
AcDbCircle
 10
670.6196978732123
 20
662.7054215708621
 30
0.0
 40
2.0
100
AcDbArc
 50
180.0
 51
270.0
  0
ARC
  5
108D
330
2
100
AcDbEntity
  8
0
100
AcDbCircle
 10
673.6196978732123
 20
661.7054215708622
 30
0.0
 40
5.0
100
AcDbArc
 50
180.0
 51
270.0
  0
LINE
  5
108E
330
2
100
AcDbEntity
  8
0
100
AcDbLine
 10
677.2962017936597
 20
656.7054215708622
 30
0.0
 11
673.6196978732132
 21
656.7054215708622
 31
0.0
  0
ARC
  5
108F
330
2
100
AcDbEntity
  8
0
100
AcDbCircle
 10
677.2962017936597
 20
661.7054215708622
 30
0.0
 40
5.0
100
AcDbArc
 50
270.0
 51
345.5224878112707
  0
ARC
  5
1090
330
2
100
AcDbEntity
  8
0
100
AcDbCircle
 10
670.6196978732123
 20
612.7054215708604
 30
0.0
 40
2.0
100
AcDbArc
 50
90.0
 51
180.0
  0
LINE
  5
1091
330
2
100
AcDbEntity
  8
0
100
AcDbLine
 10
681.0421684862594
 20
614.7054215708603
 30
0.0
 11
670.6197740299821
 21
614.7054215708603
 31
0.0
  0
ARC
  5
1092
330
2
100
AcDbEntity
  8
0
100
AcDbCircle
 10
673.6196978732123
 20
613.7054215708603
 30
0.0
 40
5.0
100
AcDbArc
 50
90.0
 51
180.0
  0
LINE
  5
1093
330
2
100
AcDbEntity
  8
0
100
AcDbLine
 10
677.2962017936597
 20
618.7054215708603
 30
0.0
 11
673.6196978732132
 21
618.7054215708603
 31
0.0
  0
ARC
  5
1094
330
2
100
AcDbEntity
  8
0
100
AcDbCircle
 10
677.2962017936597
 20
613.7054215708603
 30
0.0
 40
5.0
100
AcDbArc
 50
14.47751218872929
 51
90.0
  0
ARC
  5
1095
330
2
100
AcDbEntity
  8
0
100
AcDbCircle
 10
681.0421684862594
 20
612.7054215708604
 30
0.0
 40
2.0
100
AcDbArc
 50
36.86989765121137
 51
90.0
  0
ARC
  5
1096
330
2
100
AcDbEntity
  8
0
100
AcDbCircle
 10
685.0421684859774
 20
615.7054215712369
 30
0.0
 40
3.0
100
AcDbArc
 50
181.4999999999897
 51
270.0
  0
LINE
  5
1097
330
2
100
AcDbEntity
  8
0
100
AcDbLine
 10
682.0431965110519
 20
615.6268907263138
 30
0.0
 11
681.4650498339979
 21
637.7054215708621
 31
0.0
  0
ARC
  5
1098
330
2
100
AcDbEntity
  8
0
100
AcDbCircle
 10
678.6080440251544
 20
632.2054215708622
 30
0.0
 40
3.0
100
AcDbArc
 50
1.499999999989693
 51
90.0
  0
LINE
  5
1099
330
2
100
AcDbEntity
  8
0
100
AcDbLine
 10
685.0421684859774
 20
612.7054215712369
 30
0.0
 11
688.6398083847261
 21
612.7054215712369
 31
0.0
  0
ARC
  5
109A
330
2
100
AcDbEntity
  8
0
100
AcDbCircle
 10
688.6398083847261
 20
607.7054215712369
 30
0.0
 40
5.0
100
AcDbArc
 50
8.213210698670247
 51
90.0
  0
ARC
  5
109B
330
2
100
AcDbEntity
  8
0
100
AcDbCircle
 10
695.5680116150561
 20
608.7054215708621
 30
0.0
 40
2.0
100
AcDbArc
 50
181.4999999999897
 51
270.0
  0
LINE
  5
109C
330
2
100
AcDbEntity
  8
0
100
AcDbLine
 10
693.5686969651051
 20
608.653067674245
 30
0.0
 11
692.8079343045628
 21
637.7054215708621
 31
0.0
  0
LINE
  5
109D
330
2
100
AcDbEntity
  8
0
100
AcDbLine
 10
701.6196978732132
 20
606.7054215708622
 30
0.0
 11
695.5680116150561
 21
606.7054215708622
 31
0.0
  0
LINE
  5
109E
330
2
100
AcDbEntity
  8
0
100
AcDbLine
 10
682.0431965110519
 20
659.7839524154105
 30
0.0
 11
681.4650498339979
 21
637.7054215708621
 31
0.0
  0
ARC
  5
109F
330
2
100
AcDbEntity
  8
0
100
AcDbCircle
 10
678.6080440251544
 20
643.2054215708622
 30
0.0
 40
3.0
100
AcDbArc
 50
270.0
 51
358.5000000000103
  0
LINE
  5
10A0
330
2
100
AcDbEntity
  8
0
100
AcDbLine
 10
693.5686969651051
 20
666.7577754674775
 30
0.0
 11
692.8079343045628
 21
637.7054215708621
 31
0.0
  0
LINE
  5
10A1
330
2
100
AcDbEntity
  8
0
100
AcDbLine
 10
671.7899860302895
 20
635.2054215708622
 30
0.0
 11
678.6080440251544
 21
635.2054215708622
 31
0.0
  0
LINE
  5
10A2
330
2
100
AcDbEntity
  8
0
100
AcDbLine
 10
671.7899860302732
 20
640.2054215708622
 30
0.0
 11
678.6080440251553
 21
640.2054215708622
 31
0.0
  0
LINE
  5
10A3
330
2
100
AcDbEntity
  8
0
100
AcDbLine
 10
662.6327908339971
 20
662.7054215708621
 30
0.0
 11
663.261938419173
 21
638.6792446225545
 31
0.0
  0
ARC
  5
10A4
330
2
100
AcDbEntity
  8
0
100
AcDbCircle
 10
664.2615957441485
 20
638.7054215708622
 30
0.0
 40
1.0
100
AcDbArc
 50
181.4999999999897
 51
270.0
  0
LINE
  5
10A5
330
2
100
AcDbEntity
  8
0
100
AcDbLine
 10
664.2615957441485
 20
637.7054215708621
 30
0.0
 11
668.6196978732123
 21
637.7054215708621
 31
0.0
  0
LINE
  5
10A6
330
2
100
AcDbEntity
  8
0
100
AcDbLine
 10
692.8079343045628
 20
637.7054215708621
 30
0.0
 11
701.6196978701864
 21
637.7054215708621
 31
0.0
  0
LINE
  5
10A7
330
2
100
AcDbEntity
  8
0
100
AcDbLine
 10
630.6196978732132
 20
662.7054215708621
 30
0.0
 11
630.6196978732132
 21
606.2054215708622
 31
0.0
  0
LINE
  5
10A8
330
2
100
AcDbEntity
  8
0
100
AcDbLine
 10
627.6196978732123
 20
662.7054215708621
 30
0.0
 11
627.6196978732123
 21
606.2054215708622
 31
0.0
  0
LINE
  5
10A9
330
2
100
AcDbEntity
  8
0
100
AcDbLine
 10
612.9117330390808
 20
662.7054215708621
 30
0.0
 11
612.9117330390808
 21
606.2054215708622
 31
0.0
  0
LINE
  5
10AA
330
2
100
AcDbEntity
  8
0
100
AcDbLine
 10
576.3276627073483
 20
662.7054215708621
 30
0.0
 11
576.3276627073483
 21
606.2054215708622
 31
0.0
  0
LINE
  5
10AB
330
2
100
AcDbEntity
  8
0
100
AcDbLine
 10
561.6196978732132
 20
662.7054215708621
 30
0.0
 11
561.6196978732141
 21
606.2054215708622
 31
0.0
  0
LINE
  5
10AC
330
2
100
AcDbEntity
  8
0
100
AcDbLine
 10
558.6196978732131
 20
662.7054215708621
 30
0.0
 11
558.6196978732131
 21
606.2054215708622
 31
0.0
  0
LINE
  5
10AD
330
2
100
AcDbEntity
  8
0
100
AcDbLine
 10
591.4172137886971
 20
352.3593651398031
 30
0.0
 11
592.6772143317739
 21
352.3593651398031
 31
0.0
  0
LINE
  5
10AE
330
2
100
AcDbEntity
  8
0
100
AcDbLine
 10
593.1672137886907
 20
355.8593651397922
 30
0.0
 11
591.4172137886971
 21
352.3593651398031
 31
0.0
  0
ARC
  5
10AF
330
2
100
AcDbEntity
  8
0
100
AcDbCircle
 10
596.0721819561804
 20
354.6693651397954
 30
0.0
 40
1.189999999995825
100
AcDbArc
 50
307.5189678668057
 51
90.0
  0
LINE
  5
10B0
330
2
100
AcDbEntity
  8
0
100
AcDbLine
 10
596.7969205597783
 20
353.7255145390945
 30
0.0
 11
597.666263194711
 21
352.3593651398031
 31
0.0
  0
LINE
  5
10B1
330
2
100
AcDbEntity
  8
0
100
AcDbLine
 10
596.4062626516343
 20
352.3593651398031
 30
0.0
 11
597.666263194711
 21
352.3593651398031
 31
0.0
  0
LINE
  5
10B2
330
2
100
AcDbEntity
  8
0
100
AcDbLine
 10
593.832213788688
 20
352.3593651398031
 30
0.0
 11
594.8821819561853
 21
352.3593651398031
 31
0.0
  0
LINE
  5
10B3
330
2
100
AcDbEntity
  8
0
100
AcDbLine
 10
592.9397143317728
 20
352.8843651398009
 30
0.0
 11
592.6772143317739
 21
352.3593651398031
 31
0.0
  0
LINE
  5
10B4
330
2
100
AcDbEntity
  8
0
100
AcDbLine
 10
592.9397143317728
 20
352.8843651398009
 30
0.0
 11
593.832213788688
 21
352.8843651398009
 31
0.0
  0
LINE
  5
10B5
330
2
100
AcDbEntity
  8
0
100
AcDbLine
 10
593.832213788688
 20
352.8843651398009
 30
0.0
 11
593.832213788688
 21
352.3593651398031
 31
0.0
  0
LINE
  5
10B6
330
2
100
AcDbEntity
  8
0
100
AcDbLine
 10
593.4997143317705
 20
354.0043651397981
 30
0.0
 11
593.832213788688
 21
354.0043651397981
 31
0.0
  0
LINE
  5
10B7
330
2
100
AcDbEntity
  8
0
100
AcDbLine
 10
593.832213788688
 20
354.6693640536331
 30
0.0
 11
593.832213788688
 21
354.0043651397981
 31
0.0
  0
LINE
  5
10B8
330
2
100
AcDbEntity
  8
0
100
AcDbLine
 10
593.832213788688
 20
354.6693640536331
 30
0.0
 11
593.4997143317705
 21
354.0043651397981
 31
0.0
  0
LINE
  5
10B9
330
2
100
AcDbEntity
  8
0
100
AcDbLine
 10
595.0309637886839
 20
354.5206151397969
 30
0.0
 11
596.4062626516343
 21
352.3593651398031
 31
0.0
  0
LINE
  5
10BA
330
2
100
AcDbEntity
  8
0
100
AcDbLine
 10
594.8821819561853
 20
354.6693651397954
 30
0.0
 11
594.8821819561853
 21
352.3593651398031
 31
0.0
  0
LINE
  5
10BB
330
2
100
AcDbEntity
  8
0
100
AcDbLine
 10
594.8821819561853
 20
354.6693651397954
 30
0.0
 11
595.9978387886804
 21
354.6693651397954
 31
0.0
  0
LINE
  5
10BC
330
2
100
AcDbEntity
  8
0
100
AcDbLine
 10
595.0309637886839
 20
354.5206151397969
 30
0.0
 11
595.9978387886804
 21
354.5206151397969
 31
0.0
  0
ARC
  5
10BD
330
2
100
AcDbEntity
  8
0
100
AcDbCircle
 10
595.9978387886804
 20
354.5949901397952
 30
0.0
 40
0.0743749999997391
100
AcDbArc
 50
270.0
 51
90.0
  0
LINE
  5
10BE
330
2
100
AcDbEntity
  8
0
100
AcDbLine
 10
593.1672137886907
 20
355.8593651397922
 30
0.0
 11
596.0721819561804
 21
355.8593651397922
 31
0.0
  0
LINE
  5
10BF
330
2
100
AcDbEntity
  8
0
100
AcDbLine
 10
91.97301088895347
 20
355.0324915174071
 30
0.0
 11
97.97301088895347
 21
355.0324915174071
 31
0.0
  0
ARC
  5
10C0
330
2
100
AcDbEntity
  8
0
100
AcDbCircle
 10
97.97301088895347
 20
357.0324915174071
 30
0.0
 40
2.0
100
AcDbArc
 50
270.0
 51
0.0
  0
ARC
  5
10C1
330
2
100
AcDbEntity
  8
0
100
AcDbCircle
 10
104.9551309108387
 20
356.5324915174162
 30
0.0
 40
5.0
100
AcDbArc
 50
90.0
 51
175.9039562419073
  0
LINE
  5
10C2
330
2
100
AcDbEntity
  8
0
100
AcDbLine
 10
97.97301088895393
 20
418.0324915174071
 30
0.0
 11
91.97301088895391
 21
418.0324915174071
 31
0.0
  0
ARC
  5
10C3
330
2
100
AcDbEntity
  8
0
100
AcDbCircle
 10
97.97301088895393
 20
416.032491517407
 30
0.0
 40
2.0
100
AcDbArc
 50
0.0
 51
89.99999999997395
  0
ARC
  5
10C4
330
2
100
AcDbEntity
  8
0
100
AcDbCircle
 10
104.9551309108373
 20
416.5324915174162
 30
0.0
 40
5.0
100
AcDbArc
 50
184.0960437581962
 51
270.0
  0
LINE
  5
10C5
330
2
100
AcDbEntity
  8
0
100
AcDbLine
 10
695.6196978732095
 20
418.0324915174068
 30
0.0
 11
701.6196978732096
 21
418.0324915174068
 31
0.0
  0
ARC
  5
10C6
330
2
100
AcDbEntity
  8
0
100
AcDbCircle
 10
695.6196978732095
 20
416.0324915174069
 30
0.0
 40
2.0
100
AcDbArc
 50
90.0
 51
180.0
  0
ARC
  5
10C7
330
2
100
AcDbEntity
  8
0
100
AcDbCircle
 10
688.6375778513247
 20
416.5324915174068
 30
0.0
 40
5.0
100
AcDbArc
 50
270.0
 51
355.9039562418037
  0
ARC
  5
10C8
330
2
100
AcDbEntity
  8
0
100
AcDbCircle
 10
695.6196978732095
 20
357.0324915174068
 30
0.0
 40
2.0
100
AcDbArc
 50
180.0
 51
270.0
  0
LINE
  5
10C9
330
2
100
AcDbEntity
  8
0
100
AcDbLine
 10
701.6196978732096
 20
355.0324915174068
 30
0.0
 11
695.6196978732095
 21
355.0324915174068
 31
0.0
  0
ARC
  5
10CA
330
2
100
AcDbEntity
  8
0
100
AcDbCircle
 10
688.6375778513247
 20
356.5324915174068
 30
0.0
 40
5.0
100
AcDbArc
 50
4.096043758196293
 51
90.0
  0
LINE
  5
10CB
330
2
100
AcDbEntity
  8
CENTER
100
AcDbLine
 10
379.5033078096985
 20
335.750663212176
 30
0.0
 11
379.5033078096985
 21
437.3172287128883
 31
0.0
  0
LINE
  5
10CC
330
2
100
AcDbEntity
  8
0
100
AcDbLine
 10
417.5033078096985
 20
351.532491517407
 30
0.0
 11
417.5033078096985
 21
421.532491517407
 31
0.0
  0
LINE
  5
10CD
330
2
100
AcDbEntity
  8
0
100
AcDbLine
 10
412.5033078096985
 20
346.0386498492709
 30
0.0
 11
412.5033078096985
 21
427.0292420757934
 31
0.0
  0
LINE
  5
10CE
330
2
100
AcDbEntity
  8
0
100
AcDbLine
 10
412.5033078096985
 20
421.532491517407
 30
0.0
 11
417.5033078096985
 21
421.532491517407
 31
0.0
  0
LINE
  5
10CF
330
2
100
AcDbEntity
  8
CENTER
100
AcDbLine
 10
304.5033078096989
 20
386.532491517408
 30
0.0
 11
453.5033078096985
 21
386.5324915174052
 31
0.0
  0
LINE
  5
10D0
330
2
100
AcDbEntity
  8
0
100
AcDbLine
 10
412.5033078096985
 20
351.532491517407
 30
0.0
 11
417.5033078096985
 21
351.532491517407
 31
0.0
  0
LINE
  5
10D1
330
2
100
AcDbEntity
  8
0
100
AcDbLine
 10
354.5033078096985
 20
345.532491517407
 30
0.0
 11
412.5033078096985
 21
346.0386498492709
 31
0.0
  0
LINE
  5
10D2
330
2
100
AcDbEntity
  8
0
100
AcDbLine
 10
354.5033078096985
 20
427.5354004076572
 30
0.0
 11
412.5033078096985
 21
427.0292420757934
 31
0.0
  0
LINE
  5
10D3
330
2
100
AcDbEntity
  8
0
100
AcDbLine
 10
354.5033078096985
 20
417.6292657109544
 30
0.0
 11
354.5033078096985
 21
427.5354004076572
 31
0.0
  0
ARC
  5
10D4
330
2
100
AcDbEntity
  8
0
100
AcDbCircle
 10
419.5033078096985
 20
416.9178390704138
 30
0.0
 40
2.0
100
AcDbArc
 50
180.0
 51
267.9999999999963
  0
ARC
  5
10D5
330
2
100
AcDbEntity
  8
0
100
AcDbCircle
 10
428.5033078096985
 20
412.6011139677913
 30
0.0
 40
2.0
100
AcDbArc
 50
0.0
 51
87.99999999999636
  0
ARC
  5
10D6
330
2
100
AcDbEntity
  8
0
100
AcDbCircle
 10
419.5033078096985
 20
356.1471439644003
 30
0.0
 40
2.0
100
AcDbArc
 50
92.00000000000365
 51
180.0
  0
ARC
  5
10D7
330
2
100
AcDbEntity
  8
0
100
AcDbCircle
 10
428.5033078096985
 20
360.4638690670228
 30
0.0
 40
2.0
100
AcDbArc
 50
272.0000000000036
 51
0.0
  0
LINE
  5
10D8
330
2
100
AcDbEntity
  8
0
100
AcDbLine
 10
428.5731068031036
 20
414.5998956218311
 30
0.0
 11
419.4335088162934
 21
414.919057416376
 31
0.0
  0
LINE
  5
10D9
330
2
100
AcDbEntity
  8
0
100
AcDbLine
 10
428.5731068031036
 20
358.4650874129849
 30
0.0
 11
419.4335088162934
 21
358.1459256184381
 31
0.0
  0
LINE
  5
10DA
330
2
100
AcDbEntity
  8
0
100
AcDbLine
 10
430.5033078097003
 20
360.4638690670228
 30
0.0
 11
430.5033078096985
 21
412.6011139677913
 31
0.0
  0
LINE
  5
10DB
330
2
100
AcDbEntity
  8
0
100
AcDbLine
 10
354.5033078096985
 20
350.5324915174052
 30
0.0
 11
411.5033078096985
 21
350.5324915174052
 31
0.0
  0
LINE
  5
10DC
330
2
100
AcDbEntity
  8
0
100
AcDbLine
 10
354.5033078096985
 20
353.5324915174052
 30
0.0
 11
411.5033078096985
 21
353.5324915174052
 31
0.0
  0
LINE
  5
10DD
330
2
100
AcDbEntity
  8
0
100
AcDbLine
 10
354.5033078096985
 20
368.2404563515366
 30
0.0
 11
411.5033078096985
 21
368.2404563515366
 31
0.0
  0
LINE
  5
10DE
330
2
100
AcDbEntity
  8
0
100
AcDbLine
 10
354.5033078096985
 20
422.5324915174071
 30
0.0
 11
411.5033078096985
 21
422.5324915174071
 31
0.0
  0
LINE
  5
10DF
330
2
100
AcDbEntity
  8
0
100
AcDbLine
 10
354.5033078096985
 20
419.5324915174071
 30
0.0
 11
411.5033078096985
 21
419.5324915174071
 31
0.0
  0
LINE
  5
10E0
330
2
100
AcDbEntity
  8
0
100
AcDbLine
 10
354.5033078096985
 20
404.8245266832756
 30
0.0
 11
411.5033078096985
 21
404.8245266832756
 31
0.0
  0
LINE
  5
10E1
330
2
100
AcDbEntity
  8
0
100
AcDbLine
 10
668.5846380914063
 20
608.6879684998629
 30
0.0
 11
668.8378695679812
 21
637.7054215708621
 31
0.0
  0
ARC
  5
10E2
330
2
100
AcDbEntity
  8
0
100
AcDbCircle
 10
671.7899860302895
 20
632.2054215708622
 30
0.0
 40
3.0
100
AcDbArc
 50
90.0
 51
179.5000000000344
  0
ARC
  5
10E3
330
2
100
AcDbEntity
  8
0
100
AcDbCircle
 10
666.5847142452784
 20
608.7054215708604
 30
0.0
 40
2.0
100
AcDbArc
 50
270.0
 51
359.5000000000345
  0
LINE
  5
10E4
330
2
100
AcDbEntity
  8
0
100
AcDbLine
 10
635.6153344393151
 20
662.7054215708621
 30
0.0
 11
635.1091761074521
 21
604.7054215708621
 31
0.0
  0
ARC
  5
10E5
330
2
100
AcDbEntity
  8
0
100
AcDbCircle
 10
636.6135966589263
 20
605.2054215708567
 30
0.0
 40
1.5
100
AcDbArc
 50
90.0
 51
179.5000000000344
  0
LINE
  5
10E6
330
2
100
AcDbEntity
  8
0
100
AcDbLine
 10
668.6196978732123
 20
662.7054215708621
 30
0.0
 11
668.8378695679611
 21
637.7054215708621
 31
0.0
  0
ARC
  5
10E7
330
2
100
AcDbEntity
  8
0
100
AcDbCircle
 10
671.7899860302732
 20
643.2054215708622
 30
0.0
 40
3.0
100
AcDbArc
 50
180.4999999999655
 51
270.0
  0
LINE
  5
10E8
330
2
100
AcDbEntity
  8
0
100
AcDbLine
 10
337.2033078096992
 20
360.0324915174052
 30
0.0
 11
340.5033078096985
 21
360.032491517407
 31
0.0
  0
LINE
  5
10E9
330
2
100
AcDbEntity
  8
HIDS
100
AcDbLine
 10
341.7104145908797
 20
354.8253847362186
 30
0.0
 11
341.2962010285082
 21
355.2395982985901
 31
0.0
  0
LINE
  5
10EA
330
2
100
AcDbEntity
  8
0
100
AcDbLine
 10
340.5033078096967
 20
358.0324915174089
 30
0.0
 11
341.0033078097003
 21
357.532491517407
 31
0.0
  0
LINE
  5
10EB
330
2
100
AcDbEntity
  8
0
100
AcDbLine
 10
333.5033078096989
 20
360.0324915174052
 30
0.0
 11
332.5033078096989
 21
360.6098417865952
 31
0.0
  0
LINE
  5
10EC
330
2
100
AcDbEntity
  8
0
100
AcDbLine
 10
335.2033078096992
 20
360.732491517406
 30
0.0
 11
336.8033078096996
 21
360.732491517406
 31
0.0
  0
LINE
  5
10ED
330
2
100
AcDbEntity
  8
0
100
AcDbLine
 10
337.0033078096985
 20
360.2324915174059
 30
0.0
 11
337.2033078096992
 21
360.0324915174052
 31
0.0
  0
LINE
  5
10EE
330
2
100
AcDbEntity
  8
0
100
AcDbLine
 10
335.0033078096985
 20
360.2324915174059
 30
0.0
 11
335.0033078096985
 21
412.8324915174063
 31
0.0
  0
LINE
  5
10EF
330
2
100
AcDbEntity
  8
0
100
AcDbLine
 10
333.5033078096989
 20
360.0324915174052
 30
0.0
 11
334.8033078096996
 21
360.0324915174052
 31
0.0
  0
LINE
  5
10F0
330
2
100
AcDbEntity
  8
0
100
AcDbLine
 10
337.2033078096974
 20
413.032491517407
 30
0.0
 11
340.5033078096967
 21
413.032491517407
 31
0.0
  0
LINE
  5
10F1
330
2
100
AcDbEntity
  8
0
100
AcDbLine
 10
340.5033078096967
 20
415.0324915174071
 30
0.0
 11
340.5033078096967
 21
358.0324915174089
 31
0.0
  0
LINE
  5
10F2
330
2
100
AcDbEntity
  8
0
100
AcDbLine
 10
340.503307809693
 20
413.032491517407
 30
0.0
 11
340.503307809693
 21
415.0324915174016
 31
0.0
  0
LINE
  5
10F3
330
2
100
AcDbEntity
  8
0
100
AcDbLine
 10
342.0033078096939
 20
346.6328885753857
 30
0.0
 11
342.0033078096939
 21
347.032491517407
 31
0.0
  0
LINE
  5
10F4
330
2
100
AcDbEntity
  8
HIDS
100
AcDbLine
 10
342.003307809693
 20
347.032491517407
 30
0.0
 11
342.0033078096939
 21
357.0324915174071
 31
0.0
  0
LINE
  5
10F5
330
2
100
AcDbEntity
  8
0
100
AcDbLine
 10
342.0033078096939
 20
357.0324915174071
 30
0.0
 11
342.0033078096939
 21
416.032491517407
 31
0.0
  0
LINE
  5
10F6
330
2
100
AcDbEntity
  8
HIDS
100
AcDbLine
 10
342.0033078096939
 20
416.032491517407
 30
0.0
 11
342.0033078096939
 21
426.0324915174071
 31
0.0
  0
LINE
  5
10F7
330
2
100
AcDbEntity
  8
0
100
AcDbLine
 10
342.0033078096949
 20
426.0324915174071
 30
0.0
 11
342.0033078096949
 21
426.4320944594266
 31
0.0
  0
ARC
  5
10F8
330
2
100
AcDbEntity
  8
0
100
AcDbCircle
 10
343.0033078096939
 20
346.6328885753857
 30
0.0
 40
1.0
100
AcDbArc
 50
180.0
 51
269.5000000000084
  0
LINE
  5
10F9
330
2
100
AcDbEntity
  8
0
100
AcDbLine
 10
340.5033078096967
 20
415.0324915174071
 30
0.0
 11
341.0033078096966
 21
415.532491517407
 31
0.0
  0
LINE
  5
10FA
330
2
100
AcDbEntity
  8
HIDS
100
AcDbLine
 10
341.7104145908797
 20
418.2395982985937
 30
0.0
 11
341.2962010285064
 21
417.8253847362204
 31
0.0
  0
LINE
  5
10FB
330
2
100
AcDbEntity
  8
HIDS
100
AcDbLine
 10
341.0033078096921
 20
355.9467050797767
 30
0.0
 11
341.003307809693
 21
357.0324915174071
 31
0.0
  0
LINE
  5
10FC
330
2
100
AcDbEntity
  8
0
100
AcDbLine
 10
341.0033078096921
 20
357.0324915174071
 30
0.0
 11
341.0033078096921
 21
416.032491517407
 31
0.0
  0
LINE
  5
10FD
330
2
100
AcDbEntity
  8
HIDS
100
AcDbLine
 10
341.0033078096921
 20
416.032491517407
 30
0.0
 11
341.0033078096921
 21
417.1182779550338
 31
0.0
  0
LINE
  5
10FE
330
2
100
AcDbEntity
  8
0
100
AcDbLine
 10
332.5033078096953
 20
360.609841786597
 30
0.0
 11
332.5033078096944
 21
412.4551412482152
 31
0.0
  0
LINE
  5
10FF
330
2
100
AcDbEntity
  8
0
100
AcDbLine
 10
333.5033078096971
 20
413.032491517407
 30
0.0
 11
334.8033078096978
 21
413.032491517407
 31
0.0
  0
LINE
  5
1100
330
2
100
AcDbEntity
  8
0
100
AcDbLine
 10
337.0033078096966
 20
412.8324915174063
 30
0.0
 11
337.2033078096974
 21
413.032491517407
 31
0.0
  0
LINE
  5
1101
330
2
100
AcDbEntity
  8
0
100
AcDbLine
 10
337.0033078096966
 20
412.8324915174063
 30
0.0
 11
337.0033078096576
 21
360.2324915174478
 31
0.0
  0
LINE
  5
1102
330
2
100
AcDbEntity
  8
0
100
AcDbLine
 10
335.2033078096974
 20
412.3324915174063
 30
0.0
 11
336.8033078096978
 21
412.3324915174063
 31
0.0
  0
LINE
  5
1103
330
2
100
AcDbEntity
  8
0
100
AcDbLine
 10
333.5033078096971
 20
413.032491517407
 30
0.0
 11
332.5033078096971
 21
412.4551412482171
 31
0.0
  0
LINE
  5
1104
330
2
100
AcDbEntity
  8
0
100
AcDbLine
 10
354.5033078096967
 20
427.5324915174071
 30
0.0
 11
354.5033078097012
 21
345.532491517407
 31
0.0
  0
LINE
  5
1105
330
2
100
AcDbEntity
  8
0
100
AcDbLine
 10
354.5033078097012
 20
345.532491517407
 30
0.0
 11
342.9945812741952
 21
345.6329266523218
 31
0.0
  0
ARC
  5
1106
330
2
100
AcDbEntity
  8
HIDS
100
AcDbCircle
 10
342.0033078096949
 20
355.9467050797767
 30
0.0
 40
1.0
100
AcDbArc
 50
180.0
 51
225.000000000021
  0
ARC
  5
1107
330
2
100
AcDbEntity
  8
HIDS
100
AcDbCircle
 10
341.0033078096948
 20
354.1182779550319
 30
0.0
 40
1.0
100
AcDbArc
 50
0.0
 51
45.00000000002101
  0
ARC
  5
1108
330
2
100
AcDbEntity
  8
HIDS
100
AcDbCircle
 10
342.0033078096921
 20
417.1182779550338
 30
0.0
 40
1.0
100
AcDbArc
 50
134.999999999979
 51
180.0
  0
ARC
  5
1109
330
2
100
AcDbEntity
  8
HIDS
100
AcDbCircle
 10
341.0033078096948
 20
418.9467050797822
 30
0.0
 40
1.0
100
AcDbArc
 50
314.9999999999789
 51
0.0
  0
ARC
  5
110A
330
2
100
AcDbEntity
  8
0
100
AcDbCircle
 10
334.8033078096978
 20
412.8324915174063
 30
0.0
 40
0.2
100
AcDbArc
 50
0.0
 51
90.0
  0
ARC
  5
110B
330
2
100
AcDbEntity
  8
0
100
AcDbCircle
 10
335.2033078096974
 20
412.532491517407
 30
0.0
 40
0.2
100
AcDbArc
 50
180.0
 51
270.0
  0
ARC
  5
110C
330
2
100
AcDbEntity
  8
0
100
AcDbCircle
 10
336.8033078096978
 20
412.532491517407
 30
0.0
 40
0.2
100
AcDbArc
 50
270.0
 51
0.0
  0
ARC
  5
110D
330
2
100
AcDbEntity
  8
0
100
AcDbCircle
 10
334.8033078096996
 20
360.2324915174059
 30
0.0
 40
0.2
100
AcDbArc
 50
270.0
 51
0.0
  0
ARC
  5
110E
330
2
100
AcDbEntity
  8
0
100
AcDbCircle
 10
335.2033078096992
 20
360.5324915174052
 30
0.0
 40
0.2
100
AcDbArc
 50
90.0
 51
180.0
  0
ARC
  5
110F
330
2
100
AcDbEntity
  8
0
100
AcDbCircle
 10
336.8033078096996
 20
360.5324915174052
 30
0.0
 40
0.2
100
AcDbArc
 50
0.0
 51
90.0
  0
LINE
  5
1110
330
2
100
AcDbEntity
  8
0
100
AcDbLine
 10
333.5033078096989
 20
360.0324915174052
 30
0.0
 11
333.5033078096971
 21
413.032491517407
 31
0.0
  0
LINE
  5
1111
330
2
100
AcDbEntity
  8
0
100
AcDbLine
 10
337.2033078096974
 20
413.032491517407
 30
0.0
 11
337.2033078096992
 21
360.0324915174052
 31
0.0
  0
LINE
  5
1112
330
2
100
AcDbEntity
  8
0
100
AcDbLine
 10
354.5033078097003
 20
350.5324915174071
 30
0.0
 11
347.9945812741943
 21
350.5324915174071
 31
0.0
  0
LINE
  5
1113
330
2
100
AcDbEntity
  8
0
100
AcDbLine
 10
354.5033078097003
 20
353.532491517407
 30
0.0
 11
347.9945812741943
 21
353.532491517407
 31
0.0
  0
LINE
  5
1114
330
2
100
AcDbEntity
  8
0
100
AcDbLine
 10
354.5033078096967
 20
419.5324915174071
 30
0.0
 11
347.9945812741953
 21
419.5324915174071
 31
0.0
  0
LINE
  5
1115
330
2
100
AcDbEntity
  8
0
100
AcDbLine
 10
354.5033078096967
 20
422.5324915174071
 30
0.0
 11
347.9945812741943
 21
422.5324915174071
 31
0.0
  0
LINE
  5
1116
330
2
100
AcDbEntity
  8
0
100
AcDbLine
 10
354.5033078096985
 20
404.8245266832756
 30
0.0
 11
343.0033078096948
 21
404.8245266832756
 31
0.0
  0
LINE
  5
1117
330
2
100
AcDbEntity
  8
0
100
AcDbLine
 10
354.5033078097003
 20
368.2404563515385
 30
0.0
 11
343.0033078096948
 21
368.2404563515385
 31
0.0
  0
LINE
  5
1118
330
2
100
AcDbEntity
  8
0
100
AcDbLine
 10
342.9945812741952
 20
359.067475143892
 30
0.0
 11
346.5076710774419
 21
359.0368168736414
 31
0.0
  0
LINE
  5
1119
330
2
100
AcDbEntity
  8
0
100
AcDbLine
 10
347.003307809693
 20
358.5368359121086
 30
0.0
 11
347.003307809693
 21
346.5892542364319
 31
0.0
  0
ARC
  5
111A
330
2
100
AcDbEntity
  8
0
100
AcDbCircle
 10
343.003307809693
 20
360.0674370669596
 30
0.0
 40
1.0
100
AcDbArc
 50
180.0
 51
269.5000000000345
  0
ARC
  5
111B
330
2
100
AcDbEntity
  8
0
100
AcDbCircle
 10
346.503307809693
 20
358.5368359121104
 30
0.0
 40
0.5
100
AcDbArc
 50
0.0
 51
89.5000000000345
  0
ARC
  5
111C
330
2
100
AcDbEntity
  8
0
100
AcDbCircle
 10
348.003307809693
 20
346.5892542364319
 30
0.0
 40
1.0
100
AcDbArc
 50
180.0
 51
269.5000000000084
  0
ARC
  5
111D
330
2
100
AcDbEntity
  8
0
100
AcDbCircle
 10
343.0033078096939
 20
426.4320944594266
 30
0.0
 40
1.0
100
AcDbArc
 50
90.49999999999155
 51
180.0
  0
LINE
  5
111E
330
2
100
AcDbEntity
  8
0
100
AcDbLine
 10
354.5033078096967
 20
427.5324915174071
 30
0.0
 11
342.9945812741952
 21
427.4320563824905
 31
0.0
  0
LINE
  5
111F
330
2
100
AcDbEntity
  8
0
100
AcDbLine
 10
342.9945812741952
 20
413.9975078909221
 30
0.0
 11
346.5076710774419
 21
414.0281661611708
 31
0.0
  0
LINE
  5
1120
330
2
100
AcDbEntity
  8
0
100
AcDbLine
 10
347.003307809693
 20
414.5281471227037
 30
0.0
 11
347.003307809693
 21
426.4757287983804
 31
0.0
  0
ARC
  5
1121
330
2
100
AcDbEntity
  8
0
100
AcDbCircle
 10
343.003307809693
 20
412.9975459678528
 30
0.0
 40
1.0
100
AcDbArc
 50
90.49999999996549
 51
180.0
  0
ARC
  5
1122
330
2
100
AcDbEntity
  8
0
100
AcDbCircle
 10
346.503307809693
 20
414.5281471227037
 30
0.0
 40
0.5
100
AcDbArc
 50
270.4999999999654
 51
0.0
  0
ARC
  5
1123
330
2
100
AcDbEntity
  8
0
100
AcDbCircle
 10
348.003307809693
 20
426.4757287983804
 30
0.0
 40
1.0
100
AcDbArc
 50
90.49999999999155
 51
180.0
  0
LINE
  5
1124
330
2
100
AcDbEntity
  8
0
100
AcDbLine
 10
339.9033078096927
 20
416.032491517407
 30
0.0
 11
339.503307809693
 21
416.7253118404343
 31
0.0
  0
LINE
  5
1125
330
2
100
AcDbEntity
  8
0
100
AcDbLine
 10
345.503307809693
 20
416.032491517407
 30
0.0
 11
345.503307809693
 21
426.0324915174071
 31
0.0
  0
LINE
  5
1126
330
2
100
AcDbEntity
  8
0
100
AcDbLine
 10
339.9033078096927
 20
416.032491517407
 30
0.0
 11
339.9033078096927
 21
426.0324915174071
 31
0.0
  0
LINE
  5
1127
330
2
100
AcDbEntity
  8
0
100
AcDbLine
 10
347.003307809693
 20
416.032491517407
 30
0.0
 11
339.9033078096927
 21
416.032491517407
 31
0.0
  0
LINE
  5
1128
330
2
100
AcDbEntity
  8
0
100
AcDbLine
 10
347.003307809693
 20
426.0324915174071
 30
0.0
 11
339.9033078096927
 21
426.0324915174071
 31
0.0
  0
LINE
  5
1129
330
2
100
AcDbEntity
  8
0
100
AcDbLine
 10
339.9033078096927
 20
426.0324915174071
 30
0.0
 11
339.503307809693
 21
425.3396711943798
 31
0.0
  0
LINE
  5
112A
330
2
100
AcDbEntity
  8
0
100
AcDbLine
 10
339.503307809693
 20
416.7253118404343
 30
0.0
 11
339.503307809693
 21
425.3396711943798
 31
0.0
  0
LINE
  5
112B
330
2
100
AcDbEntity
  8
0
100
AcDbLine
 10
347.003307809693
 20
426.0324915174071
 30
0.0
 11
347.003307809693
 21
416.032491517407
 31
0.0
  0
LINE
  5
112C
330
2
100
AcDbEntity
  8
0
100
AcDbLine
 10
339.9033078096927
 20
357.0324915174071
 30
0.0
 11
339.503307809693
 21
356.3396711943798
 31
0.0
  0
LINE
  5
112D
330
2
100
AcDbEntity
  8
0
100
AcDbLine
 10
345.503307809693
 20
357.0324915174071
 30
0.0
 11
345.503307809693
 21
347.032491517407
 31
0.0
  0
LINE
  5
112E
330
2
100
AcDbEntity
  8
0
100
AcDbLine
 10
339.9033078096927
 20
357.0324915174071
 30
0.0
 11
339.9033078096927
 21
347.032491517407
 31
0.0
  0
LINE
  5
112F
330
2
100
AcDbEntity
  8
0
100
AcDbLine
 10
347.003307809693
 20
357.0324915174071
 30
0.0
 11
339.9033078096927
 21
357.0324915174071
 31
0.0
  0
LINE
  5
1130
330
2
100
AcDbEntity
  8
0
100
AcDbLine
 10
347.003307809693
 20
347.032491517407
 30
0.0
 11
339.9033078096927
 21
347.032491517407
 31
0.0
  0
LINE
  5
1131
330
2
100
AcDbEntity
  8
0
100
AcDbLine
 10
339.9033078096927
 20
347.032491517407
 30
0.0
 11
339.503307809693
 21
347.7253118404343
 31
0.0
  0
LINE
  5
1132
330
2
100
AcDbEntity
  8
0
100
AcDbLine
 10
339.503307809693
 20
356.3396711943798
 30
0.0
 11
339.503307809693
 21
347.7253118404343
 31
0.0
  0
LINE
  5
1133
330
2
100
AcDbEntity
  8
0
100
AcDbLine
 10
568.1196978732113
 20
680.0054215708614
 30
0.0
 11
568.1196978732123
 21
676.7054215708622
 31
0.0
  0
LINE
  5
1134
330
2
100
AcDbEntity
  8
HIDS
100
AcDbLine
 10
562.9125910920247
 20
675.4983147896809
 30
0.0
 11
563.3268046543962
 21
675.9125283520525
 31
0.0
  0
LINE
  5
1135
330
2
100
AcDbEntity
  8
0
100
AcDbLine
 10
566.119697873215
 20
676.705421570864
 30
0.0
 11
565.6196978732132
 21
676.2054215708603
 31
0.0
  0
LINE
  5
1136
330
2
100
AcDbEntity
  8
0
100
AcDbLine
 10
568.1196978732113
 20
683.7054215708621
 30
0.0
 11
568.6970481424014
 21
684.7054215708622
 31
0.0
  0
LINE
  5
1137
330
2
100
AcDbEntity
  8
0
100
AcDbLine
 10
568.8196978732121
 20
682.0054215708615
 30
0.0
 11
568.8196978732121
 21
680.405421570861
 31
0.0
  0
LINE
  5
1138
330
2
100
AcDbEntity
  8
0
100
AcDbLine
 10
568.3196978732121
 20
680.2054215708622
 30
0.0
 11
568.1196978732113
 21
680.0054215708614
 31
0.0
  0
LINE
  5
1139
330
2
100
AcDbEntity
  8
0
100
AcDbLine
 10
568.3196978732121
 20
682.2054215708622
 30
0.0
 11
620.9196978732125
 21
682.2054215708622
 31
0.0
  0
LINE
  5
113A
330
2
100
AcDbEntity
  8
0
100
AcDbLine
 10
568.1196978732113
 20
683.7054215708621
 30
0.0
 11
568.1196978732113
 21
682.4054215708611
 31
0.0
  0
LINE
  5
113B
330
2
100
AcDbEntity
  8
0
100
AcDbLine
 10
636.6196978732123
 20
673.2054215708676
 30
0.0
 11
657.1196978732132
 21
673.2054215708676
 31
0.0
  0
LINE
  5
113C
330
2
100
AcDbEntity
  8
0
100
AcDbLine
 10
667.1196978732132
 20
673.2054215708676
 30
0.0
 11
667.5367545508143
 21
673.2054215708676
 31
0.0
  0
LINE
  5
113D
330
2
100
AcDbEntity
  8
0
100
AcDbLine
 10
655.6196978732132
 20
670.2054215708677
 30
0.0
 11
667.5629351541865
 21
670.2054215708677
 31
0.0
  0
LINE
  5
113E
330
2
100
AcDbEntity
  8
0
100
AcDbLine
 10
621.1196978732132
 20
680.0054215708633
 30
0.0
 11
621.1196978732123
 21
676.705421570864
 31
0.0
  0
LINE
  5
113F
330
2
100
AcDbEntity
  8
0
100
AcDbLine
 10
623.1196978732123
 20
676.705421570864
 30
0.0
 11
566.119697873215
 21
676.705421570864
 31
0.0
  0
LINE
  5
1140
330
2
100
AcDbEntity
  8
0
100
AcDbLine
 10
621.1196978732132
 20
676.7054215708676
 30
0.0
 11
623.1196978732068
 21
676.7054215708676
 31
0.0
  0
LINE
  5
1141
330
2
100
AcDbEntity
  8
0
100
AcDbLine
 10
554.7200949311918
 20
675.2054215708658
 30
0.0
 11
555.1196978732041
 21
675.2054215708658
 31
0.0
  0
LINE
  5
1142
330
2
100
AcDbEntity
  8
HIDS
100
AcDbLine
 10
555.1196978732041
 20
675.2054215708658
 30
0.0
 11
565.1196978732041
 21
675.2054215708658
 31
0.0
  0
LINE
  5
1143
330
2
100
AcDbEntity
  8
0
100
AcDbLine
 10
565.1196978732041
 20
675.2054215708658
 30
0.0
 11
634.6196978732123
 21
675.2054215708658
 31
0.0
  0
ARC
  5
1144
330
2
100
AcDbEntity
  8
0
100
AcDbCircle
 10
554.7200949311918
 20
674.2054215708658
 30
0.0
 40
1.0
100
AcDbArc
 50
90.0
 51
179.5000000000344
  0
LINE
  5
1145
330
2
100
AcDbEntity
  8
0
100
AcDbLine
 10
623.1196978732123
 20
676.705421570864
 30
0.0
 11
623.6196978732123
 21
676.205421570864
 31
0.0
  0
LINE
  5
1146
330
2
100
AcDbEntity
  8
0
100
AcDbLine
 10
626.3268046543998
 20
675.4983147896809
 30
0.0
 11
625.9125910920265
 21
675.9125283520543
 31
0.0
  0
LINE
  5
1147
330
2
100
AcDbEntity
  8
HIDS
100
AcDbLine
 10
564.0339114355829
 20
676.2054215708676
 30
0.0
 11
565.1196978732041
 21
676.2054215708676
 31
0.0
  0
LINE
  5
1148
330
2
100
AcDbEntity
  8
0
100
AcDbLine
 10
565.1196978732041
 20
676.2054215708676
 30
0.0
 11
625.2054843108399
 21
676.2054215708676
 31
0.0
  0
ARC
  5
1149
330
2
100
AcDbEntity
  8
0
100
AcDbCircle
 10
636.6196978732123
 20
674.2054215708677
 30
0.0
 40
1.0
100
AcDbArc
 50
180.0
 51
270.0
  0
ARC
  5
114A
330
2
100
AcDbEntity
  8
0
100
AcDbCircle
 10
634.6196978732123
 20
674.2054215708658
 30
0.0
 40
1.0
100
AcDbArc
 50
0.0
 51
90.0
  0
LINE
  5
114B
330
2
100
AcDbEntity
  8
0
100
AcDbLine
 10
635.6196978732123
 20
674.2054215708677
 30
0.0
 11
635.6196978732123
 21
674.2054215708658
 31
0.0
  0
LINE
  5
114C
330
2
100
AcDbEntity
  8
0
100
AcDbLine
 10
568.6970481424032
 20
684.7054215708658
 30
0.0
 11
620.5423476040214
 21
684.7054215708658
 31
0.0
  0
LINE
  5
114D
330
2
100
AcDbEntity
  8
0
100
AcDbLine
 10
621.1196978732132
 20
683.705421570864
 30
0.0
 11
621.1196978732132
 21
682.4054215708629
 31
0.0
  0
LINE
  5
114E
330
2
100
AcDbEntity
  8
0
100
AcDbLine
 10
620.9196978732125
 20
680.205421570864
 30
0.0
 11
621.1196978732132
 21
680.0054215708633
 31
0.0
  0
LINE
  5
114F
330
2
100
AcDbEntity
  8
0
100
AcDbLine
 10
620.9196978732125
 20
680.205421570864
 30
0.0
 11
568.319697873254
 21
680.2054215709022
 31
0.0
  0
LINE
  5
1150
330
2
100
AcDbEntity
  8
0
100
AcDbLine
 10
620.4196978732125
 20
682.0054215708633
 30
0.0
 11
620.4196978732125
 21
680.4054215708629
 31
0.0
  0
LINE
  5
1151
330
2
100
AcDbEntity
  8
0
100
AcDbLine
 10
621.1196978732132
 20
683.705421570864
 30
0.0
 11
620.5423476040232
 21
684.705421570864
 31
0.0
  0
LINE
  5
1152
330
2
100
AcDbEntity
  8
0
100
AcDbLine
 10
668.6196978732132
 20
662.7054215708658
 30
0.0
 11
668.5367164738782
 21
672.2141481063654
 31
0.0
  0
ARC
  5
1153
330
2
100
AcDbEntity
  8
0
100
AcDbCircle
 10
667.5629351541865
 20
669.2054215708676
 30
0.0
 40
1.0
100
AcDbArc
 50
0.4999999999654926
 51
90.0
  0
ARC
  5
1154
330
2
100
AcDbEntity
  8
0
100
AcDbCircle
 10
667.5367545508143
 20
672.2054215708676
 30
0.0
 40
1.0
100
AcDbArc
 50
0.4999999999654926
 51
90.0
  0
LINE
  5
1155
330
2
100
AcDbEntity
  8
0
100
AcDbLine
 10
668.6196978732123
 20
662.7054215708676
 30
0.0
 11
553.6196978732123
 21
662.7054215708585
 31
0.0
  0
LINE
  5
1156
330
2
100
AcDbEntity
  8
0
100
AcDbLine
 10
668.6196978732123
 20
662.7054215708676
 30
0.0
 11
665.1196978732123
 21
662.7054215708658
 31
0.0
  0
LINE
  5
1157
330
2
100
AcDbEntity
  8
0
100
AcDbLine
 10
553.6196978732123
 20
662.7054215708585
 30
0.0
 11
553.720133008128
 21
674.2141481063654
 31
0.0
  0
ARC
  5
1158
330
2
100
AcDbEntity
  8
HIDS
100
AcDbCircle
 10
564.0339114355829
 20
675.2054215708658
 30
0.0
 40
1.0
100
AcDbArc
 50
90.0
 51
135.000000000002
  0
ARC
  5
1159
330
2
100
AcDbEntity
  8
HIDS
100
AcDbCircle
 10
562.2054843108371
 20
676.2054215708658
 30
0.0
 40
1.0
100
AcDbArc
 50
270.0
 51
315.000000000002
  0
ARC
  5
115A
330
2
100
AcDbEntity
  8
0
100
AcDbCircle
 10
625.2054843108399
 20
675.2054215708676
 30
0.0
 40
1.0
100
AcDbArc
 50
44.99999999999798
 51
90.00000000002605
  0
ARC
  5
115B
330
2
100
AcDbEntity
  8
0
100
AcDbCircle
 10
627.0339114355874
 20
676.2054215708658
 30
0.0
 40
1.0
100
AcDbArc
 50
224.999999999998
 51
270.0
  0
ARC
  5
115C
330
2
100
AcDbEntity
  8
0
100
AcDbCircle
 10
620.9196978732125
 20
682.4054215708629
 30
0.0
 40
0.2
100
AcDbArc
 50
270.0
 51
0.0
  0
ARC
  5
115D
330
2
100
AcDbEntity
  8
0
100
AcDbCircle
 10
620.6196978732132
 20
682.0054215708633
 30
0.0
 40
0.2
100
AcDbArc
 50
90.0
 51
180.0
  0
ARC
  5
115E
330
2
100
AcDbEntity
  8
0
100
AcDbCircle
 10
620.6196978732132
 20
680.4054215708629
 30
0.0
 40
0.2
100
AcDbArc
 50
180.0
 51
270.0
  0
ARC
  5
115F
330
2
100
AcDbEntity
  8
0
100
AcDbCircle
 10
568.3196978732121
 20
682.4054215708611
 30
0.0
 40
0.2
100
AcDbArc
 50
180.0
 51
270.0
  0
ARC
  5
1160
330
2
100
AcDbEntity
  8
0
100
AcDbCircle
 10
568.6196978732113
 20
682.0054215708615
 30
0.0
 40
0.2
100
AcDbArc
 50
0.0
 51
90.0
  0
ARC
  5
1161
330
2
100
AcDbEntity
  8
0
100
AcDbCircle
 10
568.6196978732113
 20
680.405421570861
 30
0.0
 40
0.2
100
AcDbArc
 50
270.0
 51
0.0
  0
LINE
  5
1162
330
2
100
AcDbEntity
  8
0
100
AcDbLine
 10
568.1196978732113
 20
683.7054215708621
 30
0.0
 11
621.1196978732132
 21
683.705421570864
 31
0.0
  0
LINE
  5
1163
330
2
100
AcDbEntity
  8
0
100
AcDbLine
 10
621.1196978732132
 20
680.0054215708633
 30
0.0
 11
568.1196978732113
 21
680.0054215708614
 31
0.0
  0
LINE
  5
1164
330
2
100
AcDbEntity
  8
0
100
AcDbLine
 10
558.6196978732131
 20
662.7054215708604
 30
0.0
 11
558.6196978732131
 21
669.2141481063654
 31
0.0
  0
LINE
  5
1165
330
2
100
AcDbEntity
  8
0
100
AcDbLine
 10
561.6196978732132
 20
662.7054215708604
 30
0.0
 11
561.6196978732132
 21
669.2141481063654
 31
0.0
  0
LINE
  5
1166
330
2
100
AcDbEntity
  8
0
100
AcDbLine
 10
576.3276627073446
 20
662.7054215708604
 30
0.0
 11
576.3276627073446
 21
674.2054215708658
 31
0.0
  0
LINE
  5
1167
330
2
100
AcDbEntity
  8
0
100
AcDbLine
 10
635.6196978732123
 20
674.2054215708658
 30
0.0
 11
635.6196978732123
 21
662.705421570864
 31
0.0
  0
LINE
  5
1168
330
2
100
AcDbEntity
  8
0
100
AcDbLine
 10
655.1196978732132
 20
672.2054215708676
 30
0.0
 11
655.1196978732132
 21
670.7054215708676
 31
0.0
  0
ARC
  5
1169
330
2
100
AcDbEntity
  8
0
100
AcDbCircle
 10
654.1196978732132
 20
672.2054215708676
 30
0.0
 40
1.0
100
AcDbArc
 50
0.0
 51
90.0
  0
ARC
  5
116A
330
2
100
AcDbEntity
  8
0
100
AcDbCircle
 10
655.6196978732132
 20
670.7054215708676
 30
0.0
 40
0.5
100
AcDbArc
 50
180.0
 51
270.000000000026
  0
LINE
  5
116B
330
2
100
AcDbEntity
  8
0
100
AcDbLine
 10
567.1546814996973
 20
674.2141481063654
 30
0.0
 11
567.1240232294476
 21
670.7010583031178
 31
0.0
  0
LINE
  5
116C
330
2
100
AcDbEntity
  8
0
100
AcDbLine
 10
566.6240422679147
 20
670.2054215708677
 30
0.0
 11
554.6764605922381
 21
670.2054215708677
 31
0.0
  0
ARC
  5
116D
330
2
100
AcDbEntity
  8
0
100
AcDbCircle
 10
568.1546434227657
 20
674.2054215708677
 30
0.0
 40
1.0
100
AcDbArc
 50
90.0
 51
179.5000000000344
  0
ARC
  5
116E
330
2
100
AcDbEntity
  8
0
100
AcDbCircle
 10
566.6240422679156
 20
670.7054215708676
 30
0.0
 40
0.5
100
AcDbArc
 50
269.9999999999739
 51
359.5000000000345
  0
ARC
  5
116F
330
2
100
AcDbEntity
  8
0
100
AcDbCircle
 10
554.6764605922381
 20
669.2054215708676
 30
0.0
 40
1.0
100
AcDbArc
 50
90.0
 51
179.5000000000344
  0
LINE
  5
1170
330
2
100
AcDbEntity
  8
CENTER
  6
CENS
100
AcDbLine
 10
662.1196978732132
 20
659.7054215708622
 30
0.0
 11
662.1196978732132
 21
680.7054215708676
 31
0.0
  0
LINE
  5
1171
330
2
100
AcDbEntity
  8
0
100
AcDbLine
 10
667.1196978732132
 20
677.305421570868
 30
0.0
 11
666.4268775501859
 21
677.7054215708676
 31
0.0
  0
LINE
  5
1172
330
2
100
AcDbEntity
  8
0
100
AcDbLine
 10
667.1196978732132
 20
671.7054215708676
 30
0.0
 11
657.1196978732132
 21
671.7054215708676
 31
0.0
  0
LINE
  5
1173
330
2
100
AcDbEntity
  8
0
100
AcDbLine
 10
667.1196978732132
 20
677.305421570868
 30
0.0
 11
657.1196978732132
 21
677.305421570868
 31
0.0
  0
LINE
  5
1174
330
2
100
AcDbEntity
  8
0
100
AcDbLine
 10
667.1196978732132
 20
670.2054215708677
 30
0.0
 11
667.1196978732132
 21
677.305421570868
 31
0.0
  0
LINE
  5
1175
330
2
100
AcDbEntity
  8
0
100
AcDbLine
 10
657.1196978732132
 20
670.2054215708677
 30
0.0
 11
657.1196978732132
 21
677.305421570868
 31
0.0
  0
LINE
  5
1176
330
2
100
AcDbEntity
  8
0
100
AcDbLine
 10
657.1196978732132
 20
677.305421570868
 30
0.0
 11
657.8125181962405
 21
677.7054215708676
 31
0.0
  0
LINE
  5
1177
330
2
100
AcDbEntity
  8
0
100
AcDbLine
 10
666.4268775501859
 20
677.7054215708676
 30
0.0
 11
657.8125181962405
 21
677.7054215708676
 31
0.0
  0
LINE
  5
1178
330
2
100
AcDbEntity
  8
0
100
AcDbLine
 10
657.1196978732132
 20
670.2054215708677
 30
0.0
 11
667.1196978732132
 21
670.2054215708677
 31
0.0
  0
LINE
  5
1179
330
2
100
AcDbEntity
  8
CENTER
  6
CENS
100
AcDbLine
 10
560.1196978732041
 20
659.7054215708622
 30
0.0
 11
560.1196978732041
 21
680.7054215708676
 31
0.0
  0
LINE
  5
117A
330
2
100
AcDbEntity
  8
0
100
AcDbLine
 10
565.1196978732041
 20
677.305421570868
 30
0.0
 11
564.4268775501768
 21
677.7054215708676
 31
0.0
  0
LINE
  5
117B
330
2
100
AcDbEntity
  8
0
100
AcDbLine
 10
565.1196978732041
 20
671.7054215708676
 30
0.0
 11
555.1196978732041
 21
671.7054215708676
 31
0.0
  0
LINE
  5
117C
330
2
100
AcDbEntity
  8
0
100
AcDbLine
 10
565.1196978732041
 20
677.305421570868
 30
0.0
 11
555.1196978732041
 21
677.305421570868
 31
0.0
  0
LINE
  5
117D
330
2
100
AcDbEntity
  8
0
100
AcDbLine
 10
565.1196978732041
 20
670.2054215708677
 30
0.0
 11
565.1196978732041
 21
677.305421570868
 31
0.0
  0
LINE
  5
117E
330
2
100
AcDbEntity
  8
0
100
AcDbLine
 10
555.1196978732041
 20
670.2054215708677
 30
0.0
 11
555.1196978732041
 21
677.305421570868
 31
0.0
  0
LINE
  5
117F
330
2
100
AcDbEntity
  8
0
100
AcDbLine
 10
555.1196978732041
 20
677.305421570868
 30
0.0
 11
555.8125181962314
 21
677.7054215708676
 31
0.0
  0
LINE
  5
1180
330
2
100
AcDbEntity
  8
0
100
AcDbLine
 10
564.4268775501768
 20
677.7054215708676
 30
0.0
 11
555.8125181962314
 21
677.7054215708676
 31
0.0
  0
LINE
  5
1181
330
2
100
AcDbEntity
  8
0
100
AcDbLine
 10
555.1196978732041
 20
670.2054215708677
 30
0.0
 11
565.1196978732041
 21
670.2054215708677
 31
0.0
  0
LINE
  5
1182
330
2
100
AcDbEntity
  8
HIDS
100
AcDbLine
 10
657.1196978732132
 20
673.2054215708676
 30
0.0
 11
667.1196978732132
 21
673.2054215708676
 31
0.0
  0
LINE
  5
1183
330
2
100
AcDbEntity
  8
CENTER
  6
CENS
100
AcDbLine
 10
334.9246398995965
 20
421.032491517407
 30
0.0
 11
359.487493575978
 21
421.032491517407
 31
0.0
  0
LINE
  5
1184
330
2
100
AcDbEntity
  8
CENTER
  6
CENS
100
AcDbLine
 10
334.9246398995965
 20
352.0324915174071
 30
0.0
 11
359.487493575978
 21
352.0324915174071
 31
0.0
  0
LINE
  5
1185
330
2
100
AcDbEntity
  8
CENTER
100
AcDbLine
 10
242.2230108889534
 20
352.0324915174071
 30
0.0
 11
224.7230108889534
 21
352.0324915174071
 31
0.0
  0
LINE
  5
1186
330
2
100
AcDbEntity
  8
CENTER
100
AcDbLine
 10
131.473010888953
 20
420.7824915174088
 30
0.0
 11
131.473010888953
 21
403.2824915174089
 31
0.0
  0
CIRCLE
  5
1187
330
2
100
AcDbEntity
  8
HOJO
100
AcDbCircle
 10
233.973010888953
 20
409.5324915174071
 30
0.0
 40
2.0
  0
LINE
  5
1188
330
2
100
AcDbEntity
  8
CENTER
100
AcDbLine
 10
137.7998058081966
 20
414.0324915174089
 30
0.0
 11
148.1462159697107
 21
414.0324915174089
 31
0.0
  0
LINE
  5
1189
330
2
100
AcDbEntity
  8
CENTER
100
AcDbLine
 10
122.723010888953
 20
412.0324915174089
 30
0.0
 11
140.223010888953
 21
412.0324915174089
 31
0.0
  0
LINE
  5
118A
330
2
100
AcDbEntity
  8
CENTER
100
AcDbLine
 10
142.9730108889534
 20
419.2056965981657
 30
0.0
 11
142.9730108889534
 21
408.859286436652
 31
0.0
  0
CIRCLE
  5
118B
330
2
100
AcDbEntity
  8
HOJO
100
AcDbCircle
 10
142.9730108889534
 20
414.0324915174089
 30
0.0
 40
2.0
  0
CIRCLE
  5
118C
330
2
100
AcDbEntity
  8
HOJO
100
AcDbCircle
 10
233.973010888953
 20
363.532491517407
 30
0.0
 40
2.0
  0
CIRCLE
  5
118D
330
2
100
AcDbEntity
  8
HOJO
100
AcDbCircle
 10
142.9730108889534
 20
359.0324915174052
 30
0.0
 40
2.0
  0
LINE
  5
118E
330
2
100
AcDbEntity
  8
CENTER
100
AcDbLine
 10
142.9730108889534
 20
353.0644184237236
 30
0.0
 11
142.9730108889534
 21
364.2056965981621
 31
0.0
  0
LINE
  5
118F
330
2
100
AcDbEntity
  8
CENTER
100
AcDbLine
 10
131.473010888953
 20
352.2824915174052
 30
0.0
 11
131.473010888953
 21
369.7824915174052
 31
0.0
  0
LINE
  5
1190
330
2
100
AcDbEntity
  8
CENTER
100
AcDbLine
 10
122.723010888953
 20
361.0324915174052
 30
0.0
 11
140.223010888953
 21
361.0324915174052
 31
0.0
  0
LINE
  5
1191
330
2
100
AcDbEntity
  8
CENTER
100
AcDbLine
 10
137.7998058081966
 20
359.0324915174052
 30
0.0
 11
148.1462159697107
 21
359.0324915174052
 31
0.0
  0
ARC
  5
1192
330
2
100
AcDbEntity
  8
0
100
AcDbCircle
 10
236.8543148973849
 20
361.0324915174071
 30
0.0
 40
2.0
100
AcDbArc
 50
270.0
 51
3.96469786020805
  0
ARC
  5
1193
330
2
100
AcDbEntity
  8
0
100
AcDbCircle
 10
236.8543148973849
 20
412.032491517407
 30
0.0
 40
2.0
100
AcDbArc
 50
356.0353021397919
 51
90.0
  0
ARC
  5
1194
330
2
100
AcDbEntity
  8
0
100
AcDbCircle
 10
278.7538022009157
 20
409.1285349575966
 30
0.0
 40
40.0
100
AcDbArc
 50
166.6323257973733
 51
186.1769964048917
  0
ARC
  5
1195
330
2
100
AcDbEntity
  8
0
100
AcDbCircle
 10
278.7538022009152
 20
363.9364480772175
 30
0.0
 40
40.0
100
AcDbArc
 50
173.8230035951082
 51
193.3676742026266
  0
ARC
  5
1196
330
2
100
AcDbEntity
  8
0
100
AcDbCircle
 10
234.9730108889534
 20
350.5324915174071
 30
0.0
 40
5.0
100
AcDbArc
 50
270.0
 51
0.0
  0
ARC
  5
1197
330
2
100
AcDbEntity
  8
0
100
AcDbCircle
 10
234.9730108889534
 20
422.5324915174071
 30
0.0
 40
5.0
100
AcDbArc
 50
0.0
 51
90.0
  0
ARC
  5
1198
330
2
100
AcDbEntity
  8
0
100
AcDbCircle
 10
234.9730108889534
 20
419.5324915174071
 30
0.0
 40
5.0
100
AcDbArc
 50
346.6323257973734
 51
0.0
  0
LINE
  5
1199
330
2
100
AcDbEntity
  8
0
100
AcDbLine
 10
239.9730108889539
 20
419.5324915174071
 30
0.0
 11
239.9730108889539
 21
422.5324915174071
 31
0.0
  0
ARC
  5
119A
330
2
100
AcDbEntity
  8
0
100
AcDbCircle
 10
69.97301088895347
 20
386.532491517407
 30
0.0
 40
170.0
100
AcDbArc
 50
353.8230035951083
 51
6.176996404891704
  0
ARC
  5
119B
330
2
100
AcDbEntity
  8
0
100
AcDbCircle
 10
234.9730108889534
 20
353.532491517407
 30
0.0
 40
5.0
100
AcDbArc
 50
0.0
 51
13.36767420262659
  0
LINE
  5
119C
330
2
100
AcDbEntity
  8
0
100
AcDbLine
 10
239.9730108889539
 20
350.5324915174071
 30
0.0
 11
239.9730108889539
 21
353.532491517407
 31
0.0
  0
ARC
  5
119D
330
2
100
AcDbEntity
  8
0
100
AcDbCircle
 10
179.9730108889539
 20
405.5324915174034
 30
0.0
 40
12.0
100
AcDbArc
 50
90.0
 51
180.0
  0
ARC
  5
119E
330
2
100
AcDbEntity
  8
0
100
AcDbCircle
 10
217.9730108889498
 20
405.5324915174071
 30
0.0
 40
12.0
100
AcDbArc
 50
0.0
 51
90.0
  0
ARC
  5
119F
330
2
100
AcDbEntity
  8
0
100
AcDbCircle
 10
179.9730108889539
 20
405.5324915174034
 30
0.0
 40
13.0
100
AcDbArc
 50
90.0
 51
180.0
  0
ARC
  5
11A0
330
2
100
AcDbEntity
  8
0
100
AcDbCircle
 10
217.9730108889498
 20
405.5324915174071
 30
0.0
 40
13.0
100
AcDbArc
 50
0.0
 51
90.0
  0
CIRCLE
  5
11A1
330
2
100
AcDbEntity
  8
0
100
AcDbCircle
 10
198.9730108889539
 20
386.532491517407
 30
0.0
 40
28.99999999999986
  0
CIRCLE
  5
11A2
330
2
100
AcDbEntity
  8
0
100
AcDbCircle
 10
198.9730108889539
 20
386.532491517407
 30
0.0
 40
28.49999999999985
  0
CIRCLE
  5
11A3
330
2
100
AcDbEntity
  8
0
100
AcDbCircle
 10
198.9730108889539
 20
386.532491517407
 30
0.0
 40
25.92259999999985
  0
CIRCLE
  5
11A4
330
2
100
AcDbEntity
  8
0
100
AcDbCircle
 10
198.9730108889539
 20
386.532491517407
 30
0.0
 40
23.5774
  0
CIRCLE
  5
11A5
330
2
100
AcDbEntity
  8
0
100
AcDbCircle
 10
198.9730108889539
 20
386.532491517407
 30
0.0
 40
26.49999999999986
  0
ARC
  5
11A6
330
2
100
AcDbEntity
  8
0
100
AcDbCircle
 10
131.473010888953
 20
412.0324915174089
 30
0.0
 40
7.0
100
AcDbArc
 50
270.0
 51
0.0
  0
CIRCLE
  5
11A7
330
2
100
AcDbEntity
  8
0
100
AcDbCircle
 10
198.9730108889539
 20
386.532491517407
 30
0.0
 40
23.0
  0
LINE
  5
11A8
330
2
100
AcDbEntity
  8
0
100
AcDbLine
 10
157.9730108889539
 20
350.5324915174016
 30
0.0
 11
157.9730108889539
 21
422.5324915174071
 31
0.0
  0
LINE
  5
11A9
330
2
100
AcDbEntity
  8
0
100
AcDbLine
 10
124.9730108889539
 20
412.5324915174089
 30
0.0
 11
124.9730108889539
 21
360.5324915174034
 31
0.0
  0
ARC
  5
11AA
330
2
100
AcDbEntity
  8
0
100
AcDbCircle
 10
176.3769674487643
 20
466.3132828293684
 30
0.0
 40
40.0
100
AcDbArc
 50
256.6323257973709
 51
276.1769964048646
  0
LINE
  5
11AB
330
2
100
AcDbEntity
  8
0
100
AcDbLine
 10
217.9730108889548
 20
417.5324915174035
 30
0.0
 11
179.9730108889548
 21
417.5324915174071
 31
0.0
  0
LINE
  5
11AC
330
2
100
AcDbEntity
  8
0
100
AcDbLine
 10
217.9730108889548
 20
418.5324915174034
 30
0.0
 11
179.9730108889548
 21
418.5324915174071
 31
0.0
  0
ARC
  5
11AD
330
2
100
AcDbEntity
  8
0
100
AcDbCircle
 10
198.9730108889539
 20
257.532491517407
 30
0.0
 40
170.0
100
AcDbArc
 50
83.82300359513532
 51
96.17699640486467
  0
ARC
  5
11AE
330
2
100
AcDbEntity
  8
0
100
AcDbCircle
 10
221.5690543291434
 20
466.3132828293684
 30
0.0
 40
40.0
100
AcDbArc
 50
263.8230035951353
 51
283.367674202629
  0
ARC
  5
11AF
330
2
100
AcDbEntity
  8
0
100
AcDbCircle
 10
233.4730108889534
 20
421.032491517407
 30
0.0
 40
7.0
100
AcDbArc
 50
180.0
 51
270.0
  0
ARC
  5
11B0
330
2
100
AcDbEntity
  8
0
100
AcDbCircle
 10
231.9730108889534
 20
422.5324915174071
 30
0.0
 40
5.0
100
AcDbArc
 50
90.0
 51
103.367674202629
  0
LINE
  5
11B1
330
2
100
AcDbEntity
  8
0
100
AcDbLine
 10
234.9730108889534
 20
427.5324915174071
 30
0.0
 11
231.9730108889534
 21
427.5324915174071
 31
0.0
  0
ARC
  5
11B2
330
2
100
AcDbEntity
  8
0
100
AcDbCircle
 10
224.4730108889534
 20
424.4137955258385
 30
0.0
 40
2.0
100
AcDbArc
 50
0.0
 51
93.96469786020883
  0
LINE
  5
11B3
330
2
100
AcDbEntity
  8
0
100
AcDbLine
 10
226.4730108889534
 20
421.032491517407
 30
0.0
 11
226.4730108889534
 21
424.4137955258385
 31
0.0
  0
CIRCLE
  5
11B4
330
2
100
AcDbEntity
  8
0
100
AcDbCircle
 10
233.973010888953
 20
409.5324915174071
 30
0.0
 40
1.6
  0
CIRCLE
  5
11B5
330
2
100
AcDbEntity
  8
0
100
AcDbCircle
 10
233.973010888953
 20
409.5324915174071
 30
0.0
 40
2.5
  0
CIRCLE
  5
11B6
330
2
100
AcDbEntity
  8
0
100
AcDbCircle
 10
233.973010888953
 20
409.5324915174071
 30
0.0
 40
3.0
  0
LINE
  5
11B7
330
2
100
AcDbEntity
  8
0
100
AcDbLine
 10
233.4730108889534
 20
414.0324915174071
 30
0.0
 11
236.8543148973849
 21
414.0324915174071
 31
0.0
  0
LINE
  5
11B8
330
2
100
AcDbEntity
  8
0
100
AcDbLine
 10
130.973010888953
 20
418.5324915174088
 30
0.0
 11
153.9730108889539
 21
418.5324915174125
 31
0.0
  0
CIRCLE
  5
11B9
330
2
100
AcDbEntity
  8
0
100
AcDbCircle
 10
142.9730108889534
 20
414.0324915174089
 30
0.0
 40
3.0
  0
LINE
  5
11BA
330
2
100
AcDbEntity
  8
0
100
AcDbLine
 10
165.9730108889539
 20
427.5324915174071
 30
0.0
 11
162.9730108889539
 21
427.5324915174071
 31
0.0
  0
ARC
  5
11BB
330
2
100
AcDbEntity
  8
0
100
AcDbCircle
 10
165.9730108889539
 20
422.5324915174071
 30
0.0
 40
5.0
100
AcDbArc
 50
76.63232579737094
 51
90.0
  0
ARC
  5
11BC
330
2
100
AcDbEntity
  8
0
100
AcDbCircle
 10
162.9730108889539
 20
422.5324915174071
 30
0.0
 40
5.0
100
AcDbArc
 50
90.0
 51
180.0
  0
CIRCLE
  5
11BD
330
2
100
AcDbEntity
  8
0
100
AcDbCircle
 10
142.9730108889534
 20
414.0324915174089
 30
0.0
 40
1.6
  0
CIRCLE
  5
11BE
330
2
100
AcDbEntity
  8
0
100
AcDbCircle
 10
142.9730108889534
 20
414.0324915174089
 30
0.0
 40
2.5
  0
ARC
  5
11BF
330
2
100
AcDbEntity
  8
0
100
AcDbCircle
 10
130.9730108889539
 20
412.5324915174089
 30
0.0
 40
6.0
100
AcDbArc
 50
90.0
 51
180.0
  0
LINE
  5
11C0
330
2
100
AcDbEntity
  8
0
100
AcDbLine
 10
138.473010888953
 20
412.0324915174089
 30
0.0
 11
138.473010888953
 21
416.5324915174107
 31
0.0
  0
ARC
  5
11C1
330
2
100
AcDbEntity
  8
0
100
AcDbCircle
 10
179.9730108889575
 20
367.5324915174071
 30
0.0
 40
12.0
100
AcDbArc
 50
180.0
 51
270.0
  0
ARC
  5
11C2
330
2
100
AcDbEntity
  8
0
100
AcDbCircle
 10
179.9730108889575
 20
367.5324915174071
 30
0.0
 40
13.0
100
AcDbArc
 50
180.0
 51
270.0
  0
ARC
  5
11C3
330
2
100
AcDbEntity
  8
0
100
AcDbCircle
 10
176.720480163799
 20
306.7148081753923
 30
0.0
 40
40.0
100
AcDbArc
 50
83.91726555027865
 51
103.1629662673907
  0
ARC
  5
11C4
330
2
100
AcDbEntity
  8
0
100
AcDbCircle
 10
217.9730108889539
 20
367.5324915174107
 30
0.0
 40
12.0
100
AcDbArc
 50
270.0
 51
0.0
  0
ARC
  5
11C5
330
2
100
AcDbEntity
  8
0
100
AcDbCircle
 10
217.9730108889539
 20
367.5324915174107
 30
0.0
 40
13.0
100
AcDbArc
 50
270.0
 51
0.0
  0
ARC
  5
11C6
330
2
100
AcDbEntity
  8
0
100
AcDbCircle
 10
233.4730108889534
 20
352.0324915174071
 30
0.0
 40
7.0
100
AcDbArc
 50
90.0
 51
180.0
  0
LINE
  5
11C7
330
2
100
AcDbEntity
  8
0
100
AcDbLine
 10
229.9730108889539
 20
367.5324915174107
 30
0.0
 11
229.9730108889539
 21
405.5324915174071
 31
0.0
  0
LINE
  5
11C8
330
2
100
AcDbEntity
  8
0
100
AcDbLine
 10
230.9730108889539
 20
367.5324915174107
 30
0.0
 11
230.9730108889539
 21
405.5324915174071
 31
0.0
  0
CIRCLE
  5
11C9
330
2
100
AcDbEntity
  8
0
100
AcDbCircle
 10
233.973010888953
 20
363.532491517407
 30
0.0
 40
3.0
  0
CIRCLE
  5
11CA
330
2
100
AcDbEntity
  8
0
100
AcDbCircle
 10
233.973010888953
 20
363.532491517407
 30
0.0
 40
1.6
  0
CIRCLE
  5
11CB
330
2
100
AcDbEntity
  8
0
100
AcDbCircle
 10
233.973010888953
 20
363.532491517407
 30
0.0
 40
2.5
  0
LINE
  5
11CC
330
2
100
AcDbEntity
  8
0
100
AcDbLine
 10
217.9730108889548
 20
355.5324915174107
 30
0.0
 11
179.9730108889589
 21
355.532491517407
 31
0.0
  0
LINE
  5
11CD
330
2
100
AcDbEntity
  8
0
100
AcDbLine
 10
217.9730108889548
 20
354.5324915174107
 30
0.0
 11
179.9730108889589
 21
354.5324915174071
 31
0.0
  0
ARC
  5
11CE
330
2
100
AcDbEntity
  8
0
100
AcDbCircle
 10
198.9730108889539
 20
515.5324915174071
 30
0.0
 40
170.0
100
AcDbArc
 50
263.9172655502786
 51
276.1769964048646
  0
ARC
  5
11CF
330
2
100
AcDbEntity
  8
0
100
AcDbCircle
 10
221.569054329143
 20
306.7517002054439
 30
0.0
 40
40.0
100
AcDbArc
 50
76.63232579737094
 51
96.17699640486467
  0
ARC
  5
11D0
330
2
100
AcDbEntity
  8
0
100
AcDbCircle
 10
224.4730108889534
 20
348.6511875089756
 30
0.0
 40
2.0
100
AcDbArc
 50
266.0353021397911
 51
0.0
  0
LINE
  5
11D1
330
2
100
AcDbEntity
  8
0
100
AcDbLine
 10
233.4730108889534
 20
359.0324915174071
 30
0.0
 11
236.8543148973849
 21
359.0324915174071
 31
0.0
  0
LINE
  5
11D2
330
2
100
AcDbEntity
  8
0
100
AcDbLine
 10
226.4730108889534
 20
352.0324915174071
 30
0.0
 11
226.4730108889534
 21
348.6511875089756
 31
0.0
  0
ARC
  5
11D3
330
2
100
AcDbEntity
  8
0
100
AcDbCircle
 10
231.9730108889534
 20
350.5324915174071
 30
0.0
 40
5.0
100
AcDbArc
 50
256.6323257973709
 51
270.0
  0
LINE
  5
11D4
330
2
100
AcDbEntity
  8
0
100
AcDbLine
 10
234.9730108889534
 20
345.532491517407
 30
0.0
 11
231.9730108889534
 21
345.532491517407
 31
0.0
  0
CIRCLE
  5
11D5
330
2
100
AcDbEntity
  8
0
100
AcDbCircle
 10
142.9730108889534
 20
359.0324915174052
 30
0.0
 40
2.5
  0
CIRCLE
  5
11D6
330
2
100
AcDbEntity
  8
0
100
AcDbCircle
 10
142.9730108889534
 20
359.0324915174052
 30
0.0
 40
1.6
  0
CIRCLE
  5
11D7
330
2
100
AcDbEntity
  8
0
100
AcDbCircle
 10
142.9730108889534
 20
359.0324915174052
 30
0.0
 40
3.0
  0
LINE
  5
11D8
330
2
100
AcDbEntity
  8
0
100
AcDbLine
 10
138.473010888953
 20
361.0324915174052
 30
0.0
 11
138.473010888953
 21
356.5324915174034
 31
0.0
  0
ARC
  5
11D9
330
2
100
AcDbEntity
  8
0
100
AcDbCircle
 10
130.9730108889539
 20
360.5324915174034
 30
0.0
 40
6.0
100
AcDbArc
 50
180.0
 51
270.0
  0
LINE
  5
11DA
330
2
100
AcDbEntity
  8
0
100
AcDbLine
 10
167.9730108889539
 20
367.5324915174107
 30
0.0
 11
167.9730108889539
 21
405.5324915174034
 31
0.0
  0
LINE
  5
11DB
330
2
100
AcDbEntity
  8
0
100
AcDbLine
 10
166.9730108889539
 20
367.5324915174107
 30
0.0
 11
166.9730108889539
 21
405.5324915174034
 31
0.0
  0
LINE
  5
11DC
330
2
100
AcDbEntity
  8
0
100
AcDbLine
 10
131.473010888953
 20
405.0324915174089
 30
0.0
 11
126.9730108889539
 21
405.0324915174089
 31
0.0
  0
ARC
  5
11DD
330
2
100
AcDbEntity
  8
0
100
AcDbCircle
 10
131.473010888953
 20
361.0324915174052
 30
0.0
 40
7.0
100
AcDbArc
 50
0.0
 51
90.0
  0
LINE
  5
11DE
330
2
100
AcDbEntity
  8
0
100
AcDbLine
 10
131.473010888953
 20
368.0324915174052
 30
0.0
 11
126.9730108889539
 21
368.0324915174052
 31
0.0
  0
LINE
  5
11DF
330
2
100
AcDbEntity
  8
0
100
AcDbLine
 10
130.973010888953
 20
354.5324915174034
 30
0.0
 11
153.9730108889539
 21
354.5324915174016
 31
0.0
  0
ARC
  5
11E0
330
2
100
AcDbEntity
  8
0
100
AcDbCircle
 10
162.9730108889539
 20
350.5324915174071
 30
0.0
 40
5.0
100
AcDbArc
 50
180.0
 51
270.0
  0
LINE
  5
11E1
330
2
100
AcDbEntity
  8
0
100
AcDbLine
 10
166.4730108889539
 20
345.532491517407
 30
0.0
 11
162.9730108889539
 21
345.532491517407
 31
0.0
  0
ARC
  5
11E2
330
2
100
AcDbEntity
  8
0
100
AcDbCircle
 10
166.4730108889539
 20
350.5324915174071
 30
0.0
 40
5.0
100
AcDbArc
 50
270.0
 51
283.1629662673907
  0
ARC
  5
11E3
330
2
100
AcDbEntity
  8
0
100
AcDbCircle
 10
153.9730108889539
 20
422.5324915174125
 30
0.0
 40
4.0
100
AcDbArc
 50
270.0
 51
0.0
  0
ARC
  5
11E4
330
2
100
AcDbEntity
  8
0
100
AcDbCircle
 10
153.9730108889539
 20
350.5324915174016
 30
0.0
 40
4.0
100
AcDbArc
 50
0.0
 51
90.0
  0
LINE
  5
11E5
330
2
100
AcDbEntity
  8
0
100
AcDbLine
 10
227.1653990443742
 20
414.7248796728319
 30
0.0
 11
226.458292263188
 21
414.0177728916452
 31
0.0
  0
LINE
  5
11E6
330
2
100
AcDbEntity
  8
0
100
AcDbLine
 10
227.1653990443796
 20
358.3401033619858
 30
0.0
 11
226.458292263193
 21
359.0472101431725
 31
0.0
  0
LINE
  5
11E7
330
2
100
AcDbEntity
  8
0
100
AcDbLine
 10
171.4877295147193
 20
359.0472101431671
 30
0.0
 11
170.7806227335331
 21
358.3401033619804
 31
0.0
  0
LINE
  5
11E8
330
2
100
AcDbEntity
  8
0
100
AcDbLine
 10
171.4877295147148
 20
414.0177728916416
 30
0.0
 11
170.7806227335281
 21
414.7248796728282
 31
0.0
  0
LINE
  5
11E9
330
2
100
AcDbEntity
  8
CENTER
100
AcDbLine
 10
233.4730108889616
 20
343.2824915174125
 30
0.0
 11
233.4730108889584
 21
360.7824915174125
 31
0.0
  0
ARC
  5
11EA
330
2
100
AcDbEntity
  8
0
100
AcDbCircle
 10
140.473010888953
 20
416.5324915174107
 30
0.0
 40
2.0
100
AcDbArc
 50
90.0
 51
180.0
  0
ARC
  5
11EB
330
2
100
AcDbEntity
  8
0
100
AcDbCircle
 10
126.9730108889539
 20
403.0324915174089
 30
0.0
 40
2.0
100
AcDbArc
 50
90.0
 51
180.0
  0
ARC
  5
11EC
330
2
100
AcDbEntity
  8
0
100
AcDbCircle
 10
126.9730108889539
 20
370.0324915174052
 30
0.0
 40
2.0
100
AcDbArc
 50
180.0
 51
270.0
  0
ARC
  5
11ED
330
2
100
AcDbEntity
  8
0
100
AcDbCircle
 10
140.473010888953
 20
356.5324915174034
 30
0.0
 40
2.0
100
AcDbArc
 50
180.0
 51
270.0
  0
LINE
  5
11EE
330
2
100
AcDbEntity
  8
CENTER
100
AcDbLine
 10
242.2230108889534
 20
421.032491517407
 30
0.0
 11
224.7230108889534
 21
421.032491517407
 31
0.0
  0
LINE
  5
11EF
330
2
100
AcDbEntity
  8
CENTER
100
AcDbLine
 10
233.4730108889616
 20
429.7824915173998
 30
0.0
 11
233.4730108889584
 21
412.2824915173998
 31
0.0
  0
CIRCLE
  5
11F0
330
2
100
AcDbEntity
  8
0
100
AcDbCircle
 10
131.473010888953
 20
412.0324915174089
 30
0.0
 40
5.000000000000113
  0
CIRCLE
  5
11F1
330
2
100
AcDbEntity
  8
0
100
AcDbCircle
 10
131.473010888953
 20
412.0324915174089
 30
0.0
 40
4.307179676972509
  0
LINE
  5
11F2
330
2
100
AcDbEntity
  8
0
100
AcDbLine
 10
133.973010888953
 20
413.475867190383
 30
0.0
 11
133.973010888953
 21
410.5891158444348
 31
0.0
  0
LINE
  5
11F3
330
2
100
AcDbEntity
  8
0
100
AcDbLine
 10
131.473010888953
 20
409.1457401714607
 30
0.0
 11
133.973010888953
 21
410.5891158444348
 31
0.0
  0
LINE
  5
11F4
330
2
100
AcDbEntity
  8
0
100
AcDbLine
 10
133.973010888953
 20
413.475867190383
 30
0.0
 11
131.473010888953
 21
414.919242863357
 31
0.0
  0
LINE
  5
11F5
330
2
100
AcDbEntity
  8
0
100
AcDbLine
 10
128.973010888953
 20
413.475867190383
 30
0.0
 11
128.973010888953
 21
410.5891158444348
 31
0.0
  0
LINE
  5
11F6
330
2
100
AcDbEntity
  8
0
100
AcDbLine
 10
131.473010888953
 20
409.1457401714607
 30
0.0
 11
128.973010888953
 21
410.5891158444348
 31
0.0
  0
LINE
  5
11F7
330
2
100
AcDbEntity
  8
0
100
AcDbLine
 10
128.973010888953
 20
413.475867190383
 30
0.0
 11
131.473010888953
 21
414.919242863357
 31
0.0
  0
CIRCLE
  5
11F8
330
2
100
AcDbEntity
  8
0
100
AcDbCircle
 10
131.473010888953
 20
361.0324915174052
 30
0.0
 40
5.000000000000113
  0
CIRCLE
  5
11F9
330
2
100
AcDbEntity
  8
0
100
AcDbCircle
 10
131.473010888953
 20
361.0324915174052
 30
0.0
 40
4.307179676972509
  0
LINE
  5
11FA
330
2
100
AcDbEntity
  8
0
100
AcDbLine
 10
133.973010888953
 20
362.4758671903793
 30
0.0
 11
133.973010888953
 21
359.5891158444312
 31
0.0
  0
LINE
  5
11FB
330
2
100
AcDbEntity
  8
0
100
AcDbLine
 10
131.473010888953
 20
358.1457401714571
 30
0.0
 11
133.973010888953
 21
359.5891158444312
 31
0.0
  0
LINE
  5
11FC
330
2
100
AcDbEntity
  8
0
100
AcDbLine
 10
133.973010888953
 20
362.4758671903775
 30
0.0
 11
131.473010888953
 21
363.9192428633534
 31
0.0
  0
LINE
  5
11FD
330
2
100
AcDbEntity
  8
0
100
AcDbLine
 10
128.973010888953
 20
362.4758671903775
 30
0.0
 11
128.973010888953
 21
359.5891158444312
 31
0.0
  0
LINE
  5
11FE
330
2
100
AcDbEntity
  8
0
100
AcDbLine
 10
131.473010888953
 20
358.1457401714571
 30
0.0
 11
128.973010888953
 21
359.5891158444312
 31
0.0
  0
LINE
  5
11FF
330
2
100
AcDbEntity
  8
0
100
AcDbLine
 10
128.973010888953
 20
362.4758671903775
 30
0.0
 11
131.473010888953
 21
363.9192428633516
 31
0.0
  0
CIRCLE
  5
1200
330
2
100
AcDbEntity
  8
0
100
AcDbCircle
 10
233.4730108889603
 20
421.032491517407
 30
0.0
 40
5.000000000000113
  0
CIRCLE
  5
1201
330
2
100
AcDbEntity
  8
0
100
AcDbCircle
 10
233.4730108889603
 20
421.032491517407
 30
0.0
 40
4.307179676972509
  0
LINE
  5
1202
330
2
100
AcDbEntity
  8
0
100
AcDbLine
 10
235.9730108889602
 20
422.4758671903812
 30
0.0
 11
235.9730108889602
 21
419.589115844433
 31
0.0
  0
LINE
  5
1203
330
2
100
AcDbEntity
  8
0
100
AcDbLine
 10
233.4730108889598
 20
418.1457401714589
 30
0.0
 11
235.9730108889602
 21
419.589115844433
 31
0.0
  0
LINE
  5
1204
330
2
100
AcDbEntity
  8
0
100
AcDbLine
 10
235.9730108889602
 20
422.4758671903812
 30
0.0
 11
233.4730108889603
 21
423.9192428633552
 31
0.0
  0
LINE
  5
1205
330
2
100
AcDbEntity
  8
0
100
AcDbLine
 10
230.9730108889602
 20
422.4758671903812
 30
0.0
 11
230.9730108889602
 21
419.589115844433
 31
0.0
  0
LINE
  5
1206
330
2
100
AcDbEntity
  8
0
100
AcDbLine
 10
233.4730108889598
 20
418.1457401714589
 30
0.0
 11
230.9730108889602
 21
419.589115844433
 31
0.0
  0
LINE
  5
1207
330
2
100
AcDbEntity
  8
0
100
AcDbLine
 10
230.9730108889602
 20
422.4758671903812
 30
0.0
 11
233.4730108889603
 21
423.9192428633552
 31
0.0
  0
CIRCLE
  5
1208
330
2
100
AcDbEntity
  8
0
100
AcDbCircle
 10
233.4730108889603
 20
352.0324915174071
 30
0.0
 40
5.000000000000113
  0
CIRCLE
  5
1209
330
2
100
AcDbEntity
  8
0
100
AcDbCircle
 10
233.4730108889603
 20
352.0324915174071
 30
0.0
 40
4.307179676972509
  0
LINE
  5
120A
330
2
100
AcDbEntity
  8
0
100
AcDbLine
 10
235.9730108889602
 20
353.4758671903811
 30
0.0
 11
235.9730108889602
 21
350.589115844433
 31
0.0
  0
LINE
  5
120B
330
2
100
AcDbEntity
  8
0
100
AcDbLine
 10
233.4730108889598
 20
349.1457401714589
 30
0.0
 11
235.9730108889602
 21
350.589115844433
 31
0.0
  0
LINE
  5
120C
330
2
100
AcDbEntity
  8
0
100
AcDbLine
 10
235.9730108889602
 20
353.4758671903811
 30
0.0
 11
233.4730108889603
 21
354.9192428633552
 31
0.0
  0
LINE
  5
120D
330
2
100
AcDbEntity
  8
0
100
AcDbLine
 10
230.9730108889602
 20
353.4758671903811
 30
0.0
 11
230.9730108889602
 21
350.589115844433
 31
0.0
  0
LINE
  5
120E
330
2
100
AcDbEntity
  8
0
100
AcDbLine
 10
233.4730108889598
 20
349.1457401714589
 30
0.0
 11
230.9730108889602
 21
350.589115844433
 31
0.0
  0
LINE
  5
120F
330
2
100
AcDbEntity
  8
0
100
AcDbLine
 10
230.9730108889602
 20
353.4758671903811
 30
0.0
 11
233.4730108889603
 21
354.9192428633552
 31
0.0
  0
LINE
  5
1210
330
2
100
AcDbEntity
  8
CENTER
100
AcDbLine
 10
422.4935183407196
 20
101.5827054078191
 30
0.0
 11
422.4935183407196
 21
203.1492709085324
 31
0.0
  0
LINE
  5
1211
330
2
100
AcDbEntity
  8
0
100
AcDbLine
 10
460.4935183407197
 20
117.3645337130511
 30
0.0
 11
460.4935183407197
 21
139.5559926543465
 31
0.0
  0
LINE
  5
1212
330
2
100
AcDbEntity
  8
0
100
AcDbLine
 10
460.4935183407197
 20
165.1730747717539
 30
0.0
 11
460.4935183407197
 21
187.3645337130511
 31
0.0
  0
LINE
  5
1213
330
2
100
AcDbEntity
  8
0
100
AcDbLine
 10
455.4935183407196
 20
111.870692044915
 30
0.0
 11
455.4935183407196
 21
139.262319239666
 31
0.0
  0
LINE
  5
1214
330
2
100
AcDbEntity
  8
0
100
AcDbLine
 10
455.4935183407196
 20
165.4667481864345
 30
0.0
 11
455.4935183407196
 21
192.8612842714375
 31
0.0
  0
LINE
  5
1215
330
2
100
AcDbEntity
  8
0
100
AcDbLine
 10
455.4935183407196
 20
187.3645337130511
 30
0.0
 11
460.4935183407197
 21
187.3645337130511
 31
0.0
  0
LINE
  5
1216
330
2
100
AcDbEntity
  8
CENTER
100
AcDbLine
 10
363.4935183407197
 20
152.3645337130511
 30
0.0
 11
496.4935183407196
 21
152.3645337130493
 31
0.0
  0
LINE
  5
1217
330
2
100
AcDbEntity
  8
0
100
AcDbLine
 10
455.4935183407196
 20
117.3645337130511
 30
0.0
 11
460.4935183407197
 21
117.3645337130511
 31
0.0
  0
LINE
  5
1218
330
2
100
AcDbEntity
  8
0
100
AcDbLine
 10
397.4935183407196
 20
111.3645337130493
 30
0.0
 11
455.4935183407196
 21
111.870692044915
 31
0.0
  0
LINE
  5
1219
330
2
100
AcDbEntity
  8
0
100
AcDbLine
 10
397.4935183407196
 20
193.3674426033013
 30
0.0
 11
455.4935183407196
 21
192.8612842714375
 31
0.0
  0
LINE
  5
121A
330
2
100
AcDbEntity
  8
0
100
AcDbLine
 10
397.4935183407196
 20
183.4613079065985
 30
0.0
 11
397.4935183407196
 21
193.3674426033013
 31
0.0
  0
ARC
  5
121B
330
2
100
AcDbEntity
  8
0
100
AcDbCircle
 10
462.4935183407196
 20
182.7498812660579
 30
0.0
 40
2.0
100
AcDbArc
 50
180.0
 51
267.9999999999963
  0
ARC
  5
121C
330
2
100
AcDbEntity
  8
0
100
AcDbCircle
 10
471.4935183407196
 20
178.4331561634354
 30
0.0
 40
2.0
100
AcDbArc
 50
0.0
 51
87.99999999999636
  0
ARC
  5
121D
330
2
100
AcDbEntity
  8
0
100
AcDbCircle
 10
462.4935183407196
 20
121.9791861600443
 30
0.0
 40
2.0
100
AcDbArc
 50
92.00000000000365
 51
180.0
  0
ARC
  5
121E
330
2
100
AcDbEntity
  8
0
100
AcDbCircle
 10
471.4935183407196
 20
126.2959112626669
 30
0.0
 40
2.0
100
AcDbArc
 50
272.0000000000036
 51
0.0
  0
LINE
  5
121F
330
2
100
AcDbEntity
  8
0
100
AcDbLine
 10
471.5633173341248
 20
180.4319378174751
 30
0.0
 11
462.4237193473145
 21
180.75109961202
 31
0.0
  0
LINE
  5
1220
330
2
100
AcDbEntity
  8
0
100
AcDbLine
 10
471.5633173341248
 20
124.297129608629
 30
0.0
 11
462.4237193473145
 21
123.9779678140822
 31
0.0
  0
LINE
  5
1221
330
2
100
AcDbEntity
  8
0
100
AcDbLine
 10
473.4935183407214
 20
126.2959112626669
 30
0.0
 11
473.4935183407197
 21
137.8644877130501
 31
0.0
  0
LINE
  5
1222
330
2
100
AcDbEntity
  8
0
100
AcDbLine
 10
473.4935183407197
 20
166.8644877130501
 30
0.0
 11
473.4935183407197
 21
178.4331561634354
 31
0.0
  0
LINE
  5
1223
330
2
100
AcDbEntity
  8
0
100
AcDbLine
 10
397.4935183407196
 20
116.3645337130493
 30
0.0
 11
454.4935183407196
 21
116.3645337130493
 31
0.0
  0
LINE
  5
1224
330
2
100
AcDbEntity
  8
0
100
AcDbLine
 10
397.4935183407196
 20
119.3645337130493
 30
0.0
 11
454.4935183407196
 21
119.3645337130493
 31
0.0
  0
LINE
  5
1225
330
2
100
AcDbEntity
  8
0
100
AcDbLine
 10
397.4935183407196
 20
134.0724985471807
 30
0.0
 11
454.4935183407196
 21
134.0724985471807
 31
0.0
  0
LINE
  5
1226
330
2
100
AcDbEntity
  8
0
100
AcDbLine
 10
397.4935183407196
 20
188.3645337130511
 30
0.0
 11
454.4935183407196
 21
188.3645337130511
 31
0.0
  0
LINE
  5
1227
330
2
100
AcDbEntity
  8
0
100
AcDbLine
 10
397.4935183407196
 20
185.3645337130511
 30
0.0
 11
454.4935183407196
 21
185.3645337130511
 31
0.0
  0
LINE
  5
1228
330
2
100
AcDbEntity
  8
0
100
AcDbLine
 10
397.4935183407196
 20
170.6565688789197
 30
0.0
 11
454.4935183407196
 21
170.6565688789197
 31
0.0
  0
LINE
  5
1229
330
2
100
AcDbEntity
  8
0
100
AcDbLine
 10
380.1935183407204
 20
125.8645337130493
 30
0.0
 11
383.4935183407196
 21
125.8645337130511
 31
0.0
  0
LINE
  5
122A
330
2
100
AcDbEntity
  8
0
100
AcDbLine
 10
376.493518340716
 20
129.3645337130511
 30
0.0
 11
384.493518340716
 21
129.3645337130511
 31
0.0
  0
LINE
  5
122B
330
2
100
AcDbEntity
  8
HIDS
100
AcDbLine
 10
384.7006251219008
 20
120.6574269318626
 30
0.0
 11
384.2864115595293
 21
121.0716404942342
 31
0.0
  0
LINE
  5
122C
330
2
100
AcDbEntity
  8
0
100
AcDbLine
 10
383.4935183407178
 20
123.8645337130529
 30
0.0
 11
383.9935183407214
 21
123.3645337130511
 31
0.0
  0
LINE
  5
122D
330
2
100
AcDbEntity
  8
0
100
AcDbLine
 10
376.4935183407196
 20
125.8645337130493
 30
0.0
 11
375.4935183407196
 21
126.4418839822393
 31
0.0
  0
LINE
  5
122E
330
2
100
AcDbEntity
  8
0
100
AcDbLine
 10
378.1935183407203
 20
126.56453371305
 30
0.0
 11
379.7935183407207
 21
126.56453371305
 31
0.0
  0
LINE
  5
122F
330
2
100
AcDbEntity
  8
0
100
AcDbLine
 10
379.9935183407196
 20
126.06453371305
 30
0.0
 11
380.1935183407204
 21
125.8645337130493
 31
0.0
  0
LINE
  5
1230
330
2
100
AcDbEntity
  8
0
100
AcDbLine
 10
377.9935183407197
 20
126.06453371305
 30
0.0
 11
377.9935183407197
 21
128.1780033580126
 31
0.0
  0
LINE
  5
1231
330
2
100
AcDbEntity
  8
0
100
AcDbLine
 10
377.9935183407197
 20
176.5510640680896
 30
0.0
 11
377.9935183407197
 21
178.6645337130504
 31
0.0
  0
LINE
  5
1232
330
2
100
AcDbEntity
  8
0
100
AcDbLine
 10
376.4935183407196
 20
125.8645337130493
 30
0.0
 11
377.7935183407207
 21
125.8645337130493
 31
0.0
  0
LINE
  5
1233
330
2
100
AcDbEntity
  8
0
100
AcDbLine
 10
376.493518340716
 20
129.3645337130511
 30
0.0
 11
375.493518340716
 21
128.7871834438611
 31
0.0
  0
LINE
  5
1234
330
2
100
AcDbEntity
  8
0
100
AcDbLine
 10
380.1935183407185
 20
178.8645337130511
 30
0.0
 11
383.4935183407178
 21
178.8645337130511
 31
0.0
  0
LINE
  5
1235
330
2
100
AcDbEntity
  8
0
100
AcDbLine
 10
376.493518340716
 20
175.3645337130493
 30
0.0
 11
384.493518340716
 21
175.3645337130511
 31
0.0
  0
LINE
  5
1236
330
2
100
AcDbEntity
  8
0
100
AcDbLine
 10
383.4935183407178
 20
180.8645337130511
 30
0.0
 11
383.4935183407178
 21
176.4275971667594
 31
0.0
  0
LINE
  5
1237
330
2
100
AcDbEntity
  8
0
100
AcDbLine
 10
383.4935183407178
 20
128.301470259341
 30
0.0
 11
383.4935183407178
 21
123.8645337130529
 31
0.0
  0
LINE
  5
1238
330
2
100
AcDbEntity
  8
0
100
AcDbLine
 10
383.4935183407142
 20
178.8645337130511
 30
0.0
 11
383.4935183407142
 21
180.8645337130457
 31
0.0
  0
LINE
  5
1239
330
2
100
AcDbEntity
  8
0
100
AcDbLine
 10
384.493518340716
 20
128.9823703601124
 30
0.0
 11
384.493518340716
 21
137.8644877130501
 31
0.0
  0
LINE
  5
123A
330
2
100
AcDbEntity
  8
0
100
AcDbLine
 10
384.493518340716
 20
166.8644877130501
 30
0.0
 11
384.493518340716
 21
175.7466970659899
 31
0.0
  0
LINE
  5
123B
330
2
100
AcDbEntity
  8
0
100
AcDbLine
 10
384.493518340716
 20
175.7466970659899
 30
0.0
 11
385.0702693989132
 21
175.761799823964
 31
0.0
  0
LINE
  5
123C
330
2
100
AcDbEntity
  8
0
100
AcDbLine
 10
384.9935183407151
 20
112.4649307710297
 30
0.0
 11
384.9935183407151
 21
112.8645337130511
 31
0.0
  0
LINE
  5
123D
330
2
100
AcDbEntity
  8
HIDS
100
AcDbLine
 10
384.9935183407142
 20
112.8645337130511
 30
0.0
 11
384.9935183407151
 21
122.8645337130511
 31
0.0
  0
LINE
  5
123E
330
2
100
AcDbEntity
  8
0
100
AcDbLine
 10
384.9935183407151
 20
122.8645337130511
 30
0.0
 11
384.9935183407151
 21
128.9131465185656
 31
0.0
  0
LINE
  5
123F
330
2
100
AcDbEntity
  8
0
100
AcDbLine
 10
384.9935183407151
 20
175.8159209075348
 30
0.0
 11
384.9935183407151
 21
181.8645337130511
 31
0.0
  0
LINE
  5
1240
330
2
100
AcDbEntity
  8
HIDS
100
AcDbLine
 10
384.9935183407151
 20
181.8645337130511
 30
0.0
 11
384.9935183407151
 21
191.8645337130511
 31
0.0
  0
LINE
  5
1241
330
2
100
AcDbEntity
  8
0
100
AcDbLine
 10
384.993518340716
 20
191.8645337130511
 30
0.0
 11
384.993518340716
 21
192.2641366550707
 31
0.0
  0
ARC
  5
1242
330
2
100
AcDbEntity
  8
0
100
AcDbCircle
 10
385.9935183407151
 20
112.4649307710297
 30
0.0
 40
1.0
100
AcDbArc
 50
180.0
 51
269.5000000000084
  0
LINE
  5
1243
330
2
100
AcDbEntity
  8
0
100
AcDbLine
 10
383.4935183407178
 20
180.8645337130511
 30
0.0
 11
383.9935183407178
 21
181.3645337130511
 31
0.0
  0
LINE
  5
1244
330
2
100
AcDbEntity
  8
HIDS
100
AcDbLine
 10
384.7006251219008
 20
184.0716404942378
 30
0.0
 11
384.2864115595275
 21
183.6574269318645
 31
0.0
  0
LINE
  5
1245
330
2
100
AcDbEntity
  8
HIDS
100
AcDbLine
 10
383.9935183407133
 20
121.7787472754208
 30
0.0
 11
383.9935183407142
 21
122.8645337130511
 31
0.0
  0
LINE
  5
1246
330
2
100
AcDbEntity
  8
0
100
AcDbLine
 10
383.9935183407133
 20
122.8645337130511
 30
0.0
 11
383.9935183407133
 21
128.4195930201877
 31
0.0
  0
LINE
  5
1247
330
2
100
AcDbEntity
  8
0
100
AcDbLine
 10
383.9935183407133
 20
176.3094744059127
 30
0.0
 11
383.9935183407133
 21
181.8645337130511
 31
0.0
  0
LINE
  5
1248
330
2
100
AcDbEntity
  8
HIDS
100
AcDbLine
 10
383.9935183407133
 20
181.8645337130511
 30
0.0
 11
383.9935183407133
 21
182.9503201506778
 31
0.0
  0
LINE
  5
1249
330
2
100
AcDbEntity
  8
0
100
AcDbLine
 10
375.493518340716
 20
126.4418839822411
 30
0.0
 11
375.493518340716
 21
137.8644877130501
 31
0.0
  0
LINE
  5
124A
330
2
100
AcDbEntity
  8
0
100
AcDbLine
 10
375.493518340716
 20
166.8644877130501
 30
0.0
 11
375.493518340716
 21
178.2871834438593
 31
0.0
  0
LINE
  5
124B
330
2
100
AcDbEntity
  8
0
100
AcDbLine
 10
376.493518340716
 20
129.3645337130511
 30
0.0
 11
376.493518340716
 21
137.8644877130501
 31
0.0
  0
LINE
  5
124C
330
2
100
AcDbEntity
  8
0
100
AcDbLine
 10
376.493518340716
 20
166.8644877130501
 30
0.0
 11
376.493518340716
 21
175.3645337130493
 31
0.0
  0
LINE
  5
124D
330
2
100
AcDbEntity
  8
0
100
AcDbLine
 10
376.4935183407178
 20
178.8645337130511
 30
0.0
 11
377.7935183407189
 21
178.8645337130511
 31
0.0
  0
LINE
  5
124E
330
2
100
AcDbEntity
  8
0
100
AcDbLine
 10
379.9935183407178
 20
178.6645337130504
 30
0.0
 11
380.1935183407185
 21
178.8645337130511
 31
0.0
  0
LINE
  5
124F
330
2
100
AcDbEntity
  8
0
100
AcDbLine
 10
379.9935183407178
 20
178.6645337130504
 30
0.0
 11
379.993518340716
 21
176.3537431463465
 31
0.0
  0
LINE
  5
1250
330
2
100
AcDbEntity
  8
0
100
AcDbLine
 10
379.9935183406805
 20
128.3753242797557
 30
0.0
 11
379.9935183406787
 21
126.0645337130919
 31
0.0
  0
LINE
  5
1251
330
2
100
AcDbEntity
  8
0
100
AcDbLine
 10
378.1935183407185
 20
178.1645337130504
 30
0.0
 11
379.7935183407189
 21
178.1645337130504
 31
0.0
  0
LINE
  5
1252
330
2
100
AcDbEntity
  8
0
100
AcDbLine
 10
376.4935183407178
 20
178.8645337130511
 30
0.0
 11
375.4935183407178
 21
178.2871834438611
 31
0.0
  0
LINE
  5
1253
330
2
100
AcDbEntity
  8
0
100
AcDbLine
 10
376.493518340716
 20
175.3645337130511
 30
0.0
 11
375.493518340716
 21
175.9418839822393
 31
0.0
  0
LINE
  5
1254
330
2
100
AcDbEntity
  8
0
100
AcDbLine
 10
397.4935183407178
 20
193.3645337130511
 30
0.0
 11
397.4935183407196
 21
166.1636474718762
 31
0.0
  0
LINE
  5
1255
330
2
100
AcDbEntity
  8
0
100
AcDbLine
 10
397.4935183407205
 20
138.565419954226
 30
0.0
 11
397.4935183407223
 21
111.3645337130511
 31
0.0
  0
LINE
  5
1256
330
2
100
AcDbEntity
  8
0
100
AcDbLine
 10
397.4935183407223
 20
111.3645337130511
 30
0.0
 11
385.9847918052164
 21
111.4649688479659
 31
0.0
  0
LINE
  5
1257
330
2
100
AcDbEntity
  8
0
100
AcDbLine
 10
384.493518340716
 20
128.9823703601124
 30
0.0
 11
385.0702693987477
 21
128.9672676021419
 31
0.0
  0
ARC
  5
1258
330
2
100
AcDbEntity
  8
HIDS
100
AcDbCircle
 10
384.993518340716
 20
121.7787472754208
 30
0.0
 40
1.0
100
AcDbArc
 50
180.0
 51
225.000000000021
  0
ARC
  5
1259
330
2
100
AcDbEntity
  8
HIDS
100
AcDbCircle
 10
383.993518340716
 20
119.950320150676
 30
0.0
 40
1.0
100
AcDbArc
 50
0.0
 51
45.00000000002101
  0
ARC
  5
125A
330
2
100
AcDbEntity
  8
HIDS
100
AcDbCircle
 10
384.9935183407133
 20
182.9503201506778
 30
0.0
 40
1.0
100
AcDbArc
 50
134.999999999979
 51
180.0
  0
ARC
  5
125B
330
2
100
AcDbEntity
  8
HIDS
100
AcDbCircle
 10
383.993518340716
 20
184.7787472754263
 30
0.0
 40
1.0
100
AcDbArc
 50
314.9999999999789
 51
0.0
  0
ARC
  5
125C
330
2
100
AcDbEntity
  8
0
100
AcDbCircle
 10
377.7935183407189
 20
178.6645337130504
 30
0.0
 40
0.2
100
AcDbArc
 50
0.0
 51
90.0
  0
ARC
  5
125D
330
2
100
AcDbEntity
  8
0
100
AcDbCircle
 10
378.1935183407185
 20
178.3645337130511
 30
0.0
 40
0.2
100
AcDbArc
 50
180.0
 51
270.0
  0
ARC
  5
125E
330
2
100
AcDbEntity
  8
0
100
AcDbCircle
 10
379.7935183407189
 20
178.3645337130511
 30
0.0
 40
0.2
100
AcDbArc
 50
270.0
 51
0.0
  0
ARC
  5
125F
330
2
100
AcDbEntity
  8
0
100
AcDbCircle
 10
377.7935183407207
 20
126.06453371305
 30
0.0
 40
0.2
100
AcDbArc
 50
270.0
 51
0.0
  0
ARC
  5
1260
330
2
100
AcDbEntity
  8
0
100
AcDbCircle
 10
378.1935183407203
 20
126.3645337130493
 30
0.0
 40
0.2
100
AcDbArc
 50
90.0
 51
180.0
  0
ARC
  5
1261
330
2
100
AcDbEntity
  8
0
100
AcDbCircle
 10
379.7935183407207
 20
126.3645337130493
 30
0.0
 40
0.2
100
AcDbArc
 50
0.0
 51
90.0
  0
LINE
  5
1262
330
2
100
AcDbEntity
  8
0
100
AcDbLine
 10
376.4935183407196
 20
125.8645337130493
 30
0.0
 11
376.4935183407196
 21
127.7760046380809
 31
0.0
  0
LINE
  5
1263
330
2
100
AcDbEntity
  8
0
100
AcDbLine
 10
376.4935183407178
 20
176.9530627880213
 30
0.0
 11
376.4935183407178
 21
178.8645337130511
 31
0.0
  0
LINE
  5
1264
330
2
100
AcDbEntity
  8
0
100
AcDbLine
 10
380.1935183407185
 20
178.8645337130511
 30
0.0
 11
380.1935183407185
 21
176.3600505828782
 31
0.0
  0
LINE
  5
1265
330
2
100
AcDbEntity
  8
0
100
AcDbLine
 10
380.1935183407204
 20
128.3690168432241
 30
0.0
 11
380.1935183407204
 21
125.8645337130493
 31
0.0
  0
LINE
  5
1266
330
2
100
AcDbEntity
  8
0
100
AcDbLine
 10
397.4935183407215
 20
116.3645337130511
 30
0.0
 11
390.9847918052155
 21
116.3645337130511
 31
0.0
  0
LINE
  5
1267
330
2
100
AcDbEntity
  8
0
100
AcDbLine
 10
397.4935183407215
 20
119.3645337130511
 30
0.0
 11
390.9847918052155
 21
119.3645337130511
 31
0.0
  0
LINE
  5
1268
330
2
100
AcDbEntity
  8
0
100
AcDbLine
 10
397.4935183407196
 20
185.3645337130511
 30
0.0
 11
390.9847918052182
 21
185.3645337130511
 31
0.0
  0
LINE
  5
1269
330
2
100
AcDbEntity
  8
0
100
AcDbLine
 10
397.4935183407178
 20
188.3645337130511
 30
0.0
 11
390.9847918052155
 21
188.3645337130511
 31
0.0
  0
LINE
  5
126A
330
2
100
AcDbEntity
  8
0
100
AcDbLine
 10
397.4935183407196
 20
170.6565688789197
 30
0.0
 11
387.3486801848357
 21
170.6565688789197
 31
0.0
  0
LINE
  5
126B
330
2
100
AcDbEntity
  8
0
100
AcDbLine
 10
397.4935183407215
 20
134.0724985471825
 30
0.0
 11
387.316513416612
 21
134.0724985471825
 31
0.0
  0
LINE
  5
126C
330
2
100
AcDbEntity
  8
0
100
AcDbLine
 10
385.9847918052164
 20
124.8995173395361
 30
0.0
 11
389.4978816084631
 21
124.8688590692855
 31
0.0
  0
LINE
  5
126D
330
2
100
AcDbEntity
  8
0
100
AcDbLine
 10
389.9935183407142
 20
124.3688781077527
 30
0.0
 11
389.9935183407142
 21
112.421296432076
 31
0.0
  0
ARC
  5
126E
330
2
100
AcDbEntity
  8
0
100
AcDbCircle
 10
385.9935183407142
 20
125.8994792626036
 30
0.0
 40
1.0
100
AcDbArc
 50
180.0
 51
269.5000000000345
  0
ARC
  5
126F
330
2
100
AcDbEntity
  8
0
100
AcDbCircle
 10
389.4935183407142
 20
124.3688781077545
 30
0.0
 40
0.5
100
AcDbArc
 50
0.0
 51
89.5000000000345
  0
ARC
  5
1270
330
2
100
AcDbEntity
  8
0
100
AcDbCircle
 10
390.9935183407142
 20
112.421296432076
 30
0.0
 40
1.0
100
AcDbArc
 50
180.0
 51
269.5000000000084
  0
ARC
  5
1271
330
2
100
AcDbEntity
  8
0
100
AcDbCircle
 10
385.9935183407151
 20
192.2641366550707
 30
0.0
 40
1.0
100
AcDbArc
 50
90.49999999999155
 51
180.0
  0
LINE
  5
1272
330
2
100
AcDbEntity
  8
0
100
AcDbLine
 10
397.4935183407178
 20
193.3645337130511
 30
0.0
 11
385.9847918052164
 21
193.2640985781346
 31
0.0
  0
LINE
  5
1273
330
2
100
AcDbEntity
  8
0
100
AcDbLine
 10
385.9847918052164
 20
179.8295500865662
 30
0.0
 11
389.4978816084631
 21
179.8602083568149
 31
0.0
  0
LINE
  5
1274
330
2
100
AcDbEntity
  8
0
100
AcDbLine
 10
389.9935183407142
 20
180.3601893183478
 30
0.0
 11
389.9935183407142
 21
192.3077709940245
 31
0.0
  0
ARC
  5
1275
330
2
100
AcDbEntity
  8
0
100
AcDbCircle
 10
385.9935183407142
 20
178.8295881634968
 30
0.0
 40
1.0
100
AcDbArc
 50
90.49999999996549
 51
180.0
  0
ARC
  5
1276
330
2
100
AcDbEntity
  8
0
100
AcDbCircle
 10
389.4935183407142
 20
180.3601893183478
 30
0.0
 40
0.5
100
AcDbArc
 50
270.4999999999654
 51
0.0
  0
ARC
  5
1277
330
2
100
AcDbEntity
  8
0
100
AcDbCircle
 10
390.9935183407142
 20
192.3077709940245
 30
0.0
 40
1.0
100
AcDbArc
 50
90.49999999999155
 51
180.0
  0
LINE
  5
1278
330
2
100
AcDbEntity
  8
0
100
AcDbLine
 10
382.8935183407138
 20
181.8645337130511
 30
0.0
 11
382.4935183407142
 21
182.5573540360784
 31
0.0
  0
LINE
  5
1279
330
2
100
AcDbEntity
  8
0
100
AcDbLine
 10
388.4935183407142
 20
181.8645337130511
 30
0.0
 11
388.4935183407142
 21
191.8645337130511
 31
0.0
  0
LINE
  5
127A
330
2
100
AcDbEntity
  8
0
100
AcDbLine
 10
382.8935183407138
 20
181.8645337130511
 30
0.0
 11
382.8935183407138
 21
191.8645337130511
 31
0.0
  0
LINE
  5
127B
330
2
100
AcDbEntity
  8
0
100
AcDbLine
 10
389.9935183407142
 20
181.8645337130511
 30
0.0
 11
382.8935183407138
 21
181.8645337130511
 31
0.0
  0
LINE
  5
127C
330
2
100
AcDbEntity
  8
0
100
AcDbLine
 10
389.9935183407142
 20
191.8645337130511
 30
0.0
 11
382.8935183407138
 21
191.8645337130511
 31
0.0
  0
LINE
  5
127D
330
2
100
AcDbEntity
  8
0
100
AcDbLine
 10
382.8935183407138
 20
191.8645337130511
 30
0.0
 11
382.4935183407142
 21
191.1717133900239
 31
0.0
  0
LINE
  5
127E
330
2
100
AcDbEntity
  8
0
100
AcDbLine
 10
382.4935183407142
 20
182.5573540360784
 30
0.0
 11
382.4935183407142
 21
191.1717133900239
 31
0.0
  0
LINE
  5
127F
330
2
100
AcDbEntity
  8
0
100
AcDbLine
 10
389.9935183407142
 20
191.8645337130511
 30
0.0
 11
389.9935183407142
 21
181.8645337130511
 31
0.0
  0
LINE
  5
1280
330
2
100
AcDbEntity
  8
0
100
AcDbLine
 10
382.8935183407138
 20
122.8645337130511
 30
0.0
 11
382.4935183407142
 21
122.1717133900239
 31
0.0
  0
LINE
  5
1281
330
2
100
AcDbEntity
  8
0
100
AcDbLine
 10
388.4935183407142
 20
122.8645337130511
 30
0.0
 11
388.4935183407142
 21
112.8645337130511
 31
0.0
  0
LINE
  5
1282
330
2
100
AcDbEntity
  8
0
100
AcDbLine
 10
382.8935183407138
 20
122.8645337130511
 30
0.0
 11
382.8935183407138
 21
112.8645337130511
 31
0.0
  0
LINE
  5
1283
330
2
100
AcDbEntity
  8
0
100
AcDbLine
 10
389.9935183407142
 20
122.8645337130511
 30
0.0
 11
382.8935183407138
 21
122.8645337130511
 31
0.0
  0
LINE
  5
1284
330
2
100
AcDbEntity
  8
0
100
AcDbLine
 10
389.9935183407142
 20
112.8645337130511
 30
0.0
 11
382.8935183407138
 21
112.8645337130511
 31
0.0
  0
LINE
  5
1285
330
2
100
AcDbEntity
  8
0
100
AcDbLine
 10
382.8935183407138
 20
112.8645337130511
 30
0.0
 11
382.4935183407142
 21
113.5573540360784
 31
0.0
  0
LINE
  5
1286
330
2
100
AcDbEntity
  8
0
100
AcDbLine
 10
382.4935183407142
 20
122.1717133900239
 30
0.0
 11
382.4935183407142
 21
113.5573540360784
 31
0.0
  0
LINE
  5
1287
330
2
100
AcDbEntity
  8
CENTER
  6
CENS
100
AcDbLine
 10
377.9148504306176
 20
186.8645337130511
 30
0.0
 11
402.4777041069992
 21
186.8645337130511
 31
0.0
  0
LINE
  5
1288
330
2
100
AcDbEntity
  8
CENTER
  6
CENS
100
AcDbLine
 10
377.9148504306176
 20
117.8645337130511
 30
0.0
 11
402.4777041069992
 21
117.8645337130511
 31
0.0
  0
LINE
  5
1289
330
2
100
AcDbEntity
  8
0
100
AcDbLine
 10
486.4935183407196
 20
166.8615801420584
 30
0.0
 11
486.4935183407196
 21
137.8644877130501
 31
0.0
  0
LINE
  5
128A
330
2
100
AcDbEntity
  8
CENTER
  6
CENS
100
AcDbLine
 10
478.4935183407196
 20
156.3138766876819
 30
0.0
 11
478.4935183407196
 21
173.1327853141084
 31
0.0
  0
LINE
  5
128B
330
2
100
AcDbEntity
  8
0
100
AcDbLine
 10
373.4935183407196
 20
166.8644877130501
 30
0.0
 11
373.4935183407196
 21
137.8644877130501
 31
0.0
  0
LINE
  5
128C
330
2
100
AcDbEntity
  8
0
100
AcDbLine
 10
388.4237447942705
 20
137.8644877130501
 30
0.0
 11
373.4935183407196
 21
137.8644877130501
 31
0.0
  0
LINE
  5
128D
330
2
100
AcDbEntity
  8
0
 48
0.5
100
AcDbLine
 10
462.6327642994328
 20
137.8644877130501
 30
0.0
 11
486.4935183407196
 21
137.8644877130501
 31
0.0
  0
LINE
  5
128E
330
2
100
AcDbEntity
  8
0
 48
0.5
100
AcDbLine
 10
373.4935267947603
 20
164.1644877130512
 30
0.0
 11
486.4935183407196
 21
164.1644877130512
 31
0.0
  0
LINE
  5
128F
330
2
100
AcDbEntity
  8
0
 48
0.5
100
AcDbLine
 10
396.4935267947603
 20
161.8615801420584
 30
0.0
 11
459.4935183407196
 21
161.8615801420584
 31
0.0
  0
LINE
  5
1290
330
2
100
AcDbEntity
  8
0
 48
0.5
100
AcDbLine
 10
375.4935267947603
 20
161.3615801420565
 30
0.0
 11
375.4935267947603
 21
143.3615801420584
 31
0.0
  0
LINE
  5
1291
330
2
100
AcDbEntity
  8
0
 48
0.5
100
AcDbLine
 10
385.4935267947603
 20
161.8615801420584
 30
0.0
 11
385.4935267947603
 21
142.8615801420584
 31
0.0
  0
LINE
  5
1292
330
2
100
AcDbEntity
  8
0
 48
0.5
100
AcDbLine
 10
384.3435267947607
 20
161.8615801420584
 30
0.0
 11
384.3435267947607
 21
142.8615801420584
 31
0.0
  0
LINE
  5
1293
330
2
100
AcDbEntity
  8
0
 48
0.5
100
AcDbLine
 10
385.4935267947603
 20
143.3615801420584
 30
0.0
 11
396.4935267947603
 21
143.3615801420584
 31
0.0
  0
LINE
  5
1294
330
2
100
AcDbEntity
  8
0
 48
0.5
100
AcDbLine
 10
375.4935267947603
 20
143.3615801420584
 30
0.0
 11
384.3435267947607
 21
143.3615801420584
 31
0.0
  0
LINE
  5
1295
330
2
100
AcDbEntity
  8
0
 48
0.5
100
AcDbLine
 10
375.4935267947603
 20
143.3615801420584
 30
0.0
 11
373.4935267947603
 21
142.2068796036784
 31
0.0
  0
LINE
  5
1296
330
2
100
AcDbEntity
  8
0
 48
0.5
100
AcDbLine
 10
384.3435267947607
 20
142.8615801420584
 30
0.0
 11
385.4935267947603
 21
142.8615801420584
 31
0.0
  0
LINE
  5
1297
330
2
100
AcDbEntity
  8
0
 48
0.5
100
AcDbLine
 10
385.4935267947603
 20
161.3615801420584
 30
0.0
 11
396.4935267947603
 21
161.3615801420565
 31
0.0
  0
LINE
  5
1298
330
2
100
AcDbEntity
  8
0
 48
0.5
100
AcDbLine
 10
384.3435267947607
 20
161.8615801420584
 30
0.0
 11
385.4935267947603
 21
161.8615801420584
 31
0.0
  0
LINE
  5
1299
330
2
100
AcDbEntity
  8
0
 48
0.5
100
AcDbLine
 10
375.4935267947603
 20
161.3615801420565
 30
0.0
 11
384.3435267947607
 21
161.3615801420565
 31
0.0
  0
LINE
  5
129A
330
2
100
AcDbEntity
  8
0
 48
0.5
100
AcDbLine
 10
373.4935183407196
 20
162.5191882514301
 30
0.0
 11
375.4935183407196
 21
161.3644877130501
 31
0.0
  0
LINE
  5
129B
330
2
100
AcDbEntity
  8
0
 48
0.5
100
AcDbLine
 10
375.4935267947603
 20
161.3615801420565
 30
0.0
 11
373.4935267947603
 21
162.5162806804365
 31
0.0
  0
LINE
  5
129C
330
2
100
AcDbEntity
  8
0
 48
0.5
100
AcDbLine
 10
396.4935267947603
 20
161.8615801420584
 30
0.0
 11
396.4935267947603
 21
142.8674872840439
 31
0.0
  0
LINE
  5
129D
330
2
100
AcDbEntity
  8
0
100
AcDbLine
 10
388.423800377137
 20
166.8644877130501
 30
0.0
 11
373.4935183407196
 21
166.8644877130501
 31
0.0
  0
LINE
  5
129E
330
2
100
AcDbEntity
  8
0
 48
0.5
100
AcDbLine
 10
462.6327247265362
 20
166.8644877130501
 30
0.0
 11
486.4935183407196
 21
166.8644877130501
 31
0.0
  0
LINE
  5
129F
330
2
100
AcDbEntity
  8
0
 48
0.5
100
AcDbLine
 10
475.4935183407196
 20
161.8644877130501
 30
0.0
 11
481.4935183407197
 21
161.8644877130501
 31
0.0
  0
LINE
  5
12A0
330
2
100
AcDbEntity
  8
0
 48
0.5
100
AcDbLine
 10
475.4935183407196
 20
142.8644877130501
 30
0.0
 11
481.4935183407197
 21
142.8644877130501
 31
0.0
  0
LINE
  5
12A1
330
2
100
AcDbEntity
  8
0
 48
0.5
100
AcDbLine
 10
469.4935183407197
 20
161.8644877130501
 30
0.0
 11
469.4935183407197
 21
142.8644877130501
 31
0.0
  0
LINE
  5
12A2
330
2
100
AcDbEntity
  8
0
 48
0.5
100
AcDbLine
 10
470.6435183407193
 20
161.8644877130501
 30
0.0
 11
470.6435183407193
 21
142.8644877130501
 31
0.0
  0
LINE
  5
12A3
330
2
100
AcDbEntity
  8
0
 48
0.5
100
AcDbLine
 10
475.4935183407196
 20
142.8644877130501
 30
0.0
 11
475.4935183407196
 21
161.8644877130501
 31
0.0
  0
LINE
  5
12A4
330
2
100
AcDbEntity
  8
0
100
AcDbLine
 10
459.4935183407196
 20
161.8615801420584
 30
0.0
 11
459.4935183407196
 21
142.8610860904647
 31
0.0
  0
LINE
  5
12A5
330
2
100
AcDbEntity
  8
0
 48
0.5
100
AcDbLine
 10
459.4935183407196
 20
143.3644877130501
 30
0.0
 11
469.4935183407197
 21
143.3644877130501
 31
0.0
  0
LINE
  5
12A6
330
2
100
AcDbEntity
  8
0
100
AcDbLine
 10
459.4935183407196
 20
142.8610860904647
 30
0.0
 11
456.9219175989237
 21
142.8610860904647
 31
0.0
  0
LINE
  5
12A7
330
2
100
AcDbEntity
  8
0
 48
0.5
100
AcDbLine
 10
470.6435183407193
 20
143.3644877130501
 30
0.0
 11
475.4935183407196
 21
143.3644877130501
 31
0.0
  0
LINE
  5
12A8
330
2
100
AcDbEntity
  8
0
 48
0.5
100
AcDbLine
 10
470.6435183407193
 20
142.8644877130501
 30
0.0
 11
469.4935183407197
 21
142.8644877130501
 31
0.0
  0
LINE
  5
12A9
330
2
100
AcDbEntity
  8
0
 48
0.5
100
AcDbLine
 10
459.4935183407196
 20
161.3644877130501
 30
0.0
 11
469.4935183407197
 21
161.3644877130501
 31
0.0
  0
LINE
  5
12AA
330
2
100
AcDbEntity
  8
0
 48
0.5
100
AcDbLine
 10
469.4935183407197
 20
161.8644877130501
 30
0.0
 11
470.6435183407193
 21
161.8644877130501
 31
0.0
  0
LINE
  5
12AB
330
2
100
AcDbEntity
  8
0
 48
0.5
100
AcDbLine
 10
470.6435183407193
 20
161.3644877130501
 30
0.0
 11
475.4935183407196
 21
161.3644877130501
 31
0.0
  0
LINE
  5
12AC
330
2
100
AcDbEntity
  8
HOJO
100
AcDbLine
 10
475.9935183407232
 20
164.1644877130512
 30
0.0
 11
475.9935183407232
 21
166.8644877130501
 31
0.0
  0
LINE
  5
12AD
330
2
100
AcDbEntity
  8
0
100
AcDbLine
 10
476.443518341236
 20
164.1644877130512
 30
0.0
 11
476.443518341236
 21
166.8644877130501
 31
0.0
  0
LINE
  5
12AE
330
2
100
AcDbEntity
  8
0
 48
0.5
100
AcDbLine
 10
484.4935267947603
 20
161.3644877130501
 30
0.0
 11
484.4935267947612
 21
143.3644877130519
 31
0.0
  0
LINE
  5
12AF
330
2
100
AcDbEntity
  8
0
 48
0.5
100
AcDbLine
 10
481.4935267947602
 20
142.8644877130501
 30
0.0
 11
481.4935267947602
 21
161.8644877130501
 31
0.0
  0
LINE
  5
12B0
330
2
100
AcDbEntity
  8
0
 48
0.5
100
AcDbLine
 10
486.4935267947621
 20
142.2097871746719
 30
0.0
 11
484.4935267947612
 21
143.3644877130519
 31
0.0
  0
LINE
  5
12B1
330
2
100
AcDbEntity
  8
HOJO
100
AcDbLine
 10
480.9935267947603
 20
164.1644877130512
 30
0.0
 11
480.9935267947603
 21
166.8644877130501
 31
0.0
  0
LINE
  5
12B2
330
2
100
AcDbEntity
  8
0
100
AcDbLine
 10
480.5435267942448
 20
164.1644877130512
 30
0.0
 11
480.5435267942448
 21
166.8644877130501
 31
0.0
  0
LINE
  5
12B3
330
2
100
AcDbEntity
  8
0
100
AcDbLine
 10
484.4935267947612
 20
143.3644877130519
 30
0.0
 11
481.4935267947602
 21
143.3644877130519
 31
0.0
  0
LINE
  5
12B4
330
2
100
AcDbEntity
  8
0
100
AcDbLine
 10
484.4935267947603
 20
161.3644877130501
 30
0.0
 11
481.4935267947602
 21
161.3644877130501
 31
0.0
  0
LINE
  5
12B5
330
2
100
AcDbEntity
  8
0
100
AcDbLine
 10
484.4935267947603
 20
161.3644877130501
 30
0.0
 11
486.4935183407196
 21
162.5191833704867
 31
0.0
  0
LINE
  5
12B6
330
2
100
AcDbEntity
  8
0
 48
0.5
100
AcDbLine
 10
396.4935267947603
 20
142.8674872840439
 30
0.0
 11
459.4935183407196
 21
142.8674872840439
 31
0.0
  0
LINE
  5
12B7
330
2
100
AcDbEntity
  8
0
100
AcDbLine
 10
472.4935183407196
 20
129.3645337130511
 30
0.0
 11
472.4935183407196
 21
137.8644877130501
 31
0.0
  0
LINE
  5
12B8
330
2
100
AcDbEntity
  8
0
100
AcDbLine
 10
472.4935183407196
 20
166.8644877130501
 30
0.0
 11
472.4935183407196
 21
175.3645337130493
 31
0.0
  0
LINE
  5
12B9
330
2
100
AcDbEntity
  8
0
100
AcDbLine
 10
464.4935183407197
 20
129.1263929287434
 30
0.0
 11
464.4935183407197
 21
137.8644877130501
 31
0.0
  0
LINE
  5
12BA
330
2
100
AcDbEntity
  8
0
100
AcDbLine
 10
464.4935183407197
 20
166.8644877130501
 30
0.0
 11
464.4935183407197
 21
175.602674497357
 31
0.0
  0
LINE
  5
12BB
330
2
100
AcDbEntity
  8
0
100
AcDbLine
 10
464.4935183407197
 20
129.1263929287434
 30
0.0
 11
463.6872119063355
 21
129.1052790516915
 31
0.0
  0
LINE
  5
12BC
330
2
100
AcDbEntity
  8
0
100
AcDbLine
 10
472.4935183407196
 20
129.3645337130511
 30
0.0
 11
464.4935183407206
 21
129.3645337130511
 31
0.0
  0
LINE
  5
12BD
330
2
100
AcDbEntity
  8
0
100
AcDbLine
 10
472.4935183407196
 20
129.3645337130511
 30
0.0
 11
473.4935183407197
 21
128.7871834438611
 31
0.0
  0
LINE
  5
12BE
330
2
100
AcDbEntity
  8
0
100
AcDbLine
 10
472.4935183407196
 20
175.3645337130493
 30
0.0
 11
464.4935183407215
 21
175.3645337130493
 31
0.0
  0
LINE
  5
12BF
330
2
100
AcDbEntity
  8
0
100
AcDbLine
 10
472.4935183407196
 20
175.3645337130511
 30
0.0
 11
473.4935183407197
 21
175.9418839822393
 31
0.0
  0
LINE
  5
12C0
330
2
100
AcDbEntity
  8
0
100
AcDbLine
 10
464.4935183407197
 20
175.602674497357
 30
0.0
 11
463.6872119063355
 21
175.6237883744089
 31
0.0
  0
SPLINE
  5
12C1
330
2
100
AcDbEntity
  8
HOJO
100
AcDbSpline
210
0.0
220
0.0
230
1.0
 70
     8
 71
     3
 72
    34
 73
    30
 74
     0
 42
0.0000000001
 43
0.0000000001
 40
0.3362490801349298
 40
0.3362490801349298
 40
0.3362490801349298
 40
0.3362490801349298
 40
2.025640917149685
 40
4.32094151344414
 40
6.375589722319439
 40
9.049541186356382
 40
11.45527314787573
 40
13.93495700308971
 40
16.33786532263532
 40
19.54572761550501
 40
21.38558869575908
 40
28.86979803234311
 40
33.1859970370878
 40
37.86645582948318
 40
45.37190962287592
 40
53.9865418647183
 40
62.6909315817348
 40
69.28563032391882
 40
78.28004835247928
 40
85.06020350068469
 40
90.23992781404917
 40
93.94649664053121
 40
96.69197151561816
 40
100.3021858601968
 40
102.6648877317443
 40
105.7348010616008
 40
109.5488637563299
 40
112.8347034321232
 40
115.1857403907296
 40
115.1857403907296
 40
115.1857403907296
 40
115.1857403907296
 10
375.493518340716
 20
177.279825440397
 30
0.0
 10
376.0262286406559
 20
177.1000808091813
 30
0.0
 10
377.2867504355781
 20
176.6853142535056
 30
0.0
 10
379.2842895022804
 20
176.254571852438
 30
0.0
 10
381.6064566776895
 20
176.4729155676051
 30
0.0
 10
384.0850761895172
 20
176.6136313020343
 30
0.0
 10
386.2138640383036
 20
174.9391032198728
 30
0.0
 10
387.1737970309605
 20
172.6322078770955
 30
0.0
 10
387.327451575451
 20
169.9287696749162
 30
0.0
 10
387.8908796630748
 20
167.4941887678325
 30
0.0
 10
390.5563406500569
 20
163.8917807291128
 30
0.0
 10
395.9982776304459
 20
166.6051660294762
 30
0.0
 10
401.3034505602718
 20
165.9460404595212
 30
0.0
 10
406.786955498701
 20
164.7718108552582
 30
0.0
 10
413.6904363193471
 20
166.8513416693168
 30
0.0
 10
421.9163222444931
 20
163.9179591653374
 30
0.0
 10
429.7900823403105
 20
166.9831898520425
 30
0.0
 10
437.8648469694272
 20
164.8027570759533
 30
0.0
 10
445.3208666698392
 20
167.4586620635783
 30
0.0
 10
452.227905140885
 20
163.974137408166
 30
0.0
 10
457.1322475722999
 20
166.4169970894582
 30
0.0
 10
461.6628565112114
 20
164.3685873639389
 30
0.0
 10
463.1365131309012
 20
168.0668639319447
 30
0.0
 10
464.023012742974
 20
170.8831743211904
 30
0.0
 10
462.2103197798614
 20
173.7240083739926
 30
0.0
 10
464.3202098522642
 20
176.8285537790562
 30
0.0
 10
467.8393229676694
 20
177.3679182894703
 30
0.0
 10
471.0407926420412
 20
176.668327292653
 30
0.0
 10
472.7575968446727
 20
177.5883141765281
 30
0.0
 10
473.4935183407197
 20
177.8801975126772
 30
0.0
  0
SPLINE
  5
12C2
330
2
100
AcDbEntity
  8
HOJO
100
AcDbSpline
210
0.0
220
0.0
230
1.0
 70
     8
 71
     3
 72
    34
 73
    30
 74
     0
 42
0.0000000001
 43
0.0000000001
 40
0.3362490801349298
 40
0.3362490801349298
 40
0.3362490801349298
 40
0.3362490801349298
 40
2.025640917149685
 40
4.32094151344414
 40
6.375589722319439
 40
9.049541186356382
 40
11.45527314787573
 40
13.93495700308971
 40
16.33786532263532
 40
19.54572761550501
 40
21.38558869575908
 40
28.86979803234311
 40
33.1859970370878
 40
37.86645582948318
 40
45.37190962287592
 40
53.9865418647183
 40
62.6909315817348
 40
69.28563032391882
 40
78.28004835247928
 40
85.06020350068469
 40
90.23992781404917
 40
93.94649664053121
 40
96.69197151561816
 40
100.3021858601968
 40
102.6648877317443
 40
105.7348010616008
 40
109.5488637563299
 40
112.8347034321232
 40
115.1857403907296
 40
115.1857403907296
 40
115.1857403907296
 40
115.1857403907296
 10
375.493518340716
 20
127.4492419857052
 30
0.0
 10
376.0262286406559
 20
127.6289866169191
 30
0.0
 10
377.2867504355781
 20
128.0437531725948
 30
0.0
 10
379.2842895022804
 20
128.4744955736624
 30
0.0
 10
381.6064566776895
 20
128.2561518584972
 30
0.0
 10
384.0850761895172
 20
128.1154361240661
 30
0.0
 10
386.2138640383036
 20
129.7899642062276
 30
0.0
 10
387.1737970309605
 20
132.0968595490049
 30
0.0
 10
387.327451575451
 20
134.8002977511861
 30
0.0
 10
387.8908796630748
 20
137.2348786582698
 30
0.0
 10
390.5563406500569
 20
140.8372866969877
 30
0.0
 10
395.9982776304459
 20
138.1239013966261
 30
0.0
 10
401.3034505602718
 20
138.7830269665811
 30
0.0
 10
406.786955498701
 20
139.9572565708423
 30
0.0
 10
413.6904363193471
 20
137.8777257567836
 30
0.0
 10
421.9163222444931
 20
140.811108260763
 30
0.0
 10
429.7900823403105
 20
137.745877574058
 30
0.0
 10
437.8648469694272
 20
139.9263103501472
 30
0.0
 10
445.3208666698392
 20
137.2704053625239
 30
0.0
 10
452.227905140885
 20
140.7549300179345
 30
0.0
 10
457.1322475722999
 20
138.3120703366422
 30
0.0
 10
461.6628565112114
 20
140.3604800621616
 30
0.0
 10
463.1365131309012
 20
136.6622034941557
 30
0.0
 10
464.023012742974
 20
133.84589310491
 30
0.0
 10
462.2103197798614
 20
131.0050590521078
 30
0.0
 10
464.3202098522642
 20
127.9005136470442
 30
0.0
 10
467.8393229676694
 20
127.3611491366301
 30
0.0
 10
471.0407926420412
 20
128.0607401334474
 30
0.0
 10
472.7575968446727
 20
127.1407532495724
 30
0.0
 10
473.4935183407197
 20
126.8488699134233
 30
0.0
  0
LINE
  5
12C3
330
2
100
AcDbEntity
  8
0
100
AcDbLine
 10
472.4935183407196
 20
175.3645337130493
 30
0.0
 11
464.4935183407197
 21
166.8644877130501
 31
0.0
  0
LINE
  5
12C4
330
2
100
AcDbEntity
  8
0
100
AcDbLine
 10
464.4935183407215
 20
175.3645337130493
 30
0.0
 11
472.4935183407196
 21
166.8644877130501
 31
0.0
  0
LINE
  5
12C5
330
2
100
AcDbEntity
  8
0
100
AcDbLine
 10
472.4935183407196
 20
137.8644877130501
 30
0.0
 11
464.4935183407206
 21
129.3645337130511
 31
0.0
  0
LINE
  5
12C6
330
2
100
AcDbEntity
  8
0
100
AcDbLine
 10
464.4935183407197
 20
137.8644877130501
 30
0.0
 11
472.4935183407196
 21
129.3645337130511
 31
0.0
  0
LINE
  5
12C7
330
2
100
AcDbEntity
  8
0
100
AcDbLine
 10
376.493518340716
 20
175.3645337130511
 30
0.0
 11
384.493518340716
 21
166.8644877130501
 31
0.0
  0
LINE
  5
12C8
330
2
100
AcDbEntity
  8
0
100
AcDbLine
 10
384.493518340716
 20
175.3645337130511
 30
0.0
 11
376.493518340716
 21
166.8644877130501
 31
0.0
  0
LINE
  5
12C9
330
2
100
AcDbEntity
  8
0
100
AcDbLine
 10
376.493518340716
 20
129.3645337130511
 30
0.0
 11
384.493518340716
 21
137.8644877130501
 31
0.0
  0
LINE
  5
12CA
330
2
100
AcDbEntity
  8
0
100
AcDbLine
 10
376.493518340716
 20
137.8644877130501
 30
0.0
 11
384.493518340716
 21
129.3645337130511
 31
0.0
  0
LINE
  5
12CB
330
2
100
AcDbEntity
  8
0
100
AcDbLine
 10
443.5033078096985
 20
401.0295379464143
 30
0.0
 11
443.5033078096985
 21
372.0295379464143
 31
0.0
  0
LINE
  5
12CC
330
2
100
AcDbEntity
  8
0
100
AcDbLine
 10
330.503307809699
 20
401.032445517406
 30
0.0
 11
330.503307809699
 21
372.032445517406
 31
0.0
  0
LINE
  5
12CD
330
2
100
AcDbEntity
  8
0
100
AcDbLine
 10
332.5033078096953
 20
372.032445517406
 30
0.0
 11
330.503307809699
 21
372.032445517406
 31
0.0
  0
LINE
  5
12CE
330
2
100
AcDbEntity
  8
0
 48
0.5
100
AcDbLine
 10
430.5033078096994
 20
372.0295379464143
 30
0.0
 11
443.5033078096985
 21
372.0295379464143
 31
0.0
  0
LINE
  5
12CF
330
2
100
AcDbEntity
  8
0
100
AcDbLine
 10
332.5033078096944
 20
401.032445517406
 30
0.0
 11
330.503307809699
 21
401.032445517406
 31
0.0
  0
LINE
  5
12D0
330
2
100
AcDbEntity
  8
0
 48
0.5
100
AcDbLine
 10
430.5033078096985
 20
401.032445517406
 30
0.0
 11
443.5033078096985
 21
401.032445517406
 31
0.0
  0
CIRCLE
  5
12D1
330
2
100
AcDbEntity
  8
0
100
AcDbCircle
 10
435.5033078096985
 20
386.5324915174052
 30
0.0
 40
2.0
  0
CIRCLE
  5
12D2
330
2
100
AcDbEntity
  8
HOJO
100
AcDbCircle
 10
435.5033078096985
 20
386.5324915174052
 30
0.0
 40
2.5
  0
LINE
  5
12D3
330
2
100
AcDbEntity
  8
0
100
AcDbLine
 10
201.9230108889532
 20
398.3324945174055
 30
0.0
 11
201.9230108889532
 21
395.0352851759627
 31
0.0
  0
LINE
  5
12D4
330
2
100
AcDbEntity
  8
0
100
AcDbLine
 10
195.9230108889532
 20
398.3324945174055
 30
0.0
 11
195.9230108889532
 21
394.9999291463474
 31
0.0
  0
ARC
  5
12D5
330
2
100
AcDbEntity
  8
0
100
AcDbCircle
 10
198.9730108889534
 20
386.5324915174052
 30
0.0
 40
9.0
100
AcDbArc
 50
109.8091936367477
 51
70.86604897351758
  0
LINE
  5
12D6
330
2
100
AcDbEntity
  8
0
100
AcDbLine
 10
195.9230108889532
 20
398.3324945174055
 30
0.0
 11
201.9230108889532
 21
398.3324945174055
 31
0.0
  0
ARC
  5
12D7
330
2
100
AcDbEntity
  8
0
100
AcDbCircle
 10
198.9730108889539
 20
386.532491517407
 30
0.0
 40
10.15765410937228
100
AcDbArc
 50
107.4735912242746
 51
73.11681444393172
  0
LINE
  5
12D8
330
2
100
AcDbEntity
  8
0
100
AcDbLine
 10
597.5696978732121
 20
398.3324945174053
 30
0.0
 11
597.5696978732121
 21
395.0352851759625
 31
0.0
  0
LINE
  5
12D9
330
2
100
AcDbEntity
  8
0
100
AcDbLine
 10
591.5696978732121
 20
398.3324945174053
 30
0.0
 11
591.5696978732121
 21
394.9999291463472
 31
0.0
  0
ARC
  5
12DA
330
2
100
AcDbEntity
  8
0
100
AcDbCircle
 10
594.6196978732114
 20
386.5324915174068
 30
0.0
 40
9.0
100
AcDbArc
 50
109.8091936367477
 51
70.86604897351758
  0
LINE
  5
12DB
330
2
100
AcDbEntity
  8
0
100
AcDbLine
 10
591.5696978732121
 20
398.3324945174053
 30
0.0
 11
597.5696978732121
 21
398.3324945174053
 31
0.0
  0
ARC
  5
12DC
330
2
100
AcDbEntity
  8
0
100
AcDbCircle
 10
594.6196978732114
 20
386.5324915174068
 30
0.0
 40
10.15765410937228
100
AcDbArc
 50
107.4735912242746
 51
73.11681444393172
  0
CIRCLE
  5
12DD
330
2
100
AcDbEntity
  8
0
100
AcDbCircle
 10
198.9730108889539
 20
386.532491517407
 30
0.0
 40
14.49995399999997
  0
CIRCLE
  5
12DE
330
2
100
AcDbEntity
  8
0
100
AcDbCircle
 10
594.6196978732114
 20
386.5324915174068
 30
0.0
 40
14.49995400000048
  0
LINE
  5
12DF
330
2
100
AcDbEntity
  8
CENTER
100
AcDbLine
 10
233.973010888953
 20
367.8260996817163
 30
0.0
 11
233.973010888953
 21
359.238883353096
 31
0.0
  0
LINE
  5
12E0
330
2
100
AcDbEntity
  8
CENTER
100
AcDbLine
 10
229.6794027246428
 20
363.532491517407
 30
0.0
 11
238.2666190532631
 21
363.532491517407
 31
0.0
  0
LINE
  5
12E1
330
2
100
AcDbEntity
  8
CENTER
100
AcDbLine
 10
233.973010888953
 20
405.238883353096
 30
0.0
 11
233.973010888953
 21
413.8260996817163
 31
0.0
  0
LINE
  5
12E2
330
2
100
AcDbEntity
  8
CENTER
100
AcDbLine
 10
229.6794027246428
 20
409.5324915174071
 30
0.0
 11
238.2666190532631
 21
409.5324915174071
 31
0.0
  0
LINE
  5
12E3
330
2
100
AcDbEntity
  8
0
100
AcDbLine
 10
609.1196518732122
 20
573.7054215708622
 30
0.0
 11
580.1196518732122
 21
573.7054215708622
 31
0.0
  0
LINE
  5
12E4
330
2
100
AcDbEntity
  8
0
100
AcDbLine
 10
609.1196518732122
 20
686.7054215708622
 30
0.0
 11
580.1196518732122
 21
686.7054215708622
 31
0.0
  0
LINE
  5
12E5
330
2
100
AcDbEntity
  8
0
100
AcDbLine
 10
580.1196518732122
 20
684.7054215708658
 30
0.0
 11
580.1196518732122
 21
686.7054215708622
 31
0.0
  0
LINE
  5
12E6
330
2
100
AcDbEntity
  8
0
 48
0.5
100
AcDbLine
 10
580.1196518732122
 20
586.7054215708622
 30
0.0
 11
580.1196518732122
 21
573.7054215708622
 31
0.0
  0
LINE
  5
12E7
330
2
100
AcDbEntity
  8
0
100
AcDbLine
 10
609.1196518732122
 20
684.7054215708658
 30
0.0
 11
609.1196518732122
 21
686.7054215708622
 31
0.0
  0
LINE
  5
12E8
330
2
100
AcDbEntity
  8
0
 48
0.5
100
AcDbLine
 10
609.1196518732122
 20
586.7054215708622
 30
0.0
 11
609.1196518732122
 21
573.7054215708622
 31
0.0
  0
CIRCLE
  5
12E9
330
2
100
AcDbEntity
  8
0
100
AcDbCircle
 10
594.6196978732114
 20
581.7054215708622
 30
0.0
 40
2.0
  0
CIRCLE
  5
12EA
330
2
100
AcDbEntity
  8
HOJO
100
AcDbCircle
 10
594.6196978732114
 20
581.7054215708622
 30
0.0
 40
2.5
  0
LINE
  5
12EB
330
2
100
AcDbEntity
  8
CENTER
100
AcDbLine
 10
589.3383831798528
 20
581.7054215708622
 30
0.0
 11
599.90101256657
 21
581.7054215708622
 31
0.0
  0
LINE
  5
12EC
330
2
100
AcDbEntity
  8
CENTER
100
AcDbLine
 10
435.5033078096985
 20
391.370335471108
 30
0.0
 11
435.5033078096985
 21
381.6946475637024
 31
0.0
  0
LINE
  5
12ED
330
2
100
AcDbEntity
  8
0
100
AcDbLine
 10
612.9117330390799
 20
662.7054215708604
 30
0.0
 11
612.9117330390799
 21
674.2054215708658
 31
0.0
  0
LINE
  5
12EE
330
2
100
AcDbEntity
  8
0
100
AcDbLine
 10
630.6196978732132
 20
662.7054215708604
 30
0.0
 11
630.6196978732132
 21
674.2054215708658
 31
0.0
  0
LINE
  5
12EF
330
2
100
AcDbEntity
  8
0
100
AcDbLine
 10
627.6196978732132
 20
662.7054215708604
 30
0.0
 11
627.6196978732132
 21
674.2054215708658
 31
0.0
  0
LINE
  5
12F0
330
2
100
AcDbEntity
  8
0
100
AcDbLine
 10
339.9033078096963
 20
413.032491517407
 30
0.0
 11
339.9033078096927
 21
416.032491517407
 31
0.0
  0
LINE
  5
12F1
330
2
100
AcDbEntity
  8
0
100
AcDbLine
 10
339.6146326750986
 20
416.5324915174044
 30
0.0
 11
339.5033078096967
 21
416.3396711943807
 31
0.0
  0
LINE
  5
12F2
330
2
100
AcDbEntity
  8
0
100
AcDbLine
 10
339.5033078096967
 20
413.032491517407
 30
0.0
 11
339.5033078096967
 21
416.3396711943807
 31
0.0
  0
LINE
  5
12F3
330
2
100
AcDbEntity
  8
0
100
AcDbLine
 10
339.9033078096963
 20
360.0324915174061
 30
0.0
 11
339.9033078096927
 21
357.0324915174071
 31
0.0
  0
LINE
  5
12F4
330
2
100
AcDbEntity
  8
0
100
AcDbLine
 10
339.6146326750986
 20
356.5324915174089
 30
0.0
 11
339.5033078096967
 21
356.7253118404316
 31
0.0
  0
LINE
  5
12F5
330
2
100
AcDbEntity
  8
0
100
AcDbLine
 10
339.5033078096967
 20
360.0324915174061
 30
0.0
 11
339.5033078096967
 21
356.7253118404316
 31
0.0
  0
LINE
  5
12F7
330
2
100
AcDbEntity
  8
PHAS
  6
SEKKEI_P_S
100
AcDbLine
 10
340.0033078096985
 20
358.032491517407
 30
0.0
 11
340.0033078096985
 21
415.0324915174071
 31
0.0
  0
LINE
  5
12F8
330
2
100
AcDbEntity
  8
PHAS
  6
SEKKEI_P_S
100
AcDbLine
 10
314.5033078096989
 20
373.496389517407
 30
0.0
 11
314.5033078096989
 21
399.5685692754961
 31
0.0
  0
LINE
  5
12F9
330
2
100
AcDbEntity
  8
PHAS
  6
SEKKEI_P_S
100
AcDbLine
 10
330.2033078096992
 20
361.1516429430514
 30
0.0
 11
330.2033078096992
 21
411.9133400917637
 31
0.0
  0
LINE
  5
12FA
330
2
100
AcDbEntity
  8
PHAS
  6
SEKKEI_P_S
100
AcDbLine
 10
340.0033078096985
 20
358.032491517407
 30
0.0
 11
333.1509505903873
 21
358.1520998575817
 31
0.0
  0
LINE
  5
12FB
330
2
100
AcDbEntity
  8
PHAS
  6
SEKKEI_P_S
100
AcDbLine
 10
329.376949809699
 20
366.6781825174068
 30
0.0
 11
329.3833096211615
 21
366.6770612471402
 31
0.0
  0
ARC
  5
12FC
330
2
100
AcDbEntity
  8
PHAS
  6
SEKKEI_P_S
100
AcDbCircle
 10
329.2033078096992
 20
365.6933983500659
 30
0.0
 40
1.0
100
AcDbArc
 50
0.0
 51
79.99956533742575
  0
ARC
  5
12FD
330
2
100
AcDbEntity
  8
PHAS
  6
SEKKEI_P_S
100
AcDbCircle
 10
333.2033078096992
 20
361.1516429430514
 30
0.0
 40
3.0
100
AcDbArc
 50
180.0
 51
268.9999999999982
  0
LINE
  5
12FE
330
2
100
AcDbEntity
  8
PHAS
  6
SEKKEI_P_S
100
AcDbLine
 10
318.6350295661868
 20
368.572381581129
 30
0.0
 11
329.3769634584013
 21
366.6782047857042
 31
0.0
  0
ARC
  5
12FF
330
2
100
AcDbEntity
  8
PHAS
  6
SEKKEI_P_S
100
AcDbCircle
 10
319.5033078096989
 20
373.4964137593189
 30
0.0
 40
5.0
100
AcDbArc
 50
180.0
 51
259.9995653374257
  0
LINE
  5
1300
330
2
100
AcDbEntity
  8
PHAS
  6
SEKKEI_P_S
100
AcDbLine
 10
340.0033078096985
 20
415.0324915174071
 30
0.0
 11
333.1509505903873
 21
414.9128831772333
 31
0.0
  0
ARC
  5
1301
330
2
100
AcDbEntity
  8
PHAS
  6
SEKKEI_P_S
100
AcDbCircle
 10
329.1969616469387
 20
407.3704411461851
 30
0.0
 40
1.0
100
AcDbArc
 50
280.0004346625742
 51
0.0
  0
ARC
  5
1302
330
2
100
AcDbEntity
  8
PHAS
  6
SEKKEI_P_S
100
AcDbCircle
 10
319.5033078096989
 20
399.5685692754961
 30
0.0
 40
5.0
100
AcDbArc
 50
100.0004346625742
 51
180.0
  0
LINE
  5
1303
330
2
100
AcDbEntity
  8
PHAS
  6
SEKKEI_P_S
100
AcDbLine
 10
318.6350295661868
 20
404.4926014536851
 30
0.0
 11
329.3769634584013
 21
406.3867782491108
 31
0.0
  0
ARC
  5
1304
330
2
100
AcDbEntity
  8
PHAS
  6
SEKKEI_P_S
100
AcDbCircle
 10
333.2033078097006
 20
411.9133400917627
 30
0.0
 40
3.0
100
AcDbArc
 50
91.00000000000177
 51
180.0
  0
LINE
  5
1340
330
2
100
AcDbEntity
  8
CENTER
100
AcDbLine
 10
944.3887453303391
 20
437.3143198226371
 30
0.0
 11
944.3887453303387
 21
335.7477543219246
 31
0.0
  0
LINE
  5
1341
330
2
100
AcDbEntity
  8
0
100
AcDbLine
 10
906.3887453303401
 20
421.5324915174059
 30
0.0
 11
906.3887453303401
 21
351.5324915174059
 31
0.0
  0
LINE
  5
1342
330
2
100
AcDbEntity
  8
0
100
AcDbLine
 10
911.3887453303396
 20
427.0263331855421
 30
0.0
 11
911.38874533034
 21
346.0357409590196
 31
0.0
  0
LINE
  5
1343
330
2
100
AcDbEntity
  8
0
100
AcDbLine
 10
911.3887453303391
 20
351.5324915174059
 30
0.0
 11
906.3887453303392
 21
351.5324915174059
 31
0.0
  0
LINE
  5
1344
330
2
100
AcDbEntity
  8
0
100
AcDbLine
 10
911.3887453303391
 20
421.5324915174059
 30
0.0
 11
906.3887453303392
 21
421.5324915174059
 31
0.0
  0
LINE
  5
1345
330
2
100
AcDbEntity
  8
0
100
AcDbLine
 10
969.38874533034
 20
427.5324915174059
 30
0.0
 11
969.38874533034
 21
417.6292657109551
 31
0.0
  0
LINE
  5
1346
330
2
100
AcDbEntity
  8
0
100
AcDbLine
 10
969.38874533034
 20
427.5324915174059
 30
0.0
 11
911.3887453303396
 21
427.0263331855421
 31
0.0
  0
LINE
  5
1347
330
2
100
AcDbEntity
  8
0
100
AcDbLine
 10
969.38874533034
 20
345.5295826271557
 30
0.0
 11
911.38874533034
 21
346.0357409590196
 31
0.0
  0
LINE
  5
1348
330
2
100
AcDbEntity
  8
0
100
AcDbLine
 10
969.38874533034
 20
355.4357173238585
 30
0.0
 11
969.38874533034
 21
345.5295826271557
 31
0.0
  0
LINE
  5
1349
330
2
100
AcDbEntity
  8
0
100
AcDbLine
 10
969.38874533034
 20
427.5324915174059
 30
0.0
 11
969.38874533034
 21
417.6292657109551
 31
0.0
  0
LINE
  5
134A
330
2
100
AcDbEntity
  8
0
100
AcDbLine
 10
969.38874533034
 20
355.4357173238585
 30
0.0
 11
969.38874533034
 21
345.5295826271557
 31
0.0
  0
ARC
  5
134B
330
2
100
AcDbEntity
  8
0
100
AcDbCircle
 10
904.3887453303399
 20
356.1471439643991
 30
0.0
 40
2.0
100
AcDbArc
 50
0.0
 51
87.99999999999636
  0
ARC
  5
134C
330
2
100
AcDbEntity
  8
0
100
AcDbCircle
 10
895.3887453303396
 20
360.4638690670198
 30
0.0
 40
2.0
100
AcDbArc
 50
180.0
 51
267.9999999999963
  0
ARC
  5
134D
330
2
100
AcDbEntity
  8
0
100
AcDbCircle
 10
904.3887453303399
 20
416.9178390704109
 30
0.0
 40
2.0
100
AcDbArc
 50
272.0000000000036
 51
0.0
  0
ARC
  5
134E
330
2
100
AcDbEntity
  8
0
100
AcDbCircle
 10
895.3887453303391
 20
412.6011139677902
 30
0.0
 40
2.0
100
AcDbArc
 50
92.00000000000365
 51
180.0
  0
LINE
  5
134F
330
2
100
AcDbEntity
  8
0
100
AcDbLine
 10
895.3189463369344
 20
358.4650874129819
 30
0.0
 11
904.4585443237451
 21
358.145925618437
 31
0.0
  0
LINE
  5
1350
330
2
100
AcDbEntity
  8
0
100
AcDbLine
 10
895.3189463369339
 20
414.5998956218281
 30
0.0
 11
904.4585443237451
 21
414.919057416373
 31
0.0
  0
LINE
  5
1351
330
2
100
AcDbEntity
  8
0
100
AcDbLine
 10
893.3887453303386
 20
412.6011139677902
 30
0.0
 11
893.38874533034
 21
360.4638690670198
 31
0.0
  0
LINE
  5
1352
330
2
100
AcDbEntity
  8
0
100
AcDbLine
 10
969.38874533034
 20
354.5368549512967
 30
0.0
 11
915.3712922593426
 21
355.0082581226433
 31
0.0
  0
LINE
  5
1353
330
2
100
AcDbEntity
  8
0
100
AcDbLine
 10
969.38874533034
 20
418.5281280835132
 30
0.0
 11
942.4803391982905
 21
418.2933019807395
 31
0.0
  0
LINE
  5
1354
330
2
100
AcDbEntity
  8
0
100
AcDbLine
 10
944.3887453303391
 20
355.0324915174059
 30
0.0
 11
916.3403645261842
 21
355.4848847561842
 31
0.0
  0
LINE
  5
1355
330
2
100
AcDbEntity
  8
0
100
AcDbLine
 10
944.3887453303391
 20
418.0324915174059
 30
0.0
 11
972.4371261344936
 21
417.5800982786294
 31
0.0
  0
LINE
  5
1356
330
2
100
AcDbEntity
  8
0
100
AcDbLine
 10
916.3403645261846
 20
417.5800982786294
 30
0.0
 11
925.0693589154552
 21
417.7208885107143
 31
0.0
  0
LINE
  5
1357
330
2
100
AcDbEntity
  8
0
100
AcDbLine
 10
972.4371261344936
 20
355.4848847561842
 30
0.0
 11
944.3887453303391
 21
355.0324915174059
 31
0.0
  0
LINE
  5
1358
330
2
100
AcDbEntity
  8
0
100
AcDbLine
 10
913.388745330339
 20
416.0568010660425
 30
0.0
 11
913.3887453303396
 21
415.0669797950525
 31
0.0
  0
ARC
  5
1359
330
2
100
AcDbEntity
  8
0
100
AcDbCircle
 10
972.388745330339
 20
414.5804884210337
 30
0.0
 40
3.0
100
AcDbArc
 50
44.35180024509527
 51
89.07595464723311
  0
ARC
  5
135A
330
2
100
AcDbEntity
  8
0
100
AcDbCircle
 10
972.388745330339
 20
358.48449461378
 30
0.0
 40
3.0
100
AcDbArc
 50
270.9240453527669
 51
315.6481997505097
  0
ARC
  5
135B
330
2
100
AcDbEntity
  8
0
100
AcDbCircle
 10
916.3887453303392
 20
358.48449461378
 30
0.0
 40
3.0
100
AcDbArc
 50
224.3518002371314
 51
269.075954647207
  0
ARC
  5
135C
330
2
100
AcDbEntity
  8
0
100
AcDbCircle
 10
916.3887453303392
 20
414.5804884210337
 30
0.0
 40
3.0
100
AcDbArc
 50
90.9240453527669
 51
135.6481997672448
  0
ARC
  5
135D
330
2
100
AcDbEntity
  8
0
100
AcDbCircle
 10
915.3887453303392
 20
416.0568010660425
 30
0.0
 40
2.0
100
AcDbArc
 50
90.49999999999155
 51
180.0
  0
ARC
  5
135E
330
2
100
AcDbEntity
  8
0
100
AcDbCircle
 10
915.3887453303392
 20
357.0081819687711
 30
0.0
 40
2.0
100
AcDbArc
 50
180.0
 51
269.5000000000084
  0
LINE
  5
135F
330
2
100
AcDbEntity
  8
0
100
AcDbLine
 10
912.3887453303391
 20
350.5324915174059
 30
0.0
 11
969.38874533034
 21
350.5324915174059
 31
0.0
  0
LINE
  5
1360
330
2
100
AcDbEntity
  8
0
100
AcDbLine
 10
912.3887453303396
 20
422.5324915174059
 30
0.0
 11
969.38874533034
 21
422.5324915174059
 31
0.0
  0
LINE
  5
1361
330
2
100
AcDbEntity
  8
0
100
AcDbLine
 10
986.6887453303393
 20
360.0324915174059
 30
0.0
 11
984.3887453303414
 21
360.0324915174059
 31
0.0
  0
LINE
  5
1362
330
2
100
AcDbEntity
  8
0
100
AcDbLine
 10
990.3887453303392
 20
360.0324915174041
 30
0.0
 11
991.3887453303395
 21
360.6098417865941
 31
0.0
  0
LINE
  5
1363
330
2
100
AcDbEntity
  8
0
100
AcDbLine
 10
988.6887453303392
 20
360.7324915174048
 30
0.0
 11
987.0887453303394
 21
360.7324915174048
 31
0.0
  0
LINE
  5
1364
330
2
100
AcDbEntity
  8
0
100
AcDbLine
 10
986.8887453303392
 20
360.2324915174048
 30
0.0
 11
986.6887453303393
 21
360.0324915174059
 31
0.0
  0
LINE
  5
1365
330
2
100
AcDbEntity
  8
0
100
AcDbLine
 10
988.8887453303391
 20
360.2324915174048
 30
0.0
 11
988.8887453303391
 21
412.8324915174052
 31
0.0
  0
LINE
  5
1366
330
2
100
AcDbEntity
  8
0
100
AcDbLine
 10
990.3887453303392
 20
360.0324915174041
 30
0.0
 11
989.0887453303394
 21
360.0324915174059
 31
0.0
  0
LINE
  5
1367
330
2
100
AcDbEntity
  8
0
100
AcDbLine
 10
986.688745330341
 20
413.0324915174059
 30
0.0
 11
984.3887453303414
 21
413.0324915174059
 31
0.0
  0
LINE
  5
1368
330
2
100
AcDbEntity
  8
0
100
AcDbLine
 10
983.3887453303409
 20
407.0324915174078
 30
0.0
 11
983.3887453303409
 21
366.0324915174041
 31
0.0
  0
LINE
  5
1369
330
2
100
AcDbEntity
  8
0
100
AcDbLine
 10
981.8887453303446
 20
346.6328885753846
 30
0.0
 11
981.8887453303446
 21
356.0324915174041
 31
0.0
  0
LINE
  5
136A
330
2
100
AcDbEntity
  8
0
100
AcDbLine
 10
981.8887453303446
 20
366.0324915174041
 30
0.0
 11
981.8887453303446
 21
407.0324915174078
 31
0.0
  0
LINE
  5
136B
330
2
100
AcDbEntity
  8
0
100
AcDbLine
 10
981.8887453303441
 20
417.0324915174077
 30
0.0
 11
981.8887453303441
 21
426.4320944594254
 31
0.0
  0
ARC
  5
136C
330
2
100
AcDbEntity
  8
0
100
AcDbCircle
 10
980.8887453303446
 20
346.6328885753846
 30
0.0
 40
1.0
100
AcDbArc
 50
270.5000000000175
 51
0.0
  0
LINE
  5
136D
330
2
100
AcDbEntity
  8
0
100
AcDbLine
 10
982.8887453303464
 20
366.0324915174041
 30
0.0
 11
982.8887453303464
 21
407.0324915174078
 31
0.0
  0
LINE
  5
136E
330
2
100
AcDbEntity
  8
0
100
AcDbLine
 10
991.3887453303432
 20
360.6098417865959
 30
0.0
 11
991.3887453303441
 21
412.4551412482141
 31
0.0
  0
LINE
  5
136F
330
2
100
AcDbEntity
  8
0
100
AcDbLine
 10
990.3887453303413
 20
413.0324915174059
 30
0.0
 11
989.0887453303411
 21
413.0324915174059
 31
0.0
  0
LINE
  5
1370
330
2
100
AcDbEntity
  8
0
100
AcDbLine
 10
986.8887453303409
 20
412.8324915174052
 30
0.0
 11
986.688745330341
 21
413.0324915174059
 31
0.0
  0
LINE
  5
1371
330
2
100
AcDbEntity
  8
0
100
AcDbLine
 10
986.8887453303409
 20
412.8324915174052
 30
0.0
 11
986.8887453303809
 21
360.2324915174467
 31
0.0
  0
LINE
  5
1372
330
2
100
AcDbEntity
  8
0
100
AcDbLine
 10
988.6887453303412
 20
412.332491517407
 30
0.0
 11
987.0887453303412
 21
412.3324915174052
 31
0.0
  0
LINE
  5
1373
330
2
100
AcDbEntity
  8
0
100
AcDbLine
 10
990.388745330341
 20
413.0324915174059
 30
0.0
 11
991.3887453303415
 21
412.4551412482159
 31
0.0
  0
LINE
  5
1374
330
2
100
AcDbEntity
  8
0
100
AcDbLine
 10
969.3887453303423
 20
427.5324915174059
 30
0.0
 11
969.3887453303418
 21
417.6292657109551
 31
0.0
  0
LINE
  5
1375
330
2
100
AcDbEntity
  8
0
100
AcDbLine
 10
969.3887453303382
 20
355.4357173238585
 30
0.0
 11
969.3887453303373
 21
345.5324915174059
 31
0.0
  0
LINE
  5
1376
330
2
100
AcDbEntity
  8
0
100
AcDbLine
 10
976.8887453303419
 20
417.4757287983829
 30
0.0
 11
976.888745330341
 21
405.5543277260766
 31
0.0
  0
LINE
  5
1377
330
2
100
AcDbEntity
  8
0
100
AcDbLine
 10
979.8887453303418
 20
417.4495481950106
 30
0.0
 11
979.8887453303418
 21
417.0324915174077
 31
0.0
  0
LINE
  5
1378
330
2
100
AcDbEntity
  8
0
100
AcDbLine
 10
979.8887453303414
 20
407.0324915174078
 30
0.0
 11
979.8887453303386
 21
366.0324915174041
 31
0.0
  0
LINE
  5
1379
330
2
100
AcDbEntity
  8
0
100
AcDbLine
 10
979.8887453303382
 20
356.0324915174041
 30
0.0
 11
979.8887453303382
 21
355.6154348398012
 31
0.0
  0
ARC
  5
137A
330
2
100
AcDbEntity
  8
0
100
AcDbCircle
 10
978.8887453303383
 20
355.6154348398012
 30
0.0
 40
1.0
100
AcDbArc
 50
270.4999999999915
 51
0.0
  0
LINE
  5
137B
330
2
100
AcDbEntity
  8
0
100
AcDbLine
 10
969.3887453303373
 20
345.5324915174059
 30
0.0
 11
980.8974718658427
 21
345.6329266523206
 31
0.0
  0
ARC
  5
137C
330
2
100
AcDbEntity
  8
0
100
AcDbCircle
 10
989.0887453303411
 20
412.8324915174052
 30
0.0
 40
0.2
100
AcDbArc
 50
90.0
 51
180.0
  0
ARC
  5
137D
330
2
100
AcDbEntity
  8
0
100
AcDbCircle
 10
988.6887453303412
 20
412.532491517406
 30
0.0
 40
0.2
100
AcDbArc
 50
270.0
 51
0.0
  0
ARC
  5
137E
330
2
100
AcDbEntity
  8
0
100
AcDbCircle
 10
987.0887453303412
 20
412.532491517406
 30
0.0
 40
0.2
100
AcDbArc
 50
180.0
 51
270.0
  0
ARC
  5
137F
330
2
100
AcDbEntity
  8
0
100
AcDbCircle
 10
989.0887453303394
 20
360.2324915174048
 30
0.0
 40
0.2
100
AcDbArc
 50
180.0
 51
269.9999999999739
  0
ARC
  5
1380
330
2
100
AcDbEntity
  8
0
100
AcDbCircle
 10
988.6887453303392
 20
360.5324915174041
 30
0.0
 40
0.2
100
AcDbArc
 50
0.0
 51
89.99999999997395
  0
ARC
  5
1381
330
2
100
AcDbEntity
  8
0
100
AcDbCircle
 10
987.0887453303394
 20
360.5324915174059
 30
0.0
 40
0.2
100
AcDbArc
 50
89.99999999997395
 51
180.0
  0
LINE
  5
1382
330
2
100
AcDbEntity
  8
0
100
AcDbLine
 10
990.3887453303392
 20
360.0324915174041
 30
0.0
 11
990.3887453303413
 21
413.0324915174059
 31
0.0
  0
LINE
  5
1383
330
2
100
AcDbEntity
  8
0
100
AcDbLine
 10
986.688745330341
 20
413.0324915174059
 30
0.0
 11
986.6887453303393
 21
360.0324915174059
 31
0.0
  0
ARC
  5
1384
330
2
100
AcDbEntity
  8
0
100
AcDbCircle
 10
980.8887453303446
 20
426.4320944594254
 30
0.0
 40
1.0
100
AcDbArc
 50
0.0
 51
89.49999999998238
  0
LINE
  5
1385
330
2
100
AcDbEntity
  8
0
100
AcDbLine
 10
969.3887453303423
 20
427.5324915174059
 30
0.0
 11
980.8974718658427
 21
427.4320563824893
 31
0.0
  0
LINE
  5
1386
330
2
100
AcDbEntity
  8
0
100
AcDbLine
 10
969.3887453303418
 20
418.5324915174077
 30
0.0
 11
978.8974718658401
 21
418.4495101180745
 31
0.0
  0
ARC
  5
1387
330
2
100
AcDbEntity
  8
0
100
AcDbCircle
 10
975.8887453303419
 20
417.4757287983829
 30
0.0
 40
1.0
100
AcDbArc
 50
0.0
 51
89.50000000000846
  0
ARC
  5
1388
330
2
100
AcDbEntity
  8
0
100
AcDbCircle
 10
978.8887453303418
 20
417.4495481950106
 30
0.0
 40
1.0
100
AcDbArc
 50
0.0
 51
89.50000000000846
  0
LINE
  5
1389
330
2
100
AcDbEntity
  8
0
100
AcDbLine
 10
969.3887453303418
 20
354.5324915174041
 30
0.0
 11
978.8974718658364
 21
354.6154729167373
 31
0.0
  0
LINE
  5
138A
330
2
100
AcDbEntity
  8
0
100
AcDbLine
 10
977.384382062592
 20
405.0543467645456
 30
0.0
 11
978.8974718658396
 21
405.0411422298766
 31
0.0
  0
ARC
  5
138B
330
2
100
AcDbEntity
  8
0
100
AcDbCircle
 10
977.3887453303409
 20
405.5543277260766
 30
0.0
 40
0.5
100
AcDbArc
 50
180.0
 51
269.4999999999824
  0
ARC
  5
138C
330
2
100
AcDbEntity
  8
0
100
AcDbCircle
 10
978.8887453303409
 20
404.0411803068127
 30
0.0
 40
1.0
100
AcDbArc
 50
0.0
 51
89.50000000000846
  0
LINE
  5
138D
330
2
100
AcDbEntity
  8
0
100
AcDbLine
 10
976.8887453303419
 20
355.5892542364289
 30
0.0
 11
976.888745330341
 21
367.5106553087334
 31
0.0
  0
ARC
  5
138E
330
2
100
AcDbEntity
  8
0
100
AcDbCircle
 10
975.8887453303419
 20
355.5892542364289
 30
0.0
 40
1.0
100
AcDbArc
 50
270.4999999999915
 51
0.0
  0
LINE
  5
138F
330
2
100
AcDbEntity
  8
0
100
AcDbLine
 10
977.384382062592
 20
368.0106362702662
 30
0.0
 11
978.8974718658396
 21
368.0238408049353
 31
0.0
  0
ARC
  5
1390
330
2
100
AcDbEntity
  8
0
100
AcDbCircle
 10
977.3887453303409
 20
367.5106553087334
 30
0.0
 40
0.5
100
AcDbArc
 50
90.50000000001761
 51
180.0
  0
ARC
  5
1391
330
2
100
AcDbEntity
  8
0
100
AcDbCircle
 10
978.8887453303409
 20
369.0238027279992
 30
0.0
 40
1.0
100
AcDbArc
 50
270.4999999999915
 51
0.0
  0
LINE
  5
1392
330
2
100
AcDbEntity
  8
0
100
AcDbLine
 10
983.9887453303413
 20
407.0324915174078
 30
0.0
 11
984.3887453303414
 21
407.725311840435
 31
0.0
  0
LINE
  5
1393
330
2
100
AcDbEntity
  8
0
100
AcDbLine
 10
978.3887453303414
 20
407.0324915174078
 30
0.0
 11
978.3887453303414
 21
417.0324915174077
 31
0.0
  0
LINE
  5
1394
330
2
100
AcDbEntity
  8
0
100
AcDbLine
 10
983.9887453303413
 20
407.0324915174078
 30
0.0
 11
983.9887453303413
 21
417.0324915174077
 31
0.0
  0
LINE
  5
1395
330
2
100
AcDbEntity
  8
0
100
AcDbLine
 10
976.8887453303413
 20
407.0324915174078
 30
0.0
 11
983.9887453303413
 21
407.0324915174078
 31
0.0
  0
LINE
  5
1396
330
2
100
AcDbEntity
  8
0
100
AcDbLine
 10
976.8887453303413
 20
417.0324915174077
 30
0.0
 11
983.9887453303413
 21
417.0324915174077
 31
0.0
  0
LINE
  5
1397
330
2
100
AcDbEntity
  8
0
100
AcDbLine
 10
983.9887453303413
 20
417.0324915174077
 30
0.0
 11
984.3887453303414
 21
416.3396711943804
 31
0.0
  0
LINE
  5
1398
330
2
100
AcDbEntity
  8
0
100
AcDbLine
 10
984.3887453303414
 20
407.725311840435
 30
0.0
 11
984.3887453303414
 21
416.3396711943804
 31
0.0
  0
LINE
  5
1399
330
2
100
AcDbEntity
  8
0
100
AcDbLine
 10
976.8887453303413
 20
417.0324915174077
 30
0.0
 11
976.8887453303413
 21
407.0324915174078
 31
0.0
  0
LINE
  5
139A
330
2
100
AcDbEntity
  8
0
100
AcDbLine
 10
983.9887453303413
 20
366.0324915174041
 30
0.0
 11
984.3887453303414
 21
365.3396711943768
 31
0.0
  0
LINE
  5
139B
330
2
100
AcDbEntity
  8
0
100
AcDbLine
 10
978.3887453303414
 20
366.0324915174041
 30
0.0
 11
978.3887453303414
 21
356.0324915174041
 31
0.0
  0
LINE
  5
139C
330
2
100
AcDbEntity
  8
0
100
AcDbLine
 10
983.9887453303413
 20
366.0324915174041
 30
0.0
 11
983.9887453303413
 21
356.0324915174041
 31
0.0
  0
LINE
  5
139D
330
2
100
AcDbEntity
  8
0
100
AcDbLine
 10
976.8887453303413
 20
366.0324915174041
 30
0.0
 11
983.9887453303413
 21
366.0324915174041
 31
0.0
  0
LINE
  5
139E
330
2
100
AcDbEntity
  8
0
100
AcDbLine
 10
976.8887453303413
 20
356.0324915174041
 30
0.0
 11
983.9887453303413
 21
356.0324915174041
 31
0.0
  0
LINE
  5
139F
330
2
100
AcDbEntity
  8
0
100
AcDbLine
 10
983.9887453303413
 20
356.0324915174041
 30
0.0
 11
984.3887453303414
 21
356.7253118404313
 31
0.0
  0
LINE
  5
13A0
330
2
100
AcDbEntity
  8
0
100
AcDbLine
 10
984.3887453303414
 20
365.3396711943768
 30
0.0
 11
984.3887453303414
 21
356.7253118404313
 31
0.0
  0
LINE
  5
13A1
330
2
100
AcDbEntity
  8
CENTER
  6
CENS
100
AcDbLine
 10
987.3887453303419
 20
412.0324915174077
 30
0.0
 11
966.3887453303363
 21
412.0324915174077
 31
0.0
  0
LINE
  5
13A2
330
2
100
AcDbEntity
  8
CENTER
  6
CENS
100
AcDbLine
 10
987.3887453303414
 20
361.0324915174041
 30
0.0
 11
966.388745330336
 21
361.0324915174041
 31
0.0
  0
LINE
  5
13A3
330
2
100
AcDbEntity
  8
CENTER
100
AcDbLine
 10
1003.388745330339
 20
386.5324915174059
 30
0.0
 11
870.3887453303391
 21
386.5324915174059
 31
0.0
  0
LINE
  5
13A4
330
2
100
AcDbEntity
  8
0
100
AcDbLine
 10
880.388745330339
 20
372.0325375174051
 30
0.0
 11
880.388745330339
 21
401.0325375174069
 31
0.0
  0
LINE
  5
13A5
330
2
100
AcDbEntity
  8
0
100
AcDbLine
 10
993.3887453303391
 20
372.0325375174051
 30
0.0
 11
993.3887453303391
 21
401.0325375174069
 31
0.0
  0
LINE
  5
13A6
330
2
100
AcDbEntity
  8
0
100
AcDbLine
 10
991.3887453303427
 20
401.0325375174069
 30
0.0
 11
993.3887453303391
 21
401.0325375174069
 31
0.0
  0
LINE
  5
13A7
330
2
100
AcDbEntity
  8
0
 48
0.5
100
AcDbLine
 10
893.3887453303391
 20
401.0325375174069
 30
0.0
 11
880.388745330339
 21
401.0325375174069
 31
0.0
  0
LINE
  5
13A8
330
2
100
AcDbEntity
  8
0
100
AcDbLine
 10
991.3887453303436
 20
372.0325375174051
 30
0.0
 11
993.3887453303391
 21
372.0325375174051
 31
0.0
  0
LINE
  5
13A9
330
2
100
AcDbEntity
  8
0
 48
0.5
100
AcDbLine
 10
893.3887453303396
 20
372.0325375174051
 30
0.0
 11
880.388745330339
 21
372.0325375174051
 31
0.0
  0
LINE
  5
13AA
330
2
100
AcDbEntity
  8
0
100
AcDbLine
 10
984.2774204649385
 20
416.5324915174041
 30
0.0
 11
984.3887453303455
 21
416.7253118404341
 31
0.0
  0
LINE
  5
13AB
330
2
100
AcDbEntity
  8
0
100
AcDbLine
 10
983.9887453303454
 20
416.0324915174069
 30
0.0
 11
983.9887453303454
 21
426.0324915174068
 31
0.0
  0
LINE
  5
13AC
330
2
100
AcDbEntity
  8
0
100
AcDbLine
 10
981.8887453303441
 20
426.0324915174068
 30
0.0
 11
983.9887453303454
 21
426.0324915174068
 31
0.0
  0
LINE
  5
13AD
330
2
100
AcDbEntity
  8
0
100
AcDbLine
 10
983.9887453303454
 20
426.0324915174068
 30
0.0
 11
984.3887453303455
 21
425.3396711943795
 31
0.0
  0
LINE
  5
13AE
330
2
100
AcDbEntity
  8
0
100
AcDbLine
 10
984.3887453303455
 20
416.7253118404341
 30
0.0
 11
984.3887453303455
 21
425.3396711943795
 31
0.0
  0
LINE
  5
13AF
330
2
100
AcDbEntity
  8
0
100
AcDbLine
 10
984.2774204649391
 20
356.5324915174095
 30
0.0
 11
984.3887453303455
 21
356.3396711943795
 31
0.0
  0
LINE
  5
13B0
330
2
100
AcDbEntity
  8
0
100
AcDbLine
 10
983.9887453303454
 20
357.0324915174068
 30
0.0
 11
983.9887453303454
 21
347.0324915174068
 31
0.0
  0
LINE
  5
13B1
330
2
100
AcDbEntity
  8
0
100
AcDbLine
 10
981.8887453303446
 20
347.0324915174068
 30
0.0
 11
983.9887453303454
 21
347.0324915174068
 31
0.0
  0
LINE
  5
13B2
330
2
100
AcDbEntity
  8
0
100
AcDbLine
 10
983.9887453303454
 20
347.0324915174068
 30
0.0
 11
984.3887453303455
 21
347.7253118404341
 31
0.0
  0
LINE
  5
13B3
330
2
100
AcDbEntity
  8
0
100
AcDbLine
 10
984.3887453303455
 20
356.3396711943795
 30
0.0
 11
984.3887453303455
 21
347.7253118404341
 31
0.0
  0
LINE
  5
13B4
330
2
100
AcDbEntity
  8
CENTER
  6
CENS
100
AcDbLine
 10
988.9674132404412
 20
421.0324915174068
 30
0.0
 11
964.4045595640596
 21
421.0324915174068
 31
0.0
  0
LINE
  5
13B5
330
2
100
AcDbEntity
  8
CENTER
  6
CENS
100
AcDbLine
 10
988.9674132404415
 20
352.0324915174068
 30
0.0
 11
964.40455956406
 21
352.0324915174068
 31
0.0
  0
CIRCLE
  5
13B6
330
2
100
AcDbEntity
  8
HIDS
100
AcDbCircle
 10
944.3887453303496
 20
386.5324915174032
 30
0.0
 40
30.0
  0
LINE
  5
13B7
330
2
100
AcDbEntity
  8
0
100
AcDbLine
 10
914.4615098927546
 20
361.5179471280634
 30
0.0
 11
914.38874533035
 21
386.5324915174032
 31
0.0
  0
LINE
  5
13B8
330
2
100
AcDbEntity
  8
0
100
AcDbLine
 10
974.3159807679454
 20
361.5179471280625
 30
0.0
 11
974.38874533035
 21
386.5324915174032
 31
0.0
  0
LINE
  5
13B9
330
2
100
AcDbEntity
  8
0
100
AcDbLine
 10
975.4363520915731
 20
358.4841107132478
 30
0.0
 11
975.8887453303483
 21
386.5324915174059
 31
0.0
  0
LINE
  5
13BA
330
2
100
AcDbEntity
  8
0
100
AcDbLine
 10
913.341138569126
 20
358.4841107132478
 30
0.0
 11
912.8887453303509
 21
386.5324915174059
 31
0.0
  0
CIRCLE
  5
13BB
330
2
100
AcDbEntity
  8
0
100
AcDbCircle
 10
944.3887453303496
 20
386.5324915174032
 30
0.0
 40
25.00000000345432
  0
LINE
  5
13BC
330
2
100
AcDbEntity
  8
0
100
AcDbLine
 10
919.4614887387839
 20
356.5324915174032
 30
0.0
 11
969.3160019219162
 21
356.5324915174032
 31
0.0
  0
LINE
  5
13BD
330
2
100
AcDbEntity
  8
0
100
AcDbLine
 10
916.3407484267226
 20
355.5324915174032
 30
0.0
 11
972.4367422339765
 21
355.5324915174032
 31
0.0
  0
ARC
  5
13BE
330
2
100
AcDbEntity
  8
0
100
AcDbCircle
 10
919.4614887387839
 20
361.5324915174032
 30
0.0
 40
5.0
100
AcDbArc
 50
180.166666660018
 51
270.0
  0
ARC
  5
13BF
330
2
100
AcDbEntity
  8
0
100
AcDbCircle
 10
916.3407484267226
 20
358.5324915174032
 30
0.0
 40
3.0
100
AcDbArc
 50
180.9240453527669
 51
270.0
  0
ARC
  5
13C0
330
2
100
AcDbEntity
  8
0
100
AcDbCircle
 10
969.3160019219162
 20
361.5324915174032
 30
0.0
 40
5.0
100
AcDbArc
 50
270.0
 51
359.833333340008
  0
ARC
  5
13C1
330
2
100
AcDbEntity
  8
0
100
AcDbCircle
 10
972.4367422339765
 20
358.5324915174032
 30
0.0
 40
3.0
100
AcDbArc
 50
270.0
 51
359.0759546472331
  0
LINE
  5
13C2
330
2
100
AcDbEntity
  8
HIDS
100
AcDbLine
 10
964.4230461944312
 20
358.4975867045276
 30
0.0
 11
964.5021747306168
 21
363.0308575064872
 31
0.0
  0
ARC
  5
13C3
330
2
100
AcDbEntity
  8
HIDS
100
AcDbCircle
 10
962.4233508041184
 20
358.5324915174032
 30
0.0
 40
2.0
100
AcDbArc
 50
270.0
 51
358.9999999999721
  0
ARC
  5
13C4
330
2
100
AcDbEntity
  8
HIDS
100
AcDbCircle
 10
967.501717816086
 20
362.9785002871757
 30
0.0
 40
3.0
100
AcDbArc
 50
134.4585514346996
 51
178.9999999999982
  0
LINE
  5
13C5
330
2
100
AcDbEntity
  8
0
100
AcDbLine
 10
919.4614887387839
 20
416.5324915174032
 30
0.0
 11
969.3160019219162
 21
416.5324915174032
 31
0.0
  0
LINE
  5
13C6
330
2
100
AcDbEntity
  8
0
100
AcDbLine
 10
916.3407484267226
 20
417.5324915174032
 30
0.0
 11
925.0157619841434
 21
417.5324915174032
 31
0.0
  0
LINE
  5
13C7
330
2
100
AcDbEntity
  8
0
100
AcDbLine
 10
942.7617286765599
 20
417.5324915174032
 30
0.0
 11
972.4367422339765
 21
417.5324915174032
 31
0.0
  0
LINE
  5
13C8
330
2
100
AcDbEntity
  8
0
100
AcDbLine
 10
914.4615098927546
 20
411.547035906743
 30
0.0
 11
914.38874533035
 21
386.5324915174032
 31
0.0
  0
LINE
  5
13C9
330
2
100
AcDbEntity
  8
0
100
AcDbLine
 10
913.341138569126
 20
414.5808723215576
 30
0.0
 11
912.8887453303509
 21
386.5324915174059
 31
0.0
  0
LINE
  5
13CA
330
2
100
AcDbEntity
  8
HIDS
100
AcDbLine
 10
928.1387453303505
 20
416.5324915174032
 30
0.0
 11
928.3863134490271
 21
402.3493234974066
 31
0.0
  0
LINE
  5
13CB
330
2
100
AcDbEntity
  8
0
100
AcDbLine
 10
912.8887453303496
 20
386.5324915174032
 30
0.0
 11
914.3887453303495
 21
386.5324915173623
 31
0.0
  0
ARC
  5
13CC
330
2
100
AcDbEntity
  8
0
100
AcDbCircle
 10
919.4614887387839
 20
411.5324915174032
 30
0.0
 40
5.0
100
AcDbArc
 50
90.0
 51
179.8333333399819
  0
ARC
  5
13CD
330
2
100
AcDbEntity
  8
0
100
AcDbCircle
 10
916.3407484267226
 20
414.5324915174032
 30
0.0
 40
3.0
100
AcDbArc
 50
90.0
 51
179.075954647233
  0
LINE
  5
13CE
330
2
100
AcDbEntity
  8
HIDS
100
AcDbLine
 10
939.6387453303496
 20
416.5324915174032
 30
0.0
 11
939.4984437065046
 21
408.4946168705655
 31
0.0
  0
LINE
  5
13CF
330
2
100
AcDbEntity
  8
0
100
AcDbLine
 10
974.3159807679454
 20
411.547035906743
 30
0.0
 11
974.38874533035
 21
386.5324915174032
 31
0.0
  0
LINE
  5
13D0
330
2
100
AcDbEntity
  8
0
100
AcDbLine
 10
975.4363520915731
 20
414.5808723215576
 30
0.0
 11
975.8887453303483
 21
386.5324915174059
 31
0.0
  0
LINE
  5
13D1
330
2
100
AcDbEntity
  8
0
100
AcDbLine
 10
974.3887453303496
 20
386.5324915173895
 30
0.0
 11
975.8887453303495
 21
386.5324915174032
 31
0.0
  0
ARC
  5
13D2
330
2
100
AcDbEntity
  8
0
100
AcDbCircle
 10
969.3160019219162
 20
411.5324915174032
 30
0.0
 40
5.0
100
AcDbArc
 50
0.1666666599919691
 51
90.0
  0
ARC
  5
13D3
330
2
100
AcDbEntity
  8
0
100
AcDbCircle
 10
972.4367422339765
 20
414.5324915174032
 30
0.0
 40
3.0
100
AcDbArc
 50
0.9240453527669025
 51
90.0
  0
LINE
  5
13D4
330
2
100
AcDbEntity
  8
CENTER
100
AcDbLine
 10
919.6400079888203
 20
414.781228858932
 30
0.0
 11
919.6400079888203
 21
407.781228858932
 31
0.0
  0
LINE
  5
13D5
330
2
100
AcDbEntity
  8
CENTER
100
AcDbLine
 10
923.1400079888203
 20
411.281228858932
 30
0.0
 11
916.1400079888203
 21
411.281228858932
 31
0.0
  0
LINE
  5
13D6
330
2
100
AcDbEntity
  8
CENTER
100
AcDbLine
 10
916.1400079888208
 20
361.7837541758735
 30
0.0
 11
923.1400079888208
 21
361.7837541758735
 31
0.0
  0
LINE
  5
13D7
330
2
100
AcDbEntity
  8
CENTER
100
AcDbLine
 10
919.6400079888208
 20
365.2837541758735
 30
0.0
 11
919.6400079888208
 21
358.2837541758735
 31
0.0
  0
LINE
  5
13D8
330
2
100
AcDbEntity
  8
CENTER
100
AcDbLine
 10
969.1374826718789
 20
358.2837541758735
 30
0.0
 11
969.1374826718789
 21
365.2837541758735
 31
0.0
  0
LINE
  5
13D9
330
2
100
AcDbEntity
  8
CENTER
100
AcDbLine
 10
965.6374826718788
 20
361.7837541758735
 30
0.0
 11
972.6374826718789
 21
361.7837541758735
 31
0.0
  0
LINE
  5
13DA
330
2
100
AcDbEntity
  8
CENTER
100
AcDbLine
 10
972.6374826718789
 20
411.281228858932
 30
0.0
 11
965.6374826718788
 21
411.281228858932
 31
0.0
  0
LINE
  5
13DB
330
2
100
AcDbEntity
  8
CENTER
100
AcDbLine
 10
969.1374826718789
 20
407.781228858932
 30
0.0
 11
969.1374826718789
 21
414.781228858932
 31
0.0
  0
LINE
  5
13DC
330
2
100
AcDbEntity
  8
0
100
AcDbLine
 10
709.6196978701873
 20
661.0754215708611
 30
0.0
 11
709.6196978701864
 21
614.3354215708614
 31
0.0
  0
LINE
  5
13DD
330
2
100
AcDbEntity
  8
0
100
AcDbLine
 10
734.6196978701864
 20
640.7054215708622
 30
0.0
 11
734.6196978701864
 21
663.7054215708622
 31
0.0
  0
ARC
  5
13DE
330
2
100
AcDbEntity
  8
0
100
AcDbCircle
 10
738.6196978701864
 20
663.7054215708622
 30
0.0
 40
4.0
100
AcDbArc
 50
90.0
 51
180.0
  0
LINE
  5
13DF
330
2
100
AcDbEntity
  8
0
100
AcDbLine
 10
744.6196978701864
 20
667.7054215708622
 30
0.0
 11
714.1253926024146
 21
667.7054215708622
 31
0.0
  0
LINE
  5
13E0
330
2
100
AcDbEntity
  8
0
100
AcDbLine
 10
708.6196978701873
 20
668.7054215708622
 30
0.0
 11
701.6196978701864
 21
668.7054215708622
 31
0.0
  0
ARC
  5
13E1
330
2
100
AcDbEntity
  8
0
100
AcDbCircle
 10
711.2654491812518
 20
670.7054215708621
 30
0.0
 40
3.0
100
AcDbArc
 50
228.5903778907203
 51
241.2428429585925
  0
ARC
  5
13E2
330
2
100
AcDbEntity
  8
0
100
AcDbCircle
 10
708.6196978701873
 20
667.7054215708622
 30
0.0
 40
1.0
100
AcDbArc
 50
21.71561728325768
 51
90.0
  0
ARC
  5
13E3
330
2
100
AcDbEntity
  8
0
100
AcDbCircle
 10
738.6196978701864
 20
611.7054215708622
 30
0.0
 40
4.0
100
AcDbArc
 50
180.0
 51
270.0
  0
ARC
  5
13E4
330
2
100
AcDbEntity
  8
0
100
AcDbCircle
 10
731.6196978701864
 20
614.7054215708622
 30
0.0
 40
3.0
100
AcDbArc
 50
0.0
 51
90.0
  0
ARC
  5
13E5
330
2
100
AcDbEntity
  8
0
100
AcDbCircle
 10
731.6196978701864
 20
640.7054215708622
 30
0.0
 40
3.0
100
AcDbArc
 50
270.0
 51
0.0
  0
LINE
  5
13E6
330
2
100
AcDbEntity
  8
0
100
AcDbLine
 10
720.6196978701864
 20
620.7054215708621
 30
0.0
 11
720.6196978701864
 21
634.7054215708622
 31
0.0
  0
LINE
  5
13E7
330
2
100
AcDbEntity
  8
0
100
AcDbLine
 10
731.6196978701864
 20
637.7054215708621
 30
0.0
 11
723.6196978701864
 21
637.7054215708621
 31
0.0
  0
ARC
  5
13E8
330
2
100
AcDbEntity
  8
0
100
AcDbCircle
 10
723.6196978701864
 20
634.7054215708622
 30
0.0
 40
3.0
100
AcDbArc
 50
90.0
 51
180.0
  0
LINE
  5
13E9
330
2
100
AcDbEntity
  8
0
100
AcDbLine
 10
731.6196978701864
 20
617.7054215708622
 30
0.0
 11
723.6196978701864
 21
617.7054215708622
 31
0.0
  0
LINE
  5
13EA
330
2
100
AcDbEntity
  8
0
100
AcDbLine
 10
734.6196978701864
 20
611.7054215708622
 30
0.0
 11
734.6196978701864
 21
614.7054215708622
 31
0.0
  0
ARC
  5
13EB
330
2
100
AcDbEntity
  8
0
100
AcDbCircle
 10
723.6196978701864
 20
620.7054215708621
 30
0.0
 40
3.0
100
AcDbArc
 50
180.0
 51
270.0
  0
LINE
  5
13EC
330
2
100
AcDbEntity
  8
0
100
AcDbLine
 10
744.6196978701864
 20
607.7054215708622
 30
0.0
 11
714.1253926024151
 21
607.7054215708622
 31
0.0
  0
LINE
  5
13ED
330
2
100
AcDbEntity
  8
0
100
AcDbLine
 10
708.6196978701864
 20
606.7054215708622
 30
0.0
 11
701.6196978701864
 21
606.7054215708622
 31
0.0
  0
ARC
  5
13EE
330
2
100
AcDbEntity
  8
0
100
AcDbCircle
 10
711.2654491812508
 20
604.7054215708621
 30
0.0
 40
3.0
100
AcDbArc
 50
118.7571570414074
 51
131.4096221092842
  0
ARC
  5
13EF
330
2
100
AcDbEntity
  8
0
100
AcDbCircle
 10
708.6196978701864
 20
607.7054215708622
 30
0.0
 40
1.0
100
AcDbArc
 50
270.0
 51
338.2843827167423
  0
LINE
  5
13F0
330
2
100
AcDbEntity
  8
0
100
AcDbLine
 10
744.6196978701864
 20
607.7054215708622
 30
0.0
 11
744.6196978701864
 21
667.7054215708622
 31
0.0
  0
CIRCLE
  5
13F1
330
2
100
AcDbEntity
  8
CENTER
100
AcDbCircle
 10
944.3887453303496
 20
386.5324915174032
 30
0.0
 40
35.00000000000006
  0
LINE
  5
13F2
330
2
100
AcDbEntity
  8
CENTER
  6
CENS
100
AcDbLine
 10
719.1506802755648
 20
610.8354215708613
 30
0.0
 11
696.1507231859423
 21
610.8354215708613
 31
0.0
  0
LINE
  5
13F3
330
2
100
AcDbEntity
  8
0
100
AcDbLine
 10
710.2117730028148
 20
607.3354215708613
 30
0.0
 11
709.2117730028149
 21
607.3354215708613
 31
0.0
  0
LINE
  5
13F4
330
2
100
AcDbEntity
  8
0
100
AcDbLine
 10
709.2117730028149
 20
614.3354215708614
 30
0.0
 11
710.2117730028148
 21
614.3354215708614
 31
0.0
  0
LINE
  5
13F5
330
2
100
AcDbEntity
  8
0
100
AcDbLine
 10
710.2117730028148
 20
614.3354215708614
 30
0.0
 11
710.2117730028148
 21
607.3354215708613
 31
0.0
  0
LINE
  5
13F6
330
2
100
AcDbEntity
  8
0
100
AcDbLine
 10
714.2117730028148
 20
607.8550368131327
 30
0.0
 11
714.2117730028148
 21
613.8158063285909
 31
0.0
  0
LINE
  5
13F7
330
2
100
AcDbEntity
  8
0
100
AcDbLine
 10
713.9117730028146
 20
614.3354215708614
 30
0.0
 11
713.9117730028146
 21
607.3354215708613
 31
0.0
  0
LINE
  5
13F8
330
2
100
AcDbEntity
  8
0
100
AcDbLine
 10
713.9117730028146
 20
614.3354215708614
 30
0.0
 11
710.2117730028148
 21
614.3354215708614
 31
0.0
  0
LINE
  5
13F9
330
2
100
AcDbEntity
  8
0
100
AcDbLine
 10
713.9117730028146
 20
614.3354215708614
 30
0.0
 11
714.2117730028148
 21
613.8158063285909
 31
0.0
  0
LINE
  5
13FA
330
2
100
AcDbEntity
  8
0
100
AcDbLine
 10
714.2117730028148
 20
607.8550368131327
 30
0.0
 11
713.9117730028146
 21
607.3354215708613
 31
0.0
  0
LINE
  5
13FB
330
2
100
AcDbEntity
  8
0
100
AcDbLine
 10
710.2117730028148
 20
607.3354215708613
 30
0.0
 11
713.9117730028146
 21
607.3354215708613
 31
0.0
  0
LINE
  5
13FC
330
2
100
AcDbEntity
  8
0
100
AcDbLine
 10
709.2117730028149
 20
607.3354215708613
 30
0.0
 11
709.2117730028149
 21
614.3354215708614
 31
0.0
  0
LINE
  5
13FD
330
2
100
AcDbEntity
  8
0
100
AcDbLine
 10
709.2117730028149
 20
614.3354215708614
 30
0.0
 11
709.2117730028149
 21
607.3354215708613
 31
0.0
  0
LINE
  5
13FE
330
2
100
AcDbEntity
  8
CENTER
  6
CENS
100
AcDbLine
 10
719.1506802755648
 20
664.575421570862
 30
0.0
 11
696.1507231859423
 21
664.575421570862
 31
0.0
  0
LINE
  5
13FF
330
2
100
AcDbEntity
  8
0
100
AcDbLine
 10
710.2117730028148
 20
668.0754215708612
 30
0.0
 11
709.2117730028149
 21
668.0754215708612
 31
0.0
  0
LINE
  5
1400
330
2
100
AcDbEntity
  8
0
100
AcDbLine
 10
709.2117730028149
 20
661.0754215708611
 30
0.0
 11
710.2117730028148
 21
661.0754215708611
 31
0.0
  0
LINE
  5
1401
330
2
100
AcDbEntity
  8
0
100
AcDbLine
 10
710.2117730028148
 20
661.0754215708611
 30
0.0
 11
710.2117730028148
 21
668.0754215708612
 31
0.0
  0
LINE
  5
1402
330
2
100
AcDbEntity
  8
0
100
AcDbLine
 10
714.2117730028148
 20
667.5558063285907
 30
0.0
 11
714.2117730028148
 21
661.5950368131325
 31
0.0
  0
LINE
  5
1403
330
2
100
AcDbEntity
  8
0
100
AcDbLine
 10
713.9117730028146
 20
661.0754215708611
 30
0.0
 11
713.9117730028146
 21
668.0754215708612
 31
0.0
  0
LINE
  5
1404
330
2
100
AcDbEntity
  8
0
100
AcDbLine
 10
713.9117730028146
 20
661.0754215708611
 30
0.0
 11
710.2117730028148
 21
661.0754215708611
 31
0.0
  0
LINE
  5
1405
330
2
100
AcDbEntity
  8
0
100
AcDbLine
 10
713.9117730028146
 20
661.0754215708611
 30
0.0
 11
714.2117730028148
 21
661.5950368131325
 31
0.0
  0
LINE
  5
1406
330
2
100
AcDbEntity
  8
0
100
AcDbLine
 10
714.2117730028148
 20
667.5558063285907
 30
0.0
 11
713.9117730028146
 21
668.0754215708612
 31
0.0
  0
LINE
  5
1407
330
2
100
AcDbEntity
  8
0
100
AcDbLine
 10
710.2117730028148
 20
668.0754215708612
 30
0.0
 11
713.9117730028146
 21
668.0754215708612
 31
0.0
  0
LINE
  5
1408
330
2
100
AcDbEntity
  8
0
100
AcDbLine
 10
709.2117730028149
 20
668.0754215708612
 30
0.0
 11
709.2117730028149
 21
661.0754215708611
 31
0.0
  0
LINE
  5
1409
330
2
100
AcDbEntity
  8
0
100
AcDbLine
 10
709.2117730028149
 20
661.0754215708611
 30
0.0
 11
709.2117730028149
 21
668.0754215708612
 31
0.0
  0
LINE
  5
140B
330
2
100
AcDbEntity
  8
0
100
AcDbLine
 10
929.6578254676957
 20
385.7824915174059
 30
0.0
 11
933.8887453303518
 21
385.7824915174059
 31
0.0
  0
LINE
  5
140C
330
2
100
AcDbEntity
  8
0
100
AcDbLine
 10
929.6578254676957
 20
387.2824915174059
 30
0.0
 11
933.8887453303518
 21
387.2824915174059
 31
0.0
  0
LINE
  5
140D
330
2
100
AcDbEntity
  8
0
100
AcDbLine
 10
958.3887453303518
 20
387.2824915174059
 30
0.0
 11
958.3887453303518
 21
385.7824915174059
 31
0.0
  0
LINE
  5
140E
330
2
100
AcDbEntity
  8
0
100
AcDbLine
 10
951.3484507838894
 20
387.2824915174059
 30
0.0
 11
958.3887453303518
 21
387.2824915174059
 31
0.0
  0
LINE
  5
140F
330
2
100
AcDbEntity
  8
0
100
AcDbLine
 10
958.3887453303518
 20
385.7824915174059
 30
0.0
 11
951.3484507838883
 21
385.7824915174059
 31
0.0
  0
LINE
  5
1410
330
2
100
AcDbEntity
  8
HIDS
100
AcDbLine
 10
937.8887453303514
 20
399.7730541942718
 30
0.0
 11
937.8887453303514
 21
391.5324915174059
 31
0.0
  0
LINE
  5
1411
330
2
100
AcDbEntity
  8
HIDS
100
AcDbLine
 10
935.5554119970184
 20
376.9991581840721
 30
0.0
 11
935.5554119970184
 21
374.720009888967
 31
0.0
  0
LINE
  5
1412
330
2
100
AcDbEntity
  8
HIDS
100
AcDbLine
 10
935.8887453303514
 20
385.7824915174059
 30
0.0
 11
935.8887453303514
 21
374.477928066165
 31
0.0
  0
LINE
  5
1413
330
2
100
AcDbEntity
  8
HIDS
100
AcDbLine
 10
931.3887453303514
 20
391.5324915174059
 30
0.0
 11
931.3887453303514
 21
387.2824915174059
 31
0.0
  0
LINE
  5
1414
330
2
100
AcDbEntity
  8
HIDS
100
AcDbLine
 10
936.3887453303513
 20
391.5324915174059
 30
0.0
 11
936.3887453303513
 21
387.2824915174059
 31
0.0
  0
LINE
  5
1415
330
2
100
AcDbEntity
  8
HIDS
100
AcDbLine
 10
930.5120562439737
 20
391.5324915174059
 30
0.0
 11
937.8887453303514
 21
391.5324915174059
 31
0.0
  0
LINE
  5
1416
330
2
100
AcDbEntity
  8
CENTER
  6
CENS
100
AcDbLine
 10
933.8887453303518
 20
425.5324915174059
 30
0.0
 11
933.8887453303518
 21
371.3807888778109
 31
0.0
  0
LINE
  5
1417
330
2
100
AcDbEntity
  8
HIDS
100
AcDbLine
 10
931.8887453303519
 20
391.5324915174059
 30
0.0
 11
931.8887453303519
 21
387.2824915174059
 31
0.0
  0
LINE
  5
1418
330
2
100
AcDbEntity
  8
HIDS
100
AcDbLine
 10
932.2220786636853
 20
389.8658248507389
 30
0.0
 11
932.2220786636853
 21
387.2824915174059
 31
0.0
  0
LINE
  5
1419
330
2
100
AcDbEntity
  8
HIDS
100
AcDbLine
 10
935.5554119970184
 20
389.8658248507389
 30
0.0
 11
935.5554119970184
 21
387.2824915174059
 31
0.0
  0
LINE
  5
141A
330
2
100
AcDbEntity
  8
HIDS
100
AcDbLine
 10
935.8887453303518
 20
391.5324915174059
 30
0.0
 11
935.8887453303518
 21
387.2824915174059
 31
0.0
  0
LINE
  5
141B
330
2
100
AcDbEntity
  8
HIDS
100
AcDbLine
 10
935.8887453303518
 20
377.3324915174061
 30
0.0
 11
932.8595432764368
 21
377.3324915174061
 31
0.0
  0
LINE
  5
141C
330
2
100
AcDbEntity
  8
HIDS
100
AcDbLine
 10
935.0887453303521
 20
376.5324915174059
 30
0.0
 11
933.5461211092511
 21
376.5324915174059
 31
0.0
  0
LINE
  5
141D
330
2
100
AcDbEntity
  8
0
100
AcDbLine
 10
932.6887453303516
 20
376.5324915174059
 30
0.0
 11
933.5461211092511
 21
376.5324915174059
 31
0.0
  0
LINE
  5
141E
330
2
100
AcDbEntity
  8
0
100
AcDbLine
 10
931.8887453303519
 20
377.3324915174061
 30
0.0
 11
932.6887453303516
 21
376.5324915174059
 31
0.0
  0
LINE
  5
141F
330
2
100
AcDbEntity
  8
0
100
AcDbLine
 10
931.8887453303519
 20
377.3324915174061
 30
0.0
 11
932.8595432764368
 21
377.3324915174061
 31
0.0
  0
LINE
  5
1420
330
2
100
AcDbEntity
  8
HIDS
100
AcDbLine
 10
935.8887453303518
 20
377.3324915174061
 30
0.0
 11
935.0887453303521
 21
376.5324915174059
 31
0.0
  0
LINE
  5
1421
330
2
100
AcDbEntity
  8
0
100
AcDbLine
 10
930.3887453303518
 20
391.5324915174059
 30
0.0
 11
930.5120562439737
 21
391.5324915174059
 31
0.0
  0
LINE
  5
1422
330
2
100
AcDbEntity
  8
HIDS
100
AcDbLine
 10
935.8887453303518
 20
389.8658248507389
 30
0.0
 11
931.8887453303519
 21
389.8658248507389
 31
0.0
  0
LINE
  5
1423
330
2
100
AcDbEntity
  8
0
100
AcDbLine
 10
930.3887453303518
 20
395.2324915174057
 30
0.0
 11
932.4777210251122
 21
395.2324915174057
 31
0.0
  0
LINE
  5
1424
330
2
100
AcDbEntity
  8
HIDS
100
AcDbLine
 10
936.869130088081
 20
395.5324915174059
 30
0.0
 11
932.7027494378317
 21
395.5324915174059
 31
0.0
  0
LINE
  5
1425
330
2
100
AcDbEntity
  8
0
100
AcDbLine
 10
930.3887453303518
 20
395.2324915174057
 30
0.0
 11
930.3887453303518
 21
391.5324915174059
 31
0.0
  0
LINE
  5
1426
330
2
100
AcDbEntity
  8
HIDS
100
AcDbLine
 10
931.8887453303519
 20
391.5324915174059
 30
0.0
 11
932.2220786636853
 21
389.8658248507389
 31
0.0
  0
LINE
  5
1427
330
2
100
AcDbEntity
  8
0
100
AcDbLine
 10
930.3887453303518
 20
395.2324915174057
 30
0.0
 11
930.9083605726227
 21
395.5324915174059
 31
0.0
  0
LINE
  5
1428
330
2
100
AcDbEntity
  8
HIDS
100
AcDbLine
 10
937.3887453303519
 20
391.5324915174059
 30
0.0
 11
937.3887453303519
 21
395.2324915174057
 31
0.0
  0
LINE
  5
1429
330
2
100
AcDbEntity
  8
HIDS
100
AcDbLine
 10
935.8887453303518
 20
391.5324915174059
 30
0.0
 11
935.5554119970184
 21
389.8658248507389
 31
0.0
  0
LINE
  5
142A
330
2
100
AcDbEntity
  8
HIDS
100
AcDbLine
 10
936.869130088081
 20
395.5324915174059
 30
0.0
 11
937.3887453303519
 21
395.2324915174057
 31
0.0
  0
LINE
  5
142C
330
2
100
AcDbEntity
  8
0
100
AcDbLine
 10
933.8887453303518
 20
387.2824915174059
 30
0.0
 11
937.429039876819
 21
387.2824915174059
 31
0.0
  0
LINE
  5
142D
330
2
100
AcDbEntity
  8
0
100
AcDbLine
 10
933.8887453303518
 20
385.7824915174059
 30
0.0
 11
937.4290398768199
 21
385.7824915174059
 31
0.0
  0
LINE
  5
142F
330
2
100
AcDbEntity
  8
HIDS
100
AcDbLine
 10
932.4777210251122
 20
395.2324915174057
 30
0.0
 11
937.3887453303519
 21
395.2324915174057
 31
0.0
  0
LINE
  5
1430
330
2
100
AcDbEntity
  8
0
100
AcDbLine
 10
932.7027494378317
 20
395.5324915174059
 30
0.0
 11
930.9083605726227
 21
395.5324915174059
 31
0.0
  0
LINE
  5
1431
330
2
100
AcDbEntity
  8
HIDS
100
AcDbLine
 10
930.5120562439737
 20
391.5324915174059
 30
0.0
 11
937.3887453303519
 21
391.5324915174059
 31
0.0
  0
LINE
  5
1432
330
2
100
AcDbEntity
  8
0
100
AcDbLine
 10
935.8887453303518
 20
387.2824915174059
 30
0.0
 11
935.8887453303518
 21
385.7824915174059
 31
0.0
  0
LINE
  5
1433
330
2
100
AcDbEntity
  8
HOJO
100
AcDbLine
 10
935.5554119970184
 20
387.2824915174059
 30
0.0
 11
935.5554119970184
 21
385.7824915174059
 31
0.0
  0
LINE
  5
1434
330
2
100
AcDbEntity
  8
HOJO
100
AcDbLine
 10
932.2220786636853
 20
387.2824915174059
 30
0.0
 11
932.2220786636853
 21
385.7824915174059
 31
0.0
  0
LINE
  5
1435
330
2
100
AcDbEntity
  8
0
100
AcDbLine
 10
931.8887453303519
 20
387.2824915174059
 30
0.0
 11
931.8887453303519
 21
385.7824915174059
 31
0.0
  0
LINE
  5
1436
330
2
100
AcDbEntity
  8
HIDS
100
AcDbLine
 10
931.8887453303519
 20
385.7824915174059
 30
0.0
 11
931.8887453303519
 21
378.7022616357234
 31
0.0
  0
LINE
  5
1437
330
2
100
AcDbEntity
  8
HIDS
100
AcDbLine
 10
932.2220786636853
 20
385.7824915174059
 30
0.0
 11
932.2220786636853
 21
378.1937432766798
 31
0.0
  0
LINE
  5
1438
330
2
100
AcDbEntity
  8
HIDS
100
AcDbLine
 10
935.5554119970184
 20
385.7824915174059
 30
0.0
 11
935.5554119970184
 21
376.9991581840721
 31
0.0
  0
LINE
  5
1439
330
2
100
AcDbEntity
  8
HIDS
100
AcDbLine
 10
935.8887453303518
 20
385.7824915174059
 30
0.0
 11
935.8887453303518
 21
377.3324915174061
 31
0.0
  0
LINE
  5
143A
330
2
100
AcDbEntity
  8
HOJO
100
AcDbLine
 10
932.2220786636853
 20
378.1937432766798
 30
0.0
 11
932.2220786636853
 21
376.9991581840721
 31
0.0
  0
LINE
  5
143B
330
2
100
AcDbEntity
  8
0
100
AcDbLine
 10
931.8887453303519
 20
378.7022616357234
 30
0.0
 11
931.8887453303519
 21
377.3324915174061
 31
0.0
  0
LINE
  5
143C
330
2
100
AcDbEntity
  8
0
100
AcDbLine
 10
928.8887453303518
 20
420.5324915174059
 30
0.0
 11
938.8887453303519
 21
420.5324915174059
 31
0.0
  0
ARC
  5
143D
330
2
100
AcDbEntity
  8
0
100
AcDbCircle
 10
938.8887453303519
 20
416.5324915174059
 30
0.0
 40
3.999999999999971
100
AcDbArc
 50
359.9999999999478
 51
90.0
  0
ARC
  5
143E
330
2
100
AcDbEntity
  8
0
100
AcDbCircle
 10
928.8887453303518
 20
416.5324915174059
 30
0.0
 40
4.000000000000056
100
AcDbArc
 50
90.0
 51
180.0000000000521
  0
ARC
  5
143F
330
2
100
AcDbEntity
  8
0
100
AcDbCircle
 10
971.2362567053101
 20
413.4250856714379
 30
0.0
 40
3.499999999999717
100
AcDbArc
 50
331.4660973942784
 51
117.7026032046093
  0
ARC
  5
1440
330
2
100
AcDbEntity
  8
0
100
AcDbCircle
 10
971.2362567053101
 20
413.4250856714379
 30
0.0
 40
2.980384757729353
100
AcDbArc
 50
347.9891694961513
 51
101.1795311027486
  0
ARC
  5
1441
330
2
100
AcDbEntity
  8
0
100
AcDbCircle
 10
917.4961511763203
 20
413.3800028923642
 30
0.0
 40
3.499999999999717
100
AcDbArc
 50
61.46609739427881
 51
207.7026032046135
  0
ARC
  5
1442
330
2
100
AcDbEntity
  8
0
100
AcDbCircle
 10
917.4961511763203
 20
413.3800028923642
 30
0.0
 40
2.980384757729353
100
AcDbArc
 50
77.98916949612223
 51
191.1795311027489
  0
ARC
  5
1443
330
2
100
AcDbEntity
  8
0
100
AcDbCircle
 10
917.5412339553931
 20
359.639897363374
 30
0.0
 40
3.499999999999717
100
AcDbArc
 50
151.4660973942784
 51
297.7026032046093
  0
ARC
  5
1444
330
2
100
AcDbEntity
  8
0
100
AcDbCircle
 10
917.5412339553931
 20
359.639897363374
 30
0.0
 40
2.980384757729353
100
AcDbArc
 50
167.9891694961514
 51
281.1795311027486
  0
ARC
  5
1445
330
2
100
AcDbEntity
  8
0
100
AcDbCircle
 10
971.2813394843829
 20
359.6849801424477
 30
0.0
 40
3.499999999999717
100
AcDbArc
 50
241.4660973942788
 51
27.70260320461348
  0
ARC
  5
1446
330
2
100
AcDbEntity
  8
0
100
AcDbCircle
 10
971.2813394843829
 20
359.6849801424477
 30
0.0
 40
2.980384757729353
100
AcDbArc
 50
257.9891694961222
 51
11.17953110274902
  0
CIRCLE
  5
1447
330
2
100
AcDbEntity
  8
0
100
AcDbCircle
 10
730.6196978701864
 20
627.2054215708622
 30
0.0
 40
9.0
  0
LINE
  5
1448
330
2
100
AcDbEntity
  8
CENTER
  6
CENS
100
AcDbLine
 10
730.6196978701864
 20
615.6649106667382
 30
0.0
 11
730.6196978701864
 21
638.7459324749861
 31
0.0
  0
LINE
  5
1449
330
2
100
AcDbEntity
  8
CENTER
  6
CENS
100
AcDbLine
 10
742.1602087743103
 20
627.2054215708622
 30
0.0
 11
719.0791869660625
 21
627.2054215708622
 31
0.0
  0
LINE
  5
144B
330
2
100
AcDbEntity
  8
HIDS
100
AcDbLine
 10
924.3544444662726
 20
414.5673963302842
 30
0.0
 11
924.2753159300869
 21
410.0341255283246
 31
0.0
  0
ARC
  5
144C
330
2
100
AcDbEntity
  8
HIDS
100
AcDbCircle
 10
926.3541398565854
 20
414.5324915174087
 30
0.0
 40
2.0
100
AcDbArc
 50
90.0
 51
178.9999999999721
  0
ARC
  5
144D
330
2
100
AcDbEntity
  8
HIDS
100
AcDbCircle
 10
921.2757728446176
 20
410.0864827476361
 30
0.0
 40
3.0
100
AcDbArc
 50
314.4585514346881
 51
359.0000000000242
  0
LINE
  5
144E
330
2
100
AcDbEntity
  8
0
100
AcDbLine
 10
58.97301088895438
 20
386.532491517407
 30
0.0
 11
58.51796066926954
 21
412.6023011431563
 31
0.0
  0
LINE
  5
144F
330
2
100
AcDbEntity
  8
0
100
AcDbLine
 10
83.97301088894574
 20
386.532491517407
 30
0.0
 11
84.49696746968857
 21
416.5499439238439
 31
0.0
  0
LINE
  5
1450
330
2
100
AcDbEntity
  8
0
100
AcDbLine
 10
91.97301088895347
 20
386.532491517407
 30
0.0
 11
48.97301088895346
 21
386.532491517407
 31
0.0
  0
ARC
  5
1451
330
2
100
AcDbEntity
  8
0
100
AcDbCircle
 10
76.0565755136513
 20
361.293725056633
 30
0.0
 40
3.0
100
AcDbArc
 50
90.0
 51
179.0000000000242
  0
LINE
  5
1452
330
2
100
AcDbEntity
  8
0
100
AcDbLine
 10
61.5852887605888
 20
364.2937250566321
 30
0.0
 11
76.0565755136513
 21
364.2937250566321
 31
0.0
  0
LINE
  5
1453
330
2
100
AcDbEntity
  8
0
100
AcDbLine
 10
79.46731615672525
 20
356.5324915174071
 30
0.0
 11
48.97301088895346
 21
356.5324915174071
 31
0.0
  0
LINE
  5
1454
330
2
100
AcDbEntity
  8
0
100
AcDbLine
 10
58.97301088895346
 20
386.532491517407
 30
0.0
 11
58.51796066926908
 21
360.4626818916578
 31
0.0
  0
ARC
  5
1455
330
2
100
AcDbEntity
  8
0
100
AcDbCircle
 10
54.51856988864392
 20
360.5324915174071
 30
0.0
 40
4.0
100
AcDbArc
 50
270.0
 51
358.9999999999982
  0
ARC
  5
1456
330
2
100
AcDbEntity
  8
0
100
AcDbCircle
 10
71.00761636272273
 20
358.5324915174071
 30
0.0
 40
2.0
100
AcDbArc
 50
270.0
 51
359.0000000000242
  0
LINE
  5
1457
330
2
100
AcDbEntity
  8
0
100
AcDbLine
 10
73.00731175303508
 20
358.4975867045315
 30
0.0
 11
73.05703242818163
 21
361.3460822759436
 31
0.0
  0
LINE
  5
1458
330
2
100
AcDbEntity
  8
0
100
AcDbLine
 10
83.97301088894527
 20
386.532491517407
 30
0.0
 11
84.49696746968767
 21
356.5150391109693
 31
0.0
  0
ARC
  5
1459
330
2
100
AcDbEntity
  8
0
100
AcDbCircle
 10
82.85106385378004
 20
353.532491517407
 30
0.0
 40
3.0
100
AcDbArc
 50
48.59037789072038
 51
61.24284295859256
  0
ARC
  5
145A
330
2
100
AcDbEntity
  8
0
100
AcDbCircle
 10
85.49681516484406
 20
356.5324915174071
 30
0.0
 40
1.0
100
AcDbArc
 50
181.0000000000017
 51
270.0
  0
LINE
  5
145B
330
2
100
AcDbEntity
  8
0
100
AcDbLine
 10
91.97301088895347
 20
355.532491517407
 30
0.0
 11
85.49681516484406
 21
355.532491517407
 31
0.0
  0
LINE
  5
145C
330
2
100
AcDbEntity
  8
0
100
AcDbLine
 10
79.46731615672525
 20
416.532491517407
 30
0.0
 11
48.97301088895346
 21
416.532491517407
 31
0.0
  0
LINE
  5
145D
330
2
100
AcDbEntity
  8
CENTER
  6
CENS
100
AcDbLine
 10
62.97301088895347
 20
425.5324915174098
 30
0.0
 11
62.97301088895347
 21
403.0500817996564
 31
0.0
  0
ARC
  5
145E
330
2
100
AcDbEntity
  8
0
100
AcDbCircle
 10
54.51856988864438
 20
412.532491517407
 30
0.0
 40
4.0
100
AcDbArc
 50
1.000000000001775
 51
90.0
  0
ARC
  5
145F
330
2
100
AcDbEntity
  8
0
100
AcDbCircle
 10
82.85106385378094
 20
419.5324915174071
 30
0.0
 40
3.0
100
AcDbArc
 50
298.7571570414074
 51
311.4096221092559
  0
ARC
  5
1460
330
2
100
AcDbEntity
  8
0
100
AcDbCircle
 10
85.49681516484543
 20
416.532491517407
 30
0.0
 40
1.0
100
AcDbArc
 50
90.0
 51
178.9999999999982
  0
LINE
  5
1461
330
2
100
AcDbEntity
  8
0
100
AcDbLine
 10
91.97301088895347
 20
417.5324915174071
 30
0.0
 11
85.49681516484543
 21
417.5324915174071
 31
0.0
  0
LINE
  5
1462
330
2
100
AcDbEntity
  8
0
100
AcDbLine
 10
48.97301088895346
 20
416.532491517407
 30
0.0
 11
48.97301088895346
 21
356.5324915174071
 31
0.0
  0
LINE
  5
1463
330
2
100
AcDbEntity
  8
0
100
AcDbLine
 10
83.38093575632502
 20
416.9024915174061
 30
0.0
 11
84.38093575632501
 21
416.9024915174061
 31
0.0
  0
LINE
  5
1464
330
2
100
AcDbEntity
  8
0
100
AcDbLine
 10
84.38093575632501
 20
416.9024915174061
 30
0.0
 11
84.38093575632501
 21
409.902491517406
 31
0.0
  0
LINE
  5
1465
330
2
100
AcDbEntity
  8
0
100
AcDbLine
 10
84.38093575632501
 20
409.902491517406
 30
0.0
 11
83.38093575632502
 21
409.902491517406
 31
0.0
  0
LINE
  5
1466
330
2
100
AcDbEntity
  8
0
100
AcDbLine
 10
83.38093575632502
 20
409.902491517406
 30
0.0
 11
83.38093575632502
 21
416.9024915174061
 31
0.0
  0
LINE
  5
1467
330
2
100
AcDbEntity
  8
0
100
AcDbLine
 10
79.38093575632501
 20
416.3828762751355
 30
0.0
 11
79.38093575632501
 21
410.4221067596765
 31
0.0
  0
LINE
  5
1468
330
2
100
AcDbEntity
  8
0
100
AcDbLine
 10
79.68093575632519
 20
409.902491517406
 30
0.0
 11
79.68093575632519
 21
416.9024915174061
 31
0.0
  0
LINE
  5
1469
330
2
100
AcDbEntity
  8
0
100
AcDbLine
 10
79.68093575632519
 20
409.902491517406
 30
0.0
 11
83.38093575632502
 21
409.902491517406
 31
0.0
  0
LINE
  5
146A
330
2
100
AcDbEntity
  8
0
100
AcDbLine
 10
79.68093575632519
 20
409.902491517406
 30
0.0
 11
79.38093575632501
 21
410.4221067596765
 31
0.0
  0
LINE
  5
146B
330
2
100
AcDbEntity
  8
0
100
AcDbLine
 10
79.38093575632501
 20
416.3828762751355
 30
0.0
 11
79.68093575632519
 21
416.9024915174061
 31
0.0
  0
LINE
  5
146C
330
2
100
AcDbEntity
  8
0
100
AcDbLine
 10
83.38093575632502
 20
416.9024915174061
 30
0.0
 11
79.68093575632519
 21
416.9024915174061
 31
0.0
  0
LINE
  5
146D
330
2
100
AcDbEntity
  8
CENTER
  6
CENS
100
AcDbLine
 10
74.44202848357509
 20
413.402491517407
 30
0.0
 11
97.4419855731976
 21
413.402491517407
 31
0.0
  0
LINE
  5
146E
330
2
100
AcDbEntity
  8
CENTER
  6
CENS
100
AcDbLine
 10
74.44202848357509
 20
359.6624915174063
 30
0.0
 11
97.4419855731976
 21
359.6624915174063
 31
0.0
  0
LINE
  5
146F
330
2
100
AcDbEntity
  8
0
100
AcDbLine
 10
83.38093575632502
 20
356.1624915174062
 30
0.0
 11
84.38093575632501
 21
356.1624915174062
 31
0.0
  0
LINE
  5
1470
330
2
100
AcDbEntity
  8
0
100
AcDbLine
 10
84.38093575632501
 20
356.1624915174062
 30
0.0
 11
84.38093575632501
 21
363.1624915174063
 31
0.0
  0
LINE
  5
1471
330
2
100
AcDbEntity
  8
0
100
AcDbLine
 10
84.38093575632501
 20
363.1624915174063
 30
0.0
 11
83.38093575632502
 21
363.1624915174063
 31
0.0
  0
LINE
  5
1472
330
2
100
AcDbEntity
  8
0
100
AcDbLine
 10
83.38093575632502
 20
363.1624915174063
 30
0.0
 11
83.38093575632502
 21
356.1624915174062
 31
0.0
  0
LINE
  5
1473
330
2
100
AcDbEntity
  8
0
100
AcDbLine
 10
79.38093575632501
 20
356.6821067596767
 30
0.0
 11
79.38093575632501
 21
362.6428762751358
 31
0.0
  0
LINE
  5
1474
330
2
100
AcDbEntity
  8
0
100
AcDbLine
 10
79.68093575632519
 20
363.1624915174063
 30
0.0
 11
79.68093575632519
 21
356.1624915174062
 31
0.0
  0
LINE
  5
1475
330
2
100
AcDbEntity
  8
0
100
AcDbLine
 10
79.68093575632519
 20
363.1624915174063
 30
0.0
 11
83.38093575632502
 21
363.1624915174063
 31
0.0
  0
LINE
  5
1476
330
2
100
AcDbEntity
  8
0
100
AcDbLine
 10
79.68093575632519
 20
363.1624915174063
 30
0.0
 11
79.38093575632501
 21
362.6428762751358
 31
0.0
  0
LINE
  5
1477
330
2
100
AcDbEntity
  8
0
100
AcDbLine
 10
79.38093575632501
 20
356.6821067596767
 30
0.0
 11
79.68093575632519
 21
356.1624915174062
 31
0.0
  0
LINE
  5
1478
330
2
100
AcDbEntity
  8
0
100
AcDbLine
 10
83.38093575632502
 20
356.1624915174062
 30
0.0
 11
79.68093575632519
 21
356.1624915174062
 31
0.0
  0
LINE
  5
1479
330
2
100
AcDbEntity
  8
0
100
AcDbLine
 10
57.97301088895347
 20
420.532491517407
 30
0.0
 11
67.97301088895347
 21
420.532491517407
 31
0.0
  0
ARC
  5
147A
330
2
100
AcDbEntity
  8
0
100
AcDbCircle
 10
67.97301088895347
 20
416.532491517407
 30
0.0
 40
4.0
100
AcDbArc
 50
0.0
 51
90.0
  0
ARC
  5
147B
330
2
100
AcDbEntity
  8
0
100
AcDbCircle
 10
57.97301088895347
 20
416.532491517407
 30
0.0
 40
4.000000000000028
100
AcDbArc
 50
90.0
 51
180.0
  0
CIRCLE
  5
147C
330
2
100
AcDbEntity
  8
0
100
AcDbCircle
 10
919.6400079888203
 20
411.281228858932
 30
0.0
 40
2.0
  0
CIRCLE
  5
147D
330
2
100
AcDbEntity
  8
HOJO
100
AcDbCircle
 10
919.6400079888203
 20
411.281228858932
 30
0.0
 40
2.5
  0
CIRCLE
  5
147E
330
2
100
AcDbEntity
  8
0
100
AcDbCircle
 10
919.6400079888208
 20
361.7837541758735
 30
0.0
 40
2.0
  0
CIRCLE
  5
147F
330
2
100
AcDbEntity
  8
HOJO
100
AcDbCircle
 10
919.6400079888208
 20
361.7837541758735
 30
0.0
 40
2.5
  0
CIRCLE
  5
1480
330
2
100
AcDbEntity
  8
0
100
AcDbCircle
 10
969.1374826718789
 20
361.7837541758735
 30
0.0
 40
2.0
  0
CIRCLE
  5
1481
330
2
100
AcDbEntity
  8
HOJO
100
AcDbCircle
 10
969.1374826718789
 20
361.7837541758735
 30
0.0
 40
2.5
  0
CIRCLE
  5
1482
330
2
100
AcDbEntity
  8
0
100
AcDbCircle
 10
969.1374826718789
 20
411.281228858932
 30
0.0
 40
2.0
  0
CIRCLE
  5
1483
330
2
100
AcDbEntity
  8
HOJO
100
AcDbCircle
 10
969.1374826718789
 20
411.281228858932
 30
0.0
 40
2.5
  0
CIRCLE
  5
1484
330
2
100
AcDbEntity
  8
0
100
AcDbCircle
 10
944.3887453303542
 20
386.5324915174086
 30
0.0
 40
6.999999999997157
  0
ARC
  5
1485
330
2
100
AcDbEntity
  8
0
100
AcDbCircle
 10
944.3887453303542
 20
386.5324915174086
 30
0.0
 40
8.154700538376232
100
AcDbArc
 50
5.277035934805344
 51
174.7229640651946
  0
ARC
  5
1486
330
2
100
AcDbEntity
  8
0
100
AcDbCircle
 10
944.3887453303542
 20
386.5324915174032
 30
0.0
 40
8.154700538376232
100
AcDbArc
 50
185.2770359348053
 51
354.7229640651946
  0
CIRCLE
  5
1487
330
2
100
AcDbEntity
  8
0
100
AcDbCircle
 10
944.3887453303542
 20
386.5324915174086
 30
0.0
 40
22.5
  0
LINE
  5
1488
330
2
100
AcDbEntity
  8
0
100
AcDbLine
 10
735.0248268183763
 20
409.7423132415169
 30
0.0
 11
735.0747480928935
 21
412.6023011431561
 31
0.0
  0
LINE
  5
1489
330
2
100
AcDbEntity
  8
0
100
AcDbLine
 10
709.4771004967752
 20
394.7018897423003
 30
0.0
 11
709.0957412924744
 21
416.5499439238446
 31
0.0
  0
LINE
  5
148A
330
2
100
AcDbEntity
  8
0
100
AcDbLine
 10
701.6196978732096
 20
386.5324915174068
 30
0.0
 11
702.079737226396
 21
386.5324915174069
 31
0.0
  0
ARC
  5
148B
330
2
100
AcDbEntity
  8
0
100
AcDbCircle
 10
717.5361332485117
 20
411.7712579781809
 30
0.0
 40
3.0
100
AcDbArc
 50
270.0
 51
359.0000000000242
  0
LINE
  5
148C
330
2
100
AcDbEntity
  8
0
100
AcDbLine
 10
732.0074200015742
 20
408.7712579781818
 30
0.0
 11
717.5361332485117
 21
408.7712579781818
 31
0.0
  0
LINE
  5
148D
330
2
100
AcDbEntity
  8
0
100
AcDbLine
 10
714.1253926054377
 20
356.5324915174068
 30
0.0
 11
744.6196978732095
 21
356.5324915174077
 31
0.0
  0
LINE
  5
148E
330
2
100
AcDbEntity
  8
0
100
AcDbLine
 10
734.6196978732096
 20
386.5324915174068
 30
0.0
 11
735.0747480928939
 21
360.4626818916575
 31
0.0
  0
ARC
  5
148F
330
2
100
AcDbEntity
  8
0
100
AcDbCircle
 10
739.0741388735191
 20
360.5324915174068
 30
0.0
 40
4.0
100
AcDbArc
 50
181.0000000000017
 51
270.0
  0
ARC
  5
1490
330
2
100
AcDbEntity
  8
0
100
AcDbCircle
 10
722.5850923994403
 20
414.5324915174068
 30
0.0
 40
2.0
100
AcDbArc
 50
90.0
 51
179.0000000000242
  0
LINE
  5
1491
330
2
100
AcDbEntity
  8
0
100
AcDbLine
 10
720.5853970091279
 20
414.5673963302814
 30
0.0
 11
720.5356763339814
 21
411.7189007588694
 31
0.0
  0
LINE
  5
1492
330
2
100
AcDbEntity
  8
0
100
AcDbLine
 10
709.6196978732177
 20
386.5324915174068
 30
0.0
 11
709.0957412924754
 21
356.515039110969
 31
0.0
  0
ARC
  5
1493
330
2
100
AcDbEntity
  8
0
100
AcDbCircle
 10
710.741644908383
 20
353.5324915174068
 30
0.0
 40
3.0
100
AcDbArc
 50
118.7571570414074
 51
131.4096221092796
  0
ARC
  5
1494
330
2
100
AcDbEntity
  8
0
100
AcDbCircle
 10
708.095893597319
 20
356.5324915174077
 30
0.0
 40
1.0
100
AcDbArc
 50
270.0
 51
358.9999999999721
  0
LINE
  5
1495
330
2
100
AcDbEntity
  8
0
100
AcDbLine
 10
701.6196978732096
 20
355.5324915174078
 30
0.0
 11
708.095893597319
 21
355.5324915174078
 31
0.0
  0
LINE
  5
1496
330
2
100
AcDbEntity
  8
0
100
AcDbLine
 10
714.1253926054377
 20
416.5324915174077
 30
0.0
 11
744.6196978732095
 21
416.5324915174068
 31
0.0
  0
LINE
  5
1497
330
2
100
AcDbEntity
  8
CENTER
  6
CENS
100
AcDbLine
 10
730.6196978732096
 20
425.5324915174096
 30
0.0
 11
730.6196978732096
 21
403.0500817996534
 31
0.0
  0
ARC
  5
1498
330
2
100
AcDbEntity
  8
0
100
AcDbCircle
 10
739.0741388735186
 20
412.5324915174077
 30
0.0
 40
4.0
100
AcDbArc
 50
90.0
 51
178.9999999999982
  0
ARC
  5
1499
330
2
100
AcDbEntity
  8
0
100
AcDbCircle
 10
710.7416449083821
 20
419.5324915174078
 30
0.0
 40
3.0
100
AcDbArc
 50
228.590377890744
 51
241.2428429585925
  0
ARC
  5
149A
330
2
100
AcDbEntity
  8
0
100
AcDbCircle
 10
708.0958935973176
 20
416.5324915174068
 30
0.0
 40
1.0
100
AcDbArc
 50
1.000000000001775
 51
90.0
  0
LINE
  5
149B
330
2
100
AcDbEntity
  8
0
100
AcDbLine
 10
701.6196978732096
 20
417.5324915174068
 30
0.0
 11
708.0958935973176
 21
417.5324915174068
 31
0.0
  0
LINE
  5
149C
330
2
100
AcDbEntity
  8
0
100
AcDbLine
 10
744.6196978732095
 20
416.5324915174068
 30
0.0
 11
744.6196978732095
 21
356.5324915174077
 31
0.0
  0
LINE
  5
149F
330
2
100
AcDbEntity
  8
0
100
AcDbLine
 10
710.211773005838
 20
416.9024915174067
 30
0.0
 11
709.211773005838
 21
416.9024915174067
 31
0.0
  0
LINE
  5
14A0
330
2
100
AcDbEntity
  8
0
100
AcDbLine
 10
709.211773005838
 20
416.9024915174067
 30
0.0
 11
709.211773005838
 21
409.9024915174068
 31
0.0
  0
LINE
  5
14A1
330
2
100
AcDbEntity
  8
0
100
AcDbLine
 10
709.211773005838
 20
409.9024915174068
 30
0.0
 11
710.211773005838
 21
409.9024915174068
 31
0.0
  0
LINE
  5
14A2
330
2
100
AcDbEntity
  8
0
100
AcDbLine
 10
710.211773005838
 20
409.9024915174068
 30
0.0
 11
710.211773005838
 21
416.9024915174067
 31
0.0
  0
LINE
  5
14A3
330
2
100
AcDbEntity
  8
0
100
AcDbLine
 10
714.211773005838
 20
416.3828762751363
 30
0.0
 11
714.211773005838
 21
410.4221067596772
 31
0.0
  0
LINE
  5
14A4
330
2
100
AcDbEntity
  8
0
100
AcDbLine
 10
713.9117730058378
 20
409.9024915174068
 30
0.0
 11
713.9117730058378
 21
416.9024915174067
 31
0.0
  0
LINE
  5
14A5
330
2
100
AcDbEntity
  8
0
100
AcDbLine
 10
713.9117730058378
 20
409.9024915174068
 30
0.0
 11
710.211773005838
 21
409.9024915174068
 31
0.0
  0
LINE
  5
14A6
330
2
100
AcDbEntity
  8
0
100
AcDbLine
 10
713.9117730058378
 20
409.9024915174068
 30
0.0
 11
714.211773005838
 21
410.4221067596772
 31
0.0
  0
LINE
  5
14A7
330
2
100
AcDbEntity
  8
0
100
AcDbLine
 10
714.211773005838
 20
416.3828762751363
 30
0.0
 11
713.9117730058378
 21
416.9024915174067
 31
0.0
  0
LINE
  5
14A8
330
2
100
AcDbEntity
  8
0
100
AcDbLine
 10
710.211773005838
 20
416.9024915174067
 30
0.0
 11
713.9117730058378
 21
416.9024915174067
 31
0.0
  0
LINE
  5
14A9
330
2
100
AcDbEntity
  8
CENTER
  6
CENS
100
AcDbLine
 10
719.1506802785879
 20
413.4024915174067
 30
0.0
 11
696.1507231889655
 21
413.4024915174067
 31
0.0
  0
LINE
  5
14AA
330
2
100
AcDbEntity
  8
CENTER
  6
CENS
100
AcDbLine
 10
719.1506802785879
 20
359.6624915174069
 30
0.0
 11
696.1507231889655
 21
359.6624915174069
 31
0.0
  0
LINE
  5
14AB
330
2
100
AcDbEntity
  8
0
100
AcDbLine
 10
710.211773005838
 20
356.1624915174069
 30
0.0
 11
709.211773005838
 21
356.1624915174069
 31
0.0
  0
LINE
  5
14AC
330
2
100
AcDbEntity
  8
0
100
AcDbLine
 10
709.211773005838
 20
356.1624915174069
 30
0.0
 11
709.211773005838
 21
363.1624915174069
 31
0.0
  0
LINE
  5
14AD
330
2
100
AcDbEntity
  8
0
100
AcDbLine
 10
709.211773005838
 20
363.1624915174069
 30
0.0
 11
710.211773005838
 21
363.1624915174069
 31
0.0
  0
LINE
  5
14AE
330
2
100
AcDbEntity
  8
0
100
AcDbLine
 10
710.211773005838
 20
363.1624915174069
 30
0.0
 11
710.211773005838
 21
356.1624915174069
 31
0.0
  0
LINE
  5
14AF
330
2
100
AcDbEntity
  8
0
100
AcDbLine
 10
714.211773005838
 20
356.6821067596774
 30
0.0
 11
714.211773005838
 21
362.6428762751365
 31
0.0
  0
LINE
  5
14B0
330
2
100
AcDbEntity
  8
0
100
AcDbLine
 10
713.9117730058378
 20
363.1624915174069
 30
0.0
 11
713.9117730058378
 21
356.1624915174069
 31
0.0
  0
LINE
  5
14B1
330
2
100
AcDbEntity
  8
0
100
AcDbLine
 10
713.9117730058378
 20
363.1624915174069
 30
0.0
 11
710.211773005838
 21
363.1624915174069
 31
0.0
  0
LINE
  5
14B2
330
2
100
AcDbEntity
  8
0
100
AcDbLine
 10
713.9117730058378
 20
363.1624915174069
 30
0.0
 11
714.211773005838
 21
362.6428762751365
 31
0.0
  0
LINE
  5
14B3
330
2
100
AcDbEntity
  8
0
100
AcDbLine
 10
714.211773005838
 20
356.6821067596774
 30
0.0
 11
713.9117730058378
 21
356.1624915174069
 31
0.0
  0
LINE
  5
14B4
330
2
100
AcDbEntity
  8
0
100
AcDbLine
 10
710.211773005838
 20
356.1624915174069
 30
0.0
 11
713.9117730058378
 21
356.1624915174069
 31
0.0
  0
LINE
  5
14B7
330
2
100
AcDbEntity
  8
0
100
AcDbLine
 10
735.1196872641594
 20
393.5324915174077
 30
0.0
 11
725.1196872641585
 21
393.5324915174077
 31
0.0
  0
LINE
  5
14B8
330
2
100
AcDbEntity
  8
0
100
AcDbLine
 10
735.1196872641589
 20
393.5324915174068
 30
0.0
 11
735.1196872641589
 21
386.5324915174068
 31
0.0
  0
LINE
  5
14B9
330
2
100
AcDbEntity
  8
0
100
AcDbLine
 10
737.119687264159
 20
394.6871920557859
 30
0.0
 11
735.1196872641589
 21
393.5324915174068
 31
0.0
  0
LINE
  5
14BA
330
2
100
AcDbEntity
  8
0
100
AcDbLine
 10
708.1196872641594
 20
393.7824915174068
 30
0.0
 11
708.1196872641594
 21
386.5324915174068
 31
0.0
  0
LINE
  5
14BB
330
2
100
AcDbEntity
  8
0
100
AcDbLine
 10
735.1196872641589
 20
393.5324915174077
 30
0.0
 11
725.119687264159
 21
393.5324915174077
 31
0.0
  0
LINE
  5
14BC
330
2
100
AcDbEntity
  8
0
100
AcDbLine
 10
730.0319014428323
 20
401.2824915174078
 30
0.0
 11
737.119687264159
 21
401.2824915174078
 31
0.0
  0
LINE
  5
14BD
330
2
100
AcDbEntity
  8
0
100
AcDbLine
 10
737.119687264159
 20
401.2824915174078
 30
0.0
 11
737.119687264159
 21
386.5324915174068
 31
0.0
  0
LINE
  5
14BE
330
2
100
AcDbEntity
  8
0
100
AcDbLine
 10
723.1196872641589
 20
396.8171727041298
 30
0.0
 11
723.1196872641589
 21
386.5324915174068
 31
0.0
  0
LINE
  5
14BF
330
2
100
AcDbEntity
  8
0
100
AcDbLine
 10
725.119687264159
 20
397.3425728515621
 30
0.0
 11
725.119687264159
 21
386.5324915174068
 31
0.0
  0
LINE
  5
14C0
330
2
100
AcDbEntity
  8
0
100
AcDbLine
 10
716.1196872641594
 20
393.7824915174068
 30
0.0
 11
708.1196872641594
 21
393.7824915174068
 31
0.0
  0
LINE
  5
14C1
330
2
100
AcDbEntity
  8
0
100
AcDbLine
 10
716.1196872641594
 20
386.5324915174068
 30
0.0
 11
716.1196872641594
 21
393.7824915174068
 31
0.0
  0
LINE
  5
14C2
330
2
100
AcDbEntity
  8
0
100
AcDbLine
 10
723.1196872641589
 20
393.5324915174068
 30
0.0
 11
716.1196872641594
 21
393.5324915174068
 31
0.0
  0
LINE
  5
14C3
330
2
100
AcDbEntity
  8
0
100
AcDbLine
 10
704.3669105144267
 20
386.5324915174068
 30
0.0
 11
708.1196872641594
 21
393.0324915174068
 31
0.0
  0
LINE
  5
14C4
330
2
100
AcDbEntity
  8
0
100
AcDbLine
 10
737.6196978732096
 20
411.5324915174069
 30
0.0
 11
737.61969787321
 21
386.5324915174068
 31
0.0
  0
LINE
  5
14C5
330
2
100
AcDbEntity
  8
0
100
AcDbLine
 10
744.6196978732095
 20
411.5324915174069
 30
0.0
 11
737.6196978732096
 21
411.5324915174069
 31
0.0
  0
SPLINE
  5
14C8
330
2
100
AcDbEntity
  8
HOJO
100
AcDbSpline
210
0.0
220
0.0
230
1.0
 70
     8
 71
     3
 72
    20
 73
    16
 74
     0
 42
0.0000000001
 43
0.0000000001
 40
0.0
 40
0.0
 40
0.0
 40
0.0
 40
5.311626210389601
 40
7.954639692924123
 40
10.24579206730457
 40
14.18281221953265
 40
18.83794314114633
 40
26.54246833222011
 40
31.19712602527561
 40
34.95638115537181
 40
42.12378530287149
 40
45.78553747213095
 40
50.20353689726185
 40
53.26513166942802
 40
54.23175360515262
 40
54.23175360515262
 40
54.23175360515262
 40
54.23175360515262
 10
744.6196978732095
 20
413.2199402394234
 30
0.0
 10
742.906718707321
 20
413.1118981891967
 30
0.0
 10
740.34137778791
 20
412.9500954667927
 30
0.0
 10
736.569623900833
 20
412.6979627946256
 30
0.0
 10
735.2504826846988
 20
409.7655213096586
 30
0.0
 10
732.8152733164083
 20
407.1110124863625
 30
0.0
 10
730.9772249732587
 20
401.9597170531987
 30
0.0
 10
726.8523885637814
 20
397.2499697015736
 30
0.0
 10
721.3747410607748
 20
396.6126382671536
 30
0.0
 10
716.4613555512091
 20
394.926319320446
 30
0.0
 10
711.6273562044507
 20
395.1647302645414
 30
0.0
 10
706.1268421396753
 20
394.1120779294887
 30
0.0
 10
703.5184788184424
 20
390.81689636806
 30
0.0
 10
702.5185045237167
 20
388.1386558471703
 30
0.0
 10
702.1624649984842
 20
386.8436428170998
 30
0.0
 10
702.079737226396
 20
386.5324915174068
 30
0.0
  0
LINE
  5
14C9
330
2
100
AcDbEntity
  8
0
100
AcDbLine
 10
735.6196978732095
 20
420.5324915174069
 30
0.0
 11
725.6196978732096
 21
420.5324915174069
 31
0.0
  0
ARC
  5
14CA
330
2
100
AcDbEntity
  8
0
100
AcDbCircle
 10
725.6196978732096
 20
416.5324915174068
 30
0.0
 40
4.0
100
AcDbArc
 50
90.0
 51
180.0
  0
ARC
  5
14CB
330
2
100
AcDbEntity
  8
0
100
AcDbCircle
 10
735.6196978732095
 20
416.5324915174068
 30
0.0
 40
4.000000000000028
100
AcDbArc
 50
0.0
 51
90.0
  0
LINE
  5
14CC
330
2
100
AcDbEntity
  8
0
100
AcDbLine
 10
737.6196978732096
 20
409.0324915174059
 30
0.0
 11
734.519031201592
 21
409.0324915174068
 31
0.0
  0
LINE
  5
14CE
330
2
100
AcDbEntity
  8
0
100
AcDbLine
 10
913.3887453303396
 20
357.9980032397539
 30
0.0
 11
913.388745330339
 21
357.0081819687711
 31
0.0
  0
LINE
  5
14CF
330
2
100
AcDbEntity
  8
0
100
AcDbLine
 10
942.608331921283
 20
418.0037751720985
 30
0.0
 11
944.3887453303391
 21
418.0324915174059
 31
0.0
  0
LINE
  5
14D0
330
2
100
AcDbEntity
  8
0
100
AcDbLine
 10
925.2271728408246
 20
418.1427358789663
 30
0.0
 11
915.3712922593426
 21
418.0567249121704
 31
0.0
  0
CIRCLE
  5
19C1
330
2
100
AcDbEntity
  8
0
100
AcDbCircle
 10
944.3887453303519
 20
386.5324915174059
 30
0.0
 40
14.75
  0
CIRCLE
  5
19E8
330
2
100
AcDbEntity
  8
0
100
AcDbCircle
 10
594.6196978732114
 20
386.5324915174068
 30
0.0
 40
23.5774
  0
ENDSEC
  0
SECTION
  2
OBJECTS
  0
DICTIONARY
  5
7
330
0
100
AcDbDictionary
  3
ACAD_COLOR
350
1905
  3
ACAD_GROUP
350
75
  3
ACAD_LAYOUT
350
61
  3
ACAD_MATERIAL
350
18DB
  3
ACAD_MLEADERSTYLE
350
192A
  3
ACAD_MLINESTYLE
350
76
  3
ACAD_PLOTSETTINGS
350
77
  3
ACAD_PLOTSTYLENAME
350
6
  3
ACAD_SCALELIST
350
1908
  3
ACAD_TABLESTYLE
350
1906
  3
ACAD_VISUALSTYLE
350
18F4
  3
ACADDIM
350
480
  3
ACDB_RECOMPOSE_DATA
350
196E
  3
ACDBHEADERROUNDTRIPXREC
350
1A02
  3
ACDBVARIABLEDICTIONARY
350
102
  3
DWGPROPS
350
19C3
  0
DICTIONARY
  5
1977
330
6E
100
AcDbDictionary
280
     1
  3
ACAD_XREC_ROUNDTRIP
360
19CB
  0
DICTIONARY
  5
B13
330
66
100
AcDbDictionary
280
     1
  3
ACAD_LAYERSTATES
360
B14
  0
DICTIONARY
  5
195A
330
5E
100
AcDbDictionary
280
     1
  3
ACAD_XREC_ROUNDTRIP
360
19C6
  3
ADSK_XREC_LAYER_RECONCILED
360
195B
  0
DICTIONARY
  5
195C
330
3E
100
AcDbDictionary
280
     1
  3
ACAD_XREC_ROUNDTRIP
360
19C5
  3
ADSK_XREC_LAYER_RECONCILED
360
195D
  0
DICTIONARY
  5
1962
330
2B5
100
AcDbDictionary
280
     1
  3
ACAD_XREC_ROUNDTRIP
360
19D1
  3
ADSK_XREC_LAYER_RECONCILED
360
1963
  0
DICTIONARY
  5
1964
330
2BA
100
AcDbDictionary
280
     1
  3
ACAD_XREC_ROUNDTRIP
360
19D2
  3
ADSK_XREC_LAYER_RECONCILED
360
1965
  0
DICTIONARY
  5
1968
330
3FA
100
AcDbDictionary
280
     1
  3
ACAD_XREC_ROUNDTRIP
360
19D4
  3
ADSK_XREC_LAYER_RECONCILED
360
1969
  0
DICTIONARY
  5
196A
330
478
100
AcDbDictionary
280
     1
  3
ACAD_XREC_ROUNDTRIP
360
19D5
  3
ADSK_XREC_LAYER_RECONCILED
360
196B
  0
DICTIONARY
  5
1A23
330
2
100
AcDbDictionary
280
     1
  3
ACAD_LAYOUTSELFREF
360
1A24
  0
DICTIONARY
  5
1A25
330
19FC
100
AcDbDictionary
280
     1
  3
ACAD_LAYOUTSELFREF
360
1A26
  0
DICTIONARY
  5
1905
102
{ACAD_REACTORS
330
7
102
}
330
7
100
AcDbDictionary
  0
DICTIONARY
  5
75
102
{ACAD_REACTORS
330
7
102
}
330
7
100
AcDbDictionary
  0
DICTIONARY
  5
61
102
{ACAD_REACTORS
330
7
102
}
330
7
100
AcDbDictionary
  0
DICTIONARY
  5
18DB
102
{ACAD_REACTORS
330
7
102
}
330
7
100
AcDbDictionary
  3
BYBLOCK
350
18E4
  3
BYLAYER
350
18DC
  3
GLOBAL
350
18EC
  0
DICTIONARY
  5
192A
102
{ACAD_REACTORS
330
7
102
}
330
7
100
AcDbDictionary
  3
STANDARD
350
192B
  0
DICTIONARY
  5
76
102
{ACAD_REACTORS
330
7
102
}
330
7
100
AcDbDictionary
  3
STANDARD
350
78
  0
DICTIONARY
  5
77
102
{ACAD_REACTORS
330
7
102
}
330
7
100
AcDbDictionary
  0
ACDBDICTIONARYWDFLT
  5
6
102
{ACAD_REACTORS
330
7
102
}
330
7
100
AcDbDictionary
281
     1
  3
Normal
350
5
100
AcDbDictionaryWithDefault
340
5
  0
DICTIONARY
  5
1908
102
{ACAD_REACTORS
330
7
102
}
330
7
100
AcDbDictionary
  3
A0
350
1909
  3
A1
350
190A
  3
A2
350
190B
  3
A3
350
190C
  3
A4
350
190D
  3
A5
350
190E
  3
A6
350
190F
  3
A7
350
1910
  3
A8
350
1911
  3
A9
350
1912
  3
B0
350
1913
  3
B1
350
1914
  3
B2
350
1915
  3
B3
350
1916
  3
B4
350
1917
  3
B5
350
1918
  3
B6
350
1919
  3
B7
350
191A
  3
B8
350
191B
  3
B9
350
191C
  3
C0
350
191D
  3
C1
350
191E
  3
C2
350
191F
  3
C3
350
1920
  3
C4
350
1921
  3
C5
350
1922
  3
C6
350
1923
  3
C7
350
1924
  3
C8
350
1925
  3
C9
350
1926
  3
D0
350
1927
  3
D1
350
1928
  3
D2
350
1929
  0
DICTIONARY
  5
1906
102
{ACAD_REACTORS
330
7
102
}
330
7
100
AcDbDictionary
  3
STANDARD
350
1907
  0
DICTIONARY
  5
18F4
102
{ACAD_REACTORS
330
7
102
}
330
7
100
AcDbDictionary
  3
2DWIREFRAME
350
18FA
  3
3D_HIDDEN
350
18FC
  3
3DWIREFRAME
350
18FB
  3
BASIC
350
18F9
  3
BRIGHTEN
350
1900
  3
COLORCHANGE
350
1904
  3
CONCEPTUAL
350
18FD
  3
DIM
350
18FF
  3
FACEPATTERN
350
1903
  3
FLAT
350
18F5
  3
FLATWITHEDGES
350
18F6
  3
GOURAUD
350
18F7
  3
GOURAUDWITHEDGES
350
18F8
  3
LINEPATTERN
350
1902
  3
REALISTIC
350
18FE
  3
THICKEN
350
1901
  0
XRECORD
  5
480
102
{ACAD_REACTORS
330
7
102
}
330
7
100
AcDbXrecord
 90
   990106
  3

 60
     0
 61
     0
 62
     1
 63
     3
 64
     1
 65
     0
 66
     0
 67
     3
 68
     1
 69
     0
 70
     0
 71
     0
 72
     0
 40
0.0
170
     2
340
0
  0
XRECORD
  5
196E
102
{ACAD_REACTORS
330
7
102
}
330
7
100
AcDbXrecord
 90
        1
330
1907
  0
DICTIONARY
  5
1A02
102
{ACAD_REACTORS
330
7
102
}
330
7
100
AcDbDictionary
  3
CEPSNTYPE
350
1A0C
  3
DIMSTYLEDATA
350
1A10
  3
FINGERPRINTGUID
350
1A0D
  3
HYPERLINKBASE
350
1A05
  3
INSUNITS
350
1A0B
  3
LAYOUTDICT
350
1A07
  3
LWETCUNION
350
1A0A
  3
PLOTSETDICT
350
1A08
  3
PLOTSTYLNAMDICT
350
1A09
  3
PSVPSCALE
350
1A0F
  3
PUCSBASE
350
1A13
  3
PUCSORGBACK
350
1A19
  3
PUCSORGBOTTOM
350
1A15
  3
PUCSORGFRONT
350
1A18
  3
PUCSORGLEFT
350
1A16
  3
PUCSORGRIGHT
350
1A17
  3
PUCSORGTOP
350
1A14
  3
PUCSORTHOREF
350
1A11
  3
PUCSORTHOVIEW
350
1A12
  3
STYLESHEET
350
1A06
  3
TSTACKALIGN
350
1A03
  3
TSTACKSIZE
350
1A04
  3
UCSBASE
350
1A1C
  3
UCSORGBACK
350
1A22
  3
UCSORGBOTTOM
350
1A1E
  3
UCSORGFRONT
350
1A21
  3
UCSORGLEFT
350
1A1F
  3
UCSORGRIGHT
350
1A20
  3
UCSORGTOP
350
1A1D
  3
UCSORTHOREF
350
1A1A
  3
UCSORTHOVIEW
350
1A1B
  3
VERSIONGUID
350
1A0E
  0
DICTIONARY
  5
102
102
{ACAD_REACTORS
330
7
102
}
330
7
100
AcDbDictionary
  3
CANNOSCALE
350
198F
  3
CMLEADERSTYLE
350
198E
  3
CTABLESTYLE
350
198D
  3
DIMASSOC
350
103
  3
INDEXCTL
350
1990
  3
SORTENTS
350
549
  0
XRECORD
  5
19C3
102
{ACAD_REACTORS
330
7
102
}
330
7
100
AcDbXrecord
  1
DWGPROPS COOKIE
  2

  3

  4

  6

  7

  8
ymorima
  9

300
=
301
=
302
=
303
=
304
=
305
=
306
=
307
=
308
=
309
=
 40
0.0098356018518519
 41
2454411.652630208
 42
2454412.447462916
  1

 90
        0
  0
XRECORD
  5
19CB
102
{ACAD_REACTORS
330
1977
102
}
330
1977
100
AcDbXrecord
102
VTR_0.000_0.000_1.000_1.000_VISUALSTYLE
340
18FA
102
VTR_0.000_0.000_1.000_1.000_GRIDDISPLAY
 70
     3
102
VTR_0.000_0.000_1.000_1.000_GRIDMAJOR
 70
     5
102
VTR_0.000_0.000_1.000_1.000_DEFAULTLIGHTING
280
     1
102
VTR_0.000_0.000_1.000_1.000_DEFAULTLIGHTINGTYPE
 70
     1
102
VTR_0.000_0.000_1.000_1.000_BRIGHTNESS
141
0.0
102
VTR_0.000_0.000_1.000_1.000_CONTRAST
142
0.0
  0
DICTIONARY
  5
B14
102
{ACAD_REACTORS
330
B13
102
}
330
B13
100
AcDbDictionary
  0
XRECORD
  5
19C6
102
{ACAD_REACTORS
330
195A
102
}
330
195A
100
AcDbXrecord
102
MATERIAL
340
18EC
  0
XRECORD
  5
195B
102
{ACAD_REACTORS
330
195A
102
}
330
195A
100
AcDbXrecord
290
     1
  0
XRECORD
  5
19C5
102
{ACAD_REACTORS
330
195C
102
}
330
195C
100
AcDbXrecord
102
MATERIAL
340
18EC
  0
XRECORD
  5
195D
102
{ACAD_REACTORS
330
195C
102
}
330
195C
100
AcDbXrecord
290
     1
  0
XRECORD
  5
19D1
102
{ACAD_REACTORS
330
1962
102
}
330
1962
100
AcDbXrecord
102
MATERIAL
340
18EC
  0
XRECORD
  5
1963
102
{ACAD_REACTORS
330
1962
102
}
330
1962
100
AcDbXrecord
290
     1
  0
XRECORD
  5
19D2
102
{ACAD_REACTORS
330
1964
102
}
330
1964
100
AcDbXrecord
102
MATERIAL
340
18EC
  0
XRECORD
  5
1965
102
{ACAD_REACTORS
330
1964
102
}
330
1964
100
AcDbXrecord
290
     1
  0
XRECORD
  5
19D4
102
{ACAD_REACTORS
330
1968
102
}
330
1968
100
AcDbXrecord
102
MATERIAL
340
18EC
  0
XRECORD
  5
1969
102
{ACAD_REACTORS
330
1968
102
}
330
1968
100
AcDbXrecord
290
     1
  0
XRECORD
  5
19D5
102
{ACAD_REACTORS
330
196A
102
}
330
196A
100
AcDbXrecord
102
MATERIAL
340
18EC
  0
XRECORD
  5
196B
102
{ACAD_REACTORS
330
196A
102
}
330
196A
100
AcDbXrecord
290
     1
  0
XRECORD
  5
1A24
102
{ACAD_REACTORS
330
1A23
102
}
330
1A23
100
AcDbXrecord
340
2
  0
XRECORD
  5
1A26
102
{ACAD_REACTORS
330
1A25
102
}
330
1A25
100
AcDbXrecord
340
19FC
  0
ACAD_PROXY_OBJECT
  5
18E4
102
{ACAD_XDICTIONARY
360
18E5
102
}
102
{ACAD_REACTORS
330
18DB
102
}
330
18DB
100
AcDbProxyObject
 90
      499
 91
      510
 93
     1340
310
42109E509B1BD8DAC02004014080404555555555555953FAA155555555555654FEA9AA400014080404555555555555953FAA155555555555654FEA9AA400000000000000E03F4080404555555555555953FAA155555555555654FEA9AA4014080404555555555555953FAA155555555555654FEA9AA4010201011555555555
310
55654FEA8555555555555953FAA6A9005020101155555555555654FEA8555555555555953FAA6A9000
 94
        0
1001
ACAD
1000
AcadProxyRoundTripData
1071
      504
1071
   655383
1070
     0
  0
ACAD_PROXY_OBJECT
  5
18DC
102
{ACAD_XDICTIONARY
360
18DD
102
}
102
{ACAD_REACTORS
330
18DB
102
}
330
18DB
100
AcDbProxyObject
 90
      499
 91
      510
 93
     1340
310
42109E53185E595C802004014080404555555555555953FAA155555555555654FEA9AA400014080404555555555555953FAA155555555555654FEA9AA400000000000000E03F4080404555555555555953FAA155555555555654FEA9AA4014080404555555555555953FAA155555555555654FEA9AA4010201011555555555
310
55654FEA8555555555555953FAA6A9005020101155555555555654FEA8555555555555953FAA6A9000
 94
        0
1001
ACAD
1000
AcadProxyRoundTripData
1071
      504
1071
   655383
1070
     0
  0
ACAD_PROXY_OBJECT
  5
18EC
102
{ACAD_XDICTIONARY
360
18ED
102
}
102
{ACAD_REACTORS
330
18DB
102
}
330
18DB
100
AcDbProxyObject
 90
      499
 91
      510
 93
     1332
310
41D1DB1BD8985B002004014080404555555555555953FAA155555555555654FEA9AA400014080404555555555555953FAA155555555555654FEA9AA400000000000000E03F4080404555555555555953FAA155555555555654FEA9AA4014080404555555555555953FAA155555555555654FEA9AA401020101155555555555
310
654FEA8555555555555953FAA6A9005020101155555555555654FEA8555555555555953FAA6A9000
 94
        0
1001
ACAD
1000
AcadProxyRoundTripData
1071
      504
1071
   655383
1070
     0
  0
ACAD_PROXY_OBJECT
  5
192B
102
{ACAD_REACTORS
330
192A
102
}
330
192A
100
AcDbProxyObject
 90
      499
 91
      510
 93
      618
310
40901902A4063FBFFFFFE056BD1B81E855B9FC0AD7A3703D0AD73F4254DD185B99185C990000AD7A3703D0AC73F90141901A02B5E8DC0F42B1CFC02B5E8DC0F42B1CFE5764000000000000300FC6
340
6A
340
0
340
16
340
0
 94
        0
1001
ACAD_MLEADERVER
1070
     2
1001
ACAD
1000
AcadProxyRoundTripData
1071
      508
1071
   655383
1070
     0
  0
MLINESTYLE
  5
78
102
{ACAD_REACTORS
330
76
102
}
330
76
100
AcDbMlineStyle
  2
STANDARD
 70
     0
  3

 62
     0
 51
90.0
 52
90.0
 71
     2
 49
0.5
 62
   256
  6
BYLAYER
 49
-0.5
 62
   256
  6
BYLAYER
  0
ACDBPLACEHOLDER
  5
5
102
{ACAD_REACTORS
330
6
102
}
330
6
100
AcDbPlaceHolder
280
     0
  0
ACAD_PROXY_OBJECT
  5
1909
102
{ACAD_REACTORS
330
1908
102
}
330
1908
100
AcDbProxyObject
 90
      499
 91
      510
 93
       49
310
904313A3100598
 94
        0
1001
ACAD
1000
AcadProxyRoundTripData
1071
      507
1071
   655383
1070
     0
  0
ACAD_PROXY_OBJECT
  5
190A
102
{ACAD_REACTORS
330
1908
102
}
330
1908
100
AcDbProxyObject
 90
      499
 91
      510
 93
      113
310
904313A3200400000000000000406B
 94
        0
1001
ACAD
1000
AcadProxyRoundTripData
1071
      507
1071
   655383
1070
     0
  0
ACAD_PROXY_OBJECT
  5
190B
102
{ACAD_REACTORS
330
1908
102
}
330
1908
100
AcDbProxyObject
 90
      499
 91
      510
 93
      113
310
904313A3400400000000000010406B
 94
        0
1001
ACAD
1000
AcadProxyRoundTripData
1071
      507
1071
   655383
1070
     0
  0
ACAD_PROXY_OBJECT
  5
190C
102
{ACAD_REACTORS
330
1908
102
}
330
1908
100
AcDbProxyObject
 90
      499
 91
      510
 93
      113
310
904313A3500400000000000014406B
 94
        0
1001
ACAD
1000
AcadProxyRoundTripData
1071
      507
1071
   655383
1070
     0
  0
ACAD_PROXY_OBJECT
  5
190D
102
{ACAD_REACTORS
330
1908
102
}
330
1908
100
AcDbProxyObject
 90
      499
 91
      510
 93
      113
310
904313A3800400000000000020406B
 94
        0
1001
ACAD
1000
AcadProxyRoundTripData
1071
      507
1071
   655383
1070
     0
  0
ACAD_PROXY_OBJECT
  5
190E
102
{ACAD_REACTORS
330
1908
102
}
330
1908
100
AcDbProxyObject
 90
      499
 91
      510
 93
      121
310
905313A3130004000000000000244051
 94
        0
1001
ACAD
1000
AcadProxyRoundTripData
1071
      507
1071
   655383
1070
     0
  0
ACAD_PROXY_OBJECT
  5
190F
102
{ACAD_REACTORS
330
1908
102
}
330
1908
100
AcDbProxyObject
 90
      499
 91
      510
 93
      121
310
905313A3136004000000000000304051
 94
        0
1001
ACAD
1000
AcadProxyRoundTripData
1071
      507
1071
   655383
1070
     0
  0
ACAD_PROXY_OBJECT
  5
1910
102
{ACAD_REACTORS
330
1908
102
}
330
1908
100
AcDbProxyObject
 90
      499
 91
      510
 93
      121
310
905313A3230004000000000000344051
 94
        0
1001
ACAD
1000
AcadProxyRoundTripData
1071
      507
1071
   655383
1070
     0
  0
ACAD_PROXY_OBJECT
  5
1911
102
{ACAD_REACTORS
330
1908
102
}
330
1908
100
AcDbProxyObject
 90
      499
 91
      510
 93
      121
310
905313A33300040000000000003E4051
 94
        0
1001
ACAD
1000
AcadProxyRoundTripData
1071
      507
1071
   655383
1070
     0
  0
ACAD_PROXY_OBJECT
  5
1912
102
{ACAD_REACTORS
330
1908
102
}
330
1908
100
AcDbProxyObject
 90
      499
 91
      510
 93
      121
310
905313A3430004000000000000444051
 94
        0
1001
ACAD
1000
AcadProxyRoundTripData
1071
      507
1071
   655383
1070
     0
  0
ACAD_PROXY_OBJECT
  5
1913
102
{ACAD_REACTORS
330
1908
102
}
330
1908
100
AcDbProxyObject
 90
      499
 91
      510
 93
      121
310
905313A3530004000000000000494051
 94
        0
1001
ACAD
1000
AcadProxyRoundTripData
1071
      507
1071
   655383
1070
     0
  0
ACAD_PROXY_OBJECT
  5
1914
102
{ACAD_REACTORS
330
1908
102
}
330
1908
100
AcDbProxyObject
 90
      499
 91
      510
 93
      129
310
906313A313030004000000000000594038
 94
        0
1001
ACAD
1000
AcadProxyRoundTripData
1071
      507
1071
   655383
1070
     0
  0
ACAD_PROXY_OBJECT
  5
1915
102
{ACAD_REACTORS
330
1908
102
}
330
1908
100
AcDbProxyObject
 90
      499
 91
      510
 93
      113
310
904323A31000000000000000010159
 94
        0
1001
ACAD
1000
AcadProxyRoundTripData
1071
      507
1071
   655383
1070
     0
  0
ACAD_PROXY_OBJECT
  5
1916
102
{ACAD_REACTORS
330
1908
102
}
330
1908
100
AcDbProxyObject
 90
      499
 91
      510
 93
      113
310
904343A31000000000000000410159
 94
        0
1001
ACAD
1000
AcadProxyRoundTripData
1071
      507
1071
   655383
1070
     0
  0
ACAD_PROXY_OBJECT
  5
1917
102
{ACAD_REACTORS
330
1908
102
}
330
1908
100
AcDbProxyObject
 90
      499
 91
      510
 93
      113
310
904383A31000000000000000810159
 94
        0
1001
ACAD
1000
AcadProxyRoundTripData
1071
      507
1071
   655383
1070
     0
  0
ACAD_PROXY_OBJECT
  5
1918
102
{ACAD_REACTORS
330
1908
102
}
330
1908
100
AcDbProxyObject
 90
      499
 91
      510
 93
      121
310
90531303A31000000000000000910140
 94
        0
1001
ACAD
1000
AcadProxyRoundTripData
1071
      507
1071
   655383
1070
     0
  0
ACAD_PROXY_OBJECT
  5
1919
102
{ACAD_REACTORS
330
1908
102
}
330
1908
100
AcDbProxyObject
 90
      499
 91
      510
 93
      129
310
9063130303A31000000000000001650138
 94
        0
1001
ACAD
1000
AcadProxyRoundTripData
1071
      507
1071
   655383
1070
     0
  0
ACAD_PROXY_OBJECT
  5
191A
102
{ACAD_REACTORS
330
1908
102
}
330
1908
100
AcDbProxyObject
 90
      499
 91
      510
 93
      265
310
90F312F31323822203D2031272D302200000000000000200FC00000000000028402B
 94
        0
1001
ACAD
1000
AcadProxyRoundTripData
1071
      507
1071
   655383
1070
     0
  0
ACAD_PROXY_OBJECT
  5
191B
102
{ACAD_REACTORS
330
1908
102
}
330
1908
100
AcDbProxyObject
 90
      499
 91
      510
 93
      257
310
90E312F363422203D2031272D302200000000000000240FC000000000000284040
 94
        0
1001
ACAD
1000
AcadProxyRoundTripData
1071
      507
1071
   655383
1070
     0
  0
ACAD_PROXY_OBJECT
  5
191C
102
{ACAD_REACTORS
330
1908
102
}
330
1908
100
AcDbProxyObject
 90
      499
 91
      510
 93
      257
310
90E312F333222203D2031272D302200000000000000280FC000000000000284040
 94
        0
1001
ACAD
1000
AcadProxyRoundTripData
1071
      507
1071
   655383
1070
     0
  0
ACAD_PROXY_OBJECT
  5
191D
102
{ACAD_REACTORS
330
1908
102
}
330
1908
100
AcDbProxyObject
 90
      499
 91
      510
 93
      257
310
90E312F313622203D2031272D3022000000000000002C0FC000000000000284040
 94
        0
1001
ACAD
1000
AcadProxyRoundTripData
1071
      507
1071
   655383
1070
     0
  0
ACAD_PROXY_OBJECT
  5
191E
102
{ACAD_REACTORS
330
1908
102
}
330
1908
100
AcDbProxyObject
 90
      499
 91
      510
 93
      257
310
90E332F333222203D2031272D3022000000000000002E0FC000000000000284040
 94
        0
1001
ACAD
1000
AcadProxyRoundTripData
1071
      507
1071
   655383
1070
     0
  0
ACAD_PROXY_OBJECT
  5
191F
102
{ACAD_REACTORS
330
1908
102
}
330
1908
100
AcDbProxyObject
 90
      499
 91
      510
 93
      249
310
90D312F3822203D2031272D302200000000000000300FC000000000000284040
 94
        0
1001
ACAD
1000
AcadProxyRoundTripData
1071
      507
1071
   655383
1070
     0
  0
ACAD_PROXY_OBJECT
  5
1920
102
{ACAD_REACTORS
330
1908
102
}
330
1908
100
AcDbProxyObject
 90
      499
 91
      510
 93
      257
310
90E332F313622203D2031272D302200000000000000320FC000000000000284040
 94
        0
1001
ACAD
1000
AcadProxyRoundTripData
1071
      507
1071
   655383
1070
     0
  0
ACAD_PROXY_OBJECT
  5
1921
102
{ACAD_REACTORS
330
1908
102
}
330
1908
100
AcDbProxyObject
 90
      499
 91
      510
 93
      249
310
90D312F3422203D2031272D302200000000000000340FC000000000000284040
 94
        0
1001
ACAD
1000
AcadProxyRoundTripData
1071
      507
1071
   655383
1070
     0
  0
ACAD_PROXY_OBJECT
  5
1922
102
{ACAD_REACTORS
330
1908
102
}
330
1908
100
AcDbProxyObject
 90
      499
 91
      510
 93
      249
310
90D332F3822203D2031272D302200000000000000360FC000000000000284040
 94
        0
1001
ACAD
1000
AcadProxyRoundTripData
1071
      507
1071
   655383
1070
     0
  0
ACAD_PROXY_OBJECT
  5
1923
102
{ACAD_REACTORS
330
1908
102
}
330
1908
100
AcDbProxyObject
 90
      499
 91
      510
 93
      249
310
90D312F3222203D2031272D302200000000000000380FC000000000000284040
 94
        0
1001
ACAD
1000
AcadProxyRoundTripData
1071
      507
1071
   655383
1070
     0
  0
ACAD_PROXY_OBJECT
  5
1924
102
{ACAD_REACTORS
330
1908
102
}
330
1908
100
AcDbProxyObject
 90
      499
 91
      510
 93
      249
310
90D332F3422203D2031272D3022000000000000003A0FC000000000000284040
 94
        0
1001
ACAD
1000
AcadProxyRoundTripData
1071
      507
1071
   655383
1070
     0
  0
ACAD_PROXY_OBJECT
  5
1925
102
{ACAD_REACTORS
330
1908
102
}
330
1908
100
AcDbProxyObject
 90
      499
 91
      510
 93
      169
310
90B3122203D2031272D3022004000000000000284020
 94
        0
1001
ACAD
1000
AcadProxyRoundTripData
1071
      507
1071
   655383
1070
     0
  0
ACAD_PROXY_OBJECT
  5
1926
102
{ACAD_REACTORS
330
1908
102
}
330
1908
100
AcDbProxyObject
 90
      499
 91
      510
 93
      265
310
90F312D312F3222203D2031272D3022000000000000003E0FC00000000000028402B
 94
        0
1001
ACAD
1000
AcadProxyRoundTripData
1071
      507
1071
   655383
1070
     0
  0
ACAD_PROXY_OBJECT
  5
1927
102
{ACAD_REACTORS
330
1908
102
}
330
1908
100
AcDbProxyObject
 90
      499
 91
      510
 93
      233
310
90B3322203D2031272D30220000000000000002100000000000000284000
 94
        0
1001
ACAD
1000
AcadProxyRoundTripData
1071
      507
1071
   655383
1070
     0
  0
ACAD_PROXY_OBJECT
  5
1928
102
{ACAD_REACTORS
330
1908
102
}
330
1908
100
AcDbProxyObject
 90
      499
 91
      510
 93
      233
310
90B3622203D2031272D30220000000000000006100000000000000284000
 94
        0
1001
ACAD
1000
AcadProxyRoundTripData
1071
      507
1071
   655383
1070
     0
  0
ACAD_PROXY_OBJECT
  5
1929
102
{ACAD_REACTORS
330
1908
102
}
330
1908
100
AcDbProxyObject
 90
      499
 91
      510
 93
      257
310
90E31272D3022203D2031272D3022000000000000000A100000000000000284040
 94
        0
1001
ACAD
1000
AcadProxyRoundTripData
1071
      507
1071
   655383
1070
     0
  0
ACAD_PROXY_OBJECT
  5
1907
102
{ACAD_XDICTIONARY
360
196C
102
}
102
{ACAD_REACTORS
330
1906
102
}
330
1906
100
AcDbProxyObject
 90
      499
 91
      510
 93
     1849
310
4254DD185B99185C990028B81E85EB51B8AE3F2E07A17AD46E2B8FC02B5E8DC0F42B1CFD028000000C1008070000C3001FDFF8000000C1003FBFF000000182007F7FE00000030400FEFFC00000060801FDFF8000000C1003FBFF00000018200000000000000681FA0B0000001820100E000186003FBFF000000182007F7FE0
310
0000030400FEFFC00000060801FDFF8000000C1003FBFF000000182007F7FE000000304000AD7A3703D0AC73F4160000003040201C00030C007F7FE00000030400FEFFC00000060801FDFF8000000C1003FBFF000000182007F7FE00000030400FEFFC000000608000
340
16
340
16
340
16
 94
        0
1001
ACAD
1000
AcadProxyRoundTripData
1071
      506
1071
   655383
1070
     0
  0
ACAD_PROXY_OBJECT
  5
18FA
102
{ACAD_REACTORS
330
18F4
102
}
330
18F4
100
AcDbProxyObject
 90
      499
 91
      510
 93
      444
310
430C9915DA5C99599C985B59401049028333333333333E3BF0000000000000FB0107901411070040501600405405064090741402480A0340
 94
        0
1001
ACAD
1000
AcDbSavedByObjectVersion
1070
     0
1000
AcadProxyRoundTripData
1071
      505
1071
   655383
1070
     0
  0
ACAD_PROXY_OBJECT
  5
18FC
102
{ACAD_REACTORS
330
18F4
102
}
330
18F4
100
AcDbProxyObject
 90
      499
 91
      510
 93
      508
310
428CD108121A5919195B8010640502408333333333333E3BF0000000000000FB01079024090700405020000000000001110200405405064090740C02480A0340
 94
        0
1001
ACAD
1000
AcDbSavedByObjectVersion
1070
     0
1000
AcadProxyRoundTripData
1071
      505
1071
   655383
1070
     0
  0
ACAD_PROXY_OBJECT
  5
18FB
102
{ACAD_REACTORS
330
18F4
102
}
330
18F4
100
AcDbProxyObject
 90
      499
 91
      510
 93
      444
310
430CD915DA5C99599C985B59401059028333333333333E3BF0000000000000FB0107901411070040501600405405064090741402480A0340
 94
        0
1001
ACAD
1000
AcDbSavedByObjectVersion
1070
     0
1000
AcadProxyRoundTripData
1071
      505
1071
   655383
1070
     0
  0
ACAD_PROXY_OBJECT
  5
18F9
102
{ACAD_REACTORS
330
18F4
102
}
330
18F4
100
AcDbProxyObject
 90
      499
 91
      510
 93
      396
310
4190985CDA58C0107406404333333333333E3BF0000000000000FB0107A41107004050150841D405064090741402480A0356
 94
        0
1001
ACAD
1000
AcDbSavedByObjectVersion
1070
     0
1000
AcadProxyRoundTripData
1071
      505
1071
   655383
1070
     0
  0
ACAD_PROXY_OBJECT
  5
1900
102
{ACAD_REACTORS
330
18F4
102
}
330
18F4
100
AcDbProxyObject
 90
      499
 91
      510
 93
      436
310
42509C9A59DA1D195B8010C409028333333333333E3BF0000000000000FB010790141107004050150841D405064090741402480A029956
 94
        0
1001
ACAD
1000
AcDbSavedByObjectVersion
1070
     0
1000
AcadProxyRoundTripData
1071
      505
1071
   655383
1070
     0
  0
ACAD_PROXY_OBJECT
  5
1904
102
{ACAD_REACTORS
330
18F4
102
}
330
18F4
100
AcDbProxyObject
 90
      499
 91
      510
 93
      460
310
4310DBDB1BDC90DA185B99D9401104090240C333333333333E3BF0000000000000FB0108901411070040501508421405064090741402480A0354
 94
        0
1001
ACAD
1000
AcDbSavedByObjectVersion
1070
     0
1000
AcadProxyRoundTripData
1071
      505
1071
   655383
1070
     0
  0
ACAD_PROXY_OBJECT
  5
18FD
102
{ACAD_REACTORS
330
18F4
102
}
330
18F4
100
AcDbProxyObject
 90
      499
 91
      510
 93
      508
310
42D0DBDB98D95C1D1D585B0010940D028333333333333E3BF0000000000000FB0107902409070040501000000000000111010841D405064090740C02480A0340
 94
        0
1001
ACAD
1000
AcDbSavedByObjectVersion
1070
     0
1000
AcadProxyRoundTripData
1071
      505
1071
   655383
1070
     0
  0
ACAD_PROXY_OBJECT
  5
18FF
102
{ACAD_REACTORS
330
18F4
102
}
330
18F4
100
AcDbProxyObject
 90
      499
 91
      510
 93
      420
310
41111A5B4010B409028333333333333E3BF0000000000000FB010790141107004050150841D405064090741402480A02677FFFFFDB
 94
        0
1001
ACAD
1000
AcDbSavedByObjectVersion
1070
     0
1000
AcadProxyRoundTripData
1071
      505
1071
   655383
1070
     0
  0
ACAD_PROXY_OBJECT
  5
1903
102
{ACAD_REACTORS
330
18F4
102
}
330
18F4
100
AcDbProxyObject
 90
      499
 91
      510
 93
      452
310
43119858D95C185D1D195C9B8010F409028333333333333E3BF0000000000000FB010790141107004050150841D405064090741402480A0350
 94
        0
1001
ACAD
1000
AcDbSavedByObjectVersion
1070
     0
1000
AcadProxyRoundTripData
1071
      505
1071
   655383
1070
     0
  0
ACAD_PROXY_OBJECT
  5
18F5
102
{ACAD_REACTORS
330
18F4
102
}
330
18F4
100
AcDbProxyObject
 90
      499
 91
      510
 93
      396
310
41519B185D00240901404333333333333E3BF0000000000000F9010740A41107004050150841D405064090741402480A1B55
 94
        0
1001
ACAD
1000
AcDbSavedByObjectVersion
1070
     0
1000
AcadProxyRoundTripData
1071
      505
1071
   655383
1070
     0
  0
ACAD_PROXY_OBJECT
  5
18F6
102
{ACAD_REACTORS
330
18F4
102
}
330
18F4
100
AcDbProxyObject
 90
      499
 91
      510
 93
      484
310
43919B185D15DA5D1A115919D95CC010140901404333333333333E3BF0000000000000F9010740901411070040501600405405064090741402480A1B50
 94
        0
1001
ACAD
1000
AcDbSavedByObjectVersion
1070
     0
1000
AcadProxyRoundTripData
1071
      505
1071
   655383
1070
     0
  0
ACAD_PROXY_OBJECT
  5
18F7
102
{ACAD_REACTORS
330
18F4
102
}
330
18F4
100
AcDbProxyObject
 90
      499
 91
      510
 93
      420
310
4211DBDD5C985D590010240902404333333333333E3BF0000000000000F9010740A411070040501641D405064090741402480A1B50
 94
        0
1001
ACAD
1000
AcDbSavedByObjectVersion
1070
     0
1000
AcadProxyRoundTripData
1071
      505
1071
   655383
1070
     0
  0
ACAD_PROXY_OBJECT
  5
18F8
102
{ACAD_REACTORS
330
18F4
102
}
330
18F4
100
AcDbProxyObject
 90
      499
 91
      510
 93
      508
310
4451DBDD5C985D5915DA5D1A115919D95CC010340902404333333333333E3BF0000000000000F9010740901411070040501600405405064090741402480A1B50
 94
        0
1001
ACAD
1000
AcDbSavedByObjectVersion
1070
     0
1000
AcadProxyRoundTripData
1071
      505
1071
   655383
1070
     0
  0
ACAD_PROXY_OBJECT
  5
1902
102
{ACAD_REACTORS
330
18F4
102
}
330
18F4
100
AcDbProxyObject
 90
      499
 91
      510
 93
      452
310
43131A5B995C185D1D195C9B8010E409028333333333333E3BF0000000000000FB010790141107004050750841D405064090741402483A0350
 94
        0
1001
ACAD
1000
AcDbSavedByObjectVersion
1070
     0
1000
AcadProxyRoundTripData
1071
      505
1071
   655383
1070
     0
  0
ACAD_PROXY_OBJECT
  5
18FE
102
{ACAD_REACTORS
330
18F4
102
}
330
18F4
100
AcDbProxyObject
 90
      499
 91
      510
 93
      428
310
429499585B1A5CDD1A58C0108409028333333333333E3BF0000000000000FB01079019070040501508421405064090741402480A1B45
 94
        0
1001
ACAD
1000
AcDbSavedByObjectVersion
1070
     0
1000
AcadProxyRoundTripData
1071
      505
1071
   655383
1070
     0
  0
ACAD_PROXY_OBJECT
  5
1901
102
{ACAD_REACTORS
330
18F4
102
}
330
18F4
100
AcDbProxyObject
 90
      499
 91
      510
 93
      420
310
42151A1A58DAD95B8010D409028333333333333E3BF0000000000000FB010790141107004050150C41D405064090741402480A0352
 94
        0
1001
ACAD
1000
AcDbSavedByObjectVersion
1070
     0
1000
AcadProxyRoundTripData
1071
      505
1071
   655383
1070
     0
  0
XRECORD
  5
1A0C
102
{ACAD_REACTORS
330
1A02
102
}
330
1A02
100
AcDbXrecord
 90
        0
  0
XRECORD
  5
1A10
102
{ACAD_REACTORS
330
1A02
102
}
330
1A02
100
AcDbXrecord
1000
DSTYLE
1002
{
1070
   179
 70
     2
1070
   277
 70
     6
1002
}
  0
XRECORD
  5
1A0D
102
{ACAD_REACTORS
330
1A02
102
}
330
1A02
100
AcDbXrecord
  1
{6385560B-F4B1-4644-A7C2-A3E32AC3D232}
  0
XRECORD
  5
1A05
102
{ACAD_REACTORS
330
1A02
102
}
330
1A02
100
AcDbXrecord
  1

  0
XRECORD
  5
1A0B
102
{ACAD_REACTORS
330
1A02
102
}
330
1A02
100
AcDbXrecord
 90
        0
  0
XRECORD
  5
1A07
102
{ACAD_REACTORS
330
1A02
102
}
330
1A02
100
AcDbXrecord
340
61
  0
XRECORD
  5
1A0A
102
{ACAD_REACTORS
330
1A02
102
}
330
1A02
100
AcDbXrecord
 90
    10781
  0
XRECORD
  5
1A08
102
{ACAD_REACTORS
330
1A02
102
}
330
1A02
100
AcDbXrecord
340
77
  0
XRECORD
  5
1A09
102
{ACAD_REACTORS
330
1A02
102
}
330
1A02
100
AcDbXrecord
340
6
  0
XRECORD
  5
1A0F
102
{ACAD_REACTORS
330
1A02
102
}
330
1A02
100
AcDbXrecord
 40
0.0
  0
XRECORD
  5
1A13
102
{ACAD_REACTORS
330
1A02
102
}
330
1A02
100
AcDbXrecord
340
0
  0
XRECORD
  5
1A19
102
{ACAD_REACTORS
330
1A02
102
}
330
1A02
100
AcDbXrecord
 10
0.0
 20
0.0
 30
0.0
  0
XRECORD
  5
1A15
102
{ACAD_REACTORS
330
1A02
102
}
330
1A02
100
AcDbXrecord
 10
0.0
 20
0.0
 30
0.0
  0
XRECORD
  5
1A18
102
{ACAD_REACTORS
330
1A02
102
}
330
1A02
100
AcDbXrecord
 10
0.0
 20
0.0
 30
0.0
  0
XRECORD
  5
1A16
102
{ACAD_REACTORS
330
1A02
102
}
330
1A02
100
AcDbXrecord
 10
0.0
 20
0.0
 30
0.0
  0
XRECORD
  5
1A17
102
{ACAD_REACTORS
330
1A02
102
}
330
1A02
100
AcDbXrecord
 10
0.0
 20
0.0
 30
0.0
  0
XRECORD
  5
1A14
102
{ACAD_REACTORS
330
1A02
102
}
330
1A02
100
AcDbXrecord
 10
0.0
 20
0.0
 30
0.0
  0
XRECORD
  5
1A11
102
{ACAD_REACTORS
330
1A02
102
}
330
1A02
100
AcDbXrecord
340
0
  0
XRECORD
  5
1A12
102
{ACAD_REACTORS
330
1A02
102
}
330
1A02
100
AcDbXrecord
 70
     0
  0
XRECORD
  5
1A06
102
{ACAD_REACTORS
330
1A02
102
}
330
1A02
100
AcDbXrecord
  1
Sekkei.ctb
  0
XRECORD
  5
1A03
102
{ACAD_REACTORS
330
1A02
102
}
330
1A02
100
AcDbXrecord
 90
        1
  0
XRECORD
  5
1A04
102
{ACAD_REACTORS
330
1A02
102
}
330
1A02
100
AcDbXrecord
 90
       70
  0
XRECORD
  5
1A1C
102
{ACAD_REACTORS
330
1A02
102
}
330
1A02
100
AcDbXrecord
340
0
  0
XRECORD
  5
1A22
102
{ACAD_REACTORS
330
1A02
102
}
330
1A02
100
AcDbXrecord
 10
0.0
 20
0.0
 30
0.0
  0
XRECORD
  5
1A1E
102
{ACAD_REACTORS
330
1A02
102
}
330
1A02
100
AcDbXrecord
 10
0.0
 20
0.0
 30
0.0
  0
XRECORD
  5
1A21
102
{ACAD_REACTORS
330
1A02
102
}
330
1A02
100
AcDbXrecord
 10
0.0
 20
0.0
 30
0.0
  0
XRECORD
  5
1A1F
102
{ACAD_REACTORS
330
1A02
102
}
330
1A02
100
AcDbXrecord
 10
0.0
 20
0.0
 30
0.0
  0
XRECORD
  5
1A20
102
{ACAD_REACTORS
330
1A02
102
}
330
1A02
100
AcDbXrecord
 10
0.0
 20
0.0
 30
0.0
  0
XRECORD
  5
1A1D
102
{ACAD_REACTORS
330
1A02
102
}
330
1A02
100
AcDbXrecord
 10
0.0
 20
0.0
 30
0.0
  0
XRECORD
  5
1A1A
102
{ACAD_REACTORS
330
1A02
102
}
330
1A02
100
AcDbXrecord
340
0
  0
XRECORD
  5
1A1B
102
{ACAD_REACTORS
330
1A02
102
}
330
1A02
100
AcDbXrecord
 70
     0
  0
XRECORD
  5
1A0E
102
{ACAD_REACTORS
330
1A02
102
}
330
1A02
100
AcDbXrecord
  1
{4F4D2FFD-675F-446B-B391-C14A7A71B13E}
  0
DICTIONARYVAR
  5
198F
102
{ACAD_REACTORS
330
102
102
}
330
102
100
DictionaryVariables
280
     0
  1
1:1
  0
DICTIONARYVAR
  5
198E
102
{ACAD_REACTORS
330
102
102
}
330
102
100
DictionaryVariables
280
     0
  1
STANDARD
  0
DICTIONARYVAR
  5
198D
102
{ACAD_REACTORS
330
102
102
}
330
102
100
DictionaryVariables
280
     0
  1
STANDARD
  0
DICTIONARYVAR
  5
103
102
{ACAD_REACTORS
330
102
102
}
330
102
100
DictionaryVariables
280
     0
  1
1
  0
DICTIONARYVAR
  5
1990
102
{ACAD_REACTORS
330
102
102
}
330
102
100
DictionaryVariables
280
     0
  1
0
  0
DICTIONARYVAR
  5
549
102
{ACAD_REACTORS
330
102
102
}
330
102
100
DictionaryVariables
280
     0
  1
96
  0
DICTIONARY
  5
18E5
330
18E4
100
AcDbDictionary
280
     1
  3
ACAD_XREC_ROUNDTRIP
360
19DD
  3
BUMPTILE
360
18E7
  3
DIFFUSETILE
360
18E6
  3
OPACITYTILE
360
18EA
  3
REFLECTIONTILE
360
18E9
  3
REFRACTIONTILE
360
18EB
  3
SPECULARTILE
360
18E8
  0
DICTIONARY
  5
18DD
330
18DC
100
AcDbDictionary
280
     1
  3
ACAD_XREC_ROUNDTRIP
360
19DC
  3
BUMPTILE
360
18DF
  3
DIFFUSETILE
360
18DE
  3
OPACITYTILE
360
18E2
  3
REFLECTIONTILE
360
18E1
  3
REFRACTIONTILE
360
18E3
  3
SPECULARTILE
360
18E0
  0
DICTIONARY
  5
18ED
330
18EC
100
AcDbDictionary
280
     1
  3
ACAD_XREC_ROUNDTRIP
360
19DE
  3
BUMPTILE
360
18EF
  3
DIFFUSETILE
360
18EE
  3
OPACITYTILE
360
18F2
  3
REFLECTIONTILE
360
18F1
  3
REFRACTIONTILE
360
18F3
  3
SPECULARTILE
360
18F0
  0
DICTIONARY
  5
196C
330
1907
100
AcDbDictionary
280
     1
  3
ACAD_ROUNDTRIP_2008_TABLES
360
19C2
  3
ACAD_XREC_ROUNDTRIP
360
19DF
  0
XRECORD
  5
19DD
102
{ACAD_REACTORS
330
18E5
102
}
330
18E5
100
AcDbXrecord
102
MATERIAL
148
0.0
149
0.0
149
0.0
 93
        0
 94
      127
282
     0
 72
     0
 77
     0
171
     0
175
     0
179
     0
273
     0
  0
XRECORD
  5
18E7
102
{ACAD_REACTORS
330
18E5
102
}
330
18E5
100
AcDbXrecord
270
     1
271
     1
  0
XRECORD
  5
18E6
102
{ACAD_REACTORS
330
18E5
102
}
330
18E5
100
AcDbXrecord
270
     1
271
     1
  0
XRECORD
  5
18EA
102
{ACAD_REACTORS
330
18E5
102
}
330
18E5
100
AcDbXrecord
270
     1
271
     1
  0
XRECORD
  5
18E9
102
{ACAD_REACTORS
330
18E5
102
}
330
18E5
100
AcDbXrecord
270
     1
271
     1
  0
XRECORD
  5
18EB
102
{ACAD_REACTORS
330
18E5
102
}
330
18E5
100
AcDbXrecord
270
     1
271
     1
  0
XRECORD
  5
18E8
102
{ACAD_REACTORS
330
18E5
102
}
330
18E5
100
AcDbXrecord
270
     1
271
     1
  0
XRECORD
  5
19DC
102
{ACAD_REACTORS
330
18DD
102
}
330
18DD
100
AcDbXrecord
102
MATERIAL
148
0.0
149
0.0
149
0.0
 93
        0
 94
      127
282
     0
 72
     0
 77
     0
171
     0
175
     0
179
     0
273
     0
  0
XRECORD
  5
18DF
102
{ACAD_REACTORS
330
18DD
102
}
330
18DD
100
AcDbXrecord
270
     1
271
     1
  0
XRECORD
  5
18DE
102
{ACAD_REACTORS
330
18DD
102
}
330
18DD
100
AcDbXrecord
270
     1
271
     1
  0
XRECORD
  5
18E2
102
{ACAD_REACTORS
330
18DD
102
}
330
18DD
100
AcDbXrecord
270
     1
271
     1
  0
XRECORD
  5
18E1
102
{ACAD_REACTORS
330
18DD
102
}
330
18DD
100
AcDbXrecord
270
     1
271
     1
  0
XRECORD
  5
18E3
102
{ACAD_REACTORS
330
18DD
102
}
330
18DD
100
AcDbXrecord
270
     1
271
     1
  0
XRECORD
  5
18E0
102
{ACAD_REACTORS
330
18DD
102
}
330
18DD
100
AcDbXrecord
270
     1
271
     1
  0
XRECORD
  5
19DE
102
{ACAD_REACTORS
330
18ED
102
}
330
18ED
100
AcDbXrecord
102
MATERIAL
148
0.0
149
0.0
149
0.0
 93
        0
 94
      127
282
     0
 72
     0
 77
     0
171
     0
175
     0
179
     0
273
     0
  0
XRECORD
  5
18EF
102
{ACAD_REACTORS
330
18ED
102
}
330
18ED
100
AcDbXrecord
270
     1
271
     1
  0
XRECORD
  5
18EE
102
{ACAD_REACTORS
330
18ED
102
}
330
18ED
100
AcDbXrecord
270
     1
271
     1
  0
XRECORD
  5
18F2
102
{ACAD_REACTORS
330
18ED
102
}
330
18ED
100
AcDbXrecord
270
     1
271
     1
  0
XRECORD
  5
18F1
102
{ACAD_REACTORS
330
18ED
102
}
330
18ED
100
AcDbXrecord
270
     1
271
     1
  0
XRECORD
  5
18F3
102
{ACAD_REACTORS
330
18ED
102
}
330
18ED
100
AcDbXrecord
270
     1
271
     1
  0
XRECORD
  5
18F0
102
{ACAD_REACTORS
330
18ED
102
}
330
18ED
100
AcDbXrecord
270
     1
271
     1
  0
ACAD_PROXY_OBJECT
  5
19C2
102
{ACAD_REACTORS
330
196C
102
}
330
196C
100
AcDbProxyObject
 90
      499
 91
      510
 93
     1044
310
40D054060020000020000003200101A000080002A5058000000C100000000000000340FE901405075F5449544C450041501A8000000C800406800020000A9416000000304000AD7A3703D0AC73FA409014217D2115051115480105406A0000003200101A000080002A5028000000C10002B5E8DC0F42B1CFE903409065F444
310
15441004
340
16
340
16
340
16
 94
        0
1001
ACAD
1000
AcadProxyRoundTripData
1071
      509
1071
   655383
1070
     0
  0
XRECORD
  5
19DF
102
{ACAD_REACTORS
330
196C
102
}
330
196C
100
AcDbXrecord
102
ACAD_ROUNDTRIP_PRE2007_TABLESTYLE
 90
      512
 91
        0
  1

 92
      512
 93
        0
  2

 94
      512
 95
        0
  3

  0
ENDSEC
  0
EOF
