  0
SECTION
  2
HEADER
  9
$ACADVER
  1
AC1014
  9
$ACADMAINTVER
 70
     9
  9
$DWGCODEPAGE
  3
ANSI_932
  9
$INSBASE
 10
0.0
 20
0.0
 30
0.0
  9
$EXTMIN
 10
40.30718940807775
 20
101.1381793909748
 30
0.0
  9
$EXTMAX
 10
1004.722923849463
 20
696.2608955540177
 30
0.0
  9
$LIMMIN
 10
0.0
 20
0.0
  9
$LIMMAX
 10
297.0
 20
210.0
  9
$ORTHOMODE
 70
     0
  9
$REGENMODE
 70
     1
  9
$FILLMODE
 70
     1
  9
$QTEXTMODE
 70
     0
  9
$MIRRTEXT
 70
     0
  9
$DRAGMODE
 70
     2
  9
$LTSCALE
 40
3.0
  9
$OSMODE
 70
    37
  9
$ATTMODE
 70
     1
  9
$TEXTSIZE
 40
2.0
  9
$TRACEWID
 40
1.0
  9
$TEXTSTYLE
  7
STANDARD
  9
$CLAYER
  8
0
  9
$CELTYPE
  6
BYLAYER
  9
$CECOLOR
 62
   256
  9
$CELTSCALE
 40
1.0
  9
$DELOBJ
 70
     1
  9
$DISPSILH
 70
     0
  9
$DIMSCALE
 40
3.0
  9
$DIMASZ
 40
1.8
  9
$DIMEXO
 40
0.625
  9
$DIMDLI
 40
3.75
  9
$DIMRND
 40
0.0
  9
$DIMDLE
 40
0.0
  9
$DIMEXE
 40
0.8
  9
$DIMTP
 40
0.0
  9
$DIMTM
 40
0.0
  9
$DIMTXT
 40
1.8
  9
$DIMCEN
 40
2.5
  9
$DIMTSZ
 40
0.0
  9
$DIMTOL
 70
     0
  9
$DIMLIM
 70
     0
  9
$DIMTIH
 70
     0
  9
$DIMTOH
 70
     0
  9
$DIMSE1
 70
     0
  9
$DIMSE2
 70
     0
  9
$DIMTAD
 70
     1
  9
$DIMZIN
 70
     8
  9
$DIMBLK
  1

  9
$DIMASO
 70
     1
  9
$DIMSHO
 70
     1
  9
$DIMPOST
  1

  9
$DIMAPOST
  1

  9
$DIMALT
 70
     0
  9
$DIMALTD
 70
     4
  9
$DIMALTF
 40
0.0394
  9
$DIMLFAC
 40
1.0
  9
$DIMTOFL
 70
     1
  9
$DIMTVP
 40
0.0
  9
$DIMTIX
 70
     0
  9
$DIMSOXD
 70
     0
  9
$DIMSAH
 70
     0
  9
$DIMBLK1
  1

  9
$DIMBLK2
  1

  9
$DIMSTYLE
  2
STANDARD
  9
$DIMCLRD
 70
     0
  9
$DIMCLRE
 70
     0
  9
$DIMCLRT
 70
     0
  9
$DIMTFAC
 40
1.0
  9
$DIMGAP
 40
0.75
  9
$DIMJUST
 70
     0
  9
$DIMSD1
 70
     0
  9
$DIMSD2
 70
     0
  9
$DIMTOLJ
 70
     1
  9
$DIMTZIN
 70
     0
  9
$DIMALTZ
 70
     0
  9
$DIMALTTZ
 70
     0
  9
$DIMFIT
 70
     3
  9
$DIMUPT
 70
     0
  9
$DIMUNIT
 70
     8
  9
$DIMDEC
 70
     2
  9
$DIMTDEC
 70
     2
  9
$DIMALTU
 70
     8
  9
$DIMALTTD
 70
     4
  9
$DIMTXSTY
  7
STANDARD
  9
$DIMAUNIT
 70
     0
  9
$LUNITS
 70
     2
  9
$LUPREC
 70
     3
  9
$SKETCHINC
 40
1.0
  9
$FILLETRAD
 40
10.0
  9
$AUNITS
 70
     0
  9
$AUPREC
 70
     2
  9
$MENU
  1
.
  9
$ELEVATION
 40
0.0
  9
$PELEVATION
 40
0.0
  9
$THICKNESS
 40
0.0
  9
$LIMCHECK
 70
     0
  9
$BLIPMODE
 70
     0
  9
$CHAMFERA
 40
0.0
  9
$CHAMFERB
 40
0.0
  9
$CHAMFERC
 40
20.0
  9
$CHAMFERD
 40
0.0
  9
$SKPOLY
 70
     0
  9
$TDCREATE
 40
2454411.659718414
  9
$TDUPDATE
 40
2454424.597338136
  9
$TDINDWG
 40
0.0039811111
  9
$TDUSRTIMER
 40
0.0039811111
  9
$USRTIMER
 70
     1
  9
$ANGBASE
 50
0.0
  9
$ANGDIR
 70
     0
  9
$PDMODE
 70
     0
  9
$PDSIZE
 40
-10.0
  9
$PLINEWID
 40
0.0
  9
$COORDS
 70
     0
  9
$SPLFRAME
 70
     0
  9
$SPLINETYPE
 70
     6
  9
$SPLINESEGS
 70
     8
  9
$ATTDIA
 70
     0
  9
$ATTREQ
 70
     1
  9
$HANDLING
 70
-16383
  9
$HANDSEED
  5
1A55
  9
$SURFTAB1
 70
     6
  9
$SURFTAB2
 70
     6
  9
$SURFTYPE
 70
     6
  9
$SURFU
 70
     6
  9
$SURFV
 70
     6
  9
$UCSNAME
  2

  9
$UCSORG
 10
0.0
 20
0.0
 30
0.0
  9
$UCSXDIR
 10
1.0
 20
0.0
 30
0.0
  9
$UCSYDIR
 10
0.0
 20
1.0
 30
0.0
  9
$PUCSNAME
  2

  9
$PUCSORG
 10
0.0
 20
0.0
 30
0.0
  9
$PUCSXDIR
 10
1.0
 20
0.0
 30
0.0
  9
$PUCSYDIR
 10
0.0
 20
1.0
 30
0.0
  9
$USERI1
 70
     0
  9
$USERI2
 70
     0
  9
$USERI3
 70
     0
  9
$USERI4
 70
     0
  9
$USERI5
 70
     0
  9
$USERR1
 40
0.0
  9
$USERR2
 40
0.0
  9
$USERR3
 40
0.0
  9
$USERR4
 40
0.0
  9
$USERR5
 40
0.0
  9
$WORLDVIEW
 70
     1
  9
$SHADEDGE
 70
     3
  9
$SHADEDIF
 70
    70
  9
$TILEMODE
 70
     1
  9
$MAXACTVP
 70
    48
  9
$PINSBASE
 10
0.0
 20
0.0
 30
0.0
  9
$PLIMCHECK
 70
     0
  9
$PEXTMIN
 10
0.0
 20
0.0
 30
0.0
  9
$PEXTMAX
 10
0.0
 20
0.0
 30
0.0
  9
$PLIMMIN
 10
0.0
 20
0.0
  9
$PLIMMAX
 10
12.0
 20
9.0
  9
$UNITMODE
 70
     0
  9
$VISRETAIN
 70
     1
  9
$PLINEGEN
 70
     0
  9
$PSLTSCALE
 70
     1
  9
$TREEDEPTH
 70
  3020
  9
$PICKSTYLE
 70
     1
  9
$CMLSTYLE
  2
STANDARD
  9
$CMLJUST
 70
     0
  9
$CMLSCALE
 40
1.0
  9
$PROXYGRAPHICS
 70
     1
  9
$MEASUREMENT
 70
     0
  0
ENDSEC
  0
SECTION
  2
CLASSES
  0
CLASS
  1
DICTIONARYVAR
  2
AcDbDictionaryVar
  3
AutoCAD 2000
 90
        0
280
     0
281
     0
  0
CLASS
  1
ACDBDICTIONARYWDFLT
  2
AcDbDictionaryWithDefault
  3
AutoCAD 2000
 90
        0
280
     0
281
     0
  0
CLASS
  1
ACDBPLACEHOLDER
  2
AcDbPlaceHolder
  3
AutoCAD 2000
 90
        0
280
     0
281
     0
  0
CLASS
  1
LAYOUT
  2
AcDbLayout
  3
AutoCAD 2000
 90
        0
280
     0
281
     0
  0
CLASS
  1
MATERIAL
  2
AcDbMaterial
  3
ObjectDBX Classes
 90
     1153
280
     0
281
     0
  0
CLASS
  1
VISUALSTYLE
  2
AcDbVisualStyle
  3
ObjectDBX Classes
 90
     4095
280
     0
281
     0
  0
CLASS
  1
TABLESTYLE
  2
AcDbTableStyle
  3
ObjectDBX Classes
 90
     4095
280
     0
281
     0
  0
CLASS
  1
SCALE
  2
AcDbScale
  3
ObjectDBX Classes
 90
     1153
280
     0
281
     0
  0
CLASS
  1
MLEADERSTYLE
  2
AcDbMLeaderStyle
  3
ACDB_MLEADERSTYLE_CLASS
 90
     4095
280
     0
281
     0
  0
CLASS
  1
CELLSTYLEMAP
  2
AcDbCellStyleMap
  3
ObjectDBX Classes
 90
     1152
280
     0
281
     0
  0
CLASS
  1
ACAD_PROXY_OBJECT_WRAPPER
  2
AcDbProxyObjectWrapper
  3
AutoCAD 2000
 90
        0
280
     0
281
     0
  0
CLASS
  1
LONG_TRANSACTION
  2
AcDbLongTransaction
  3
AutoCAD 2000
 90
        0
280
     0
281
     0
  0
CLASS
  1
LWPOLYLINE
  2
AcDbPolyline
  3
AutoCAD 2000
 90
        0
280
     0
281
     1
  0
CLASS
  1
HATCH
  2
AcDbHatch
  3
AutoCAD 2000
 90
        0
280
     0
281
     1
  0
CLASS
  1
XRECORD
  2
AcDbXrecord
  3
AutoCAD 2000
 90
        0
280
     0
281
     0
  0
ENDSEC
  0
SECTION
  2
TABLES
  0
TABLE
  2
VPORT
  5
6E
102
{ACAD_XDICTIONARY
360
19AA
102
}
330
0
100
AcDbSymbolTable
 70
     2
  0
VPORT
  5
1A2F
330
6E
100
AcDbSymbolTableRecord
100
AcDbViewportTableRecord
  2
*ACTIVE
 70
     0
 10
0.0
 20
0.0
 11
1.0
 21
1.0
 12
594.4465247746356
 22
380.5131965415886
 13
0.0
 23
0.0
 14
10.0
 24
10.0
 15
10.0
 25
10.0
 16
0.0
 26
0.0
 36
1.0
 17
0.0
 27
0.0
 37
0.0
 40
636.4803937958209
 41
1.753504672897196
 42
50.0
 43
0.0
 44
0.0
 50
0.0
 51
0.0
 71
     0
 72
   100
 73
     1
 74
     3
 75
     0
 76
     0
 77
     0
 78
     0
  0
ENDTAB
  0
TABLE
  2
LTYPE
  5
69
330
0
100
AcDbSymbolTable
 70
     7
  0
LTYPE
  5
6A
330
69
100
AcDbSymbolTableRecord
100
AcDbLinetypeTableRecord
  2
BYBLOCK
 70
     0
  3

 72
    65
 73
     0
 40
0.0
  0
LTYPE
  5
6B
330
69
100
AcDbSymbolTableRecord
100
AcDbLinetypeTableRecord
  2
BYLAYER
 70
     0
  3

 72
    65
 73
     0
 40
0.0
  0
LTYPE
  5
8
330
69
100
AcDbSymbolTableRecord
100
AcDbLinetypeTableRecord
  2
CONTINUOUS
 70
     0
  3
Solid line
 72
    65
 73
     0
 40
0.0
  0
LTYPE
  5
27C
330
69
100
AcDbSymbolTableRecord
100
AcDbLinetypeTableRecord
  2
SEKKEI_A2_
 70
     0
  3
center(A2)  ____ _ ____ _ ____ _ ____ _ ____ _ 
 72
    65
 73
     4
 40
14.28749999999999
 49
9.525
 74
     0
 49
-1.587499999999999
 74
     0
 49
1.587499999999999
 74
     0
 49
-1.587499999999999
 74
     0
  0
LTYPE
  5
494
330
69
100
AcDbSymbolTableRecord
100
AcDbLinetypeTableRecord
  2
SEKKEI_P_S
 70
     0
  3
Phantom_S   __ _ _ __ _ _ __ _ _ ___
 72
    65
 73
     6
 40
7.5
 49
3.75
 74
     0
 49
-0.75
 74
     0
 49
0.75
 74
     0
 49
-0.75
 74
     0
 49
0.75
 74
     0
 49
-0.75
 74
     0
  0
LTYPE
  5
7EF
330
69
100
AcDbSymbolTableRecord
100
AcDbLinetypeTableRecord
  2
PHANTOM3
 70
     0
  3
Phantom  ___ _ _ ___ _ _ ___ _ _ ___ _ _
 72
    65
 73
     6
 40
9.0
 49
4.0
 74
     0
 49
-1.0
 74
     0
 49
1.0
 74
     0
 49
-1.0
 74
     0
 49
1.0
 74
     0
 49
-1.0
 74
     0
  0
LTYPE
  5
7F0
330
69
100
AcDbSymbolTableRecord
100
AcDbLinetypeTableRecord
  2
HIDDEN3
 70
     0
  3
Hidden (.3x) _ _ _ _ _ _ _ _ _ _ _ _ _ _ _ _ _
 72
    65
 73
     2
 40
2.857499999999999
 49
1.905
 74
     0
 49
-0.9525
 74
     0
  0
LTYPE
  5
B12
330
69
100
AcDbSymbolTableRecord
100
AcDbLinetypeTableRecord
  2
CENS
 70
     0
  3
(一点鎖線１)---- - ---- - ---- - ---- - ---- - 
 72
    65
 73
     4
 40
7.0
 49
4.0
 74
     0
 49
-1.0
 74
     0
 49
1.0
 74
     0
 49
-1.0
 74
     0
  0
ENDTAB
  0
TABLE
  2
LAYER
  5
66
102
{ACAD_XDICTIONARY
360
B13
102
}
330
0
100
AcDbSymbolTable
 70
    10
  0
LAYER
  5
5E
102
{ACAD_XDICTIONARY
360
193E
102
}
330
66
100
AcDbSymbolTableRecord
100
AcDbLayerTableRecord
  2
0
 70
     0
 62
     7
  6
CONTINUOUS
  0
LAYER
  5
3E
102
{ACAD_XDICTIONARY
360
1940
102
}
330
66
100
AcDbSymbolTableRecord
100
AcDbLayerTableRecord
  2
CENTER
 70
     0
 62
     3
  6
SEKKEI_A2_
  0
LAYER
  5
2B5
102
{ACAD_XDICTIONARY
360
1946
102
}
330
66
100
AcDbSymbolTableRecord
100
AcDbLayerTableRecord
  2
HIDS
 70
     0
 62
     1
  6
HIDDEN3
  0
LAYER
  5
2BA
102
{ACAD_XDICTIONARY
360
1948
102
}
330
66
100
AcDbSymbolTableRecord
100
AcDbLayerTableRecord
  2
HOJO
 70
     0
 62
     4
  6
CONTINUOUS
  0
LAYER
  5
3FA
102
{ACAD_XDICTIONARY
360
194C
102
}
330
66
100
AcDbSymbolTableRecord
100
AcDbLayerTableRecord
  2
TITLE
 70
     0
 62
     4
  6
CONTINUOUS
  0
LAYER
  5
478
102
{ACAD_XDICTIONARY
360
194E
102
}
330
66
100
AcDbSymbolTableRecord
100
AcDbLayerTableRecord
  2
PHAS
 70
     0
 62
     2
  6
PHANTOM3
  0
ENDTAB
  0
TABLE
  2
STYLE
  5
67
330
0
100
AcDbSymbolTable
 70
     2
  0
STYLE
  5
16
330
67
100
AcDbSymbolTableRecord
100
AcDbTextStyleTableRecord
  2
STANDARD
 70
     0
 40
0.0
 41
1.0
 50
0.0
 71
     0
 42
2.0
  3
simplex.shx
  4
extfont.shx
  0
ENDTAB
  0
TABLE
  2
VIEW
  5
6C
330
0
100
AcDbSymbolTable
 70
     0
  0
ENDTAB
  0
TABLE
  2
UCS
  5
6D
330
0
100
AcDbSymbolTable
 70
     0
  0
ENDTAB
  0
TABLE
  2
APPID
  5
70
330
0
100
AcDbSymbolTable
 70
     4
  0
APPID
  5
71
330
70
100
AcDbSymbolTableRecord
100
AcDbRegAppTableRecord
  2
ACAD
 70
     0
  0
APPID
  5
1919
330
70
100
AcDbSymbolTableRecord
100
AcDbRegAppTableRecord
  2
ACAD_MLEADERVER
 70
     0
  0
APPID
  5
191C
330
70
100
AcDbSymbolTableRecord
100
AcDbRegAppTableRecord
  2
ACAD_DSTYLE_DIMRADIAL_EXTENSION
 70
     0
  0
APPID
  5
19C8
330
70
100
AcDbSymbolTableRecord
100
AcDbRegAppTableRecord
  2
ACAD_EXEMPT_FROM_CAD_STANDARDS
 70
     0
  0
ENDTAB
  0
TABLE
  2
DIMSTYLE
  5
72
330
0
100
AcDbSymbolTable
 70
     1
  0
DIMSTYLE
105
73
330
72
100
AcDbSymbolTableRecord
100
AcDbDimStyleTableRecord
  2
STANDARD
 70
     0
  3

  4

  5

  6

  7

 40
3.0
 41
1.8
 42
0.625
 43
3.75
 44
0.8
 45
0.0
 46
0.0
 47
0.0
 48
0.0
140
1.8
141
2.5
142
0.0
143
0.0394
144
1.0
145
0.0
146
1.0
147
0.75
 71
     0
 72
     0
 73
     0
 74
     0
 75
     0
 76
     0
 77
     1
 78
     8
170
     0
171
     4
172
     1
173
     0
174
     0
175
     0
176
     0
177
     0
178
     0
270
     8
271
     2
272
     2
273
     8
274
     4
340
16
275
     0
280
     0
281
     0
282
     0
283
     1
284
     0
285
     0
286
     0
287
     3
288
     0
  0
ENDTAB
  0
TABLE
  2
BLOCK_RECORD
  5
1
330
0
100
AcDbSymbolTable
 70
    56
  0
BLOCK_RECORD
  5
2
102
{ACAD_XDICTIONARY
360
1A51
102
}
330
1
100
AcDbSymbolTableRecord
100
AcDbBlockTableRecord
  2
*MODEL_SPACE
  0
BLOCK_RECORD
  5
1A2A
102
{ACAD_XDICTIONARY
360
1A53
102
}
330
1
100
AcDbSymbolTableRecord
100
AcDbBlockTableRecord
  2
*PAPER_SPACE
  0
ENDTAB
  0
ENDSEC
  0
SECTION
  2
BLOCKS
  0
BLOCK
  5
5D
330
2
100
AcDbEntity
  8
0
100
AcDbBlockBegin
  2
*MODEL_SPACE
 70
     0
 10
0.0
 20
0.0
 30
0.0
  3
*MODEL_SPACE
  1

  0
ENDBLK
  5
5F
330
2
100
AcDbEntity
  8
0
100
AcDbBlockEnd
  0
BLOCK
  5
1A2C
330
1A2A
100
AcDbEntity
 67
     1
  8
0
100
AcDbBlockBegin
  2
*PAPER_SPACE
 70
     0
 10
0.0
 20
0.0
 30
0.0
  3
*PAPER_SPACE
  1

  0
ENDBLK
  5
1A2D
330
1A2A
100
AcDbEntity
 67
     1
  8
0
100
AcDbBlockEnd
  0
ENDSEC
  0
SECTION
  2
ENTITIES
  0
TEXT
  5
FED
330
2
100
AcDbEntity
  8
TITLE
100
AcDbText
 10
302.7837714019781
 20
634.1543441032383
 30
0.0
 40
7.5
  1
AFCZ18S-10~30M200S3
100
AcDbText
  0
TEXT
  5
FEE
330
2
100
AcDbEntity
  8
TITLE
100
AcDbText
 10
302.7837714019781
 20
623.1543441032384
 30
0.0
 40
7.5
  1
AFCZ18S-10~30L200S3
100
AcDbText
  0
LINE
  5
FF0
330
2
100
AcDbEntity
  8
CENTER
100
AcDbLine
 10
251.3071894080777
 20
386.0879655005626
 30
0.0
 11
40.30718940807775
 21
386.0879655005626
 31
0.0
  0
LINE
  5
FF1
330
2
100
AcDbEntity
  8
CENTER
100
AcDbLine
 10
200.3071894080782
 20
335.0879655005627
 30
0.0
 11
200.3071894080782
 21
437.0879655005627
 31
0.0
  0
LINE
  5
FF2
330
2
100
AcDbEntity
  8
CENTER
100
AcDbLine
 10
595.9538763923375
 20
696.2608955540177
 30
0.0
 11
595.9538763923356
 21
563.2608955540177
 31
0.0
  0
LINE
  5
FF3
330
2
100
AcDbEntity
  8
CENTER
100
AcDbLine
 10
536.9538763923356
 20
386.0879655005624
 30
0.0
 11
755.9538763923338
 21
386.0879655005624
 31
0.0
  0
LINE
  5
FF4
330
2
100
AcDbEntity
  8
CENTER
100
AcDbLine
 10
545.1720480871054
 20
637.2608955540177
 30
0.0
 11
755.9538763923338
 21
637.2608955540174
 31
0.0
  0
CIRCLE
  5
FF5
330
2
100
AcDbEntity
  8
CENTER
100
AcDbCircle
 10
595.9538763923356
 20
386.0879655005624
 30
0.0
 40
49.0
  0
LINE
  5
FF6
330
2
100
AcDbEntity
  8
CENTER
100
AcDbLine
 10
551.4685950180974
 20
430.573246874801
 30
0.0
 11
640.4391577665757
 21
341.6026841263238
 31
0.0
  0
LINE
  5
FF7
330
2
100
AcDbEntity
  8
CENTER
100
AcDbLine
 10
640.4391577665757
 20
430.5732468748009
 30
0.0
 11
551.4685950180974
 21
341.6026841263238
 31
0.0
  0
LINE
  5
FF8
330
2
100
AcDbEntity
  8
CENTER
100
AcDbLine
 10
595.9538763923356
 20
327.0879655005624
 30
0.0
 11
595.9538763923356
 21
445.0879655005624
 31
0.0
  0
CIRCLE
  5
FF9
330
2
100
AcDbEntity
  8
HOJO
100
AcDbCircle
 10
561.3056441141954
 20
351.4397332224212
 30
0.0
 40
3.0
  0
CIRCLE
  5
FFA
330
2
100
AcDbEntity
  8
HOJO
100
AcDbCircle
 10
630.6021086704769
 20
351.4397332224212
 30
0.0
 40
3.0
  0
CIRCLE
  5
FFB
330
2
100
AcDbEntity
  8
HOJO
100
AcDbCircle
 10
561.3056441141963
 20
420.7361977787036
 30
0.0
 40
3.0
  0
CIRCLE
  5
FFC
330
2
100
AcDbEntity
  8
HOJO
100
AcDbCircle
 10
630.6021086704769
 20
420.7361977787036
 30
0.0
 40
3.0
  0
LINE
  5
FFD
330
2
100
AcDbEntity
  8
CENTER
100
AcDbLine
 10
554.3056441141962
 20
420.7361977787036
 30
0.0
 11
568.3056441141963
 21
420.7361977787036
 31
0.0
  0
LINE
  5
FFE
330
2
100
AcDbEntity
  8
CENTER
100
AcDbLine
 10
561.3056441141963
 20
427.7361977787037
 30
0.0
 11
561.3056441141954
 21
413.7361977787036
 31
0.0
  0
LINE
  5
FFF
330
2
100
AcDbEntity
  8
CENTER
100
AcDbLine
 10
561.3056441141963
 20
344.4397332224212
 30
0.0
 11
561.3056441141963
 21
358.4397332224212
 31
0.0
  0
LINE
  5
1000
330
2
100
AcDbEntity
  8
CENTER
100
AcDbLine
 10
554.3056441141962
 20
351.4397332224212
 30
0.0
 11
568.3056441141963
 21
351.4397332224212
 31
0.0
  0
LINE
  5
1001
330
2
100
AcDbEntity
  8
CENTER
100
AcDbLine
 10
637.6021086704769
 20
351.4397332224212
 30
0.0
 11
623.6021086704769
 21
351.4397332224212
 31
0.0
  0
LINE
  5
1002
330
2
100
AcDbEntity
  8
CENTER
100
AcDbLine
 10
630.6021086704769
 20
344.4397332224212
 30
0.0
 11
630.6021086704769
 21
358.4397332224212
 31
0.0
  0
LINE
  5
1003
330
2
100
AcDbEntity
  8
CENTER
100
AcDbLine
 10
630.6021086704769
 20
427.7361977787037
 30
0.0
 11
630.6021086704769
 21
413.7361977787036
 31
0.0
  0
LINE
  5
1004
330
2
100
AcDbEntity
  8
CENTER
100
AcDbLine
 10
637.6021086704769
 20
420.7361977787036
 30
0.0
 11
623.6021086704769
 21
420.7361977787036
 31
0.0
  0
LINE
  5
1005
330
2
100
AcDbEntity
  8
0
100
AcDbLine
 10
663.9538763923375
 20
418.0879655005642
 30
0.0
 11
640.9538763923356
 21
418.0879655005661
 31
0.0
  0
LINE
  5
1006
330
2
100
AcDbEntity
  8
0
100
AcDbLine
 10
663.9538763923375
 20
354.0879655005588
 30
0.0
 11
640.9538763923365
 21
354.087965500557
 31
0.0
  0
CIRCLE
  5
1007
330
2
100
AcDbEntity
  8
0
100
AcDbCircle
 10
595.9538763923375
 20
386.0879655005624
 30
0.0
 40
28.0
  0
CIRCLE
  5
1008
330
2
100
AcDbEntity
  8
0
100
AcDbCircle
 10
595.9538763923375
 20
386.0879655005624
 30
0.0
 40
35.00000000000011
  0
CIRCLE
  5
1009
330
2
100
AcDbEntity
  8
0
100
AcDbCircle
 10
595.9538763923366
 20
386.0879655005624
 30
0.0
 40
23.0
  0
CIRCLE
  5
100A
330
2
100
AcDbEntity
  8
0
100
AcDbCircle
 10
561.3056441141963
 20
351.4397332224212
 30
0.0
 40
2.399999999999999
  0
CIRCLE
  5
100B
330
2
100
AcDbEntity
  8
HOJO
100
AcDbCircle
 10
561.3056441141963
 20
351.4397332224212
 30
0.0
 40
3.0
  0
CIRCLE
  5
100C
330
2
100
AcDbEntity
  8
0
100
AcDbCircle
 10
561.3056441141963
 20
420.7361977787019
 30
0.0
 40
2.399999999999999
  0
CIRCLE
  5
100D
330
2
100
AcDbEntity
  8
HOJO
100
AcDbCircle
 10
561.3056441141963
 20
420.7361977787019
 30
0.0
 40
3.0
  0
LINE
  5
100E
330
2
100
AcDbEntity
  8
0
100
AcDbLine
 10
636.9538763923375
 20
350.087965500557
 30
0.0
 11
636.9538763923375
 21
422.0879655005624
 31
0.0
  0
CIRCLE
  5
100F
330
2
100
AcDbEntity
  8
0
100
AcDbCircle
 10
630.6021086704769
 20
351.4397332224212
 30
0.0
 40
2.399999999999999
  0
CIRCLE
  5
1010
330
2
100
AcDbEntity
  8
HOJO
100
AcDbCircle
 10
630.6021086704769
 20
351.4397332224212
 30
0.0
 40
3.0
  0
ARC
  5
1011
330
2
100
AcDbEntity
  8
0
100
AcDbCircle
 10
631.9538763923375
 20
350.0879655005624
 30
0.0
 40
5.0
100
AcDbArc
 50
270.0
 51
0.0
  0
CIRCLE
  5
1012
330
2
100
AcDbEntity
  8
0
100
AcDbCircle
 10
630.6021086704769
 20
420.7361977787019
 30
0.0
 40
2.399999999999999
  0
CIRCLE
  5
1013
330
2
100
AcDbEntity
  8
HOJO
100
AcDbCircle
 10
630.6021086704769
 20
420.7361977787019
 30
0.0
 40
3.0
  0
ARC
  5
1014
330
2
100
AcDbEntity
  8
0
100
AcDbCircle
 10
631.9538763923365
 20
422.0879655005624
 30
0.0
 40
5.0
100
AcDbArc
 50
0.0
 51
90.0
  0
LINE
  5
1015
330
2
100
AcDbEntity
  8
0
100
AcDbLine
 10
694.9538763923339
 20
356.5879655005624
 30
0.0
 11
694.9538763923339
 21
415.5879655005624
 31
0.0
  0
LINE
  5
1016
330
2
100
AcDbEntity
  8
0
100
AcDbLine
 10
669.9538763923365
 20
412.0879655005643
 30
0.0
 11
669.9538763923375
 21
360.0879655005588
 31
0.0
  0
LINE
  5
1017
330
2
100
AcDbEntity
  8
0
100
AcDbLine
 10
702.9538763923339
 20
417.5879655005624
 30
0.0
 11
702.9538763923339
 21
354.5879655005624
 31
0.0
  0
LINE
  5
1018
330
2
100
AcDbEntity
  8
0
100
AcDbLine
 10
702.9538763923339
 20
355.0879655005624
 30
0.0
 11
696.9538763923338
 21
355.0879655005624
 31
0.0
  0
ARC
  5
1019
330
2
100
AcDbEntity
  8
0
100
AcDbCircle
 10
663.9538763923375
 20
360.0879655005588
 30
0.0
 40
6.0
100
AcDbArc
 50
270.0
 51
0.0
  0
ARC
  5
101A
330
2
100
AcDbEntity
  8
0
100
AcDbCircle
 10
696.9538763923338
 20
357.0879655005624
 30
0.0
 40
2.0
100
AcDbArc
 50
180.0
 51
270.0
  0
LINE
  5
101B
330
2
100
AcDbEntity
  8
0
100
AcDbLine
 10
696.9538763923338
 20
417.0879655005625
 30
0.0
 11
702.9538763923339
 21
417.0879655005625
 31
0.0
  0
ARC
  5
101C
330
2
100
AcDbEntity
  8
0
100
AcDbCircle
 10
663.9538763923366
 20
412.0879655005643
 30
0.0
 40
6.0
100
AcDbArc
 50
0.0
 51
89.99999999997395
  0
ARC
  5
101D
330
2
100
AcDbEntity
  8
0
100
AcDbCircle
 10
696.9538763923338
 20
415.0879655005624
 30
0.0
 40
2.0
100
AcDbArc
 50
90.0
 51
180.0
  0
LINE
  5
101E
330
2
100
AcDbEntity
  8
0
100
AcDbLine
 10
560.9538763923374
 20
599.2608955540195
 30
0.0
 11
565.6651456700948
 21
599.2608955540195
 31
0.0
  0
LINE
  5
101F
330
2
100
AcDbEntity
  8
0
100
AcDbLine
 10
560.9538763923366
 20
599.2608955540177
 30
0.0
 11
630.9538763923366
 21
599.2608955540177
 31
0.0
  0
LINE
  5
1020
330
2
100
AcDbEntity
  8
0
100
AcDbLine
 10
555.4600347242013
 20
604.2608955540177
 30
0.0
 11
636.4433546265765
 21
604.2608955540177
 31
0.0
  0
LINE
  5
1021
330
2
100
AcDbEntity
  8
0
100
AcDbLine
 10
554.9538763923366
 20
662.2608955540177
 30
0.0
 11
555.4600347242013
 21
604.2608955540177
 31
0.0
  0
LINE
  5
1022
330
2
100
AcDbEntity
  8
0
100
AcDbLine
 10
560.9538763923366
 20
604.2608955540177
 30
0.0
 11
560.9538763923366
 21
599.2608955540177
 31
0.0
  0
LINE
  5
1023
330
2
100
AcDbEntity
  8
0
100
AcDbLine
 10
702.9538763893107
 20
668.2608955540176
 30
0.0
 11
702.9538763893107
 21
606.2608955540158
 31
0.0
  0
LINE
  5
1024
330
2
100
AcDbEntity
  8
0
100
AcDbLine
 10
702.9538763893107
 20
668.2608955540176
 30
0.0
 11
702.9538763893107
 21
606.2608955540176
 31
0.0
  0
LINE
  5
1025
330
2
100
AcDbEntity
  8
0
100
AcDbLine
 10
630.9538763923375
 20
599.2608955540195
 30
0.0
 11
626.2426071145792
 21
599.2608955540195
 31
0.0
  0
LINE
  5
1026
330
2
100
AcDbEntity
  8
0
100
AcDbLine
 10
667.9188927644028
 20
606.2608955540158
 30
0.0
 11
637.9477751780505
 21
606.2608955540122
 31
0.0
  0
LINE
  5
1027
330
2
100
AcDbEntity
  8
0
100
AcDbLine
 10
630.9538763923366
 20
604.2608955540177
 30
0.0
 11
630.9538763923366
 21
599.2608955540177
 31
0.0
  0
LINE
  5
1028
330
2
100
AcDbEntity
  8
0
100
AcDbLine
 10
93.30718940807775
 20
355.0879655005626
 30
0.0
 11
99.30718940807777
 21
355.0879655005626
 31
0.0
  0
LINE
  5
1029
330
2
100
AcDbEntity
  8
0
100
AcDbLine
 10
99.30718940807821
 20
417.0879655005626
 30
0.0
 11
93.30718940807821
 21
417.0879655005626
 31
0.0
  0
LINE
  5
102A
330
2
100
AcDbEntity
  8
0
100
AcDbLine
 10
101.3071894080777
 20
356.5879655005626
 30
0.0
 11
101.3071894080782
 21
415.5879655005627
 31
0.0
  0
ARC
  5
102B
330
2
100
AcDbEntity
  8
0
100
AcDbCircle
 10
99.30718940807821
 20
415.0879655005627
 30
0.0
 40
2.0
100
AcDbArc
 50
0.0
 51
89.99999999997395
  0
ARC
  5
102C
330
2
100
AcDbEntity
  8
0
100
AcDbCircle
 10
99.30718940807777
 20
357.0879655005626
 30
0.0
 40
2.0
100
AcDbArc
 50
270.0
 51
0.0
  0
LINE
  5
102D
330
2
100
AcDbEntity
  8
0
100
AcDbLine
 10
93.30718940807775
 20
355.0879655005626
 30
0.0
 11
93.30718940807775
 21
417.0879655005626
 31
0.0
  0
LINE
  5
102E
330
2
100
AcDbEntity
  8
0
100
AcDbLine
 10
93.30718940807821
 20
354.5879655005626
 30
0.0
 11
93.30718940807775
 21
417.5879655005626
 31
0.0
  0
ARC
  5
102F
330
2
100
AcDbEntity
  8
0
100
AcDbCircle
 10
573.3578329521471
 20
465.8687568125237
 30
0.0
 40
40.0
100
AcDbArc
 50
256.6323257973708
 51
276.1769964048646
  0
ARC
  5
1030
330
2
100
AcDbEntity
  8
0
100
AcDbCircle
 10
562.9538763923366
 20
422.0879655005624
 30
0.0
 40
5.0
100
AcDbArc
 50
76.63232579737094
 51
90.0
  0
LINE
  5
1031
330
2
100
AcDbEntity
  8
0
100
AcDbLine
 10
559.9538763923357
 20
427.0879655005624
 30
0.0
 11
562.9538763923366
 21
427.0879655005624
 31
0.0
  0
ARC
  5
1032
330
2
100
AcDbEntity
  8
0
100
AcDbCircle
 10
595.9538763923366
 20
257.0879655005624
 30
0.0
 40
170.0
100
AcDbArc
 50
83.82300359513532
 51
96.17699640486467
  0
ARC
  5
1033
330
2
100
AcDbEntity
  8
0
100
AcDbCircle
 10
618.5499198325252
 20
465.8687568125237
 30
0.0
 40
40.0
100
AcDbArc
 50
263.8230035951353
 51
283.3676742026291
  0
LINE
  5
1034
330
2
100
AcDbEntity
  8
0
100
AcDbLine
 10
631.9538763923365
 20
427.0879655005624
 30
0.0
 11
628.9538763923356
 21
427.0879655005624
 31
0.0
  0
ARC
  5
1035
330
2
100
AcDbEntity
  8
0
100
AcDbCircle
 10
628.9538763923356
 20
422.0879655005624
 30
0.0
 40
5.0
100
AcDbArc
 50
90.0
 51
103.367674202629
  0
ARC
  5
1036
330
2
100
AcDbEntity
  8
0
100
AcDbCircle
 10
559.9538763923357
 20
422.0879655005624
 30
0.0
 40
5.0
100
AcDbArc
 50
90.0
 51
180.0
  0
ARC
  5
1037
330
2
100
AcDbEntity
  8
0
100
AcDbCircle
 10
516.1730850803743
 20
408.684008940752
 30
0.0
 40
40.0
100
AcDbArc
 50
353.8230035951083
 51
13.36767420262659
  0
ARC
  5
1038
330
2
100
AcDbEntity
  8
0
100
AcDbCircle
 10
516.1730850803734
 20
363.4919220603747
 30
0.0
 40
40.0
100
AcDbArc
 50
346.6323257973734
 51
6.176996404891704
  0
ARC
  5
1039
330
2
100
AcDbEntity
  8
0
100
AcDbCircle
 10
559.9538763923357
 20
353.0879655005624
 30
0.0
 40
5.0
100
AcDbArc
 50
166.6323257973733
 51
180.0
  0
LINE
  5
103A
330
2
100
AcDbEntity
  8
0
100
AcDbLine
 10
554.9538763923357
 20
350.0879655005624
 30
0.0
 11
554.9538763923357
 21
353.0879655005624
 31
0.0
  0
ARC
  5
103B
330
2
100
AcDbEntity
  8
0
100
AcDbCircle
 10
724.9538763923356
 20
386.0879655005606
 30
0.0
 40
170.0
100
AcDbArc
 50
173.8230035951082
 51
186.1769964048917
  0
LINE
  5
103C
330
2
100
AcDbEntity
  8
0
100
AcDbLine
 10
554.9538763923366
 20
422.0879655005624
 30
0.0
 11
554.9538763923366
 21
419.0879655005624
 31
0.0
  0
ARC
  5
103D
330
2
100
AcDbEntity
  8
0
100
AcDbCircle
 10
559.9538763923366
 20
419.0879655005624
 30
0.0
 40
5.0
100
AcDbArc
 50
180.0
 51
193.3676742026266
  0
ARC
  5
103E
330
2
100
AcDbEntity
  8
0
100
AcDbCircle
 10
559.9538763923357
 20
350.0879655005624
 30
0.0
 40
5.0
100
AcDbArc
 50
180.0
 51
270.0
  0
LINE
  5
103F
330
2
100
AcDbEntity
  8
0
100
AcDbLine
 10
559.9538763923357
 20
345.0879655005624
 30
0.0
 11
562.9538763923366
 21
345.0879655005624
 31
0.0
  0
ARC
  5
1040
330
2
100
AcDbEntity
  8
0
100
AcDbCircle
 10
573.3578329521471
 20
306.3071741886011
 30
0.0
 40
40.0
100
AcDbArc
 50
83.82300359513532
 51
103.367674202629
  0
ARC
  5
1041
330
2
100
AcDbEntity
  8
0
100
AcDbCircle
 10
562.9538763923366
 20
350.0879655005624
 30
0.0
 40
5.0
100
AcDbArc
 50
270.0
 51
283.3676742026291
  0
ARC
  5
1042
330
2
100
AcDbEntity
  8
0
100
AcDbCircle
 10
595.9538763923366
 20
515.0879655005623
 30
0.0
 40
170.0
100
AcDbArc
 50
263.8230035951353
 51
276.1769964048646
  0
ARC
  5
1043
330
2
100
AcDbEntity
  8
0
100
AcDbCircle
 10
618.5499198325252
 20
306.3071741886011
 30
0.0
 40
40.0
100
AcDbArc
 50
76.63232579737094
 51
96.17699640486467
  0
ARC
  5
1044
330
2
100
AcDbEntity
  8
0
100
AcDbCircle
 10
628.9538763923366
 20
350.0879655005624
 30
0.0
 40
5.0
100
AcDbArc
 50
256.6323257973708
 51
270.0
  0
LINE
  5
1045
330
2
100
AcDbEntity
  8
0
100
AcDbLine
 10
631.9538763923365
 20
345.0879655005624
 30
0.0
 11
628.9538763923366
 21
345.0879655005624
 31
0.0
  0
ARC
  5
1046
330
2
100
AcDbEntity
  8
0
100
AcDbCircle
 10
640.9538763923375
 20
422.0879655005661
 30
0.0
 40
4.0
100
AcDbArc
 50
180.0
 51
270.0
  0
ARC
  5
1047
330
2
100
AcDbEntity
  8
0
100
AcDbCircle
 10
640.9538763923375
 20
350.087965500557
 30
0.0
 40
4.0
100
AcDbArc
 50
90.0
 51
180.0
  0
ARC
  5
1048
330
2
100
AcDbEntity
  8
0
100
AcDbCircle
 10
626.3392239453424
 20
597.2608955540176
 30
0.0
 40
2.0
100
AcDbArc
 50
90.0
 51
177.9999999999963
  0
ARC
  5
1049
330
2
100
AcDbEntity
  8
0
100
AcDbCircle
 10
622.0224988427218
 20
588.2608955540177
 30
0.0
 40
2.0
100
AcDbArc
 50
270.0
 51
357.9999999999963
  0
ARC
  5
104A
330
2
100
AcDbEntity
  8
0
100
AcDbCircle
 10
565.5685288393307
 20
597.2608955540176
 30
0.0
 40
2.0
100
AcDbArc
 50
2.000000000003654
 51
90.0
  0
ARC
  5
104B
330
2
100
AcDbEntity
  8
0
100
AcDbCircle
 10
569.8852539419513
 20
588.2608955540177
 30
0.0
 40
2.0
100
AcDbArc
 50
182.0000000000036
 51
270.0
  0
LINE
  5
104C
330
2
100
AcDbEntity
  8
0
100
AcDbLine
 10
624.0212804967597
 20
588.1910965606125
 30
0.0
 11
624.3404422913045
 21
597.3306945474227
 31
0.0
  0
LINE
  5
104D
330
2
100
AcDbEntity
  8
0
100
AcDbLine
 10
567.8864722879135
 20
588.1910965606125
 30
0.0
 11
567.5673104933686
 21
597.3306945474227
 31
0.0
  0
LINE
  5
104E
330
2
100
AcDbEntity
  8
0
100
AcDbLine
 10
569.8852539419513
 20
586.2608955540158
 30
0.0
 11
622.0224988427218
 21
586.2608955540176
 31
0.0
  0
ARC
  5
104F
330
2
100
AcDbEntity
  8
0
100
AcDbCircle
 10
124.3071894080682
 20
411.0879655005717
 30
0.0
 40
2.0
100
AcDbArc
 50
270.0
 51
0.0
  0
ARC
  5
1050
330
2
100
AcDbEntity
  8
0
100
AcDbCircle
 10
124.3071894080682
 20
361.0879655005717
 30
0.0
 40
2.0
100
AcDbArc
 50
0.0
 51
90.0
  0
LINE
  5
1051
330
2
100
AcDbEntity
  8
0
100
AcDbLine
 10
123.3071894080682
 20
383.5879655005717
 30
0.0
 11
115.7940964453515
 21
383.5879655005717
 31
0.0
  0
LINE
  5
1052
330
2
100
AcDbEntity
  8
0
100
AcDbLine
 10
123.3071894080682
 20
388.5879655005717
 30
0.0
 11
115.7940964453515
 21
388.5879655005717
 31
0.0
  0
ARC
  5
1053
330
2
100
AcDbEntity
  8
0
100
AcDbCircle
 10
113.7940964453515
 20
411.0879655005717
 30
0.0
 40
2.0
100
AcDbArc
 50
216.8698976458671
 51
270.0
  0
LINE
  5
1054
330
2
100
AcDbEntity
  8
0
100
AcDbLine
 10
124.3595506128809
 20
409.0879655005718
 30
0.0
 11
113.7940964453515
 21
409.0879655005718
 31
0.0
  0
LINE
  5
1055
330
2
100
AcDbEntity
  8
0
100
AcDbLine
 10
121.3071894080782
 20
367.0879655005717
 30
0.0
 11
117.5400631377666
 21
367.0879655005717
 31
0.0
  0
ARC
  5
1056
330
2
100
AcDbEntity
  8
0
100
AcDbCircle
 10
113.7940964453515
 20
361.0879655005717
 30
0.0
 40
2.0
100
AcDbArc
 50
90.0
 51
143.1301023541299
  0
LINE
  5
1057
330
2
100
AcDbEntity
  8
0
100
AcDbLine
 10
124.3071894080682
 20
363.0879655005717
 30
0.0
 11
113.7940964453515
 21
363.0879655005717
 31
0.0
  0
LINE
  5
1058
330
2
100
AcDbEntity
  8
0
100
AcDbLine
 10
109.7940964453515
 20
411.0879655005717
 30
0.0
 11
106.2893094299616
 21
411.0879655005717
 31
0.0
  0
ARC
  5
1059
330
2
100
AcDbEntity
  8
0
100
AcDbCircle
 10
109.7940964453515
 20
408.0879655005699
 30
0.0
 40
3.0
100
AcDbArc
 50
0.0
 51
90.0
  0
LINE
  5
105A
330
2
100
AcDbEntity
  8
0
100
AcDbLine
 10
109.7940964453515
 20
361.0879655005717
 30
0.0
 11
106.289309429963
 21
361.0879655005717
 31
0.0
  0
ARC
  5
105B
330
2
100
AcDbEntity
  8
0
100
AcDbCircle
 10
109.7940964453515
 20
364.0879655005718
 30
0.0
 40
3.0
100
AcDbArc
 50
270.0
 51
0.0
  0
LINE
  5
105C
330
2
100
AcDbEntity
  8
0
100
AcDbLine
 10
112.7940964453515
 20
364.0879655005718
 30
0.0
 11
112.7940964453515
 21
408.0879655005699
 31
0.0
  0
ARC
  5
105D
330
2
100
AcDbEntity
  8
0
100
AcDbCircle
 10
123.3071894080682
 20
380.5879655005718
 30
0.0
 40
3.0
100
AcDbArc
 50
0.0
 51
90.0
  0
ARC
  5
105E
330
2
100
AcDbEntity
  8
0
100
AcDbCircle
 10
123.3071894080682
 20
391.5879655005717
 30
0.0
 40
3.0
100
AcDbArc
 50
270.0
 51
0.0
  0
ARC
  5
105F
330
2
100
AcDbEntity
  8
0
100
AcDbCircle
 10
115.7940964453515
 20
380.5879655005718
 30
0.0
 40
3.0
100
AcDbArc
 50
90.0
 51
180.0
  0
ARC
  5
1060
330
2
100
AcDbEntity
  8
0
100
AcDbCircle
 10
115.7940964453515
 20
391.5879655005717
 30
0.0
 40
3.0
100
AcDbArc
 50
180.0
 51
270.0
  0
ARC
  5
1061
330
2
100
AcDbEntity
  8
0
100
AcDbCircle
 10
121.3071894080782
 20
362.0879655005718
 30
0.0
 40
5.0
100
AcDbArc
 50
0.0
 51
90.0
  0
ARC
  5
1062
330
2
100
AcDbEntity
  8
0
100
AcDbCircle
 10
117.5400631377666
 20
362.0879655005718
 30
0.0
 40
5.0
100
AcDbArc
 50
90.0
 51
165.5224878140709
  0
ARC
  5
1063
330
2
100
AcDbEntity
  8
0
100
AcDbCircle
 10
121.3071894080777
 20
410.0879655005535
 30
0.0
 40
5.0
100
AcDbArc
 50
270.0
 51
0.0
  0
ARC
  5
1064
330
2
100
AcDbEntity
  8
0
100
AcDbCircle
 10
117.5400631377666
 20
410.0879655005535
 30
0.0
 40
5.0
100
AcDbArc
 50
194.477512185929
 51
270.0
  0
LINE
  5
1065
330
2
100
AcDbEntity
  8
0
100
AcDbLine
 10
121.3071894080777
 20
405.0879655005536
 30
0.0
 11
117.5400631377666
 21
405.0879655005536
 31
0.0
  0
LINE
  5
1066
330
2
100
AcDbEntity
  8
0
100
AcDbLine
 10
683.4669693550532
 20
408.0879655005624
 30
0.0
 11
683.4669693550532
 21
364.0879655005624
 31
0.0
  0
LINE
  5
1067
330
2
100
AcDbEntity
  8
0
100
AcDbLine
 10
686.4669693550532
 20
411.0879655005624
 30
0.0
 11
689.971756370449
 21
411.0879655005624
 31
0.0
  0
LINE
  5
1068
330
2
100
AcDbEntity
  8
0
100
AcDbLine
 10
671.9538763923357
 20
409.0879655005625
 30
0.0
 11
682.4669693550532
 21
409.0879655005625
 31
0.0
  0
ARC
  5
1069
330
2
100
AcDbEntity
  8
0
100
AcDbCircle
 10
686.4669693550532
 20
408.0879655005624
 30
0.0
 40
3.0
100
AcDbArc
 50
90.0
 51
180.0
  0
ARC
  5
106A
330
2
100
AcDbEntity
  8
0
100
AcDbCircle
 10
682.4669693550532
 20
411.0879655005624
 30
0.0
 40
2.0
100
AcDbArc
 50
270.0
 51
323.1301023541328
  0
ARC
  5
106B
330
2
100
AcDbEntity
  8
0
100
AcDbCircle
 10
674.9538763923266
 20
410.0879655005624
 30
0.0
 40
5.0
100
AcDbArc
 50
180.0
 51
270.0
  0
ARC
  5
106C
330
2
100
AcDbEntity
  8
0
100
AcDbCircle
 10
678.7210026626381
 20
410.0879655005624
 30
0.0
 40
5.0
100
AcDbArc
 50
270.0
 51
345.5224878140709
  0
LINE
  5
106D
330
2
100
AcDbEntity
  8
0
100
AcDbLine
 10
674.9538763923266
 20
405.0879655005624
 30
0.0
 11
678.7210026626381
 21
405.0879655005624
 31
0.0
  0
ARC
  5
106E
330
2
100
AcDbEntity
  8
0
100
AcDbCircle
 10
671.9538763923357
 20
411.0879655005624
 30
0.0
 40
2.0
100
AcDbArc
 50
180.0
 51
270.0
  0
LINE
  5
106F
330
2
100
AcDbEntity
  8
0
100
AcDbLine
 10
672.9538763923357
 20
383.5879655005624
 30
0.0
 11
680.4669693550533
 21
383.5879655005624
 31
0.0
  0
LINE
  5
1070
330
2
100
AcDbEntity
  8
0
100
AcDbLine
 10
672.9538763923357
 20
388.5879655005624
 30
0.0
 11
680.4669693550533
 21
388.5879655005624
 31
0.0
  0
ARC
  5
1071
330
2
100
AcDbEntity
  8
0
100
AcDbCircle
 10
672.9538763923357
 20
391.5879655005624
 30
0.0
 40
3.0
100
AcDbArc
 50
180.0
 51
270.0
  0
ARC
  5
1072
330
2
100
AcDbEntity
  8
0
100
AcDbCircle
 10
672.9538763923357
 20
380.5879655005624
 30
0.0
 40
3.0
100
AcDbArc
 50
90.0
 51
180.0
  0
ARC
  5
1073
330
2
100
AcDbEntity
  8
0
100
AcDbCircle
 10
680.4669693550533
 20
391.5879655005624
 30
0.0
 40
3.0
100
AcDbArc
 50
270.0
 51
0.0
  0
ARC
  5
1074
330
2
100
AcDbEntity
  8
0
100
AcDbCircle
 10
680.4669693550533
 20
380.5879655005624
 30
0.0
 40
3.0
100
AcDbArc
 50
0.0
 51
90.0
  0
ARC
  5
1075
330
2
100
AcDbEntity
  8
0
100
AcDbCircle
 10
674.9538763923266
 20
362.0879655005806
 30
0.0
 40
5.0
100
AcDbArc
 50
90.0
 51
180.0
  0
LINE
  5
1076
330
2
100
AcDbEntity
  8
0
100
AcDbLine
 10
674.9538763923266
 20
367.0879655005806
 30
0.0
 11
678.7210026626381
 21
367.0879655005806
 31
0.0
  0
ARC
  5
1077
330
2
100
AcDbEntity
  8
0
100
AcDbCircle
 10
678.7210026626381
 20
362.0879655005806
 30
0.0
 40
5.0
100
AcDbArc
 50
14.47751218592907
 51
90.0
  0
LINE
  5
1078
330
2
100
AcDbEntity
  8
0
100
AcDbLine
 10
671.9015151875229
 20
363.0879655005624
 30
0.0
 11
682.4669693550532
 21
363.0879655005624
 31
0.0
  0
ARC
  5
1079
330
2
100
AcDbEntity
  8
0
100
AcDbCircle
 10
682.4669693550532
 20
361.0879655005624
 30
0.0
 40
2.0
100
AcDbArc
 50
36.86989764586714
 51
90.0
  0
ARC
  5
107A
330
2
100
AcDbEntity
  8
0
100
AcDbCircle
 10
686.4669693550532
 20
364.0879655005624
 30
0.0
 40
3.0
100
AcDbArc
 50
180.0
 51
270.0
  0
ARC
  5
107B
330
2
100
AcDbEntity
  8
0
100
AcDbCircle
 10
671.9538763923357
 20
361.0879655005624
 30
0.0
 40
2.0
100
AcDbArc
 50
90.0
 51
180.0
  0
LINE
  5
107C
330
2
100
AcDbEntity
  8
0
100
AcDbLine
 10
686.4669693550532
 20
361.0879655005624
 30
0.0
 11
689.971756370449
 21
361.0879655005624
 31
0.0
  0
ARC
  5
107D
330
2
100
AcDbEntity
  8
0
100
AcDbCircle
 10
686.3763470051018
 20
659.2608955536429
 30
0.0
 40
3.0
100
AcDbArc
 50
90.0
 51
178.5000000000102
  0
ARC
  5
107E
330
2
100
AcDbEntity
  8
0
100
AcDbCircle
 10
689.9739869038504
 20
667.2608955536429
 30
0.0
 40
5.0
100
AcDbArc
 50
270.0
 51
351.7867893013297
  0
ARC
  5
107F
330
2
100
AcDbEntity
  8
0
100
AcDbCircle
 10
696.9021901341804
 20
666.2608955540177
 30
0.0
 40
2.0
100
AcDbArc
 50
90.0
 51
178.5000000000102
  0
LINE
  5
1080
330
2
100
AcDbEntity
  8
0
100
AcDbLine
 10
702.9538763923375
 20
668.2608955540176
 30
0.0
 11
696.9021901341804
 21
668.2608955540176
 31
0.0
  0
LINE
  5
1081
330
2
100
AcDbEntity
  8
0
100
AcDbLine
 10
686.3763470051018
 20
662.260895553643
 30
0.0
 11
689.9739869038504
 21
662.260895553643
 31
0.0
  0
ARC
  5
1082
330
2
100
AcDbEntity
  8
0
100
AcDbCircle
 10
682.3763470053838
 20
662.2608955540177
 30
0.0
 40
2.0
100
AcDbArc
 50
270.0
 51
323.1301023487886
  0
LINE
  5
1083
330
2
100
AcDbEntity
  8
0
100
AcDbLine
 10
682.3763470053838
 20
660.2608955540176
 30
0.0
 11
671.9539525491065
 21
660.2608955540176
 31
0.0
  0
ARC
  5
1084
330
2
100
AcDbEntity
  8
0
100
AcDbCircle
 10
671.9538763923366
 20
662.2608955540177
 30
0.0
 40
2.0
100
AcDbArc
 50
180.0
 51
270.0
  0
ARC
  5
1085
330
2
100
AcDbEntity
  8
0
100
AcDbCircle
 10
674.9538763923366
 20
661.2608955540176
 30
0.0
 40
5.0
100
AcDbArc
 50
180.0
 51
270.0
  0
LINE
  5
1086
330
2
100
AcDbEntity
  8
0
100
AcDbLine
 10
678.630380312784
 20
656.2608955540176
 30
0.0
 11
674.9538763923375
 21
656.2608955540176
 31
0.0
  0
ARC
  5
1087
330
2
100
AcDbEntity
  8
0
100
AcDbCircle
 10
678.630380312784
 20
661.2608955540176
 30
0.0
 40
5.0
100
AcDbArc
 50
270.0
 51
345.5224878112707
  0
ARC
  5
1088
330
2
100
AcDbEntity
  8
0
100
AcDbCircle
 10
671.9538763923366
 20
612.2608955540158
 30
0.0
 40
2.0
100
AcDbArc
 50
90.0
 51
180.0
  0
LINE
  5
1089
330
2
100
AcDbEntity
  8
0
100
AcDbLine
 10
682.3763470053838
 20
614.2608955540159
 30
0.0
 11
671.9539525491065
 21
614.2608955540159
 31
0.0
  0
ARC
  5
108A
330
2
100
AcDbEntity
  8
0
100
AcDbCircle
 10
674.9538763923366
 20
613.2608955540158
 30
0.0
 40
5.0
100
AcDbArc
 50
90.0
 51
180.0
  0
LINE
  5
108B
330
2
100
AcDbEntity
  8
0
100
AcDbLine
 10
678.630380312784
 20
618.2608955540159
 30
0.0
 11
674.9538763923375
 21
618.2608955540159
 31
0.0
  0
ARC
  5
108C
330
2
100
AcDbEntity
  8
0
100
AcDbCircle
 10
678.630380312784
 20
613.2608955540158
 30
0.0
 40
5.0
100
AcDbArc
 50
14.47751218872929
 51
90.0
  0
ARC
  5
108D
330
2
100
AcDbEntity
  8
0
100
AcDbCircle
 10
682.3763470053838
 20
612.2608955540158
 30
0.0
 40
2.0
100
AcDbArc
 50
36.86989765121137
 51
90.0
  0
ARC
  5
108E
330
2
100
AcDbEntity
  8
0
100
AcDbCircle
 10
686.3763470051018
 20
615.2608955543923
 30
0.0
 40
3.0
100
AcDbArc
 50
181.4999999999897
 51
270.0
  0
LINE
  5
108F
330
2
100
AcDbEntity
  8
0
100
AcDbLine
 10
683.3773750301762
 20
615.1823647094693
 30
0.0
 11
682.7992283531222
 21
637.2608955540177
 31
0.0
  0
ARC
  5
1090
330
2
100
AcDbEntity
  8
0
100
AcDbCircle
 10
679.9422225442786
 20
631.7608955540176
 30
0.0
 40
3.0
100
AcDbArc
 50
1.499999999989693
 51
90.0
  0
LINE
  5
1091
330
2
100
AcDbEntity
  8
0
100
AcDbLine
 10
686.3763470051018
 20
612.2608955543924
 30
0.0
 11
689.9739869038504
 21
612.2608955543924
 31
0.0
  0
ARC
  5
1092
330
2
100
AcDbEntity
  8
0
100
AcDbCircle
 10
689.9739869038504
 20
607.2608955543923
 30
0.0
 40
5.0
100
AcDbArc
 50
8.213210698670247
 51
90.0
  0
ARC
  5
1093
330
2
100
AcDbEntity
  8
0
100
AcDbCircle
 10
696.9021901341804
 20
608.2608955540177
 30
0.0
 40
2.0
100
AcDbArc
 50
181.4999999999897
 51
270.0
  0
LINE
  5
1094
330
2
100
AcDbEntity
  8
0
100
AcDbLine
 10
694.9028754842294
 20
608.2085416574004
 30
0.0
 11
694.1421128236871
 21
637.2608955540177
 31
0.0
  0
LINE
  5
1095
330
2
100
AcDbEntity
  8
0
100
AcDbLine
 10
702.9538763923375
 20
606.2608955540176
 30
0.0
 11
696.9021901341804
 21
606.2608955540176
 31
0.0
  0
LINE
  5
1096
330
2
100
AcDbEntity
  8
0
100
AcDbLine
 10
683.3773750301762
 20
659.339426398566
 30
0.0
 11
682.7992283531222
 21
637.2608955540177
 31
0.0
  0
ARC
  5
1097
330
2
100
AcDbEntity
  8
0
100
AcDbCircle
 10
679.9422225442786
 20
642.7608955540176
 30
0.0
 40
3.0
100
AcDbArc
 50
270.0
 51
358.5000000000103
  0
LINE
  5
1098
330
2
100
AcDbEntity
  8
0
100
AcDbLine
 10
694.9028754842294
 20
666.3132494506331
 30
0.0
 11
694.1421128236871
 21
637.2608955540177
 31
0.0
  0
LINE
  5
1099
330
2
100
AcDbEntity
  8
0
100
AcDbLine
 10
673.1241645494138
 20
634.7608955540176
 30
0.0
 11
679.9422225442786
 21
634.7608955540176
 31
0.0
  0
LINE
  5
109A
330
2
100
AcDbEntity
  8
0
100
AcDbLine
 10
673.1241645493975
 20
639.7608955540176
 30
0.0
 11
679.9422225442796
 21
639.7608955540176
 31
0.0
  0
LINE
  5
109B
330
2
100
AcDbEntity
  8
0
100
AcDbLine
 10
663.9669693531215
 20
662.2608955540177
 30
0.0
 11
664.5961169382973
 21
638.2347186057099
 31
0.0
  0
ARC
  5
109C
330
2
100
AcDbEntity
  8
0
100
AcDbCircle
 10
665.5957742632728
 20
638.2608955540177
 30
0.0
 40
1.0
100
AcDbArc
 50
181.4999999999897
 51
270.0
  0
LINE
  5
109D
330
2
100
AcDbEntity
  8
0
100
AcDbLine
 10
665.5957742632728
 20
637.2608955540177
 30
0.0
 11
669.9538763923365
 21
637.2608955540177
 31
0.0
  0
LINE
  5
109E
330
2
100
AcDbEntity
  8
0
100
AcDbLine
 10
694.1421128236871
 20
637.2608955540177
 30
0.0
 11
702.9538763893107
 21
637.2608955540177
 31
0.0
  0
LINE
  5
109F
330
2
100
AcDbEntity
  8
0
100
AcDbLine
 10
631.9538763923375
 20
662.2608955540177
 30
0.0
 11
631.9538763923375
 21
605.7608955540176
 31
0.0
  0
LINE
  5
10A0
330
2
100
AcDbEntity
  8
0
100
AcDbLine
 10
628.9538763923366
 20
662.2608955540177
 30
0.0
 11
628.9538763923366
 21
605.7608955540176
 31
0.0
  0
LINE
  5
10A1
330
2
100
AcDbEntity
  8
0
100
AcDbLine
 10
614.2459115582052
 20
662.2608955540177
 30
0.0
 11
614.2459115582052
 21
605.7608955540176
 31
0.0
  0
LINE
  5
10A2
330
2
100
AcDbEntity
  8
0
100
AcDbLine
 10
577.6618412264725
 20
662.2608955540177
 30
0.0
 11
577.6618412264725
 21
605.7608955540176
 31
0.0
  0
LINE
  5
10A3
330
2
100
AcDbEntity
  8
0
100
AcDbLine
 10
562.9538763923375
 20
662.2608955540177
 30
0.0
 11
562.9538763923384
 21
605.7608955540176
 31
0.0
  0
LINE
  5
10A4
330
2
100
AcDbEntity
  8
0
100
AcDbLine
 10
559.9538763923375
 20
662.2608955540177
 30
0.0
 11
559.9538763923375
 21
605.7608955540176
 31
0.0
  0
LINE
  5
10A5
330
2
100
AcDbEntity
  8
0
100
AcDbLine
 10
592.7513923078215
 20
351.9148391229587
 30
0.0
 11
594.0113928508982
 21
351.9148391229587
 31
0.0
  0
LINE
  5
10A6
330
2
100
AcDbEntity
  8
0
100
AcDbLine
 10
594.5013923078151
 20
355.4148391229478
 30
0.0
 11
592.7513923078215
 21
351.9148391229587
 31
0.0
  0
ARC
  5
10A7
330
2
100
AcDbEntity
  8
0
100
AcDbCircle
 10
597.4063604753047
 20
354.2248391229509
 30
0.0
 40
1.189999999995825
100
AcDbArc
 50
307.5189678668057
 51
90.0
  0
LINE
  5
10A8
330
2
100
AcDbEntity
  8
0
100
AcDbLine
 10
598.1310990789026
 20
353.28098852225
 30
0.0
 11
599.0004417138353
 21
351.9148391229587
 31
0.0
  0
LINE
  5
10A9
330
2
100
AcDbEntity
  8
0
100
AcDbLine
 10
597.7404411707586
 20
351.9148391229587
 30
0.0
 11
599.0004417138353
 21
351.9148391229587
 31
0.0
  0
LINE
  5
10AA
330
2
100
AcDbEntity
  8
0
100
AcDbLine
 10
595.1663923078123
 20
351.9148391229587
 30
0.0
 11
596.2163604753096
 21
351.9148391229587
 31
0.0
  0
LINE
  5
10AB
330
2
100
AcDbEntity
  8
0
100
AcDbLine
 10
594.2738928508971
 20
352.4398391229565
 30
0.0
 11
594.0113928508982
 21
351.9148391229587
 31
0.0
  0
LINE
  5
10AC
330
2
100
AcDbEntity
  8
0
100
AcDbLine
 10
594.2738928508971
 20
352.4398391229565
 30
0.0
 11
595.1663923078123
 21
352.4398391229565
 31
0.0
  0
LINE
  5
10AD
330
2
100
AcDbEntity
  8
0
100
AcDbLine
 10
595.1663923078123
 20
352.4398391229565
 30
0.0
 11
595.1663923078123
 21
351.9148391229587
 31
0.0
  0
LINE
  5
10AE
330
2
100
AcDbEntity
  8
0
100
AcDbLine
 10
594.8338928508948
 20
353.5598391229537
 30
0.0
 11
595.1663923078123
 21
353.5598391229537
 31
0.0
  0
LINE
  5
10AF
330
2
100
AcDbEntity
  8
0
100
AcDbLine
 10
595.1663923078123
 20
354.2248380367887
 30
0.0
 11
595.1663923078123
 21
353.5598391229537
 31
0.0
  0
LINE
  5
10B0
330
2
100
AcDbEntity
  8
0
100
AcDbLine
 10
595.1663923078123
 20
354.2248380367887
 30
0.0
 11
594.8338928508948
 21
353.5598391229537
 31
0.0
  0
LINE
  5
10B1
330
2
100
AcDbEntity
  8
0
100
AcDbLine
 10
596.3651423078082
 20
354.0760891229524
 30
0.0
 11
597.7404411707586
 21
351.9148391229587
 31
0.0
  0
LINE
  5
10B2
330
2
100
AcDbEntity
  8
0
100
AcDbLine
 10
596.2163604753096
 20
354.2248391229509
 30
0.0
 11
596.2163604753096
 21
351.9148391229587
 31
0.0
  0
LINE
  5
10B3
330
2
100
AcDbEntity
  8
0
100
AcDbLine
 10
596.2163604753096
 20
354.2248391229509
 30
0.0
 11
597.3320173078047
 21
354.2248391229509
 31
0.0
  0
LINE
  5
10B4
330
2
100
AcDbEntity
  8
0
100
AcDbLine
 10
596.3651423078082
 20
354.0760891229524
 30
0.0
 11
597.3320173078047
 21
354.0760891229524
 31
0.0
  0
ARC
  5
10B5
330
2
100
AcDbEntity
  8
0
100
AcDbCircle
 10
597.3320173078047
 20
354.1504641229508
 30
0.0
 40
0.0743749999997391
100
AcDbArc
 50
270.0
 51
90.0
  0
LINE
  5
10B6
330
2
100
AcDbEntity
  8
0
100
AcDbLine
 10
594.5013923078151
 20
355.4148391229478
 30
0.0
 11
597.4063604753047
 21
355.4148391229478
 31
0.0
  0
LINE
  5
10B7
330
2
100
AcDbEntity
  8
0
100
AcDbLine
 10
93.30718940807775
 20
354.5879655005626
 30
0.0
 11
99.30718940807777
 21
354.5879655005626
 31
0.0
  0
ARC
  5
10B8
330
2
100
AcDbEntity
  8
0
100
AcDbCircle
 10
99.30718940807777
 20
356.5879655005626
 30
0.0
 40
2.0
100
AcDbArc
 50
270.0
 51
0.0
  0
ARC
  5
10B9
330
2
100
AcDbEntity
  8
0
100
AcDbCircle
 10
106.289309429963
 20
356.0879655005718
 30
0.0
 40
5.0
100
AcDbArc
 50
90.0
 51
175.9039562419073
  0
LINE
  5
10BA
330
2
100
AcDbEntity
  8
0
100
AcDbLine
 10
99.30718940807821
 20
417.5879655005626
 30
0.0
 11
93.30718940807821
 21
417.5879655005626
 31
0.0
  0
ARC
  5
10BB
330
2
100
AcDbEntity
  8
0
100
AcDbCircle
 10
99.30718940807821
 20
415.5879655005627
 30
0.0
 40
2.0
100
AcDbArc
 50
0.0
 51
89.99999999997395
  0
ARC
  5
10BC
330
2
100
AcDbEntity
  8
0
100
AcDbCircle
 10
106.2893094299616
 20
416.0879655005717
 30
0.0
 40
5.0
100
AcDbArc
 50
184.0960437581962
 51
270.0
  0
LINE
  5
10BD
330
2
100
AcDbEntity
  8
0
100
AcDbLine
 10
696.9538763923338
 20
417.5879655005624
 30
0.0
 11
702.9538763923339
 21
417.5879655005624
 31
0.0
  0
ARC
  5
10BE
330
2
100
AcDbEntity
  8
0
100
AcDbCircle
 10
696.9538763923338
 20
415.5879655005624
 30
0.0
 40
2.0
100
AcDbArc
 50
90.0
 51
180.0
  0
ARC
  5
10BF
330
2
100
AcDbEntity
  8
0
100
AcDbCircle
 10
689.971756370449
 20
416.0879655005624
 30
0.0
 40
5.0
100
AcDbArc
 50
270.0
 51
355.9039562418037
  0
ARC
  5
10C0
330
2
100
AcDbEntity
  8
0
100
AcDbCircle
 10
696.9538763923338
 20
356.5879655005624
 30
0.0
 40
2.0
100
AcDbArc
 50
180.0
 51
270.0
  0
LINE
  5
10C1
330
2
100
AcDbEntity
  8
0
100
AcDbLine
 10
702.9538763923339
 20
354.5879655005624
 30
0.0
 11
696.9538763923338
 21
354.5879655005624
 31
0.0
  0
ARC
  5
10C2
330
2
100
AcDbEntity
  8
0
100
AcDbCircle
 10
689.971756370449
 20
356.0879655005624
 30
0.0
 40
5.0
100
AcDbArc
 50
4.096043758196293
 51
90.0
  0
LINE
  5
10C3
330
2
100
AcDbEntity
  8
CENTER
100
AcDbLine
 10
380.8374863288228
 20
335.3061371953315
 30
0.0
 11
380.8374863288228
 21
436.8727026960439
 31
0.0
  0
LINE
  5
10C4
330
2
100
AcDbEntity
  8
0
100
AcDbLine
 10
418.8374863288228
 20
351.0879655005627
 30
0.0
 11
418.8374863288228
 21
421.0879655005626
 31
0.0
  0
LINE
  5
10C5
330
2
100
AcDbEntity
  8
0
100
AcDbLine
 10
413.8374863288228
 20
345.5941238324265
 30
0.0
 11
413.8374863288228
 21
426.584716058949
 31
0.0
  0
LINE
  5
10C6
330
2
100
AcDbEntity
  8
0
100
AcDbLine
 10
413.8374863288228
 20
421.0879655005626
 30
0.0
 11
418.8374863288228
 21
421.0879655005626
 31
0.0
  0
LINE
  5
10C7
330
2
100
AcDbEntity
  8
CENTER
100
AcDbLine
 10
305.8374863288232
 20
386.0879655005636
 30
0.0
 11
454.8374863288228
 21
386.0879655005608
 31
0.0
  0
LINE
  5
10C8
330
2
100
AcDbEntity
  8
0
100
AcDbLine
 10
413.8374863288228
 20
351.0879655005627
 30
0.0
 11
418.8374863288228
 21
351.0879655005627
 31
0.0
  0
LINE
  5
10C9
330
2
100
AcDbEntity
  8
0
100
AcDbLine
 10
355.8374863288228
 20
345.0879655005627
 30
0.0
 11
413.8374863288228
 21
345.5941238324265
 31
0.0
  0
LINE
  5
10CA
330
2
100
AcDbEntity
  8
0
100
AcDbLine
 10
355.8374863288228
 20
427.0908743908129
 30
0.0
 11
413.8374863288228
 21
426.584716058949
 31
0.0
  0
LINE
  5
10CB
330
2
100
AcDbEntity
  8
0
100
AcDbLine
 10
355.8374863288228
 20
417.18473969411
 30
0.0
 11
355.8374863288228
 21
427.0908743908129
 31
0.0
  0
ARC
  5
10CC
330
2
100
AcDbEntity
  8
0
100
AcDbCircle
 10
420.8374863288228
 20
416.4733130535695
 30
0.0
 40
2.0
100
AcDbArc
 50
180.0
 51
267.9999999999963
  0
ARC
  5
10CD
330
2
100
AcDbEntity
  8
0
100
AcDbCircle
 10
429.8374863288228
 20
412.156587950947
 30
0.0
 40
2.0
100
AcDbArc
 50
0.0
 51
87.99999999999636
  0
ARC
  5
10CE
330
2
100
AcDbEntity
  8
0
100
AcDbCircle
 10
420.8374863288228
 20
355.7026179475558
 30
0.0
 40
2.0
100
AcDbArc
 50
92.00000000000365
 51
180.0
  0
ARC
  5
10CF
330
2
100
AcDbEntity
  8
0
100
AcDbCircle
 10
429.8374863288228
 20
360.0193430501783
 30
0.0
 40
2.0
100
AcDbArc
 50
272.0000000000036
 51
0.0
  0
LINE
  5
10D0
330
2
100
AcDbEntity
  8
0
100
AcDbLine
 10
429.9072853222279
 20
414.1553696049866
 30
0.0
 11
420.7676873354176
 21
414.4745313995316
 31
0.0
  0
LINE
  5
10D1
330
2
100
AcDbEntity
  8
0
100
AcDbLine
 10
429.9072853222279
 20
358.0205613961405
 30
0.0
 11
420.7676873354176
 21
357.7013996015937
 31
0.0
  0
LINE
  5
10D2
330
2
100
AcDbEntity
  8
0
100
AcDbLine
 10
431.8374863288246
 20
360.0193430501783
 30
0.0
 11
431.8374863288227
 21
412.156587950947
 31
0.0
  0
LINE
  5
10D3
330
2
100
AcDbEntity
  8
0
100
AcDbLine
 10
355.8374863288228
 20
350.0879655005608
 30
0.0
 11
412.8374863288228
 21
350.0879655005608
 31
0.0
  0
LINE
  5
10D4
330
2
100
AcDbEntity
  8
0
100
AcDbLine
 10
355.8374863288228
 20
353.0879655005608
 30
0.0
 11
412.8374863288228
 21
353.0879655005608
 31
0.0
  0
LINE
  5
10D5
330
2
100
AcDbEntity
  8
0
100
AcDbLine
 10
355.8374863288228
 20
367.7959303346923
 30
0.0
 11
412.8374863288228
 21
367.7959303346923
 31
0.0
  0
LINE
  5
10D6
330
2
100
AcDbEntity
  8
0
100
AcDbLine
 10
355.8374863288228
 20
422.0879655005626
 30
0.0
 11
412.8374863288228
 21
422.0879655005626
 31
0.0
  0
LINE
  5
10D7
330
2
100
AcDbEntity
  8
0
100
AcDbLine
 10
355.8374863288228
 20
419.0879655005627
 30
0.0
 11
412.8374863288228
 21
419.0879655005627
 31
0.0
  0
LINE
  5
10D8
330
2
100
AcDbEntity
  8
0
100
AcDbLine
 10
355.8374863288228
 20
404.3800006664312
 30
0.0
 11
412.8374863288228
 21
404.3800006664312
 31
0.0
  0
LINE
  5
10D9
330
2
100
AcDbEntity
  8
0
100
AcDbLine
 10
669.9188166105305
 20
608.2434424830185
 30
0.0
 11
670.1720480871054
 21
637.2608955540177
 31
0.0
  0
ARC
  5
10DA
330
2
100
AcDbEntity
  8
0
100
AcDbCircle
 10
673.1241645494138
 20
631.7608955540176
 30
0.0
 40
3.0
100
AcDbArc
 50
90.0
 51
179.5000000000344
  0
ARC
  5
10DB
330
2
100
AcDbEntity
  8
0
100
AcDbCircle
 10
667.9188927644028
 20
608.2608955540158
 30
0.0
 40
2.0
100
AcDbArc
 50
270.0
 51
359.5000000000345
  0
LINE
  5
10DC
330
2
100
AcDbEntity
  8
0
100
AcDbLine
 10
636.9495129584394
 20
662.2608955540177
 30
0.0
 11
636.4433546265765
 21
604.2608955540177
 31
0.0
  0
ARC
  5
10DD
330
2
100
AcDbEntity
  8
0
100
AcDbCircle
 10
637.9477751780505
 20
604.7608955540122
 30
0.0
 40
1.5
100
AcDbArc
 50
90.0
 51
179.5000000000344
  0
LINE
  5
10DE
330
2
100
AcDbEntity
  8
0
100
AcDbLine
 10
669.9538763923365
 20
662.2608955540177
 30
0.0
 11
670.1720480870855
 21
637.2608955540177
 31
0.0
  0
ARC
  5
10DF
330
2
100
AcDbEntity
  8
0
100
AcDbCircle
 10
673.1241645493975
 20
642.7608955540176
 30
0.0
 40
3.0
100
AcDbArc
 50
180.4999999999655
 51
270.0
  0
LINE
  5
10E0
330
2
100
AcDbEntity
  8
0
100
AcDbLine
 10
338.5374863288235
 20
359.5879655005608
 30
0.0
 11
341.8374863288228
 21
359.5879655005627
 31
0.0
  0
LINE
  5
10E1
330
2
100
AcDbEntity
  8
HIDS
100
AcDbLine
 10
343.044593110004
 20
354.3808587193741
 30
0.0
 11
342.6303795476325
 21
354.7950722817457
 31
0.0
  0
LINE
  5
10E2
330
2
100
AcDbEntity
  8
0
100
AcDbLine
 10
341.837486328821
 20
357.5879655005645
 30
0.0
 11
342.3374863288246
 21
357.0879655005626
 31
0.0
  0
LINE
  5
10E3
330
2
100
AcDbEntity
  8
0
100
AcDbLine
 10
334.8374863288232
 20
359.5879655005608
 30
0.0
 11
333.8374863288232
 21
360.1653157697508
 31
0.0
  0
LINE
  5
10E4
330
2
100
AcDbEntity
  8
0
100
AcDbLine
 10
336.5374863288235
 20
360.2879655005616
 30
0.0
 11
338.1374863288239
 21
360.2879655005616
 31
0.0
  0
LINE
  5
10E5
330
2
100
AcDbEntity
  8
0
100
AcDbLine
 10
338.3374863288228
 20
359.7879655005616
 30
0.0
 11
338.5374863288235
 21
359.5879655005608
 31
0.0
  0
LINE
  5
10E6
330
2
100
AcDbEntity
  8
0
100
AcDbLine
 10
336.3374863288228
 20
359.7879655005616
 30
0.0
 11
336.3374863288228
 21
412.387965500562
 31
0.0
  0
LINE
  5
10E7
330
2
100
AcDbEntity
  8
0
100
AcDbLine
 10
334.8374863288232
 20
359.5879655005608
 30
0.0
 11
336.1374863288239
 21
359.5879655005608
 31
0.0
  0
LINE
  5
10E8
330
2
100
AcDbEntity
  8
0
100
AcDbLine
 10
338.5374863288217
 20
412.5879655005626
 30
0.0
 11
341.837486328821
 21
412.5879655005626
 31
0.0
  0
LINE
  5
10E9
330
2
100
AcDbEntity
  8
0
100
AcDbLine
 10
341.837486328821
 20
414.5879655005627
 30
0.0
 11
341.837486328821
 21
357.5879655005645
 31
0.0
  0
LINE
  5
10EA
330
2
100
AcDbEntity
  8
0
100
AcDbLine
 10
341.8374863288173
 20
412.5879655005626
 30
0.0
 11
341.8374863288173
 21
414.5879655005572
 31
0.0
  0
LINE
  5
10EB
330
2
100
AcDbEntity
  8
0
100
AcDbLine
 10
343.3374863288182
 20
346.1883625585413
 30
0.0
 11
343.3374863288182
 21
346.5879655005626
 31
0.0
  0
LINE
  5
10EC
330
2
100
AcDbEntity
  8
HIDS
100
AcDbLine
 10
343.3374863288173
 20
346.5879655005626
 30
0.0
 11
343.3374863288182
 21
356.5879655005626
 31
0.0
  0
LINE
  5
10ED
330
2
100
AcDbEntity
  8
0
100
AcDbLine
 10
343.3374863288182
 20
356.5879655005626
 30
0.0
 11
343.3374863288182
 21
415.5879655005627
 31
0.0
  0
LINE
  5
10EE
330
2
100
AcDbEntity
  8
HIDS
100
AcDbLine
 10
343.3374863288182
 20
415.5879655005627
 30
0.0
 11
343.3374863288182
 21
425.5879655005626
 31
0.0
  0
LINE
  5
10EF
330
2
100
AcDbEntity
  8
0
100
AcDbLine
 10
343.3374863288191
 20
425.5879655005626
 30
0.0
 11
343.3374863288191
 21
425.9875684425822
 31
0.0
  0
ARC
  5
10F0
330
2
100
AcDbEntity
  8
0
100
AcDbCircle
 10
344.3374863288182
 20
346.1883625585413
 30
0.0
 40
1.0
100
AcDbArc
 50
180.0
 51
269.5000000000084
  0
LINE
  5
10F1
330
2
100
AcDbEntity
  8
0
100
AcDbLine
 10
341.837486328821
 20
414.5879655005627
 30
0.0
 11
342.337486328821
 21
415.0879655005627
 31
0.0
  0
LINE
  5
10F2
330
2
100
AcDbEntity
  8
HIDS
100
AcDbLine
 10
343.044593110004
 20
417.7950722817493
 30
0.0
 11
342.6303795476306
 21
417.380858719376
 31
0.0
  0
LINE
  5
10F3
330
2
100
AcDbEntity
  8
HIDS
100
AcDbLine
 10
342.3374863288164
 20
355.5021790629323
 30
0.0
 11
342.3374863288173
 21
356.5879655005626
 31
0.0
  0
LINE
  5
10F4
330
2
100
AcDbEntity
  8
0
100
AcDbLine
 10
342.3374863288164
 20
356.5879655005626
 30
0.0
 11
342.3374863288164
 21
415.5879655005627
 31
0.0
  0
LINE
  5
10F5
330
2
100
AcDbEntity
  8
HIDS
100
AcDbLine
 10
342.3374863288164
 20
415.5879655005627
 30
0.0
 11
342.3374863288164
 21
416.6737519381893
 31
0.0
  0
LINE
  5
10F6
330
2
100
AcDbEntity
  8
0
100
AcDbLine
 10
333.8374863288196
 20
360.1653157697526
 30
0.0
 11
333.8374863288187
 21
412.0106152313709
 31
0.0
  0
LINE
  5
10F7
330
2
100
AcDbEntity
  8
0
100
AcDbLine
 10
334.8374863288214
 20
412.5879655005626
 30
0.0
 11
336.137486328822
 21
412.5879655005626
 31
0.0
  0
LINE
  5
10F8
330
2
100
AcDbEntity
  8
0
100
AcDbLine
 10
338.337486328821
 20
412.387965500562
 30
0.0
 11
338.5374863288217
 21
412.5879655005626
 31
0.0
  0
LINE
  5
10F9
330
2
100
AcDbEntity
  8
0
100
AcDbLine
 10
338.337486328821
 20
412.387965500562
 30
0.0
 11
338.3374863287818
 21
359.7879655006034
 31
0.0
  0
LINE
  5
10FA
330
2
100
AcDbEntity
  8
0
100
AcDbLine
 10
336.5374863288217
 20
411.8879655005619
 30
0.0
 11
338.1374863288221
 21
411.8879655005619
 31
0.0
  0
LINE
  5
10FB
330
2
100
AcDbEntity
  8
0
100
AcDbLine
 10
334.8374863288214
 20
412.5879655005626
 30
0.0
 11
333.8374863288214
 21
412.0106152313726
 31
0.0
  0
LINE
  5
10FC
330
2
100
AcDbEntity
  8
0
100
AcDbLine
 10
355.8374863288209
 20
427.0879655005627
 30
0.0
 11
355.8374863288255
 21
345.0879655005627
 31
0.0
  0
LINE
  5
10FD
330
2
100
AcDbEntity
  8
0
100
AcDbLine
 10
355.8374863288255
 20
345.0879655005627
 30
0.0
 11
344.3287597933196
 21
345.1884006354774
 31
0.0
  0
ARC
  5
10FE
330
2
100
AcDbEntity
  8
HIDS
100
AcDbCircle
 10
343.3374863288191
 20
355.5021790629323
 30
0.0
 40
1.0
100
AcDbArc
 50
180.0
 51
225.000000000021
  0
ARC
  5
10FF
330
2
100
AcDbEntity
  8
HIDS
100
AcDbCircle
 10
342.3374863288191
 20
353.6737519381875
 30
0.0
 40
1.0
100
AcDbArc
 50
0.0
 51
45.00000000002101
  0
ARC
  5
1100
330
2
100
AcDbEntity
  8
HIDS
100
AcDbCircle
 10
343.3374863288164
 20
416.6737519381893
 30
0.0
 40
1.0
100
AcDbArc
 50
134.999999999979
 51
180.0
  0
ARC
  5
1101
330
2
100
AcDbEntity
  8
HIDS
100
AcDbCircle
 10
342.3374863288191
 20
418.5021790629378
 30
0.0
 40
1.0
100
AcDbArc
 50
314.9999999999789
 51
0.0
  0
ARC
  5
1102
330
2
100
AcDbEntity
  8
0
100
AcDbCircle
 10
336.137486328822
 20
412.387965500562
 30
0.0
 40
0.2
100
AcDbArc
 50
0.0
 51
90.0
  0
ARC
  5
1103
330
2
100
AcDbEntity
  8
0
100
AcDbCircle
 10
336.5374863288217
 20
412.0879655005627
 30
0.0
 40
0.2
100
AcDbArc
 50
180.0
 51
270.0
  0
ARC
  5
1104
330
2
100
AcDbEntity
  8
0
100
AcDbCircle
 10
338.1374863288221
 20
412.0879655005627
 30
0.0
 40
0.2
100
AcDbArc
 50
270.0
 51
0.0
  0
ARC
  5
1105
330
2
100
AcDbEntity
  8
0
100
AcDbCircle
 10
336.1374863288239
 20
359.7879655005616
 30
0.0
 40
0.2
100
AcDbArc
 50
270.0
 51
0.0
  0
ARC
  5
1106
330
2
100
AcDbEntity
  8
0
100
AcDbCircle
 10
336.5374863288235
 20
360.0879655005608
 30
0.0
 40
0.2
100
AcDbArc
 50
90.0
 51
180.0
  0
ARC
  5
1107
330
2
100
AcDbEntity
  8
0
100
AcDbCircle
 10
338.1374863288239
 20
360.0879655005608
 30
0.0
 40
0.2
100
AcDbArc
 50
0.0
 51
90.0
  0
LINE
  5
1108
330
2
100
AcDbEntity
  8
0
100
AcDbLine
 10
334.8374863288232
 20
359.5879655005608
 30
0.0
 11
334.8374863288214
 21
412.5879655005626
 31
0.0
  0
LINE
  5
1109
330
2
100
AcDbEntity
  8
0
100
AcDbLine
 10
338.5374863288217
 20
412.5879655005626
 30
0.0
 11
338.5374863288235
 21
359.5879655005608
 31
0.0
  0
LINE
  5
110A
330
2
100
AcDbEntity
  8
0
100
AcDbLine
 10
355.8374863288246
 20
350.0879655005626
 30
0.0
 11
349.3287597933186
 21
350.0879655005626
 31
0.0
  0
LINE
  5
110B
330
2
100
AcDbEntity
  8
0
100
AcDbLine
 10
355.8374863288246
 20
353.0879655005627
 30
0.0
 11
349.3287597933186
 21
353.0879655005627
 31
0.0
  0
LINE
  5
110C
330
2
100
AcDbEntity
  8
0
100
AcDbLine
 10
355.8374863288209
 20
419.0879655005627
 30
0.0
 11
349.3287597933195
 21
419.0879655005627
 31
0.0
  0
LINE
  5
110D
330
2
100
AcDbEntity
  8
0
100
AcDbLine
 10
355.8374863288209
 20
422.0879655005626
 30
0.0
 11
349.3287597933186
 21
422.0879655005626
 31
0.0
  0
LINE
  5
110E
330
2
100
AcDbEntity
  8
0
100
AcDbLine
 10
355.8374863288228
 20
404.3800006664312
 30
0.0
 11
344.3374863288191
 21
404.3800006664312
 31
0.0
  0
LINE
  5
110F
330
2
100
AcDbEntity
  8
0
100
AcDbLine
 10
355.8374863288246
 20
367.7959303346941
 30
0.0
 11
344.3374863288191
 21
367.7959303346941
 31
0.0
  0
LINE
  5
1110
330
2
100
AcDbEntity
  8
0
100
AcDbLine
 10
344.3287597933196
 20
358.6229491270476
 30
0.0
 11
347.8418495965662
 21
358.5922908567971
 31
0.0
  0
LINE
  5
1111
330
2
100
AcDbEntity
  8
0
100
AcDbLine
 10
348.3374863288173
 20
358.0923098952642
 30
0.0
 11
348.3374863288173
 21
346.1447282195875
 31
0.0
  0
ARC
  5
1112
330
2
100
AcDbEntity
  8
0
100
AcDbCircle
 10
344.3374863288173
 20
359.6229110501151
 30
0.0
 40
1.0
100
AcDbArc
 50
180.0
 51
269.5000000000345
  0
ARC
  5
1113
330
2
100
AcDbEntity
  8
0
100
AcDbCircle
 10
347.8374863288173
 20
358.092309895266
 30
0.0
 40
0.5
100
AcDbArc
 50
0.0
 51
89.5000000000345
  0
ARC
  5
1114
330
2
100
AcDbEntity
  8
0
100
AcDbCircle
 10
349.3374863288173
 20
346.1447282195875
 30
0.0
 40
1.0
100
AcDbArc
 50
180.0
 51
269.5000000000084
  0
ARC
  5
1115
330
2
100
AcDbEntity
  8
0
100
AcDbCircle
 10
344.3374863288182
 20
425.9875684425822
 30
0.0
 40
1.0
100
AcDbArc
 50
90.49999999999155
 51
180.0
  0
LINE
  5
1116
330
2
100
AcDbEntity
  8
0
100
AcDbLine
 10
355.8374863288209
 20
427.0879655005627
 30
0.0
 11
344.3287597933196
 21
426.9875303656461
 31
0.0
  0
LINE
  5
1117
330
2
100
AcDbEntity
  8
0
100
AcDbLine
 10
344.3287597933196
 20
413.5529818740777
 30
0.0
 11
347.8418495965662
 21
413.5836401443264
 31
0.0
  0
LINE
  5
1118
330
2
100
AcDbEntity
  8
0
100
AcDbLine
 10
348.3374863288173
 20
414.0836211058593
 30
0.0
 11
348.3374863288173
 21
426.031202781536
 31
0.0
  0
ARC
  5
1119
330
2
100
AcDbEntity
  8
0
100
AcDbCircle
 10
344.3374863288173
 20
412.5530199510083
 30
0.0
 40
1.0
100
AcDbArc
 50
90.49999999996549
 51
180.0
  0
ARC
  5
111A
330
2
100
AcDbEntity
  8
0
100
AcDbCircle
 10
347.8374863288173
 20
414.0836211058593
 30
0.0
 40
0.5
100
AcDbArc
 50
270.4999999999654
 51
0.0
  0
ARC
  5
111B
330
2
100
AcDbEntity
  8
0
100
AcDbCircle
 10
349.3374863288173
 20
426.031202781536
 30
0.0
 40
1.0
100
AcDbArc
 50
90.49999999999155
 51
180.0
  0
LINE
  5
111C
330
2
100
AcDbEntity
  8
0
100
AcDbLine
 10
341.237486328817
 20
415.5879655005627
 30
0.0
 11
340.8374863288173
 21
416.2807858235899
 31
0.0
  0
LINE
  5
111D
330
2
100
AcDbEntity
  8
0
100
AcDbLine
 10
346.8374863288173
 20
415.5879655005627
 30
0.0
 11
346.8374863288173
 21
425.5879655005626
 31
0.0
  0
LINE
  5
111E
330
2
100
AcDbEntity
  8
0
100
AcDbLine
 10
341.237486328817
 20
415.5879655005627
 30
0.0
 11
341.237486328817
 21
425.5879655005626
 31
0.0
  0
LINE
  5
111F
330
2
100
AcDbEntity
  8
0
100
AcDbLine
 10
348.3374863288173
 20
415.5879655005627
 30
0.0
 11
341.237486328817
 21
415.5879655005627
 31
0.0
  0
LINE
  5
1120
330
2
100
AcDbEntity
  8
0
100
AcDbLine
 10
348.3374863288173
 20
425.5879655005626
 30
0.0
 11
341.237486328817
 21
425.5879655005626
 31
0.0
  0
LINE
  5
1121
330
2
100
AcDbEntity
  8
0
100
AcDbLine
 10
341.237486328817
 20
425.5879655005626
 30
0.0
 11
340.8374863288173
 21
424.8951451775353
 31
0.0
  0
LINE
  5
1122
330
2
100
AcDbEntity
  8
0
100
AcDbLine
 10
340.8374863288173
 20
416.2807858235899
 30
0.0
 11
340.8374863288173
 21
424.8951451775353
 31
0.0
  0
LINE
  5
1123
330
2
100
AcDbEntity
  8
0
100
AcDbLine
 10
348.3374863288173
 20
425.5879655005626
 30
0.0
 11
348.3374863288173
 21
415.5879655005627
 31
0.0
  0
LINE
  5
1124
330
2
100
AcDbEntity
  8
0
100
AcDbLine
 10
341.237486328817
 20
356.5879655005626
 30
0.0
 11
340.8374863288173
 21
355.8951451775354
 31
0.0
  0
LINE
  5
1125
330
2
100
AcDbEntity
  8
0
100
AcDbLine
 10
346.8374863288173
 20
356.5879655005626
 30
0.0
 11
346.8374863288173
 21
346.5879655005626
 31
0.0
  0
LINE
  5
1126
330
2
100
AcDbEntity
  8
0
100
AcDbLine
 10
341.237486328817
 20
356.5879655005626
 30
0.0
 11
341.237486328817
 21
346.5879655005626
 31
0.0
  0
LINE
  5
1127
330
2
100
AcDbEntity
  8
0
100
AcDbLine
 10
348.3374863288173
 20
356.5879655005626
 30
0.0
 11
341.237486328817
 21
356.5879655005626
 31
0.0
  0
LINE
  5
1128
330
2
100
AcDbEntity
  8
0
100
AcDbLine
 10
348.3374863288173
 20
346.5879655005626
 30
0.0
 11
341.237486328817
 21
346.5879655005626
 31
0.0
  0
LINE
  5
1129
330
2
100
AcDbEntity
  8
0
100
AcDbLine
 10
341.237486328817
 20
346.5879655005626
 30
0.0
 11
340.8374863288173
 21
347.2807858235899
 31
0.0
  0
LINE
  5
112A
330
2
100
AcDbEntity
  8
0
100
AcDbLine
 10
340.8374863288173
 20
355.8951451775354
 30
0.0
 11
340.8374863288173
 21
347.2807858235899
 31
0.0
  0
LINE
  5
112B
330
2
100
AcDbEntity
  8
0
100
AcDbLine
 10
569.4538763923357
 20
679.5608955540169
 30
0.0
 11
569.4538763923365
 21
676.2608955540176
 31
0.0
  0
LINE
  5
112C
330
2
100
AcDbEntity
  8
HIDS
100
AcDbLine
 10
564.246769611149
 20
675.0537887728365
 30
0.0
 11
564.6609831735205
 21
675.4680023352079
 31
0.0
  0
LINE
  5
112D
330
2
100
AcDbEntity
  8
0
100
AcDbLine
 10
567.4538763923393
 20
676.2608955540194
 30
0.0
 11
566.9538763923375
 21
675.7608955540158
 31
0.0
  0
LINE
  5
112E
330
2
100
AcDbEntity
  8
0
100
AcDbLine
 10
569.4538763923357
 20
683.2608955540177
 30
0.0
 11
570.0312266615257
 21
684.2608955540177
 31
0.0
  0
LINE
  5
112F
330
2
100
AcDbEntity
  8
0
100
AcDbLine
 10
570.1538763923364
 20
681.5608955540169
 30
0.0
 11
570.1538763923364
 21
679.9608955540166
 31
0.0
  0
LINE
  5
1130
330
2
100
AcDbEntity
  8
0
100
AcDbLine
 10
569.6538763923364
 20
679.7608955540177
 30
0.0
 11
569.4538763923357
 21
679.5608955540169
 31
0.0
  0
LINE
  5
1131
330
2
100
AcDbEntity
  8
0
100
AcDbLine
 10
569.6538763923364
 20
681.7608955540176
 30
0.0
 11
622.2538763923368
 21
681.7608955540176
 31
0.0
  0
LINE
  5
1132
330
2
100
AcDbEntity
  8
0
100
AcDbLine
 10
569.4538763923357
 20
683.2608955540177
 30
0.0
 11
569.4538763923357
 21
681.9608955540165
 31
0.0
  0
LINE
  5
1133
330
2
100
AcDbEntity
  8
0
100
AcDbLine
 10
637.9538763923366
 20
672.7608955540231
 30
0.0
 11
658.4538763923375
 21
672.7608955540231
 31
0.0
  0
LINE
  5
1134
330
2
100
AcDbEntity
  8
0
100
AcDbLine
 10
668.4538763923375
 20
672.7608955540231
 30
0.0
 11
668.8709330699386
 21
672.7608955540231
 31
0.0
  0
LINE
  5
1135
330
2
100
AcDbEntity
  8
0
100
AcDbLine
 10
656.9538763923375
 20
669.7608955540231
 30
0.0
 11
668.8971136733108
 21
669.7608955540231
 31
0.0
  0
LINE
  5
1136
330
2
100
AcDbEntity
  8
0
100
AcDbLine
 10
622.4538763923375
 20
679.5608955540187
 30
0.0
 11
622.4538763923366
 21
676.2608955540194
 31
0.0
  0
LINE
  5
1137
330
2
100
AcDbEntity
  8
0
100
AcDbLine
 10
624.4538763923365
 20
676.2608955540194
 30
0.0
 11
567.4538763923393
 21
676.2608955540194
 31
0.0
  0
LINE
  5
1138
330
2
100
AcDbEntity
  8
0
100
AcDbLine
 10
622.4538763923375
 20
676.2608955540231
 30
0.0
 11
624.4538763923311
 21
676.2608955540231
 31
0.0
  0
LINE
  5
1139
330
2
100
AcDbEntity
  8
0
100
AcDbLine
 10
556.0542734503161
 20
674.7608955540213
 30
0.0
 11
556.4538763923284
 21
674.7608955540213
 31
0.0
  0
LINE
  5
113A
330
2
100
AcDbEntity
  8
HIDS
100
AcDbLine
 10
556.4538763923284
 20
674.7608955540213
 30
0.0
 11
566.4538763923284
 21
674.7608955540213
 31
0.0
  0
LINE
  5
113B
330
2
100
AcDbEntity
  8
0
100
AcDbLine
 10
566.4538763923284
 20
674.7608955540213
 30
0.0
 11
635.9538763923366
 21
674.7608955540213
 31
0.0
  0
ARC
  5
113C
330
2
100
AcDbEntity
  8
0
100
AcDbCircle
 10
556.0542734503161
 20
673.7608955540212
 30
0.0
 40
1.0
100
AcDbArc
 50
90.0
 51
179.5000000000344
  0
LINE
  5
113D
330
2
100
AcDbEntity
  8
0
100
AcDbLine
 10
624.4538763923365
 20
676.2608955540194
 30
0.0
 11
624.9538763923366
 21
675.7608955540194
 31
0.0
  0
LINE
  5
113E
330
2
100
AcDbEntity
  8
0
100
AcDbLine
 10
627.6609831735242
 20
675.0537887728365
 30
0.0
 11
627.2467696111508
 21
675.4680023352098
 31
0.0
  0
LINE
  5
113F
330
2
100
AcDbEntity
  8
HIDS
100
AcDbLine
 10
565.3680899547071
 20
675.7608955540231
 30
0.0
 11
566.4538763923284
 21
675.7608955540231
 31
0.0
  0
LINE
  5
1140
330
2
100
AcDbEntity
  8
0
100
AcDbLine
 10
566.4538763923284
 20
675.7608955540231
 30
0.0
 11
626.5396628299641
 21
675.7608955540231
 31
0.0
  0
ARC
  5
1141
330
2
100
AcDbEntity
  8
0
100
AcDbCircle
 10
637.9538763923366
 20
673.7608955540231
 30
0.0
 40
1.0
100
AcDbArc
 50
180.0
 51
270.0
  0
ARC
  5
1142
330
2
100
AcDbEntity
  8
0
100
AcDbCircle
 10
635.9538763923366
 20
673.7608955540212
 30
0.0
 40
1.0
100
AcDbArc
 50
0.0
 51
90.0
  0
LINE
  5
1143
330
2
100
AcDbEntity
  8
0
100
AcDbLine
 10
636.9538763923365
 20
673.7608955540231
 30
0.0
 11
636.9538763923365
 21
673.7608955540212
 31
0.0
  0
LINE
  5
1144
330
2
100
AcDbEntity
  8
0
100
AcDbLine
 10
570.0312266615275
 20
684.2608955540213
 30
0.0
 11
621.8765261231457
 21
684.2608955540213
 31
0.0
  0
LINE
  5
1145
330
2
100
AcDbEntity
  8
0
100
AcDbLine
 10
622.4538763923375
 20
683.2608955540194
 30
0.0
 11
622.4538763923375
 21
681.9608955540184
 31
0.0
  0
LINE
  5
1146
330
2
100
AcDbEntity
  8
0
100
AcDbLine
 10
622.2538763923368
 20
679.7608955540194
 30
0.0
 11
622.4538763923375
 21
679.5608955540187
 31
0.0
  0
LINE
  5
1147
330
2
100
AcDbEntity
  8
0
100
AcDbLine
 10
622.2538763923368
 20
679.7608955540194
 30
0.0
 11
569.6538763923782
 21
679.7608955540576
 31
0.0
  0
LINE
  5
1148
330
2
100
AcDbEntity
  8
0
100
AcDbLine
 10
621.7538763923368
 20
681.5608955540187
 30
0.0
 11
621.7538763923368
 21
679.9608955540183
 31
0.0
  0
LINE
  5
1149
330
2
100
AcDbEntity
  8
0
100
AcDbLine
 10
622.4538763923375
 20
683.2608955540194
 30
0.0
 11
621.8765261231474
 21
684.2608955540194
 31
0.0
  0
LINE
  5
114A
330
2
100
AcDbEntity
  8
0
100
AcDbLine
 10
669.9538763923375
 20
662.2608955540213
 30
0.0
 11
669.8708949930025
 21
671.7696220895208
 31
0.0
  0
ARC
  5
114B
330
2
100
AcDbEntity
  8
0
100
AcDbCircle
 10
668.8971136733108
 20
668.7608955540231
 30
0.0
 40
1.0
100
AcDbArc
 50
0.4999999999654926
 51
90.0
  0
ARC
  5
114C
330
2
100
AcDbEntity
  8
0
100
AcDbCircle
 10
668.8709330699386
 20
671.7608955540231
 30
0.0
 40
1.0
100
AcDbArc
 50
0.4999999999654926
 51
90.0
  0
LINE
  5
114D
330
2
100
AcDbEntity
  8
0
100
AcDbLine
 10
669.9538763923365
 20
662.2608955540231
 30
0.0
 11
554.9538763923366
 21
662.260895554014
 31
0.0
  0
LINE
  5
114E
330
2
100
AcDbEntity
  8
0
100
AcDbLine
 10
669.9538763923365
 20
662.2608955540231
 30
0.0
 11
666.4538763923366
 21
662.2608955540213
 31
0.0
  0
LINE
  5
114F
330
2
100
AcDbEntity
  8
0
100
AcDbLine
 10
554.9538763923366
 20
662.260895554014
 30
0.0
 11
555.0543115272522
 21
673.7696220895209
 31
0.0
  0
ARC
  5
1150
330
2
100
AcDbEntity
  8
HIDS
100
AcDbCircle
 10
565.3680899547071
 20
674.7608955540213
 30
0.0
 40
1.0
100
AcDbArc
 50
90.0
 51
135.000000000002
  0
ARC
  5
1151
330
2
100
AcDbEntity
  8
HIDS
100
AcDbCircle
 10
563.5396628299615
 20
675.7608955540213
 30
0.0
 40
1.0
100
AcDbArc
 50
270.0
 51
315.000000000002
  0
ARC
  5
1152
330
2
100
AcDbEntity
  8
0
100
AcDbCircle
 10
626.5396628299641
 20
674.7608955540231
 30
0.0
 40
1.0
100
AcDbArc
 50
44.99999999999798
 51
90.00000000002605
  0
ARC
  5
1153
330
2
100
AcDbEntity
  8
0
100
AcDbCircle
 10
628.3680899547118
 20
675.7608955540213
 30
0.0
 40
1.0
100
AcDbArc
 50
224.999999999998
 51
270.0
  0
ARC
  5
1154
330
2
100
AcDbEntity
  8
0
100
AcDbCircle
 10
622.2538763923368
 20
681.9608955540184
 30
0.0
 40
0.2
100
AcDbArc
 50
270.0
 51
0.0
  0
ARC
  5
1155
330
2
100
AcDbEntity
  8
0
100
AcDbCircle
 10
621.9538763923375
 20
681.5608955540187
 30
0.0
 40
0.2
100
AcDbArc
 50
90.0
 51
180.0
  0
ARC
  5
1156
330
2
100
AcDbEntity
  8
0
100
AcDbCircle
 10
621.9538763923375
 20
679.9608955540183
 30
0.0
 40
0.2
100
AcDbArc
 50
180.0
 51
270.0
  0
ARC
  5
1157
330
2
100
AcDbEntity
  8
0
100
AcDbCircle
 10
569.6538763923364
 20
681.9608955540165
 30
0.0
 40
0.2
100
AcDbArc
 50
180.0
 51
270.0
  0
ARC
  5
1158
330
2
100
AcDbEntity
  8
0
100
AcDbCircle
 10
569.9538763923357
 20
681.5608955540169
 30
0.0
 40
0.2
100
AcDbArc
 50
0.0
 51
90.0
  0
ARC
  5
1159
330
2
100
AcDbEntity
  8
0
100
AcDbCircle
 10
569.9538763923357
 20
679.9608955540166
 30
0.0
 40
0.2
100
AcDbArc
 50
270.0
 51
0.0
  0
LINE
  5
115A
330
2
100
AcDbEntity
  8
0
100
AcDbLine
 10
569.4538763923357
 20
683.2608955540177
 30
0.0
 11
622.4538763923375
 21
683.2608955540194
 31
0.0
  0
LINE
  5
115B
330
2
100
AcDbEntity
  8
0
100
AcDbLine
 10
622.4538763923375
 20
679.5608955540187
 30
0.0
 11
569.4538763923357
 21
679.5608955540169
 31
0.0
  0
LINE
  5
115C
330
2
100
AcDbEntity
  8
0
100
AcDbLine
 10
559.9538763923375
 20
662.2608955540158
 30
0.0
 11
559.9538763923375
 21
668.7696220895209
 31
0.0
  0
LINE
  5
115D
330
2
100
AcDbEntity
  8
0
100
AcDbLine
 10
562.9538763923375
 20
662.2608955540158
 30
0.0
 11
562.9538763923375
 21
668.7696220895209
 31
0.0
  0
LINE
  5
115E
330
2
100
AcDbEntity
  8
0
100
AcDbLine
 10
577.6618412264689
 20
662.2608955540158
 30
0.0
 11
577.6618412264689
 21
673.7608955540212
 31
0.0
  0
LINE
  5
115F
330
2
100
AcDbEntity
  8
0
100
AcDbLine
 10
636.9538763923365
 20
673.7608955540212
 30
0.0
 11
636.9538763923365
 21
662.2608955540195
 31
0.0
  0
LINE
  5
1160
330
2
100
AcDbEntity
  8
0
100
AcDbLine
 10
656.4538763923374
 20
671.7608955540231
 30
0.0
 11
656.4538763923374
 21
670.2608955540231
 31
0.0
  0
ARC
  5
1161
330
2
100
AcDbEntity
  8
0
100
AcDbCircle
 10
655.4538763923375
 20
671.7608955540231
 30
0.0
 40
1.0
100
AcDbArc
 50
0.0
 51
90.0
  0
ARC
  5
1162
330
2
100
AcDbEntity
  8
0
100
AcDbCircle
 10
656.9538763923375
 20
670.2608955540231
 30
0.0
 40
0.5
100
AcDbArc
 50
180.0
 51
270.000000000026
  0
LINE
  5
1163
330
2
100
AcDbEntity
  8
0
100
AcDbLine
 10
568.4888600188215
 20
673.7696220895209
 30
0.0
 11
568.4582017485719
 21
670.2565322862733
 31
0.0
  0
LINE
  5
1164
330
2
100
AcDbEntity
  8
0
100
AcDbLine
 10
567.9582207870391
 20
669.7608955540231
 30
0.0
 11
556.0106391113623
 21
669.7608955540231
 31
0.0
  0
ARC
  5
1165
330
2
100
AcDbEntity
  8
0
100
AcDbCircle
 10
569.48882194189
 20
673.7608955540231
 30
0.0
 40
1.0
100
AcDbArc
 50
90.0
 51
179.5000000000344
  0
ARC
  5
1166
330
2
100
AcDbEntity
  8
0
100
AcDbCircle
 10
567.9582207870399
 20
670.2608955540231
 30
0.0
 40
0.5
100
AcDbArc
 50
269.9999999999739
 51
359.5000000000345
  0
ARC
  5
1167
330
2
100
AcDbEntity
  8
0
100
AcDbCircle
 10
556.0106391113623
 20
668.7608955540231
 30
0.0
 40
1.0
100
AcDbArc
 50
90.0
 51
179.5000000000344
  0
LINE
  5
1168
330
2
100
AcDbEntity
  8
CENTER
  6
CENS
100
AcDbLine
 10
663.4538763923375
 20
659.2608955540177
 30
0.0
 11
663.4538763923375
 21
680.2608955540231
 31
0.0
  0
LINE
  5
1169
330
2
100
AcDbEntity
  8
0
100
AcDbLine
 10
668.4538763923375
 20
676.8608955540234
 30
0.0
 11
667.7610560693103
 21
677.2608955540231
 31
0.0
  0
LINE
  5
116A
330
2
100
AcDbEntity
  8
0
100
AcDbLine
 10
668.4538763923375
 20
671.2608955540231
 30
0.0
 11
658.4538763923375
 21
671.2608955540231
 31
0.0
  0
LINE
  5
116B
330
2
100
AcDbEntity
  8
0
100
AcDbLine
 10
668.4538763923375
 20
676.8608955540234
 30
0.0
 11
658.4538763923375
 21
676.8608955540234
 31
0.0
  0
LINE
  5
116C
330
2
100
AcDbEntity
  8
0
100
AcDbLine
 10
668.4538763923375
 20
669.7608955540231
 30
0.0
 11
668.4538763923375
 21
676.8608955540234
 31
0.0
  0
LINE
  5
116D
330
2
100
AcDbEntity
  8
0
100
AcDbLine
 10
658.4538763923375
 20
669.7608955540231
 30
0.0
 11
658.4538763923375
 21
676.8608955540234
 31
0.0
  0
LINE
  5
116E
330
2
100
AcDbEntity
  8
0
100
AcDbLine
 10
658.4538763923375
 20
676.8608955540234
 30
0.0
 11
659.1466967153648
 21
677.2608955540231
 31
0.0
  0
LINE
  5
116F
330
2
100
AcDbEntity
  8
0
100
AcDbLine
 10
667.7610560693103
 20
677.2608955540231
 30
0.0
 11
659.1466967153648
 21
677.2608955540231
 31
0.0
  0
LINE
  5
1170
330
2
100
AcDbEntity
  8
0
100
AcDbLine
 10
658.4538763923375
 20
669.7608955540231
 30
0.0
 11
668.4538763923375
 21
669.7608955540231
 31
0.0
  0
LINE
  5
1171
330
2
100
AcDbEntity
  8
CENTER
  6
CENS
100
AcDbLine
 10
561.4538763923284
 20
659.2608955540177
 30
0.0
 11
561.4538763923284
 21
680.2608955540231
 31
0.0
  0
LINE
  5
1172
330
2
100
AcDbEntity
  8
0
100
AcDbLine
 10
566.4538763923284
 20
676.8608955540234
 30
0.0
 11
565.7610560693012
 21
677.2608955540231
 31
0.0
  0
LINE
  5
1173
330
2
100
AcDbEntity
  8
0
100
AcDbLine
 10
566.4538763923284
 20
671.2608955540231
 30
0.0
 11
556.4538763923284
 21
671.2608955540231
 31
0.0
  0
LINE
  5
1174
330
2
100
AcDbEntity
  8
0
100
AcDbLine
 10
566.4538763923284
 20
676.8608955540234
 30
0.0
 11
556.4538763923284
 21
676.8608955540234
 31
0.0
  0
LINE
  5
1175
330
2
100
AcDbEntity
  8
0
100
AcDbLine
 10
566.4538763923284
 20
669.7608955540231
 30
0.0
 11
566.4538763923284
 21
676.8608955540234
 31
0.0
  0
LINE
  5
1176
330
2
100
AcDbEntity
  8
0
100
AcDbLine
 10
556.4538763923284
 20
669.7608955540231
 30
0.0
 11
556.4538763923284
 21
676.8608955540234
 31
0.0
  0
LINE
  5
1177
330
2
100
AcDbEntity
  8
0
100
AcDbLine
 10
556.4538763923284
 20
676.8608955540234
 30
0.0
 11
557.1466967153557
 21
677.2608955540231
 31
0.0
  0
LINE
  5
1178
330
2
100
AcDbEntity
  8
0
100
AcDbLine
 10
565.7610560693012
 20
677.2608955540231
 30
0.0
 11
557.1466967153557
 21
677.2608955540231
 31
0.0
  0
LINE
  5
1179
330
2
100
AcDbEntity
  8
0
100
AcDbLine
 10
556.4538763923284
 20
669.7608955540231
 30
0.0
 11
566.4538763923284
 21
669.7608955540231
 31
0.0
  0
LINE
  5
117A
330
2
100
AcDbEntity
  8
HIDS
100
AcDbLine
 10
658.4538763923375
 20
672.7608955540231
 30
0.0
 11
668.4538763923375
 21
672.7608955540231
 31
0.0
  0
LINE
  5
117B
330
2
100
AcDbEntity
  8
CENTER
  6
CENS
100
AcDbLine
 10
336.2588184187208
 20
420.5879655005626
 30
0.0
 11
360.8216720951023
 21
420.5879655005626
 31
0.0
  0
LINE
  5
117C
330
2
100
AcDbEntity
  8
CENTER
  6
CENS
100
AcDbLine
 10
336.2588184187208
 20
351.5879655005627
 30
0.0
 11
360.8216720951023
 21
351.5879655005627
 31
0.0
  0
LINE
  5
117D
330
2
100
AcDbEntity
  8
CENTER
100
AcDbLine
 10
243.5571894080777
 20
351.5879655005627
 30
0.0
 11
226.0571894080777
 21
351.5879655005627
 31
0.0
  0
LINE
  5
117E
330
2
100
AcDbEntity
  8
CENTER
100
AcDbLine
 10
132.8071894080773
 20
420.3379655005645
 30
0.0
 11
132.8071894080773
 21
402.8379655005645
 31
0.0
  0
CIRCLE
  5
117F
330
2
100
AcDbEntity
  8
HOJO
100
AcDbCircle
 10
235.3071894080773
 20
409.0879655005626
 30
0.0
 40
2.0
  0
LINE
  5
1180
330
2
100
AcDbEntity
  8
CENTER
100
AcDbLine
 10
139.1339843273209
 20
413.5879655005645
 30
0.0
 11
149.480394488835
 21
413.5879655005645
 31
0.0
  0
LINE
  5
1181
330
2
100
AcDbEntity
  8
CENTER
100
AcDbLine
 10
124.0571894080773
 20
411.5879655005644
 30
0.0
 11
141.5571894080773
 21
411.5879655005644
 31
0.0
  0
LINE
  5
1182
330
2
100
AcDbEntity
  8
CENTER
100
AcDbLine
 10
144.3071894080777
 20
418.7611705813213
 30
0.0
 11
144.3071894080777
 21
408.4147604198077
 31
0.0
  0
CIRCLE
  5
1183
330
2
100
AcDbEntity
  8
HOJO
100
AcDbCircle
 10
144.3071894080777
 20
413.5879655005645
 30
0.0
 40
2.0
  0
CIRCLE
  5
1184
330
2
100
AcDbEntity
  8
HOJO
100
AcDbCircle
 10
235.3071894080773
 20
363.0879655005626
 30
0.0
 40
2.0
  0
CIRCLE
  5
1185
330
2
100
AcDbEntity
  8
HOJO
100
AcDbCircle
 10
144.3071894080777
 20
358.5879655005608
 30
0.0
 40
2.0
  0
LINE
  5
1186
330
2
100
AcDbEntity
  8
CENTER
100
AcDbLine
 10
144.3071894080777
 20
352.6198924068792
 30
0.0
 11
144.3071894080777
 21
363.7611705813176
 31
0.0
  0
LINE
  5
1187
330
2
100
AcDbEntity
  8
CENTER
100
AcDbLine
 10
132.8071894080773
 20
351.8379655005608
 30
0.0
 11
132.8071894080773
 21
369.3379655005608
 31
0.0
  0
LINE
  5
1188
330
2
100
AcDbEntity
  8
CENTER
100
AcDbLine
 10
124.0571894080773
 20
360.5879655005608
 30
0.0
 11
141.5571894080773
 21
360.5879655005608
 31
0.0
  0
LINE
  5
1189
330
2
100
AcDbEntity
  8
CENTER
100
AcDbLine
 10
139.1339843273209
 20
358.5879655005608
 30
0.0
 11
149.480394488835
 21
358.5879655005608
 31
0.0
  0
ARC
  5
118A
330
2
100
AcDbEntity
  8
0
100
AcDbCircle
 10
238.1884934165092
 20
360.5879655005626
 30
0.0
 40
2.0
100
AcDbArc
 50
270.0
 51
3.96469786020805
  0
ARC
  5
118B
330
2
100
AcDbEntity
  8
0
100
AcDbCircle
 10
238.1884934165092
 20
411.5879655005627
 30
0.0
 40
2.0
100
AcDbArc
 50
356.0353021397919
 51
90.0
  0
ARC
  5
118C
330
2
100
AcDbEntity
  8
0
100
AcDbCircle
 10
280.08798072004
 20
408.6840089407521
 30
0.0
 40
40.0
100
AcDbArc
 50
166.6323257973733
 51
186.1769964048917
  0
ARC
  5
118D
330
2
100
AcDbEntity
  8
0
100
AcDbCircle
 10
280.0879807200395
 20
363.4919220603731
 30
0.0
 40
40.0
100
AcDbArc
 50
173.8230035951082
 51
193.3676742026266
  0
ARC
  5
118E
330
2
100
AcDbEntity
  8
0
100
AcDbCircle
 10
236.3071894080777
 20
350.0879655005626
 30
0.0
 40
5.0
100
AcDbArc
 50
270.0
 51
0.0
  0
ARC
  5
118F
330
2
100
AcDbEntity
  8
0
100
AcDbCircle
 10
236.3071894080777
 20
422.0879655005626
 30
0.0
 40
5.0
100
AcDbArc
 50
0.0
 51
90.0
  0
ARC
  5
1190
330
2
100
AcDbEntity
  8
0
100
AcDbCircle
 10
236.3071894080777
 20
419.0879655005627
 30
0.0
 40
5.0
100
AcDbArc
 50
346.6323257973734
 51
0.0
  0
LINE
  5
1191
330
2
100
AcDbEntity
  8
0
100
AcDbLine
 10
241.3071894080782
 20
419.0879655005627
 30
0.0
 11
241.3071894080782
 21
422.0879655005626
 31
0.0
  0
ARC
  5
1192
330
2
100
AcDbEntity
  8
0
100
AcDbCircle
 10
71.30718940807776
 20
386.0879655005626
 30
0.0
 40
170.0
100
AcDbArc
 50
353.8230035951083
 51
6.176996404891704
  0
ARC
  5
1193
330
2
100
AcDbEntity
  8
0
100
AcDbCircle
 10
236.3071894080777
 20
353.0879655005627
 30
0.0
 40
5.0
100
AcDbArc
 50
0.0
 51
13.36767420262659
  0
LINE
  5
1194
330
2
100
AcDbEntity
  8
0
100
AcDbLine
 10
241.3071894080782
 20
350.0879655005626
 30
0.0
 11
241.3071894080782
 21
353.0879655005627
 31
0.0
  0
ARC
  5
1195
330
2
100
AcDbEntity
  8
0
100
AcDbCircle
 10
181.3071894080782
 20
405.087965500559
 30
0.0
 40
12.0
100
AcDbArc
 50
90.0
 51
180.0
  0
ARC
  5
1196
330
2
100
AcDbEntity
  8
0
100
AcDbCircle
 10
219.3071894080741
 20
405.0879655005626
 30
0.0
 40
12.0
100
AcDbArc
 50
0.0
 51
90.0
  0
ARC
  5
1197
330
2
100
AcDbEntity
  8
0
100
AcDbCircle
 10
181.3071894080782
 20
405.087965500559
 30
0.0
 40
13.0
100
AcDbArc
 50
90.0
 51
180.0
  0
ARC
  5
1198
330
2
100
AcDbEntity
  8
0
100
AcDbCircle
 10
219.3071894080741
 20
405.0879655005626
 30
0.0
 40
13.0
100
AcDbArc
 50
0.0
 51
90.0
  0
CIRCLE
  5
1199
330
2
100
AcDbEntity
  8
0
100
AcDbCircle
 10
200.3071894080782
 20
386.0879655005626
 30
0.0
 40
28.99999999999986
  0
CIRCLE
  5
119A
330
2
100
AcDbEntity
  8
0
100
AcDbCircle
 10
200.3071894080782
 20
386.0879655005626
 30
0.0
 40
28.49999999999985
  0
CIRCLE
  5
119B
330
2
100
AcDbEntity
  8
0
100
AcDbCircle
 10
200.3071894080782
 20
386.0879655005626
 30
0.0
 40
25.92259999999985
  0
CIRCLE
  5
119C
330
2
100
AcDbEntity
  8
0
100
AcDbCircle
 10
200.3071894080782
 20
386.0879655005626
 30
0.0
 40
23.5774
  0
CIRCLE
  5
119D
330
2
100
AcDbEntity
  8
0
100
AcDbCircle
 10
200.3071894080782
 20
386.0879655005626
 30
0.0
 40
26.49999999999986
  0
ARC
  5
119E
330
2
100
AcDbEntity
  8
0
100
AcDbCircle
 10
132.8071894080773
 20
411.5879655005644
 30
0.0
 40
7.0
100
AcDbArc
 50
270.0
 51
0.0
  0
CIRCLE
  5
119F
330
2
100
AcDbEntity
  8
0
100
AcDbCircle
 10
200.3071894080782
 20
386.0879655005626
 30
0.0
 40
23.0
  0
LINE
  5
11A0
330
2
100
AcDbEntity
  8
0
100
AcDbLine
 10
159.3071894080782
 20
350.0879655005572
 30
0.0
 11
159.3071894080782
 21
422.0879655005626
 31
0.0
  0
LINE
  5
11A1
330
2
100
AcDbEntity
  8
0
100
AcDbLine
 10
126.3071894080782
 20
412.0879655005644
 30
0.0
 11
126.3071894080782
 21
360.087965500559
 31
0.0
  0
ARC
  5
11A2
330
2
100
AcDbEntity
  8
0
100
AcDbCircle
 10
177.7111459678886
 20
465.868756812524
 30
0.0
 40
40.0
100
AcDbArc
 50
256.6323257973708
 51
276.1769964048646
  0
LINE
  5
11A3
330
2
100
AcDbEntity
  8
0
100
AcDbLine
 10
219.3071894080791
 20
417.087965500559
 30
0.0
 11
181.3071894080791
 21
417.0879655005626
 31
0.0
  0
LINE
  5
11A4
330
2
100
AcDbEntity
  8
0
100
AcDbLine
 10
219.3071894080791
 20
418.087965500559
 30
0.0
 11
181.3071894080791
 21
418.0879655005626
 31
0.0
  0
ARC
  5
11A5
330
2
100
AcDbEntity
  8
0
100
AcDbCircle
 10
200.3071894080782
 20
257.0879655005626
 30
0.0
 40
170.0
100
AcDbArc
 50
83.82300359513532
 51
96.17699640486467
  0
ARC
  5
11A6
330
2
100
AcDbEntity
  8
0
100
AcDbCircle
 10
222.9032328482677
 20
465.868756812524
 30
0.0
 40
40.0
100
AcDbArc
 50
263.8230035951353
 51
283.3676742026291
  0
ARC
  5
11A7
330
2
100
AcDbEntity
  8
0
100
AcDbCircle
 10
234.8071894080777
 20
420.5879655005626
 30
0.0
 40
7.0
100
AcDbArc
 50
180.0
 51
270.0
  0
ARC
  5
11A8
330
2
100
AcDbEntity
  8
0
100
AcDbCircle
 10
233.3071894080777
 20
422.0879655005626
 30
0.0
 40
5.0
100
AcDbArc
 50
90.0
 51
103.367674202629
  0
LINE
  5
11A9
330
2
100
AcDbEntity
  8
0
100
AcDbLine
 10
236.3071894080777
 20
427.0879655005627
 30
0.0
 11
233.3071894080777
 21
427.0879655005627
 31
0.0
  0
ARC
  5
11AA
330
2
100
AcDbEntity
  8
0
100
AcDbCircle
 10
225.8071894080777
 20
423.9692695089941
 30
0.0
 40
2.0
100
AcDbArc
 50
0.0
 51
93.96469786020883
  0
LINE
  5
11AB
330
2
100
AcDbEntity
  8
0
100
AcDbLine
 10
227.8071894080777
 20
420.5879655005626
 30
0.0
 11
227.8071894080777
 21
423.9692695089941
 31
0.0
  0
CIRCLE
  5
11AC
330
2
100
AcDbEntity
  8
0
100
AcDbCircle
 10
235.3071894080773
 20
409.0879655005626
 30
0.0
 40
1.6
  0
CIRCLE
  5
11AD
330
2
100
AcDbEntity
  8
0
100
AcDbCircle
 10
235.3071894080773
 20
409.0879655005626
 30
0.0
 40
2.5
  0
CIRCLE
  5
11AE
330
2
100
AcDbEntity
  8
0
100
AcDbCircle
 10
235.3071894080773
 20
409.0879655005626
 30
0.0
 40
3.0
  0
LINE
  5
11AF
330
2
100
AcDbEntity
  8
0
100
AcDbLine
 10
234.8071894080777
 20
413.5879655005626
 30
0.0
 11
238.1884934165092
 21
413.5879655005626
 31
0.0
  0
LINE
  5
11B0
330
2
100
AcDbEntity
  8
0
100
AcDbLine
 10
132.3071894080773
 20
418.0879655005645
 30
0.0
 11
155.3071894080782
 21
418.0879655005681
 31
0.0
  0
CIRCLE
  5
11B1
330
2
100
AcDbEntity
  8
0
100
AcDbCircle
 10
144.3071894080777
 20
413.5879655005645
 30
0.0
 40
3.0
  0
LINE
  5
11B2
330
2
100
AcDbEntity
  8
0
100
AcDbLine
 10
167.3071894080782
 20
427.0879655005627
 30
0.0
 11
164.3071894080782
 21
427.0879655005627
 31
0.0
  0
ARC
  5
11B3
330
2
100
AcDbEntity
  8
0
100
AcDbCircle
 10
167.3071894080782
 20
422.0879655005626
 30
0.0
 40
5.0
100
AcDbArc
 50
76.63232579737094
 51
90.0
  0
ARC
  5
11B4
330
2
100
AcDbEntity
  8
0
100
AcDbCircle
 10
164.3071894080782
 20
422.0879655005626
 30
0.0
 40
5.0
100
AcDbArc
 50
90.0
 51
180.0
  0
CIRCLE
  5
11B5
330
2
100
AcDbEntity
  8
0
100
AcDbCircle
 10
144.3071894080777
 20
413.5879655005645
 30
0.0
 40
1.6
  0
CIRCLE
  5
11B6
330
2
100
AcDbEntity
  8
0
100
AcDbCircle
 10
144.3071894080777
 20
413.5879655005645
 30
0.0
 40
2.5
  0
ARC
  5
11B7
330
2
100
AcDbEntity
  8
0
100
AcDbCircle
 10
132.3071894080782
 20
412.0879655005644
 30
0.0
 40
6.0
100
AcDbArc
 50
90.0
 51
180.0
  0
LINE
  5
11B8
330
2
100
AcDbEntity
  8
0
100
AcDbLine
 10
139.8071894080773
 20
411.5879655005644
 30
0.0
 11
139.8071894080773
 21
416.0879655005663
 31
0.0
  0
ARC
  5
11B9
330
2
100
AcDbEntity
  8
0
100
AcDbCircle
 10
181.3071894080818
 20
367.0879655005626
 30
0.0
 40
12.0
100
AcDbArc
 50
180.0
 51
270.0
  0
ARC
  5
11BA
330
2
100
AcDbEntity
  8
0
100
AcDbCircle
 10
181.3071894080818
 20
367.0879655005626
 30
0.0
 40
13.0
100
AcDbArc
 50
180.0
 51
270.0
  0
ARC
  5
11BB
330
2
100
AcDbEntity
  8
0
100
AcDbCircle
 10
178.0546586829233
 20
306.2702821585479
 30
0.0
 40
40.0
100
AcDbArc
 50
83.91726555027865
 51
103.1629662673907
  0
ARC
  5
11BC
330
2
100
AcDbEntity
  8
0
100
AcDbCircle
 10
219.3071894080782
 20
367.0879655005663
 30
0.0
 40
12.0
100
AcDbArc
 50
270.0
 51
0.0
  0
ARC
  5
11BD
330
2
100
AcDbEntity
  8
0
100
AcDbCircle
 10
219.3071894080782
 20
367.0879655005663
 30
0.0
 40
13.0
100
AcDbArc
 50
270.0
 51
0.0
  0
ARC
  5
11BE
330
2
100
AcDbEntity
  8
0
100
AcDbCircle
 10
234.8071894080777
 20
351.5879655005627
 30
0.0
 40
7.0
100
AcDbArc
 50
90.0
 51
180.0
  0
LINE
  5
11BF
330
2
100
AcDbEntity
  8
0
100
AcDbLine
 10
231.3071894080782
 20
367.0879655005663
 30
0.0
 11
231.3071894080782
 21
405.0879655005626
 31
0.0
  0
LINE
  5
11C0
330
2
100
AcDbEntity
  8
0
100
AcDbLine
 10
232.3071894080782
 20
367.0879655005663
 30
0.0
 11
232.3071894080782
 21
405.0879655005626
 31
0.0
  0
CIRCLE
  5
11C1
330
2
100
AcDbEntity
  8
0
100
AcDbCircle
 10
235.3071894080773
 20
363.0879655005626
 30
0.0
 40
3.0
  0
CIRCLE
  5
11C2
330
2
100
AcDbEntity
  8
0
100
AcDbCircle
 10
235.3071894080773
 20
363.0879655005626
 30
0.0
 40
1.6
  0
CIRCLE
  5
11C3
330
2
100
AcDbEntity
  8
0
100
AcDbCircle
 10
235.3071894080773
 20
363.0879655005626
 30
0.0
 40
2.5
  0
LINE
  5
11C4
330
2
100
AcDbEntity
  8
0
100
AcDbLine
 10
219.3071894080791
 20
355.0879655005663
 30
0.0
 11
181.3071894080832
 21
355.0879655005626
 31
0.0
  0
LINE
  5
11C5
330
2
100
AcDbEntity
  8
0
100
AcDbLine
 10
219.3071894080791
 20
354.0879655005663
 30
0.0
 11
181.3071894080832
 21
354.0879655005626
 31
0.0
  0
ARC
  5
11C6
330
2
100
AcDbEntity
  8
0
100
AcDbCircle
 10
200.3071894080782
 20
515.0879655005626
 30
0.0
 40
170.0
100
AcDbArc
 50
263.9172655502786
 51
276.1769964048646
  0
ARC
  5
11C7
330
2
100
AcDbEntity
  8
0
100
AcDbCircle
 10
222.9032328482673
 20
306.3071741885995
 30
0.0
 40
40.0
100
AcDbArc
 50
76.63232579737094
 51
96.17699640486467
  0
ARC
  5
11C8
330
2
100
AcDbEntity
  8
0
100
AcDbCircle
 10
225.8071894080777
 20
348.2066614921312
 30
0.0
 40
2.0
100
AcDbArc
 50
266.0353021397911
 51
0.0
  0
LINE
  5
11C9
330
2
100
AcDbEntity
  8
0
100
AcDbLine
 10
234.8071894080777
 20
358.5879655005626
 30
0.0
 11
238.1884934165092
 21
358.5879655005626
 31
0.0
  0
LINE
  5
11CA
330
2
100
AcDbEntity
  8
0
100
AcDbLine
 10
227.8071894080777
 20
351.5879655005627
 30
0.0
 11
227.8071894080777
 21
348.2066614921312
 31
0.0
  0
ARC
  5
11CB
330
2
100
AcDbEntity
  8
0
100
AcDbCircle
 10
233.3071894080777
 20
350.0879655005626
 30
0.0
 40
5.0
100
AcDbArc
 50
256.6323257973708
 51
270.0
  0
LINE
  5
11CC
330
2
100
AcDbEntity
  8
0
100
AcDbLine
 10
236.3071894080777
 20
345.0879655005627
 30
0.0
 11
233.3071894080777
 21
345.0879655005627
 31
0.0
  0
CIRCLE
  5
11CD
330
2
100
AcDbEntity
  8
0
100
AcDbCircle
 10
144.3071894080777
 20
358.5879655005608
 30
0.0
 40
2.5
  0
CIRCLE
  5
11CE
330
2
100
AcDbEntity
  8
0
100
AcDbCircle
 10
144.3071894080777
 20
358.5879655005608
 30
0.0
 40
1.6
  0
CIRCLE
  5
11CF
330
2
100
AcDbEntity
  8
0
100
AcDbCircle
 10
144.3071894080777
 20
358.5879655005608
 30
0.0
 40
3.0
  0
LINE
  5
11D0
330
2
100
AcDbEntity
  8
0
100
AcDbLine
 10
139.8071894080773
 20
360.5879655005608
 30
0.0
 11
139.8071894080773
 21
356.087965500559
 31
0.0
  0
ARC
  5
11D1
330
2
100
AcDbEntity
  8
0
100
AcDbCircle
 10
132.3071894080782
 20
360.087965500559
 30
0.0
 40
6.0
100
AcDbArc
 50
180.0
 51
270.0
  0
LINE
  5
11D2
330
2
100
AcDbEntity
  8
0
100
AcDbLine
 10
169.3071894080782
 20
367.0879655005663
 30
0.0
 11
169.3071894080782
 21
405.087965500559
 31
0.0
  0
LINE
  5
11D3
330
2
100
AcDbEntity
  8
0
100
AcDbLine
 10
168.3071894080782
 20
367.0879655005663
 30
0.0
 11
168.3071894080782
 21
405.087965500559
 31
0.0
  0
LINE
  5
11D4
330
2
100
AcDbEntity
  8
0
100
AcDbLine
 10
132.8071894080773
 20
404.5879655005645
 30
0.0
 11
128.3071894080782
 21
404.5879655005645
 31
0.0
  0
ARC
  5
11D5
330
2
100
AcDbEntity
  8
0
100
AcDbCircle
 10
132.8071894080773
 20
360.5879655005608
 30
0.0
 40
7.0
100
AcDbArc
 50
0.0
 51
90.0
  0
LINE
  5
11D6
330
2
100
AcDbEntity
  8
0
100
AcDbLine
 10
132.8071894080773
 20
367.5879655005608
 30
0.0
 11
128.3071894080782
 21
367.5879655005608
 31
0.0
  0
LINE
  5
11D7
330
2
100
AcDbEntity
  8
0
100
AcDbLine
 10
132.3071894080773
 20
354.087965500559
 30
0.0
 11
155.3071894080782
 21
354.0879655005572
 31
0.0
  0
ARC
  5
11D8
330
2
100
AcDbEntity
  8
0
100
AcDbCircle
 10
164.3071894080782
 20
350.0879655005626
 30
0.0
 40
5.0
100
AcDbArc
 50
180.0
 51
270.0
  0
LINE
  5
11D9
330
2
100
AcDbEntity
  8
0
100
AcDbLine
 10
167.8071894080782
 20
345.0879655005627
 30
0.0
 11
164.3071894080782
 21
345.0879655005627
 31
0.0
  0
ARC
  5
11DA
330
2
100
AcDbEntity
  8
0
100
AcDbCircle
 10
167.8071894080782
 20
350.0879655005626
 30
0.0
 40
5.0
100
AcDbArc
 50
270.0
 51
283.1629662673908
  0
ARC
  5
11DB
330
2
100
AcDbEntity
  8
0
100
AcDbCircle
 10
155.3071894080782
 20
422.0879655005681
 30
0.0
 40
4.0
100
AcDbArc
 50
270.0
 51
0.0
  0
ARC
  5
11DC
330
2
100
AcDbEntity
  8
0
100
AcDbCircle
 10
155.3071894080782
 20
350.0879655005572
 30
0.0
 40
4.0
100
AcDbArc
 50
0.0
 51
90.0
  0
LINE
  5
11DD
330
2
100
AcDbEntity
  8
0
100
AcDbLine
 10
228.4995775634985
 20
414.2803536559875
 30
0.0
 11
227.7924707823123
 21
413.5732468748008
 31
0.0
  0
LINE
  5
11DE
330
2
100
AcDbEntity
  8
0
100
AcDbLine
 10
228.4995775635039
 20
357.8955773451415
 30
0.0
 11
227.7924707823173
 21
358.6026841263281
 31
0.0
  0
LINE
  5
11DF
330
2
100
AcDbEntity
  8
0
100
AcDbLine
 10
172.8219080338436
 20
358.6026841263227
 30
0.0
 11
172.1148012526574
 21
357.895577345136
 31
0.0
  0
LINE
  5
11E0
330
2
100
AcDbEntity
  8
0
100
AcDbLine
 10
172.8219080338391
 20
413.5732468747972
 30
0.0
 11
172.1148012526524
 21
414.2803536559839
 31
0.0
  0
LINE
  5
11E1
330
2
100
AcDbEntity
  8
CENTER
100
AcDbLine
 10
234.8071894080859
 20
342.8379655005681
 30
0.0
 11
234.8071894080827
 21
360.3379655005681
 31
0.0
  0
ARC
  5
11E2
330
2
100
AcDbEntity
  8
0
100
AcDbCircle
 10
141.8071894080773
 20
416.0879655005663
 30
0.0
 40
2.0
100
AcDbArc
 50
90.0
 51
180.0
  0
ARC
  5
11E3
330
2
100
AcDbEntity
  8
0
100
AcDbCircle
 10
128.3071894080782
 20
402.5879655005645
 30
0.0
 40
2.0
100
AcDbArc
 50
90.0
 51
180.0
  0
ARC
  5
11E4
330
2
100
AcDbEntity
  8
0
100
AcDbCircle
 10
128.3071894080782
 20
369.5879655005608
 30
0.0
 40
2.0
100
AcDbArc
 50
180.0
 51
270.0
  0
ARC
  5
11E5
330
2
100
AcDbEntity
  8
0
100
AcDbCircle
 10
141.8071894080773
 20
356.087965500559
 30
0.0
 40
2.0
100
AcDbArc
 50
180.0
 51
270.0
  0
LINE
  5
11E6
330
2
100
AcDbEntity
  8
CENTER
100
AcDbLine
 10
243.5571894080777
 20
420.5879655005626
 30
0.0
 11
226.0571894080777
 21
420.5879655005626
 31
0.0
  0
LINE
  5
11E7
330
2
100
AcDbEntity
  8
CENTER
100
AcDbLine
 10
234.8071894080859
 20
429.3379655005554
 30
0.0
 11
234.8071894080827
 21
411.8379655005553
 31
0.0
  0
CIRCLE
  5
11E8
330
2
100
AcDbEntity
  8
0
100
AcDbCircle
 10
132.8071894080773
 20
411.5879655005644
 30
0.0
 40
5.000000000000113
  0
CIRCLE
  5
11E9
330
2
100
AcDbEntity
  8
0
100
AcDbCircle
 10
132.8071894080773
 20
411.5879655005644
 30
0.0
 40
4.307179676972509
  0
LINE
  5
11EA
330
2
100
AcDbEntity
  8
0
100
AcDbLine
 10
135.3071894080773
 20
413.0313411735385
 30
0.0
 11
135.3071894080773
 21
410.1445898275904
 31
0.0
  0
LINE
  5
11EB
330
2
100
AcDbEntity
  8
0
100
AcDbLine
 10
132.8071894080773
 20
408.7012141546163
 30
0.0
 11
135.3071894080773
 21
410.1445898275904
 31
0.0
  0
LINE
  5
11EC
330
2
100
AcDbEntity
  8
0
100
AcDbLine
 10
135.3071894080773
 20
413.0313411735385
 30
0.0
 11
132.8071894080773
 21
414.4747168465126
 31
0.0
  0
LINE
  5
11ED
330
2
100
AcDbEntity
  8
0
100
AcDbLine
 10
130.3071894080773
 20
413.0313411735385
 30
0.0
 11
130.3071894080773
 21
410.1445898275904
 31
0.0
  0
LINE
  5
11EE
330
2
100
AcDbEntity
  8
0
100
AcDbLine
 10
132.8071894080773
 20
408.7012141546163
 30
0.0
 11
130.3071894080773
 21
410.1445898275904
 31
0.0
  0
LINE
  5
11EF
330
2
100
AcDbEntity
  8
0
100
AcDbLine
 10
130.3071894080773
 20
413.0313411735385
 30
0.0
 11
132.8071894080773
 21
414.4747168465126
 31
0.0
  0
CIRCLE
  5
11F0
330
2
100
AcDbEntity
  8
0
100
AcDbCircle
 10
132.8071894080773
 20
360.5879655005608
 30
0.0
 40
5.000000000000113
  0
CIRCLE
  5
11F1
330
2
100
AcDbEntity
  8
0
100
AcDbCircle
 10
132.8071894080773
 20
360.5879655005608
 30
0.0
 40
4.307179676972509
  0
LINE
  5
11F2
330
2
100
AcDbEntity
  8
0
100
AcDbLine
 10
135.3071894080773
 20
362.0313411735349
 30
0.0
 11
135.3071894080773
 21
359.1445898275868
 31
0.0
  0
LINE
  5
11F3
330
2
100
AcDbEntity
  8
0
100
AcDbLine
 10
132.8071894080773
 20
357.7012141546127
 30
0.0
 11
135.3071894080773
 21
359.1445898275868
 31
0.0
  0
LINE
  5
11F4
330
2
100
AcDbEntity
  8
0
100
AcDbLine
 10
135.3071894080773
 20
362.0313411735331
 30
0.0
 11
132.8071894080773
 21
363.474716846509
 31
0.0
  0
LINE
  5
11F5
330
2
100
AcDbEntity
  8
0
100
AcDbLine
 10
130.3071894080773
 20
362.0313411735331
 30
0.0
 11
130.3071894080773
 21
359.1445898275868
 31
0.0
  0
LINE
  5
11F6
330
2
100
AcDbEntity
  8
0
100
AcDbLine
 10
132.8071894080773
 20
357.7012141546127
 30
0.0
 11
130.3071894080773
 21
359.1445898275868
 31
0.0
  0
LINE
  5
11F7
330
2
100
AcDbEntity
  8
0
100
AcDbLine
 10
130.3071894080773
 20
362.0313411735331
 30
0.0
 11
132.8071894080773
 21
363.4747168465072
 31
0.0
  0
CIRCLE
  5
11F8
330
2
100
AcDbEntity
  8
0
100
AcDbCircle
 10
234.8071894080845
 20
420.5879655005626
 30
0.0
 40
5.000000000000113
  0
CIRCLE
  5
11F9
330
2
100
AcDbEntity
  8
0
100
AcDbCircle
 10
234.8071894080845
 20
420.5879655005626
 30
0.0
 40
4.307179676972509
  0
LINE
  5
11FA
330
2
100
AcDbEntity
  8
0
100
AcDbLine
 10
237.3071894080845
 20
422.0313411735367
 30
0.0
 11
237.3071894080845
 21
419.1445898275886
 31
0.0
  0
LINE
  5
11FB
330
2
100
AcDbEntity
  8
0
100
AcDbLine
 10
234.8071894080841
 20
417.7012141546145
 30
0.0
 11
237.3071894080845
 21
419.1445898275886
 31
0.0
  0
LINE
  5
11FC
330
2
100
AcDbEntity
  8
0
100
AcDbLine
 10
237.3071894080845
 20
422.0313411735367
 30
0.0
 11
234.8071894080845
 21
423.4747168465108
 31
0.0
  0
LINE
  5
11FD
330
2
100
AcDbEntity
  8
0
100
AcDbLine
 10
232.3071894080845
 20
422.0313411735367
 30
0.0
 11
232.3071894080845
 21
419.1445898275886
 31
0.0
  0
LINE
  5
11FE
330
2
100
AcDbEntity
  8
0
100
AcDbLine
 10
234.8071894080841
 20
417.7012141546145
 30
0.0
 11
232.3071894080845
 21
419.1445898275886
 31
0.0
  0
LINE
  5
11FF
330
2
100
AcDbEntity
  8
0
100
AcDbLine
 10
232.3071894080845
 20
422.0313411735367
 30
0.0
 11
234.8071894080845
 21
423.4747168465108
 31
0.0
  0
CIRCLE
  5
1200
330
2
100
AcDbEntity
  8
0
100
AcDbCircle
 10
234.8071894080845
 20
351.5879655005627
 30
0.0
 40
5.000000000000113
  0
CIRCLE
  5
1201
330
2
100
AcDbEntity
  8
0
100
AcDbCircle
 10
234.8071894080845
 20
351.5879655005627
 30
0.0
 40
4.307179676972509
  0
LINE
  5
1202
330
2
100
AcDbEntity
  8
0
100
AcDbLine
 10
237.3071894080845
 20
353.0313411735367
 30
0.0
 11
237.3071894080845
 21
350.1445898275886
 31
0.0
  0
LINE
  5
1203
330
2
100
AcDbEntity
  8
0
100
AcDbLine
 10
234.8071894080841
 20
348.7012141546145
 30
0.0
 11
237.3071894080845
 21
350.1445898275886
 31
0.0
  0
LINE
  5
1204
330
2
100
AcDbEntity
  8
0
100
AcDbLine
 10
237.3071894080845
 20
353.0313411735367
 30
0.0
 11
234.8071894080845
 21
354.4747168465108
 31
0.0
  0
LINE
  5
1205
330
2
100
AcDbEntity
  8
0
100
AcDbLine
 10
232.3071894080845
 20
353.0313411735367
 30
0.0
 11
232.3071894080845
 21
350.1445898275886
 31
0.0
  0
LINE
  5
1206
330
2
100
AcDbEntity
  8
0
100
AcDbLine
 10
234.8071894080841
 20
348.7012141546145
 30
0.0
 11
232.3071894080845
 21
350.1445898275886
 31
0.0
  0
LINE
  5
1207
330
2
100
AcDbEntity
  8
0
100
AcDbLine
 10
232.3071894080845
 20
353.0313411735367
 30
0.0
 11
234.8071894080845
 21
354.4747168465108
 31
0.0
  0
LINE
  5
1208
330
2
100
AcDbEntity
  8
CENTER
100
AcDbLine
 10
423.8276968598439
 20
101.1381793909748
 30
0.0
 11
423.8276968598439
 21
202.7047448916881
 31
0.0
  0
LINE
  5
1209
330
2
100
AcDbEntity
  8
0
100
AcDbLine
 10
461.8276968598439
 20
116.9200076962068
 30
0.0
 11
461.8276968598439
 21
139.1114666375022
 31
0.0
  0
LINE
  5
120A
330
2
100
AcDbEntity
  8
0
100
AcDbLine
 10
461.8276968598439
 20
164.7285487549095
 30
0.0
 11
461.8276968598439
 21
186.9200076962068
 31
0.0
  0
LINE
  5
120B
330
2
100
AcDbEntity
  8
0
100
AcDbLine
 10
456.8276968598439
 20
111.4261660280706
 30
0.0
 11
456.8276968598439
 21
138.8177932228216
 31
0.0
  0
LINE
  5
120C
330
2
100
AcDbEntity
  8
0
100
AcDbLine
 10
456.8276968598439
 20
165.0222221695901
 30
0.0
 11
456.8276968598439
 21
192.4167582545931
 31
0.0
  0
LINE
  5
120D
330
2
100
AcDbEntity
  8
0
100
AcDbLine
 10
456.8276968598439
 20
186.9200076962068
 30
0.0
 11
461.8276968598439
 21
186.9200076962068
 31
0.0
  0
LINE
  5
120E
330
2
100
AcDbEntity
  8
CENTER
100
AcDbLine
 10
364.8276968598439
 20
151.9200076962068
 30
0.0
 11
497.8276968598439
 21
151.920007696205
 31
0.0
  0
LINE
  5
120F
330
2
100
AcDbEntity
  8
0
100
AcDbLine
 10
456.8276968598439
 20
116.9200076962068
 30
0.0
 11
461.8276968598439
 21
116.9200076962068
 31
0.0
  0
LINE
  5
1210
330
2
100
AcDbEntity
  8
0
100
AcDbLine
 10
398.8276968598439
 20
110.920007696205
 30
0.0
 11
456.8276968598439
 21
111.4261660280706
 31
0.0
  0
LINE
  5
1211
330
2
100
AcDbEntity
  8
0
100
AcDbLine
 10
398.8276968598439
 20
192.922916586457
 30
0.0
 11
456.8276968598439
 21
192.4167582545931
 31
0.0
  0
LINE
  5
1212
330
2
100
AcDbEntity
  8
0
100
AcDbLine
 10
398.8276968598439
 20
183.0167818897542
 30
0.0
 11
398.8276968598439
 21
192.922916586457
 31
0.0
  0
ARC
  5
1213
330
2
100
AcDbEntity
  8
0
100
AcDbCircle
 10
463.8276968598439
 20
182.3053552492136
 30
0.0
 40
2.0
100
AcDbArc
 50
180.0
 51
267.9999999999963
  0
ARC
  5
1214
330
2
100
AcDbEntity
  8
0
100
AcDbCircle
 10
472.8276968598439
 20
177.9886301465911
 30
0.0
 40
2.0
100
AcDbArc
 50
0.0
 51
87.99999999999636
  0
ARC
  5
1215
330
2
100
AcDbEntity
  8
0
100
AcDbCircle
 10
463.8276968598439
 20
121.5346601432
 30
0.0
 40
2.0
100
AcDbArc
 50
92.00000000000365
 51
180.0
  0
ARC
  5
1216
330
2
100
AcDbEntity
  8
0
100
AcDbCircle
 10
472.8276968598439
 20
125.8513852458225
 30
0.0
 40
2.0
100
AcDbArc
 50
272.0000000000036
 51
0.0
  0
LINE
  5
1217
330
2
100
AcDbEntity
  8
0
100
AcDbLine
 10
472.897495853249
 20
179.9874118006307
 30
0.0
 11
463.7578978664388
 21
180.3065735951757
 31
0.0
  0
LINE
  5
1218
330
2
100
AcDbEntity
  8
0
100
AcDbLine
 10
472.897495853249
 20
123.8526035917846
 30
0.0
 11
463.7578978664388
 21
123.5334417972379
 31
0.0
  0
LINE
  5
1219
330
2
100
AcDbEntity
  8
0
100
AcDbLine
 10
474.8276968598458
 20
125.8513852458225
 30
0.0
 11
474.8276968598439
 21
137.4199616962058
 31
0.0
  0
LINE
  5
121A
330
2
100
AcDbEntity
  8
0
100
AcDbLine
 10
474.8276968598439
 20
166.4199616962058
 30
0.0
 11
474.8276968598439
 21
177.9886301465911
 31
0.0
  0
LINE
  5
121B
330
2
100
AcDbEntity
  8
0
100
AcDbLine
 10
398.8276968598439
 20
115.920007696205
 30
0.0
 11
455.8276968598439
 21
115.920007696205
 31
0.0
  0
LINE
  5
121C
330
2
100
AcDbEntity
  8
0
100
AcDbLine
 10
398.8276968598439
 20
118.920007696205
 30
0.0
 11
455.8276968598439
 21
118.920007696205
 31
0.0
  0
LINE
  5
121D
330
2
100
AcDbEntity
  8
0
100
AcDbLine
 10
398.8276968598439
 20
133.6279725303364
 30
0.0
 11
455.8276968598439
 21
133.6279725303364
 31
0.0
  0
LINE
  5
121E
330
2
100
AcDbEntity
  8
0
100
AcDbLine
 10
398.8276968598439
 20
187.9200076962068
 30
0.0
 11
455.8276968598439
 21
187.9200076962068
 31
0.0
  0
LINE
  5
121F
330
2
100
AcDbEntity
  8
0
100
AcDbLine
 10
398.8276968598439
 20
184.9200076962068
 30
0.0
 11
455.8276968598439
 21
184.9200076962068
 31
0.0
  0
LINE
  5
1220
330
2
100
AcDbEntity
  8
0
100
AcDbLine
 10
398.8276968598439
 20
170.2120428620754
 30
0.0
 11
455.8276968598439
 21
170.2120428620754
 31
0.0
  0
LINE
  5
1221
330
2
100
AcDbEntity
  8
0
100
AcDbLine
 10
381.5276968598447
 20
125.420007696205
 30
0.0
 11
384.8276968598439
 21
125.4200076962068
 31
0.0
  0
LINE
  5
1222
330
2
100
AcDbEntity
  8
0
100
AcDbLine
 10
377.8276968598403
 20
128.9200076962068
 30
0.0
 11
385.8276968598403
 21
128.9200076962068
 31
0.0
  0
LINE
  5
1223
330
2
100
AcDbEntity
  8
HIDS
100
AcDbLine
 10
386.0348036410251
 20
120.2129009150183
 30
0.0
 11
385.6205900786536
 21
120.6271144773898
 31
0.0
  0
LINE
  5
1224
330
2
100
AcDbEntity
  8
0
100
AcDbLine
 10
384.8276968598421
 20
123.4200076962086
 30
0.0
 11
385.3276968598457
 21
122.9200076962068
 31
0.0
  0
LINE
  5
1225
330
2
100
AcDbEntity
  8
0
100
AcDbLine
 10
377.8276968598439
 20
125.420007696205
 30
0.0
 11
376.8276968598439
 21
125.9973579653949
 31
0.0
  0
LINE
  5
1226
330
2
100
AcDbEntity
  8
0
100
AcDbLine
 10
379.5276968598447
 20
126.1200076962057
 30
0.0
 11
381.127696859845
 21
126.1200076962057
 31
0.0
  0
LINE
  5
1227
330
2
100
AcDbEntity
  8
0
100
AcDbLine
 10
381.3276968598439
 20
125.6200076962057
 30
0.0
 11
381.5276968598447
 21
125.420007696205
 31
0.0
  0
LINE
  5
1228
330
2
100
AcDbEntity
  8
0
100
AcDbLine
 10
379.3276968598439
 20
125.6200076962057
 30
0.0
 11
379.3276968598439
 21
127.7334773411683
 31
0.0
  0
LINE
  5
1229
330
2
100
AcDbEntity
  8
0
100
AcDbLine
 10
379.3276968598439
 20
176.1065380512453
 30
0.0
 11
379.3276968598439
 21
178.220007696206
 31
0.0
  0
LINE
  5
122A
330
2
100
AcDbEntity
  8
0
100
AcDbLine
 10
377.8276968598439
 20
125.420007696205
 30
0.0
 11
379.127696859845
 21
125.420007696205
 31
0.0
  0
LINE
  5
122B
330
2
100
AcDbEntity
  8
0
100
AcDbLine
 10
377.8276968598403
 20
128.9200076962068
 30
0.0
 11
376.8276968598403
 21
128.3426574270168
 31
0.0
  0
LINE
  5
122C
330
2
100
AcDbEntity
  8
0
100
AcDbLine
 10
381.5276968598428
 20
178.4200076962068
 30
0.0
 11
384.8276968598421
 21
178.4200076962068
 31
0.0
  0
LINE
  5
122D
330
2
100
AcDbEntity
  8
0
100
AcDbLine
 10
377.8276968598403
 20
174.920007696205
 30
0.0
 11
385.8276968598403
 21
174.9200076962068
 31
0.0
  0
LINE
  5
122E
330
2
100
AcDbEntity
  8
0
100
AcDbLine
 10
384.8276968598421
 20
180.4200076962068
 30
0.0
 11
384.8276968598421
 21
175.9830711499151
 31
0.0
  0
LINE
  5
122F
330
2
100
AcDbEntity
  8
0
100
AcDbLine
 10
384.8276968598421
 20
127.8569442424966
 30
0.0
 11
384.8276968598421
 21
123.4200076962086
 31
0.0
  0
LINE
  5
1230
330
2
100
AcDbEntity
  8
0
100
AcDbLine
 10
384.8276968598385
 20
178.4200076962068
 30
0.0
 11
384.8276968598385
 21
180.4200076962013
 31
0.0
  0
LINE
  5
1231
330
2
100
AcDbEntity
  8
0
100
AcDbLine
 10
385.8276968598403
 20
128.537844343268
 30
0.0
 11
385.8276968598403
 21
137.4199616962058
 31
0.0
  0
LINE
  5
1232
330
2
100
AcDbEntity
  8
0
100
AcDbLine
 10
385.8276968598403
 20
166.4199616962058
 30
0.0
 11
385.8276968598403
 21
175.3021710491455
 31
0.0
  0
LINE
  5
1233
330
2
100
AcDbEntity
  8
0
100
AcDbLine
 10
385.8276968598403
 20
175.3021710491455
 30
0.0
 11
386.4044479180376
 21
175.3172738071196
 31
0.0
  0
LINE
  5
1234
330
2
100
AcDbEntity
  8
0
100
AcDbLine
 10
386.3276968598394
 20
112.0204047541854
 30
0.0
 11
386.3276968598394
 21
112.4200076962068
 31
0.0
  0
LINE
  5
1235
330
2
100
AcDbEntity
  8
HIDS
100
AcDbLine
 10
386.3276968598384
 20
112.4200076962068
 30
0.0
 11
386.3276968598394
 21
122.4200076962068
 31
0.0
  0
LINE
  5
1236
330
2
100
AcDbEntity
  8
0
100
AcDbLine
 10
386.3276968598394
 20
122.4200076962068
 30
0.0
 11
386.3276968598394
 21
128.4686205017213
 31
0.0
  0
LINE
  5
1237
330
2
100
AcDbEntity
  8
0
100
AcDbLine
 10
386.3276968598394
 20
175.3713948906905
 30
0.0
 11
386.3276968598394
 21
181.4200076962068
 31
0.0
  0
LINE
  5
1238
330
2
100
AcDbEntity
  8
HIDS
100
AcDbLine
 10
386.3276968598394
 20
181.4200076962068
 30
0.0
 11
386.3276968598394
 21
191.4200076962068
 31
0.0
  0
LINE
  5
1239
330
2
100
AcDbEntity
  8
0
100
AcDbLine
 10
386.3276968598403
 20
191.4200076962068
 30
0.0
 11
386.3276968598403
 21
191.8196106382263
 31
0.0
  0
ARC
  5
123A
330
2
100
AcDbEntity
  8
0
100
AcDbCircle
 10
387.3276968598394
 20
112.0204047541854
 30
0.0
 40
1.0
100
AcDbArc
 50
180.0
 51
269.5000000000084
  0
LINE
  5
123B
330
2
100
AcDbEntity
  8
0
100
AcDbLine
 10
384.8276968598421
 20
180.4200076962068
 30
0.0
 11
385.3276968598421
 21
180.9200076962068
 31
0.0
  0
LINE
  5
123C
330
2
100
AcDbEntity
  8
HIDS
100
AcDbLine
 10
386.0348036410251
 20
183.6271144773935
 30
0.0
 11
385.6205900786518
 21
183.2129009150201
 31
0.0
  0
LINE
  5
123D
330
2
100
AcDbEntity
  8
HIDS
100
AcDbLine
 10
385.3276968598376
 20
121.3342212585765
 30
0.0
 11
385.3276968598385
 21
122.4200076962068
 31
0.0
  0
LINE
  5
123E
330
2
100
AcDbEntity
  8
0
100
AcDbLine
 10
385.3276968598376
 20
122.4200076962068
 30
0.0
 11
385.3276968598376
 21
127.9750670033434
 31
0.0
  0
LINE
  5
123F
330
2
100
AcDbEntity
  8
0
100
AcDbLine
 10
385.3276968598376
 20
175.8649483890683
 30
0.0
 11
385.3276968598376
 21
181.4200076962068
 31
0.0
  0
LINE
  5
1240
330
2
100
AcDbEntity
  8
HIDS
100
AcDbLine
 10
385.3276968598376
 20
181.4200076962068
 30
0.0
 11
385.3276968598376
 21
182.5057941338334
 31
0.0
  0
LINE
  5
1241
330
2
100
AcDbEntity
  8
0
100
AcDbLine
 10
376.8276968598403
 20
125.9973579653968
 30
0.0
 11
376.8276968598403
 21
137.4199616962058
 31
0.0
  0
LINE
  5
1242
330
2
100
AcDbEntity
  8
0
100
AcDbLine
 10
376.8276968598403
 20
166.4199616962058
 30
0.0
 11
376.8276968598403
 21
177.842657427015
 31
0.0
  0
LINE
  5
1243
330
2
100
AcDbEntity
  8
0
100
AcDbLine
 10
377.8276968598403
 20
128.9200076962068
 30
0.0
 11
377.8276968598403
 21
137.4199616962058
 31
0.0
  0
LINE
  5
1244
330
2
100
AcDbEntity
  8
0
100
AcDbLine
 10
377.8276968598403
 20
166.4199616962058
 30
0.0
 11
377.8276968598403
 21
174.920007696205
 31
0.0
  0
LINE
  5
1245
330
2
100
AcDbEntity
  8
0
100
AcDbLine
 10
377.8276968598421
 20
178.4200076962068
 30
0.0
 11
379.1276968598432
 21
178.4200076962068
 31
0.0
  0
LINE
  5
1246
330
2
100
AcDbEntity
  8
0
100
AcDbLine
 10
381.3276968598421
 20
178.220007696206
 30
0.0
 11
381.5276968598428
 21
178.4200076962068
 31
0.0
  0
LINE
  5
1247
330
2
100
AcDbEntity
  8
0
100
AcDbLine
 10
381.3276968598421
 20
178.220007696206
 30
0.0
 11
381.3276968598403
 21
175.9092171295022
 31
0.0
  0
LINE
  5
1248
330
2
100
AcDbEntity
  8
0
100
AcDbLine
 10
381.3276968598048
 20
127.9307982629114
 30
0.0
 11
381.327696859803
 21
125.6200076962475
 31
0.0
  0
LINE
  5
1249
330
2
100
AcDbEntity
  8
0
100
AcDbLine
 10
379.5276968598428
 20
177.7200076962061
 30
0.0
 11
381.1276968598432
 21
177.7200076962061
 31
0.0
  0
LINE
  5
124A
330
2
100
AcDbEntity
  8
0
100
AcDbLine
 10
377.8276968598421
 20
178.4200076962068
 30
0.0
 11
376.8276968598421
 21
177.8426574270168
 31
0.0
  0
LINE
  5
124B
330
2
100
AcDbEntity
  8
0
100
AcDbLine
 10
377.8276968598403
 20
174.9200076962068
 30
0.0
 11
376.8276968598403
 21
175.497357965395
 31
0.0
  0
LINE
  5
124C
330
2
100
AcDbEntity
  8
0
100
AcDbLine
 10
398.8276968598421
 20
192.9200076962068
 30
0.0
 11
398.8276968598439
 21
165.7191214550319
 31
0.0
  0
LINE
  5
124D
330
2
100
AcDbEntity
  8
0
100
AcDbLine
 10
398.8276968598448
 20
138.1208939373817
 30
0.0
 11
398.8276968598467
 21
110.9200076962068
 31
0.0
  0
LINE
  5
124E
330
2
100
AcDbEntity
  8
0
100
AcDbLine
 10
398.8276968598467
 20
110.9200076962068
 30
0.0
 11
387.3189703243407
 21
111.0204428311215
 31
0.0
  0
LINE
  5
124F
330
2
100
AcDbEntity
  8
0
100
AcDbLine
 10
385.8276968598403
 20
128.537844343268
 30
0.0
 11
386.404447917872
 21
128.5227415852976
 31
0.0
  0
ARC
  5
1250
330
2
100
AcDbEntity
  8
HIDS
100
AcDbCircle
 10
386.3276968598403
 20
121.3342212585765
 30
0.0
 40
1.0
100
AcDbArc
 50
180.0
 51
225.000000000021
  0
ARC
  5
1251
330
2
100
AcDbEntity
  8
HIDS
100
AcDbCircle
 10
385.3276968598403
 20
119.5057941338316
 30
0.0
 40
1.0
100
AcDbArc
 50
0.0
 51
45.00000000002101
  0
ARC
  5
1252
330
2
100
AcDbEntity
  8
HIDS
100
AcDbCircle
 10
386.3276968598376
 20
182.5057941338334
 30
0.0
 40
1.0
100
AcDbArc
 50
134.999999999979
 51
180.0
  0
ARC
  5
1253
330
2
100
AcDbEntity
  8
HIDS
100
AcDbCircle
 10
385.3276968598403
 20
184.3342212585819
 30
0.0
 40
1.0
100
AcDbArc
 50
314.9999999999789
 51
0.0
  0
ARC
  5
1254
330
2
100
AcDbEntity
  8
0
100
AcDbCircle
 10
379.1276968598432
 20
178.220007696206
 30
0.0
 40
0.2
100
AcDbArc
 50
0.0
 51
90.0
  0
ARC
  5
1255
330
2
100
AcDbEntity
  8
0
100
AcDbCircle
 10
379.5276968598428
 20
177.9200076962068
 30
0.0
 40
0.2
100
AcDbArc
 50
180.0
 51
270.0
  0
ARC
  5
1256
330
2
100
AcDbEntity
  8
0
100
AcDbCircle
 10
381.1276968598432
 20
177.9200076962068
 30
0.0
 40
0.2
100
AcDbArc
 50
270.0
 51
0.0
  0
ARC
  5
1257
330
2
100
AcDbEntity
  8
0
100
AcDbCircle
 10
379.127696859845
 20
125.6200076962057
 30
0.0
 40
0.2
100
AcDbArc
 50
270.0
 51
0.0
  0
ARC
  5
1258
330
2
100
AcDbEntity
  8
0
100
AcDbCircle
 10
379.5276968598447
 20
125.920007696205
 30
0.0
 40
0.2
100
AcDbArc
 50
90.0
 51
180.0
  0
ARC
  5
1259
330
2
100
AcDbEntity
  8
0
100
AcDbCircle
 10
381.127696859845
 20
125.920007696205
 30
0.0
 40
0.2
100
AcDbArc
 50
0.0
 51
90.0
  0
LINE
  5
125A
330
2
100
AcDbEntity
  8
0
100
AcDbLine
 10
377.8276968598439
 20
125.420007696205
 30
0.0
 11
377.8276968598439
 21
127.3314786212366
 31
0.0
  0
LINE
  5
125B
330
2
100
AcDbEntity
  8
0
100
AcDbLine
 10
377.8276968598421
 20
176.508536771177
 30
0.0
 11
377.8276968598421
 21
178.4200076962068
 31
0.0
  0
LINE
  5
125C
330
2
100
AcDbEntity
  8
0
100
AcDbLine
 10
381.5276968598428
 20
178.4200076962068
 30
0.0
 11
381.5276968598428
 21
175.9155245660338
 31
0.0
  0
LINE
  5
125D
330
2
100
AcDbEntity
  8
0
100
AcDbLine
 10
381.5276968598447
 20
127.9244908263797
 30
0.0
 11
381.5276968598447
 21
125.420007696205
 31
0.0
  0
LINE
  5
125E
330
2
100
AcDbEntity
  8
0
100
AcDbLine
 10
398.8276968598457
 20
115.9200076962068
 30
0.0
 11
392.3189703243398
 21
115.9200076962068
 31
0.0
  0
LINE
  5
125F
330
2
100
AcDbEntity
  8
0
100
AcDbLine
 10
398.8276968598457
 20
118.9200076962068
 30
0.0
 11
392.3189703243398
 21
118.9200076962068
 31
0.0
  0
LINE
  5
1260
330
2
100
AcDbEntity
  8
0
100
AcDbLine
 10
398.8276968598439
 20
184.9200076962068
 30
0.0
 11
392.3189703243425
 21
184.9200076962068
 31
0.0
  0
LINE
  5
1261
330
2
100
AcDbEntity
  8
0
100
AcDbLine
 10
398.8276968598421
 20
187.9200076962068
 30
0.0
 11
392.3189703243398
 21
187.9200076962068
 31
0.0
  0
LINE
  5
1262
330
2
100
AcDbEntity
  8
0
100
AcDbLine
 10
398.8276968598439
 20
170.2120428620754
 30
0.0
 11
388.68285870396
 21
170.2120428620754
 31
0.0
  0
LINE
  5
1263
330
2
100
AcDbEntity
  8
0
100
AcDbLine
 10
398.8276968598457
 20
133.6279725303382
 30
0.0
 11
388.6506919357362
 21
133.6279725303382
 31
0.0
  0
LINE
  5
1264
330
2
100
AcDbEntity
  8
0
100
AcDbLine
 10
387.3189703243407
 20
124.4549913226917
 30
0.0
 11
390.8320601275874
 21
124.4243330524412
 31
0.0
  0
LINE
  5
1265
330
2
100
AcDbEntity
  8
0
100
AcDbLine
 10
391.3276968598385
 20
123.9243520909083
 30
0.0
 11
391.3276968598385
 21
111.9767704152316
 31
0.0
  0
ARC
  5
1266
330
2
100
AcDbEntity
  8
0
100
AcDbCircle
 10
387.3276968598385
 20
125.4549532457593
 30
0.0
 40
1.0
100
AcDbArc
 50
180.0
 51
269.5000000000345
  0
ARC
  5
1267
330
2
100
AcDbEntity
  8
0
100
AcDbCircle
 10
390.8276968598385
 20
123.9243520909101
 30
0.0
 40
0.5
100
AcDbArc
 50
0.0
 51
89.5000000000345
  0
ARC
  5
1268
330
2
100
AcDbEntity
  8
0
100
AcDbCircle
 10
392.3276968598385
 20
111.9767704152316
 30
0.0
 40
1.0
100
AcDbArc
 50
180.0
 51
269.5000000000084
  0
ARC
  5
1269
330
2
100
AcDbEntity
  8
0
100
AcDbCircle
 10
387.3276968598394
 20
191.8196106382263
 30
0.0
 40
1.0
100
AcDbArc
 50
90.49999999999155
 51
180.0
  0
LINE
  5
126A
330
2
100
AcDbEntity
  8
0
100
AcDbLine
 10
398.8276968598421
 20
192.9200076962068
 30
0.0
 11
387.3189703243407
 21
192.8195725612902
 31
0.0
  0
LINE
  5
126B
330
2
100
AcDbEntity
  8
0
100
AcDbLine
 10
387.3189703243407
 20
179.3850240697218
 30
0.0
 11
390.8320601275874
 21
179.4156823399706
 31
0.0
  0
LINE
  5
126C
330
2
100
AcDbEntity
  8
0
100
AcDbLine
 10
391.3276968598385
 20
179.9156633015034
 30
0.0
 11
391.3276968598385
 21
191.8632449771801
 31
0.0
  0
ARC
  5
126D
330
2
100
AcDbEntity
  8
0
100
AcDbCircle
 10
387.3276968598385
 20
178.3850621466525
 30
0.0
 40
1.0
100
AcDbArc
 50
90.49999999996549
 51
180.0
  0
ARC
  5
126E
330
2
100
AcDbEntity
  8
0
100
AcDbCircle
 10
390.8276968598385
 20
179.9156633015034
 30
0.0
 40
0.5
100
AcDbArc
 50
270.4999999999654
 51
0.0
  0
ARC
  5
126F
330
2
100
AcDbEntity
  8
0
100
AcDbCircle
 10
392.3276968598385
 20
191.8632449771801
 30
0.0
 40
1.0
100
AcDbArc
 50
90.49999999999155
 51
180.0
  0
LINE
  5
1270
330
2
100
AcDbEntity
  8
0
100
AcDbLine
 10
384.2276968598381
 20
181.4200076962068
 30
0.0
 11
383.8276968598385
 21
182.1128280192341
 31
0.0
  0
LINE
  5
1271
330
2
100
AcDbEntity
  8
0
100
AcDbLine
 10
389.8276968598385
 20
181.4200076962068
 30
0.0
 11
389.8276968598385
 21
191.4200076962068
 31
0.0
  0
LINE
  5
1272
330
2
100
AcDbEntity
  8
0
100
AcDbLine
 10
384.2276968598381
 20
181.4200076962068
 30
0.0
 11
384.2276968598381
 21
191.4200076962068
 31
0.0
  0
LINE
  5
1273
330
2
100
AcDbEntity
  8
0
100
AcDbLine
 10
391.3276968598385
 20
181.4200076962068
 30
0.0
 11
384.2276968598381
 21
181.4200076962068
 31
0.0
  0
LINE
  5
1274
330
2
100
AcDbEntity
  8
0
100
AcDbLine
 10
391.3276968598385
 20
191.4200076962068
 30
0.0
 11
384.2276968598381
 21
191.4200076962068
 31
0.0
  0
LINE
  5
1275
330
2
100
AcDbEntity
  8
0
100
AcDbLine
 10
384.2276968598381
 20
191.4200076962068
 30
0.0
 11
383.8276968598385
 21
190.7271873731795
 31
0.0
  0
LINE
  5
1276
330
2
100
AcDbEntity
  8
0
100
AcDbLine
 10
383.8276968598385
 20
182.1128280192341
 30
0.0
 11
383.8276968598385
 21
190.7271873731795
 31
0.0
  0
LINE
  5
1277
330
2
100
AcDbEntity
  8
0
100
AcDbLine
 10
391.3276968598385
 20
191.4200076962068
 30
0.0
 11
391.3276968598385
 21
181.4200076962068
 31
0.0
  0
LINE
  5
1278
330
2
100
AcDbEntity
  8
0
100
AcDbLine
 10
384.2276968598381
 20
122.4200076962068
 30
0.0
 11
383.8276968598385
 21
121.7271873731795
 31
0.0
  0
LINE
  5
1279
330
2
100
AcDbEntity
  8
0
100
AcDbLine
 10
389.8276968598385
 20
122.4200076962068
 30
0.0
 11
389.8276968598385
 21
112.4200076962068
 31
0.0
  0
LINE
  5
127A
330
2
100
AcDbEntity
  8
0
100
AcDbLine
 10
384.2276968598381
 20
122.4200076962068
 30
0.0
 11
384.2276968598381
 21
112.4200076962068
 31
0.0
  0
LINE
  5
127B
330
2
100
AcDbEntity
  8
0
100
AcDbLine
 10
391.3276968598385
 20
122.4200076962068
 30
0.0
 11
384.2276968598381
 21
122.4200076962068
 31
0.0
  0
LINE
  5
127C
330
2
100
AcDbEntity
  8
0
100
AcDbLine
 10
391.3276968598385
 20
112.4200076962068
 30
0.0
 11
384.2276968598381
 21
112.4200076962068
 31
0.0
  0
LINE
  5
127D
330
2
100
AcDbEntity
  8
0
100
AcDbLine
 10
384.2276968598381
 20
112.4200076962068
 30
0.0
 11
383.8276968598385
 21
113.112828019234
 31
0.0
  0
LINE
  5
127E
330
2
100
AcDbEntity
  8
0
100
AcDbLine
 10
383.8276968598385
 20
121.7271873731795
 30
0.0
 11
383.8276968598385
 21
113.112828019234
 31
0.0
  0
LINE
  5
127F
330
2
100
AcDbEntity
  8
CENTER
  6
CENS
100
AcDbLine
 10
379.2490289497419
 20
186.4200076962068
 30
0.0
 11
403.8118826261235
 21
186.4200076962068
 31
0.0
  0
LINE
  5
1280
330
2
100
AcDbEntity
  8
CENTER
  6
CENS
100
AcDbLine
 10
379.2490289497419
 20
117.4200076962068
 30
0.0
 11
403.8118826261235
 21
117.4200076962068
 31
0.0
  0
LINE
  5
1281
330
2
100
AcDbEntity
  8
0
100
AcDbLine
 10
487.827696859844
 20
166.417054125214
 30
0.0
 11
487.827696859844
 21
137.4199616962058
 31
0.0
  0
LINE
  5
1282
330
2
100
AcDbEntity
  8
CENTER
  6
CENS
100
AcDbLine
 10
479.827696859844
 20
155.8693506708376
 30
0.0
 11
479.827696859844
 21
172.6882592972641
 31
0.0
  0
LINE
  5
1283
330
2
100
AcDbEntity
  8
0
100
AcDbLine
 10
374.8276968598439
 20
166.4199616962058
 30
0.0
 11
374.8276968598439
 21
137.4199616962058
 31
0.0
  0
LINE
  5
1284
330
2
100
AcDbEntity
  8
0
100
AcDbLine
 10
389.7579233133948
 20
137.4199616962058
 30
0.0
 11
374.8276968598439
 21
137.4199616962058
 31
0.0
  0
LINE
  5
1285
330
2
100
AcDbEntity
  8
0
 48
0.5
100
AcDbLine
 10
463.9669428185571
 20
137.4199616962058
 30
0.0
 11
487.827696859844
 21
137.4199616962058
 31
0.0
  0
LINE
  5
1286
330
2
100
AcDbEntity
  8
0
 48
0.5
100
AcDbLine
 10
374.8277053138846
 20
163.7199616962069
 30
0.0
 11
487.827696859844
 21
163.7199616962069
 31
0.0
  0
LINE
  5
1287
330
2
100
AcDbEntity
  8
0
 48
0.5
100
AcDbLine
 10
397.8277053138846
 20
161.417054125214
 30
0.0
 11
460.8276968598439
 21
161.417054125214
 31
0.0
  0
LINE
  5
1288
330
2
100
AcDbEntity
  8
0
 48
0.5
100
AcDbLine
 10
376.8277053138846
 20
160.9170541252122
 30
0.0
 11
376.8277053138846
 21
142.917054125214
 31
0.0
  0
LINE
  5
1289
330
2
100
AcDbEntity
  8
0
 48
0.5
100
AcDbLine
 10
386.8277053138846
 20
161.417054125214
 30
0.0
 11
386.8277053138846
 21
142.417054125214
 31
0.0
  0
LINE
  5
128A
330
2
100
AcDbEntity
  8
0
 48
0.5
100
AcDbLine
 10
385.6777053138849
 20
161.417054125214
 30
0.0
 11
385.6777053138849
 21
142.417054125214
 31
0.0
  0
LINE
  5
128B
330
2
100
AcDbEntity
  8
0
 48
0.5
100
AcDbLine
 10
386.8277053138846
 20
142.917054125214
 30
0.0
 11
397.8277053138846
 21
142.917054125214
 31
0.0
  0
LINE
  5
128C
330
2
100
AcDbEntity
  8
0
 48
0.5
100
AcDbLine
 10
376.8277053138846
 20
142.917054125214
 30
0.0
 11
385.6777053138849
 21
142.917054125214
 31
0.0
  0
LINE
  5
128D
330
2
100
AcDbEntity
  8
0
 48
0.5
100
AcDbLine
 10
376.8277053138846
 20
142.917054125214
 30
0.0
 11
374.8277053138846
 21
141.762353586834
 31
0.0
  0
LINE
  5
128E
330
2
100
AcDbEntity
  8
0
 48
0.5
100
AcDbLine
 10
385.6777053138849
 20
142.417054125214
 30
0.0
 11
386.8277053138846
 21
142.417054125214
 31
0.0
  0
LINE
  5
128F
330
2
100
AcDbEntity
  8
0
 48
0.5
100
AcDbLine
 10
386.8277053138846
 20
160.917054125214
 30
0.0
 11
397.8277053138846
 21
160.9170541252122
 31
0.0
  0
LINE
  5
1290
330
2
100
AcDbEntity
  8
0
 48
0.5
100
AcDbLine
 10
385.6777053138849
 20
161.417054125214
 30
0.0
 11
386.8277053138846
 21
161.417054125214
 31
0.0
  0
LINE
  5
1291
330
2
100
AcDbEntity
  8
0
 48
0.5
100
AcDbLine
 10
376.8277053138846
 20
160.9170541252122
 30
0.0
 11
385.6777053138849
 21
160.9170541252122
 31
0.0
  0
LINE
  5
1292
330
2
100
AcDbEntity
  8
0
 48
0.5
100
AcDbLine
 10
374.8276968598439
 20
162.0746622345857
 30
0.0
 11
376.8276968598439
 21
160.9199616962058
 31
0.0
  0
LINE
  5
1293
330
2
100
AcDbEntity
  8
0
 48
0.5
100
AcDbLine
 10
376.8277053138846
 20
160.9170541252122
 30
0.0
 11
374.8277053138846
 21
162.0717546635922
 31
0.0
  0
LINE
  5
1294
330
2
100
AcDbEntity
  8
0
 48
0.5
100
AcDbLine
 10
397.8277053138846
 20
161.417054125214
 30
0.0
 11
397.8277053138846
 21
142.4229612671995
 31
0.0
  0
LINE
  5
1295
330
2
100
AcDbEntity
  8
0
100
AcDbLine
 10
389.7579788962613
 20
166.4199616962058
 30
0.0
 11
374.8276968598439
 21
166.4199616962058
 31
0.0
  0
LINE
  5
1296
330
2
100
AcDbEntity
  8
0
 48
0.5
100
AcDbLine
 10
463.9669032456605
 20
166.4199616962058
 30
0.0
 11
487.827696859844
 21
166.4199616962058
 31
0.0
  0
LINE
  5
1297
330
2
100
AcDbEntity
  8
0
 48
0.5
100
AcDbLine
 10
476.8276968598439
 20
161.4199616962058
 30
0.0
 11
482.8276968598439
 21
161.4199616962058
 31
0.0
  0
LINE
  5
1298
330
2
100
AcDbEntity
  8
0
 48
0.5
100
AcDbLine
 10
476.8276968598439
 20
142.4199616962058
 30
0.0
 11
482.8276968598439
 21
142.4199616962058
 31
0.0
  0
LINE
  5
1299
330
2
100
AcDbEntity
  8
0
 48
0.5
100
AcDbLine
 10
470.8276968598439
 20
161.4199616962058
 30
0.0
 11
470.8276968598439
 21
142.4199616962058
 31
0.0
  0
LINE
  5
129A
330
2
100
AcDbEntity
  8
0
 48
0.5
100
AcDbLine
 10
471.9776968598436
 20
161.4199616962058
 30
0.0
 11
471.9776968598436
 21
142.4199616962058
 31
0.0
  0
LINE
  5
129B
330
2
100
AcDbEntity
  8
0
 48
0.5
100
AcDbLine
 10
476.8276968598439
 20
142.4199616962058
 30
0.0
 11
476.8276968598439
 21
161.4199616962058
 31
0.0
  0
LINE
  5
129C
330
2
100
AcDbEntity
  8
0
100
AcDbLine
 10
460.8276968598439
 20
161.417054125214
 30
0.0
 11
460.8276968598439
 21
142.4165600736203
 31
0.0
  0
LINE
  5
129D
330
2
100
AcDbEntity
  8
0
 48
0.5
100
AcDbLine
 10
460.8276968598439
 20
142.9199616962057
 30
0.0
 11
470.8276968598439
 21
142.9199616962057
 31
0.0
  0
LINE
  5
129E
330
2
100
AcDbEntity
  8
0
100
AcDbLine
 10
460.8276968598439
 20
142.4165600736203
 30
0.0
 11
458.256096118048
 21
142.4165600736203
 31
0.0
  0
LINE
  5
129F
330
2
100
AcDbEntity
  8
0
 48
0.5
100
AcDbLine
 10
471.9776968598436
 20
142.9199616962057
 30
0.0
 11
476.8276968598439
 21
142.9199616962057
 31
0.0
  0
LINE
  5
12A0
330
2
100
AcDbEntity
  8
0
 48
0.5
100
AcDbLine
 10
471.9776968598436
 20
142.4199616962058
 30
0.0
 11
470.8276968598439
 21
142.4199616962058
 31
0.0
  0
LINE
  5
12A1
330
2
100
AcDbEntity
  8
0
 48
0.5
100
AcDbLine
 10
460.8276968598439
 20
160.9199616962058
 30
0.0
 11
470.8276968598439
 21
160.9199616962058
 31
0.0
  0
LINE
  5
12A2
330
2
100
AcDbEntity
  8
0
 48
0.5
100
AcDbLine
 10
470.8276968598439
 20
161.4199616962058
 30
0.0
 11
471.9776968598436
 21
161.4199616962058
 31
0.0
  0
LINE
  5
12A3
330
2
100
AcDbEntity
  8
0
 48
0.5
100
AcDbLine
 10
471.9776968598436
 20
160.9199616962058
 30
0.0
 11
476.8276968598439
 21
160.9199616962058
 31
0.0
  0
LINE
  5
12A4
330
2
100
AcDbEntity
  8
HOJO
100
AcDbLine
 10
477.3276968598476
 20
163.7199616962069
 30
0.0
 11
477.3276968598476
 21
166.4199616962058
 31
0.0
  0
LINE
  5
12A5
330
2
100
AcDbEntity
  8
0
100
AcDbLine
 10
477.7776968603603
 20
163.7199616962069
 30
0.0
 11
477.7776968603603
 21
166.4199616962058
 31
0.0
  0
LINE
  5
12A6
330
2
100
AcDbEntity
  8
0
 48
0.5
100
AcDbLine
 10
485.8277053138846
 20
160.9199616962058
 30
0.0
 11
485.8277053138855
 21
142.9199616962076
 31
0.0
  0
LINE
  5
12A7
330
2
100
AcDbEntity
  8
0
 48
0.5
100
AcDbLine
 10
482.8277053138846
 20
142.4199616962058
 30
0.0
 11
482.8277053138846
 21
161.4199616962058
 31
0.0
  0
LINE
  5
12A8
330
2
100
AcDbEntity
  8
0
 48
0.5
100
AcDbLine
 10
487.8277053138864
 20
141.7652611578276
 30
0.0
 11
485.8277053138855
 21
142.9199616962076
 31
0.0
  0
LINE
  5
12A9
330
2
100
AcDbEntity
  8
HOJO
100
AcDbLine
 10
482.3277053138846
 20
163.7199616962069
 30
0.0
 11
482.3277053138846
 21
166.4199616962058
 31
0.0
  0
LINE
  5
12AA
330
2
100
AcDbEntity
  8
0
100
AcDbLine
 10
481.8777053133691
 20
163.7199616962069
 30
0.0
 11
481.8777053133691
 21
166.4199616962058
 31
0.0
  0
LINE
  5
12AB
330
2
100
AcDbEntity
  8
0
100
AcDbLine
 10
485.8277053138855
 20
142.9199616962076
 30
0.0
 11
482.8277053138846
 21
142.9199616962076
 31
0.0
  0
LINE
  5
12AC
330
2
100
AcDbEntity
  8
0
100
AcDbLine
 10
485.8277053138846
 20
160.9199616962058
 30
0.0
 11
482.8277053138846
 21
160.9199616962058
 31
0.0
  0
LINE
  5
12AD
330
2
100
AcDbEntity
  8
0
100
AcDbLine
 10
485.8277053138846
 20
160.9199616962058
 30
0.0
 11
487.827696859844
 21
162.0746573536424
 31
0.0
  0
LINE
  5
12AE
330
2
100
AcDbEntity
  8
0
 48
0.5
100
AcDbLine
 10
397.8277053138846
 20
142.4229612671995
 30
0.0
 11
460.8276968598439
 21
142.4229612671995
 31
0.0
  0
LINE
  5
12AF
330
2
100
AcDbEntity
  8
0
100
AcDbLine
 10
473.8276968598439
 20
128.9200076962068
 30
0.0
 11
473.8276968598439
 21
137.4199616962058
 31
0.0
  0
LINE
  5
12B0
330
2
100
AcDbEntity
  8
0
100
AcDbLine
 10
473.8276968598439
 20
166.4199616962058
 30
0.0
 11
473.8276968598439
 21
174.920007696205
 31
0.0
  0
LINE
  5
12B1
330
2
100
AcDbEntity
  8
0
100
AcDbLine
 10
465.8276968598439
 20
128.6818669118991
 30
0.0
 11
465.8276968598439
 21
137.4199616962058
 31
0.0
  0
LINE
  5
12B2
330
2
100
AcDbEntity
  8
0
100
AcDbLine
 10
465.8276968598439
 20
166.4199616962058
 30
0.0
 11
465.8276968598439
 21
175.1581484805126
 31
0.0
  0
LINE
  5
12B3
330
2
100
AcDbEntity
  8
0
100
AcDbLine
 10
465.8276968598439
 20
128.6818669118991
 30
0.0
 11
465.0213904254598
 21
128.6607530348472
 31
0.0
  0
LINE
  5
12B4
330
2
100
AcDbEntity
  8
0
100
AcDbLine
 10
473.8276968598439
 20
128.9200076962068
 30
0.0
 11
465.8276968598449
 21
128.9200076962068
 31
0.0
  0
LINE
  5
12B5
330
2
100
AcDbEntity
  8
0
100
AcDbLine
 10
473.8276968598439
 20
128.9200076962068
 30
0.0
 11
474.8276968598439
 21
128.3426574270168
 31
0.0
  0
LINE
  5
12B6
330
2
100
AcDbEntity
  8
0
100
AcDbLine
 10
473.8276968598439
 20
174.920007696205
 30
0.0
 11
465.8276968598458
 21
174.920007696205
 31
0.0
  0
LINE
  5
12B7
330
2
100
AcDbEntity
  8
0
100
AcDbLine
 10
473.8276968598439
 20
174.9200076962068
 30
0.0
 11
474.8276968598439
 21
175.497357965395
 31
0.0
  0
LINE
  5
12B8
330
2
100
AcDbEntity
  8
0
100
AcDbLine
 10
465.8276968598439
 20
175.1581484805126
 30
0.0
 11
465.0213904254598
 21
175.1792623575646
 31
0.0
  0
SPLINE
  5
12B9
330
2
100
AcDbEntity
  8
HOJO
100
AcDbSpline
210
0.0
220
0.0
230
1.0
 70
     8
 71
     3
 72
    34
 73
    30
 74
     0
 42
0.0000000001
 43
0.0000000001
 40
0.3362490801349298
 40
0.3362490801349298
 40
0.3362490801349298
 40
0.3362490801349298
 40
2.025640917149685
 40
4.32094151344414
 40
6.375589722319439
 40
9.049541186356382
 40
11.45527314787573
 40
13.93495700308971
 40
16.33786532263532
 40
19.54572761550501
 40
21.38558869575908
 40
28.86979803234311
 40
33.1859970370878
 40
37.86645582948318
 40
45.37190962287592
 40
53.9865418647183
 40
62.6909315817348
 40
69.28563032391882
 40
78.28004835247928
 40
85.06020350068469
 40
90.23992781404917
 40
93.94649664053121
 40
96.69197151561816
 40
100.3021858601968
 40
102.6648877317443
 40
105.7348010616008
 40
109.5488637563299
 40
112.8347034321232
 40
115.1857403907296
 40
115.1857403907296
 40
115.1857403907296
 40
115.1857403907296
 10
376.8276968598403
 20
176.8352994235527
 30
0.0
 10
377.3604071597802
 20
176.655554792337
 30
0.0
 10
378.6209289547024
 20
176.2407882366613
 30
0.0
 10
380.6184680214047
 20
175.8100458355937
 30
0.0
 10
382.9406351968137
 20
176.0283895507607
 30
0.0
 10
385.4192547086414
 20
176.16910528519
 30
0.0
 10
387.5480425574279
 20
174.4945772030285
 30
0.0
 10
388.5079755500847
 20
172.1876818602511
 30
0.0
 10
388.6616300945753
 20
169.4842436580718
 30
0.0
 10
389.2250581821991
 20
167.0496627509881
 30
0.0
 10
391.8905191691811
 20
163.4472547122684
 30
0.0
 10
397.3324561495702
 20
166.1606400126318
 30
0.0
 10
402.6376290793961
 20
165.5015144426768
 30
0.0
 10
408.1211340178253
 20
164.3272848384138
 30
0.0
 10
415.0246148384714
 20
166.4068156524725
 30
0.0
 10
423.2505007636174
 20
163.4734331484931
 30
0.0
 10
431.1242608594349
 20
166.5386638351981
 30
0.0
 10
439.1990254885514
 20
164.3582310591089
 30
0.0
 10
446.6550451889635
 20
167.014136046734
 30
0.0
 10
453.5620836600092
 20
163.5296113913216
 30
0.0
 10
458.4664260914243
 20
165.9724710726139
 30
0.0
 10
462.9970350303357
 20
163.9240613470945
 30
0.0
 10
464.4706916500255
 20
167.6223379151004
 30
0.0
 10
465.3571912620983
 20
170.4386483043461
 30
0.0
 10
463.5444982989858
 20
173.2794823571483
 30
0.0
 10
465.6543883713886
 20
176.3840277622119
 30
0.0
 10
469.1735014867937
 20
176.923392272626
 30
0.0
 10
472.3749711611654
 20
176.2238012758087
 30
0.0
 10
474.0917753637969
 20
177.1437881596837
 30
0.0
 10
474.8276968598439
 20
177.4356714958328
 30
0.0
  0
SPLINE
  5
12BA
330
2
100
AcDbEntity
  8
HOJO
100
AcDbSpline
210
0.0
220
0.0
230
1.0
 70
     8
 71
     3
 72
    34
 73
    30
 74
     0
 42
0.0000000001
 43
0.0000000001
 40
0.3362490801349298
 40
0.3362490801349298
 40
0.3362490801349298
 40
0.3362490801349298
 40
2.025640917149685
 40
4.32094151344414
 40
6.375589722319439
 40
9.049541186356382
 40
11.45527314787573
 40
13.93495700308971
 40
16.33786532263532
 40
19.54572761550501
 40
21.38558869575908
 40
28.86979803234311
 40
33.1859970370878
 40
37.86645582948318
 40
45.37190962287592
 40
53.9865418647183
 40
62.6909315817348
 40
69.28563032391882
 40
78.28004835247928
 40
85.06020350068469
 40
90.23992781404917
 40
93.94649664053121
 40
96.69197151561816
 40
100.3021858601968
 40
102.6648877317443
 40
105.7348010616008
 40
109.5488637563299
 40
112.8347034321232
 40
115.1857403907296
 40
115.1857403907296
 40
115.1857403907296
 40
115.1857403907296
 10
376.8276968598403
 20
127.0047159688609
 30
0.0
 10
377.3604071597802
 20
127.1844606000748
 30
0.0
 10
378.6209289547024
 20
127.5992271557504
 30
0.0
 10
380.6184680214047
 20
128.0299695568181
 30
0.0
 10
382.9406351968137
 20
127.8116258416528
 30
0.0
 10
385.4192547086414
 20
127.6709101072218
 30
0.0
 10
387.5480425574279
 20
129.3454381893832
 30
0.0
 10
388.5079755500847
 20
131.6523335321606
 30
0.0
 10
388.6616300945753
 20
134.3557717343417
 30
0.0
 10
389.2250581821991
 20
136.7903526414254
 30
0.0
 10
391.8905191691811
 20
140.3927606801433
 30
0.0
 10
397.3324561495702
 20
137.6793753797817
 30
0.0
 10
402.6376290793961
 20
138.3385009497367
 30
0.0
 10
408.1211340178253
 20
139.5127305539979
 30
0.0
 10
415.0246148384714
 20
137.4331997399393
 30
0.0
 10
423.2505007636174
 20
140.3665822439186
 30
0.0
 10
431.1242608594349
 20
137.3013515572136
 30
0.0
 10
439.1990254885514
 20
139.4817843333028
 30
0.0
 10
446.6550451889635
 20
136.8258793456796
 30
0.0
 10
453.5620836600092
 20
140.3104040010901
 30
0.0
 10
458.4664260914243
 20
137.8675443197979
 30
0.0
 10
462.9970350303357
 20
139.9159540453172
 30
0.0
 10
464.4706916500255
 20
136.2176774773113
 30
0.0
 10
465.3571912620983
 20
133.4013670880656
 30
0.0
 10
463.5444982989858
 20
130.5605330352635
 30
0.0
 10
465.6543883713886
 20
127.4559876301998
 30
0.0
 10
469.1735014867937
 20
126.9166231197858
 30
0.0
 10
472.3749711611654
 20
127.616214116603
 30
0.0
 10
474.0917753637969
 20
126.696227232728
 30
0.0
 10
474.8276968598439
 20
126.4043438965789
 30
0.0
  0
LINE
  5
12BB
330
2
100
AcDbEntity
  8
0
100
AcDbLine
 10
473.8276968598439
 20
174.920007696205
 30
0.0
 11
465.8276968598439
 21
166.4199616962058
 31
0.0
  0
LINE
  5
12BC
330
2
100
AcDbEntity
  8
0
100
AcDbLine
 10
465.8276968598458
 20
174.920007696205
 30
0.0
 11
473.8276968598439
 21
166.4199616962058
 31
0.0
  0
LINE
  5
12BD
330
2
100
AcDbEntity
  8
0
100
AcDbLine
 10
473.8276968598439
 20
137.4199616962058
 30
0.0
 11
465.8276968598449
 21
128.9200076962068
 31
0.0
  0
LINE
  5
12BE
330
2
100
AcDbEntity
  8
0
100
AcDbLine
 10
465.8276968598439
 20
137.4199616962058
 30
0.0
 11
473.8276968598439
 21
128.9200076962068
 31
0.0
  0
LINE
  5
12BF
330
2
100
AcDbEntity
  8
0
100
AcDbLine
 10
377.8276968598403
 20
174.9200076962068
 30
0.0
 11
385.8276968598403
 21
166.4199616962058
 31
0.0
  0
LINE
  5
12C0
330
2
100
AcDbEntity
  8
0
100
AcDbLine
 10
385.8276968598403
 20
174.9200076962068
 30
0.0
 11
377.8276968598403
 21
166.4199616962058
 31
0.0
  0
LINE
  5
12C1
330
2
100
AcDbEntity
  8
0
100
AcDbLine
 10
377.8276968598403
 20
128.9200076962068
 30
0.0
 11
385.8276968598403
 21
137.4199616962058
 31
0.0
  0
LINE
  5
12C2
330
2
100
AcDbEntity
  8
0
100
AcDbLine
 10
377.8276968598403
 20
137.4199616962058
 30
0.0
 11
385.8276968598403
 21
128.9200076962068
 31
0.0
  0
LINE
  5
12C3
330
2
100
AcDbEntity
  8
0
100
AcDbLine
 10
444.8374863288228
 20
400.5850119295699
 30
0.0
 11
444.8374863288228
 21
371.5850119295699
 31
0.0
  0
LINE
  5
12C4
330
2
100
AcDbEntity
  8
0
100
AcDbLine
 10
331.8374863288232
 20
400.5879195005617
 30
0.0
 11
331.8374863288232
 21
371.5879195005616
 31
0.0
  0
LINE
  5
12C5
330
2
100
AcDbEntity
  8
0
100
AcDbLine
 10
333.8374863288196
 20
371.5879195005616
 30
0.0
 11
331.8374863288232
 21
371.5879195005616
 31
0.0
  0
LINE
  5
12C6
330
2
100
AcDbEntity
  8
0
 48
0.5
100
AcDbLine
 10
431.8374863288237
 20
371.5850119295699
 30
0.0
 11
444.8374863288228
 21
371.5850119295699
 31
0.0
  0
LINE
  5
12C7
330
2
100
AcDbEntity
  8
0
100
AcDbLine
 10
333.8374863288187
 20
400.5879195005617
 30
0.0
 11
331.8374863288232
 21
400.5879195005617
 31
0.0
  0
LINE
  5
12C8
330
2
100
AcDbEntity
  8
0
 48
0.5
100
AcDbLine
 10
431.8374863288227
 20
400.5879195005617
 30
0.0
 11
444.8374863288228
 21
400.5879195005617
 31
0.0
  0
CIRCLE
  5
12C9
330
2
100
AcDbEntity
  8
0
100
AcDbCircle
 10
436.8374863288228
 20
386.0879655005608
 30
0.0
 40
2.0
  0
CIRCLE
  5
12CA
330
2
100
AcDbEntity
  8
HOJO
100
AcDbCircle
 10
436.8374863288228
 20
386.0879655005608
 30
0.0
 40
2.5
  0
LINE
  5
12CB
330
2
100
AcDbEntity
  8
0
100
AcDbLine
 10
203.2571894080775
 20
397.8879685005611
 30
0.0
 11
203.2571894080775
 21
394.5907591591183
 31
0.0
  0
LINE
  5
12CC
330
2
100
AcDbEntity
  8
0
100
AcDbLine
 10
197.2571894080775
 20
397.8879685005611
 30
0.0
 11
197.2571894080775
 21
394.5554031295031
 31
0.0
  0
ARC
  5
12CD
330
2
100
AcDbEntity
  8
0
100
AcDbCircle
 10
200.3071894080777
 20
386.0879655005608
 30
0.0
 40
9.0
100
AcDbArc
 50
109.8091936367477
 51
70.86604897351758
  0
LINE
  5
12CE
330
2
100
AcDbEntity
  8
0
100
AcDbLine
 10
197.2571894080775
 20
397.8879685005611
 30
0.0
 11
203.2571894080775
 21
397.8879685005611
 31
0.0
  0
ARC
  5
12CF
330
2
100
AcDbEntity
  8
0
100
AcDbCircle
 10
200.3071894080782
 20
386.0879655005626
 30
0.0
 40
10.15765410937228
100
AcDbArc
 50
107.4735912242746
 51
73.11681444393172
  0
LINE
  5
12D0
330
2
100
AcDbEntity
  8
0
100
AcDbLine
 10
598.9038763923364
 20
397.8879685005609
 30
0.0
 11
598.9038763923364
 21
394.5907591591181
 31
0.0
  0
LINE
  5
12D1
330
2
100
AcDbEntity
  8
0
100
AcDbLine
 10
592.9038763923364
 20
397.8879685005609
 30
0.0
 11
592.9038763923364
 21
394.5554031295028
 31
0.0
  0
ARC
  5
12D2
330
2
100
AcDbEntity
  8
0
100
AcDbCircle
 10
595.9538763923356
 20
386.0879655005624
 30
0.0
 40
9.0
100
AcDbArc
 50
109.8091936367477
 51
70.86604897351758
  0
LINE
  5
12D3
330
2
100
AcDbEntity
  8
0
100
AcDbLine
 10
592.9038763923364
 20
397.8879685005609
 30
0.0
 11
598.9038763923364
 21
397.8879685005609
 31
0.0
  0
ARC
  5
12D4
330
2
100
AcDbEntity
  8
0
100
AcDbCircle
 10
595.9538763923356
 20
386.0879655005624
 30
0.0
 40
10.15765410937228
100
AcDbArc
 50
107.4735912242746
 51
73.11681444393172
  0
CIRCLE
  5
12D5
330
2
100
AcDbEntity
  8
0
100
AcDbCircle
 10
200.3071894080782
 20
386.0879655005626
 30
0.0
 40
14.49995399999997
  0
CIRCLE
  5
12D6
330
2
100
AcDbEntity
  8
0
100
AcDbCircle
 10
595.9538763923356
 20
386.0879655005624
 30
0.0
 40
14.49995400000048
  0
LINE
  5
12D7
330
2
100
AcDbEntity
  8
CENTER
100
AcDbLine
 10
235.3071894080773
 20
367.3815736648719
 30
0.0
 11
235.3071894080773
 21
358.7943573362516
 31
0.0
  0
LINE
  5
12D8
330
2
100
AcDbEntity
  8
CENTER
100
AcDbLine
 10
231.0135812437671
 20
363.0879655005626
 30
0.0
 11
239.6007975723875
 21
363.0879655005626
 31
0.0
  0
LINE
  5
12D9
330
2
100
AcDbEntity
  8
CENTER
100
AcDbLine
 10
235.3071894080773
 20
404.7943573362515
 30
0.0
 11
235.3071894080773
 21
413.3815736648719
 31
0.0
  0
LINE
  5
12DA
330
2
100
AcDbEntity
  8
CENTER
100
AcDbLine
 10
231.0135812437671
 20
409.0879655005626
 30
0.0
 11
239.6007975723875
 21
409.0879655005626
 31
0.0
  0
LINE
  5
12DB
330
2
100
AcDbEntity
  8
0
100
AcDbLine
 10
610.4538303923365
 20
573.2608955540176
 30
0.0
 11
581.4538303923365
 21
573.2608955540176
 31
0.0
  0
LINE
  5
12DC
330
2
100
AcDbEntity
  8
0
100
AcDbLine
 10
610.4538303923365
 20
686.2608955540176
 30
0.0
 11
581.4538303923365
 21
686.2608955540176
 31
0.0
  0
LINE
  5
12DD
330
2
100
AcDbEntity
  8
0
100
AcDbLine
 10
581.4538303923365
 20
684.2608955540213
 30
0.0
 11
581.4538303923365
 21
686.2608955540176
 31
0.0
  0
LINE
  5
12DE
330
2
100
AcDbEntity
  8
0
 48
0.5
100
AcDbLine
 10
581.4538303923365
 20
586.2608955540176
 30
0.0
 11
581.4538303923365
 21
573.2608955540176
 31
0.0
  0
LINE
  5
12DF
330
2
100
AcDbEntity
  8
0
100
AcDbLine
 10
610.4538303923365
 20
684.2608955540213
 30
0.0
 11
610.4538303923365
 21
686.2608955540176
 31
0.0
  0
LINE
  5
12E0
330
2
100
AcDbEntity
  8
0
 48
0.5
100
AcDbLine
 10
610.4538303923365
 20
586.2608955540176
 30
0.0
 11
610.4538303923365
 21
573.2608955540176
 31
0.0
  0
CIRCLE
  5
12E1
330
2
100
AcDbEntity
  8
0
100
AcDbCircle
 10
595.9538763923356
 20
581.2608955540176
 30
0.0
 40
2.0
  0
CIRCLE
  5
12E2
330
2
100
AcDbEntity
  8
HOJO
100
AcDbCircle
 10
595.9538763923356
 20
581.2608955540176
 30
0.0
 40
2.5
  0
LINE
  5
12E3
330
2
100
AcDbEntity
  8
CENTER
100
AcDbLine
 10
590.6725616989771
 20
581.2608955540176
 30
0.0
 11
601.2351910856942
 21
581.2608955540176
 31
0.0
  0
LINE
  5
12E4
330
2
100
AcDbEntity
  8
CENTER
100
AcDbLine
 10
436.8374863288228
 20
390.9258094542636
 30
0.0
 11
436.8374863288228
 21
381.2501215468581
 31
0.0
  0
LINE
  5
12E5
330
2
100
AcDbEntity
  8
0
100
AcDbLine
 10
614.2459115582043
 20
662.2608955540158
 30
0.0
 11
614.2459115582043
 21
673.7608955540212
 31
0.0
  0
LINE
  5
12E6
330
2
100
AcDbEntity
  8
0
100
AcDbLine
 10
631.9538763923375
 20
662.2608955540158
 30
0.0
 11
631.9538763923375
 21
673.7608955540212
 31
0.0
  0
LINE
  5
12E7
330
2
100
AcDbEntity
  8
0
100
AcDbLine
 10
628.9538763923375
 20
662.2608955540158
 30
0.0
 11
628.9538763923375
 21
673.7608955540212
 31
0.0
  0
LINE
  5
12E8
330
2
100
AcDbEntity
  8
0
100
AcDbLine
 10
341.2374863288206
 20
412.5879655005626
 30
0.0
 11
341.237486328817
 21
415.5879655005627
 31
0.0
  0
LINE
  5
12E9
330
2
100
AcDbEntity
  8
0
100
AcDbLine
 10
340.9488111942229
 20
416.0879655005599
 30
0.0
 11
340.837486328821
 21
415.8951451775363
 31
0.0
  0
LINE
  5
12EA
330
2
100
AcDbEntity
  8
0
100
AcDbLine
 10
340.837486328821
 20
412.5879655005626
 30
0.0
 11
340.837486328821
 21
415.8951451775363
 31
0.0
  0
LINE
  5
12EB
330
2
100
AcDbEntity
  8
0
100
AcDbLine
 10
341.2374863288206
 20
359.5879655005617
 30
0.0
 11
341.237486328817
 21
356.5879655005626
 31
0.0
  0
LINE
  5
12EC
330
2
100
AcDbEntity
  8
0
100
AcDbLine
 10
340.9488111942229
 20
356.0879655005645
 30
0.0
 11
340.837486328821
 21
356.2807858235872
 31
0.0
  0
LINE
  5
12ED
330
2
100
AcDbEntity
  8
0
100
AcDbLine
 10
340.837486328821
 20
359.5879655005617
 30
0.0
 11
340.837486328821
 21
356.2807858235872
 31
0.0
  0
LINE
  5
12EF
330
2
100
AcDbEntity
  8
PHAS
  6
SEKKEI_P_S
100
AcDbLine
 10
341.3374863288228
 20
357.5879655005627
 30
0.0
 11
341.3374863288228
 21
414.5879655005627
 31
0.0
  0
LINE
  5
12F0
330
2
100
AcDbEntity
  8
PHAS
  6
SEKKEI_P_S
100
AcDbLine
 10
315.8374863288232
 20
373.0518635005626
 30
0.0
 11
315.8374863288232
 21
399.1240432586517
 31
0.0
  0
LINE
  5
12F1
330
2
100
AcDbEntity
  8
PHAS
  6
SEKKEI_P_S
100
AcDbLine
 10
331.5374863288235
 20
360.707116926207
 30
0.0
 11
331.5374863288235
 21
411.4688140749192
 31
0.0
  0
LINE
  5
12F2
330
2
100
AcDbEntity
  8
PHAS
  6
SEKKEI_P_S
100
AcDbLine
 10
341.3374863288228
 20
357.5879655005627
 30
0.0
 11
334.4851291095116
 21
357.7075738407373
 31
0.0
  0
LINE
  5
12F3
330
2
100
AcDbEntity
  8
PHAS
  6
SEKKEI_P_S
100
AcDbLine
 10
330.7111283288232
 20
366.2336565005624
 30
0.0
 11
330.7174881402858
 21
366.2325352302957
 31
0.0
  0
ARC
  5
12F4
330
2
100
AcDbEntity
  8
PHAS
  6
SEKKEI_P_S
100
AcDbCircle
 10
330.5374863288235
 20
365.2488723332215
 30
0.0
 40
1.0
100
AcDbArc
 50
0.0
 51
79.99956533742575
  0
ARC
  5
12F5
330
2
100
AcDbEntity
  8
PHAS
  6
SEKKEI_P_S
100
AcDbCircle
 10
334.5374863288235
 20
360.707116926207
 30
0.0
 40
3.0
100
AcDbArc
 50
180.0
 51
268.9999999999982
  0
LINE
  5
12F6
330
2
100
AcDbEntity
  8
PHAS
  6
SEKKEI_P_S
100
AcDbLine
 10
319.9692080853111
 20
368.1278555642846
 30
0.0
 11
330.7111419775257
 21
366.2336787688598
 31
0.0
  0
ARC
  5
12F7
330
2
100
AcDbEntity
  8
PHAS
  6
SEKKEI_P_S
100
AcDbCircle
 10
320.8374863288232
 20
373.0518877424745
 30
0.0
 40
5.0
100
AcDbArc
 50
180.0
 51
259.9995653374257
  0
LINE
  5
12F8
330
2
100
AcDbEntity
  8
PHAS
  6
SEKKEI_P_S
100
AcDbLine
 10
341.3374863288228
 20
414.5879655005627
 30
0.0
 11
334.4851291095116
 21
414.468357160389
 31
0.0
  0
ARC
  5
12F9
330
2
100
AcDbEntity
  8
PHAS
  6
SEKKEI_P_S
100
AcDbCircle
 10
330.5311401660629
 20
406.9259151293406
 30
0.0
 40
1.0
100
AcDbArc
 50
280.0004346625742
 51
0.0
  0
ARC
  5
12FA
330
2
100
AcDbEntity
  8
PHAS
  6
SEKKEI_P_S
100
AcDbCircle
 10
320.8374863288232
 20
399.1240432586517
 30
0.0
 40
5.0
100
AcDbArc
 50
100.0004346625742
 51
180.0
  0
LINE
  5
12FB
330
2
100
AcDbEntity
  8
PHAS
  6
SEKKEI_P_S
100
AcDbLine
 10
319.9692080853111
 20
404.0480754368407
 30
0.0
 11
330.7111419775257
 21
405.9422522322663
 31
0.0
  0
ARC
  5
12FC
330
2
100
AcDbEntity
  8
PHAS
  6
SEKKEI_P_S
100
AcDbCircle
 10
334.5374863288249
 20
411.4688140749183
 30
0.0
 40
3.0
100
AcDbArc
 50
91.00000000000177
 51
180.0
  0
LINE
  5
1338
330
2
100
AcDbEntity
  8
CENTER
100
AcDbLine
 10
945.722923849463
 20
436.8697938057926
 30
0.0
 11
945.722923849463
 21
335.3032283050802
 31
0.0
  0
LINE
  5
1339
330
2
100
AcDbEntity
  8
0
100
AcDbLine
 10
907.7229238494648
 20
421.0879655005615
 30
0.0
 11
907.7229238494648
 21
351.0879655005615
 31
0.0
  0
LINE
  5
133A
330
2
100
AcDbEntity
  8
0
100
AcDbLine
 10
912.7229238494638
 20
426.5818071686977
 30
0.0
 11
912.7229238494647
 21
345.5912149421752
 31
0.0
  0
LINE
  5
133B
330
2
100
AcDbEntity
  8
0
100
AcDbLine
 10
912.722923849463
 20
351.0879655005615
 30
0.0
 11
907.7229238494629
 21
351.0879655005615
 31
0.0
  0
LINE
  5
133C
330
2
100
AcDbEntity
  8
0
100
AcDbLine
 10
912.722923849463
 20
421.0879655005615
 30
0.0
 11
907.7229238494629
 21
421.0879655005615
 31
0.0
  0
LINE
  5
133D
330
2
100
AcDbEntity
  8
0
100
AcDbLine
 10
970.7229238494647
 20
427.0879655005615
 30
0.0
 11
970.7229238494647
 21
417.1847396941108
 31
0.0
  0
LINE
  5
133E
330
2
100
AcDbEntity
  8
0
100
AcDbLine
 10
970.7229238494647
 20
427.0879655005615
 30
0.0
 11
912.7229238494638
 21
426.5818071686977
 31
0.0
  0
LINE
  5
133F
330
2
100
AcDbEntity
  8
0
100
AcDbLine
 10
970.7229238494647
 20
345.0850566103113
 30
0.0
 11
912.7229238494647
 21
345.5912149421752
 31
0.0
  0
LINE
  5
1340
330
2
100
AcDbEntity
  8
0
100
AcDbLine
 10
970.7229238494647
 20
354.9911913070141
 30
0.0
 11
970.7229238494647
 21
345.0850566103113
 31
0.0
  0
LINE
  5
1341
330
2
100
AcDbEntity
  8
0
100
AcDbLine
 10
970.7229238494647
 20
427.0879655005615
 30
0.0
 11
970.7229238494647
 21
417.1847396941108
 31
0.0
  0
LINE
  5
1342
330
2
100
AcDbEntity
  8
0
100
AcDbLine
 10
970.7229238494647
 20
354.9911913070141
 30
0.0
 11
970.7229238494647
 21
345.0850566103113
 31
0.0
  0
ARC
  5
1343
330
2
100
AcDbEntity
  8
0
100
AcDbCircle
 10
905.7229238494647
 20
355.7026179475547
 30
0.0
 40
2.0
100
AcDbArc
 50
0.0
 51
87.99999999999636
  0
ARC
  5
1344
330
2
100
AcDbEntity
  8
0
100
AcDbCircle
 10
896.7229238494638
 20
360.0193430501754
 30
0.0
 40
2.0
100
AcDbArc
 50
180.0
 51
267.9999999999963
  0
ARC
  5
1345
330
2
100
AcDbEntity
  8
0
100
AcDbCircle
 10
905.7229238494647
 20
416.4733130535664
 30
0.0
 40
2.0
100
AcDbArc
 50
272.0000000000036
 51
0.0
  0
ARC
  5
1346
330
2
100
AcDbEntity
  8
0
100
AcDbCircle
 10
896.7229238494629
 20
412.1565879509458
 30
0.0
 40
2.0
100
AcDbArc
 50
92.00000000000365
 51
180.0
  0
LINE
  5
1347
330
2
100
AcDbEntity
  8
0
100
AcDbLine
 10
896.6531248560587
 20
358.0205613961375
 30
0.0
 11
905.7927228428699
 21
357.7013996015926
 31
0.0
  0
LINE
  5
1348
330
2
100
AcDbEntity
  8
0
100
AcDbLine
 10
896.6531248560578
 20
414.1553696049837
 30
0.0
 11
905.7927228428699
 21
414.4745313995286
 31
0.0
  0
LINE
  5
1349
330
2
100
AcDbEntity
  8
0
100
AcDbLine
 10
894.722923849463
 20
412.1565879509458
 30
0.0
 11
894.7229238494648
 21
360.0193430501754
 31
0.0
  0
LINE
  5
134A
330
2
100
AcDbEntity
  8
0
100
AcDbLine
 10
970.7229238494647
 20
354.0923289344523
 30
0.0
 11
916.7054707784673
 21
354.5637321057989
 31
0.0
  0
LINE
  5
134B
330
2
100
AcDbEntity
  8
0
100
AcDbLine
 10
970.7229238494647
 20
418.0836020666689
 30
0.0
 11
916.7054707784673
 21
417.6121988953259
 31
0.0
  0
LINE
  5
134C
330
2
100
AcDbEntity
  8
0
100
AcDbLine
 10
945.722923849463
 20
354.5879655005615
 30
0.0
 11
917.6745430453085
 21
355.0403587393398
 31
0.0
  0
LINE
  5
134D
330
2
100
AcDbEntity
  8
0
100
AcDbLine
 10
945.722923849463
 20
417.5879655005615
 30
0.0
 11
973.7713046536184
 21
417.1355722617851
 31
0.0
  0
LINE
  5
134E
330
2
100
AcDbEntity
  8
0
100
AcDbLine
 10
917.6745430453093
 20
417.1355722617851
 30
0.0
 11
945.722923849463
 21
417.5879655005615
 31
0.0
  0
LINE
  5
134F
330
2
100
AcDbEntity
  8
0
100
AcDbLine
 10
973.7713046536184
 20
355.0403587393398
 30
0.0
 11
945.722923849463
 21
354.5879655005615
 31
0.0
  0
LINE
  5
1350
330
2
100
AcDbEntity
  8
0
100
AcDbLine
 10
914.7229238494629
 20
415.6122750491982
 30
0.0
 11
914.7229238494629
 21
414.6224537782072
 31
0.0
  0
ARC
  5
1351
330
2
100
AcDbEntity
  8
0
100
AcDbCircle
 10
973.7229238494629
 20
414.1359624041893
 30
0.0
 40
3.0
100
AcDbArc
 50
44.35180024427537
 51
89.07595464723311
  0
ARC
  5
1352
330
2
100
AcDbEntity
  8
0
100
AcDbCircle
 10
973.7229238494629
 20
358.0399685969355
 30
0.0
 40
3.0
100
AcDbArc
 50
270.9240453527669
 51
315.6481997502385
  0
ARC
  5
1353
330
2
100
AcDbEntity
  8
0
100
AcDbCircle
 10
917.722923849463
 20
358.0399685969355
 30
0.0
 40
3.0
100
AcDbArc
 50
224.3518002379489
 51
269.075954647207
  0
ARC
  5
1354
330
2
100
AcDbEntity
  8
0
100
AcDbCircle
 10
917.722923849463
 20
414.1359624041893
 30
0.0
 40
3.0
100
AcDbArc
 50
90.9240453527669
 51
135.648199767535
  0
ARC
  5
1355
330
2
100
AcDbEntity
  8
0
100
AcDbCircle
 10
916.7229238494629
 20
415.6122750491982
 30
0.0
 40
2.0
100
AcDbArc
 50
90.49999999999155
 51
180.0
  0
ARC
  5
1356
330
2
100
AcDbEntity
  8
0
100
AcDbCircle
 10
916.7229238494629
 20
356.5636559519266
 30
0.0
 40
2.0
100
AcDbArc
 50
180.0
 51
269.5000000000084
  0
LINE
  5
1357
330
2
100
AcDbEntity
  8
0
100
AcDbLine
 10
913.7229238494629
 20
350.0879655005615
 30
0.0
 11
970.7229238494647
 21
350.0879655005615
 31
0.0
  0
LINE
  5
1358
330
2
100
AcDbEntity
  8
0
100
AcDbLine
 10
913.7229238494638
 20
422.0879655005616
 30
0.0
 11
970.7229238494647
 21
422.0879655005616
 31
0.0
  0
LINE
  5
1359
330
2
100
AcDbEntity
  8
0
100
AcDbLine
 10
988.022923849464
 20
359.5879655005615
 30
0.0
 11
985.7229238494657
 21
359.5879655005615
 31
0.0
  0
LINE
  5
135A
330
2
100
AcDbEntity
  8
0
100
AcDbLine
 10
991.7229238494629
 20
359.5879655005597
 30
0.0
 11
992.7229238494639
 21
360.1653157697497
 31
0.0
  0
LINE
  5
135B
330
2
100
AcDbEntity
  8
0
100
AcDbLine
 10
990.022923849464
 20
360.2879655005604
 30
0.0
 11
988.4229238494636
 21
360.2879655005604
 31
0.0
  0
LINE
  5
135C
330
2
100
AcDbEntity
  8
0
100
AcDbLine
 10
988.2229238494629
 20
359.7879655005604
 30
0.0
 11
988.022923849464
 21
359.5879655005615
 31
0.0
  0
LINE
  5
135D
330
2
100
AcDbEntity
  8
0
100
AcDbLine
 10
990.222923849463
 20
359.7879655005604
 30
0.0
 11
990.222923849463
 21
412.3879655005608
 31
0.0
  0
LINE
  5
135E
330
2
100
AcDbEntity
  8
0
100
AcDbLine
 10
991.7229238494629
 20
359.5879655005597
 30
0.0
 11
990.4229238494636
 21
359.5879655005615
 31
0.0
  0
LINE
  5
135F
330
2
100
AcDbEntity
  8
0
100
AcDbLine
 10
988.0229238494658
 20
412.5879655005615
 30
0.0
 11
985.7229238494657
 21
412.5879655005615
 31
0.0
  0
LINE
  5
1360
330
2
100
AcDbEntity
  8
0
100
AcDbLine
 10
984.7229238494648
 20
406.5879655005633
 30
0.0
 11
984.7229238494648
 21
365.5879655005597
 31
0.0
  0
LINE
  5
1361
330
2
100
AcDbEntity
  8
0
100
AcDbLine
 10
983.2229238494685
 20
346.1883625585401
 30
0.0
 11
983.2229238494685
 21
355.5879655005597
 31
0.0
  0
LINE
  5
1362
330
2
100
AcDbEntity
  8
0
100
AcDbLine
 10
983.2229238494685
 20
365.5879655005597
 30
0.0
 11
983.2229238494685
 21
406.5879655005633
 31
0.0
  0
LINE
  5
1363
330
2
100
AcDbEntity
  8
0
100
AcDbLine
 10
983.2229238494685
 20
416.5879655005634
 30
0.0
 11
983.2229238494685
 21
425.9875684425811
 31
0.0
  0
ARC
  5
1364
330
2
100
AcDbEntity
  8
0
100
AcDbCircle
 10
982.2229238494683
 20
346.1883625585401
 30
0.0
 40
1.0
100
AcDbArc
 50
270.5000000000175
 51
0.0
  0
LINE
  5
1365
330
2
100
AcDbEntity
  8
0
100
AcDbLine
 10
984.2229238494702
 20
365.5879655005597
 30
0.0
 11
984.2229238494702
 21
406.5879655005633
 31
0.0
  0
LINE
  5
1366
330
2
100
AcDbEntity
  8
0
100
AcDbLine
 10
992.7229238494675
 20
360.1653157697515
 30
0.0
 11
992.7229238494684
 21
412.0106152313697
 31
0.0
  0
LINE
  5
1367
330
2
100
AcDbEntity
  8
0
100
AcDbLine
 10
991.7229238494657
 20
412.5879655005615
 30
0.0
 11
990.4229238494655
 21
412.5879655005615
 31
0.0
  0
LINE
  5
1368
330
2
100
AcDbEntity
  8
0
100
AcDbLine
 10
988.2229238494648
 20
412.3879655005608
 30
0.0
 11
988.0229238494658
 21
412.5879655005615
 31
0.0
  0
LINE
  5
1369
330
2
100
AcDbEntity
  8
0
100
AcDbLine
 10
988.2229238494648
 20
412.3879655005608
 30
0.0
 11
988.2229238495048
 21
359.7879655006023
 31
0.0
  0
LINE
  5
136A
330
2
100
AcDbEntity
  8
0
100
AcDbLine
 10
990.0229238494658
 20
411.8879655005626
 30
0.0
 11
988.4229238494654
 21
411.8879655005608
 31
0.0
  0
LINE
  5
136B
330
2
100
AcDbEntity
  8
0
100
AcDbLine
 10
991.7229238494648
 20
412.5879655005615
 30
0.0
 11
992.7229238494657
 21
412.0106152313715
 31
0.0
  0
LINE
  5
136C
330
2
100
AcDbEntity
  8
0
100
AcDbLine
 10
970.7229238494665
 20
427.0879655005615
 30
0.0
 11
970.7229238494665
 21
417.1847396941108
 31
0.0
  0
LINE
  5
136D
330
2
100
AcDbEntity
  8
0
100
AcDbLine
 10
970.722923849463
 20
354.9911913070141
 30
0.0
 11
970.7229238494612
 21
345.0879655005615
 31
0.0
  0
LINE
  5
136E
330
2
100
AcDbEntity
  8
0
100
AcDbLine
 10
978.2229238494666
 20
417.0312027815385
 30
0.0
 11
978.2229238494648
 21
405.1098017092322
 31
0.0
  0
LINE
  5
136F
330
2
100
AcDbEntity
  8
0
100
AcDbLine
 10
981.2229238494666
 20
417.0050221781663
 30
0.0
 11
981.2229238494666
 21
416.5879655005634
 31
0.0
  0
LINE
  5
1370
330
2
100
AcDbEntity
  8
0
100
AcDbLine
 10
981.2229238494657
 20
406.5879655005633
 30
0.0
 11
981.222923849463
 21
365.5879655005597
 31
0.0
  0
LINE
  5
1371
330
2
100
AcDbEntity
  8
0
100
AcDbLine
 10
981.222923849463
 20
355.5879655005597
 30
0.0
 11
981.222923849463
 21
355.1709088229568
 31
0.0
  0
ARC
  5
1372
330
2
100
AcDbEntity
  8
0
100
AcDbCircle
 10
980.222923849463
 20
355.1709088229568
 30
0.0
 40
1.0
100
AcDbArc
 50
270.4999999999915
 51
0.0
  0
LINE
  5
1373
330
2
100
AcDbEntity
  8
0
100
AcDbLine
 10
970.7229238494612
 20
345.0879655005615
 30
0.0
 11
982.2316503849672
 21
345.1884006354763
 31
0.0
  0
ARC
  5
1374
330
2
100
AcDbEntity
  8
0
100
AcDbCircle
 10
990.4229238494655
 20
412.3879655005608
 30
0.0
 40
0.2
100
AcDbArc
 50
90.0
 51
180.0
  0
ARC
  5
1375
330
2
100
AcDbEntity
  8
0
100
AcDbCircle
 10
990.0229238494658
 20
412.0879655005615
 30
0.0
 40
0.2
100
AcDbArc
 50
270.0
 51
0.0
  0
ARC
  5
1376
330
2
100
AcDbEntity
  8
0
100
AcDbCircle
 10
988.4229238494654
 20
412.0879655005615
 30
0.0
 40
0.2
100
AcDbArc
 50
180.0
 51
270.0
  0
ARC
  5
1377
330
2
100
AcDbEntity
  8
0
100
AcDbCircle
 10
990.4229238494636
 20
359.7879655005604
 30
0.0
 40
0.2
100
AcDbArc
 50
180.0
 51
269.9999999999739
  0
ARC
  5
1378
330
2
100
AcDbEntity
  8
0
100
AcDbCircle
 10
990.022923849464
 20
360.0879655005597
 30
0.0
 40
0.2
100
AcDbArc
 50
0.0
 51
89.99999999997395
  0
ARC
  5
1379
330
2
100
AcDbEntity
  8
0
100
AcDbCircle
 10
988.4229238494636
 20
360.0879655005615
 30
0.0
 40
0.2
100
AcDbArc
 50
89.99999999997395
 51
180.0
  0
LINE
  5
137A
330
2
100
AcDbEntity
  8
0
100
AcDbLine
 10
991.7229238494629
 20
359.5879655005597
 30
0.0
 11
991.7229238494657
 21
412.5879655005615
 31
0.0
  0
LINE
  5
137B
330
2
100
AcDbEntity
  8
0
100
AcDbLine
 10
988.0229238494658
 20
412.5879655005615
 30
0.0
 11
988.022923849464
 21
359.5879655005615
 31
0.0
  0
ARC
  5
137C
330
2
100
AcDbEntity
  8
0
100
AcDbCircle
 10
982.2229238494683
 20
425.9875684425811
 30
0.0
 40
1.0
100
AcDbArc
 50
0.0
 51
89.49999999998238
  0
LINE
  5
137D
330
2
100
AcDbEntity
  8
0
100
AcDbLine
 10
970.7229238494665
 20
427.0879655005615
 30
0.0
 11
982.2316503849672
 21
426.987530365645
 31
0.0
  0
LINE
  5
137E
330
2
100
AcDbEntity
  8
0
100
AcDbLine
 10
970.7229238494665
 20
418.0879655005633
 30
0.0
 11
980.2316503849644
 21
418.0049841012301
 31
0.0
  0
ARC
  5
137F
330
2
100
AcDbEntity
  8
0
100
AcDbCircle
 10
977.2229238494666
 20
417.0312027815385
 30
0.0
 40
1.0
100
AcDbArc
 50
0.0
 51
89.50000000000846
  0
ARC
  5
1380
330
2
100
AcDbEntity
  8
0
100
AcDbCircle
 10
980.2229238494666
 20
417.0050221781663
 30
0.0
 40
1.0
100
AcDbArc
 50
0.0
 51
89.50000000000846
  0
LINE
  5
1381
330
2
100
AcDbEntity
  8
0
100
AcDbLine
 10
970.7229238494665
 20
354.0879655005597
 30
0.0
 11
980.2316503849608
 21
354.1709468998929
 31
0.0
  0
LINE
  5
1382
330
2
100
AcDbEntity
  8
0
100
AcDbLine
 10
978.7185605817168
 20
404.6098207477012
 30
0.0
 11
980.2316503849644
 21
404.5966162130321
 31
0.0
  0
ARC
  5
1383
330
2
100
AcDbEntity
  8
0
100
AcDbCircle
 10
978.7229238494647
 20
405.1098017092322
 30
0.0
 40
0.5
100
AcDbArc
 50
180.0
 51
269.4999999999824
  0
ARC
  5
1384
330
2
100
AcDbEntity
  8
0
100
AcDbCircle
 10
980.2229238494648
 20
403.5966542899682
 30
0.0
 40
1.0
100
AcDbArc
 50
0.0
 51
89.50000000000846
  0
LINE
  5
1385
330
2
100
AcDbEntity
  8
0
100
AcDbLine
 10
978.2229238494666
 20
355.1447282195845
 30
0.0
 11
978.2229238494648
 21
367.0661292918889
 31
0.0
  0
ARC
  5
1386
330
2
100
AcDbEntity
  8
0
100
AcDbCircle
 10
977.2229238494666
 20
355.1447282195845
 30
0.0
 40
1.0
100
AcDbArc
 50
270.4999999999915
 51
0.0
  0
LINE
  5
1387
330
2
100
AcDbEntity
  8
0
100
AcDbLine
 10
978.7185605817168
 20
367.5661102534218
 30
0.0
 11
980.2316503849644
 21
367.5793147880909
 31
0.0
  0
ARC
  5
1388
330
2
100
AcDbEntity
  8
0
100
AcDbCircle
 10
978.7229238494647
 20
367.0661292918889
 30
0.0
 40
0.5
100
AcDbArc
 50
90.50000000001761
 51
180.0
  0
ARC
  5
1389
330
2
100
AcDbEntity
  8
0
100
AcDbCircle
 10
980.2229238494648
 20
368.5792767111548
 30
0.0
 40
1.0
100
AcDbArc
 50
270.4999999999915
 51
0.0
  0
LINE
  5
138A
330
2
100
AcDbEntity
  8
0
100
AcDbLine
 10
985.3229238494652
 20
406.5879655005633
 30
0.0
 11
985.7229238494657
 21
407.2807858235906
 31
0.0
  0
LINE
  5
138B
330
2
100
AcDbEntity
  8
0
100
AcDbLine
 10
979.7229238494656
 20
406.5879655005633
 30
0.0
 11
979.7229238494656
 21
416.5879655005634
 31
0.0
  0
LINE
  5
138C
330
2
100
AcDbEntity
  8
0
100
AcDbLine
 10
985.3229238494652
 20
406.5879655005633
 30
0.0
 11
985.3229238494652
 21
416.5879655005634
 31
0.0
  0
LINE
  5
138D
330
2
100
AcDbEntity
  8
0
100
AcDbLine
 10
978.2229238494657
 20
406.5879655005633
 30
0.0
 11
985.3229238494652
 21
406.5879655005633
 31
0.0
  0
LINE
  5
138E
330
2
100
AcDbEntity
  8
0
100
AcDbLine
 10
978.2229238494657
 20
416.5879655005634
 30
0.0
 11
985.3229238494652
 21
416.5879655005634
 31
0.0
  0
LINE
  5
138F
330
2
100
AcDbEntity
  8
0
100
AcDbLine
 10
985.3229238494652
 20
416.5879655005634
 30
0.0
 11
985.7229238494657
 21
415.8951451775361
 31
0.0
  0
LINE
  5
1390
330
2
100
AcDbEntity
  8
0
100
AcDbLine
 10
985.7229238494657
 20
407.2807858235906
 30
0.0
 11
985.7229238494657
 21
415.8951451775361
 31
0.0
  0
LINE
  5
1391
330
2
100
AcDbEntity
  8
0
100
AcDbLine
 10
978.2229238494657
 20
416.5879655005634
 30
0.0
 11
978.2229238494657
 21
406.5879655005633
 31
0.0
  0
LINE
  5
1392
330
2
100
AcDbEntity
  8
0
100
AcDbLine
 10
985.3229238494652
 20
365.5879655005597
 30
0.0
 11
985.7229238494657
 21
364.8951451775324
 31
0.0
  0
LINE
  5
1393
330
2
100
AcDbEntity
  8
0
100
AcDbLine
 10
979.7229238494656
 20
365.5879655005597
 30
0.0
 11
979.7229238494656
 21
355.5879655005597
 31
0.0
  0
LINE
  5
1394
330
2
100
AcDbEntity
  8
0
100
AcDbLine
 10
985.3229238494652
 20
365.5879655005597
 30
0.0
 11
985.3229238494652
 21
355.5879655005597
 31
0.0
  0
LINE
  5
1395
330
2
100
AcDbEntity
  8
0
100
AcDbLine
 10
978.2229238494657
 20
365.5879655005597
 30
0.0
 11
985.3229238494652
 21
365.5879655005597
 31
0.0
  0
LINE
  5
1396
330
2
100
AcDbEntity
  8
0
100
AcDbLine
 10
978.2229238494657
 20
355.5879655005597
 30
0.0
 11
985.3229238494652
 21
355.5879655005597
 31
0.0
  0
LINE
  5
1397
330
2
100
AcDbEntity
  8
0
100
AcDbLine
 10
985.3229238494652
 20
355.5879655005597
 30
0.0
 11
985.7229238494657
 21
356.280785823587
 31
0.0
  0
LINE
  5
1398
330
2
100
AcDbEntity
  8
0
100
AcDbLine
 10
985.7229238494657
 20
364.8951451775324
 30
0.0
 11
985.7229238494657
 21
356.280785823587
 31
0.0
  0
LINE
  5
1399
330
2
100
AcDbEntity
  8
CENTER
  6
CENS
100
AcDbLine
 10
988.7229238494667
 20
411.5879655005633
 30
0.0
 11
967.7229238494611
 21
411.5879655005633
 31
0.0
  0
LINE
  5
139A
330
2
100
AcDbEntity
  8
CENTER
  6
CENS
100
AcDbLine
 10
988.7229238494656
 20
360.5879655005597
 30
0.0
 11
967.7229238494602
 21
360.5879655005597
 31
0.0
  0
LINE
  5
139B
330
2
100
AcDbEntity
  8
CENTER
100
AcDbLine
 10
1004.722923849463
 20
386.0879655005615
 30
0.0
 11
871.7229238494629
 21
386.0879655005615
 31
0.0
  0
LINE
  5
139C
330
2
100
AcDbEntity
  8
0
100
AcDbLine
 10
881.7229238494629
 20
371.5880115005607
 30
0.0
 11
881.7229238494629
 21
400.5880115005625
 31
0.0
  0
LINE
  5
139D
330
2
100
AcDbEntity
  8
0
100
AcDbLine
 10
994.722923849463
 20
371.5880115005607
 30
0.0
 11
994.722923849463
 21
400.5880115005625
 31
0.0
  0
LINE
  5
139E
330
2
100
AcDbEntity
  8
0
100
AcDbLine
 10
992.7229238494666
 20
400.5880115005625
 30
0.0
 11
994.722923849463
 21
400.5880115005625
 31
0.0
  0
LINE
  5
139F
330
2
100
AcDbEntity
  8
0
 48
0.5
100
AcDbLine
 10
894.722923849463
 20
400.5880115005625
 30
0.0
 11
881.7229238494629
 21
400.5880115005625
 31
0.0
  0
LINE
  5
13A0
330
2
100
AcDbEntity
  8
0
100
AcDbLine
 10
992.7229238494684
 20
371.5880115005607
 30
0.0
 11
994.722923849463
 21
371.5880115005607
 31
0.0
  0
LINE
  5
13A1
330
2
100
AcDbEntity
  8
0
 48
0.5
100
AcDbLine
 10
894.7229238494639
 20
371.5880115005607
 30
0.0
 11
881.7229238494629
 21
371.5880115005607
 31
0.0
  0
LINE
  5
13A2
330
2
100
AcDbEntity
  8
0
100
AcDbLine
 10
985.6115989840629
 20
416.0879655005597
 30
0.0
 11
985.7229238494703
 21
416.2807858235897
 31
0.0
  0
LINE
  5
13A3
330
2
100
AcDbEntity
  8
0
100
AcDbLine
 10
985.3229238494696
 20
415.5879655005624
 30
0.0
 11
985.3229238494696
 21
425.5879655005625
 31
0.0
  0
LINE
  5
13A4
330
2
100
AcDbEntity
  8
0
100
AcDbLine
 10
983.2229238494685
 20
425.5879655005625
 30
0.0
 11
985.3229238494696
 21
425.5879655005625
 31
0.0
  0
LINE
  5
13A5
330
2
100
AcDbEntity
  8
0
100
AcDbLine
 10
985.3229238494696
 20
425.5879655005625
 30
0.0
 11
985.7229238494703
 21
424.8951451775352
 31
0.0
  0
LINE
  5
13A6
330
2
100
AcDbEntity
  8
0
100
AcDbLine
 10
985.7229238494703
 20
416.2807858235897
 30
0.0
 11
985.7229238494703
 21
424.8951451775352
 31
0.0
  0
LINE
  5
13A7
330
2
100
AcDbEntity
  8
0
100
AcDbLine
 10
985.6115989840629
 20
356.0879655005651
 30
0.0
 11
985.7229238494703
 21
355.8951451775352
 31
0.0
  0
LINE
  5
13A8
330
2
100
AcDbEntity
  8
0
100
AcDbLine
 10
985.3229238494696
 20
356.5879655005624
 30
0.0
 11
985.3229238494696
 21
346.5879655005624
 31
0.0
  0
LINE
  5
13A9
330
2
100
AcDbEntity
  8
0
100
AcDbLine
 10
983.2229238494685
 20
346.5879655005624
 30
0.0
 11
985.3229238494696
 21
346.5879655005624
 31
0.0
  0
LINE
  5
13AA
330
2
100
AcDbEntity
  8
0
100
AcDbLine
 10
985.3229238494696
 20
346.5879655005624
 30
0.0
 11
985.7229238494703
 21
347.2807858235897
 31
0.0
  0
LINE
  5
13AB
330
2
100
AcDbEntity
  8
0
100
AcDbLine
 10
985.7229238494703
 20
355.8951451775352
 30
0.0
 11
985.7229238494703
 21
347.2807858235897
 31
0.0
  0
LINE
  5
13AC
330
2
100
AcDbEntity
  8
CENTER
  6
CENS
100
AcDbLine
 10
990.301591759565
 20
420.5879655005624
 30
0.0
 11
965.7387380831833
 21
420.5879655005624
 31
0.0
  0
LINE
  5
13AD
330
2
100
AcDbEntity
  8
CENTER
  6
CENS
100
AcDbLine
 10
990.3015917595659
 20
351.5879655005624
 30
0.0
 11
965.7387380831844
 21
351.5879655005624
 31
0.0
  0
CIRCLE
  5
13AE
330
2
100
AcDbEntity
  8
HIDS
100
AcDbCircle
 10
945.7229238494738
 20
386.0879655005579
 30
0.0
 40
30.0
  0
LINE
  5
13AF
330
2
100
AcDbEntity
  8
0
100
AcDbLine
 10
915.7956884118785
 20
361.0734211112181
 30
0.0
 11
915.7229238494739
 21
386.0879655005579
 31
0.0
  0
LINE
  5
13B0
330
2
100
AcDbEntity
  8
0
100
AcDbLine
 10
975.6501592870691
 20
361.0734211112181
 30
0.0
 11
975.7229238494739
 21
386.0879655005579
 31
0.0
  0
LINE
  5
13B1
330
2
100
AcDbEntity
  8
0
100
AcDbLine
 10
976.7705306106973
 20
358.0395846964034
 30
0.0
 11
977.222923849472
 21
386.0879655005615
 31
0.0
  0
LINE
  5
13B2
330
2
100
AcDbEntity
  8
0
100
AcDbLine
 10
914.6753170882503
 20
358.0395846964034
 30
0.0
 11
914.2229238494747
 21
386.0879655005615
 31
0.0
  0
CIRCLE
  5
13B3
330
2
100
AcDbEntity
  8
0
100
AcDbCircle
 10
945.7229238494738
 20
386.0879655005579
 30
0.0
 40
25.00000000345432
  0
LINE
  5
13B4
330
2
100
AcDbEntity
  8
0
100
AcDbLine
 10
920.7956672579076
 20
356.0879655005579
 30
0.0
 11
970.65018044104
 21
356.0879655005579
 31
0.0
  0
LINE
  5
13B5
330
2
100
AcDbEntity
  8
0
100
AcDbLine
 10
917.6749269458461
 20
355.0879655005579
 30
0.0
 11
973.7709207530999
 21
355.0879655005579
 31
0.0
  0
ARC
  5
13B6
330
2
100
AcDbEntity
  8
0
100
AcDbCircle
 10
920.7956672579076
 20
361.0879655005579
 30
0.0
 40
5.0
100
AcDbArc
 50
180.166666660018
 51
270.0
  0
ARC
  5
13B7
330
2
100
AcDbEntity
  8
0
100
AcDbCircle
 10
917.6749269458461
 20
358.0879655005579
 30
0.0
 40
3.0
100
AcDbArc
 50
180.9240453527669
 51
270.0
  0
ARC
  5
13B8
330
2
100
AcDbEntity
  8
0
100
AcDbCircle
 10
970.65018044104
 20
361.0879655005579
 30
0.0
 40
5.0
100
AcDbArc
 50
270.0
 51
359.833333340008
  0
ARC
  5
13B9
330
2
100
AcDbEntity
  8
0
100
AcDbCircle
 10
973.7709207530999
 20
358.0879655005579
 30
0.0
 40
3.0
100
AcDbArc
 50
270.0
 51
359.0759546472331
  0
LINE
  5
13BA
330
2
100
AcDbEntity
  8
HIDS
100
AcDbLine
 10
965.7572247135551
 20
358.0530606876842
 30
0.0
 11
965.8363532497407
 21
362.5863314896438
 31
0.0
  0
ARC
  5
13BB
330
2
100
AcDbEntity
  8
HIDS
100
AcDbCircle
 10
963.7575293232423
 20
358.0879655005579
 30
0.0
 40
2.0
100
AcDbArc
 50
270.0
 51
358.9999999999721
  0
ARC
  5
13BC
330
2
100
AcDbEntity
  8
HIDS
100
AcDbCircle
 10
968.8358963352103
 20
362.5339742703313
 30
0.0
 40
3.0
100
AcDbArc
 50
134.4585514346996
 51
178.9999999999982
  0
LINE
  5
13BD
330
2
100
AcDbEntity
  8
0
100
AcDbLine
 10
920.7956672579076
 20
416.0879655005579
 30
0.0
 11
970.65018044104
 21
416.0879655005579
 31
0.0
  0
LINE
  5
13BE
330
2
100
AcDbEntity
  8
0
100
AcDbLine
 10
917.6749269458461
 20
417.0879655005578
 30
0.0
 11
926.3499405032673
 21
417.0879655005578
 31
0.0
  0
LINE
  5
13BF
330
2
100
AcDbEntity
  8
0
100
AcDbLine
 10
944.0959071956832
 20
417.0879655005578
 30
0.0
 11
973.7709207530999
 21
417.0879655005578
 31
0.0
  0
LINE
  5
13C0
330
2
100
AcDbEntity
  8
0
100
AcDbLine
 10
915.7956884118785
 20
411.1025098898976
 30
0.0
 11
915.7229238494739
 21
386.0879655005579
 31
0.0
  0
LINE
  5
13C1
330
2
100
AcDbEntity
  8
0
100
AcDbLine
 10
914.6753170882503
 20
414.1363463047133
 30
0.0
 11
914.2229238494747
 21
386.0879655005615
 31
0.0
  0
LINE
  5
13C2
330
2
100
AcDbEntity
  8
HIDS
100
AcDbLine
 10
929.4729238494738
 20
416.0879655005579
 30
0.0
 11
929.7204919681508
 21
401.9047974805621
 31
0.0
  0
LINE
  5
13C3
330
2
100
AcDbEntity
  8
0
100
AcDbLine
 10
914.2229238494739
 20
386.0879655005579
 30
0.0
 11
915.7229238494739
 21
386.0879655005179
 31
0.0
  0
ARC
  5
13C4
330
2
100
AcDbEntity
  8
0
100
AcDbCircle
 10
920.7956672579076
 20
411.0879655005579
 30
0.0
 40
5.0
100
AcDbArc
 50
90.0
 51
179.8333333399819
  0
ARC
  5
13C5
330
2
100
AcDbEntity
  8
0
100
AcDbCircle
 10
917.6749269458461
 20
414.0879655005579
 30
0.0
 40
3.0
100
AcDbArc
 50
90.0
 51
179.075954647233
  0
LINE
  5
13C6
330
2
100
AcDbEntity
  8
HIDS
100
AcDbLine
 10
940.9729238494739
 20
416.0879655005579
 30
0.0
 11
940.8326222256283
 21
408.0500908537183
 31
0.0
  0
LINE
  5
13C7
330
2
100
AcDbEntity
  8
0
100
AcDbLine
 10
975.6501592870691
 20
411.1025098898986
 30
0.0
 11
975.7229238494739
 21
386.0879655005579
 31
0.0
  0
LINE
  5
13C8
330
2
100
AcDbEntity
  8
0
100
AcDbLine
 10
976.7705306106973
 20
414.1363463047133
 30
0.0
 11
977.222923849472
 21
386.0879655005615
 31
0.0
  0
LINE
  5
13C9
330
2
100
AcDbEntity
  8
0
100
AcDbLine
 10
975.7229238494739
 20
386.0879655005451
 30
0.0
 11
977.2229238494739
 21
386.0879655005579
 31
0.0
  0
ARC
  5
13CA
330
2
100
AcDbEntity
  8
0
100
AcDbCircle
 10
970.65018044104
 20
411.0879655005579
 30
0.0
 40
5.0
100
AcDbArc
 50
0.1666666599919691
 51
90.0
  0
ARC
  5
13CB
330
2
100
AcDbEntity
  8
0
100
AcDbCircle
 10
973.7709207530999
 20
414.0879655005579
 30
0.0
 40
3.0
100
AcDbArc
 50
0.9240453527669025
 51
90.0
  0
LINE
  5
13CC
330
2
100
AcDbEntity
  8
CENTER
100
AcDbLine
 10
920.9741865079442
 20
414.3367028420875
 30
0.0
 11
920.9741865079442
 21
407.3367028420876
 31
0.0
  0
LINE
  5
13CD
330
2
100
AcDbEntity
  8
CENTER
100
AcDbLine
 10
924.4741865079442
 20
410.8367028420876
 30
0.0
 11
917.4741865079441
 21
410.8367028420876
 31
0.0
  0
LINE
  5
13CE
330
2
100
AcDbEntity
  8
CENTER
100
AcDbLine
 10
917.4741865079441
 20
361.3392281590291
 30
0.0
 11
924.4741865079442
 21
361.3392281590291
 31
0.0
  0
LINE
  5
13CF
330
2
100
AcDbEntity
  8
CENTER
100
AcDbLine
 10
920.9741865079442
 20
364.8392281590291
 30
0.0
 11
920.9741865079442
 21
357.8392281590291
 31
0.0
  0
LINE
  5
13D0
330
2
100
AcDbEntity
  8
CENTER
100
AcDbLine
 10
970.4716611910027
 20
357.83922815903
 30
0.0
 11
970.4716611910027
 21
364.83922815903
 31
0.0
  0
LINE
  5
13D1
330
2
100
AcDbEntity
  8
CENTER
100
AcDbLine
 10
966.9716611910027
 20
361.33922815903
 30
0.0
 11
973.9716611910026
 21
361.33922815903
 31
0.0
  0
LINE
  5
13D2
330
2
100
AcDbEntity
  8
CENTER
100
AcDbLine
 10
973.9716611910026
 20
410.8367028420876
 30
0.0
 11
966.9716611910027
 21
410.8367028420876
 31
0.0
  0
LINE
  5
13D3
330
2
100
AcDbEntity
  8
CENTER
100
AcDbLine
 10
970.4716611910027
 20
407.3367028420876
 30
0.0
 11
970.4716611910027
 21
414.3367028420875
 31
0.0
  0
LINE
  5
13D4
330
2
100
AcDbEntity
  8
0
100
AcDbLine
 10
710.9538763893125
 20
660.6308955540185
 30
0.0
 11
710.9538763893107
 21
613.8908955540187
 31
0.0
  0
LINE
  5
13D5
330
2
100
AcDbEntity
  8
0
100
AcDbLine
 10
735.9538763893107
 20
640.2608955540176
 30
0.0
 11
735.9538763893107
 21
663.2608955540177
 31
0.0
  0
ARC
  5
13D6
330
2
100
AcDbEntity
  8
0
100
AcDbCircle
 10
739.9538763893107
 20
663.2608955540177
 30
0.0
 40
4.0
100
AcDbArc
 50
90.0
 51
180.0
  0
LINE
  5
13D7
330
2
100
AcDbEntity
  8
0
100
AcDbLine
 10
745.9538763893107
 20
667.2608955540177
 30
0.0
 11
715.4595711215389
 21
667.2608955540177
 31
0.0
  0
LINE
  5
13D8
330
2
100
AcDbEntity
  8
0
100
AcDbLine
 10
709.9538763893125
 20
668.2608955540176
 30
0.0
 11
702.9538763893107
 21
668.2608955540176
 31
0.0
  0
ARC
  5
13D9
330
2
100
AcDbEntity
  8
0
100
AcDbCircle
 10
712.5996277003761
 20
670.2608955540177
 30
0.0
 40
3.0
100
AcDbArc
 50
228.5903778907203
 51
241.2428429585923
  0
ARC
  5
13DA
330
2
100
AcDbEntity
  8
0
100
AcDbCircle
 10
709.9538763893125
 20
667.2608955540177
 30
0.0
 40
1.0
100
AcDbArc
 50
21.71561728325768
 51
90.0
  0
ARC
  5
13DB
330
2
100
AcDbEntity
  8
0
100
AcDbCircle
 10
739.9538763893107
 20
611.2608955540176
 30
0.0
 40
4.0
100
AcDbArc
 50
180.0
 51
270.0
  0
ARC
  5
13DC
330
2
100
AcDbEntity
  8
0
100
AcDbCircle
 10
732.9538763893107
 20
614.2608955540176
 30
0.0
 40
3.0
100
AcDbArc
 50
0.0
 51
90.0
  0
ARC
  5
13DD
330
2
100
AcDbEntity
  8
0
100
AcDbCircle
 10
732.9538763893107
 20
640.2608955540176
 30
0.0
 40
3.0
100
AcDbArc
 50
270.0
 51
0.0
  0
LINE
  5
13DE
330
2
100
AcDbEntity
  8
0
100
AcDbLine
 10
721.9538763893107
 20
620.2608955540177
 30
0.0
 11
721.9538763893107
 21
634.2608955540177
 31
0.0
  0
LINE
  5
13DF
330
2
100
AcDbEntity
  8
0
100
AcDbLine
 10
732.9538763893107
 20
637.2608955540177
 30
0.0
 11
724.9538763893107
 21
637.2608955540177
 31
0.0
  0
ARC
  5
13E0
330
2
100
AcDbEntity
  8
0
100
AcDbCircle
 10
724.9538763893107
 20
634.2608955540177
 30
0.0
 40
3.0
100
AcDbArc
 50
90.0
 51
180.0
  0
LINE
  5
13E1
330
2
100
AcDbEntity
  8
0
100
AcDbLine
 10
732.9538763893107
 20
617.2608955540177
 30
0.0
 11
724.9538763893107
 21
617.2608955540177
 31
0.0
  0
LINE
  5
13E2
330
2
100
AcDbEntity
  8
0
100
AcDbLine
 10
735.9538763893107
 20
611.2608955540176
 30
0.0
 11
735.9538763893107
 21
614.2608955540176
 31
0.0
  0
ARC
  5
13E3
330
2
100
AcDbEntity
  8
0
100
AcDbCircle
 10
724.9538763893107
 20
620.2608955540177
 30
0.0
 40
3.0
100
AcDbArc
 50
180.0
 51
270.0
  0
LINE
  5
13E4
330
2
100
AcDbEntity
  8
0
100
AcDbLine
 10
745.9538763893107
 20
607.2608955540176
 30
0.0
 11
715.4595711215399
 21
607.2608955540176
 31
0.0
  0
LINE
  5
13E5
330
2
100
AcDbEntity
  8
0
100
AcDbLine
 10
709.9538763893107
 20
606.2608955540176
 30
0.0
 11
702.9538763893107
 21
606.2608955540176
 31
0.0
  0
ARC
  5
13E6
330
2
100
AcDbEntity
  8
0
100
AcDbCircle
 10
712.5996277003761
 20
604.2608955540177
 30
0.0
 40
3.0
100
AcDbArc
 50
118.7571570414074
 51
131.4096221092842
  0
ARC
  5
13E7
330
2
100
AcDbEntity
  8
0
100
AcDbCircle
 10
709.9538763893107
 20
607.2608955540176
 30
0.0
 40
1.0
100
AcDbArc
 50
270.0
 51
338.2843827167423
  0
LINE
  5
13E8
330
2
100
AcDbEntity
  8
0
100
AcDbLine
 10
745.9538763893107
 20
607.2608955540176
 30
0.0
 11
745.9538763893107
 21
667.2608955540177
 31
0.0
  0
CIRCLE
  5
13E9
330
2
100
AcDbEntity
  8
CENTER
100
AcDbCircle
 10
945.7229238494738
 20
386.0879655005579
 30
0.0
 40
35.00000000000006
  0
LINE
  5
13EA
330
2
100
AcDbEntity
  8
0
100
AcDbLine
 10
736.3590053375011
 20
409.2977872246733
 30
0.0
 11
736.4089266120182
 21
412.1577751263116
 31
0.0
  0
LINE
  5
13EB
330
2
100
AcDbEntity
  8
0
100
AcDbLine
 10
710.8252410138976
 20
393.4574813959075
 30
0.0
 11
710.4299198115987
 21
416.1054179070011
 31
0.0
  0
LINE
  5
13EC
330
2
100
AcDbEntity
  8
0
100
AcDbLine
 10
702.9538763923339
 20
386.0879655005624
 30
0.0
 11
703.4139157455212
 21
386.0879655005625
 31
0.0
  0
ARC
  5
13ED
330
2
100
AcDbEntity
  8
0
100
AcDbCircle
 10
718.870311767636
 20
411.3267319613365
 30
0.0
 40
3.0
100
AcDbArc
 50
270.0
 51
359.0000000000242
  0
LINE
  5
13EE
330
2
100
AcDbEntity
  8
0
100
AcDbLine
 10
733.3415985206994
 20
408.3267319613374
 30
0.0
 11
718.870311767636
 21
408.3267319613374
 31
0.0
  0
LINE
  5
13EF
330
2
100
AcDbEntity
  8
0
100
AcDbLine
 10
715.4595711245621
 20
356.0879655005624
 30
0.0
 11
745.9538763923339
 21
356.0879655005624
 31
0.0
  0
LINE
  5
13F0
330
2
100
AcDbEntity
  8
0
100
AcDbLine
 10
738.9538763923338
 20
408.5879655005625
 30
0.0
 11
735.8532097207172
 21
408.5879655005625
 31
0.0
  0
LINE
  5
13F1
330
2
100
AcDbEntity
  8
0
100
AcDbLine
 10
735.9538763923339
 20
386.0879655005624
 30
0.0
 11
736.4089266120191
 21
360.0181558748132
 31
0.0
  0
ARC
  5
13F2
330
2
100
AcDbEntity
  8
0
100
AcDbCircle
 10
740.4083173926438
 20
360.0879655005624
 30
0.0
 40
4.0
100
AcDbArc
 50
181.0000000000017
 51
270.0
  0
ARC
  5
13F3
330
2
100
AcDbEntity
  8
0
100
AcDbCircle
 10
723.9192709185646
 20
414.0879655005624
 30
0.0
 40
2.0
100
AcDbArc
 50
90.0
 51
179.0000000000242
  0
LINE
  5
13F4
330
2
100
AcDbEntity
  8
0
100
AcDbLine
 10
721.9195755282527
 20
414.1228703134379
 30
0.0
 11
721.8698548531066
 21
411.2743747420259
 31
0.0
  0
LINE
  5
13F5
330
2
100
AcDbEntity
  8
0
100
AcDbLine
 10
710.9538763923429
 20
386.0879655005624
 30
0.0
 11
710.4299198116006
 21
356.0705130941256
 31
0.0
  0
ARC
  5
13F6
330
2
100
AcDbEntity
  8
0
100
AcDbCircle
 10
712.0758234275073
 20
353.0879655005624
 30
0.0
 40
3.0
100
AcDbArc
 50
118.7571570414074
 51
131.4096221092796
  0
ARC
  5
13F7
330
2
100
AcDbEntity
  8
0
100
AcDbCircle
 10
709.4300721164437
 20
356.0879655005624
 30
0.0
 40
1.0
100
AcDbArc
 50
270.0
 51
358.9999999999721
  0
LINE
  5
13F8
330
2
100
AcDbEntity
  8
0
100
AcDbLine
 10
702.9538763923339
 20
355.0879655005624
 30
0.0
 11
709.4300721164437
 21
355.0879655005624
 31
0.0
  0
LINE
  5
13F9
330
2
100
AcDbEntity
  8
0
100
AcDbLine
 10
715.4595711245621
 20
416.0879655005624
 30
0.0
 11
745.9538763923339
 21
416.0879655005624
 31
0.0
  0
LINE
  5
13FA
330
2
100
AcDbEntity
  8
CENTER
  6
CENS
100
AcDbLine
 10
731.9538763923339
 20
425.087965500566
 30
0.0
 11
731.9538763923339
 21
402.6055557828127
 31
0.0
  0
ARC
  5
13FB
330
2
100
AcDbEntity
  8
0
100
AcDbCircle
 10
740.4083173926429
 20
412.0879655005624
 30
0.0
 40
4.0
100
AcDbArc
 50
90.0
 51
178.9999999999982
  0
ARC
  5
13FC
330
2
100
AcDbEntity
  8
0
100
AcDbCircle
 10
712.0758234275073
 20
419.0879655005624
 30
0.0
 40
3.0
100
AcDbArc
 50
228.5903778907442
 51
241.2428429585923
  0
ARC
  5
13FD
330
2
100
AcDbEntity
  8
0
100
AcDbCircle
 10
709.4300721164419
 20
416.0879655005624
 30
0.0
 40
1.0
100
AcDbArc
 50
1.000000000001775
 51
90.0
  0
LINE
  5
13FE
330
2
100
AcDbEntity
  8
0
100
AcDbLine
 10
702.9538763923339
 20
417.0879655005625
 30
0.0
 11
709.4300721164419
 21
417.0879655005625
 31
0.0
  0
LINE
  5
13FF
330
2
100
AcDbEntity
  8
0
100
AcDbLine
 10
745.9538763923339
 20
416.0879655005624
 30
0.0
 11
745.9538763923339
 21
356.0879655005624
 31
0.0
  0
LINE
  5
1400
330
2
100
AcDbEntity
  8
0
100
AcDbLine
 10
711.5459515249623
 20
416.4579655005632
 30
0.0
 11
710.5459515249623
 21
416.4579655005632
 31
0.0
  0
LINE
  5
1401
330
2
100
AcDbEntity
  8
0
100
AcDbLine
 10
710.5459515249623
 20
416.4579655005632
 30
0.0
 11
710.5459515249623
 21
409.4579655005632
 31
0.0
  0
LINE
  5
1402
330
2
100
AcDbEntity
  8
0
100
AcDbLine
 10
710.5459515249623
 20
409.4579655005632
 30
0.0
 11
711.5459515249623
 21
409.4579655005632
 31
0.0
  0
LINE
  5
1403
330
2
100
AcDbEntity
  8
0
100
AcDbLine
 10
711.5459515249623
 20
409.4579655005632
 30
0.0
 11
711.5459515249623
 21
416.4579655005632
 31
0.0
  0
LINE
  5
1404
330
2
100
AcDbEntity
  8
0
100
AcDbLine
 10
715.5459515249623
 20
415.9383502582928
 30
0.0
 11
715.5459515249623
 21
409.9775807428336
 31
0.0
  0
LINE
  5
1405
330
2
100
AcDbEntity
  8
0
100
AcDbLine
 10
715.245951524963
 20
409.4579655005632
 30
0.0
 11
715.245951524963
 21
416.4579655005632
 31
0.0
  0
LINE
  5
1406
330
2
100
AcDbEntity
  8
0
100
AcDbLine
 10
715.245951524963
 20
409.4579655005632
 30
0.0
 11
711.5459515249623
 21
409.4579655005632
 31
0.0
  0
LINE
  5
1407
330
2
100
AcDbEntity
  8
0
100
AcDbLine
 10
715.245951524963
 20
409.4579655005632
 30
0.0
 11
715.5459515249623
 21
409.9775807428336
 31
0.0
  0
LINE
  5
1408
330
2
100
AcDbEntity
  8
0
100
AcDbLine
 10
715.5459515249623
 20
415.9383502582928
 30
0.0
 11
715.245951524963
 21
416.4579655005632
 31
0.0
  0
LINE
  5
1409
330
2
100
AcDbEntity
  8
0
100
AcDbLine
 10
711.5459515249623
 20
416.4579655005632
 30
0.0
 11
715.245951524963
 21
416.4579655005632
 31
0.0
  0
LINE
  5
140A
330
2
100
AcDbEntity
  8
CENTER
  6
CENS
100
AcDbLine
 10
720.4848587977123
 20
412.9579655005632
 30
0.0
 11
697.4849017080906
 21
412.9579655005632
 31
0.0
  0
LINE
  5
140B
330
2
100
AcDbEntity
  8
CENTER
  6
CENS
100
AcDbLine
 10
720.4848587977123
 20
359.2179655005625
 30
0.0
 11
697.4849017080906
 21
359.2179655005625
 31
0.0
  0
LINE
  5
140C
330
2
100
AcDbEntity
  8
CENTER
  6
CENS
100
AcDbLine
 10
720.4848587946891
 20
610.3908955540187
 30
0.0
 11
697.4849017050675
 21
610.3908955540187
 31
0.0
  0
LINE
  5
140D
330
2
100
AcDbEntity
  8
0
100
AcDbLine
 10
711.5459515219392
 20
606.8908955540186
 30
0.0
 11
710.5459515219392
 21
606.8908955540186
 31
0.0
  0
LINE
  5
140E
330
2
100
AcDbEntity
  8
0
100
AcDbLine
 10
710.5459515219392
 20
613.8908955540187
 30
0.0
 11
711.5459515219392
 21
613.8908955540187
 31
0.0
  0
LINE
  5
140F
330
2
100
AcDbEntity
  8
0
100
AcDbLine
 10
711.5459515219392
 20
613.8908955540187
 30
0.0
 11
711.5459515219392
 21
606.8908955540186
 31
0.0
  0
LINE
  5
1410
330
2
100
AcDbEntity
  8
0
100
AcDbLine
 10
715.5459515219392
 20
607.4105107962891
 30
0.0
 11
715.5459515219392
 21
613.3712803117482
 31
0.0
  0
LINE
  5
1411
330
2
100
AcDbEntity
  8
0
100
AcDbLine
 10
715.2459515219399
 20
613.8908955540187
 30
0.0
 11
715.2459515219399
 21
606.8908955540186
 31
0.0
  0
LINE
  5
1412
330
2
100
AcDbEntity
  8
0
100
AcDbLine
 10
715.2459515219399
 20
613.8908955540187
 30
0.0
 11
711.5459515219392
 21
613.8908955540187
 31
0.0
  0
LINE
  5
1413
330
2
100
AcDbEntity
  8
0
100
AcDbLine
 10
715.2459515219399
 20
613.8908955540187
 30
0.0
 11
715.5459515219392
 21
613.3712803117482
 31
0.0
  0
LINE
  5
1414
330
2
100
AcDbEntity
  8
0
100
AcDbLine
 10
715.5459515219392
 20
607.4105107962891
 30
0.0
 11
715.2459515219399
 21
606.8908955540186
 31
0.0
  0
LINE
  5
1415
330
2
100
AcDbEntity
  8
0
100
AcDbLine
 10
711.5459515219392
 20
606.8908955540186
 30
0.0
 11
715.2459515219399
 21
606.8908955540186
 31
0.0
  0
LINE
  5
1416
330
2
100
AcDbEntity
  8
0
100
AcDbLine
 10
710.5459515219392
 20
606.8908955540186
 30
0.0
 11
710.5459515219392
 21
613.8908955540187
 31
0.0
  0
LINE
  5
1417
330
2
100
AcDbEntity
  8
0
100
AcDbLine
 10
710.5459515219392
 20
613.8908955540187
 30
0.0
 11
710.5459515219392
 21
606.8908955540186
 31
0.0
  0
LINE
  5
1418
330
2
100
AcDbEntity
  8
CENTER
  6
CENS
100
AcDbLine
 10
720.4848587946891
 20
664.1308955540185
 30
0.0
 11
697.4849017050675
 21
664.1308955540185
 31
0.0
  0
LINE
  5
1419
330
2
100
AcDbEntity
  8
0
100
AcDbLine
 10
711.5459515219392
 20
667.6308955540185
 30
0.0
 11
710.5459515219392
 21
667.6308955540185
 31
0.0
  0
LINE
  5
141A
330
2
100
AcDbEntity
  8
0
100
AcDbLine
 10
710.5459515219392
 20
660.6308955540185
 30
0.0
 11
711.5459515219392
 21
660.6308955540185
 31
0.0
  0
LINE
  5
141B
330
2
100
AcDbEntity
  8
0
100
AcDbLine
 10
711.5459515219392
 20
660.6308955540185
 30
0.0
 11
711.5459515219392
 21
667.6308955540185
 31
0.0
  0
LINE
  5
141C
330
2
100
AcDbEntity
  8
0
100
AcDbLine
 10
715.5459515219392
 20
667.111280311748
 30
0.0
 11
715.5459515219392
 21
661.1505107962889
 31
0.0
  0
LINE
  5
141D
330
2
100
AcDbEntity
  8
0
100
AcDbLine
 10
715.2459515219399
 20
660.6308955540185
 30
0.0
 11
715.2459515219399
 21
667.6308955540185
 31
0.0
  0
LINE
  5
141E
330
2
100
AcDbEntity
  8
0
100
AcDbLine
 10
715.2459515219399
 20
660.6308955540185
 30
0.0
 11
711.5459515219392
 21
660.6308955540185
 31
0.0
  0
LINE
  5
141F
330
2
100
AcDbEntity
  8
0
100
AcDbLine
 10
715.2459515219399
 20
660.6308955540185
 30
0.0
 11
715.5459515219392
 21
661.1505107962889
 31
0.0
  0
LINE
  5
1420
330
2
100
AcDbEntity
  8
0
100
AcDbLine
 10
715.5459515219392
 20
667.111280311748
 30
0.0
 11
715.2459515219399
 21
667.6308955540185
 31
0.0
  0
LINE
  5
1421
330
2
100
AcDbEntity
  8
0
100
AcDbLine
 10
711.5459515219392
 20
667.6308955540185
 30
0.0
 11
715.2459515219399
 21
667.6308955540185
 31
0.0
  0
LINE
  5
1422
330
2
100
AcDbEntity
  8
0
100
AcDbLine
 10
710.5459515219392
 20
667.6308955540185
 30
0.0
 11
710.5459515219392
 21
660.6308955540185
 31
0.0
  0
LINE
  5
1423
330
2
100
AcDbEntity
  8
0
100
AcDbLine
 10
710.5459515219392
 20
660.6308955540185
 30
0.0
 11
710.5459515219392
 21
667.6308955540185
 31
0.0
  0
LINE
  5
1424
330
2
100
AcDbEntity
  8
0
100
AcDbLine
 10
711.5459515249623
 20
355.7179655005634
 30
0.0
 11
710.5459515249623
 21
355.7179655005634
 31
0.0
  0
LINE
  5
1425
330
2
100
AcDbEntity
  8
0
100
AcDbLine
 10
710.5459515249623
 20
355.7179655005634
 30
0.0
 11
710.5459515249623
 21
362.7179655005634
 31
0.0
  0
LINE
  5
1426
330
2
100
AcDbEntity
  8
0
100
AcDbLine
 10
710.5459515249623
 20
362.7179655005634
 30
0.0
 11
711.5459515249623
 21
362.7179655005634
 31
0.0
  0
LINE
  5
1427
330
2
100
AcDbEntity
  8
0
100
AcDbLine
 10
711.5459515249623
 20
362.7179655005634
 30
0.0
 11
711.5459515249623
 21
355.7179655005634
 31
0.0
  0
LINE
  5
1428
330
2
100
AcDbEntity
  8
0
100
AcDbLine
 10
715.5459515249623
 20
356.2375807428339
 30
0.0
 11
715.5459515249623
 21
362.198350258293
 31
0.0
  0
LINE
  5
1429
330
2
100
AcDbEntity
  8
0
100
AcDbLine
 10
715.245951524963
 20
362.7179655005634
 30
0.0
 11
715.245951524963
 21
355.7179655005634
 31
0.0
  0
LINE
  5
142A
330
2
100
AcDbEntity
  8
0
100
AcDbLine
 10
715.245951524963
 20
362.7179655005634
 30
0.0
 11
711.5459515249623
 21
362.7179655005634
 31
0.0
  0
LINE
  5
142B
330
2
100
AcDbEntity
  8
0
100
AcDbLine
 10
715.245951524963
 20
362.7179655005634
 30
0.0
 11
715.5459515249623
 21
362.198350258293
 31
0.0
  0
LINE
  5
142C
330
2
100
AcDbEntity
  8
0
100
AcDbLine
 10
715.5459515249623
 20
356.2375807428339
 30
0.0
 11
715.245951524963
 21
355.7179655005634
 31
0.0
  0
LINE
  5
142D
330
2
100
AcDbEntity
  8
0
100
AcDbLine
 10
711.5459515249623
 20
355.7179655005634
 30
0.0
 11
715.245951524963
 21
355.7179655005634
 31
0.0
  0
LINE
  5
142E
330
2
100
AcDbEntity
  8
0
100
AcDbLine
 10
736.4538657832837
 20
391.5879655005633
 30
0.0
 11
726.4538657832837
 21
391.5879655005633
 31
0.0
  0
LINE
  5
142F
330
2
100
AcDbEntity
  8
0
100
AcDbLine
 10
736.4538657832837
 20
391.5879655005624
 30
0.0
 11
736.4538657832837
 21
386.0879655005624
 31
0.0
  0
LINE
  5
1430
330
2
100
AcDbEntity
  8
0
100
AcDbLine
 10
738.4538657832837
 20
392.7426660389424
 30
0.0
 11
736.4538657832837
 21
391.5879655005624
 31
0.0
  0
LINE
  5
1431
330
2
100
AcDbEntity
  8
0
100
AcDbLine
 10
709.4538657832837
 20
391.8379655005624
 30
0.0
 11
709.4538657832837
 21
386.0879655005624
 31
0.0
  0
LINE
  5
1432
330
2
100
AcDbEntity
  8
0
100
AcDbLine
 10
736.4538657832837
 20
391.5879655005624
 30
0.0
 11
726.4538657832837
 21
391.5879655005624
 31
0.0
  0
LINE
  5
1433
330
2
100
AcDbEntity
  8
0
100
AcDbLine
 10
731.3660799619575
 20
400.8379655005624
 30
0.0
 11
738.4538657832837
 21
400.8379655005624
 31
0.0
  0
LINE
  5
1434
330
2
100
AcDbEntity
  8
0
100
AcDbLine
 10
738.4538657832837
 20
400.8379655005624
 30
0.0
 11
738.4538657832837
 21
386.0879655005624
 31
0.0
  0
LINE
  5
1435
330
2
100
AcDbEntity
  8
0
100
AcDbLine
 10
724.4538657832837
 20
396.3726466872863
 30
0.0
 11
724.4538657832837
 21
386.0879655005624
 31
0.0
  0
LINE
  5
1436
330
2
100
AcDbEntity
  8
0
100
AcDbLine
 10
726.4538657832837
 20
396.8980468347177
 30
0.0
 11
726.4538657832837
 21
386.0879655005624
 31
0.0
  0
LINE
  5
1437
330
2
100
AcDbEntity
  8
0
100
AcDbLine
 10
717.4538657832837
 20
391.8379655005624
 30
0.0
 11
709.4538657832837
 21
391.8379655005624
 31
0.0
  0
LINE
  5
1438
330
2
100
AcDbEntity
  8
0
100
AcDbLine
 10
717.4538657832837
 20
386.0879655005624
 30
0.0
 11
717.4538657832837
 21
391.8379655005624
 31
0.0
  0
LINE
  5
1439
330
2
100
AcDbEntity
  8
0
100
AcDbLine
 10
724.4538657832837
 20
391.5879655005624
 30
0.0
 11
717.4538657832837
 21
391.5879655005624
 31
0.0
  0
LINE
  5
143A
330
2
100
AcDbEntity
  8
0
100
AcDbLine
 10
706.5671144373355
 20
386.0879655005624
 30
0.0
 11
709.4538657832837
 21
391.0879655005624
 31
0.0
  0
LINE
  5
143B
330
2
100
AcDbEntity
  8
0
100
AcDbLine
 10
738.9538763923338
 20
411.0879655005624
 30
0.0
 11
738.9538763923347
 21
386.0879655005624
 31
0.0
  0
LINE
  5
143C
330
2
100
AcDbEntity
  8
0
100
AcDbLine
 10
745.9538763923339
 20
411.0879655005624
 30
0.0
 11
738.9538763923338
 21
411.0879655005624
 31
0.0
  0
LINE
  5
143E
330
2
100
AcDbEntity
  8
0
100
AcDbLine
 10
930.9920039868194
 20
385.3379655005615
 30
0.0
 11
935.2229238494757
 21
385.3379655005615
 31
0.0
  0
LINE
  5
143F
330
2
100
AcDbEntity
  8
0
100
AcDbLine
 10
930.9920039868194
 20
386.8379655005615
 30
0.0
 11
935.2229238494757
 21
386.8379655005615
 31
0.0
  0
LINE
  5
1440
330
2
100
AcDbEntity
  8
0
100
AcDbLine
 10
959.7229238494756
 20
386.8379655005615
 30
0.0
 11
959.7229238494756
 21
385.3379655005615
 31
0.0
  0
LINE
  5
1441
330
2
100
AcDbEntity
  8
0
100
AcDbLine
 10
951.1715475288994
 20
386.8379655005615
 30
0.0
 11
959.7229238494756
 21
386.8379655005615
 31
0.0
  0
LINE
  5
1442
330
2
100
AcDbEntity
  8
0
100
AcDbLine
 10
959.7229238494756
 20
385.3379655005615
 30
0.0
 11
951.1715475288994
 21
385.3379655005615
 31
0.0
  0
LINE
  5
1443
330
2
100
AcDbEntity
  8
HIDS
100
AcDbLine
 10
939.2229238494756
 20
399.3285281774265
 30
0.0
 11
939.2229238494756
 21
391.0879655005615
 31
0.0
  0
LINE
  5
1444
330
2
100
AcDbEntity
  8
HIDS
100
AcDbLine
 10
936.8895905161418
 20
376.5546321672287
 30
0.0
 11
936.8895905161418
 21
374.2754838721217
 31
0.0
  0
LINE
  5
1445
330
2
100
AcDbEntity
  8
HIDS
100
AcDbLine
 10
937.2229238494757
 20
385.3379655005615
 30
0.0
 11
937.2229238494757
 21
374.0334020493197
 31
0.0
  0
LINE
  5
1446
330
2
100
AcDbEntity
  8
HIDS
100
AcDbLine
 10
932.7229238494757
 20
391.0879655005615
 30
0.0
 11
932.7229238494757
 21
386.8379655005615
 31
0.0
  0
LINE
  5
1447
330
2
100
AcDbEntity
  8
HIDS
100
AcDbLine
 10
937.7229238494757
 20
391.0879655005615
 30
0.0
 11
937.7229238494757
 21
386.8379655005615
 31
0.0
  0
LINE
  5
1448
330
2
100
AcDbEntity
  8
HIDS
100
AcDbLine
 10
931.8462347630976
 20
391.0879655005615
 30
0.0
 11
939.2229238494756
 21
391.0879655005615
 31
0.0
  0
LINE
  5
1449
330
2
100
AcDbEntity
  8
CENTER
  6
CENS
100
AcDbLine
 10
935.2229238494757
 20
425.0879655005615
 30
0.0
 11
935.2229238494757
 21
370.9362628609656
 31
0.0
  0
LINE
  5
144A
330
2
100
AcDbEntity
  8
HIDS
100
AcDbLine
 10
933.2229238494758
 20
391.0879655005615
 30
0.0
 11
933.2229238494758
 21
386.8379655005615
 31
0.0
  0
LINE
  5
144B
330
2
100
AcDbEntity
  8
HIDS
100
AcDbLine
 10
933.5562571828097
 20
389.4212988338955
 30
0.0
 11
933.5562571828097
 21
386.8379655005615
 31
0.0
  0
LINE
  5
144C
330
2
100
AcDbEntity
  8
HIDS
100
AcDbLine
 10
936.8895905161418
 20
389.4212988338955
 30
0.0
 11
936.8895905161418
 21
386.8379655005615
 31
0.0
  0
LINE
  5
144D
330
2
100
AcDbEntity
  8
HIDS
100
AcDbLine
 10
937.2229238494757
 20
391.0879655005615
 30
0.0
 11
937.2229238494757
 21
386.8379655005615
 31
0.0
  0
LINE
  5
144E
330
2
100
AcDbEntity
  8
HIDS
100
AcDbLine
 10
937.2229238494757
 20
376.8879655005608
 30
0.0
 11
934.1937217955612
 21
376.8879655005608
 31
0.0
  0
LINE
  5
144F
330
2
100
AcDbEntity
  8
HIDS
100
AcDbLine
 10
936.4229238494765
 20
376.0879655005615
 30
0.0
 11
934.8802996283749
 21
376.0879655005615
 31
0.0
  0
LINE
  5
1450
330
2
100
AcDbEntity
  8
0
100
AcDbLine
 10
934.022923849475
 20
376.0879655005615
 30
0.0
 11
934.8802996283749
 21
376.0879655005615
 31
0.0
  0
LINE
  5
1451
330
2
100
AcDbEntity
  8
0
100
AcDbLine
 10
933.2229238494758
 20
376.8879655005608
 30
0.0
 11
934.022923849475
 21
376.0879655005615
 31
0.0
  0
LINE
  5
1452
330
2
100
AcDbEntity
  8
0
100
AcDbLine
 10
933.2229238494758
 20
376.8879655005608
 30
0.0
 11
934.1937217955612
 21
376.8879655005608
 31
0.0
  0
LINE
  5
1453
330
2
100
AcDbEntity
  8
HIDS
100
AcDbLine
 10
937.2229238494757
 20
376.8879655005608
 30
0.0
 11
936.4229238494765
 21
376.0879655005615
 31
0.0
  0
LINE
  5
1454
330
2
100
AcDbEntity
  8
0
100
AcDbLine
 10
931.7229238494757
 20
391.0879655005615
 30
0.0
 11
931.8462347630976
 21
391.0879655005615
 31
0.0
  0
LINE
  5
1455
330
2
100
AcDbEntity
  8
HIDS
100
AcDbLine
 10
937.2229238494757
 20
389.4212988338955
 30
0.0
 11
933.2229238494758
 21
389.4212988338955
 31
0.0
  0
LINE
  5
1456
330
2
100
AcDbEntity
  8
0
100
AcDbLine
 10
931.7229238494757
 20
394.7879655005623
 30
0.0
 11
933.8118995442355
 21
394.7879655005623
 31
0.0
  0
LINE
  5
1457
330
2
100
AcDbEntity
  8
HIDS
100
AcDbLine
 10
938.2033086072052
 20
395.0879655005615
 30
0.0
 11
934.0369279569559
 21
395.0879655005615
 31
0.0
  0
LINE
  5
1458
330
2
100
AcDbEntity
  8
0
100
AcDbLine
 10
931.7229238494757
 20
394.7879655005623
 30
0.0
 11
931.7229238494757
 21
391.0879655005615
 31
0.0
  0
LINE
  5
1459
330
2
100
AcDbEntity
  8
HIDS
100
AcDbLine
 10
933.2229238494758
 20
391.0879655005615
 30
0.0
 11
933.5562571828097
 21
389.4212988338955
 31
0.0
  0
LINE
  5
145A
330
2
100
AcDbEntity
  8
0
100
AcDbLine
 10
931.7229238494757
 20
394.7879655005623
 30
0.0
 11
932.2425390917461
 21
395.0879655005615
 31
0.0
  0
LINE
  5
145B
330
2
100
AcDbEntity
  8
HIDS
100
AcDbLine
 10
938.7229238494757
 20
391.0879655005615
 30
0.0
 11
938.7229238494757
 21
394.7879655005623
 31
0.0
  0
LINE
  5
145C
330
2
100
AcDbEntity
  8
HIDS
100
AcDbLine
 10
937.2229238494757
 20
391.0879655005615
 30
0.0
 11
936.8895905161418
 21
389.4212988338955
 31
0.0
  0
LINE
  5
145D
330
2
100
AcDbEntity
  8
HIDS
100
AcDbLine
 10
938.2033086072052
 20
395.0879655005615
 30
0.0
 11
938.7229238494757
 21
394.7879655005623
 31
0.0
  0
LINE
  5
145F
330
2
100
AcDbEntity
  8
0
100
AcDbLine
 10
935.2229238494757
 20
386.8379655005615
 30
0.0
 11
940.2743001700519
 21
386.8379655005615
 31
0.0
  0
LINE
  5
1460
330
2
100
AcDbEntity
  8
0
100
AcDbLine
 10
935.2229238494757
 20
385.3379655005615
 30
0.0
 11
940.2743001700519
 21
385.3379655005615
 31
0.0
  0
LINE
  5
1462
330
2
100
AcDbEntity
  8
HIDS
100
AcDbLine
 10
933.8118995442355
 20
394.7879655005623
 30
0.0
 11
938.7229238494757
 21
394.7879655005623
 31
0.0
  0
LINE
  5
1463
330
2
100
AcDbEntity
  8
0
100
AcDbLine
 10
934.0369279569559
 20
395.0879655005615
 30
0.0
 11
932.2425390917461
 21
395.0879655005615
 31
0.0
  0
LINE
  5
1464
330
2
100
AcDbEntity
  8
HIDS
100
AcDbLine
 10
931.8462347630976
 20
391.0879655005615
 30
0.0
 11
938.7229238494757
 21
391.0879655005615
 31
0.0
  0
LINE
  5
1465
330
2
100
AcDbEntity
  8
0
100
AcDbLine
 10
937.2229238494757
 20
386.8379655005615
 30
0.0
 11
937.2229238494757
 21
385.3379655005615
 31
0.0
  0
LINE
  5
1466
330
2
100
AcDbEntity
  8
HOJO
100
AcDbLine
 10
936.8895905161418
 20
386.8379655005615
 30
0.0
 11
936.8895905161418
 21
385.3379655005615
 31
0.0
  0
LINE
  5
1467
330
2
100
AcDbEntity
  8
HOJO
100
AcDbLine
 10
933.5562571828097
 20
386.8379655005615
 30
0.0
 11
933.5562571828097
 21
385.3379655005615
 31
0.0
  0
LINE
  5
1468
330
2
100
AcDbEntity
  8
0
100
AcDbLine
 10
933.2229238494758
 20
386.8379655005615
 30
0.0
 11
933.2229238494758
 21
385.3379655005615
 31
0.0
  0
LINE
  5
1469
330
2
100
AcDbEntity
  8
HIDS
100
AcDbLine
 10
933.2229238494758
 20
385.3379655005615
 30
0.0
 11
933.2229238494758
 21
378.2577356188781
 31
0.0
  0
LINE
  5
146A
330
2
100
AcDbEntity
  8
HIDS
100
AcDbLine
 10
933.5562571828097
 20
385.3379655005615
 30
0.0
 11
933.5562571828097
 21
377.7492172598345
 31
0.0
  0
LINE
  5
146B
330
2
100
AcDbEntity
  8
HIDS
100
AcDbLine
 10
936.8895905161418
 20
385.3379655005615
 30
0.0
 11
936.8895905161418
 21
376.5546321672287
 31
0.0
  0
LINE
  5
146C
330
2
100
AcDbEntity
  8
HIDS
100
AcDbLine
 10
937.2229238494757
 20
385.3379655005615
 30
0.0
 11
937.2229238494757
 21
376.8879655005608
 31
0.0
  0
LINE
  5
146D
330
2
100
AcDbEntity
  8
HOJO
100
AcDbLine
 10
933.5562571828097
 20
377.7492172598345
 30
0.0
 11
933.5562571828097
 21
376.5546321672287
 31
0.0
  0
LINE
  5
146E
330
2
100
AcDbEntity
  8
0
100
AcDbLine
 10
933.2229238494758
 20
378.2577356188781
 30
0.0
 11
933.2229238494758
 21
376.8879655005608
 31
0.0
  0
CIRCLE
  5
146F
330
2
100
AcDbEntity
  8
0
100
AcDbCircle
 10
945.7229238494758
 20
386.0879655005615
 30
0.0
 40
5.499999999997157
  0
ARC
  5
1470
330
2
100
AcDbEntity
  8
0
100
AcDbCircle
 10
945.7229238494758
 20
386.0879655005615
 30
0.0
 40
6.654700538376232
100
AcDbArc
 50
6.471114411194036
 51
173.5288855888059
  0
ARC
  5
1471
330
2
100
AcDbEntity
  8
0
100
AcDbCircle
 10
945.7229238494758
 20
386.0879655005615
 30
0.0
 40
6.654700538376232
100
AcDbArc
 50
186.471114411194
 51
353.5288855888059
  0
SPLINE
  5
1472
330
2
100
AcDbEntity
  8
HOJO
100
AcDbSpline
210
0.0
220
0.0
230
1.0
 70
     8
 71
     3
 72
    20
 73
    16
 74
     0
 42
0.0000000001
 43
0.0000000001
 40
0.0
 40
0.0
 40
0.0
 40
0.0
 40
5.311626210389601
 40
7.954639692924123
 40
10.24579206730457
 40
14.18281221953265
 40
18.83794314114633
 40
26.54246833222011
 40
31.19712602527561
 40
34.95638115537181
 40
42.12378530287149
 40
45.78553747213095
 40
50.20353689726185
 40
53.26513166942802
 40
54.23175360515262
 40
54.23175360515262
 40
54.23175360515262
 40
54.23175360515262
 10
745.9538763923339
 20
412.775414222579
 30
0.0
 10
744.2408972264457
 20
412.6673721723523
 30
0.0
 10
741.6755563070347
 20
412.5055694499493
 30
0.0
 10
737.9038024199582
 20
412.2534367777803
 30
0.0
 10
736.584661203824
 20
409.3209952928141
 30
0.0
 10
734.1494518355331
 20
406.666486469519
 30
0.0
 10
732.3114034923839
 20
401.5151910363543
 30
0.0
 10
728.1865670829066
 20
396.8054436847292
 30
0.0
 10
722.7089195799
 20
396.1681122503101
 30
0.0
 10
717.7955340703339
 20
394.4817933036024
 30
0.0
 10
712.9615347235759
 20
393.861806211628
 30
0.0
 10
707.9238079589369
 20
392.9065821939671
 30
0.0
 10
704.8526573375676
 20
390.3723703512164
 30
0.0
 10
703.8526830428419
 20
387.6941298303259
 30
0.0
 10
703.4966435176085
 20
386.3991168002554
 30
0.0
 10
703.4139157455212
 20
386.0879655005624
 30
0.0
  0
LINE
  5
1473
330
2
100
AcDbEntity
  8
0
100
AcDbLine
 10
736.9538763923339
 20
420.0879655005624
 30
0.0
 11
726.9538763923338
 21
420.0879655005624
 31
0.0
  0
ARC
  5
1474
330
2
100
AcDbEntity
  8
0
100
AcDbCircle
 10
726.9538763923338
 20
416.0879655005624
 30
0.0
 40
4.0
100
AcDbArc
 50
90.0
 51
180.0
  0
ARC
  5
1475
330
2
100
AcDbEntity
  8
0
100
AcDbCircle
 10
736.9538763923339
 20
416.0879655005624
 30
0.0
 40
4.000000000000028
100
AcDbArc
 50
0.0
 51
90.0
  0
LINE
  5
1476
330
2
100
AcDbEntity
  8
0
100
AcDbLine
 10
930.2229238494756
 20
420.0879655005615
 30
0.0
 11
940.2229238494756
 21
420.0879655005615
 31
0.0
  0
ARC
  5
1477
330
2
100
AcDbEntity
  8
0
100
AcDbCircle
 10
940.2229238494756
 20
416.0879655005615
 30
0.0
 40
3.999999999999971
100
AcDbArc
 50
359.9999999999478
 51
90.0
  0
ARC
  5
1478
330
2
100
AcDbEntity
  8
0
100
AcDbCircle
 10
930.2229238494756
 20
416.0879655005615
 30
0.0
 40
4.000000000000056
100
AcDbArc
 50
90.0
 51
180.0000000000521
  0
ARC
  5
1479
330
2
100
AcDbEntity
  8
0
100
AcDbCircle
 10
972.5704352244338
 20
412.9805596545925
 30
0.0
 40
3.499999999999717
100
AcDbArc
 50
331.4660973942784
 51
117.7026032046093
  0
ARC
  5
147A
330
2
100
AcDbEntity
  8
0
100
AcDbCircle
 10
972.5704352244338
 20
412.9805596545925
 30
0.0
 40
2.980384757729353
100
AcDbArc
 50
347.9891694961513
 51
101.1795311027486
  0
ARC
  5
147B
330
2
100
AcDbEntity
  8
0
100
AcDbCircle
 10
918.8303296954446
 20
412.9354768755197
 30
0.0
 40
3.499999999999717
100
AcDbArc
 50
61.46609739427881
 51
207.7026032046107
  0
ARC
  5
147C
330
2
100
AcDbEntity
  8
0
100
AcDbCircle
 10
918.8303296954446
 20
412.9354768755197
 30
0.0
 40
2.980384757729353
100
AcDbArc
 50
77.98916949612223
 51
191.1795311027489
  0
ARC
  5
147D
330
2
100
AcDbEntity
  8
0
100
AcDbCircle
 10
918.8754124745166
 20
359.1953713465305
 30
0.0
 40
3.499999999999717
100
AcDbArc
 50
151.4660973942784
 51
297.7026032046093
  0
ARC
  5
147E
330
2
100
AcDbEntity
  8
0
100
AcDbCircle
 10
918.8754124745166
 20
359.1953713465305
 30
0.0
 40
2.980384757729353
100
AcDbArc
 50
167.9891694961514
 51
281.1795311027486
  0
ARC
  5
147F
330
2
100
AcDbEntity
  8
0
100
AcDbCircle
 10
972.6155180035068
 20
359.2404541256033
 30
0.0
 40
3.499999999999717
100
AcDbArc
 50
241.4660973942788
 51
27.70260320461076
  0
ARC
  5
1480
330
2
100
AcDbEntity
  8
0
100
AcDbCircle
 10
972.6155180035068
 20
359.2404541256033
 30
0.0
 40
2.980384757729353
100
AcDbArc
 50
257.9891694961223
 51
11.17953110274902
  0
CIRCLE
  5
1481
330
2
100
AcDbEntity
  8
0
100
AcDbCircle
 10
731.9538763893107
 20
626.7608955540176
 30
0.0
 40
9.0
  0
LINE
  5
1482
330
2
100
AcDbEntity
  8
CENTER
  6
CENS
100
AcDbLine
 10
731.9538763893107
 20
615.2203846498946
 30
0.0
 11
731.9538763893107
 21
638.3014064581425
 31
0.0
  0
LINE
  5
1483
330
2
100
AcDbEntity
  8
CENTER
  6
CENS
100
AcDbLine
 10
743.4943872934346
 20
626.7608955540185
 30
0.0
 11
720.4133654851867
 21
626.7608955540185
 31
0.0
  0
CIRCLE
  5
1485
330
2
100
AcDbEntity
  8
HOJO
100
AcDbCircle
 10
970.4716611910036
 20
410.8367028420876
 30
0.0
 40
2.0
  0
CIRCLE
  5
1486
330
2
100
AcDbEntity
  8
0
100
AcDbCircle
 10
970.4716611910036
 20
410.8367028420876
 30
0.0
 40
1.6
  0
CIRCLE
  5
1487
330
2
100
AcDbEntity
  8
HOJO
100
AcDbCircle
 10
920.9741865079442
 20
410.8367028420876
 30
0.0
 40
2.0
  0
CIRCLE
  5
1488
330
2
100
AcDbEntity
  8
0
100
AcDbCircle
 10
920.9741865079442
 20
410.8367028420876
 30
0.0
 40
1.6
  0
CIRCLE
  5
1489
330
2
100
AcDbEntity
  8
HOJO
100
AcDbCircle
 10
920.9741865079442
 20
361.3392281590291
 30
0.0
 40
2.0
  0
CIRCLE
  5
148A
330
2
100
AcDbEntity
  8
0
100
AcDbCircle
 10
920.9741865079442
 20
361.3392281590291
 30
0.0
 40
1.6
  0
CIRCLE
  5
148B
330
2
100
AcDbEntity
  8
HOJO
100
AcDbCircle
 10
970.4716611910027
 20
361.33922815903
 30
0.0
 40
2.0
  0
CIRCLE
  5
148C
330
2
100
AcDbEntity
  8
0
100
AcDbCircle
 10
970.4716611910027
 20
361.33922815903
 30
0.0
 40
1.6
  0
LINE
  5
148D
330
2
100
AcDbEntity
  8
HIDS
100
AcDbLine
 10
925.6886229853963
 20
414.1228703134388
 30
0.0
 11
925.6094944492106
 21
409.5895995114792
 31
0.0
  0
ARC
  5
148E
330
2
100
AcDbEntity
  8
HIDS
100
AcDbCircle
 10
927.6883183757091
 20
414.0879655005652
 30
0.0
 40
2.0
100
AcDbArc
 50
90.0
 51
178.9999999999721
  0
ARC
  5
148F
330
2
100
AcDbEntity
  8
HIDS
100
AcDbCircle
 10
922.6099513637411
 20
409.6419567307917
 30
0.0
 40
3.0
100
AcDbArc
 50
314.458551434667
 51
359.0000000000242
  0
LINE
  5
1490
330
2
100
AcDbEntity
  8
0
100
AcDbLine
 10
60.30718940807958
 20
386.0879655005626
 30
0.0
 11
59.85213918839429
 21
412.1577751263119
 31
0.0
  0
LINE
  5
1491
330
2
100
AcDbEntity
  8
0
100
AcDbLine
 10
85.30718940807048
 20
386.0879655005626
 30
0.0
 11
85.83114598881286
 21
416.1054179070013
 31
0.0
  0
LINE
  5
1492
330
2
100
AcDbEntity
  8
0
100
AcDbLine
 10
93.30718940807775
 20
386.0879655005626
 30
0.0
 11
50.30718940807776
 21
386.0879655005626
 31
0.0
  0
ARC
  5
1493
330
2
100
AcDbEntity
  8
0
100
AcDbCircle
 10
77.39075403277559
 20
360.8491990397886
 30
0.0
 40
3.0
100
AcDbArc
 50
90.0
 51
179.0000000000242
  0
LINE
  5
1494
330
2
100
AcDbEntity
  8
0
100
AcDbLine
 10
62.91946727971401
 20
363.8491990397886
 30
0.0
 11
77.39075403277559
 21
363.8491990397886
 31
0.0
  0
LINE
  5
1495
330
2
100
AcDbEntity
  8
0
100
AcDbLine
 10
80.80149467584954
 20
356.0879655005626
 30
0.0
 11
50.30718940807776
 21
356.0879655005626
 31
0.0
  0
LINE
  5
1496
330
2
100
AcDbEntity
  8
0
100
AcDbLine
 10
60.30718940807776
 20
386.0879655005626
 30
0.0
 11
59.85213918839429
 21
360.0181558748134
 31
0.0
  0
ARC
  5
1497
330
2
100
AcDbEntity
  8
0
100
AcDbCircle
 10
55.85274840776867
 20
360.0879655005627
 30
0.0
 40
4.0
100
AcDbArc
 50
270.0
 51
358.9999999999982
  0
ARC
  5
1498
330
2
100
AcDbEntity
  8
0
100
AcDbCircle
 10
72.34179488184702
 20
358.0879655005626
 30
0.0
 40
2.0
100
AcDbArc
 50
270.0
 51
359.0000000000242
  0
LINE
  5
1499
330
2
100
AcDbEntity
  8
0
100
AcDbLine
 10
74.34149027215983
 20
358.0530606876889
 30
0.0
 11
74.39121094730683
 21
360.901556259101
 31
0.0
  0
LINE
  5
149A
330
2
100
AcDbEntity
  8
0
100
AcDbLine
 10
85.30718940807048
 20
386.0879655005626
 30
0.0
 11
85.83114598881286
 21
356.0705130941258
 31
0.0
  0
ARC
  5
149B
330
2
100
AcDbEntity
  8
0
100
AcDbCircle
 10
84.18524237290432
 20
353.0879655005627
 30
0.0
 40
3.0
100
AcDbArc
 50
48.59037789072038
 51
61.24284295859256
  0
ARC
  5
149C
330
2
100
AcDbEntity
  8
0
100
AcDbCircle
 10
86.83099368396881
 20
356.0879655005626
 30
0.0
 40
1.0
100
AcDbArc
 50
181.0000000000017
 51
270.0
  0
LINE
  5
149D
330
2
100
AcDbEntity
  8
0
100
AcDbLine
 10
93.30718940807775
 20
355.0879655005626
 30
0.0
 11
86.83099368396881
 21
355.0879655005626
 31
0.0
  0
LINE
  5
149E
330
2
100
AcDbEntity
  8
0
100
AcDbLine
 10
80.80149467584954
 20
416.0879655005627
 30
0.0
 11
50.30718940807776
 21
416.0879655005627
 31
0.0
  0
LINE
  5
149F
330
2
100
AcDbEntity
  8
CENTER
  6
CENS
100
AcDbLine
 10
64.30718940807776
 20
425.0879655005663
 30
0.0
 11
64.30718940807776
 21
402.6055557828128
 31
0.0
  0
ARC
  5
14A0
330
2
100
AcDbEntity
  8
0
100
AcDbCircle
 10
55.85274840776867
 20
412.0879655005627
 30
0.0
 40
4.0
100
AcDbArc
 50
1.000000000001775
 51
90.0
  0
ARC
  5
14A1
330
2
100
AcDbEntity
  8
0
100
AcDbCircle
 10
84.18524237290615
 20
419.0879655005627
 30
0.0
 40
3.0
100
AcDbArc
 50
298.7571570414076
 51
311.4096221092556
  0
ARC
  5
14A2
330
2
100
AcDbEntity
  8
0
100
AcDbCircle
 10
86.83099368396971
 20
416.0879655005627
 30
0.0
 40
1.0
100
AcDbArc
 50
90.0
 51
178.9999999999982
  0
LINE
  5
14A3
330
2
100
AcDbEntity
  8
0
100
AcDbLine
 10
93.30718940807775
 20
417.0879655005626
 30
0.0
 11
86.83099368396971
 21
417.0879655005626
 31
0.0
  0
LINE
  5
14A4
330
2
100
AcDbEntity
  8
0
100
AcDbLine
 10
50.30718940807776
 20
416.0879655005627
 30
0.0
 11
50.30718940807776
 21
356.0879655005626
 31
0.0
  0
LINE
  5
14A5
330
2
100
AcDbEntity
  8
0
100
AcDbLine
 10
84.7151142754493
 20
416.4579655005635
 30
0.0
 11
85.71511427544932
 21
416.4579655005635
 31
0.0
  0
LINE
  5
14A6
330
2
100
AcDbEntity
  8
0
100
AcDbLine
 10
85.71511427544932
 20
416.4579655005635
 30
0.0
 11
85.71511427544932
 21
409.4579655005635
 31
0.0
  0
LINE
  5
14A7
330
2
100
AcDbEntity
  8
0
100
AcDbLine
 10
85.71511427544932
 20
409.4579655005635
 30
0.0
 11
84.7151142754493
 21
409.4579655005635
 31
0.0
  0
LINE
  5
14A8
330
2
100
AcDbEntity
  8
0
100
AcDbLine
 10
84.7151142754493
 20
409.4579655005635
 30
0.0
 11
84.7151142754493
 21
416.4579655005635
 31
0.0
  0
LINE
  5
14A9
330
2
100
AcDbEntity
  8
0
100
AcDbLine
 10
80.71511427544932
 20
415.938350258293
 30
0.0
 11
80.71511427544932
 21
409.9775807428339
 31
0.0
  0
LINE
  5
14AA
330
2
100
AcDbEntity
  8
0
100
AcDbLine
 10
81.01511427545039
 20
409.4579655005635
 30
0.0
 11
81.01511427545039
 21
416.4579655005635
 31
0.0
  0
LINE
  5
14AB
330
2
100
AcDbEntity
  8
0
100
AcDbLine
 10
81.01511427545039
 20
409.4579655005635
 30
0.0
 11
84.7151142754493
 21
409.4579655005635
 31
0.0
  0
LINE
  5
14AC
330
2
100
AcDbEntity
  8
0
100
AcDbLine
 10
81.01511427545039
 20
409.4579655005635
 30
0.0
 11
80.71511427544932
 21
409.9775807428339
 31
0.0
  0
LINE
  5
14AD
330
2
100
AcDbEntity
  8
0
100
AcDbLine
 10
80.71511427544932
 20
415.938350258293
 30
0.0
 11
81.01511427545039
 21
416.4579655005635
 31
0.0
  0
LINE
  5
14AE
330
2
100
AcDbEntity
  8
0
100
AcDbLine
 10
84.7151142754493
 20
416.4579655005635
 30
0.0
 11
81.01511427545039
 21
416.4579655005635
 31
0.0
  0
LINE
  5
14AF
330
2
100
AcDbEntity
  8
CENTER
  6
CENS
100
AcDbLine
 10
75.77620700269938
 20
412.9579655005635
 30
0.0
 11
98.77616409232281
 21
412.9579655005635
 31
0.0
  0
LINE
  5
14B0
330
2
100
AcDbEntity
  8
CENTER
  6
CENS
100
AcDbLine
 10
75.77620700269938
 20
359.2179655005628
 30
0.0
 11
98.77616409232281
 21
359.2179655005628
 31
0.0
  0
LINE
  5
14B1
330
2
100
AcDbEntity
  8
0
100
AcDbLine
 10
84.7151142754493
 20
355.7179655005636
 30
0.0
 11
85.71511427544932
 21
355.7179655005636
 31
0.0
  0
LINE
  5
14B2
330
2
100
AcDbEntity
  8
0
100
AcDbLine
 10
85.71511427544932
 20
355.7179655005636
 30
0.0
 11
85.71511427544932
 21
362.7179655005637
 31
0.0
  0
LINE
  5
14B3
330
2
100
AcDbEntity
  8
0
100
AcDbLine
 10
85.71511427544932
 20
362.7179655005637
 30
0.0
 11
84.7151142754493
 21
362.7179655005637
 31
0.0
  0
LINE
  5
14B4
330
2
100
AcDbEntity
  8
0
100
AcDbLine
 10
84.7151142754493
 20
362.7179655005637
 30
0.0
 11
84.7151142754493
 21
355.7179655005636
 31
0.0
  0
LINE
  5
14B5
330
2
100
AcDbEntity
  8
0
100
AcDbLine
 10
80.71511427544932
 20
356.2375807428341
 30
0.0
 11
80.71511427544932
 21
362.1983502582932
 31
0.0
  0
LINE
  5
14B6
330
2
100
AcDbEntity
  8
0
100
AcDbLine
 10
81.01511427545039
 20
362.7179655005637
 30
0.0
 11
81.01511427545039
 21
355.7179655005636
 31
0.0
  0
LINE
  5
14B7
330
2
100
AcDbEntity
  8
0
100
AcDbLine
 10
81.01511427545039
 20
362.7179655005637
 30
0.0
 11
84.7151142754493
 21
362.7179655005637
 31
0.0
  0
LINE
  5
14B8
330
2
100
AcDbEntity
  8
0
100
AcDbLine
 10
81.01511427545039
 20
362.7179655005637
 30
0.0
 11
80.71511427544932
 21
362.1983502582932
 31
0.0
  0
LINE
  5
14B9
330
2
100
AcDbEntity
  8
0
100
AcDbLine
 10
80.71511427544932
 20
356.2375807428341
 30
0.0
 11
81.01511427545039
 21
355.7179655005636
 31
0.0
  0
LINE
  5
14BA
330
2
100
AcDbEntity
  8
0
100
AcDbLine
 10
84.7151142754493
 20
355.7179655005636
 30
0.0
 11
81.01511427545039
 21
355.7179655005636
 31
0.0
  0
LINE
  5
14BB
330
2
100
AcDbEntity
  8
0
100
AcDbLine
 10
59.30718940807776
 20
420.0879655005627
 30
0.0
 11
69.30718940807776
 21
420.0879655005627
 31
0.0
  0
ARC
  5
14BC
330
2
100
AcDbEntity
  8
0
100
AcDbCircle
 10
69.30718940807776
 20
416.0879655005627
 30
0.0
 40
4.0
100
AcDbArc
 50
0.0
 51
90.0
  0
ARC
  5
14BD
330
2
100
AcDbEntity
  8
0
100
AcDbCircle
 10
59.30718940807776
 20
416.0879655005627
 30
0.0
 40
4.000000000000028
100
AcDbArc
 50
90.0
 51
180.0
  0
CIRCLE
  5
14BE
330
2
100
AcDbEntity
  8
0
100
AcDbCircle
 10
945.7229238494758
 20
386.0879655005615
 30
0.0
 40
22.5
  0
LINE
  5
14C0
330
2
100
AcDbEntity
  8
0
100
AcDbLine
 10
914.7229238494629
 20
357.5534772229086
 30
0.0
 11
914.7229238494629
 21
356.5636559519266
 31
0.0
  0
CIRCLE
  5
19EF
330
2
100
AcDbEntity
  8
0
100
AcDbCircle
 10
945.722923849463
 20
386.0879655005583
 30
0.0
 40
14.75
  0
CIRCLE
  5
1A16
330
2
100
AcDbEntity
  8
0
100
AcDbCircle
 10
595.9538763923356
 20
386.0879655005624
 30
0.0
 40
23.5774
  0
ENDSEC
  0
SECTION
  2
OBJECTS
  0
DICTIONARY
  5
7
330
0
100
AcDbDictionary
  3
ACAD_COLOR
350
18F2
  3
ACAD_GROUP
350
75
  3
ACAD_LAYOUT
350
61
  3
ACAD_MATERIAL
350
18C8
  3
ACAD_MLEADERSTYLE
350
1917
  3
ACAD_MLINESTYLE
350
76
  3
ACAD_PLOTSETTINGS
350
77
  3
ACAD_PLOTSTYLENAME
350
6
  3
ACAD_SCALELIST
350
18F5
  3
ACAD_TABLESTYLE
350
18F3
  3
ACAD_VISUALSTYLE
350
18E1
  3
ACADDIM
350
480
  3
ACDB_RECOMPOSE_DATA
350
19A1
  3
ACDBHEADERROUNDTRIPXREC
350
1A30
  3
ACDBVARIABLEDICTIONARY
350
102
  3
DWGPROPS
350
19F1
  0
DICTIONARY
  5
19AA
330
6E
100
AcDbDictionary
280
     1
  3
ACAD_XREC_ROUNDTRIP
360
19F9
  0
DICTIONARY
  5
B13
330
66
100
AcDbDictionary
280
     1
  3
ACAD_LAYERSTATES
360
B14
  0
DICTIONARY
  5
193E
330
5E
100
AcDbDictionary
280
     1
  3
ACAD_XREC_ROUNDTRIP
360
19F4
  3
ADSK_XREC_LAYER_RECONCILED
360
193F
  0
DICTIONARY
  5
1940
330
3E
100
AcDbDictionary
280
     1
  3
ACAD_XREC_ROUNDTRIP
360
19F3
  3
ADSK_XREC_LAYER_RECONCILED
360
1941
  0
DICTIONARY
  5
1946
330
2B5
100
AcDbDictionary
280
     1
  3
ACAD_XREC_ROUNDTRIP
360
19FF
  3
ADSK_XREC_LAYER_RECONCILED
360
1947
  0
DICTIONARY
  5
1948
330
2BA
100
AcDbDictionary
280
     1
  3
ACAD_XREC_ROUNDTRIP
360
1A00
  3
ADSK_XREC_LAYER_RECONCILED
360
1949
  0
DICTIONARY
  5
194C
330
3FA
100
AcDbDictionary
280
     1
  3
ACAD_XREC_ROUNDTRIP
360
1A02
  3
ADSK_XREC_LAYER_RECONCILED
360
194D
  0
DICTIONARY
  5
194E
330
478
100
AcDbDictionary
280
     1
  3
ACAD_XREC_ROUNDTRIP
360
1A03
  3
ADSK_XREC_LAYER_RECONCILED
360
194F
  0
DICTIONARY
  5
1A51
330
2
100
AcDbDictionary
280
     1
  3
ACAD_LAYOUTSELFREF
360
1A52
  0
DICTIONARY
  5
1A53
330
1A2A
100
AcDbDictionary
280
     1
  3
ACAD_LAYOUTSELFREF
360
1A54
  0
DICTIONARY
  5
18F2
102
{ACAD_REACTORS
330
7
102
}
330
7
100
AcDbDictionary
  0
DICTIONARY
  5
75
102
{ACAD_REACTORS
330
7
102
}
330
7
100
AcDbDictionary
  0
DICTIONARY
  5
61
102
{ACAD_REACTORS
330
7
102
}
330
7
100
AcDbDictionary
  0
DICTIONARY
  5
18C8
102
{ACAD_REACTORS
330
7
102
}
330
7
100
AcDbDictionary
  3
BYBLOCK
350
18D1
  3
BYLAYER
350
18C9
  3
GLOBAL
350
18D9
  0
DICTIONARY
  5
1917
102
{ACAD_REACTORS
330
7
102
}
330
7
100
AcDbDictionary
  3
STANDARD
350
1918
  0
DICTIONARY
  5
76
102
{ACAD_REACTORS
330
7
102
}
330
7
100
AcDbDictionary
  3
STANDARD
350
78
  0
DICTIONARY
  5
77
102
{ACAD_REACTORS
330
7
102
}
330
7
100
AcDbDictionary
  0
ACDBDICTIONARYWDFLT
  5
6
102
{ACAD_REACTORS
330
7
102
}
330
7
100
AcDbDictionary
281
     1
  3
Normal
350
5
100
AcDbDictionaryWithDefault
340
5
  0
DICTIONARY
  5
18F5
102
{ACAD_REACTORS
330
7
102
}
330
7
100
AcDbDictionary
  3
A0
350
18F6
  3
A1
350
18F7
  3
A2
350
18F8
  3
A3
350
18F9
  3
A4
350
18FA
  3
A5
350
18FB
  3
A6
350
18FC
  3
A7
350
18FD
  3
A8
350
18FE
  3
A9
350
18FF
  3
B0
350
1900
  3
B1
350
1901
  3
B2
350
1902
  3
B3
350
1903
  3
B4
350
1904
  3
B5
350
1905
  3
B6
350
1906
  3
B7
350
1907
  3
B8
350
1908
  3
B9
350
1909
  3
C0
350
190A
  3
C1
350
190B
  3
C2
350
190C
  3
C3
350
190D
  3
C4
350
190E
  3
C5
350
190F
  3
C6
350
1910
  3
C7
350
1911
  3
C8
350
1912
  3
C9
350
1913
  3
D0
350
1914
  3
D1
350
1915
  3
D2
350
1916
  0
DICTIONARY
  5
18F3
102
{ACAD_REACTORS
330
7
102
}
330
7
100
AcDbDictionary
  3
STANDARD
350
18F4
  0
DICTIONARY
  5
18E1
102
{ACAD_REACTORS
330
7
102
}
330
7
100
AcDbDictionary
  3
2DWIREFRAME
350
18E7
  3
3D_HIDDEN
350
18E9
  3
3DWIREFRAME
350
18E8
  3
BASIC
350
18E6
  3
BRIGHTEN
350
18ED
  3
COLORCHANGE
350
18F1
  3
CONCEPTUAL
350
18EA
  3
DIM
350
18EC
  3
FACEPATTERN
350
18F0
  3
FLAT
350
18E2
  3
FLATWITHEDGES
350
18E3
  3
GOURAUD
350
18E4
  3
GOURAUDWITHEDGES
350
18E5
  3
LINEPATTERN
350
18EF
  3
REALISTIC
350
18EB
  3
THICKEN
350
18EE
  0
XRECORD
  5
480
102
{ACAD_REACTORS
330
7
102
}
330
7
100
AcDbXrecord
 90
   990106
  3

 60
     0
 61
     0
 62
     1
 63
     3
 64
     1
 65
     0
 66
     0
 67
     3
 68
     1
 69
     0
 70
     0
 71
     0
 72
     0
 40
0.0
170
     2
340
0
  0
XRECORD
  5
19A1
102
{ACAD_REACTORS
330
7
102
}
330
7
100
AcDbXrecord
 90
        1
330
18F4
  0
DICTIONARY
  5
1A30
102
{ACAD_REACTORS
330
7
102
}
330
7
100
AcDbDictionary
  3
CEPSNTYPE
350
1A3A
  3
DIMSTYLEDATA
350
1A3E
  3
FINGERPRINTGUID
350
1A3B
  3
HYPERLINKBASE
350
1A33
  3
INSUNITS
350
1A39
  3
LAYOUTDICT
350
1A35
  3
LWETCUNION
350
1A38
  3
PLOTSETDICT
350
1A36
  3
PLOTSTYLNAMDICT
350
1A37
  3
PSVPSCALE
350
1A3D
  3
PUCSBASE
350
1A41
  3
PUCSORGBACK
350
1A47
  3
PUCSORGBOTTOM
350
1A43
  3
PUCSORGFRONT
350
1A46
  3
PUCSORGLEFT
350
1A44
  3
PUCSORGRIGHT
350
1A45
  3
PUCSORGTOP
350
1A42
  3
PUCSORTHOREF
350
1A3F
  3
PUCSORTHOVIEW
350
1A40
  3
STYLESHEET
350
1A34
  3
TSTACKALIGN
350
1A31
  3
TSTACKSIZE
350
1A32
  3
UCSBASE
350
1A4A
  3
UCSORGBACK
350
1A50
  3
UCSORGBOTTOM
350
1A4C
  3
UCSORGFRONT
350
1A4F
  3
UCSORGLEFT
350
1A4D
  3
UCSORGRIGHT
350
1A4E
  3
UCSORGTOP
350
1A4B
  3
UCSORTHOREF
350
1A48
  3
UCSORTHOVIEW
350
1A49
  3
VERSIONGUID
350
1A3C
  0
DICTIONARY
  5
102
102
{ACAD_REACTORS
330
7
102
}
330
7
100
AcDbDictionary
  3
CANNOSCALE
350
19C2
  3
CMLEADERSTYLE
350
19C1
  3
CTABLESTYLE
350
19C0
  3
DIMASSOC
350
103
  3
INDEXCTL
350
19C3
  3
SORTENTS
350
549
  0
XRECORD
  5
19F1
102
{ACAD_REACTORS
330
7
102
}
330
7
100
AcDbXrecord
  1
DWGPROPS COOKIE
  2

  3

  4

  6

  7

  8
ymorima
  9

300
=
301
=
302
=
303
=
304
=
305
=
306
=
307
=
308
=
309
=
 40
0.0033819791666667
 41
2454411.659718414
 42
2454412.447337963
  1

 90
        0
  0
XRECORD
  5
19F9
102
{ACAD_REACTORS
330
19AA
102
}
330
19AA
100
AcDbXrecord
102
VTR_0.000_0.000_1.000_1.000_VISUALSTYLE
340
18E7
102
VTR_0.000_0.000_1.000_1.000_GRIDDISPLAY
 70
     3
102
VTR_0.000_0.000_1.000_1.000_GRIDMAJOR
 70
     5
102
VTR_0.000_0.000_1.000_1.000_DEFAULTLIGHTING
280
     1
102
VTR_0.000_0.000_1.000_1.000_DEFAULTLIGHTINGTYPE
 70
     1
102
VTR_0.000_0.000_1.000_1.000_BRIGHTNESS
141
0.0
102
VTR_0.000_0.000_1.000_1.000_CONTRAST
142
0.0
  0
DICTIONARY
  5
B14
102
{ACAD_REACTORS
330
B13
102
}
330
B13
100
AcDbDictionary
  0
XRECORD
  5
19F4
102
{ACAD_REACTORS
330
193E
102
}
330
193E
100
AcDbXrecord
102
MATERIAL
340
18D9
  0
XRECORD
  5
193F
102
{ACAD_REACTORS
330
193E
102
}
330
193E
100
AcDbXrecord
290
     1
  0
XRECORD
  5
19F3
102
{ACAD_REACTORS
330
1940
102
}
330
1940
100
AcDbXrecord
102
MATERIAL
340
18D9
  0
XRECORD
  5
1941
102
{ACAD_REACTORS
330
1940
102
}
330
1940
100
AcDbXrecord
290
     1
  0
XRECORD
  5
19FF
102
{ACAD_REACTORS
330
1946
102
}
330
1946
100
AcDbXrecord
102
MATERIAL
340
18D9
  0
XRECORD
  5
1947
102
{ACAD_REACTORS
330
1946
102
}
330
1946
100
AcDbXrecord
290
     1
  0
XRECORD
  5
1A00
102
{ACAD_REACTORS
330
1948
102
}
330
1948
100
AcDbXrecord
102
MATERIAL
340
18D9
  0
XRECORD
  5
1949
102
{ACAD_REACTORS
330
1948
102
}
330
1948
100
AcDbXrecord
290
     1
  0
XRECORD
  5
1A02
102
{ACAD_REACTORS
330
194C
102
}
330
194C
100
AcDbXrecord
102
MATERIAL
340
18D9
  0
XRECORD
  5
194D
102
{ACAD_REACTORS
330
194C
102
}
330
194C
100
AcDbXrecord
290
     1
  0
XRECORD
  5
1A03
102
{ACAD_REACTORS
330
194E
102
}
330
194E
100
AcDbXrecord
102
MATERIAL
340
18D9
  0
XRECORD
  5
194F
102
{ACAD_REACTORS
330
194E
102
}
330
194E
100
AcDbXrecord
290
     1
  0
XRECORD
  5
1A52
102
{ACAD_REACTORS
330
1A51
102
}
330
1A51
100
AcDbXrecord
340
2
  0
XRECORD
  5
1A54
102
{ACAD_REACTORS
330
1A53
102
}
330
1A53
100
AcDbXrecord
340
1A2A
  0
ACAD_PROXY_OBJECT
  5
18D1
102
{ACAD_XDICTIONARY
360
18D2
102
}
102
{ACAD_REACTORS
330
18C8
102
}
330
18C8
100
AcDbProxyObject
 90
      499
 91
      510
 93
     1340
310
42109E509B1BD8DAC02004014080404555555555555953FAA155555555555654FEA9AA400014080404555555555555953FAA155555555555654FEA9AA400000000000000E03F4080404555555555555953FAA155555555555654FEA9AA4014080404555555555555953FAA155555555555654FEA9AA4010201011555555555
310
55654FEA8555555555555953FAA6A9005020101155555555555654FEA8555555555555953FAA6A9000
 94
        0
1001
ACAD
1000
AcadProxyRoundTripData
1071
      504
1071
   655383
1070
     0
  0
ACAD_PROXY_OBJECT
  5
18C9
102
{ACAD_XDICTIONARY
360
18CA
102
}
102
{ACAD_REACTORS
330
18C8
102
}
330
18C8
100
AcDbProxyObject
 90
      499
 91
      510
 93
     1340
310
42109E53185E595C802004014080404555555555555953FAA155555555555654FEA9AA400014080404555555555555953FAA155555555555654FEA9AA400000000000000E03F4080404555555555555953FAA155555555555654FEA9AA4014080404555555555555953FAA155555555555654FEA9AA4010201011555555555
310
55654FEA8555555555555953FAA6A9005020101155555555555654FEA8555555555555953FAA6A9000
 94
        0
1001
ACAD
1000
AcadProxyRoundTripData
1071
      504
1071
   655383
1070
     0
  0
ACAD_PROXY_OBJECT
  5
18D9
102
{ACAD_XDICTIONARY
360
18DA
102
}
102
{ACAD_REACTORS
330
18C8
102
}
330
18C8
100
AcDbProxyObject
 90
      499
 91
      510
 93
     1332
310
41D1DB1BD8985B002004014080404555555555555953FAA155555555555654FEA9AA400014080404555555555555953FAA155555555555654FEA9AA400000000000000E03F4080404555555555555953FAA155555555555654FEA9AA4014080404555555555555953FAA155555555555654FEA9AA401020101155555555555
310
654FEA8555555555555953FAA6A9005020101155555555555654FEA8555555555555953FAA6A9000
 94
        0
1001
ACAD
1000
AcadProxyRoundTripData
1071
      504
1071
   655383
1070
     0
  0
ACAD_PROXY_OBJECT
  5
1918
102
{ACAD_REACTORS
330
1917
102
}
330
1917
100
AcDbProxyObject
 90
      499
 91
      510
 93
      618
310
40901902A4063FBFFFFFE056BD1B81E855B9FC0AD7A3703D0AD73F4254DD185B99185C990000AD7A3703D0AC73F90141901A02B5E8DC0F42B1CFC02B5E8DC0F42B1CFE5764000000000000300FC6
340
6A
340
0
340
16
340
0
 94
        0
1001
ACAD_MLEADERVER
1070
     2
1001
ACAD
1000
AcadProxyRoundTripData
1071
      508
1071
   655383
1070
     0
  0
MLINESTYLE
  5
78
102
{ACAD_REACTORS
330
76
102
}
330
76
100
AcDbMlineStyle
  2
STANDARD
 70
     0
  3

 62
     0
 51
90.0
 52
90.0
 71
     2
 49
0.5
 62
   256
  6
BYLAYER
 49
-0.5
 62
   256
  6
BYLAYER
  0
ACDBPLACEHOLDER
  5
5
102
{ACAD_REACTORS
330
6
102
}
330
6
100
AcDbPlaceHolder
280
     0
  0
ACAD_PROXY_OBJECT
  5
18F6
102
{ACAD_REACTORS
330
18F5
102
}
330
18F5
100
AcDbProxyObject
 90
      499
 91
      510
 93
       49
310
904313A3100598
 94
        0
1001
ACAD
1000
AcadProxyRoundTripData
1071
      507
1071
   655383
1070
     0
  0
ACAD_PROXY_OBJECT
  5
18F7
102
{ACAD_REACTORS
330
18F5
102
}
330
18F5
100
AcDbProxyObject
 90
      499
 91
      510
 93
      113
310
904313A3200400000000000000406B
 94
        0
1001
ACAD
1000
AcadProxyRoundTripData
1071
      507
1071
   655383
1070
     0
  0
ACAD_PROXY_OBJECT
  5
18F8
102
{ACAD_REACTORS
330
18F5
102
}
330
18F5
100
AcDbProxyObject
 90
      499
 91
      510
 93
      113
310
904313A3400400000000000010406B
 94
        0
1001
ACAD
1000
AcadProxyRoundTripData
1071
      507
1071
   655383
1070
     0
  0
ACAD_PROXY_OBJECT
  5
18F9
102
{ACAD_REACTORS
330
18F5
102
}
330
18F5
100
AcDbProxyObject
 90
      499
 91
      510
 93
      113
310
904313A3500400000000000014406B
 94
        0
1001
ACAD
1000
AcadProxyRoundTripData
1071
      507
1071
   655383
1070
     0
  0
ACAD_PROXY_OBJECT
  5
18FA
102
{ACAD_REACTORS
330
18F5
102
}
330
18F5
100
AcDbProxyObject
 90
      499
 91
      510
 93
      113
310
904313A3800400000000000020406B
 94
        0
1001
ACAD
1000
AcadProxyRoundTripData
1071
      507
1071
   655383
1070
     0
  0
ACAD_PROXY_OBJECT
  5
18FB
102
{ACAD_REACTORS
330
18F5
102
}
330
18F5
100
AcDbProxyObject
 90
      499
 91
      510
 93
      121
310
905313A3130004000000000000244051
 94
        0
1001
ACAD
1000
AcadProxyRoundTripData
1071
      507
1071
   655383
1070
     0
  0
ACAD_PROXY_OBJECT
  5
18FC
102
{ACAD_REACTORS
330
18F5
102
}
330
18F5
100
AcDbProxyObject
 90
      499
 91
      510
 93
      121
310
905313A3136004000000000000304051
 94
        0
1001
ACAD
1000
AcadProxyRoundTripData
1071
      507
1071
   655383
1070
     0
  0
ACAD_PROXY_OBJECT
  5
18FD
102
{ACAD_REACTORS
330
18F5
102
}
330
18F5
100
AcDbProxyObject
 90
      499
 91
      510
 93
      121
310
905313A3230004000000000000344051
 94
        0
1001
ACAD
1000
AcadProxyRoundTripData
1071
      507
1071
   655383
1070
     0
  0
ACAD_PROXY_OBJECT
  5
18FE
102
{ACAD_REACTORS
330
18F5
102
}
330
18F5
100
AcDbProxyObject
 90
      499
 91
      510
 93
      121
310
905313A33300040000000000003E4051
 94
        0
1001
ACAD
1000
AcadProxyRoundTripData
1071
      507
1071
   655383
1070
     0
  0
ACAD_PROXY_OBJECT
  5
18FF
102
{ACAD_REACTORS
330
18F5
102
}
330
18F5
100
AcDbProxyObject
 90
      499
 91
      510
 93
      121
310
905313A3430004000000000000444051
 94
        0
1001
ACAD
1000
AcadProxyRoundTripData
1071
      507
1071
   655383
1070
     0
  0
ACAD_PROXY_OBJECT
  5
1900
102
{ACAD_REACTORS
330
18F5
102
}
330
18F5
100
AcDbProxyObject
 90
      499
 91
      510
 93
      121
310
905313A3530004000000000000494051
 94
        0
1001
ACAD
1000
AcadProxyRoundTripData
1071
      507
1071
   655383
1070
     0
  0
ACAD_PROXY_OBJECT
  5
1901
102
{ACAD_REACTORS
330
18F5
102
}
330
18F5
100
AcDbProxyObject
 90
      499
 91
      510
 93
      129
310
906313A313030004000000000000594038
 94
        0
1001
ACAD
1000
AcadProxyRoundTripData
1071
      507
1071
   655383
1070
     0
  0
ACAD_PROXY_OBJECT
  5
1902
102
{ACAD_REACTORS
330
18F5
102
}
330
18F5
100
AcDbProxyObject
 90
      499
 91
      510
 93
      113
310
904323A31000000000000000010159
 94
        0
1001
ACAD
1000
AcadProxyRoundTripData
1071
      507
1071
   655383
1070
     0
  0
ACAD_PROXY_OBJECT
  5
1903
102
{ACAD_REACTORS
330
18F5
102
}
330
18F5
100
AcDbProxyObject
 90
      499
 91
      510
 93
      113
310
904343A31000000000000000410159
 94
        0
1001
ACAD
1000
AcadProxyRoundTripData
1071
      507
1071
   655383
1070
     0
  0
ACAD_PROXY_OBJECT
  5
1904
102
{ACAD_REACTORS
330
18F5
102
}
330
18F5
100
AcDbProxyObject
 90
      499
 91
      510
 93
      113
310
904383A31000000000000000810159
 94
        0
1001
ACAD
1000
AcadProxyRoundTripData
1071
      507
1071
   655383
1070
     0
  0
ACAD_PROXY_OBJECT
  5
1905
102
{ACAD_REACTORS
330
18F5
102
}
330
18F5
100
AcDbProxyObject
 90
      499
 91
      510
 93
      121
310
90531303A31000000000000000910140
 94
        0
1001
ACAD
1000
AcadProxyRoundTripData
1071
      507
1071
   655383
1070
     0
  0
ACAD_PROXY_OBJECT
  5
1906
102
{ACAD_REACTORS
330
18F5
102
}
330
18F5
100
AcDbProxyObject
 90
      499
 91
      510
 93
      129
310
9063130303A31000000000000001650138
 94
        0
1001
ACAD
1000
AcadProxyRoundTripData
1071
      507
1071
   655383
1070
     0
  0
ACAD_PROXY_OBJECT
  5
1907
102
{ACAD_REACTORS
330
18F5
102
}
330
18F5
100
AcDbProxyObject
 90
      499
 91
      510
 93
      265
310
90F312F31323822203D2031272D302200000000000000200FC00000000000028402B
 94
        0
1001
ACAD
1000
AcadProxyRoundTripData
1071
      507
1071
   655383
1070
     0
  0
ACAD_PROXY_OBJECT
  5
1908
102
{ACAD_REACTORS
330
18F5
102
}
330
18F5
100
AcDbProxyObject
 90
      499
 91
      510
 93
      257
310
90E312F363422203D2031272D302200000000000000240FC000000000000284040
 94
        0
1001
ACAD
1000
AcadProxyRoundTripData
1071
      507
1071
   655383
1070
     0
  0
ACAD_PROXY_OBJECT
  5
1909
102
{ACAD_REACTORS
330
18F5
102
}
330
18F5
100
AcDbProxyObject
 90
      499
 91
      510
 93
      257
310
90E312F333222203D2031272D302200000000000000280FC000000000000284040
 94
        0
1001
ACAD
1000
AcadProxyRoundTripData
1071
      507
1071
   655383
1070
     0
  0
ACAD_PROXY_OBJECT
  5
190A
102
{ACAD_REACTORS
330
18F5
102
}
330
18F5
100
AcDbProxyObject
 90
      499
 91
      510
 93
      257
310
90E312F313622203D2031272D3022000000000000002C0FC000000000000284040
 94
        0
1001
ACAD
1000
AcadProxyRoundTripData
1071
      507
1071
   655383
1070
     0
  0
ACAD_PROXY_OBJECT
  5
190B
102
{ACAD_REACTORS
330
18F5
102
}
330
18F5
100
AcDbProxyObject
 90
      499
 91
      510
 93
      257
310
90E332F333222203D2031272D3022000000000000002E0FC000000000000284040
 94
        0
1001
ACAD
1000
AcadProxyRoundTripData
1071
      507
1071
   655383
1070
     0
  0
ACAD_PROXY_OBJECT
  5
190C
102
{ACAD_REACTORS
330
18F5
102
}
330
18F5
100
AcDbProxyObject
 90
      499
 91
      510
 93
      249
310
90D312F3822203D2031272D302200000000000000300FC000000000000284040
 94
        0
1001
ACAD
1000
AcadProxyRoundTripData
1071
      507
1071
   655383
1070
     0
  0
ACAD_PROXY_OBJECT
  5
190D
102
{ACAD_REACTORS
330
18F5
102
}
330
18F5
100
AcDbProxyObject
 90
      499
 91
      510
 93
      257
310
90E332F313622203D2031272D302200000000000000320FC000000000000284040
 94
        0
1001
ACAD
1000
AcadProxyRoundTripData
1071
      507
1071
   655383
1070
     0
  0
ACAD_PROXY_OBJECT
  5
190E
102
{ACAD_REACTORS
330
18F5
102
}
330
18F5
100
AcDbProxyObject
 90
      499
 91
      510
 93
      249
310
90D312F3422203D2031272D302200000000000000340FC000000000000284040
 94
        0
1001
ACAD
1000
AcadProxyRoundTripData
1071
      507
1071
   655383
1070
     0
  0
ACAD_PROXY_OBJECT
  5
190F
102
{ACAD_REACTORS
330
18F5
102
}
330
18F5
100
AcDbProxyObject
 90
      499
 91
      510
 93
      249
310
90D332F3822203D2031272D302200000000000000360FC000000000000284040
 94
        0
1001
ACAD
1000
AcadProxyRoundTripData
1071
      507
1071
   655383
1070
     0
  0
ACAD_PROXY_OBJECT
  5
1910
102
{ACAD_REACTORS
330
18F5
102
}
330
18F5
100
AcDbProxyObject
 90
      499
 91
      510
 93
      249
310
90D312F3222203D2031272D302200000000000000380FC000000000000284040
 94
        0
1001
ACAD
1000
AcadProxyRoundTripData
1071
      507
1071
   655383
1070
     0
  0
ACAD_PROXY_OBJECT
  5
1911
102
{ACAD_REACTORS
330
18F5
102
}
330
18F5
100
AcDbProxyObject
 90
      499
 91
      510
 93
      249
310
90D332F3422203D2031272D3022000000000000003A0FC000000000000284040
 94
        0
1001
ACAD
1000
AcadProxyRoundTripData
1071
      507
1071
   655383
1070
     0
  0
ACAD_PROXY_OBJECT
  5
1912
102
{ACAD_REACTORS
330
18F5
102
}
330
18F5
100
AcDbProxyObject
 90
      499
 91
      510
 93
      169
310
90B3122203D2031272D3022004000000000000284020
 94
        0
1001
ACAD
1000
AcadProxyRoundTripData
1071
      507
1071
   655383
1070
     0
  0
ACAD_PROXY_OBJECT
  5
1913
102
{ACAD_REACTORS
330
18F5
102
}
330
18F5
100
AcDbProxyObject
 90
      499
 91
      510
 93
      265
310
90F312D312F3222203D2031272D3022000000000000003E0FC00000000000028402B
 94
        0
1001
ACAD
1000
AcadProxyRoundTripData
1071
      507
1071
   655383
1070
     0
  0
ACAD_PROXY_OBJECT
  5
1914
102
{ACAD_REACTORS
330
18F5
102
}
330
18F5
100
AcDbProxyObject
 90
      499
 91
      510
 93
      233
310
90B3322203D2031272D30220000000000000002100000000000000284000
 94
        0
1001
ACAD
1000
AcadProxyRoundTripData
1071
      507
1071
   655383
1070
     0
  0
ACAD_PROXY_OBJECT
  5
1915
102
{ACAD_REACTORS
330
18F5
102
}
330
18F5
100
AcDbProxyObject
 90
      499
 91
      510
 93
      233
310
90B3622203D2031272D30220000000000000006100000000000000284000
 94
        0
1001
ACAD
1000
AcadProxyRoundTripData
1071
      507
1071
   655383
1070
     0
  0
ACAD_PROXY_OBJECT
  5
1916
102
{ACAD_REACTORS
330
18F5
102
}
330
18F5
100
AcDbProxyObject
 90
      499
 91
      510
 93
      257
310
90E31272D3022203D2031272D3022000000000000000A100000000000000284040
 94
        0
1001
ACAD
1000
AcadProxyRoundTripData
1071
      507
1071
   655383
1070
     0
  0
ACAD_PROXY_OBJECT
  5
18F4
102
{ACAD_XDICTIONARY
360
199F
102
}
102
{ACAD_REACTORS
330
18F3
102
}
330
18F3
100
AcDbProxyObject
 90
      499
 91
      510
 93
     1849
310
4254DD185B99185C990028B81E85EB51B8AE3F2E07A17AD46E2B8FC02B5E8DC0F42B1CFD028000000C1008070000C3001FDFF8000000C1003FBFF000000182007F7FE00000030400FEFFC00000060801FDFF8000000C1003FBFF00000018200000000000000681FA0B0000001820100E000186003FBFF000000182007F7FE0
310
0000030400FEFFC00000060801FDFF8000000C1003FBFF000000182007F7FE000000304000AD7A3703D0AC73F4160000003040201C00030C007F7FE00000030400FEFFC00000060801FDFF8000000C1003FBFF000000182007F7FE00000030400FEFFC000000608000
340
16
340
16
340
16
 94
        0
1001
ACAD
1000
AcadProxyRoundTripData
1071
      506
1071
   655383
1070
     0
  0
ACAD_PROXY_OBJECT
  5
18E7
102
{ACAD_REACTORS
330
18E1
102
}
330
18E1
100
AcDbProxyObject
 90
      499
 91
      510
 93
      444
310
430C9915DA5C99599C985B59401049028333333333333E3BF0000000000000FB0107901411070040501600405405064090741402480A0340
 94
        0
1001
ACAD
1000
AcDbSavedByObjectVersion
1070
     0
1000
AcadProxyRoundTripData
1071
      505
1071
   655383
1070
     0
  0
ACAD_PROXY_OBJECT
  5
18E9
102
{ACAD_REACTORS
330
18E1
102
}
330
18E1
100
AcDbProxyObject
 90
      499
 91
      510
 93
      508
310
428CD108121A5919195B8010640502408333333333333E3BF0000000000000FB01079024090700405020000000000001110200405405064090740C02480A0340
 94
        0
1001
ACAD
1000
AcDbSavedByObjectVersion
1070
     0
1000
AcadProxyRoundTripData
1071
      505
1071
   655383
1070
     0
  0
ACAD_PROXY_OBJECT
  5
18E8
102
{ACAD_REACTORS
330
18E1
102
}
330
18E1
100
AcDbProxyObject
 90
      499
 91
      510
 93
      444
310
430CD915DA5C99599C985B59401059028333333333333E3BF0000000000000FB0107901411070040501600405405064090741402480A0340
 94
        0
1001
ACAD
1000
AcDbSavedByObjectVersion
1070
     0
1000
AcadProxyRoundTripData
1071
      505
1071
   655383
1070
     0
  0
ACAD_PROXY_OBJECT
  5
18E6
102
{ACAD_REACTORS
330
18E1
102
}
330
18E1
100
AcDbProxyObject
 90
      499
 91
      510
 93
      396
310
4190985CDA58C0107406404333333333333E3BF0000000000000FB0107A41107004050150841D405064090741402480A0356
 94
        0
1001
ACAD
1000
AcDbSavedByObjectVersion
1070
     0
1000
AcadProxyRoundTripData
1071
      505
1071
   655383
1070
     0
  0
ACAD_PROXY_OBJECT
  5
18ED
102
{ACAD_REACTORS
330
18E1
102
}
330
18E1
100
AcDbProxyObject
 90
      499
 91
      510
 93
      436
310
42509C9A59DA1D195B8010C409028333333333333E3BF0000000000000FB010790141107004050150841D405064090741402480A029956
 94
        0
1001
ACAD
1000
AcDbSavedByObjectVersion
1070
     0
1000
AcadProxyRoundTripData
1071
      505
1071
   655383
1070
     0
  0
ACAD_PROXY_OBJECT
  5
18F1
102
{ACAD_REACTORS
330
18E1
102
}
330
18E1
100
AcDbProxyObject
 90
      499
 91
      510
 93
      460
310
4310DBDB1BDC90DA185B99D9401104090240C333333333333E3BF0000000000000FB0108901411070040501508421405064090741402480A0354
 94
        0
1001
ACAD
1000
AcDbSavedByObjectVersion
1070
     0
1000
AcadProxyRoundTripData
1071
      505
1071
   655383
1070
     0
  0
ACAD_PROXY_OBJECT
  5
18EA
102
{ACAD_REACTORS
330
18E1
102
}
330
18E1
100
AcDbProxyObject
 90
      499
 91
      510
 93
      508
310
42D0DBDB98D95C1D1D585B0010940D028333333333333E3BF0000000000000FB0107902409070040501000000000000111010841D405064090740C02480A0340
 94
        0
1001
ACAD
1000
AcDbSavedByObjectVersion
1070
     0
1000
AcadProxyRoundTripData
1071
      505
1071
   655383
1070
     0
  0
ACAD_PROXY_OBJECT
  5
18EC
102
{ACAD_REACTORS
330
18E1
102
}
330
18E1
100
AcDbProxyObject
 90
      499
 91
      510
 93
      420
310
41111A5B4010B409028333333333333E3BF0000000000000FB010790141107004050150841D405064090741402480A02677FFFFFDB
 94
        0
1001
ACAD
1000
AcDbSavedByObjectVersion
1070
     0
1000
AcadProxyRoundTripData
1071
      505
1071
   655383
1070
     0
  0
ACAD_PROXY_OBJECT
  5
18F0
102
{ACAD_REACTORS
330
18E1
102
}
330
18E1
100
AcDbProxyObject
 90
      499
 91
      510
 93
      452
310
43119858D95C185D1D195C9B8010F409028333333333333E3BF0000000000000FB010790141107004050150841D405064090741402480A0350
 94
        0
1001
ACAD
1000
AcDbSavedByObjectVersion
1070
     0
1000
AcadProxyRoundTripData
1071
      505
1071
   655383
1070
     0
  0
ACAD_PROXY_OBJECT
  5
18E2
102
{ACAD_REACTORS
330
18E1
102
}
330
18E1
100
AcDbProxyObject
 90
      499
 91
      510
 93
      396
310
41519B185D00240901404333333333333E3BF0000000000000F9010740A41107004050150841D405064090741402480A1B55
 94
        0
1001
ACAD
1000
AcDbSavedByObjectVersion
1070
     0
1000
AcadProxyRoundTripData
1071
      505
1071
   655383
1070
     0
  0
ACAD_PROXY_OBJECT
  5
18E3
102
{ACAD_REACTORS
330
18E1
102
}
330
18E1
100
AcDbProxyObject
 90
      499
 91
      510
 93
      484
310
43919B185D15DA5D1A115919D95CC010140901404333333333333E3BF0000000000000F9010740901411070040501600405405064090741402480A1B50
 94
        0
1001
ACAD
1000
AcDbSavedByObjectVersion
1070
     0
1000
AcadProxyRoundTripData
1071
      505
1071
   655383
1070
     0
  0
ACAD_PROXY_OBJECT
  5
18E4
102
{ACAD_REACTORS
330
18E1
102
}
330
18E1
100
AcDbProxyObject
 90
      499
 91
      510
 93
      420
310
4211DBDD5C985D590010240902404333333333333E3BF0000000000000F9010740A411070040501641D405064090741402480A1B50
 94
        0
1001
ACAD
1000
AcDbSavedByObjectVersion
1070
     0
1000
AcadProxyRoundTripData
1071
      505
1071
   655383
1070
     0
  0
ACAD_PROXY_OBJECT
  5
18E5
102
{ACAD_REACTORS
330
18E1
102
}
330
18E1
100
AcDbProxyObject
 90
      499
 91
      510
 93
      508
310
4451DBDD5C985D5915DA5D1A115919D95CC010340902404333333333333E3BF0000000000000F9010740901411070040501600405405064090741402480A1B50
 94
        0
1001
ACAD
1000
AcDbSavedByObjectVersion
1070
     0
1000
AcadProxyRoundTripData
1071
      505
1071
   655383
1070
     0
  0
ACAD_PROXY_OBJECT
  5
18EF
102
{ACAD_REACTORS
330
18E1
102
}
330
18E1
100
AcDbProxyObject
 90
      499
 91
      510
 93
      452
310
43131A5B995C185D1D195C9B8010E409028333333333333E3BF0000000000000FB010790141107004050750841D405064090741402483A0350
 94
        0
1001
ACAD
1000
AcDbSavedByObjectVersion
1070
     0
1000
AcadProxyRoundTripData
1071
      505
1071
   655383
1070
     0
  0
ACAD_PROXY_OBJECT
  5
18EB
102
{ACAD_REACTORS
330
18E1
102
}
330
18E1
100
AcDbProxyObject
 90
      499
 91
      510
 93
      428
310
429499585B1A5CDD1A58C0108409028333333333333E3BF0000000000000FB01079019070040501508421405064090741402480A1B45
 94
        0
1001
ACAD
1000
AcDbSavedByObjectVersion
1070
     0
1000
AcadProxyRoundTripData
1071
      505
1071
   655383
1070
     0
  0
ACAD_PROXY_OBJECT
  5
18EE
102
{ACAD_REACTORS
330
18E1
102
}
330
18E1
100
AcDbProxyObject
 90
      499
 91
      510
 93
      420
310
42151A1A58DAD95B8010D409028333333333333E3BF0000000000000FB010790141107004050150C41D405064090741402480A0352
 94
        0
1001
ACAD
1000
AcDbSavedByObjectVersion
1070
     0
1000
AcadProxyRoundTripData
1071
      505
1071
   655383
1070
     0
  0
XRECORD
  5
1A3A
102
{ACAD_REACTORS
330
1A30
102
}
330
1A30
100
AcDbXrecord
 90
        0
  0
XRECORD
  5
1A3E
102
{ACAD_REACTORS
330
1A30
102
}
330
1A30
100
AcDbXrecord
1000
DSTYLE
1002
{
1070
   179
 70
     2
1070
   277
 70
     6
1002
}
  0
XRECORD
  5
1A3B
102
{ACAD_REACTORS
330
1A30
102
}
330
1A30
100
AcDbXrecord
  1
{6385560B-F4B1-4644-A7C2-A3E32AC3D232}
  0
XRECORD
  5
1A33
102
{ACAD_REACTORS
330
1A30
102
}
330
1A30
100
AcDbXrecord
  1

  0
XRECORD
  5
1A39
102
{ACAD_REACTORS
330
1A30
102
}
330
1A30
100
AcDbXrecord
 90
        0
  0
XRECORD
  5
1A35
102
{ACAD_REACTORS
330
1A30
102
}
330
1A30
100
AcDbXrecord
340
61
  0
XRECORD
  5
1A38
102
{ACAD_REACTORS
330
1A30
102
}
330
1A30
100
AcDbXrecord
 90
    10781
  0
XRECORD
  5
1A36
102
{ACAD_REACTORS
330
1A30
102
}
330
1A30
100
AcDbXrecord
340
77
  0
XRECORD
  5
1A37
102
{ACAD_REACTORS
330
1A30
102
}
330
1A30
100
AcDbXrecord
340
6
  0
XRECORD
  5
1A3D
102
{ACAD_REACTORS
330
1A30
102
}
330
1A30
100
AcDbXrecord
 40
0.0
  0
XRECORD
  5
1A41
102
{ACAD_REACTORS
330
1A30
102
}
330
1A30
100
AcDbXrecord
340
0
  0
XRECORD
  5
1A47
102
{ACAD_REACTORS
330
1A30
102
}
330
1A30
100
AcDbXrecord
 10
0.0
 20
0.0
 30
0.0
  0
XRECORD
  5
1A43
102
{ACAD_REACTORS
330
1A30
102
}
330
1A30
100
AcDbXrecord
 10
0.0
 20
0.0
 30
0.0
  0
XRECORD
  5
1A46
102
{ACAD_REACTORS
330
1A30
102
}
330
1A30
100
AcDbXrecord
 10
0.0
 20
0.0
 30
0.0
  0
XRECORD
  5
1A44
102
{ACAD_REACTORS
330
1A30
102
}
330
1A30
100
AcDbXrecord
 10
0.0
 20
0.0
 30
0.0
  0
XRECORD
  5
1A45
102
{ACAD_REACTORS
330
1A30
102
}
330
1A30
100
AcDbXrecord
 10
0.0
 20
0.0
 30
0.0
  0
XRECORD
  5
1A42
102
{ACAD_REACTORS
330
1A30
102
}
330
1A30
100
AcDbXrecord
 10
0.0
 20
0.0
 30
0.0
  0
XRECORD
  5
1A3F
102
{ACAD_REACTORS
330
1A30
102
}
330
1A30
100
AcDbXrecord
340
0
  0
XRECORD
  5
1A40
102
{ACAD_REACTORS
330
1A30
102
}
330
1A30
100
AcDbXrecord
 70
     0
  0
XRECORD
  5
1A34
102
{ACAD_REACTORS
330
1A30
102
}
330
1A30
100
AcDbXrecord
  1
Sekkei.ctb
  0
XRECORD
  5
1A31
102
{ACAD_REACTORS
330
1A30
102
}
330
1A30
100
AcDbXrecord
 90
        1
  0
XRECORD
  5
1A32
102
{ACAD_REACTORS
330
1A30
102
}
330
1A30
100
AcDbXrecord
 90
       70
  0
XRECORD
  5
1A4A
102
{ACAD_REACTORS
330
1A30
102
}
330
1A30
100
AcDbXrecord
340
0
  0
XRECORD
  5
1A50
102
{ACAD_REACTORS
330
1A30
102
}
330
1A30
100
AcDbXrecord
 10
0.0
 20
0.0
 30
0.0
  0
XRECORD
  5
1A4C
102
{ACAD_REACTORS
330
1A30
102
}
330
1A30
100
AcDbXrecord
 10
0.0
 20
0.0
 30
0.0
  0
XRECORD
  5
1A4F
102
{ACAD_REACTORS
330
1A30
102
}
330
1A30
100
AcDbXrecord
 10
0.0
 20
0.0
 30
0.0
  0
XRECORD
  5
1A4D
102
{ACAD_REACTORS
330
1A30
102
}
330
1A30
100
AcDbXrecord
 10
0.0
 20
0.0
 30
0.0
  0
XRECORD
  5
1A4E
102
{ACAD_REACTORS
330
1A30
102
}
330
1A30
100
AcDbXrecord
 10
0.0
 20
0.0
 30
0.0
  0
XRECORD
  5
1A4B
102
{ACAD_REACTORS
330
1A30
102
}
330
1A30
100
AcDbXrecord
 10
0.0
 20
0.0
 30
0.0
  0
XRECORD
  5
1A48
102
{ACAD_REACTORS
330
1A30
102
}
330
1A30
100
AcDbXrecord
340
0
  0
XRECORD
  5
1A49
102
{ACAD_REACTORS
330
1A30
102
}
330
1A30
100
AcDbXrecord
 70
     0
  0
XRECORD
  5
1A3C
102
{ACAD_REACTORS
330
1A30
102
}
330
1A30
100
AcDbXrecord
  1
{812EDAB3-D0D7-4FDB-B715-4012A0F776CE}
  0
DICTIONARYVAR
  5
19C2
102
{ACAD_REACTORS
330
102
102
}
330
102
100
DictionaryVariables
280
     0
  1
1:1
  0
DICTIONARYVAR
  5
19C1
102
{ACAD_REACTORS
330
102
102
}
330
102
100
DictionaryVariables
280
     0
  1
STANDARD
  0
DICTIONARYVAR
  5
19C0
102
{ACAD_REACTORS
330
102
102
}
330
102
100
DictionaryVariables
280
     0
  1
STANDARD
  0
DICTIONARYVAR
  5
103
102
{ACAD_REACTORS
330
102
102
}
330
102
100
DictionaryVariables
280
     0
  1
1
  0
DICTIONARYVAR
  5
19C3
102
{ACAD_REACTORS
330
102
102
}
330
102
100
DictionaryVariables
280
     0
  1
0
  0
DICTIONARYVAR
  5
549
102
{ACAD_REACTORS
330
102
102
}
330
102
100
DictionaryVariables
280
     0
  1
96
  0
DICTIONARY
  5
18D2
330
18D1
100
AcDbDictionary
280
     1
  3
ACAD_XREC_ROUNDTRIP
360
1A0B
  3
BUMPTILE
360
18D4
  3
DIFFUSETILE
360
18D3
  3
OPACITYTILE
360
18D7
  3
REFLECTIONTILE
360
18D6
  3
REFRACTIONTILE
360
18D8
  3
SPECULARTILE
360
18D5
  0
DICTIONARY
  5
18CA
330
18C9
100
AcDbDictionary
280
     1
  3
ACAD_XREC_ROUNDTRIP
360
1A0A
  3
BUMPTILE
360
18CC
  3
DIFFUSETILE
360
18CB
  3
OPACITYTILE
360
18CF
  3
REFLECTIONTILE
360
18CE
  3
REFRACTIONTILE
360
18D0
  3
SPECULARTILE
360
18CD
  0
DICTIONARY
  5
18DA
330
18D9
100
AcDbDictionary
280
     1
  3
ACAD_XREC_ROUNDTRIP
360
1A0C
  3
BUMPTILE
360
18DC
  3
DIFFUSETILE
360
18DB
  3
OPACITYTILE
360
18DF
  3
REFLECTIONTILE
360
18DE
  3
REFRACTIONTILE
360
18E0
  3
SPECULARTILE
360
18DD
  0
DICTIONARY
  5
199F
330
18F4
100
AcDbDictionary
280
     1
  3
ACAD_ROUNDTRIP_2008_TABLES
360
19F0
  3
ACAD_XREC_ROUNDTRIP
360
1A0D
  0
XRECORD
  5
1A0B
102
{ACAD_REACTORS
330
18D2
102
}
330
18D2
100
AcDbXrecord
102
MATERIAL
148
0.0
149
0.0
149
0.0
 93
        0
 94
      127
282
     0
 72
     0
 77
     0
171
     0
175
     0
179
     0
273
     0
  0
XRECORD
  5
18D4
102
{ACAD_REACTORS
330
18D2
102
}
330
18D2
100
AcDbXrecord
270
     1
271
     1
  0
XRECORD
  5
18D3
102
{ACAD_REACTORS
330
18D2
102
}
330
18D2
100
AcDbXrecord
270
     1
271
     1
  0
XRECORD
  5
18D7
102
{ACAD_REACTORS
330
18D2
102
}
330
18D2
100
AcDbXrecord
270
     1
271
     1
  0
XRECORD
  5
18D6
102
{ACAD_REACTORS
330
18D2
102
}
330
18D2
100
AcDbXrecord
270
     1
271
     1
  0
XRECORD
  5
18D8
102
{ACAD_REACTORS
330
18D2
102
}
330
18D2
100
AcDbXrecord
270
     1
271
     1
  0
XRECORD
  5
18D5
102
{ACAD_REACTORS
330
18D2
102
}
330
18D2
100
AcDbXrecord
270
     1
271
     1
  0
XRECORD
  5
1A0A
102
{ACAD_REACTORS
330
18CA
102
}
330
18CA
100
AcDbXrecord
102
MATERIAL
148
0.0
149
0.0
149
0.0
 93
        0
 94
      127
282
     0
 72
     0
 77
     0
171
     0
175
     0
179
     0
273
     0
  0
XRECORD
  5
18CC
102
{ACAD_REACTORS
330
18CA
102
}
330
18CA
100
AcDbXrecord
270
     1
271
     1
  0
XRECORD
  5
18CB
102
{ACAD_REACTORS
330
18CA
102
}
330
18CA
100
AcDbXrecord
270
     1
271
     1
  0
XRECORD
  5
18CF
102
{ACAD_REACTORS
330
18CA
102
}
330
18CA
100
AcDbXrecord
270
     1
271
     1
  0
XRECORD
  5
18CE
102
{ACAD_REACTORS
330
18CA
102
}
330
18CA
100
AcDbXrecord
270
     1
271
     1
  0
XRECORD
  5
18D0
102
{ACAD_REACTORS
330
18CA
102
}
330
18CA
100
AcDbXrecord
270
     1
271
     1
  0
XRECORD
  5
18CD
102
{ACAD_REACTORS
330
18CA
102
}
330
18CA
100
AcDbXrecord
270
     1
271
     1
  0
XRECORD
  5
1A0C
102
{ACAD_REACTORS
330
18DA
102
}
330
18DA
100
AcDbXrecord
102
MATERIAL
148
0.0
149
0.0
149
0.0
 93
        0
 94
      127
282
     0
 72
     0
 77
     0
171
     0
175
     0
179
     0
273
     0
  0
XRECORD
  5
18DC
102
{ACAD_REACTORS
330
18DA
102
}
330
18DA
100
AcDbXrecord
270
     1
271
     1
  0
XRECORD
  5
18DB
102
{ACAD_REACTORS
330
18DA
102
}
330
18DA
100
AcDbXrecord
270
     1
271
     1
  0
XRECORD
  5
18DF
102
{ACAD_REACTORS
330
18DA
102
}
330
18DA
100
AcDbXrecord
270
     1
271
     1
  0
XRECORD
  5
18DE
102
{ACAD_REACTORS
330
18DA
102
}
330
18DA
100
AcDbXrecord
270
     1
271
     1
  0
XRECORD
  5
18E0
102
{ACAD_REACTORS
330
18DA
102
}
330
18DA
100
AcDbXrecord
270
     1
271
     1
  0
XRECORD
  5
18DD
102
{ACAD_REACTORS
330
18DA
102
}
330
18DA
100
AcDbXrecord
270
     1
271
     1
  0
ACAD_PROXY_OBJECT
  5
19F0
102
{ACAD_REACTORS
330
199F
102
}
330
199F
100
AcDbProxyObject
 90
      499
 91
      510
 93
     1044
310
40D054060020000020000003200101A000080002A5058000000C100000000000000340FE901405075F5449544C450041501A8000000C800406800020000A9416000000304000AD7A3703D0AC73FA409014217D2115051115480105406A0000003200101A000080002A5028000000C10002B5E8DC0F42B1CFE903409065F444
310
15441004
340
16
340
16
340
16
 94
        0
1001
ACAD
1000
AcadProxyRoundTripData
1071
      509
1071
   655383
1070
     0
  0
XRECORD
  5
1A0D
102
{ACAD_REACTORS
330
199F
102
}
330
199F
100
AcDbXrecord
102
ACAD_ROUNDTRIP_PRE2007_TABLESTYLE
 90
      512
 91
        0
  1

 92
      512
 93
        0
  2

 94
      512
 95
        0
  3

  0
ENDSEC
  0
EOF
