  0
SECTION
  2
HEADER
  9
$ACADVER
  1
AC1014
  9
$ACADMAINTVER
 70
     9
  9
$DWGCODEPAGE
  3
ANSI_932
  9
$INSBASE
 10
0.0
 20
0.0
 30
0.0
  9
$EXTMIN
 10
29.86246554553008
 20
39.74626372519657
 30
0.0
  9
$EXTMAX
 10
971.2816595970711
 20
650.4843681344173
 30
0.0
  9
$LIMMIN
 10
0.0
 20
0.0
  9
$LIMMAX
 10
297.0
 20
210.0
  9
$ORTHOMODE
 70
     1
  9
$REGENMODE
 70
     1
  9
$FILLMODE
 70
     1
  9
$QTEXTMODE
 70
     0
  9
$MIRRTEXT
 70
     0
  9
$DRAGMODE
 70
     2
  9
$LTSCALE
 40
3.0
  9
$OSMODE
 70
    37
  9
$ATTMODE
 70
     1
  9
$TEXTSIZE
 40
2.0
  9
$TRACEWID
 40
1.0
  9
$TEXTSTYLE
  7
STANDARD
  9
$CLAYER
  8
0
  9
$CELTYPE
  6
BYLAYER
  9
$CECOLOR
 62
   256
  9
$CELTSCALE
 40
1.0
  9
$DELOBJ
 70
     1
  9
$DISPSILH
 70
     0
  9
$DIMSCALE
 40
3.0
  9
$DIMASZ
 40
1.8
  9
$DIMEXO
 40
0.625
  9
$DIMDLI
 40
3.75
  9
$DIMRND
 40
0.0
  9
$DIMDLE
 40
0.0
  9
$DIMEXE
 40
0.8
  9
$DIMTP
 40
0.0
  9
$DIMTM
 40
0.0
  9
$DIMTXT
 40
1.8
  9
$DIMCEN
 40
2.5
  9
$DIMTSZ
 40
0.0
  9
$DIMTOL
 70
     0
  9
$DIMLIM
 70
     0
  9
$DIMTIH
 70
     0
  9
$DIMTOH
 70
     0
  9
$DIMSE1
 70
     0
  9
$DIMSE2
 70
     0
  9
$DIMTAD
 70
     1
  9
$DIMZIN
 70
     8
  9
$DIMBLK
  1

  9
$DIMASO
 70
     1
  9
$DIMSHO
 70
     1
  9
$DIMPOST
  1

  9
$DIMAPOST
  1

  9
$DIMALT
 70
     0
  9
$DIMALTD
 70
     4
  9
$DIMALTF
 40
0.0394
  9
$DIMLFAC
 40
1.0
  9
$DIMTOFL
 70
     1
  9
$DIMTVP
 40
0.0
  9
$DIMTIX
 70
     0
  9
$DIMSOXD
 70
     0
  9
$DIMSAH
 70
     0
  9
$DIMBLK1
  1

  9
$DIMBLK2
  1

  9
$DIMSTYLE
  2
STANDARD
  9
$DIMCLRD
 70
     0
  9
$DIMCLRE
 70
     0
  9
$DIMCLRT
 70
     0
  9
$DIMTFAC
 40
1.0
  9
$DIMGAP
 40
0.75
  9
$DIMJUST
 70
     0
  9
$DIMSD1
 70
     0
  9
$DIMSD2
 70
     0
  9
$DIMTOLJ
 70
     1
  9
$DIMTZIN
 70
     0
  9
$DIMALTZ
 70
     0
  9
$DIMALTTZ
 70
     0
  9
$DIMFIT
 70
     3
  9
$DIMUPT
 70
     0
  9
$DIMUNIT
 70
     8
  9
$DIMDEC
 70
     2
  9
$DIMTDEC
 70
     2
  9
$DIMALTU
 70
     8
  9
$DIMALTTD
 70
     4
  9
$DIMTXSTY
  7
STANDARD
  9
$DIMAUNIT
 70
     0
  9
$LUNITS
 70
     2
  9
$LUPREC
 70
     3
  9
$SKETCHINC
 40
1.0
  9
$FILLETRAD
 40
2.0
  9
$AUNITS
 70
     0
  9
$AUPREC
 70
     2
  9
$MENU
  1
.
  9
$ELEVATION
 40
0.0
  9
$PELEVATION
 40
0.0
  9
$THICKNESS
 40
0.0
  9
$LIMCHECK
 70
     0
  9
$BLIPMODE
 70
     0
  9
$CHAMFERA
 40
0.0
  9
$CHAMFERB
 40
0.0
  9
$CHAMFERC
 40
20.0
  9
$CHAMFERD
 40
0.0
  9
$SKPOLY
 70
     0
  9
$TDCREATE
 40
2454410.674643182
  9
$TDUPDATE
 40
2454425.685750497
  9
$TDINDWG
 40
0.0155056597
  9
$TDUSRTIMER
 40
0.0155054861
  9
$USRTIMER
 70
     1
  9
$ANGBASE
 50
0.0
  9
$ANGDIR
 70
     0
  9
$PDMODE
 70
     0
  9
$PDSIZE
 40
-10.0
  9
$PLINEWID
 40
0.0
  9
$COORDS
 70
     0
  9
$SPLFRAME
 70
     0
  9
$SPLINETYPE
 70
     6
  9
$SPLINESEGS
 70
     8
  9
$ATTDIA
 70
     0
  9
$ATTREQ
 70
     1
  9
$HANDLING
 70
-16383
  9
$HANDSEED
  5
24FD
  9
$SURFTAB1
 70
     6
  9
$SURFTAB2
 70
     6
  9
$SURFTYPE
 70
     6
  9
$SURFU
 70
     6
  9
$SURFV
 70
     6
  9
$UCSNAME
  2

  9
$UCSORG
 10
0.0
 20
0.0
 30
0.0
  9
$UCSXDIR
 10
1.0
 20
0.0
 30
0.0
  9
$UCSYDIR
 10
0.0
 20
1.0
 30
0.0
  9
$PUCSNAME
  2

  9
$PUCSORG
 10
0.0
 20
0.0
 30
0.0
  9
$PUCSXDIR
 10
1.0
 20
0.0
 30
0.0
  9
$PUCSYDIR
 10
0.0
 20
1.0
 30
0.0
  9
$USERI1
 70
     0
  9
$USERI2
 70
     0
  9
$USERI3
 70
     0
  9
$USERI4
 70
     0
  9
$USERI5
 70
     0
  9
$USERR1
 40
0.0
  9
$USERR2
 40
0.0
  9
$USERR3
 40
0.0
  9
$USERR4
 40
0.0
  9
$USERR5
 40
0.0
  9
$WORLDVIEW
 70
     1
  9
$SHADEDGE
 70
     3
  9
$SHADEDIF
 70
    70
  9
$TILEMODE
 70
     1
  9
$MAXACTVP
 70
    48
  9
$PINSBASE
 10
0.0
 20
0.0
 30
0.0
  9
$PLIMCHECK
 70
     0
  9
$PEXTMIN
 10
0.0
 20
0.0
 30
0.0
  9
$PEXTMAX
 10
0.0
 20
0.0
 30
0.0
  9
$PLIMMIN
 10
0.0
 20
0.0
  9
$PLIMMAX
 10
12.0
 20
9.0
  9
$UNITMODE
 70
     0
  9
$VISRETAIN
 70
     1
  9
$PLINEGEN
 70
     0
  9
$PSLTSCALE
 70
     1
  9
$TREEDEPTH
 70
  3020
  9
$PICKSTYLE
 70
     1
  9
$CMLSTYLE
  2
STANDARD
  9
$CMLJUST
 70
     0
  9
$CMLSCALE
 40
1.0
  9
$PROXYGRAPHICS
 70
     1
  9
$MEASUREMENT
 70
     0
  0
ENDSEC
  0
SECTION
  2
CLASSES
  0
CLASS
  1
DICTIONARYVAR
  2
AcDbDictionaryVar
  3
AutoCAD 2000
 90
        0
280
     0
281
     0
  0
CLASS
  1
ACDBDICTIONARYWDFLT
  2
AcDbDictionaryWithDefault
  3
AutoCAD 2000
 90
        0
280
     0
281
     0
  0
CLASS
  1
ACDBPLACEHOLDER
  2
AcDbPlaceHolder
  3
AutoCAD 2000
 90
        0
280
     0
281
     0
  0
CLASS
  1
LAYOUT
  2
AcDbLayout
  3
AutoCAD 2000
 90
        0
280
     0
281
     0
  0
CLASS
  1
MATERIAL
  2
AcDbMaterial
  3
ObjectDBX Classes
 90
     1153
280
     0
281
     0
  0
CLASS
  1
VISUALSTYLE
  2
AcDbVisualStyle
  3
ObjectDBX Classes
 90
     4095
280
     0
281
     0
  0
CLASS
  1
TABLESTYLE
  2
AcDbTableStyle
  3
ObjectDBX Classes
 90
     4095
280
     0
281
     0
  0
CLASS
  1
SCALE
  2
AcDbScale
  3
ObjectDBX Classes
 90
     1153
280
     0
281
     0
  0
CLASS
  1
MLEADERSTYLE
  2
AcDbMLeaderStyle
  3
ACDB_MLEADERSTYLE_CLASS
 90
     4095
280
     0
281
     0
  0
CLASS
  1
SORTENTSTABLE
  2
AcDbSortentsTable
  3
AutoCAD 2000
 90
        0
280
     0
281
     0
  0
CLASS
  1
CELLSTYLEMAP
  2
AcDbCellStyleMap
  3
ObjectDBX Classes
 90
     1152
280
     0
281
     0
  0
CLASS
  1
ACAD_PROXY_OBJECT_WRAPPER
  2
AcDbProxyObjectWrapper
  3
AutoCAD 2000
 90
        0
280
     0
281
     0
  0
CLASS
  1
LONG_TRANSACTION
  2
AcDbLongTransaction
  3
AutoCAD 2000
 90
        0
280
     0
281
     0
  0
CLASS
  1
LWPOLYLINE
  2
AcDbPolyline
  3
AutoCAD 2000
 90
        0
280
     0
281
     1
  0
CLASS
  1
HATCH
  2
AcDbHatch
  3
AutoCAD 2000
 90
        0
280
     0
281
     1
  0
CLASS
  1
XRECORD
  2
AcDbXrecord
  3
AutoCAD 2000
 90
        0
280
     0
281
     0
  0
ENDSEC
  0
SECTION
  2
TABLES
  0
TABLE
  2
VPORT
  5
6E
102
{ACAD_XDICTIONARY
360
2475
102
}
330
0
100
AcDbSymbolTable
 70
     2
  0
VPORT
  5
24D8
330
6E
100
AcDbSymbolTableRecord
100
AcDbViewportTableRecord
  2
*ACTIVE
 70
     0
 10
0.0
 20
0.0
 11
1.0
 21
1.0
 12
508.5490568689286
 22
329.4062311313926
 13
0.0
 23
0.0
 14
10.0
 24
10.0
 15
10.0
 25
10.0
 16
0.0
 26
0.0
 36
1.0
 17
0.0
 27
0.0
 37
0.0
 40
646.6283371846666
 41
1.753504672897196
 42
50.0
 43
0.0
 44
0.0
 50
0.0
 51
0.0
 71
     0
 72
   100
 73
     1
 74
     3
 75
     0
 76
     0
 77
     0
 78
     0
  0
ENDTAB
  0
TABLE
  2
LTYPE
  5
69
330
0
100
AcDbSymbolTable
 70
     8
  0
LTYPE
  5
6A
330
69
100
AcDbSymbolTableRecord
100
AcDbLinetypeTableRecord
  2
BYBLOCK
 70
     0
  3

 72
    65
 73
     0
 40
0.0
  0
LTYPE
  5
6B
330
69
100
AcDbSymbolTableRecord
100
AcDbLinetypeTableRecord
  2
BYLAYER
 70
     0
  3

 72
    65
 73
     0
 40
0.0
  0
LTYPE
  5
8
330
69
100
AcDbSymbolTableRecord
100
AcDbLinetypeTableRecord
  2
CONTINUOUS
 70
     0
  3
Solid line
 72
    65
 73
     0
 40
0.0
  0
LTYPE
  5
27C
330
69
100
AcDbSymbolTableRecord
100
AcDbLinetypeTableRecord
  2
SEKKEI_A2_
 70
     0
  3
center(A2)  ____ _ ____ _ ____ _ ____ _ ____ _ 
 72
    65
 73
     4
 40
14.28749999999999
 49
9.525
 74
     0
 49
-1.587499999999999
 74
     0
 49
1.587499999999999
 74
     0
 49
-1.587499999999999
 74
     0
  0
LTYPE
  5
48F
330
69
100
AcDbSymbolTableRecord
100
AcDbLinetypeTableRecord
  2
SEKKEI_H
 70
     0
  3
Hidden-S _ _ _ _ _ _ _ _ _ _ _ _ _ _ _ _ _
 72
    65
 73
     2
 40
2.381249999999999
 49
1.587499999999999
 74
     0
 49
-0.79375
 74
     0
  0
LTYPE
  5
7F0
330
69
100
AcDbSymbolTableRecord
100
AcDbLinetypeTableRecord
  2
HIDDEN3
 70
     0
  3
Hidden (.3x) _ _ _ _ _ _ _ _ _ _ _ _ _ _ _ _ _
 72
    65
 73
     2
 40
2.857499999999999
 49
1.905
 74
     0
 49
-0.9525
 74
     0
  0
LTYPE
  5
AE3
330
69
100
AcDbSymbolTableRecord
100
AcDbLinetypeTableRecord
  2
CENS
 70
     0
  3
(一点鎖線１)---- - ---- - ---- - ---- - ---- - 
 72
    65
 73
     4
 40
7.0
 49
4.0
 74
     0
 49
-1.0
 74
     0
 49
1.0
 74
     0
 49
-1.0
 74
     0
  0
LTYPE
  5
2166
330
69
100
AcDbSymbolTableRecord
100
AcDbLinetypeTableRecord
  2
SEKKEI-P_A4_
 70
     0
  3
Phantom(A4)  ____ _ _ ____ _ _ ____ _ _ _____
 72
    65
 73
     6
 40
15.0
 49
7.5
 74
     0
 49
-1.5
 74
     0
 49
1.5
 74
     0
 49
-1.5
 74
     0
 49
1.5
 74
     0
 49
-1.5
 74
     0
  0
LTYPE
  5
2167
330
69
100
AcDbSymbolTableRecord
100
AcDbLinetypeTableRecord
  2
SEKKEI_P_S
 70
     0
  3
Phantom_S   __ _ _ __ _ _ __ _ _ ___
 72
    65
 73
     6
 40
7.5
 49
3.75
 74
     0
 49
-0.75
 74
     0
 49
0.75
 74
     0
 49
-0.75
 74
     0
 49
0.75
 74
     0
 49
-0.75
 74
     0
  0
ENDTAB
  0
TABLE
  2
LAYER
  5
66
102
{ACAD_XDICTIONARY
360
AE4
102
}
330
0
100
AcDbSymbolTable
 70
    10
  0
LAYER
  5
5E
102
{ACAD_XDICTIONARY
360
245A
102
}
330
66
100
AcDbSymbolTableRecord
100
AcDbLayerTableRecord
  2
0
 70
     0
 62
     7
  6
CONTINUOUS
  0
LAYER
  5
3E
102
{ACAD_XDICTIONARY
360
245C
102
}
330
66
100
AcDbSymbolTableRecord
100
AcDbLayerTableRecord
  2
CENTER
 70
     0
 62
     3
  6
SEKKEI_A2_
  0
LAYER
  5
2B5
102
{ACAD_XDICTIONARY
360
2462
102
}
330
66
100
AcDbSymbolTableRecord
100
AcDbLayerTableRecord
  2
HIDS
 70
     0
 62
     1
  6
HIDDEN3
  0
LAYER
  5
2BA
102
{ACAD_XDICTIONARY
360
2464
102
}
330
66
100
AcDbSymbolTableRecord
100
AcDbLayerTableRecord
  2
HOJO
 70
     0
 62
     4
  6
CONTINUOUS
  0
LAYER
  5
3FA
102
{ACAD_XDICTIONARY
360
2468
102
}
330
66
100
AcDbSymbolTableRecord
100
AcDbLayerTableRecord
  2
TITLE
 70
     0
 62
     4
  6
CONTINUOUS
  0
LAYER
  5
2168
102
{ACAD_XDICTIONARY
360
2169
102
}
330
66
100
AcDbSymbolTableRecord
100
AcDbLayerTableRecord
  2
PHAS
 70
     0
 62
     2
  6
SEKKEI-P_A4_
  0
ENDTAB
  0
TABLE
  2
STYLE
  5
67
330
0
100
AcDbSymbolTable
 70
     2
  0
STYLE
  5
16
330
67
100
AcDbSymbolTableRecord
100
AcDbTextStyleTableRecord
  2
STANDARD
 70
     0
 40
0.0
 41
1.0
 50
0.0
 71
     0
 42
2.0
  3
simplex.shx
  4
extfont.shx
  0
ENDTAB
  0
TABLE
  2
VIEW
  5
6C
330
0
100
AcDbSymbolTable
 70
     0
  0
ENDTAB
  0
TABLE
  2
UCS
  5
6D
330
0
100
AcDbSymbolTable
 70
     0
  0
ENDTAB
  0
TABLE
  2
APPID
  5
70
330
0
100
AcDbSymbolTable
 70
     2
  0
APPID
  5
71
330
70
100
AcDbSymbolTableRecord
100
AcDbRegAppTableRecord
  2
ACAD
 70
     0
  0
APPID
  5
1D08
330
70
100
AcDbSymbolTableRecord
100
AcDbRegAppTableRecord
  2
ACAD_MLEADERVER
 70
     0
  0
ENDTAB
  0
TABLE
  2
DIMSTYLE
  5
72
330
0
100
AcDbSymbolTable
 70
     1
  0
DIMSTYLE
105
73
330
72
100
AcDbSymbolTableRecord
100
AcDbDimStyleTableRecord
  2
STANDARD
 70
     0
  3

  4

  5

  6

  7

 40
3.0
 41
1.8
 42
0.625
 43
3.75
 44
0.8
 45
0.0
 46
0.0
 47
0.0
 48
0.0
140
1.8
141
2.5
142
0.0
143
0.0394
144
1.0
145
0.0
146
1.0
147
0.75
 71
     0
 72
     0
 73
     0
 74
     0
 75
     0
 76
     0
 77
     1
 78
     8
170
     0
171
     4
172
     1
173
     0
174
     0
175
     0
176
     0
177
     0
178
     0
270
     8
271
     2
272
     2
273
     8
274
     4
340
16
275
     0
280
     0
281
     0
282
     0
283
     1
284
     0
285
     0
286
     0
287
     3
288
     0
  0
ENDTAB
  0
TABLE
  2
BLOCK_RECORD
  5
1
330
0
100
AcDbSymbolTable
 70
    57
  0
BLOCK_RECORD
  5
2
102
{ACAD_XDICTIONARY
360
243B
102
}
330
1
100
AcDbSymbolTableRecord
100
AcDbBlockTableRecord
  2
*MODEL_SPACE
  0
BLOCK_RECORD
  5
24D3
102
{ACAD_XDICTIONARY
360
24FB
102
}
330
1
100
AcDbSymbolTableRecord
100
AcDbBlockTableRecord
  2
*PAPER_SPACE
  0
BLOCK_RECORD
  5
8DB
330
1
100
AcDbSymbolTableRecord
100
AcDbBlockTableRecord
  2
A$C79D50562
  0
ENDTAB
  0
ENDSEC
  0
SECTION
  2
BLOCKS
  0
BLOCK
  5
5D
330
2
100
AcDbEntity
  8
0
100
AcDbBlockBegin
  2
*MODEL_SPACE
 70
     0
 10
0.0
 20
0.0
 30
0.0
  3
*MODEL_SPACE
  1

  0
ENDBLK
  5
5F
330
2
100
AcDbEntity
  8
0
100
AcDbBlockEnd
  0
BLOCK
  5
24D5
330
24D3
100
AcDbEntity
 67
     1
  8
0
100
AcDbBlockBegin
  2
*PAPER_SPACE
 70
     0
 10
0.0
 20
0.0
 30
0.0
  3
*PAPER_SPACE
  1

  0
ENDBLK
  5
24D6
330
24D3
100
AcDbEntity
 67
     1
  8
0
100
AcDbBlockEnd
  0
BLOCK
  5
8DE
330
8DB
100
AcDbEntity
  8
0
100
AcDbBlockBegin
  2
A$C79D50562
 70
     0
 10
0.0
 20
0.0
 30
0.0
  3
A$C79D50562
  1

  0
LINE
  5
8DC
330
8DB
100
AcDbEntity
  8
CENTER
100
AcDbLine
 10
0.0
 20
7.659444835277668
 30
0.0
 11
0.0
 21
-7.659444835277668
 31
0.0
  0
LINE
  5
8DD
330
8DB
100
AcDbEntity
  8
CENTER
100
AcDbLine
 10
-7.659444835277668
 20
0.0
 30
0.0
 11
7.659444835277668
 21
0.0
 31
0.0
  0
ENDBLK
  5
8DF
330
8DB
100
AcDbEntity
  8
0
100
AcDbBlockEnd
  0
ENDSEC
  0
SECTION
  2
ENTITIES
  0
LINE
  5
F06
330
2
100
AcDbEntity
  8
CENTER
100
AcDbLine
 10
167.8624655455299
 20
269.587109062335
 30
0.0
 11
167.8624655455299
 21
371.587109062335
 31
0.0
  0
LINE
  5
F07
330
2
100
AcDbEntity
  8
CENTER
100
AcDbLine
 10
218.8624655455299
 20
320.5871090623318
 30
0.0
 11
29.86246554553008
 21
320.5871090623318
 31
0.0
  0
LINE
  5
F08
330
2
100
AcDbEntity
  8
CENTER
100
AcDbLine
 10
971.2816595970711
 20
320.5871090623186
 30
0.0
 11
832.2816680511108
 21
320.5871090623191
 31
0.0
  0
LINE
  5
F09
330
2
100
AcDbEntity
  8
CENTER
100
AcDbLine
 10
916.2816680511145
 20
372.0871090623341
 30
0.0
 11
916.2816680511145
 21
269.0871090623346
 31
0.0
  0
LINE
  5
F0A
330
2
100
AcDbEntity
  8
CENTER
100
AcDbLine
 10
598.0687124088775
 20
365.0723904365709
 30
0.0
 11
509.0981496604002
 21
276.1018276880941
 31
0.0
  0
LINE
  5
F0B
330
2
100
AcDbEntity
  8
CENTER
100
AcDbLine
 10
509.0981496604012
 20
365.0723904365696
 30
0.0
 11
598.0687124088785
 21
276.1018276880918
 31
0.0
  0
LINE
  5
F0C
330
2
100
AcDbEntity
  8
CENTER
100
AcDbLine
 10
553.5834310346384
 20
650.4843681344173
 30
0.0
 11
553.5834310346384
 21
511.4843765884574
 31
0.0
  0
LINE
  5
F0D
330
2
100
AcDbEntity
  8
CENTER
100
AcDbLine
 10
502.7885124276975
 20
595.4843765884606
 30
0.0
 11
691.5834310346384
 21
595.4843765884616
 31
0.0
  0
CIRCLE
  5
F0E
330
2
100
AcDbEntity
  8
CENTER
100
AcDbCircle
 10
553.5834310346403
 20
320.5871090623318
 30
0.0
 40
48.99999999999932
  0
LINE
  5
F0F
330
2
100
AcDbEntity
  8
CENTER
100
AcDbLine
 10
525.9351987565
 20
355.2353413404717
 30
0.0
 11
511.9351987564999
 21
355.2353413404717
 31
0.0
  0
LINE
  5
F10
330
2
100
AcDbEntity
  8
CENTER
100
AcDbLine
 10
518.935198756499
 20
362.2353413404721
 30
0.0
 11
518.935198756499
 21
348.2353413404721
 31
0.0
  0
LINE
  5
F11
330
2
100
AcDbEntity
  8
CENTER
100
AcDbLine
 10
525.9351987565
 20
285.938876784192
 30
0.0
 11
511.9351987564999
 21
285.938876784192
 31
0.0
  0
LINE
  5
F12
330
2
100
AcDbEntity
  8
CENTER
100
AcDbLine
 10
518.935198756499
 20
292.9388767841906
 30
0.0
 11
518.935198756499
 21
278.9388767841906
 31
0.0
  0
LINE
  5
F13
330
2
100
AcDbEntity
  8
CENTER
100
AcDbLine
 10
595.2316633127814
 20
285.9388767841956
 30
0.0
 11
581.2316633127815
 21
285.9388767841956
 31
0.0
  0
LINE
  5
F14
330
2
100
AcDbEntity
  8
CENTER
100
AcDbLine
 10
588.2316633127815
 20
292.9388767841906
 30
0.0
 11
588.2316633127815
 21
278.9388767841906
 31
0.0
  0
LINE
  5
F15
330
2
100
AcDbEntity
  8
CENTER
100
AcDbLine
 10
595.2316633127814
 20
355.235341340473
 30
0.0
 11
581.2316633127815
 21
355.235341340473
 31
0.0
  0
LINE
  5
F16
330
2
100
AcDbEntity
  8
CENTER
100
AcDbLine
 10
588.2316633127796
 20
362.2353413404721
 30
0.0
 11
588.2316633127796
 21
348.2353413404721
 31
0.0
  0
LINE
  5
F17
330
2
100
AcDbEntity
  8
0
100
AcDbLine
 10
621.5834310346385
 20
287.5871090624487
 30
0.0
 11
616.0834310346439
 21
287.5871090624487
 31
0.0
  0
LINE
  5
F18
330
2
100
AcDbEntity
  8
0
100
AcDbLine
 10
621.5834310346385
 20
353.5871090622141
 30
0.0
 11
616.0834310346439
 21
353.5871090622141
 31
0.0
  0
CIRCLE
  5
F19
330
2
100
AcDbEntity
  8
0
100
AcDbCircle
 10
553.5834310346403
 20
320.5871090623314
 30
0.0
 40
23.0
  0
CIRCLE
  5
F1A
330
2
100
AcDbEntity
  8
0
100
AcDbCircle
 10
553.5834310346403
 20
320.5871090623314
 30
0.0
 40
27.99999999999875
  0
CIRCLE
  5
F1B
330
2
100
AcDbEntity
  8
0
100
AcDbCircle
 10
553.5834310346403
 20
320.5871090623314
 30
0.0
 40
35.00000000000011
  0
LINE
  5
F1C
330
2
100
AcDbEntity
  8
0
100
AcDbLine
 10
594.5834310346403
 20
356.5871090623314
 30
0.0
 11
594.5834310346403
 21
284.5871090623314
 31
0.0
  0
CIRCLE
  5
F1D
330
2
100
AcDbEntity
  8
HOJO
100
AcDbCircle
 10
518.9351987564999
 20
285.9388767841906
 30
0.0
 40
3.0
  0
CIRCLE
  5
F1E
330
2
100
AcDbEntity
  8
0
100
AcDbCircle
 10
518.9351987564999
 20
285.9388767841906
 30
0.0
 40
2.399999999999999
  0
CIRCLE
  5
F1F
330
2
100
AcDbEntity
  8
HOJO
100
AcDbCircle
 10
588.2316633127815
 20
285.9388767841906
 30
0.0
 40
3.0
  0
CIRCLE
  5
F20
330
2
100
AcDbEntity
  8
0
100
AcDbCircle
 10
588.2316633127815
 20
285.9388767841906
 30
0.0
 40
2.399999999999999
  0
CIRCLE
  5
F21
330
2
100
AcDbEntity
  8
0
100
AcDbCircle
 10
518.9351987564999
 20
355.2353413404722
 30
0.0
 40
2.399999999999999
  0
CIRCLE
  5
F22
330
2
100
AcDbEntity
  8
HOJO
100
AcDbCircle
 10
518.9351987564999
 20
355.2353413404722
 30
0.0
 40
3.0
  0
ARC
  5
F23
330
2
100
AcDbEntity
  8
0
100
AcDbCircle
 10
517.5834310346402
 20
356.5871090623314
 30
0.0
 40
5.0
100
AcDbArc
 50
90.0
 51
180.0
  0
CIRCLE
  5
F24
330
2
100
AcDbEntity
  8
HOJO
100
AcDbCircle
 10
588.2316633127815
 20
355.2353413404722
 30
0.0
 40
3.0
  0
CIRCLE
  5
F25
330
2
100
AcDbEntity
  8
0
100
AcDbCircle
 10
588.2316633127815
 20
355.2353413404722
 30
0.0
 40
2.399999999999999
  0
LINE
  5
F26
330
2
100
AcDbEntity
  8
0
100
AcDbLine
 10
638.5834310346385
 20
362.0871090623314
 30
0.0
 11
638.5834310346385
 21
279.0871090623314
 31
0.0
  0
LINE
  5
F27
330
2
100
AcDbEntity
  8
0
100
AcDbLine
 10
626.5834310346384
 20
360.0871090623314
 30
0.0
 11
626.5834310346412
 21
281.0871090623314
 31
0.0
  0
ARC
  5
F28
330
2
100
AcDbEntity
  8
0
100
AcDbCircle
 10
621.5834310346385
 20
282.5871090624487
 30
0.0
 40
5.0
100
AcDbArc
 50
0.0
 51
90.0
  0
LINE
  5
F29
330
2
100
AcDbEntity
  8
0
100
AcDbLine
 10
638.5834310346385
 20
279.5871090623314
 30
0.0
 11
628.5834310346412
 21
279.5871090623314
 31
0.0
  0
ARC
  5
F2A
330
2
100
AcDbEntity
  8
0
100
AcDbCircle
 10
628.5834310346412
 20
281.5871090623314
 30
0.0
 40
2.0
100
AcDbArc
 50
180.0
 51
270.0
  0
ARC
  5
F2B
330
2
100
AcDbEntity
  8
0
100
AcDbCircle
 10
621.5834310346385
 20
358.587109062214
 30
0.0
 40
5.0
100
AcDbArc
 50
270.0
 51
0.0
  0
LINE
  5
F2C
330
2
100
AcDbEntity
  8
0
100
AcDbLine
 10
628.5834310346384
 20
361.5871090623314
 30
0.0
 11
638.5834310346385
 21
361.5871090623314
 31
0.0
  0
ARC
  5
F2D
330
2
100
AcDbEntity
  8
0
100
AcDbCircle
 10
628.5834310346384
 20
359.5871090623314
 30
0.0
 40
2.0
100
AcDbArc
 50
90.0
 51
180.0
  0
LINE
  5
F2E
330
2
100
AcDbEntity
  8
0
100
AcDbLine
 10
126.8624655455299
 20
284.5871090623314
 30
0.0
 11
126.8624655455299
 21
356.5871090623314
 31
0.0
  0
LINE
  5
F2F
330
2
100
AcDbEntity
  8
0
100
AcDbLine
 10
94.86246554553451
 20
281.0871090623314
 30
0.0
 11
94.86246554553451
 21
360.0871090623314
 31
0.0
  0
LINE
  5
F30
330
2
100
AcDbEntity
  8
0
100
AcDbLine
 10
107.3624655455235
 20
289.5871090624483
 30
0.0
 11
107.3624655455281
 21
351.5871090622141
 31
0.0
  0
LINE
  5
F31
330
2
100
AcDbEntity
  8
0
100
AcDbLine
 10
82.86246554553008
 20
279.0871090623314
 30
0.0
 11
82.86246554553008
 21
362.0871090623314
 31
0.0
  0
LINE
  5
F32
330
2
100
AcDbEntity
  8
0
100
AcDbLine
 10
99.86246554552998
 20
353.5871090622141
 30
0.0
 11
105.3624655455299
 21
353.5871090622141
 31
0.0
  0
ARC
  5
F33
330
2
100
AcDbEntity
  8
0
100
AcDbCircle
 10
99.86246554552998
 20
358.587109062214
 30
0.0
 40
5.0
100
AcDbArc
 50
180.0
 51
270.0
  0
LINE
  5
F34
330
2
100
AcDbEntity
  8
0
100
AcDbLine
 10
82.86246554553008
 20
361.5871090623314
 30
0.0
 11
92.86246554552997
 21
361.5871090623314
 31
0.0
  0
ARC
  5
F35
330
2
100
AcDbEntity
  8
0
100
AcDbCircle
 10
92.86246554552997
 20
359.5871090623314
 30
0.0
 40
2.0
100
AcDbArc
 50
0.0
 51
90.0
  0
LINE
  5
F36
330
2
100
AcDbEntity
  8
0
100
AcDbLine
 10
99.86246554553453
 20
287.5871090624483
 30
0.0
 11
105.3624655455299
 21
287.5871090624483
 31
0.0
  0
LINE
  5
F37
330
2
100
AcDbEntity
  8
0
100
AcDbLine
 10
92.86246554553178
 20
279.5871090623314
 30
0.0
 11
82.86246554553008
 21
279.5871090623314
 31
0.0
  0
ARC
  5
F38
330
2
100
AcDbEntity
  8
0
100
AcDbCircle
 10
99.86246554553453
 20
282.5871090624482
 30
0.0
 40
5.0
100
AcDbArc
 50
90.0
 51
180.0
  0
ARC
  5
F39
330
2
100
AcDbEntity
  8
0
100
AcDbCircle
 10
92.86246554553178
 20
281.5871090623314
 30
0.0
 40
2.0
100
AcDbArc
 50
270.0
 51
0.0
  0
ARC
  5
F3A
330
2
100
AcDbEntity
  8
0
100
AcDbCircle
 10
203.8624655455299
 20
284.5871090623314
 30
0.0
 40
5.0
100
AcDbArc
 50
270.0
 51
0.0
  0
ARC
  5
F3B
330
2
100
AcDbEntity
  8
0
100
AcDbCircle
 10
131.8624655455299
 20
284.5871090623314
 30
0.0
 40
5.0
100
AcDbArc
 50
180.0
 51
270.0
  0
ARC
  5
F3C
330
2
100
AcDbEntity
  8
0
100
AcDbCircle
 10
131.8624655455299
 20
356.5871090623314
 30
0.0
 40
5.0
100
AcDbArc
 50
90.0
 51
180.0
  0
ARC
  5
F3D
330
2
100
AcDbEntity
  8
0
100
AcDbCircle
 10
203.8624655455299
 20
356.5871090623314
 30
0.0
 40
5.0
100
AcDbArc
 50
0.0
 51
90.0
  0
LINE
  5
F3E
330
2
100
AcDbEntity
  8
0
100
AcDbLine
 10
608.9507874598951
 20
618.484376585794
 30
0.0
 11
594.6683496415801
 21
618.484376585794
 31
0.0
  0
LINE
  5
F3F
330
2
100
AcDbEntity
  8
0
100
AcDbLine
 10
512.5834310346384
 20
618.9843765857944
 30
0.0
 11
594.1683496415779
 21
618.9843765857967
 31
0.0
  0
LINE
  5
F40
330
2
100
AcDbEntity
  8
0
100
AcDbLine
 10
518.5834310346384
 20
547.4843765884616
 30
0.0
 11
588.5834310346385
 21
547.4843765884616
 31
0.0
  0
LINE
  5
F41
330
2
100
AcDbEntity
  8
0
100
AcDbLine
 10
512.5834310346384
 20
618.9843765857944
 30
0.0
 11
513.163767742701
 21
552.4843765884611
 31
0.0
  0
LINE
  5
F42
330
2
100
AcDbEntity
  8
0
100
AcDbLine
 10
513.163767742701
 20
552.4843765884611
 30
0.0
 11
593.998175719635
 21
552.4843765884598
 31
0.0
  0
ARC
  5
F43
330
2
100
AcDbEntity
  8
0
100
AcDbCircle
 10
589.5834310346402
 20
356.5871090623314
 30
0.0
 40
5.0
100
AcDbArc
 50
0.0
 51
90.0
  0
ARC
  5
F44
330
2
100
AcDbEntity
  8
0
100
AcDbCircle
 10
589.5834310346412
 20
284.5871090623314
 30
0.0
 40
5.0
100
AcDbArc
 50
270.0
 51
0.0
  0
ARC
  5
F45
330
2
100
AcDbEntity
  8
0
100
AcDbCircle
 10
517.5834310346402
 20
284.5871090623314
 30
0.0
 40
5.0
100
AcDbArc
 50
180.0
 51
270.0
  0
LINE
  5
F46
330
2
100
AcDbEntity
  8
0
100
AcDbLine
 10
638.5834310302692
 20
636.4843765884611
 30
0.0
 11
638.5834310302692
 21
554.4843765884611
 31
0.0
  0
LINE
  5
F47
330
2
100
AcDbEntity
  8
0
100
AcDbLine
 10
873.2816680511108
 20
361.0024089203526
 30
0.0
 11
873.281668051109
 21
280.1718092042884
 31
0.0
  0
LINE
  5
F48
330
2
100
AcDbEntity
  8
0
100
AcDbLine
 10
868.2816680511118
 20
355.5871090623141
 30
0.0
 11
868.2816680511118
 21
285.5871090623141
 31
0.0
  0
ARC
  5
F49
330
2
100
AcDbEntity
  8
0
100
AcDbCircle
 10
167.8624655455299
 20
449.5871090623349
 30
0.0
 40
170.0
100
AcDbArc
 50
263.8230035951078
 51
276.176996404892
  0
ARC
  5
F4A
330
2
100
AcDbEntity
  8
0
100
AcDbCircle
 10
145.2664221053395
 20
240.8063177503736
 30
0.0
 40
40.0
100
AcDbArc
 50
83.82300359510784
 51
103.3676742026266
  0
ARC
  5
F4B
330
2
100
AcDbEntity
  8
0
100
AcDbCircle
 10
190.4585089857194
 20
240.8063177503732
 30
0.0
 40
40.0
100
AcDbArc
 50
76.63232579737331
 51
96.17699640483721
  0
ARC
  5
F4C
330
2
100
AcDbEntity
  8
0
100
AcDbCircle
 10
200.8624655455299
 20
284.587109062335
 30
0.0
 40
5.0
100
AcDbArc
 50
256.632325797373
 51
270.0
  0
LINE
  5
F4D
330
2
100
AcDbEntity
  8
0
100
AcDbLine
 10
203.8624655455299
 20
279.587109062335
 30
0.0
 11
200.8624655455299
 21
279.587109062335
 31
0.0
  0
LINE
  5
F4E
330
2
100
AcDbEntity
  8
0
100
AcDbLine
 10
208.8624655455299
 20
284.587109062335
 30
0.0
 11
208.8624655455299
 21
287.587109062335
 31
0.0
  0
ARC
  5
F4F
330
2
100
AcDbEntity
  8
0
100
AcDbCircle
 10
203.862465545529
 20
287.587109062335
 30
0.0
 40
5.0
100
AcDbArc
 50
0.0
 51
13.36767420262659
  0
ARC
  5
F50
330
2
100
AcDbEntity
  8
0
100
AcDbCircle
 10
247.6432568574913
 20
297.9910656221446
 30
0.0
 40
40.0
100
AcDbArc
 50
173.8230035951369
 51
193.3676742026266
  0
ARC
  5
F51
330
2
100
AcDbEntity
  8
0
100
AcDbCircle
 10
38.86246554553008
 20
320.587109062335
 30
0.0
 40
170.0
100
AcDbArc
 50
353.8230035951369
 51
6.176996404863066
  0
ARC
  5
F52
330
2
100
AcDbEntity
  8
0
100
AcDbCircle
 10
247.6432568574922
 20
343.1831525025245
 30
0.0
 40
40.0
100
AcDbArc
 50
166.6323257973733
 51
186.176996404863
  0
LINE
  5
F53
330
2
100
AcDbEntity
  8
0
100
AcDbLine
 10
208.8624655455299
 20
353.587109062335
 30
0.0
 11
208.8624655455299
 21
356.587109062335
 31
0.0
  0
ARC
  5
F54
330
2
100
AcDbEntity
  8
0
100
AcDbCircle
 10
203.8624655455299
 20
353.587109062335
 30
0.0
 40
5.0
100
AcDbArc
 50
346.6323257973734
 51
0.0
  0
LINE
  5
F55
330
2
100
AcDbEntity
  8
0
100
AcDbLine
 10
203.8624655455299
 20
361.587109062335
 30
0.0
 11
200.8624655455299
 21
361.587109062335
 31
0.0
  0
ARC
  5
F56
330
2
100
AcDbEntity
  8
0
100
AcDbCircle
 10
190.4585089857204
 20
400.3679003742964
 30
0.0
 40
40.0
100
AcDbArc
 50
263.8230035951078
 51
283.3676742026265
  0
ARC
  5
F57
330
2
100
AcDbEntity
  8
0
100
AcDbCircle
 10
200.8624655455299
 20
356.5871090623341
 30
0.0
 40
5.0
100
AcDbArc
 50
90.0
 51
103.3676742026266
  0
ARC
  5
F58
330
2
100
AcDbEntity
  8
0
100
AcDbCircle
 10
167.8624655455299
 20
191.587109062335
 30
0.0
 40
170.0
100
AcDbArc
 50
83.82300359510784
 51
96.17699640483721
  0
ARC
  5
F59
330
2
100
AcDbEntity
  8
0
100
AcDbCircle
 10
145.2664221053404
 20
400.3679003742968
 30
0.0
 40
40.0
100
AcDbArc
 50
256.632325797373
 51
276.176996404892
  0
ARC
  5
F5A
330
2
100
AcDbEntity
  8
0
100
AcDbCircle
 10
134.8624655455299
 20
356.587109062335
 30
0.0
 40
5.0
100
AcDbArc
 50
76.63232579737331
 51
90.0
  0
LINE
  5
F5B
330
2
100
AcDbEntity
  8
0
100
AcDbLine
 10
134.8624655455299
 20
361.587109062335
 30
0.0
 11
131.8624655455299
 21
361.587109062335
 31
0.0
  0
ARC
  5
F5C
330
2
100
AcDbEntity
  8
0
100
AcDbCircle
 10
134.8624655455299
 20
284.5871090623359
 30
0.0
 40
5.0
100
AcDbArc
 50
270.0
 51
283.3676742026265
  0
LINE
  5
F5D
330
2
100
AcDbEntity
  8
0
100
AcDbLine
 10
134.8624655455299
 20
279.587109062335
 30
0.0
 11
131.8624655455299
 21
279.587109062335
 31
0.0
  0
ARC
  5
F5E
330
2
100
AcDbEntity
  8
0
100
AcDbCircle
 10
553.5834310346366
 20
191.5871090623332
 30
0.0
 40
170.0
100
AcDbArc
 50
83.82300359510784
 51
96.17699640483721
  0
ARC
  5
F5F
330
2
100
AcDbEntity
  8
0
100
AcDbCircle
 10
576.179474474828
 20
400.3679003742949
 30
0.0
 40
40.0
100
AcDbArc
 50
263.8230035951078
 51
283.3676742026265
  0
ARC
  5
F60
330
2
100
AcDbEntity
  8
0
100
AcDbCircle
 10
530.9873875944471
 20
400.3679003742954
 30
0.0
 40
40.0
100
AcDbArc
 50
256.632325797373
 51
276.176996404892
  0
ARC
  5
F61
330
2
100
AcDbEntity
  8
0
100
AcDbCircle
 10
520.5834310346366
 20
356.5871090623332
 30
0.0
 40
5.0
100
AcDbArc
 50
76.63232579737331
 51
90.0
  0
LINE
  5
F62
330
2
100
AcDbEntity
  8
0
100
AcDbLine
 10
517.5834310346366
 20
361.5871090623332
 30
0.0
 11
520.5834310346366
 21
361.5871090623332
 31
0.0
  0
LINE
  5
F63
330
2
100
AcDbEntity
  8
0
100
AcDbLine
 10
512.5834310346366
 20
356.5871090623332
 30
0.0
 11
512.5834310346366
 21
353.5871090623332
 31
0.0
  0
ARC
  5
F64
330
2
100
AcDbEntity
  8
0
100
AcDbCircle
 10
517.5834310346375
 20
353.5871090623332
 30
0.0
 40
5.0
100
AcDbArc
 50
180.0
 51
193.3676742026266
  0
ARC
  5
F65
330
2
100
AcDbEntity
  8
0
100
AcDbCircle
 10
473.8026397226753
 20
343.1831525025236
 30
0.0
 40
40.0
100
AcDbArc
 50
353.8230035951337
 51
13.36767420262659
  0
ARC
  5
F66
330
2
100
AcDbEntity
  8
0
100
AcDbCircle
 10
682.5834310346375
 20
320.5871090623332
 30
0.0
 40
170.0
100
AcDbArc
 50
173.8230035951369
 51
186.176996404863
  0
ARC
  5
F67
330
2
100
AcDbEntity
  8
0
100
AcDbCircle
 10
473.8026397226753
 20
297.9910656221441
 30
0.0
 40
40.0
100
AcDbArc
 50
346.6323257973734
 51
6.176996404863066
  0
LINE
  5
F68
330
2
100
AcDbEntity
  8
0
100
AcDbLine
 10
512.5834310346366
 20
287.5871090623332
 30
0.0
 11
512.5834310346366
 21
284.5871090623332
 31
0.0
  0
ARC
  5
F69
330
2
100
AcDbEntity
  8
0
100
AcDbCircle
 10
517.5834310346375
 20
287.5871090623332
 30
0.0
 40
5.0
100
AcDbArc
 50
166.6323257973733
 51
180.0
  0
LINE
  5
F6A
330
2
100
AcDbEntity
  8
0
100
AcDbLine
 10
517.5834310346366
 20
279.5871090623332
 30
0.0
 11
520.5834310346366
 21
279.5871090623332
 31
0.0
  0
ARC
  5
F6B
330
2
100
AcDbEntity
  8
0
100
AcDbCircle
 10
530.9873875944471
 20
240.8063177503718
 30
0.0
 40
40.0
100
AcDbArc
 50
83.82300359510784
 51
103.3676742026266
  0
ARC
  5
F6C
330
2
100
AcDbEntity
  8
0
100
AcDbCircle
 10
520.5834310346366
 20
284.5871090623341
 30
0.0
 40
5.0
100
AcDbArc
 50
270.0
 51
283.3676742026265
  0
ARC
  5
F6D
330
2
100
AcDbEntity
  8
0
100
AcDbCircle
 10
553.5834310346366
 20
449.5871090623336
 30
0.0
 40
170.0
100
AcDbArc
 50
263.8230035951078
 51
276.176996404892
  0
ARC
  5
F6E
330
2
100
AcDbEntity
  8
0
100
AcDbCircle
 10
576.1794744748262
 20
240.8063177503718
 30
0.0
 40
40.0
100
AcDbArc
 50
76.63232579737331
 51
96.17699640483721
  0
ARC
  5
F6F
330
2
100
AcDbEntity
  8
0
100
AcDbCircle
 10
586.5834310346366
 20
284.5871090623337
 30
0.0
 40
5.0
100
AcDbArc
 50
256.632325797373
 51
270.0
  0
LINE
  5
F70
330
2
100
AcDbEntity
  8
0
100
AcDbLine
 10
586.5834310346366
 20
279.5871090623332
 30
0.0
 11
589.5834310346375
 21
279.5871090623332
 31
0.0
  0
ARC
  5
F71
330
2
100
AcDbEntity
  8
0
100
AcDbCircle
 10
586.5834310346366
 20
356.5871090623327
 30
0.0
 40
5.0
100
AcDbArc
 50
90.0
 51
103.3676742026266
  0
LINE
  5
F72
330
2
100
AcDbEntity
  8
0
100
AcDbLine
 10
586.5834310346366
 20
361.5871090623332
 30
0.0
 11
589.5834310346366
 21
361.5871090623332
 31
0.0
  0
LINE
  5
F73
330
2
100
AcDbEntity
  8
0
100
AcDbLine
 10
593.998175719635
 20
552.4843765884598
 30
0.0
 11
594.3734310346384
 21
595.4843765884611
 31
0.0
  0
ARC
  5
F74
330
2
100
AcDbEntity
  8
0
100
AcDbCircle
 10
597.3255474969468
 20
589.9843765884611
 30
0.0
 40
3.0
100
AcDbArc
 50
90.0
 51
179.5000000000084
  0
ARC
  5
F75
330
2
100
AcDbEntity
  8
0
100
AcDbCircle
 10
597.1204661038631
 20
566.4843765884611
 30
0.0
 40
3.0
100
AcDbArc
 50
90.0
 51
179.5000000000084
  0
ARC
  5
F76
330
2
100
AcDbEntity
  8
0
100
AcDbCircle
 10
597.0681048971186
 20
560.4843765884611
 30
0.0
 40
3.0
100
AcDbArc
 50
90.0
 51
179.5000000000084
  0
LINE
  5
F77
330
2
100
AcDbEntity
  8
0
100
AcDbLine
 10
594.1683496415784
 20
618.9843765857967
 30
0.0
 11
594.6683496415784
 21
618.4843765857968
 31
0.0
  0
LINE
  5
F78
330
2
100
AcDbEntity
  8
0
100
AcDbLine
 10
112.3624655455281
 20
346.587109062214
 30
0.0
 11
121.8624655455299
 21
346.587109062214
 31
0.0
  0
ARC
  5
F79
330
2
100
AcDbEntity
  8
0
100
AcDbCircle
 10
105.3624655455299
 20
351.5871090622141
 30
0.0
 40
2.0
100
AcDbArc
 50
0.0
 51
90.0
  0
ARC
  5
F7A
330
2
100
AcDbEntity
  8
0
100
AcDbCircle
 10
105.3624655455299
 20
289.5871090624483
 30
0.0
 40
2.0
100
AcDbArc
 50
270.0
 51
0.0
  0
LINE
  5
F7B
330
2
100
AcDbEntity
  8
0
100
AcDbLine
 10
112.3624655455245
 20
294.5871090624487
 30
0.0
 11
121.8624655455299
 21
294.5871090624487
 31
0.0
  0
LINE
  5
F7C
330
2
100
AcDbEntity
  8
0
100
AcDbLine
 10
126.3624655455308
 20
308.4627534093497
 30
0.0
 11
126.3624655455299
 21
332.7114647153139
 31
0.0
  0
LINE
  5
F7D
330
2
100
AcDbEntity
  8
0
100
AcDbLine
 10
107.3624655455254
 20
308.4627534093497
 30
0.0
 11
126.8624655455308
 21
308.4627534093497
 31
0.0
  0
LINE
  5
F7E
330
2
100
AcDbEntity
  8
0
100
AcDbLine
 10
107.3624655455281
 20
332.7114647153139
 30
0.0
 11
126.8624655455299
 21
332.7114647153139
 31
0.0
  0
LINE
  5
F7F
330
2
100
AcDbEntity
  8
0
100
AcDbLine
 10
609.0834310346503
 20
346.5871090622145
 30
0.0
 11
599.5834310346403
 21
346.587109062215
 31
0.0
  0
ARC
  5
F80
330
2
100
AcDbEntity
  8
0
100
AcDbCircle
 10
616.0834310346439
 20
351.5871090622149
 30
0.0
 40
2.0
100
AcDbArc
 50
90.0
 51
180.0
  0
LINE
  5
F81
330
2
100
AcDbEntity
  8
0
100
AcDbLine
 10
614.0834310346484
 20
351.5871090622154
 30
0.0
 11
614.0834310346475
 21
289.5871090624496
 31
0.0
  0
LINE
  5
F82
330
2
100
AcDbEntity
  8
0
100
AcDbLine
 10
609.0834310346484
 20
294.5871090624496
 30
0.0
 11
599.5834310346403
 21
294.5871090624496
 31
0.0
  0
ARC
  5
F83
330
2
100
AcDbEntity
  8
0
100
AcDbCircle
 10
616.0834310346439
 20
289.5871090624496
 30
0.0
 40
2.0
100
AcDbArc
 50
180.0
 51
270.0
  0
LINE
  5
F84
330
2
100
AcDbEntity
  8
0
100
AcDbLine
 10
597.5834310346402
 20
323.0871090623318
 30
0.0
 11
611.0834310346485
 21
323.0871090623318
 31
0.0
  0
LINE
  5
F85
330
2
100
AcDbEntity
  8
0
100
AcDbLine
 10
597.5834310346402
 20
318.0871090623323
 30
0.0
 11
611.0834310346476
 21
318.0871090623318
 31
0.0
  0
ARC
  5
F86
330
2
100
AcDbEntity
  8
0
100
AcDbCircle
 10
112.3624655455245
 20
289.5871090624487
 30
0.0
 40
5.0
100
AcDbArc
 50
90.0
 51
180.0
  0
ARC
  5
F87
330
2
100
AcDbEntity
  8
0
100
AcDbCircle
 10
112.3624655455281
 20
351.5871090622141
 30
0.0
 40
5.0
100
AcDbArc
 50
180.0
 51
270.0
  0
ARC
  5
F88
330
2
100
AcDbEntity
  8
0
100
AcDbCircle
 10
121.8624655455299
 20
351.5871090622141
 30
0.0
 40
5.0
100
AcDbArc
 50
270.0
 51
0.0
  0
ARC
  5
F89
330
2
100
AcDbEntity
  8
0
100
AcDbCircle
 10
121.8624655455299
 20
289.5871090624487
 30
0.0
 40
5.0
100
AcDbArc
 50
0.0
 51
90.0
  0
ARC
  5
F8A
330
2
100
AcDbEntity
  8
0
100
AcDbCircle
 10
609.0834310346503
 20
351.5871090622145
 30
0.0
 40
5.0
100
AcDbArc
 50
270.0
 51
0.0
  0
ARC
  5
F8B
330
2
100
AcDbEntity
  8
0
100
AcDbCircle
 10
599.5834310346403
 20
351.5871090622149
 30
0.0
 40
5.0
100
AcDbArc
 50
180.0
 51
270.0
  0
ARC
  5
F8C
330
2
100
AcDbEntity
  8
0
100
AcDbCircle
 10
609.0834310346484
 20
289.5871090624496
 30
0.0
 40
5.0
100
AcDbArc
 50
0.0
 51
90.0
  0
ARC
  5
F8D
330
2
100
AcDbEntity
  8
0
100
AcDbCircle
 10
599.5834310346403
 20
289.5871090624496
 30
0.0
 40
5.0
100
AcDbArc
 50
90.0
 51
180.0
  0
ARC
  5
F8E
330
2
100
AcDbEntity
  8
0
100
AcDbCircle
 10
611.0834310346485
 20
326.0871090623318
 30
0.0
 40
3.0
100
AcDbArc
 50
270.0
 51
0.0
  0
ARC
  5
F8F
330
2
100
AcDbEntity
  8
0
100
AcDbCircle
 10
597.5834310346402
 20
326.0871090623318
 30
0.0
 40
3.0
100
AcDbArc
 50
180.0
 51
270.0
  0
ARC
  5
F90
330
2
100
AcDbEntity
  8
0
100
AcDbCircle
 10
611.0834310346476
 20
315.0871090623319
 30
0.0
 40
3.0
100
AcDbArc
 50
0.0
 51
90.0
  0
ARC
  5
F91
330
2
100
AcDbEntity
  8
0
100
AcDbCircle
 10
597.5834310346402
 20
315.0871090623323
 30
0.0
 40
3.0
100
AcDbArc
 50
90.0
 51
180.0
  0
LINE
  5
F92
330
2
100
AcDbEntity
  8
0
100
AcDbLine
 10
866.3514670445168
 20
348.9736749612821
 30
0.0
 11
857.2118690577076
 21
348.6545131667381
 31
0.0
  0
ARC
  5
F93
330
2
100
AcDbEntity
  8
0
100
AcDbCircle
 10
866.2816680511117
 20
350.97245661532
 30
0.0
 40
2.0
100
AcDbArc
 50
272.000000000004
 51
0.0
  0
LINE
  5
F94
330
2
100
AcDbEntity
  8
0
100
AcDbLine
 10
855.2816680511135
 20
346.6557315126993
 30
0.0
 11
855.2816680511117
 21
294.5184866119289
 31
0.0
  0
ARC
  5
F95
330
2
100
AcDbEntity
  8
0
100
AcDbCircle
 10
857.2816680511117
 20
346.6557315126993
 30
0.0
 40
2.0
100
AcDbArc
 50
92.00000000000406
 51
180.0
  0
ARC
  5
F96
330
2
100
AcDbEntity
  8
0
100
AcDbCircle
 10
857.2816680511117
 20
294.5184866119289
 30
0.0
 40
2.0
100
AcDbArc
 50
180.0
 51
267.9999999999959
  0
LINE
  5
F97
330
2
100
AcDbEntity
  8
0
100
AcDbLine
 10
866.3514670445168
 20
292.2005431633452
 30
0.0
 11
857.2118690577067
 21
292.5197049578901
 31
0.0
  0
ARC
  5
F98
330
2
100
AcDbEntity
  8
0
100
AcDbCircle
 10
866.2816680511117
 20
290.2017615093064
 30
0.0
 40
2.0
100
AcDbArc
 50
0.0
 51
87.99999999999595
  0
LINE
  5
F99
330
2
100
AcDbEntity
  8
0
100
AcDbLine
 10
525.1968651356704
 20
545.5541755818658
 30
0.0
 11
525.5160269302145
 21
536.4145775950564
 31
0.0
  0
ARC
  5
F9A
330
2
100
AcDbEntity
  8
0
100
AcDbCircle
 10
523.1980834816325
 20
545.4843765884606
 30
0.0
 40
2.0
100
AcDbArc
 50
2.000000000003654
 51
90.0
  0
LINE
  5
F9B
330
2
100
AcDbEntity
  8
0
100
AcDbLine
 10
527.5148085842532
 20
534.4843765884633
 30
0.0
 11
579.6520534850237
 21
534.4843765884607
 31
0.0
  0
ARC
  5
F9C
330
2
100
AcDbEntity
  8
0
100
AcDbCircle
 10
527.5148085842532
 20
536.4843765884611
 30
0.0
 40
2.0
100
AcDbArc
 50
182.0000000000036
 51
270.0
  0
ARC
  5
F9D
330
2
100
AcDbEntity
  8
0
100
AcDbCircle
 10
579.6520534850237
 20
536.4843765884606
 30
0.0
 40
2.0
100
AcDbArc
 50
270.0
 51
357.9999999999963
  0
LINE
  5
F9E
330
2
100
AcDbEntity
  8
0
100
AcDbLine
 10
581.9699969336073
 20
545.5541755818658
 30
0.0
 11
581.6508351390624
 21
536.414577595056
 31
0.0
  0
ARC
  5
F9F
330
2
100
AcDbEntity
  8
0
100
AcDbCircle
 10
583.9687785876462
 20
545.4843765884606
 30
0.0
 40
2.0
100
AcDbArc
 50
90.0
 51
177.9999999999963
  0
LINE
  5
FA0
330
2
100
AcDbEntity
  8
0
100
AcDbLine
 10
628.5317447764803
 20
636.4843765884611
 30
0.0
 11
638.5834310302692
 21
636.4843765884611
 31
0.0
  0
LINE
  5
FA1
330
2
100
AcDbEntity
  8
0
100
AcDbLine
 10
628.5317447764803
 20
554.4843765884611
 30
0.0
 11
638.5834310302692
 21
554.4843765884611
 31
0.0
  0
ARC
  5
FA2
330
2
100
AcDbEntity
  8
0
100
AcDbCircle
 10
628.5317447764803
 20
634.4843765884611
 30
0.0
 40
2.0
100
AcDbArc
 50
90.0
 51
178.5000000000102
  0
LINE
  5
FA3
330
2
100
AcDbEntity
  8
0
100
AcDbLine
 10
626.5324301265303
 20
634.5367304850765
 30
0.0
 11
625.5098082503358
 21
595.4843765884611
 31
0.0
  0
ARC
  5
FA4
330
2
100
AcDbEntity
  8
0
100
AcDbCircle
 10
628.5317447764803
 20
556.4843765884611
 30
0.0
 40
2.0
100
AcDbArc
 50
181.4999999999897
 51
270.0
  0
LINE
  5
FA5
330
2
100
AcDbEntity
  8
0
100
AcDbLine
 10
626.5324301265303
 20
556.4320226918457
 30
0.0
 11
625.5098082503349
 21
595.4843765884611
 31
0.0
  0
LINE
  5
FA6
330
2
100
AcDbEntity
  8
0
100
AcDbLine
 10
616.0317447764803
 20
562.4843765884611
 30
0.0
 11
621.5031593074776
 21
562.4843765884611
 31
0.0
  0
ARC
  5
FA7
330
2
100
AcDbEntity
  8
0
100
AcDbCircle
 10
621.5031593074767
 20
633.4843765884611
 30
0.0
 40
5.0
100
AcDbArc
 50
270.0
 51
358.5000000000103
  0
ARC
  5
FA8
330
2
100
AcDbEntity
  8
0
100
AcDbCircle
 10
621.5031593074776
 20
557.4843765884611
 30
0.0
 40
5.0
100
AcDbArc
 50
1.499999999989693
 51
90.0
  0
ARC
  5
FA9
330
2
100
AcDbEntity
  8
0
100
AcDbCircle
 10
616.0317447764803
 20
626.4843765884611
 30
0.0
 40
2.0
100
AcDbArc
 50
90.0
 51
178.4999999999842
  0
LINE
  5
FAA
330
2
100
AcDbEntity
  8
0
100
AcDbLine
 10
614.0324301265295
 20
564.4320226918453
 30
0.0
 11
613.2192956229822
 21
595.4843765884611
 31
0.0
  0
ARC
  5
FAB
330
2
100
AcDbEntity
  8
0
100
AcDbCircle
 10
616.0317447764803
 20
564.4843765884611
 30
0.0
 40
2.0
100
AcDbArc
 50
181.5000000000418
 51
270.0
  0
LINE
  5
FAC
330
2
100
AcDbEntity
  8
0
100
AcDbLine
 10
616.0317447764803
 20
628.4843765884611
 30
0.0
 11
621.5031593074767
 21
628.4843765884611
 31
0.0
  0
LINE
  5
FAD
330
2
100
AcDbEntity
  8
0
100
AcDbLine
 10
614.0324301265295
 20
626.5367304850769
 30
0.0
 11
613.2192956228613
 21
595.4843765884611
 31
0.0
  0
LINE
  5
FAE
330
2
100
AcDbEntity
  8
0
100
AcDbLine
 10
597.1204661038631
 20
569.4843765884611
 30
0.0
 11
609.0293452290446
 21
569.4843765884611
 31
0.0
  0
ARC
  5
FAF
330
2
100
AcDbEntity
  8
0
100
AcDbCircle
 10
608.9507874643372
 20
623.4843765884611
 30
0.0
 40
5.0
100
AcDbArc
 50
270.0
 51
358.4999999999842
  0
ARC
  5
FB0
330
2
100
AcDbEntity
  8
0
100
AcDbCircle
 10
609.0293452290446
 20
564.4843765884611
 30
0.0
 40
5.0
100
AcDbArc
 50
1.50000000001575
 51
90.0
  0
LINE
  5
FB1
330
2
100
AcDbEntity
  8
0
100
AcDbLine
 10
597.0681048971186
 20
563.4843765884611
 30
0.0
 11
613.0317447764804
 21
563.4843765884611
 31
0.0
  0
ARC
  5
FB2
330
2
100
AcDbEntity
  8
0
100
AcDbCircle
 10
613.0317447764804
 20
560.4843765884611
 30
0.0
 40
3.0
100
AcDbArc
 50
53.13010235412992
 51
90.0
  0
LINE
  5
FB3
330
2
100
AcDbEntity
  8
0
100
AcDbLine
 10
586.5965239954924
 20
618.9843765857967
 30
0.0
 11
587.1863926982435
 21
596.4581996401534
 31
0.0
  0
ARC
  5
FB4
330
2
100
AcDbEntity
  8
0
100
AcDbCircle
 10
588.1860500232191
 20
596.4843765884611
 30
0.0
 40
1.0
100
AcDbArc
 50
181.4999999999897
 51
270.0
  0
LINE
  5
FB5
330
2
100
AcDbEntity
  8
0
100
AcDbLine
 10
597.3255474969468
 20
597.9843765884607
 30
0.0
 11
610.3622898140177
 21
597.9843765884611
 31
0.0
  0
LINE
  5
FB6
330
2
100
AcDbEntity
  8
0
100
AcDbLine
 10
597.3255474969468
 20
592.9843765884611
 30
0.0
 11
610.3622898141169
 21
592.9843765884611
 31
0.0
  0
ARC
  5
FB7
330
2
100
AcDbEntity
  8
0
100
AcDbCircle
 10
610.3622898140177
 20
600.9843765884611
 30
0.0
 40
3.0
100
AcDbArc
 50
270.0
 51
358.5000000000103
  0
ARC
  5
FB8
330
2
100
AcDbEntity
  8
0
100
AcDbCircle
 10
610.3622898141169
 20
589.9843765884611
 30
0.0
 40
3.0
100
AcDbArc
 50
1.499999999781174
 51
90.0
  0
LINE
  5
FB9
330
2
100
AcDbEntity
  8
0
100
AcDbLine
 10
535.291395868698
 20
618.4843765884611
 30
0.0
 11
535.291395868698
 21
553.984357549993
 31
0.0
  0
LINE
  5
FBA
330
2
100
AcDbEntity
  8
0
100
AcDbLine
 10
520.5834310346394
 20
618.4843765884611
 30
0.0
 11
520.5834310346394
 21
553.984357549993
 31
0.0
  0
LINE
  5
FBB
330
2
100
AcDbEntity
  8
0
100
AcDbLine
 10
517.5834310346375
 20
618.4843765884611
 30
0.0
 11
517.5834310346375
 21
553.984357549993
 31
0.0
  0
LINE
  5
FBC
330
2
100
AcDbEntity
  8
0
100
AcDbLine
 10
571.8754662005789
 20
618.4843765884611
 30
0.0
 11
571.8754662005789
 21
553.984357549993
 31
0.0
  0
LINE
  5
FBD
330
2
100
AcDbEntity
  8
0
100
AcDbLine
 10
586.5834310346375
 20
595.4843765884611
 30
0.0
 11
586.5834310346375
 21
553.984357549993
 31
0.0
  0
LINE
  5
FBE
330
2
100
AcDbEntity
  8
0
100
AcDbLine
 10
589.3739863738122
 20
618.9843765884611
 30
0.0
 11
589.3739863738122
 21
553.984357549993
 31
0.0
  0
LINE
  5
FBF
330
2
100
AcDbEntity
  8
0
100
AcDbLine
 10
588.1860500232191
 20
595.4843765884611
 30
0.0
 11
594.3734310346384
 21
595.4843765884611
 31
0.0
  0
LINE
  5
FC0
330
2
100
AcDbEntity
  8
0
100
AcDbLine
 10
625.5098082503358
 20
595.4843765884611
 30
0.0
 11
638.5834310302692
 21
595.4843765884611
 31
0.0
  0
LINE
  5
FC1
330
2
100
AcDbEntity
  8
0
100
AcDbLine
 10
957.2816680511136
 20
356.6477128834149
 30
0.0
 11
957.2816680511136
 21
284.5265052412551
 31
0.0
  0
LINE
  5
FC2
330
2
100
AcDbEntity
  8
0
100
AcDbLine
 10
875.2816680511136
 20
356.6477128834131
 30
0.0
 11
875.2816680511136
 21
284.5265052412569
 31
0.0
  0
LINE
  5
FC3
330
2
100
AcDbEntity
  8
0
100
AcDbLine
 10
952.342639127198
 20
279.5268770022876
 30
0.0
 11
916.2816680511136
 21
279.087109062335
 31
0.0
  0
LINE
  5
FC4
330
2
100
AcDbEntity
  8
0
100
AcDbLine
 10
880.2206969750281
 20
279.5268770022894
 30
0.0
 11
916.2816680511125
 21
279.087109062335
 31
0.0
  0
LINE
  5
FC5
330
2
100
AcDbEntity
  8
0
100
AcDbLine
 10
880.2206969750281
 20
361.6473411223806
 30
0.0
 11
916.2816680511125
 21
362.0871090623341
 31
0.0
  0
ARC
  5
FC6
330
2
100
AcDbEntity
  8
0
100
AcDbCircle
 10
952.2816680511136
 20
356.6477128834149
 30
0.0
 40
5.0
100
AcDbArc
 50
0.0
 51
89.30130561700025
  0
ARC
  5
FC7
330
2
100
AcDbEntity
  8
0
100
AcDbCircle
 10
880.2816680511135
 20
356.6477128834131
 30
0.0
 40
5.0
100
AcDbArc
 50
90.69869438299972
 51
180.0
  0
ARC
  5
FC8
330
2
100
AcDbEntity
  8
0
100
AcDbCircle
 10
880.2816680511135
 20
284.5265052412569
 30
0.0
 40
5.0
100
AcDbArc
 50
180.0
 51
269.3013056170002
  0
ARC
  5
FC9
330
2
100
AcDbEntity
  8
0
100
AcDbCircle
 10
952.2816680511136
 20
284.5265052412551
 30
0.0
 40
5.0
100
AcDbArc
 50
270.6986943829997
 51
0.0
  0
LINE
  5
FCA
330
2
100
AcDbEntity
  8
0
100
AcDbLine
 10
952.342639127198
 20
361.6473411223824
 30
0.0
 11
916.2816680511136
 21
362.0871090623341
 31
0.0
  0
LINE
  5
FCB
330
2
100
AcDbEntity
  8
0
100
AcDbLine
 10
877.8975185627663
 20
280.1315272871352
 30
0.0
 11
873.281668051109
 21
280.1718092042884
 31
0.0
  0
LINE
  5
FCC
330
2
100
AcDbEntity
  8
0
100
AcDbLine
 10
877.8975185627208
 20
361.0426908375093
 30
0.0
 11
873.2816680511108
 21
361.0024089203526
 31
0.0
  0
LINE
  5
FCD
330
2
100
AcDbEntity
  8
0
100
AcDbLine
 10
123.8624655455299
 20
288.5871090623268
 30
0.0
 11
108.3624655455308
 21
288.5871090623268
 31
0.0
  0
ARC
  5
FCE
330
2
100
AcDbEntity
  8
0
100
AcDbCircle
 10
108.3624655455308
 20
285.5871090623269
 30
0.0
 40
3.0
100
AcDbArc
 50
90.0
 51
126.86989764587
  0
ARC
  5
FCF
330
2
100
AcDbEntity
  8
0
100
AcDbCircle
 10
123.8624655455299
 20
285.5871090623269
 30
0.0
 40
3.0
100
AcDbArc
 50
0.0
 51
90.0
  0
LINE
  5
FD0
330
2
100
AcDbEntity
  8
0
100
AcDbLine
 10
123.8624655455299
 20
352.5871090623368
 30
0.0
 11
108.3624655455308
 21
352.5871090623368
 31
0.0
  0
ARC
  5
FD1
330
2
100
AcDbEntity
  8
0
100
AcDbCircle
 10
123.8624655455299
 20
355.5871090623369
 30
0.0
 40
3.0
100
AcDbArc
 50
270.0
 51
0.0
  0
ARC
  5
FD2
330
2
100
AcDbEntity
  8
0
100
AcDbCircle
 10
108.3624655455308
 20
355.5871090623369
 30
0.0
 40
3.0
100
AcDbArc
 50
233.1301023541299
 51
270.0
  0
LINE
  5
FD3
330
2
100
AcDbEntity
  8
0
100
AcDbLine
 10
597.5834310346402
 20
288.58710906233
 30
0.0
 11
613.0834310346394
 21
288.58710906233
 31
0.0
  0
ARC
  5
FD4
330
2
100
AcDbEntity
  8
0
100
AcDbCircle
 10
597.5834310346402
 20
285.58710906233
 30
0.0
 40
3.0
100
AcDbArc
 50
90.0
 51
180.0
  0
ARC
  5
FD5
330
2
100
AcDbEntity
  8
0
100
AcDbCircle
 10
613.0834310346394
 20
285.58710906233
 30
0.0
 40
3.0
100
AcDbArc
 50
53.13010235412992
 51
90.0
  0
LINE
  5
FD6
330
2
100
AcDbEntity
  8
0
100
AcDbLine
 10
597.5834310346402
 20
352.5871090623396
 30
0.0
 11
613.0834310346394
 21
352.5871090623396
 31
0.0
  0
ARC
  5
FD7
330
2
100
AcDbEntity
  8
0
100
AcDbCircle
 10
597.5834310346402
 20
355.58710906234
 30
0.0
 40
3.0
100
AcDbArc
 50
180.0
 51
270.0
  0
ARC
  5
FD8
330
2
100
AcDbEntity
  8
0
100
AcDbCircle
 10
613.0834310346394
 20
355.58710906234
 30
0.0
 40
3.0
100
AcDbArc
 50
270.0
 51
306.86989764587
  0
LINE
  5
FD9
330
2
100
AcDbEntity
  8
0
100
AcDbLine
 10
550.3809469501232
 20
286.4139826847313
 30
0.0
 11
551.6409474931991
 21
286.4139826847313
 31
0.0
  0
LINE
  5
FDA
330
2
100
AcDbEntity
  8
0
100
AcDbLine
 10
552.1309469501169
 20
289.9139826847191
 30
0.0
 11
550.3809469501232
 21
286.4139826847313
 31
0.0
  0
ARC
  5
FDB
330
2
100
AcDbEntity
  8
0
100
AcDbCircle
 10
555.0359151176065
 20
288.7239826847235
 30
0.0
 40
1.189999999995825
100
AcDbArc
 50
307.5189678667999
 51
90.0
  0
LINE
  5
FDC
330
2
100
AcDbEntity
  8
0
100
AcDbLine
 10
555.7606537212044
 20
287.7801320840213
 30
0.0
 11
556.6299963561363
 21
286.4139826847313
 31
0.0
  0
LINE
  5
FDD
330
2
100
AcDbEntity
  8
0
100
AcDbLine
 10
555.3699958130604
 20
286.4139826847313
 30
0.0
 11
556.6299963561363
 21
286.4139826847313
 31
0.0
  0
LINE
  5
FDE
330
2
100
AcDbEntity
  8
0
100
AcDbLine
 10
552.7959469501142
 20
286.4139826847313
 30
0.0
 11
553.8459151176105
 21
286.4139826847313
 31
0.0
  0
LINE
  5
FDF
330
2
100
AcDbEntity
  8
0
100
AcDbLine
 10
551.9034474931981
 20
286.9389826847296
 30
0.0
 11
551.6409474931991
 21
286.4139826847313
 31
0.0
  0
LINE
  5
FE0
330
2
100
AcDbEntity
  8
0
100
AcDbLine
 10
551.9034474931981
 20
286.9389826847296
 30
0.0
 11
552.7959469501142
 21
286.9389826847296
 31
0.0
  0
LINE
  5
FE1
330
2
100
AcDbEntity
  8
0
100
AcDbLine
 10
552.7959469501142
 20
286.9389826847296
 30
0.0
 11
552.7959469501142
 21
286.4139826847313
 31
0.0
  0
LINE
  5
FE2
330
2
100
AcDbEntity
  8
0
100
AcDbLine
 10
552.4634474931966
 20
288.0589826847254
 30
0.0
 11
552.7959469501142
 21
288.0589826847254
 31
0.0
  0
LINE
  5
FE3
330
2
100
AcDbEntity
  8
0
100
AcDbLine
 10
552.7959469501142
 20
288.7239815985613
 30
0.0
 11
552.7959469501142
 21
288.0589826847254
 31
0.0
  0
LINE
  5
FE4
330
2
100
AcDbEntity
  8
0
100
AcDbLine
 10
552.7959469501142
 20
288.7239815985613
 30
0.0
 11
552.4634474931966
 21
288.0589826847254
 31
0.0
  0
LINE
  5
FE5
330
2
100
AcDbEntity
  8
0
100
AcDbLine
 10
553.9946969501101
 20
288.5752326847237
 30
0.0
 11
555.3699958130604
 21
286.4139826847313
 31
0.0
  0
LINE
  5
FE6
330
2
100
AcDbEntity
  8
0
100
AcDbLine
 10
553.8459151176105
 20
288.7239826847235
 30
0.0
 11
553.8459151176105
 21
286.4139826847313
 31
0.0
  0
LINE
  5
FE7
330
2
100
AcDbEntity
  8
0
100
AcDbLine
 10
553.8459151176105
 20
288.7239826847235
 30
0.0
 11
554.9615719501065
 21
288.7239826847235
 31
0.0
  0
LINE
  5
FE8
330
2
100
AcDbEntity
  8
0
100
AcDbLine
 10
553.9946969501101
 20
288.5752326847237
 30
0.0
 11
554.9615719501065
 21
288.5752326847237
 31
0.0
  0
ARC
  5
FE9
330
2
100
AcDbEntity
  8
0
100
AcDbCircle
 10
554.9615719501065
 20
288.6496076847234
 30
0.0
 40
0.0743749999997391
100
AcDbArc
 50
270.0
 51
90.0
  0
LINE
  5
FEA
330
2
100
AcDbEntity
  8
0
100
AcDbLine
 10
552.1309469501169
 20
289.9139826847191
 30
0.0
 11
555.0359151176065
 21
289.9139826847191
 31
0.0
  0
LINE
  5
FEB
330
2
100
AcDbEntity
  8
0
100
AcDbLine
 10
518.5834310346384
 20
552.4843765884611
 30
0.0
 11
518.5834310346384
 21
547.4843765884611
 31
0.0
  0
LINE
  5
FEC
330
2
100
AcDbEntity
  8
0
100
AcDbLine
 10
588.5834310346385
 20
552.4843765884611
 30
0.0
 11
588.5834310346385
 21
547.4843765884611
 31
0.0
  0
LINE
  5
FED
330
2
100
AcDbEntity
  8
0
100
AcDbLine
 10
873.2816680511117
 20
355.5871090623141
 30
0.0
 11
868.2816680511118
 21
355.5871090623141
 31
0.0
  0
LINE
  5
FEE
330
2
100
AcDbEntity
  8
0
100
AcDbLine
 10
873.2816680511117
 20
285.5871090623141
 30
0.0
 11
868.2816680511118
 21
285.5871090623141
 31
0.0
  0
LINE
  5
FEF
330
2
100
AcDbEntity
  8
0
100
AcDbLine
 10
92.86246554553178
 20
279.0871090623314
 30
0.0
 11
82.86246554553008
 21
279.0871090623314
 31
0.0
  0
ARC
  5
FF0
330
2
100
AcDbEntity
  8
0
100
AcDbCircle
 10
92.86246554553178
 20
281.0871090623314
 30
0.0
 40
2.0
100
AcDbArc
 50
270.0
 51
0.0
  0
LINE
  5
FF1
330
2
100
AcDbEntity
  8
0
100
AcDbLine
 10
82.86246554553008
 20
362.0871090623314
 30
0.0
 11
92.86246554552997
 21
362.0871090623314
 31
0.0
  0
ARC
  5
FF2
330
2
100
AcDbEntity
  8
0
100
AcDbCircle
 10
92.86246554552997
 20
360.0871090623314
 30
0.0
 40
2.0
100
AcDbArc
 50
0.0
 51
90.0
  0
LINE
  5
FF3
330
2
100
AcDbEntity
  8
0
100
AcDbLine
 10
628.5834310346384
 20
362.0871090623314
 30
0.0
 11
638.5834310346385
 21
362.0871090623314
 31
0.0
  0
ARC
  5
FF4
330
2
100
AcDbEntity
  8
0
100
AcDbCircle
 10
628.5834310346384
 20
360.0871090623314
 30
0.0
 40
2.0
100
AcDbArc
 50
90.0
 51
180.0
  0
LINE
  5
FF5
330
2
100
AcDbEntity
  8
0
100
AcDbLine
 10
638.5834310346385
 20
279.0871090623314
 30
0.0
 11
628.5834310346412
 21
279.0871090623314
 31
0.0
  0
ARC
  5
FF6
330
2
100
AcDbEntity
  8
0
100
AcDbCircle
 10
628.5834310346412
 20
281.0871090623314
 30
0.0
 40
2.0
100
AcDbArc
 50
180.0
 51
270.0
  0
LINE
  5
FF7
330
2
100
AcDbEntity
  8
CENTER
100
AcDbLine
 10
553.5834310346457
 20
379.5871090623314
 30
0.0
 11
553.5834310346457
 21
261.5871090623323
 31
0.0
  0
LINE
  5
FF8
330
2
100
AcDbEntity
  8
CENTER
100
AcDbLine
 10
494.5834310346412
 20
320.5871090623277
 30
0.0
 11
691.5834310346384
 21
320.5871090623282
 31
0.0
  0
LINE
  5
FF9
330
2
100
AcDbEntity
  8
CENTER
100
AcDbLine
 10
211.1124655455299
 20
355.0871090623318
 30
0.0
 11
193.6124655455299
 21
355.0871090623318
 31
0.0
  0
LINE
  5
FFA
330
2
100
AcDbEntity
  8
CENTER
100
AcDbLine
 10
202.3624655455299
 20
363.8371090623318
 30
0.0
 11
202.3624655455299
 21
346.3371090623319
 31
0.0
  0
LINE
  5
FFB
330
2
100
AcDbEntity
  8
CENTER
100
AcDbLine
 10
124.6124655455299
 20
355.0871090623318
 30
0.0
 11
142.1124655455299
 21
355.0871090623318
 31
0.0
  0
LINE
  5
FFC
330
2
100
AcDbEntity
  8
CENTER
100
AcDbLine
 10
126.6892604647758
 20
347.0871090623318
 30
0.0
 11
137.0356706262904
 21
347.0871090623318
 31
0.0
  0
CIRCLE
  5
FFD
330
2
100
AcDbEntity
  8
HOJO
100
AcDbCircle
 10
131.8624655455326
 20
347.0871090623318
 30
0.0
 40
2.0
  0
LINE
  5
FFE
330
2
100
AcDbEntity
  8
CENTER
100
AcDbLine
 10
131.8624655455326
 20
352.2603141430891
 30
0.0
 11
131.8624655455326
 21
341.913903981575
 31
0.0
  0
LINE
  5
FFF
330
2
100
AcDbEntity
  8
CENTER
100
AcDbLine
 10
211.1124655455299
 20
286.0871090623319
 30
0.0
 11
193.6124655455299
 21
286.0871090623319
 31
0.0
  0
LINE
  5
1000
330
2
100
AcDbEntity
  8
CENTER
100
AcDbLine
 10
203.8624655455272
 20
288.913903981575
 30
0.0
 11
203.8624655455272
 21
299.2603141430891
 31
0.0
  0
LINE
  5
1001
330
2
100
AcDbEntity
  8
CENTER
100
AcDbLine
 10
209.0356706262849
 20
294.0871090623318
 30
0.0
 11
198.6892604647704
 21
294.0871090623318
 31
0.0
  0
CIRCLE
  5
1002
330
2
100
AcDbEntity
  8
HOJO
100
AcDbCircle
 10
203.8624655455272
 20
294.0871090623318
 30
0.0
 40
2.0
  0
LINE
  5
1003
330
2
100
AcDbEntity
  8
CENTER
100
AcDbLine
 10
124.6124655455299
 20
286.0871090623323
 30
0.0
 11
142.1124655455299
 21
286.0871090623323
 31
0.0
  0
ARC
  5
1004
330
2
100
AcDbEntity
  8
0
100
AcDbCircle
 10
139.3624655455327
 20
338.0490498394606
 30
0.0
 40
5.0
100
AcDbArc
 50
135.0000000000181
 51
180.0
  0
ARC
  5
1005
330
2
100
AcDbEntity
  8
0
100
AcDbCircle
 10
196.3624655455272
 20
338.0490498394606
 30
0.0
 40
5.0
100
AcDbArc
 50
0.0
 51
44.99999999998187
  0
CIRCLE
  5
1006
330
2
100
AcDbEntity
  8
0
100
AcDbCircle
 10
167.8624655455299
 20
320.5871090623318
 30
0.0
 40
23.0
  0
LINE
  5
1007
330
2
100
AcDbEntity
  8
0
100
AcDbLine
 10
127.2724655455298
 20
284.5871090623323
 30
0.0
 11
127.2724655455298
 21
356.5871090623318
 31
0.0
  0
CIRCLE
  5
1008
330
2
100
AcDbEntity
  8
0
100
AcDbCircle
 10
167.8624655455299
 20
320.5871090623318
 30
0.0
 40
29.0
  0
CIRCLE
  5
1009
330
2
100
AcDbEntity
  8
0
100
AcDbCircle
 10
167.8624655455299
 20
320.5871090623318
 30
0.0
 40
26.5
  0
CIRCLE
  5
100A
330
2
100
AcDbEntity
  8
0
100
AcDbCircle
 10
167.8624655455299
 20
320.5871090623318
 30
0.0
 40
28.5
  0
ARC
  5
100B
330
2
100
AcDbEntity
  8
0
100
AcDbCircle
 10
196.3624655455272
 20
338.0490498394602
 30
0.0
 40
8.5
100
AcDbArc
 50
0.0
 51
44.99999999998187
  0
ARC
  5
100C
330
2
100
AcDbEntity
  8
0
100
AcDbCircle
 10
139.3624655455327
 20
338.0490498394606
 30
0.0
 40
8.5
100
AcDbArc
 50
135.0000000000181
 51
180.0
  0
CIRCLE
  5
100D
330
2
100
AcDbEntity
  8
0
100
AcDbCircle
 10
167.8624655455299
 20
320.5871090623318
 30
0.0
 40
23.5774
  0
CIRCLE
  5
100E
330
2
100
AcDbEntity
  8
0
100
AcDbCircle
 10
167.8624655455299
 20
320.5871090623318
 30
0.0
 40
25.9226
  0
LINE
  5
100F
330
2
100
AcDbEntity
  8
0
100
AcDbLine
 10
185.3244063226587
 20
357.5871090623291
 30
0.0
 11
150.400524768402
 21
357.5871090623291
 31
0.0
  0
LINE
  5
1010
330
2
100
AcDbEntity
  8
0
100
AcDbLine
 10
185.3244063226587
 20
354.0871090623291
 30
0.0
 11
150.400524768402
 21
354.0871090623291
 31
0.0
  0
LINE
  5
1011
330
2
100
AcDbEntity
  8
0
100
AcDbLine
 10
204.2154415718727
 20
341.3018590145635
 30
0.0
 11
200.9818632080845
 21
339.9624670012859
 31
0.0
  0
ARC
  5
1012
330
2
100
AcDbEntity
  8
0
100
AcDbCircle
 10
185.3244063226587
 20
349.0871090623291
 30
0.0
 40
8.5
100
AcDbArc
 50
44.99999999998187
 51
90.0
  0
LINE
  5
1013
330
2
100
AcDbEntity
  8
0
100
AcDbLine
 10
188.5772154977624
 20
356.940085088675
 30
0.0
 11
187.237823484484
 21
353.7065067248855
 31
0.0
  0
LINE
  5
1014
330
2
100
AcDbEntity
  8
0
100
AcDbLine
 10
202.372873185613
 20
344.059457479546
 30
0.0
 11
191.3348139627445
 21
355.0975167024148
 31
0.0
  0
LINE
  5
1015
330
2
100
AcDbEntity
  8
0
100
AcDbLine
 10
199.8979994514596
 20
341.5845837453931
 30
0.0
 11
188.8599402285912
 21
352.622642968262
 31
0.0
  0
ARC
  5
1016
330
2
100
AcDbEntity
  8
0
100
AcDbCircle
 10
185.3244063226587
 20
349.0871090623291
 30
0.0
 40
5.0
100
AcDbArc
 50
44.99999999998187
 51
90.0
  0
LINE
  5
1017
330
2
100
AcDbEntity
  8
0
100
AcDbLine
 10
131.5094895191872
 20
341.3018590145639
 30
0.0
 11
134.7430678829763
 21
339.9624670012859
 31
0.0
  0
LINE
  5
1018
330
2
100
AcDbEntity
  8
0
100
AcDbLine
 10
134.8624655455299
 20
361.5871090623318
 30
0.0
 11
132.2724655455298
 21
361.5871090623318
 31
0.0
  0
LINE
  5
1019
330
2
100
AcDbEntity
  8
0
100
AcDbLine
 10
133.3520579054469
 20
344.0594574795464
 30
0.0
 11
144.3901171283163
 21
355.0975167024148
 31
0.0
  0
ARC
  5
101A
330
2
100
AcDbEntity
  8
0
100
AcDbCircle
 10
150.400524768402
 20
349.0871090623291
 30
0.0
 40
8.5
100
AcDbArc
 50
90.0
 51
135.0000000000181
  0
LINE
  5
101B
330
2
100
AcDbEntity
  8
0
100
AcDbLine
 10
147.1477155932983
 20
356.940085088675
 30
0.0
 11
148.4871076065759
 21
353.7065067248855
 31
0.0
  0
LINE
  5
101C
330
2
100
AcDbEntity
  8
0
100
AcDbLine
 10
135.8269316396002
 20
341.5845837453931
 30
0.0
 11
146.8649908624687
 21
352.622642968262
 31
0.0
  0
ARC
  5
101D
330
2
100
AcDbEntity
  8
0
100
AcDbCircle
 10
150.400524768402
 20
349.0871090623291
 30
0.0
 40
5.0
100
AcDbArc
 50
90.0
 51
135.0000000000181
  0
ARC
  5
101E
330
2
100
AcDbEntity
  8
0
100
AcDbCircle
 10
132.2724655455298
 20
356.5871090623318
 30
0.0
 40
5.0
100
AcDbArc
 50
90.0
 51
180.0
  0
CIRCLE
  5
101F
330
2
100
AcDbEntity
  8
0
100
AcDbCircle
 10
131.8624655455326
 20
347.0871090623318
 30
0.0
 40
1.6
  0
LINE
  5
1020
330
2
100
AcDbEntity
  8
0
100
AcDbLine
 10
150.400524768402
 20
283.5871090623346
 30
0.0
 11
185.3244063226587
 21
283.5871090623346
 31
0.0
  0
LINE
  5
1021
330
2
100
AcDbEntity
  8
0
100
AcDbLine
 10
150.400524768402
 20
287.0871090623345
 30
0.0
 11
185.3244063226587
 21
287.0871090623345
 31
0.0
  0
LINE
  5
1022
330
2
100
AcDbEntity
  8
0
100
AcDbLine
 10
204.8624655455272
 20
303.1251682852035
 30
0.0
 11
204.8624655455272
 21
338.0490498394602
 31
0.0
  0
LINE
  5
1023
330
2
100
AcDbEntity
  8
0
100
AcDbLine
 10
201.3624655455272
 20
303.1251682852035
 30
0.0
 11
201.3624655455272
 21
338.0490498394606
 31
0.0
  0
CIRCLE
  5
1024
330
2
100
AcDbEntity
  8
0
100
AcDbCircle
 10
203.8624655455272
 20
294.0871090623318
 30
0.0
 40
1.6
  0
ARC
  5
1025
330
2
100
AcDbEntity
  8
0
100
AcDbCircle
 10
196.3624655455272
 20
303.1251682852035
 30
0.0
 40
8.5
100
AcDbArc
 50
315.0000000000181
 51
0.0
  0
LINE
  5
1026
330
2
100
AcDbEntity
  8
0
100
AcDbLine
 10
204.2154415718727
 20
299.8723591101002
 30
0.0
 11
200.9818632080836
 21
301.2117511233778
 31
0.0
  0
LINE
  5
1027
330
2
100
AcDbEntity
  8
0
100
AcDbLine
 10
202.372873185613
 20
297.1147606451177
 30
0.0
 11
191.3348139627445
 21
286.0767014222492
 31
0.0
  0
LINE
  5
1028
330
2
100
AcDbEntity
  8
0
100
AcDbLine
 10
199.8979994514596
 20
299.5896343792706
 30
0.0
 11
188.8599402285912
 21
288.5515751564017
 31
0.0
  0
ARC
  5
1029
330
2
100
AcDbEntity
  8
0
100
AcDbCircle
 10
196.3624655455272
 20
303.1251682852035
 30
0.0
 40
5.0
100
AcDbArc
 50
315.0000000000181
 51
0.0
  0
ARC
  5
102A
330
2
100
AcDbEntity
  8
0
100
AcDbCircle
 10
185.3244063226587
 20
292.0871090623346
 30
0.0
 40
5.0
100
AcDbArc
 50
270.0
 51
315.0000000000181
  0
ARC
  5
102B
330
2
100
AcDbEntity
  8
0
100
AcDbCircle
 10
185.3244063226587
 20
292.0871090623346
 30
0.0
 40
8.5
100
AcDbArc
 50
270.0
 51
315.0000000000181
  0
LINE
  5
102C
330
2
100
AcDbEntity
  8
0
100
AcDbLine
 10
188.5772154977624
 20
284.2341330359886
 30
0.0
 11
187.237823484484
 21
287.4677113997782
 31
0.0
  0
LINE
  5
102D
330
2
100
AcDbEntity
  8
0
100
AcDbLine
 10
134.8624655455299
 20
279.5871090623323
 30
0.0
 11
132.2724655455298
 21
279.5871090623323
 31
0.0
  0
LINE
  5
102E
330
2
100
AcDbEntity
  8
0
100
AcDbLine
 10
131.5094895191872
 20
299.8723591101002
 30
0.0
 11
134.7430678829763
 21
301.2117511233782
 31
0.0
  0
LINE
  5
102F
330
2
100
AcDbEntity
  8
0
100
AcDbLine
 10
133.3520579054469
 20
297.1147606451182
 30
0.0
 11
144.3901171283163
 21
286.0767014222488
 31
0.0
  0
LINE
  5
1030
330
2
100
AcDbEntity
  8
0
100
AcDbLine
 10
134.3624655455327
 20
338.0490498394606
 30
0.0
 11
134.3624655455327
 21
303.1251682852035
 31
0.0
  0
LINE
  5
1031
330
2
100
AcDbEntity
  8
0
100
AcDbLine
 10
135.8269316396002
 20
299.5896343792711
 30
0.0
 11
146.8649908624687
 21
288.5515751564021
 31
0.0
  0
ARC
  5
1032
330
2
100
AcDbEntity
  8
0
100
AcDbCircle
 10
139.3624655455327
 20
303.1251682852035
 30
0.0
 40
5.0
100
AcDbArc
 50
180.0
 51
224.9999999999818
  0
ARC
  5
1033
330
2
100
AcDbEntity
  8
0
100
AcDbCircle
 10
150.400524768402
 20
292.0871090623346
 30
0.0
 40
8.5
100
AcDbArc
 50
224.9999999999818
 51
270.0
  0
ARC
  5
1034
330
2
100
AcDbEntity
  8
0
100
AcDbCircle
 10
150.400524768402
 20
292.0871090623346
 30
0.0
 40
5.0
100
AcDbArc
 50
224.9999999999818
 51
270.0
  0
LINE
  5
1035
330
2
100
AcDbEntity
  8
0
100
AcDbLine
 10
147.1477155932983
 20
284.2341330359886
 30
0.0
 11
148.4871076065759
 21
287.4677113997782
 31
0.0
  0
LINE
  5
1036
330
2
100
AcDbEntity
  8
0
100
AcDbLine
 10
130.8624655455327
 20
338.0490498394606
 30
0.0
 11
130.8624655455327
 21
303.1251682852035
 31
0.0
  0
ARC
  5
1037
330
2
100
AcDbEntity
  8
0
100
AcDbCircle
 10
139.3624655455327
 20
303.1251682852035
 30
0.0
 40
8.5
100
AcDbArc
 50
180.0
 51
224.9999999999818
  0
ARC
  5
1038
330
2
100
AcDbEntity
  8
0
100
AcDbCircle
 10
132.2724655455298
 20
284.5871090623323
 30
0.0
 40
5.0
100
AcDbArc
 50
180.0
 51
270.0
  0
LINE
  5
1039
330
2
100
AcDbEntity
  8
CENTER
100
AcDbLine
 10
212.3477469197681
 20
365.07239043657
 30
0.0
 11
123.3771841712913
 21
276.1018276880927
 31
0.0
  0
LINE
  5
103A
330
2
100
AcDbEntity
  8
CENTER
100
AcDbLine
 10
133.3624655455299
 20
281.9028663181653
 30
0.0
 11
133.3624655455299
 21
294.8371090623318
 31
0.0
  0
LINE
  5
103B
330
2
100
AcDbEntity
  8
CENTER
100
AcDbLine
 10
133.3624655455299
 20
363.8371090623318
 30
0.0
 11
133.3624655455299
 21
346.3371090623319
 31
0.0
  0
LINE
  5
103C
330
2
100
AcDbEntity
  8
CENTER
100
AcDbLine
 10
133.3624655455299
 20
280.8778135274511
 30
0.0
 11
133.3624655455299
 21
277.4811513850741
 31
0.0
  0
LINE
  5
103D
330
2
100
AcDbEntity
  8
CENTER
100
AcDbLine
 10
202.3624655455299
 20
280.8778135274511
 30
0.0
 11
202.3624655455299
 21
277.4811513850741
 31
0.0
  0
LINE
  5
103E
330
2
100
AcDbEntity
  8
CENTER
100
AcDbLine
 10
202.3624655455299
 20
281.9028663181653
 30
0.0
 11
202.3624655455299
 21
294.8371090623318
 31
0.0
  0
LINE
  5
103F
330
2
100
AcDbEntity
  8
CENTER
100
AcDbLine
 10
123.3771841712917
 20
365.07239043657
 30
0.0
 11
212.3477469197681
 21
276.1018276880927
 31
0.0
  0
CIRCLE
  5
1040
330
2
100
AcDbEntity
  8
0
100
AcDbCircle
 10
202.3624655455299
 20
355.0871090623318
 30
0.0
 40
5.000000000000113
  0
LINE
  5
1041
330
2
100
AcDbEntity
  8
0
100
AcDbLine
 10
204.8624655455299
 20
353.6437333893577
 30
0.0
 11
204.8624655455299
 21
356.5304847353059
 31
0.0
  0
LINE
  5
1042
330
2
100
AcDbEntity
  8
0
100
AcDbLine
 10
199.8624655455299
 20
353.6437333893577
 30
0.0
 11
199.8624655455299
 21
356.5304847353059
 31
0.0
  0
CIRCLE
  5
1043
330
2
100
AcDbEntity
  8
0
100
AcDbCircle
 10
202.3624655455299
 20
355.0871090623318
 30
0.0
 40
4.307179676972509
  0
LINE
  5
1044
330
2
100
AcDbEntity
  8
0
100
AcDbLine
 10
199.8624655455299
 20
353.6437333893577
 30
0.0
 11
202.3624655455299
 21
352.2003577163837
 31
0.0
  0
LINE
  5
1045
330
2
100
AcDbEntity
  8
0
100
AcDbLine
 10
204.8624655455299
 20
353.6437333893577
 30
0.0
 11
202.3624655455299
 21
352.2003577163837
 31
0.0
  0
LINE
  5
1046
330
2
100
AcDbEntity
  8
0
100
AcDbLine
 10
202.3624655455299
 20
357.97386040828
 30
0.0
 11
199.8624655455299
 21
356.5304847353059
 31
0.0
  0
LINE
  5
1047
330
2
100
AcDbEntity
  8
0
100
AcDbLine
 10
202.3624655455299
 20
357.97386040828
 30
0.0
 11
204.8624655455299
 21
356.5304847353059
 31
0.0
  0
CIRCLE
  5
1048
330
2
100
AcDbEntity
  8
0
100
AcDbCircle
 10
202.3624655455299
 20
286.0871090623319
 30
0.0
 40
5.000000000000113
  0
LINE
  5
1049
330
2
100
AcDbEntity
  8
0
100
AcDbLine
 10
204.8624655455299
 20
284.6437333893577
 30
0.0
 11
204.8624655455299
 21
287.5304847353059
 31
0.0
  0
LINE
  5
104A
330
2
100
AcDbEntity
  8
0
100
AcDbLine
 10
199.8624655455299
 20
284.6437333893577
 30
0.0
 11
199.8624655455299
 21
287.5304847353059
 31
0.0
  0
CIRCLE
  5
104B
330
2
100
AcDbEntity
  8
0
100
AcDbCircle
 10
202.3624655455299
 20
286.0871090623319
 30
0.0
 40
4.307179676972509
  0
LINE
  5
104C
330
2
100
AcDbEntity
  8
0
100
AcDbLine
 10
199.8624655455299
 20
284.6437333893577
 30
0.0
 11
202.3624655455299
 21
283.2003577163837
 31
0.0
  0
LINE
  5
104D
330
2
100
AcDbEntity
  8
0
100
AcDbLine
 10
204.8624655455299
 20
284.6437333893577
 30
0.0
 11
202.3624655455299
 21
283.2003577163837
 31
0.0
  0
LINE
  5
104E
330
2
100
AcDbEntity
  8
0
100
AcDbLine
 10
202.3624655455299
 20
288.97386040828
 30
0.0
 11
199.8624655455299
 21
287.5304847353059
 31
0.0
  0
LINE
  5
104F
330
2
100
AcDbEntity
  8
0
100
AcDbLine
 10
202.3624655455299
 20
288.97386040828
 30
0.0
 11
204.8624655455299
 21
287.5304847353059
 31
0.0
  0
CIRCLE
  5
1050
330
2
100
AcDbEntity
  8
0
100
AcDbCircle
 10
133.3624655455299
 20
286.0871090623323
 30
0.0
 40
5.000000000000113
  0
LINE
  5
1051
330
2
100
AcDbEntity
  8
0
100
AcDbLine
 10
135.8624655455299
 20
284.6437333893582
 30
0.0
 11
135.8624655455299
 21
287.5304847353059
 31
0.0
  0
LINE
  5
1052
330
2
100
AcDbEntity
  8
0
100
AcDbLine
 10
130.8624655455308
 20
284.6437333893582
 30
0.0
 11
130.8624655455308
 21
287.5304847353064
 31
0.0
  0
CIRCLE
  5
1053
330
2
100
AcDbEntity
  8
0
100
AcDbCircle
 10
133.3624655455299
 20
286.0871090623323
 30
0.0
 40
4.307179676972509
  0
LINE
  5
1054
330
2
100
AcDbEntity
  8
0
100
AcDbLine
 10
130.8624655455308
 20
284.6437333893582
 30
0.0
 11
133.3624655455308
 21
283.2003577163841
 31
0.0
  0
LINE
  5
1055
330
2
100
AcDbEntity
  8
0
100
AcDbLine
 10
135.8624655455299
 20
284.6437333893582
 30
0.0
 11
133.3624655455308
 21
283.2003577163841
 31
0.0
  0
LINE
  5
1056
330
2
100
AcDbEntity
  8
0
100
AcDbLine
 10
133.3624655455299
 20
288.9738604082804
 30
0.0
 11
130.8624655455308
 21
287.5304847353064
 31
0.0
  0
LINE
  5
1057
330
2
100
AcDbEntity
  8
0
100
AcDbLine
 10
133.3624655455299
 20
288.9738604082804
 30
0.0
 11
135.8624655455299
 21
287.5304847353059
 31
0.0
  0
CIRCLE
  5
1058
330
2
100
AcDbEntity
  8
0
100
AcDbCircle
 10
133.3624655455299
 20
355.0871090623318
 30
0.0
 40
5.000000000000113
  0
LINE
  5
1059
330
2
100
AcDbEntity
  8
0
100
AcDbLine
 10
135.8624655455299
 20
353.6437333893577
 30
0.0
 11
135.8624655455299
 21
356.5304847353059
 31
0.0
  0
LINE
  5
105A
330
2
100
AcDbEntity
  8
0
100
AcDbLine
 10
130.8624655455299
 20
353.6437333893577
 30
0.0
 11
130.8624655455299
 21
356.5304847353059
 31
0.0
  0
CIRCLE
  5
105B
330
2
100
AcDbEntity
  8
0
100
AcDbCircle
 10
133.3624655455299
 20
355.0871090623318
 30
0.0
 40
4.307179676972509
  0
LINE
  5
105C
330
2
100
AcDbEntity
  8
0
100
AcDbLine
 10
130.8624655455299
 20
353.6437333893577
 30
0.0
 11
133.3624655455299
 21
352.2003577163837
 31
0.0
  0
LINE
  5
105D
330
2
100
AcDbEntity
  8
0
100
AcDbLine
 10
135.8624655455299
 20
353.6437333893577
 30
0.0
 11
133.3624655455299
 21
352.2003577163837
 31
0.0
  0
LINE
  5
105E
330
2
100
AcDbEntity
  8
0
100
AcDbLine
 10
133.3624655455299
 20
357.97386040828
 30
0.0
 11
130.8624655455299
 21
356.5304847353059
 31
0.0
  0
LINE
  5
105F
330
2
100
AcDbEntity
  8
0
100
AcDbLine
 10
133.3624655455299
 20
357.97386040828
 30
0.0
 11
135.8624655455299
 21
356.5304847353059
 31
0.0
  0
LINE
  5
1060
330
2
100
AcDbEntity
  8
0
100
AcDbLine
 10
374.6103581729506
 20
280.1718092042797
 30
0.0
 11
374.6103581729524
 21
361.0024089203439
 31
0.0
  0
LINE
  5
1061
330
2
100
AcDbEntity
  8
0
100
AcDbLine
 10
379.6103581729497
 20
285.5871090623182
 30
0.0
 11
379.6103581729497
 21
355.5871090623182
 31
0.0
  0
LINE
  5
1062
330
2
100
AcDbEntity
  8
0
100
AcDbLine
 10
381.5405591795446
 20
292.2005431633502
 30
0.0
 11
390.6801571663539
 21
292.5197049578942
 31
0.0
  0
ARC
  5
1063
330
2
100
AcDbEntity
  8
0
100
AcDbCircle
 10
381.6103581729497
 20
290.2017615093123
 30
0.0
 40
2.0
100
AcDbArc
 50
92.00000000000406
 51
180.0
  0
LINE
  5
1064
330
2
100
AcDbEntity
  8
0
100
AcDbLine
 10
392.6103581729479
 20
294.518486611933
 30
0.0
 11
392.6103581729497
 21
346.6557315127034
 31
0.0
  0
ARC
  5
1065
330
2
100
AcDbEntity
  8
0
100
AcDbCircle
 10
390.6103581729497
 20
294.518486611933
 30
0.0
 40
2.0
100
AcDbArc
 50
272.000000000004
 51
0.0
  0
ARC
  5
1066
330
2
100
AcDbEntity
  8
0
100
AcDbCircle
 10
390.6103581729497
 20
346.6557315127034
 30
0.0
 40
2.0
100
AcDbArc
 50
0.0
 51
87.99999999999595
  0
LINE
  5
1067
330
2
100
AcDbEntity
  8
0
100
AcDbLine
 10
381.5405591795446
 20
348.9736749612871
 30
0.0
 11
390.6801571663549
 21
348.6545131667422
 31
0.0
  0
ARC
  5
1068
330
2
100
AcDbEntity
  8
0
100
AcDbCircle
 10
381.6103581729497
 20
350.9724566153259
 30
0.0
 40
2.0
100
AcDbArc
 50
180.0
 51
267.9999999999959
  0
LINE
  5
1069
330
2
100
AcDbEntity
  8
0
100
AcDbLine
 10
290.6103581729479
 20
284.5265052412174
 30
0.0
 11
290.6103581729479
 21
294.0871090623123
 31
0.0
  0
LINE
  5
106A
330
2
100
AcDbEntity
  8
0
100
AcDbLine
 10
290.6103581729479
 20
347.0871090623136
 30
0.0
 11
290.6103581729479
 21
356.6477128833771
 31
0.0
  0
LINE
  5
106B
330
2
100
AcDbEntity
  8
0
100
AcDbLine
 10
295.5493870968633
 20
361.6473411223446
 30
0.0
 11
331.6103581729479
 21
362.0871090622973
 31
0.0
  0
LINE
  5
106C
330
2
100
AcDbEntity
  8
0
100
AcDbLine
 10
367.6713292490334
 20
361.6473411223428
 30
0.0
 11
331.6103581729488
 21
362.0871090622973
 31
0.0
  0
LINE
  5
106D
330
2
100
AcDbEntity
  8
0
100
AcDbLine
 10
367.6713292490334
 20
279.5268770022517
 30
0.0
 11
331.6103581729488
 21
279.0871090622982
 31
0.0
  0
ARC
  5
106E
330
2
100
AcDbEntity
  8
0
100
AcDbCircle
 10
295.6103581729479
 20
284.5265052412174
 30
0.0
 40
5.0
100
AcDbArc
 50
180.0
 51
269.3013056170002
  0
ARC
  5
106F
330
2
100
AcDbEntity
  8
0
100
AcDbCircle
 10
367.6103581729479
 20
284.5265052412192
 30
0.0
 40
5.0
100
AcDbArc
 50
270.6986943829997
 51
298.478561495585
  0
ARC
  5
1070
330
2
100
AcDbEntity
  8
0
100
AcDbCircle
 10
367.6103581729479
 20
356.6477128833753
 30
0.0
 40
5.0
100
AcDbArc
 50
61.52143850500972
 51
89.30130561700025
  0
ARC
  5
1071
330
2
100
AcDbEntity
  8
0
100
AcDbCircle
 10
295.6103581729479
 20
356.6477128833771
 30
0.0
 40
5.0
100
AcDbArc
 50
90.69869438299972
 51
180.0
  0
LINE
  5
1072
330
2
100
AcDbEntity
  8
0
100
AcDbLine
 10
295.5493870968633
 20
279.5268770022499
 30
0.0
 11
331.6103581729479
 21
279.0871090622982
 31
0.0
  0
LINE
  5
1073
330
2
100
AcDbEntity
  8
0
100
AcDbLine
 10
308.1103581729461
 20
361.5827456283719
 30
0.0
 11
374.6103581729524
 21
361.0024089203439
 31
0.0
  0
LINE
  5
1074
330
2
100
AcDbEntity
  8
0
100
AcDbLine
 10
308.1103581729461
 20
279.5914724961968
 30
0.0
 11
374.6103581729506
 21
280.1718092042797
 31
0.0
  0
LINE
  5
1075
330
2
100
AcDbEntity
  8
0
100
AcDbLine
 10
308.1103581729461
 20
279.5914724961968
 30
0.0
 11
308.1103581729461
 21
361.5827456283719
 31
0.0
  0
LINE
  5
1076
330
2
100
AcDbEntity
  8
0
100
AcDbLine
 10
374.6103581729497
 20
285.5871090623182
 30
0.0
 11
379.6103581729497
 21
285.5871090623182
 31
0.0
  0
LINE
  5
1077
330
2
100
AcDbEntity
  8
0
100
AcDbLine
 10
374.6103581729497
 20
355.5871090623182
 30
0.0
 11
379.6103581729497
 21
355.5871090623182
 31
0.0
  0
LINE
  5
1078
330
2
100
AcDbEntity
  8
CENTER
100
AcDbLine
 10
331.6103581729425
 20
372.0871090622977
 30
0.0
 11
331.6103581729425
 21
269.0871090622982
 31
0.0
  0
LINE
  5
1079
330
2
100
AcDbEntity
  8
CENTER
100
AcDbLine
 10
260.6103581729484
 20
320.5871090623131
 30
0.0
 11
415.6103581729488
 21
320.5871090623132
 31
0.0
  0
LINE
  5
107A
330
2
100
AcDbEntity
  8
0
100
AcDbLine
 10
297.1103581729461
 20
350.0871090623318
 30
0.0
 11
297.1103581729461
 21
291.0871090622945
 31
0.0
  0
LINE
  5
107B
330
2
100
AcDbEntity
  8
0
100
AcDbLine
 10
289.6103581729515
 20
294.0871090623123
 30
0.0
 11
290.9103581729508
 21
294.0871090623123
 31
0.0
  0
LINE
  5
107C
330
2
100
AcDbEntity
  8
0
100
AcDbLine
 10
293.1103581729515
 20
294.287109062313
 30
0.0
 11
293.3103581729513
 21
294.0871090623127
 31
0.0
  0
LINE
  5
107D
330
2
100
AcDbEntity
  8
0
100
AcDbLine
 10
291.3103581729513
 20
294.7871090623121
 30
0.0
 11
292.9103581729508
 21
294.787109062313
 31
0.0
  0
LINE
  5
107E
330
2
100
AcDbEntity
  8
0
100
AcDbLine
 10
289.6103581729515
 20
294.0871090623123
 30
0.0
 11
288.6103581729516
 21
294.6644593315018
 31
0.0
  0
LINE
  5
107F
330
2
100
AcDbEntity
  8
0
100
AcDbLine
 10
296.610358172947
 20
292.0871090623186
 30
0.0
 11
297.1103581729515
 21
291.5871090623132
 31
0.0
  0
LINE
  5
1080
330
2
100
AcDbEntity
  8
0
100
AcDbLine
 10
293.3103581729513
 20
294.0871090623127
 30
0.0
 11
296.6103581729516
 21
294.0871090623132
 31
0.0
  0
LINE
  5
1081
330
2
100
AcDbEntity
  8
0
100
AcDbLine
 10
288.6103581729461
 20
346.5097587931223
 30
0.0
 11
288.6103581729461
 21
294.6644593315046
 31
0.0
  0
LINE
  5
1082
330
2
100
AcDbEntity
  8
HIDS
  6
SEKKEI_H
100
AcDbLine
 10
300.0245717353212
 20
357.0013226246856
 30
0.0
 11
297.6961446105736
 21
354.6728954999408
 31
0.0
  0
LINE
  5
1083
330
2
100
AcDbEntity
  8
0
100
AcDbLine
 10
300.6103581729488
 20
280.5871090623132
 30
0.0
 11
300.6103581729488
 21
360.5871090623132
 31
0.0
  0
LINE
  5
1084
330
2
100
AcDbEntity
  8
0
100
AcDbLine
 10
308.110358172947
 20
361.5871090623132
 30
0.0
 11
301.6103581729488
 21
361.5871090623132
 31
0.0
  0
LINE
  5
1085
330
2
100
AcDbEntity
  8
0
100
AcDbLine
 10
308.1103581729461
 20
361.5871090623141
 30
0.0
 11
308.1103581729461
 21
279.5871090623132
 31
0.0
  0
LINE
  5
1086
330
2
100
AcDbEntity
  8
0
100
AcDbLine
 10
289.6103581729515
 20
347.0871090623141
 30
0.0
 11
288.6103581729516
 21
346.5097587931241
 31
0.0
  0
LINE
  5
1087
330
2
100
AcDbEntity
  8
0
100
AcDbLine
 10
293.1103581729515
 20
346.8871090623134
 30
0.0
 11
293.1103581729515
 21
294.287109062313
 31
0.0
  0
LINE
  5
1088
330
2
100
AcDbEntity
  8
0
100
AcDbLine
 10
291.3103581729513
 20
346.3871090623138
 30
0.0
 11
292.9103581729508
 21
346.3871090623134
 31
0.0
  0
LINE
  5
1089
330
2
100
AcDbEntity
  8
0
100
AcDbLine
 10
291.1103581729515
 20
346.8871090623143
 30
0.0
 11
291.1103581730307
 21
294.287109062313
 31
0.0
  0
LINE
  5
108A
330
2
100
AcDbEntity
  8
0
100
AcDbLine
 10
293.1103581729515
 20
346.8871090623134
 30
0.0
 11
293.3103581729513
 21
347.0871090623132
 31
0.0
  0
LINE
  5
108B
330
2
100
AcDbEntity
  8
0
100
AcDbLine
 10
289.6103581729515
 20
347.0871090623141
 30
0.0
 11
290.9103581729508
 21
347.0871090623136
 31
0.0
  0
LINE
  5
108C
330
2
100
AcDbEntity
  8
0
100
AcDbLine
 10
296.610358172947
 20
292.0871090623186
 30
0.0
 11
296.6103581729461
 21
349.0871090623077
 31
0.0
  0
LINE
  5
108D
330
2
100
AcDbEntity
  8
0
100
AcDbLine
 10
296.6103581729516
 20
349.0871090623132
 30
0.0
 11
296.6103581729516
 21
347.0871090623132
 31
0.0
  0
LINE
  5
108E
330
2
100
AcDbEntity
  8
0
100
AcDbLine
 10
296.6103581729516
 20
349.0871090623132
 30
0.0
 11
297.1103581729515
 21
349.5871090623132
 31
0.0
  0
LINE
  5
108F
330
2
100
AcDbEntity
  8
0
100
AcDbLine
 10
293.3103581729513
 20
347.0871090623132
 30
0.0
 11
296.6103581729516
 21
347.0871090623132
 31
0.0
  0
ARC
  5
1090
330
2
100
AcDbEntity
  8
0
100
AcDbCircle
 10
301.6103581729488
 20
360.5871090623132
 30
0.0
 40
1.0
100
AcDbArc
 50
90.0
 51
180.0
  0
ARC
  5
1091
330
2
100
AcDbEntity
  8
HIDS
  6
SEKKEI_H
100
AcDbCircle
 10
298.6103581729488
 20
358.4155361870594
 30
0.0
 40
2.0
100
AcDbArc
 50
314.9999999999444
 51
0.0
  0
ARC
  5
1092
330
2
100
AcDbEntity
  8
HIDS
  6
SEKKEI_H
100
AcDbCircle
 10
299.1103581729461
 20
353.2586819375665
 30
0.0
 40
2.0
100
AcDbArc
 50
134.9999999999444
 51
180.0
  0
LINE
  5
1093
330
2
100
AcDbEntity
  8
HIDS
  6
SEKKEI_H
100
AcDbLine
 10
300.0245717353212
 20
284.1728954999408
 30
0.0
 11
297.6961446105746
 21
286.5013226246856
 31
0.0
  0
LINE
  5
1094
330
2
100
AcDbEntity
  8
0
100
AcDbLine
 10
308.1103581729461
 20
279.5871090623132
 30
0.0
 11
301.6103581729497
 21
279.5871090623132
 31
0.0
  0
ARC
  5
1095
330
2
100
AcDbEntity
  8
0
100
AcDbCircle
 10
301.6103581729497
 20
280.5871090623132
 30
0.0
 40
1.0
100
AcDbArc
 50
180.0
 51
270.0
  0
ARC
  5
1096
330
2
100
AcDbEntity
  8
HIDS
  6
SEKKEI_H
100
AcDbCircle
 10
298.6103581729488
 20
282.758681937567
 30
0.0
 40
2.0
100
AcDbArc
 50
0.0
 51
45.00000000005555
  0
ARC
  5
1097
330
2
100
AcDbEntity
  8
HIDS
  6
SEKKEI_H
100
AcDbCircle
 10
299.1103581729461
 20
287.9155361870599
 30
0.0
 40
2.0
100
AcDbArc
 50
180.0
 51
225.0000000000555
  0
ARC
  5
1098
330
2
100
AcDbEntity
  8
0
100
AcDbCircle
 10
290.9103581729508
 20
346.8871090623134
 30
0.0
 40
0.2
100
AcDbArc
 50
0.0000000001302755
 51
90.0
  0
ARC
  5
1099
330
2
100
AcDbEntity
  8
0
100
AcDbCircle
 10
291.3103581729513
 20
346.5871090623141
 30
0.0
 40
0.2
100
AcDbArc
 50
180.0000000001302
 51
270.0
  0
ARC
  5
109A
330
2
100
AcDbEntity
  8
0
100
AcDbCircle
 10
292.9103581729508
 20
346.5871090623132
 30
0.0
 40
0.2
100
AcDbArc
 50
270.0
 51
0.0
  0
ARC
  5
109B
330
2
100
AcDbEntity
  8
0
100
AcDbCircle
 10
290.9103581729508
 20
294.2871090623121
 30
0.0
 40
0.2
100
AcDbArc
 50
270.0
 51
0.0000000001042204
  0
ARC
  5
109C
330
2
100
AcDbEntity
  8
0
100
AcDbCircle
 10
291.3103581729523
 20
294.5871090623123
 30
0.0
 40
0.2
100
AcDbArc
 50
90.0
 51
179.9999999998697
  0
ARC
  5
109D
330
2
100
AcDbEntity
  8
0
100
AcDbCircle
 10
292.9103581729508
 20
294.5871090623123
 30
0.0
 40
0.2
100
AcDbArc
 50
0.0
 51
90.0
  0
LINE
  5
109E
330
2
100
AcDbEntity
  8
0
100
AcDbLine
 10
289.6103581729515
 20
347.0871090623141
 30
0.0
 11
289.6103581729515
 21
294.0871090623123
 31
0.0
  0
LINE
  5
109F
330
2
100
AcDbEntity
  8
0
100
AcDbLine
 10
293.3103581729513
 20
294.0871090623127
 30
0.0
 11
293.3103581729513
 21
347.0871090623132
 31
0.0
  0
LINE
  5
10A0
330
2
100
AcDbEntity
  8
0
100
AcDbLine
 10
374.6103581729524
 20
356.5871090623332
 30
0.0
 11
308.1103581729461
 21
356.5871090623332
 31
0.0
  0
LINE
  5
10A1
330
2
100
AcDbEntity
  8
0
100
AcDbLine
 10
374.6103581729524
 20
353.5871090623332
 30
0.0
 11
308.1103581729461
 21
353.5871090623332
 31
0.0
  0
LINE
  5
10A2
330
2
100
AcDbEntity
  8
0
100
AcDbLine
 10
374.6103581729515
 20
338.8791442281972
 30
0.0
 11
308.1103581729461
 21
338.8791442281972
 31
0.0
  0
LINE
  5
10A3
330
2
100
AcDbEntity
  8
0
100
AcDbLine
 10
308.1103581729461
 20
356.5871090623332
 30
0.0
 11
300.6103581729488
 21
356.5871090623332
 31
0.0
  0
LINE
  5
10A4
330
2
100
AcDbEntity
  8
0
100
AcDbLine
 10
308.1103581729461
 20
353.5871090623332
 30
0.0
 11
300.6103581729488
 21
353.5871090623332
 31
0.0
  0
LINE
  5
10A5
330
2
100
AcDbEntity
  8
0
100
AcDbLine
 10
308.1103581729461
 20
338.8791442281972
 30
0.0
 11
300.6103581729488
 21
338.8791442281972
 31
0.0
  0
LINE
  5
10A6
330
2
100
AcDbEntity
  8
0
100
AcDbLine
 10
374.6103581729524
 20
284.5871090622932
 30
0.0
 11
308.1103581729461
 21
284.5871090622932
 31
0.0
  0
LINE
  5
10A7
330
2
100
AcDbEntity
  8
0
100
AcDbLine
 10
374.6103581729524
 20
287.5871090622932
 30
0.0
 11
308.1103581729461
 21
287.5871090622932
 31
0.0
  0
LINE
  5
10A8
330
2
100
AcDbEntity
  8
0
100
AcDbLine
 10
374.6103581729515
 20
302.2950738964291
 30
0.0
 11
308.1103581729461
 21
302.2950738964291
 31
0.0
  0
LINE
  5
10A9
330
2
100
AcDbEntity
  8
0
100
AcDbLine
 10
308.1103581729461
 20
284.5871090622932
 30
0.0
 11
300.6103581729488
 21
284.5871090622932
 31
0.0
  0
LINE
  5
10AA
330
2
100
AcDbEntity
  8
0
100
AcDbLine
 10
308.1103581729461
 20
287.5871090622932
 30
0.0
 11
300.6103581729488
 21
287.5871090622932
 31
0.0
  0
LINE
  5
10AB
330
2
100
AcDbEntity
  8
0
100
AcDbLine
 10
308.1103581729461
 20
302.2950738964291
 30
0.0
 11
300.6103581729488
 21
302.2950738964291
 31
0.0
  0
LINE
  5
10AC
330
2
100
AcDbEntity
  8
CENTER
  6
CENS
100
AcDbLine
 10
288.1103581729488
 20
355.0871090623318
 30
0.0
 11
313.1731049170952
 21
355.0871090623318
 31
0.0
  0
LINE
  5
10AD
330
2
100
AcDbEntity
  8
0
100
AcDbLine
 10
299.1103581729497
 20
350.0871090623318
 30
0.0
 11
293.5103581729494
 21
350.0871090623318
 31
0.0
  0
LINE
  5
10AE
330
2
100
AcDbEntity
  8
0
100
AcDbLine
 10
299.1103581729497
 20
360.0871090623318
 30
0.0
 11
293.5103581729494
 21
360.0871090623318
 31
0.0
  0
LINE
  5
10AF
330
2
100
AcDbEntity
  8
0
100
AcDbLine
 10
299.1103581729497
 20
360.0871090623318
 30
0.0
 11
299.1103581729497
 21
350.0871090623323
 31
0.0
  0
LINE
  5
10B0
330
2
100
AcDbEntity
  8
0
100
AcDbLine
 10
293.1103581729497
 20
359.3942887393041
 30
0.0
 11
293.1103581729488
 21
350.7799293853596
 31
0.0
  0
LINE
  5
10B1
330
2
100
AcDbEntity
  8
0
100
AcDbLine
 10
293.5103581729494
 20
360.0871090623318
 30
0.0
 11
293.5103581729494
 21
350.0871090623318
 31
0.0
  0
LINE
  5
10B2
330
2
100
AcDbEntity
  8
0
100
AcDbLine
 10
293.5103581729494
 20
360.0871090623318
 30
0.0
 11
293.1103581729497
 21
359.3942887393041
 31
0.0
  0
LINE
  5
10B3
330
2
100
AcDbEntity
  8
0
100
AcDbLine
 10
293.5103581729494
 20
350.0871090623318
 30
0.0
 11
293.1103581729497
 21
350.7799293853596
 31
0.0
  0
LINE
  5
10B4
330
2
100
AcDbEntity
  8
0
100
AcDbLine
 10
299.1103581729488
 20
360.0871090623318
 30
0.0
 11
300.6103581729488
 21
360.0871090623318
 31
0.0
  0
LINE
  5
10B5
330
2
100
AcDbEntity
  8
0
100
AcDbLine
 10
299.1103581729488
 20
350.0871090623318
 30
0.0
 11
300.6103581729488
 21
350.0871090623318
 31
0.0
  0
LINE
  5
10B6
330
2
100
AcDbEntity
  8
HIDS
  6
SEKKEI_H
100
AcDbLine
 10
297.1103581729461
 20
350.0871090623318
 30
0.0
 11
297.1103581729461
 21
353.2586819375665
 31
0.0
  0
LINE
  5
10B7
330
2
100
AcDbEntity
  8
CENTER
  6
CENS
100
AcDbLine
 10
288.1103581729488
 20
286.0871090622945
 30
0.0
 11
313.1731049170952
 21
286.0871090622945
 31
0.0
  0
LINE
  5
10B8
330
2
100
AcDbEntity
  8
0
100
AcDbLine
 10
299.1103581729497
 20
291.0871090622945
 30
0.0
 11
293.5103581729494
 21
291.0871090622945
 31
0.0
  0
LINE
  5
10B9
330
2
100
AcDbEntity
  8
0
100
AcDbLine
 10
299.1103581729497
 20
281.0871090622945
 30
0.0
 11
293.5103581729494
 21
281.0871090622945
 31
0.0
  0
LINE
  5
10BA
330
2
100
AcDbEntity
  8
0
100
AcDbLine
 10
299.1103581729497
 20
281.0871090622945
 30
0.0
 11
299.1103581729497
 21
291.0871090622941
 31
0.0
  0
LINE
  5
10BB
330
2
100
AcDbEntity
  8
0
100
AcDbLine
 10
293.1103581729497
 20
281.7799293853223
 30
0.0
 11
293.1103581729488
 21
290.3942887392668
 31
0.0
  0
LINE
  5
10BC
330
2
100
AcDbEntity
  8
0
100
AcDbLine
 10
293.5103581729494
 20
281.0871090622945
 30
0.0
 11
293.5103581729494
 21
291.0871090622945
 31
0.0
  0
LINE
  5
10BD
330
2
100
AcDbEntity
  8
0
100
AcDbLine
 10
293.5103581729494
 20
281.0871090622945
 30
0.0
 11
293.1103581729497
 21
281.7799293853223
 31
0.0
  0
LINE
  5
10BE
330
2
100
AcDbEntity
  8
0
100
AcDbLine
 10
293.5103581729494
 20
291.0871090622945
 30
0.0
 11
293.1103581729497
 21
290.3942887392668
 31
0.0
  0
LINE
  5
10BF
330
2
100
AcDbEntity
  8
0
100
AcDbLine
 10
299.1103581729488
 20
281.0871090622945
 30
0.0
 11
300.6103581729488
 21
281.0871090622945
 31
0.0
  0
LINE
  5
10C0
330
2
100
AcDbEntity
  8
0
100
AcDbLine
 10
299.1103581729488
 20
291.0871090622945
 30
0.0
 11
300.6103581729488
 21
291.0871090622945
 31
0.0
  0
LINE
  5
10C1
330
2
100
AcDbEntity
  8
HIDS
  6
SEKKEI_H
100
AcDbLine
 10
297.1103581729461
 20
291.0871090622945
 30
0.0
 11
297.1103581729461
 21
287.9155361870599
 31
0.0
  0
LINE
  5
10C2
330
2
100
AcDbEntity
  8
0
100
AcDbLine
 10
583.0834310346566
 20
629.9843765857958
 30
0.0
 11
524.0834310346202
 21
629.9843765857958
 31
0.0
  0
LINE
  5
10C3
330
2
100
AcDbEntity
  8
0
100
AcDbLine
 10
527.0834310346375
 20
637.4843765857913
 30
0.0
 11
527.0834310346384
 21
636.1843765857911
 31
0.0
  0
LINE
  5
10C4
330
2
100
AcDbEntity
  8
0
100
AcDbLine
 10
527.2834310346373
 20
633.9843765857913
 30
0.0
 11
527.0834310346384
 21
633.7843765857906
 31
0.0
  0
LINE
  5
10C5
330
2
100
AcDbEntity
  8
0
100
AcDbLine
 10
527.7834310346373
 20
635.7843765857905
 30
0.0
 11
527.7834310346373
 21
634.1843765857911
 31
0.0
  0
LINE
  5
10C6
330
2
100
AcDbEntity
  8
0
100
AcDbLine
 10
527.0834310346375
 20
637.4843765857904
 30
0.0
 11
527.6607813038266
 21
638.4843765857913
 31
0.0
  0
LINE
  5
10C7
330
2
100
AcDbEntity
  8
0
100
AcDbLine
 10
525.0834310346439
 20
630.4843765857949
 30
0.0
 11
524.5834310346384
 21
629.9843765857904
 31
0.0
  0
LINE
  5
10C8
330
2
100
AcDbEntity
  8
0
100
AcDbLine
 10
527.0834310346384
 20
633.7843765857906
 30
0.0
 11
527.0834310346384
 21
630.4843765857904
 31
0.0
  0
LINE
  5
10C9
330
2
100
AcDbEntity
  8
0
100
AcDbLine
 10
579.5060807654466
 20
638.4843765857958
 30
0.0
 11
527.6607813038302
 21
638.4843765857958
 31
0.0
  0
LINE
  5
10CA
330
2
100
AcDbEntity
  8
HIDS
  6
SEKKEI_H
100
AcDbLine
 10
589.9976445970109
 20
627.0701630234206
 30
0.0
 11
587.6692174722651
 21
629.3985901481683
 31
0.0
  0
LINE
  5
10CB
330
2
100
AcDbEntity
  8
0
100
AcDbLine
 10
513.6401937536651
 20
626.4843765857931
 30
0.0
 11
593.1166683156138
 21
626.4843765857936
 31
0.0
  0
ARC
  5
10CC
330
2
100
AcDbEntity
  8
0
100
AcDbCircle
 10
513.6401937536651
 20
625.4843765857931
 30
0.0
 40
1.0
100
AcDbArc
 50
90.0
 51
179.5000000000084
  0
LINE
  5
10CD
330
2
100
AcDbEntity
  8
0
100
AcDbLine
 10
580.0834310346385
 20
637.4843765857904
 30
0.0
 11
579.5060807654502
 21
638.4843765857913
 31
0.0
  0
LINE
  5
10CE
330
2
100
AcDbEntity
  8
0
100
AcDbLine
 10
579.8834310346395
 20
633.9843765857913
 30
0.0
 11
527.2834310346373
 21
633.9843765857913
 31
0.0
  0
LINE
  5
10CF
330
2
100
AcDbEntity
  8
0
100
AcDbLine
 10
579.3834310346396
 20
635.7843765857905
 30
0.0
 11
579.3834310346396
 21
634.1843765857911
 31
0.0
  0
LINE
  5
10D0
330
2
100
AcDbEntity
  8
0
100
AcDbLine
 10
579.8834310346395
 20
635.9843765857913
 30
0.0
 11
527.2834310346373
 21
635.9843765857113
 31
0.0
  0
LINE
  5
10D1
330
2
100
AcDbEntity
  8
0
100
AcDbLine
 10
579.8834310346395
 20
633.9843765857913
 30
0.0
 11
580.0834310346385
 21
633.7843765857906
 31
0.0
  0
LINE
  5
10D2
330
2
100
AcDbEntity
  8
0
100
AcDbLine
 10
580.0834310346385
 20
637.4843765857913
 30
0.0
 11
580.0834310346385
 21
636.1843765857911
 31
0.0
  0
LINE
  5
10D3
330
2
100
AcDbEntity
  8
0
100
AcDbLine
 10
525.0834310346439
 20
630.4843765857949
 30
0.0
 11
582.083431034633
 21
630.4843765857959
 31
0.0
  0
LINE
  5
10D4
330
2
100
AcDbEntity
  8
0
100
AcDbLine
 10
582.0834310346384
 20
630.4843765857904
 30
0.0
 11
580.0834310346385
 21
630.4843765857904
 31
0.0
  0
LINE
  5
10D5
330
2
100
AcDbEntity
  8
0
100
AcDbLine
 10
582.0834310346384
 20
630.4843765857904
 30
0.0
 11
582.5834310346384
 21
629.9843765857904
 31
0.0
  0
LINE
  5
10D6
330
2
100
AcDbEntity
  8
0
100
AcDbLine
 10
580.0834310346385
 20
633.7843765857906
 30
0.0
 11
580.0834310346385
 21
630.4843765857904
 31
0.0
  0
ARC
  5
10D7
330
2
100
AcDbEntity
  8
HIDS
  6
SEKKEI_H
100
AcDbCircle
 10
591.4118581593851
 20
628.4843765857931
 30
0.0
 40
2.0
100
AcDbArc
 50
224.9999999999818
 51
270.0
  0
ARC
  5
10D8
330
2
100
AcDbEntity
  8
HIDS
  6
SEKKEI_H
100
AcDbCircle
 10
586.2550039098918
 20
627.9843765857958
 30
0.0
 40
2.0
100
AcDbArc
 50
44.99999999998187
 51
90.0
  0
LINE
  5
10D9
330
2
100
AcDbEntity
  8
HIDS
  6
SEKKEI_H
100
AcDbLine
 10
517.1692174722651
 20
627.0701630234206
 30
0.0
 11
519.4976445970118
 21
629.3985901481683
 31
0.0
  0
LINE
  5
10DA
330
2
100
AcDbEntity
  8
0
100
AcDbLine
 10
512.5834310346384
 20
618.9843765857959
 30
0.0
 11
512.6402318306003
 21
625.4931031212918
 31
0.0
  0
ARC
  5
10DB
330
2
100
AcDbEntity
  8
HIDS
  6
SEKKEI_H
100
AcDbCircle
 10
515.7550039098918
 20
628.4843765857931
 30
0.0
 40
2.0
100
AcDbArc
 50
270.0
 51
315.0000000000181
  0
ARC
  5
10DC
330
2
100
AcDbEntity
  8
HIDS
  6
SEKKEI_H
100
AcDbCircle
 10
520.9118581593851
 20
627.9843765857958
 30
0.0
 40
2.0
100
AcDbArc
 50
90.0
 51
135.0000000000181
  0
ARC
  5
10DD
330
2
100
AcDbEntity
  8
0
100
AcDbCircle
 10
579.8834310346395
 20
636.1843765857911
 30
0.0
 40
0.2
100
AcDbArc
 50
270.0000000001042
 51
359.9999999999739
  0
ARC
  5
10DE
330
2
100
AcDbEntity
  8
0
100
AcDbCircle
 10
579.5834310346385
 20
635.7843765857905
 30
0.0
 40
0.2
100
AcDbArc
 50
90.00000000010421
 51
179.9999999999739
  0
ARC
  5
10DF
330
2
100
AcDbEntity
  8
0
100
AcDbCircle
 10
579.5834310346385
 20
634.1843765857911
 30
0.0
 40
0.2
100
AcDbArc
 50
179.9999999999739
 51
270.0
  0
ARC
  5
10E0
330
2
100
AcDbEntity
  8
0
100
AcDbCircle
 10
527.2834310346373
 20
636.1843765857911
 30
0.0
 40
0.2
100
AcDbArc
 50
180.0
 51
270.0000000001042
  0
ARC
  5
10E1
330
2
100
AcDbEntity
  8
0
100
AcDbCircle
 10
527.5834310346384
 20
635.7843765857905
 30
0.0
 40
0.2
100
AcDbArc
 50
0.0
 51
89.99999999984366
  0
ARC
  5
10E2
330
2
100
AcDbEntity
  8
0
100
AcDbCircle
 10
527.5834310346384
 20
634.1843765857911
 30
0.0
 40
0.2
100
AcDbArc
 50
270.0
 51
0.0
  0
LINE
  5
10E3
330
2
100
AcDbEntity
  8
0
100
AcDbLine
 10
580.0834310346385
 20
637.4843765857913
 30
0.0
 11
527.0834310346375
 21
637.4843765857904
 31
0.0
  0
LINE
  5
10E4
330
2
100
AcDbEntity
  8
0
100
AcDbLine
 10
527.0834310346384
 20
633.7843765857906
 30
0.0
 11
580.0834310346385
 21
633.7843765857906
 31
0.0
  0
LINE
  5
10E5
330
2
100
AcDbEntity
  8
0
100
AcDbLine
 10
589.5834310346584
 20
618.9843765857959
 30
0.0
 11
589.5834310346584
 21
626.4843765857931
 31
0.0
  0
LINE
  5
10E6
330
2
100
AcDbEntity
  8
0
100
AcDbLine
 10
586.5834310346584
 20
618.9843765857959
 30
0.0
 11
586.5834310346584
 21
626.4843765857931
 31
0.0
  0
LINE
  5
10E7
330
2
100
AcDbEntity
  8
0
100
AcDbLine
 10
571.8754662005234
 20
618.9843765857959
 30
0.0
 11
571.8754662005234
 21
626.4843765857931
 31
0.0
  0
LINE
  5
10E8
330
2
100
AcDbEntity
  8
0
100
AcDbLine
 10
517.5834310346184
 20
618.9843765857959
 30
0.0
 11
517.5834310346184
 21
626.4843765857931
 31
0.0
  0
LINE
  5
10E9
330
2
100
AcDbEntity
  8
0
100
AcDbLine
 10
520.5834310346184
 20
618.9843765857959
 30
0.0
 11
520.5834310346184
 21
626.4843765857931
 31
0.0
  0
LINE
  5
10EA
330
2
100
AcDbEntity
  8
0
100
AcDbLine
 10
535.2913958687535
 20
618.9843765857959
 30
0.0
 11
535.2913958687535
 21
626.4843765857931
 31
0.0
  0
LINE
  5
10EB
330
2
100
AcDbEntity
  8
CENTER
  6
CENS
100
AcDbLine
 10
588.0834310346566
 20
638.9843765857931
 30
0.0
 11
588.0834310346566
 21
613.9216298416467
 31
0.0
  0
LINE
  5
10EC
330
2
100
AcDbEntity
  8
0
100
AcDbLine
 10
583.0834310346566
 20
627.9843765857931
 30
0.0
 11
583.0834310346566
 21
633.5843765857926
 31
0.0
  0
LINE
  5
10ED
330
2
100
AcDbEntity
  8
0
100
AcDbLine
 10
593.0834310346567
 20
627.9843765857931
 30
0.0
 11
593.0834310346567
 21
633.5843765857926
 31
0.0
  0
LINE
  5
10EE
330
2
100
AcDbEntity
  8
0
100
AcDbLine
 10
593.0834310346567
 20
627.9843765857931
 30
0.0
 11
583.0834310346566
 21
627.9843765857931
 31
0.0
  0
LINE
  5
10EF
330
2
100
AcDbEntity
  8
0
100
AcDbLine
 10
592.3906107116294
 20
633.9843765857931
 30
0.0
 11
583.7762513576848
 21
633.9843765857931
 31
0.0
  0
LINE
  5
10F0
330
2
100
AcDbEntity
  8
0
100
AcDbLine
 10
593.0834310346567
 20
633.5843765857934
 30
0.0
 11
583.0834310346566
 21
633.5843765857926
 31
0.0
  0
LINE
  5
10F1
330
2
100
AcDbEntity
  8
0
100
AcDbLine
 10
593.0834310346567
 20
633.5843765857926
 30
0.0
 11
592.3906107116294
 21
633.9843765857931
 31
0.0
  0
LINE
  5
10F2
330
2
100
AcDbEntity
  8
0
100
AcDbLine
 10
583.0834310346566
 20
633.5843765857926
 30
0.0
 11
583.7762513576848
 21
633.9843765857931
 31
0.0
  0
LINE
  5
10F3
330
2
100
AcDbEntity
  8
0
100
AcDbLine
 10
593.0834310346567
 20
627.9843765857931
 30
0.0
 11
593.0834310346567
 21
626.4843765857931
 31
0.0
  0
LINE
  5
10F4
330
2
100
AcDbEntity
  8
0
100
AcDbLine
 10
583.0834310346566
 20
627.9843765857931
 30
0.0
 11
583.0834310346566
 21
626.4843765857931
 31
0.0
  0
LINE
  5
10F5
330
2
100
AcDbEntity
  8
HIDS
  6
SEKKEI_H
100
AcDbLine
 10
583.0834310346566
 20
629.9843765857958
 30
0.0
 11
586.2550039098918
 21
629.9843765857958
 31
0.0
  0
LINE
  5
10F6
330
2
100
AcDbEntity
  8
CENTER
  6
CENS
100
AcDbLine
 10
519.0834310346202
 20
638.9843765857931
 30
0.0
 11
519.0834310346202
 21
613.9216298416467
 31
0.0
  0
LINE
  5
10F7
330
2
100
AcDbEntity
  8
0
100
AcDbLine
 10
524.0834310346202
 20
627.9843765857931
 30
0.0
 11
524.0834310346202
 21
633.5843765857926
 31
0.0
  0
LINE
  5
10F8
330
2
100
AcDbEntity
  8
0
100
AcDbLine
 10
514.0834310346202
 20
627.9843765857931
 30
0.0
 11
514.0834310346202
 21
633.5843765857926
 31
0.0
  0
LINE
  5
10F9
330
2
100
AcDbEntity
  8
0
100
AcDbLine
 10
514.0834310346202
 20
627.9843765857931
 30
0.0
 11
524.0834310346202
 21
627.9843765857931
 31
0.0
  0
LINE
  5
10FA
330
2
100
AcDbEntity
  8
0
100
AcDbLine
 10
514.7762513576475
 20
633.9843765857931
 30
0.0
 11
523.390610711592
 21
633.9843765857931
 31
0.0
  0
LINE
  5
10FB
330
2
100
AcDbEntity
  8
0
100
AcDbLine
 10
514.0834310346202
 20
633.5843765857934
 30
0.0
 11
524.0834310346202
 21
633.5843765857926
 31
0.0
  0
LINE
  5
10FC
330
2
100
AcDbEntity
  8
0
100
AcDbLine
 10
514.0834310346202
 20
633.5843765857926
 30
0.0
 11
514.7762513576475
 21
633.9843765857931
 31
0.0
  0
LINE
  5
10FD
330
2
100
AcDbEntity
  8
0
100
AcDbLine
 10
524.0834310346202
 20
633.5843765857926
 30
0.0
 11
523.390610711592
 21
633.9843765857931
 31
0.0
  0
LINE
  5
10FE
330
2
100
AcDbEntity
  8
0
100
AcDbLine
 10
514.0834310346202
 20
627.9843765857931
 30
0.0
 11
514.0834310346202
 21
626.4843765857931
 31
0.0
  0
LINE
  5
10FF
330
2
100
AcDbEntity
  8
0
100
AcDbLine
 10
524.0834310346202
 20
627.9843765857931
 30
0.0
 11
524.0834310346202
 21
626.4843765857931
 31
0.0
  0
LINE
  5
1100
330
2
100
AcDbEntity
  8
HIDS
  6
SEKKEI_H
100
AcDbLine
 10
524.0834310346202
 20
629.9843765857958
 30
0.0
 11
520.9118581593851
 21
629.9843765857958
 31
0.0
  0
LINE
  5
1101
330
2
100
AcDbEntity
  8
0
100
AcDbLine
 10
594.1166302386776
 20
625.4931031212918
 30
0.0
 11
594.1734310346386
 21
618.9843765857967
 31
0.0
  0
ARC
  5
1102
330
2
100
AcDbEntity
  8
0
100
AcDbCircle
 10
593.1166683156138
 20
625.4843765857936
 30
0.0
 40
1.0
100
AcDbArc
 50
0.4999999999915503
 51
90.0
  0
LINE
  5
1103
330
2
100
AcDbEntity
  8
0
100
AcDbLine
 10
958.2816680511063
 20
347.0871090623168
 30
0.0
 11
957.2816680511136
 21
347.0871090623168
 31
0.0
  0
LINE
  5
1104
330
2
100
AcDbEntity
  8
0
100
AcDbLine
 10
958.2816680511054
 20
347.0871090623168
 30
0.0
 11
959.2816680511063
 21
346.5097587931277
 31
0.0
  0
LINE
  5
1105
330
2
100
AcDbEntity
  8
0
100
AcDbLine
 10
959.2816680511099
 20
294.6644593315073
 30
0.0
 11
959.2816680511099
 21
346.509758793125
 31
0.0
  0
LINE
  5
1106
330
2
100
AcDbEntity
  8
0
100
AcDbLine
 10
958.2816680511054
 20
294.0871090623155
 30
0.0
 11
959.2816680511063
 21
294.664459331505
 31
0.0
  0
LINE
  5
1107
330
2
100
AcDbEntity
  8
0
100
AcDbLine
 10
958.2816680511063
 20
294.0871090623155
 30
0.0
 11
957.2816680511136
 21
294.0871090623155
 31
0.0
  0
LINE
  5
1108
330
2
100
AcDbEntity
  8
0
100
AcDbLine
 10
958.2816680511063
 20
294.0871090623155
 30
0.0
 11
958.2816680511054
 21
347.0871090623168
 31
0.0
  0
LINE
  5
1109
330
2
100
AcDbEntity
  8
0
100
AcDbLine
 10
419.695663166225
 20
50.12151904019771
 30
0.0
 11
419.695663166225
 21
76.76315073891697
 31
0.0
  0
LINE
  5
110A
330
2
100
AcDbEntity
  8
0
100
AcDbLine
 10
419.6956631662259
 20
104.3104870575453
 30
0.0
 11
419.6956631662268
 21
130.9521187562618
 31
0.0
  0
LINE
  5
110B
330
2
100
AcDbEntity
  8
0
100
AcDbLine
 10
424.6956631662241
 20
55.53681889823616
 30
0.0
 11
424.6956631662241
 21
77.6121181860895
 31
0.0
  0
LINE
  5
110C
330
2
100
AcDbEntity
  8
0
100
AcDbLine
 10
424.6956631662241
 20
103.4615196103728
 30
0.0
 11
424.6956631662241
 21
125.5368188982361
 31
0.0
  0
LINE
  5
110D
330
2
100
AcDbEntity
  8
0
100
AcDbLine
 10
426.625864172819
 20
62.15025299926816
 30
0.0
 11
435.7654621596283
 21
62.46941479381217
 31
0.0
  0
ARC
  5
110E
330
2
100
AcDbEntity
  8
0
100
AcDbCircle
 10
426.6956631662241
 20
60.15147134523028
 30
0.0
 40
2.0
100
AcDbArc
 50
92.00000000000406
 51
180.0
  0
LINE
  5
110F
330
2
100
AcDbEntity
  8
0
100
AcDbLine
 10
437.6956631662222
 20
64.46819644785097
 30
0.0
 11
437.6956631662222
 21
76.03677289823105
 31
0.0
  0
LINE
  5
1110
330
2
100
AcDbEntity
  8
0
100
AcDbLine
 10
437.6956631662241
 20
105.0367728982315
 30
0.0
 11
437.6956631662241
 21
116.6054413486213
 31
0.0
  0
ARC
  5
1111
330
2
100
AcDbEntity
  8
0
100
AcDbCircle
 10
435.6956631662241
 20
64.46819644785097
 30
0.0
 40
2.0
100
AcDbArc
 50
272.000000000004
 51
0.0
  0
ARC
  5
1112
330
2
100
AcDbEntity
  8
0
100
AcDbCircle
 10
435.6956631662241
 20
116.6054413486213
 30
0.0
 40
2.0
100
AcDbArc
 50
0.0
 51
87.99999999999595
  0
LINE
  5
1113
330
2
100
AcDbEntity
  8
0
100
AcDbLine
 10
426.625864172819
 20
118.923384797205
 30
0.0
 11
435.7654621596292
 21
118.6042230026601
 31
0.0
  0
ARC
  5
1114
330
2
100
AcDbEntity
  8
0
100
AcDbCircle
 10
426.6956631662241
 20
120.9221664512438
 30
0.0
 40
2.0
100
AcDbArc
 50
180.0
 51
267.9999999999959
  0
LINE
  5
1115
330
2
100
AcDbEntity
  8
0
100
AcDbLine
 10
353.1956631662204
 20
131.5324554642898
 30
0.0
 11
419.6956631662268
 21
130.9521187562618
 31
0.0
  0
LINE
  5
1116
330
2
100
AcDbEntity
  8
0
100
AcDbLine
 10
353.1956631662204
 20
49.54118233211471
 30
0.0
 11
419.695663166225
 21
50.12151904019771
 31
0.0
  0
LINE
  5
1117
330
2
100
AcDbEntity
  8
0
100
AcDbLine
 10
353.1956631662204
 20
49.54118233211471
 30
0.0
 11
353.1956631662204
 21
77.41366285420332
 31
0.0
  0
LINE
  5
1118
330
2
100
AcDbEntity
  8
0
100
AcDbLine
 10
353.1956631662204
 20
105.0338653272383
 30
0.0
 11
353.1956631662204
 21
131.5324554642898
 31
0.0
  0
LINE
  5
1119
330
2
100
AcDbEntity
  8
0
100
AcDbLine
 10
419.695663166224
 20
55.53681889823616
 30
0.0
 11
424.6956631662241
 21
55.53681889823616
 31
0.0
  0
LINE
  5
111A
330
2
100
AcDbEntity
  8
0
100
AcDbLine
 10
419.695663166224
 20
125.5368188982361
 30
0.0
 11
424.6956631662241
 21
125.5368188982361
 31
0.0
  0
LINE
  5
111B
330
2
100
AcDbEntity
  8
CENTER
100
AcDbLine
 10
376.6956631662168
 20
141.3273740712275
 30
0.0
 11
376.6956631662168
 21
39.74626372519657
 31
0.0
  0
LINE
  5
111C
330
2
100
AcDbEntity
  8
CENTER
100
AcDbLine
 10
321.6956716202629
 20
90.53681889823115
 30
0.0
 11
460.6956631662232
 21
90.53681889823115
 31
0.0
  0
LINE
  5
111D
330
2
100
AcDbEntity
  8
0
100
AcDbLine
 10
342.6956631662204
 20
67.15465554529242
 30
0.0
 11
343.3443271196882
 21
67.13766968188252
 31
0.0
  0
LINE
  5
111E
330
2
100
AcDbEntity
  8
0
100
AcDbLine
 10
342.1956631662204
 20
120.0368188982497
 30
0.0
 11
342.1956631662204
 21
114.8339725096666
 31
0.0
  0
LINE
  5
111F
330
2
100
AcDbEntity
  8
0
100
AcDbLine
 10
342.1956631662204
 20
66.23966528679563
 30
0.0
 11
342.1956631662204
 21
61.03681889821252
 31
0.0
  0
LINE
  5
1120
330
2
100
AcDbEntity
  8
0
100
AcDbLine
 10
334.6956631662204
 20
67.53681889823116
 30
0.0
 11
333.6956631662204
 21
66.95946862904207
 31
0.0
  0
LINE
  5
1121
330
2
100
AcDbEntity
  8
0
100
AcDbLine
 10
334.6956631662259
 20
64.03681889823025
 30
0.0
 11
335.9956631662252
 21
64.03681889823025
 31
0.0
  0
LINE
  5
1122
330
2
100
AcDbEntity
  8
0
100
AcDbLine
 10
338.1956631662259
 20
64.23681889823098
 30
0.0
 11
338.3956631662257
 21
64.0368188982307
 31
0.0
  0
LINE
  5
1123
330
2
100
AcDbEntity
  8
0
100
AcDbLine
 10
336.3956631662257
 20
64.73681889823007
 30
0.0
 11
337.9956631662252
 21
64.73681889823097
 31
0.0
  0
LINE
  5
1124
330
2
100
AcDbEntity
  8
0
100
AcDbLine
 10
334.6956631662259
 20
64.03681889823025
 30
0.0
 11
333.6956631662259
 21
64.61416916741979
 31
0.0
  0
LINE
  5
1125
330
2
100
AcDbEntity
  8
0
100
AcDbLine
 10
341.6956631662213
 20
62.03681889823662
 30
0.0
 11
342.1956631662259
 21
61.53681889823116
 31
0.0
  0
LINE
  5
1126
330
2
100
AcDbEntity
  8
0
100
AcDbLine
 10
338.3956631662257
 20
64.0368188982307
 30
0.0
 11
341.6956631662259
 21
64.03681889823116
 31
0.0
  0
LINE
  5
1127
330
2
100
AcDbEntity
  8
0
100
AcDbLine
 10
334.6956631662204
 20
67.53681889823116
 30
0.0
 11
342.6956631662204
 21
67.53681889823116
 31
0.0
  0
LINE
  5
1128
330
2
100
AcDbEntity
  8
0
100
AcDbLine
 10
333.6956631662204
 20
116.4594686290402
 30
0.0
 11
333.6956631662204
 21
105.0338653272383
 31
0.0
  0
LINE
  5
1129
330
2
100
AcDbEntity
  8
0
100
AcDbLine
 10
333.6956631662204
 20
76.0338653272384
 30
0.0
 11
333.6956631662204
 21
64.61416916742251
 31
0.0
  0
LINE
  5
112A
330
2
100
AcDbEntity
  8
0
100
AcDbLine
 10
334.6956631662204
 20
67.53681889823116
 30
0.0
 11
334.6956631662204
 21
76.0338653272384
 31
0.0
  0
LINE
  5
112B
330
2
100
AcDbEntity
  8
0
100
AcDbLine
 10
334.6956631662204
 20
105.0338653272383
 30
0.0
 11
334.6956631662204
 21
113.5368188982302
 31
0.0
  0
LINE
  5
112C
330
2
100
AcDbEntity
  8
0
100
AcDbLine
 10
342.6956631662204
 20
105.0338653272383
 30
0.0
 11
342.6956631662204
 21
113.9189822511698
 31
0.0
  0
LINE
  5
112D
330
2
100
AcDbEntity
  8
HIDS
  6
SEKKEI_H
100
AcDbLine
 10
345.1098767285956
 20
126.9510324606035
 30
0.0
 11
342.781449603848
 21
124.6226053358587
 31
0.0
  0
LINE
  5
112E
330
2
100
AcDbEntity
  8
0
100
AcDbLine
 10
345.6956631662232
 20
50.53681889823116
 30
0.0
 11
345.6956631662232
 21
75.86382353004688
 31
0.0
  0
LINE
  5
112F
330
2
100
AcDbEntity
  8
0
100
AcDbLine
 10
345.6956631662232
 20
105.2098142664163
 30
0.0
 11
345.6956631662232
 21
130.5368188982311
 31
0.0
  0
LINE
  5
1130
330
2
100
AcDbEntity
  8
0
100
AcDbLine
 10
353.1956631662213
 20
131.5368188982311
 30
0.0
 11
346.6956631662232
 21
131.5368188982311
 31
0.0
  0
LINE
  5
1131
330
2
100
AcDbEntity
  8
0
100
AcDbLine
 10
353.1956631662204
 20
131.536818898232
 30
0.0
 11
353.1956631662213
 21
103.6599749422594
 31
0.0
  0
LINE
  5
1132
330
2
100
AcDbEntity
  8
0
100
AcDbLine
 10
353.1956631662213
 20
76.0338653272384
 30
0.0
 11
353.1956631662204
 21
49.53681889823116
 31
0.0
  0
LINE
  5
1133
330
2
100
AcDbEntity
  8
0
100
AcDbLine
 10
334.6956631662259
 20
117.036818898232
 30
0.0
 11
333.6956631662259
 21
116.459468629042
 31
0.0
  0
LINE
  5
1134
330
2
100
AcDbEntity
  8
0
100
AcDbLine
 10
338.1956631662259
 20
116.8368188982313
 30
0.0
 11
338.1956631662259
 21
114.8641771541506
 31
0.0
  0
LINE
  5
1135
330
2
100
AcDbEntity
  8
0
100
AcDbLine
 10
338.1956631662259
 20
66.20946064231162
 30
0.0
 11
338.1956631662259
 21
64.23681889823098
 31
0.0
  0
LINE
  5
1136
330
2
100
AcDbEntity
  8
0
100
AcDbLine
 10
336.3956631662257
 20
116.3368188982317
 30
0.0
 11
337.9956631662252
 21
116.3368188982313
 31
0.0
  0
LINE
  5
1137
330
2
100
AcDbEntity
  8
0
100
AcDbLine
 10
336.1956631662259
 20
116.8368188982322
 30
0.0
 11
336.1956631662277
 21
114.9673287743622
 31
0.0
  0
LINE
  5
1138
330
2
100
AcDbEntity
  8
0
100
AcDbLine
 10
336.1956631663023
 20
66.1063090221133
 30
0.0
 11
336.195663166305
 21
64.23681889823098
 31
0.0
  0
LINE
  5
1139
330
2
100
AcDbEntity
  8
0
100
AcDbLine
 10
334.6956631662204
 20
113.5368188982311
 30
0.0
 11
333.6956631662204
 21
114.1141691674202
 31
0.0
  0
LINE
  5
113A
330
2
100
AcDbEntity
  8
0
100
AcDbLine
 10
334.6956631662204
 20
113.5368188982302
 30
0.0
 11
342.6956631662204
 21
113.5368188982311
 31
0.0
  0
LINE
  5
113B
330
2
100
AcDbEntity
  8
0
100
AcDbLine
 10
338.1956631662259
 20
116.8368188982313
 30
0.0
 11
338.3956631662257
 21
117.0368188982311
 31
0.0
  0
LINE
  5
113C
330
2
100
AcDbEntity
  8
0
100
AcDbLine
 10
334.6956631662259
 20
117.036818898232
 30
0.0
 11
335.9956631662252
 21
117.0368188982316
 31
0.0
  0
LINE
  5
113D
330
2
100
AcDbEntity
  8
0
100
AcDbLine
 10
341.6956631662213
 20
62.03681889823662
 30
0.0
 11
341.6956631662213
 21
66.12301390598037
 31
0.0
  0
LINE
  5
113E
330
2
100
AcDbEntity
  8
0
100
AcDbLine
 10
341.6956631662204
 20
114.9506238904819
 30
0.0
 11
341.6956631662204
 21
119.0368188982257
 31
0.0
  0
LINE
  5
113F
330
2
100
AcDbEntity
  8
0
100
AcDbLine
 10
341.6956631662259
 20
119.0368188982311
 30
0.0
 11
341.6956631662259
 21
117.0368188982311
 31
0.0
  0
LINE
  5
1140
330
2
100
AcDbEntity
  8
0
100
AcDbLine
 10
341.6956631662259
 20
119.0368188982311
 30
0.0
 11
342.1956631662259
 21
119.5368188982311
 31
0.0
  0
LINE
  5
1141
330
2
100
AcDbEntity
  8
0
100
AcDbLine
 10
338.3956631662257
 20
117.0368188982311
 30
0.0
 11
341.6956631662259
 21
117.0368188982311
 31
0.0
  0
ARC
  5
1142
330
2
100
AcDbEntity
  8
0
100
AcDbCircle
 10
346.6956631662232
 20
130.5368188982311
 30
0.0
 40
1.0
100
AcDbArc
 50
90.0
 51
180.0
  0
LINE
  5
1143
330
2
100
AcDbEntity
  8
0
100
AcDbLine
 10
342.6956631662204
 20
113.9189822511698
 30
0.0
 11
343.3443271196882
 21
113.9359681145797
 31
0.0
  0
ARC
  5
1144
330
2
100
AcDbEntity
  8
HIDS
  6
SEKKEI_H
100
AcDbCircle
 10
343.6956631662232
 20
128.3652460229773
 30
0.0
 40
2.0
100
AcDbArc
 50
314.9999999999444
 51
0.0
  0
ARC
  5
1145
330
2
100
AcDbEntity
  8
HIDS
  6
SEKKEI_H
100
AcDbCircle
 10
344.1956631662204
 20
123.2083917734845
 30
0.0
 40
2.0
100
AcDbArc
 50
134.9999999999444
 51
180.0
  0
LINE
  5
1146
330
2
100
AcDbEntity
  8
HIDS
  6
SEKKEI_H
100
AcDbLine
 10
345.1098767285956
 20
54.12260533585874
 30
0.0
 11
342.7814496038489
 21
56.45103246060358
 31
0.0
  0
LINE
  5
1147
330
2
100
AcDbEntity
  8
0
100
AcDbLine
 10
353.1956631662204
 20
49.53681889823116
 30
0.0
 11
346.6956631662241
 21
49.53681889823116
 31
0.0
  0
ARC
  5
1148
330
2
100
AcDbEntity
  8
0
100
AcDbCircle
 10
346.6956631662241
 20
50.53681889823116
 30
0.0
 40
1.0
100
AcDbArc
 50
180.0
 51
270.0
  0
ARC
  5
1149
330
2
100
AcDbEntity
  8
HIDS
  6
SEKKEI_H
100
AcDbCircle
 10
343.6956631662232
 20
52.70839177348495
 30
0.0
 40
2.0
100
AcDbArc
 50
0.0
 51
45.00000000005555
  0
ARC
  5
114A
330
2
100
AcDbEntity
  8
HIDS
  6
SEKKEI_H
100
AcDbCircle
 10
344.1956631662204
 20
57.86524602297783
 30
0.0
 40
2.0
100
AcDbArc
 50
180.0
 51
225.0000000000555
  0
ARC
  5
114B
330
2
100
AcDbEntity
  8
0
100
AcDbCircle
 10
335.9956631662252
 20
116.8368188982313
 30
0.0
 40
0.2
100
AcDbArc
 50
0.0000000001302755
 51
90.0
  0
ARC
  5
114C
330
2
100
AcDbEntity
  8
0
100
AcDbCircle
 10
336.3956631662257
 20
116.536818898232
 30
0.0
 40
0.2
100
AcDbArc
 50
180.0000000001302
 51
270.0
  0
ARC
  5
114D
330
2
100
AcDbEntity
  8
0
100
AcDbCircle
 10
337.9956631662252
 20
116.5368188982311
 30
0.0
 40
0.2
100
AcDbArc
 50
270.0
 51
0.0
  0
ARC
  5
114E
330
2
100
AcDbEntity
  8
0
100
AcDbCircle
 10
335.9956631662252
 20
64.23681889823007
 30
0.0
 40
0.2
100
AcDbArc
 50
270.0
 51
0.0000000001042204
  0
ARC
  5
114F
330
2
100
AcDbEntity
  8
0
100
AcDbCircle
 10
336.3956631662266
 20
64.53681889823025
 30
0.0
 40
0.2
100
AcDbArc
 50
90.0
 51
179.9999999998697
  0
ARC
  5
1150
330
2
100
AcDbEntity
  8
0
100
AcDbCircle
 10
337.9956631662252
 20
64.53681889823025
 30
0.0
 40
0.2
100
AcDbArc
 50
0.0
 51
90.0
  0
LINE
  5
1151
330
2
100
AcDbEntity
  8
0
100
AcDbLine
 10
334.6956631662259
 20
117.036818898232
 30
0.0
 11
334.6956631662259
 21
115.433333013485
 31
0.0
  0
LINE
  5
1152
330
2
100
AcDbEntity
  8
0
100
AcDbLine
 10
334.6956631662259
 20
65.64030478297723
 30
0.0
 11
334.6956631662259
 21
64.03681889823025
 31
0.0
  0
LINE
  5
1153
330
2
100
AcDbEntity
  8
0
100
AcDbLine
 10
338.3956631662257
 20
64.0368188982307
 30
0.0
 11
338.3956631662257
 21
66.20092823439524
 31
0.0
  0
LINE
  5
1154
330
2
100
AcDbEntity
  8
0
100
AcDbLine
 10
338.3956631662257
 20
114.872709562067
 30
0.0
 11
338.3956631662257
 21
117.0368188982311
 31
0.0
  0
LINE
  5
1155
330
2
100
AcDbEntity
  8
0
100
AcDbLine
 10
419.6956631662268
 20
126.5368188982511
 30
0.0
 11
353.1956631662204
 21
126.5368188982511
 31
0.0
  0
LINE
  5
1156
330
2
100
AcDbEntity
  8
0
100
AcDbLine
 10
419.6956631662268
 20
123.5368188982511
 30
0.0
 11
353.1956631662204
 21
123.5368188982511
 31
0.0
  0
LINE
  5
1157
330
2
100
AcDbEntity
  8
0
100
AcDbLine
 10
419.6956631662259
 20
108.8288540641151
 30
0.0
 11
353.1956631662204
 21
108.8288540641151
 31
0.0
  0
LINE
  5
1158
330
2
100
AcDbEntity
  8
0
100
AcDbLine
 10
353.1956631662204
 20
126.5368188982511
 30
0.0
 11
345.6956631662232
 21
126.5368188982511
 31
0.0
  0
LINE
  5
1159
330
2
100
AcDbEntity
  8
0
100
AcDbLine
 10
353.1956631662204
 20
123.5368188982511
 30
0.0
 11
345.6956631662232
 21
123.5368188982511
 31
0.0
  0
LINE
  5
115A
330
2
100
AcDbEntity
  8
0
100
AcDbLine
 10
353.1956631662204
 20
108.8288540641151
 30
0.0
 11
345.6956631662232
 21
108.8288540641151
 31
0.0
  0
LINE
  5
115B
330
2
100
AcDbEntity
  8
0
100
AcDbLine
 10
419.6956631662268
 20
54.53681889821115
 30
0.0
 11
353.1956631662204
 21
54.53681889821115
 31
0.0
  0
LINE
  5
115C
330
2
100
AcDbEntity
  8
0
100
AcDbLine
 10
419.6956631662268
 20
57.53681889821115
 30
0.0
 11
353.1956631662204
 21
57.53681889821115
 31
0.0
  0
LINE
  5
115D
330
2
100
AcDbEntity
  8
0
100
AcDbLine
 10
419.6956631662259
 20
72.24478373234711
 30
0.0
 11
353.1956631662204
 21
72.24478373234711
 31
0.0
  0
LINE
  5
115E
330
2
100
AcDbEntity
  8
0
100
AcDbLine
 10
353.1956631662204
 20
54.53681889821115
 30
0.0
 11
345.6956631662232
 21
54.53681889821115
 31
0.0
  0
LINE
  5
115F
330
2
100
AcDbEntity
  8
0
100
AcDbLine
 10
353.1956631662204
 20
57.53681889821115
 30
0.0
 11
345.6956631662232
 21
57.53681889821115
 31
0.0
  0
LINE
  5
1160
330
2
100
AcDbEntity
  8
0
100
AcDbLine
 10
353.1956631662204
 20
72.24478373234711
 30
0.0
 11
345.6956631662232
 21
72.24478373234711
 31
0.0
  0
LINE
  5
1161
330
2
100
AcDbEntity
  8
CENTER
  6
CENS
100
AcDbLine
 10
333.1956631662232
 20
125.0368188982498
 30
0.0
 11
358.2584099103695
 21
125.0368188982498
 31
0.0
  0
LINE
  5
1162
330
2
100
AcDbEntity
  8
0
100
AcDbLine
 10
344.195663166224
 20
120.0368188982497
 30
0.0
 11
338.5956631662237
 21
120.0368188982497
 31
0.0
  0
LINE
  5
1163
330
2
100
AcDbEntity
  8
0
100
AcDbLine
 10
344.195663166224
 20
130.0368188982498
 30
0.0
 11
338.5956631662237
 21
130.0368188982498
 31
0.0
  0
LINE
  5
1164
330
2
100
AcDbEntity
  8
0
100
AcDbLine
 10
344.195663166224
 20
130.0368188982498
 30
0.0
 11
344.195663166224
 21
120.0368188982502
 31
0.0
  0
LINE
  5
1165
330
2
100
AcDbEntity
  8
0
100
AcDbLine
 10
338.1956631662241
 20
129.343998575222
 30
0.0
 11
338.1956631662232
 21
120.7296392212775
 31
0.0
  0
LINE
  5
1166
330
2
100
AcDbEntity
  8
0
100
AcDbLine
 10
338.5956631662237
 20
130.0368188982498
 30
0.0
 11
338.5956631662237
 21
120.0368188982497
 31
0.0
  0
LINE
  5
1167
330
2
100
AcDbEntity
  8
0
100
AcDbLine
 10
338.5956631662237
 20
130.0368188982498
 30
0.0
 11
338.1956631662241
 21
129.343998575222
 31
0.0
  0
LINE
  5
1168
330
2
100
AcDbEntity
  8
0
100
AcDbLine
 10
338.5956631662237
 20
120.0368188982497
 30
0.0
 11
338.1956631662241
 21
120.7296392212775
 31
0.0
  0
LINE
  5
1169
330
2
100
AcDbEntity
  8
0
100
AcDbLine
 10
344.1956631662232
 20
130.0368188982498
 30
0.0
 11
345.6956631662232
 21
130.0368188982498
 31
0.0
  0
LINE
  5
116A
330
2
100
AcDbEntity
  8
0
100
AcDbLine
 10
344.1956631662232
 20
120.0368188982497
 30
0.0
 11
345.6956631662232
 21
120.0368188982497
 31
0.0
  0
LINE
  5
116B
330
2
100
AcDbEntity
  8
HIDS
  6
SEKKEI_H
100
AcDbLine
 10
342.1956631662204
 20
120.0368188982497
 30
0.0
 11
342.1956631662204
 21
123.2083917734845
 31
0.0
  0
LINE
  5
116C
330
2
100
AcDbEntity
  8
CENTER
  6
CENS
100
AcDbLine
 10
333.1956631662232
 20
56.03681889821252
 30
0.0
 11
358.2584099103695
 21
56.03681889821252
 31
0.0
  0
LINE
  5
116D
330
2
100
AcDbEntity
  8
0
100
AcDbLine
 10
344.195663166224
 20
61.03681889821252
 30
0.0
 11
338.5956631662237
 21
61.03681889821252
 31
0.0
  0
LINE
  5
116E
330
2
100
AcDbEntity
  8
0
100
AcDbLine
 10
344.195663166224
 20
51.03681889821252
 30
0.0
 11
338.5956631662237
 21
51.03681889821252
 31
0.0
  0
LINE
  5
116F
330
2
100
AcDbEntity
  8
0
100
AcDbLine
 10
344.195663166224
 20
51.03681889821252
 30
0.0
 11
344.195663166224
 21
61.03681889821206
 31
0.0
  0
LINE
  5
1170
330
2
100
AcDbEntity
  8
0
100
AcDbLine
 10
338.1956631662241
 20
51.72963922124023
 30
0.0
 11
338.1956631662232
 21
60.34399857518479
 31
0.0
  0
LINE
  5
1171
330
2
100
AcDbEntity
  8
0
100
AcDbLine
 10
338.5956631662237
 20
51.03681889821252
 30
0.0
 11
338.5956631662237
 21
61.03681889821252
 31
0.0
  0
LINE
  5
1172
330
2
100
AcDbEntity
  8
0
100
AcDbLine
 10
338.5956631662237
 20
51.03681889821252
 30
0.0
 11
338.1956631662241
 21
51.72963922124023
 31
0.0
  0
LINE
  5
1173
330
2
100
AcDbEntity
  8
0
100
AcDbLine
 10
338.5956631662237
 20
61.03681889821252
 30
0.0
 11
338.1956631662241
 21
60.34399857518479
 31
0.0
  0
LINE
  5
1174
330
2
100
AcDbEntity
  8
0
100
AcDbLine
 10
344.1956631662232
 20
51.03681889821252
 30
0.0
 11
345.6956631662232
 21
51.03681889821252
 31
0.0
  0
LINE
  5
1175
330
2
100
AcDbEntity
  8
0
100
AcDbLine
 10
344.1956631662232
 20
61.03681889821252
 30
0.0
 11
345.6956631662232
 21
61.03681889821252
 31
0.0
  0
LINE
  5
1176
330
2
100
AcDbEntity
  8
HIDS
  6
SEKKEI_H
100
AcDbLine
 10
342.1956631662204
 20
61.03681889821252
 30
0.0
 11
342.1956631662204
 21
57.86524602297783
 31
0.0
  0
LINE
  5
1177
330
2
100
AcDbEntity
  8
0
100
AcDbLine
 10
331.6956716202629
 20
105.0338653272383
 30
0.0
 11
331.6956716202629
 21
76.0338653272384
 31
0.0
  0
LINE
  5
1178
330
2
100
AcDbEntity
  8
0
100
AcDbLine
 10
450.6956631662232
 20
105.0367728982315
 30
0.0
 11
450.6956631662232
 21
76.03677289823105
 31
0.0
  0
LINE
  5
1179
330
2
100
AcDbEntity
  8
0
100
AcDbLine
 10
423.6956631662232
 20
100.036772898231
 30
0.0
 11
423.6956631662232
 21
81.03677289823105
 31
0.0
  0
LINE
  5
117A
330
2
100
AcDbEntity
  8
CENTER
  6
CENS
100
AcDbLine
 10
442.6956631662232
 20
96.30074985656126
 30
0.0
 11
442.6956631662232
 21
109.8050704992898
 31
0.0
  0
LINE
  5
117B
330
2
100
AcDbEntity
  8
0
100
AcDbLine
 10
427.5252002872901
 20
76.03677289823105
 30
0.0
 11
450.6956631662232
 21
76.03677289823105
 31
0.0
  0
LINE
  5
117C
330
2
100
AcDbEntity
  8
0
100
AcDbLine
 10
345.8379056629008
 20
76.0338653272384
 30
0.0
 11
331.6956716202629
 21
76.0338653272384
 31
0.0
  0
LINE
  5
117D
330
2
100
AcDbEntity
  8
0
100
AcDbLine
 10
331.6956716202629
 20
102.3367728982312
 30
0.0
 11
450.6956631662232
 21
102.3367728982312
 31
0.0
  0
LINE
  5
117E
330
2
100
AcDbEntity
  8
0
100
AcDbLine
 10
423.6956631662232
 20
81.5367728982315
 30
0.0
 11
433.6956631662222
 21
81.5367728982315
 31
0.0
  0
LINE
  5
117F
330
2
100
AcDbEntity
  8
0
100
AcDbLine
 10
423.6956631662232
 20
99.53677289823104
 30
0.0
 11
433.6956631662222
 21
99.53677289823104
 31
0.0
  0
LINE
  5
1180
330
2
100
AcDbEntity
  8
0
100
AcDbLine
 10
427.5251718157486
 20
105.0367728982315
 30
0.0
 11
450.6956631662232
 21
105.0367728982315
 31
0.0
  0
LINE
  5
1181
330
2
100
AcDbEntity
  8
0
100
AcDbLine
 10
439.6956631662223
 20
100.036772898231
 30
0.0
 11
445.6956631662231
 21
100.036772898231
 31
0.0
  0
LINE
  5
1182
330
2
100
AcDbEntity
  8
0
100
AcDbLine
 10
439.6956631662223
 20
81.03677289823151
 30
0.0
 11
445.6956631662231
 21
81.03677289823151
 31
0.0
  0
LINE
  5
1183
330
2
100
AcDbEntity
  8
0
100
AcDbLine
 10
445.6956631662231
 20
81.03677289823151
 30
0.0
 11
445.6956631662231
 21
100.036772898231
 31
0.0
  0
LINE
  5
1184
330
2
100
AcDbEntity
  8
0
100
AcDbLine
 10
448.6956631662232
 20
99.53677289823104
 30
0.0
 11
448.695663166224
 21
81.53677289823196
 31
0.0
  0
LINE
  5
1185
330
2
100
AcDbEntity
  8
0
100
AcDbLine
 10
450.6956631662241
 20
80.38207235985288
 30
0.0
 11
448.695663166224
 21
81.53677289823196
 31
0.0
  0
LINE
  5
1186
330
2
100
AcDbEntity
  8
0
100
AcDbLine
 10
445.6956631662231
 20
81.5367728982315
 30
0.0
 11
448.6956631662232
 21
81.5367728982315
 31
0.0
  0
LINE
  5
1187
330
2
100
AcDbEntity
  8
0
100
AcDbLine
 10
450.6956631662232
 20
100.6914734366101
 30
0.0
 11
448.6956631662232
 21
99.53677289823104
 31
0.0
  0
LINE
  5
1188
330
2
100
AcDbEntity
  8
0
100
AcDbLine
 10
445.6956631662231
 20
99.53677289823104
 30
0.0
 11
448.6956631662232
 21
99.53677289823104
 31
0.0
  0
LINE
  5
1189
330
2
100
AcDbEntity
  8
0
100
AcDbLine
 10
439.6956631662223
 20
81.03677289823151
 30
0.0
 11
439.6956631662223
 21
100.036772898231
 31
0.0
  0
LINE
  5
118A
330
2
100
AcDbEntity
  8
0
100
AcDbLine
 10
434.8456631662237
 20
100.036772898231
 30
0.0
 11
434.8456631662237
 21
81.03677289823105
 31
0.0
  0
LINE
  5
118B
330
2
100
AcDbEntity
  8
0
100
AcDbLine
 10
433.6956631662222
 20
100.036772898231
 30
0.0
 11
433.6956631662222
 21
81.03677289823105
 31
0.0
  0
LINE
  5
118C
330
2
100
AcDbEntity
  8
0
100
AcDbLine
 10
434.8456631662237
 20
81.5367728982315
 30
0.0
 11
439.6956631662223
 21
81.53677289823106
 31
0.0
  0
LINE
  5
118D
330
2
100
AcDbEntity
  8
0
100
AcDbLine
 10
434.8456631662237
 20
99.53677289823104
 30
0.0
 11
439.6956631662223
 21
99.53677289823104
 31
0.0
  0
LINE
  5
118E
330
2
100
AcDbEntity
  8
0
100
AcDbLine
 10
419.6956631662231
 20
105.536772898231
 30
0.0
 11
419.6956631662231
 21
105.036772898231
 31
0.0
  0
LINE
  5
118F
330
2
100
AcDbEntity
  8
0
100
AcDbLine
 10
419.6956631662231
 20
76.03677289823105
 30
0.0
 11
419.6956631662231
 21
75.53677289823105
 31
0.0
  0
LINE
  5
1190
330
2
100
AcDbEntity
  8
0
100
AcDbLine
 10
345.8431811393137
 20
105.0338653272383
 30
0.0
 11
331.6956716202629
 21
105.0338653272383
 31
0.0
  0
LINE
  5
1191
330
2
100
AcDbEntity
  8
0
100
AcDbLine
 10
354.6956716202629
 20
100.036772898231
 30
0.0
 11
354.6956716202629
 21
81.03677289823105
 31
0.0
  0
LINE
  5
1192
330
2
100
AcDbEntity
  8
0
100
AcDbLine
 10
333.6956716202629
 20
99.53681889823116
 30
0.0
 11
333.6956716202629
 21
81.53681889823117
 31
0.0
  0
LINE
  5
1193
330
2
100
AcDbEntity
  8
0
100
AcDbLine
 10
342.5456716202633
 20
100.0338653272384
 30
0.0
 11
342.5456716202633
 21
81.0338653272384
 31
0.0
  0
LINE
  5
1194
330
2
100
AcDbEntity
  8
0
100
AcDbLine
 10
343.6956716202629
 20
100.0338653272384
 30
0.0
 11
343.6956716202629
 21
81.0338653272384
 31
0.0
  0
LINE
  5
1195
330
2
100
AcDbEntity
  8
0
100
AcDbLine
 10
333.6956716202629
 20
81.53681889823117
 30
0.0
 11
331.6956716202629
 21
80.38211835985208
 31
0.0
  0
LINE
  5
1196
330
2
100
AcDbEntity
  8
0
100
AcDbLine
 10
333.6956716202629
 20
99.53681889823116
 30
0.0
 11
331.6956716202629
 21
100.6915194366102
 31
0.0
  0
LINE
  5
1197
330
2
100
AcDbEntity
  8
0
100
AcDbLine
 10
444.7456631657067
 20
102.3367728982312
 30
0.0
 11
444.7456631657067
 21
105.0367728982315
 31
0.0
  0
LINE
  5
1198
330
2
100
AcDbEntity
  8
0
100
AcDbLine
 10
440.6456631667396
 20
102.3367728982312
 30
0.0
 11
440.6456631667396
 21
105.0367728982315
 31
0.0
  0
LINE
  5
1199
330
2
100
AcDbEntity
  8
HOJO
100
AcDbLine
 10
445.1956631662231
 20
102.3367728982312
 30
0.0
 11
445.1956631662231
 21
105.0367728982315
 31
0.0
  0
LINE
  5
119A
330
2
100
AcDbEntity
  8
HOJO
100
AcDbLine
 10
440.1956631662259
 20
102.3367728982312
 30
0.0
 11
440.1956631662259
 21
105.0367728982315
 31
0.0
  0
LINE
  5
119B
330
2
100
AcDbEntity
  8
0
100
AcDbLine
 10
433.6956631662222
 20
100.036772898231
 30
0.0
 11
434.8456631662237
 21
100.036772898231
 31
0.0
  0
LINE
  5
119C
330
2
100
AcDbEntity
  8
0
100
AcDbLine
 10
433.6956631662222
 20
81.03677289823105
 30
0.0
 11
434.8456631662237
 21
81.03677289823105
 31
0.0
  0
LINE
  5
119D
330
2
100
AcDbEntity
  8
0
100
AcDbLine
 10
342.5456716202633
 20
100.0338653272384
 30
0.0
 11
343.6956716202629
 21
100.0338653272384
 31
0.0
  0
LINE
  5
119E
330
2
100
AcDbEntity
  8
0
100
AcDbLine
 10
342.5456716202633
 20
81.0338653272384
 30
0.0
 11
343.6956716202629
 21
81.0338653272384
 31
0.0
  0
LINE
  5
119F
330
2
100
AcDbEntity
  8
0
100
AcDbLine
 10
354.6956716202629
 20
100.036772898231
 30
0.0
 11
423.6956631662232
 21
100.036772898231
 31
0.0
  0
LINE
  5
11A0
330
2
100
AcDbEntity
  8
0
100
AcDbLine
 10
423.6956631662232
 20
81.03677289823105
 30
0.0
 11
354.6956716202629
 21
81.03677289823105
 31
0.0
  0
LINE
  5
11A1
330
2
100
AcDbEntity
  8
0
100
AcDbLine
 10
354.6956716202629
 20
99.53681889823116
 30
0.0
 11
343.6956716202629
 21
99.53681889823116
 31
0.0
  0
LINE
  5
11A2
330
2
100
AcDbEntity
  8
0
100
AcDbLine
 10
354.6956716202629
 20
81.53681889823117
 30
0.0
 11
343.6956716202629
 21
81.53681889823117
 31
0.0
  0
LINE
  5
11A3
330
2
100
AcDbEntity
  8
0
100
AcDbLine
 10
342.5456716202633
 20
99.53681889823116
 30
0.0
 11
333.6956716202629
 21
99.53681889823116
 31
0.0
  0
LINE
  5
11A4
330
2
100
AcDbEntity
  8
0
100
AcDbLine
 10
342.5456716202633
 20
81.53681889823117
 30
0.0
 11
333.6956716202629
 21
81.53681889823117
 31
0.0
  0
LINE
  5
11A5
330
2
100
AcDbEntity
  8
0
100
AcDbLine
 10
436.695663166224
 20
67.53681889823116
 30
0.0
 11
436.695663166224
 21
76.03677289823105
 31
0.0
  0
LINE
  5
11A6
330
2
100
AcDbEntity
  8
0
100
AcDbLine
 10
436.695663166224
 20
105.0367728982315
 30
0.0
 11
436.695663166224
 21
113.5368188982302
 31
0.0
  0
LINE
  5
11A7
330
2
100
AcDbEntity
  8
0
100
AcDbLine
 10
428.6956631662241
 20
67.2724921923546
 30
0.0
 11
428.6956631662241
 21
76.03677289823105
 31
0.0
  0
LINE
  5
11A8
330
2
100
AcDbEntity
  8
0
100
AcDbLine
 10
428.6956631662241
 20
105.0367728982315
 30
0.0
 11
428.6956631662241
 21
113.8011456041077
 31
0.0
  0
LINE
  5
11A9
330
2
100
AcDbEntity
  8
0
100
AcDbLine
 10
436.695663166224
 20
67.53681889823116
 30
0.0
 11
428.6956631662241
 21
67.53681889823116
 31
0.0
  0
LINE
  5
11AA
330
2
100
AcDbEntity
  8
0
100
AcDbLine
 10
436.695663166224
 20
67.53681889823116
 30
0.0
 11
437.6956631662241
 21
66.95946862904162
 31
0.0
  0
LINE
  5
11AB
330
2
100
AcDbEntity
  8
0
100
AcDbLine
 10
428.6956631662241
 20
67.2724921923546
 30
0.0
 11
427.7047509499469
 21
67.24654424277701
 31
0.0
  0
LINE
  5
11AC
330
2
100
AcDbEntity
  8
0
100
AcDbLine
 10
436.695663166224
 20
113.5368188982302
 30
0.0
 11
428.6956631662241
 21
113.5368188982302
 31
0.0
  0
LINE
  5
11AD
330
2
100
AcDbEntity
  8
0
100
AcDbLine
 10
436.695663166224
 20
113.5368188982311
 30
0.0
 11
437.6956631662241
 21
114.1141691674202
 31
0.0
  0
LINE
  5
11AE
330
2
100
AcDbEntity
  8
0
100
AcDbLine
 10
428.6956631662241
 20
113.8011456041077
 30
0.0
 11
427.7047509499269
 21
113.8270935536857
 31
0.0
  0
SPLINE
  5
11AF
330
2
100
AcDbEntity
  8
HOJO
100
AcDbSpline
210
0.0
220
0.0
230
1.0
 70
     8
 71
     3
 72
    30
 73
    26
 74
     0
 42
0.0000000001
 43
0.0000000001
 40
0.5016654732119501
 40
0.5016654732119501
 40
0.5016654732119501
 40
0.5016654732119501
 40
2.680955593237801
 40
6.481103170843645
 40
9.861715666174537
 40
12.67866478189151
 40
16.05777144949662
 40
20.04695970870067
 40
22.66457515320929
 40
29.72623868189037
 40
37.99790621919433
 40
46.99071548625449
 40
54.49076198617444
 40
61.82498628838093
 40
69.45839622923616
 40
80.97138657320707
 40
88.08160211842633
 40
97.70908643514403
 40
100.9862254185234
 40
104.809996963859
 40
108.9004570007386
 40
112.9568108017827
 40
116.4247884416666
 40
119.9571556713895
 40
122.4205000303466
 40
122.4205000303466
 40
122.4205000303466
 40
122.4205000303466
 10
333.6956631662204
 20
115.9126141342022
 30
0.0
 10
334.3548756119206
 20
115.5737593269628
 30
0.0
 10
336.1728799138862
 20
114.711785786405
 30
0.0
 10
339.2318987544066
 20
114.9177896864444
 30
0.0
 10
343.1303420856519
 20
115.2194628722114
 30
0.0
 10
344.2513037418228
 20
111.6673527729618
 30
0.0
 10
344.3919579686861
 20
108.4893228499923
 30
0.0
 10
345.2808428631441
 20
104.8719131004523
 30
0.0
 10
349.7410392833816
 20
102.8717860473571
 30
0.0
 10
355.7754084753604
 20
104.486212849115
 30
0.0
 10
363.8676444386172
 20
102.8636467703937
 30
0.0
 10
372.0761457792531
 20
105.2336764964439
 30
0.0
 10
379.9788724062317
 20
102.9755052900446
 30
0.0
 10
387.4284185375962
 20
105.1334035319696
 30
0.0
 10
396.2046509120444
 20
102.7705591840718
 30
0.0
 10
404.9530315549935
 20
105.2840799268561
 30
0.0
 10
414.3662496208661
 20
102.4406214426917
 30
0.0
 10
420.7172366073199
 20
105.4975545966099
 30
0.0
 10
426.8632996430122
 20
102.2943957763205
 30
0.0
 10
428.3595708115234
 20
107.3352318294878
 30
0.0
 10
426.4580011560036
 20
110.6721282173444
 30
0.0
 10
427.8438161581569
 20
115.2425311878906
 30
0.0
 10
431.8914288945605
 20
115.7468907852904
 30
0.0
 10
435.007524078136
 20
115.4214178542848
 30
0.0
 10
436.9155641941786
 20
116.0128818023332
 30
0.0
 10
437.6956631662241
 20
116.3019580140108
 30
0.0
  0
SPLINE
  5
11B0
330
2
100
AcDbEntity
  8
HOJO
100
AcDbSpline
210
0.0
220
0.0
230
1.0
 70
     8
 71
     3
 72
    30
 73
    26
 74
     0
 42
0.0000000001
 43
0.0000000001
 40
0.5016654732119501
 40
0.5016654732119501
 40
0.5016654732119501
 40
0.5016654732119501
 40
2.680955593237801
 40
6.481103170843645
 40
9.861715666174537
 40
12.67866478189151
 40
16.05777144949662
 40
20.04695970870067
 40
22.66457515320929
 40
29.72623868189037
 40
37.99790621919433
 40
46.99071548625449
 40
54.49076198617444
 40
61.82498628838093
 40
69.45839622923616
 40
80.97138657320707
 40
88.08160211842633
 40
97.70908643514403
 40
100.9862254185234
 40
104.809996963859
 40
108.9004570007386
 40
112.9568108017827
 40
116.4247884416666
 40
119.9571556713895
 40
122.4205000303466
 40
122.4205000303466
 40
122.4205000303466
 40
122.4205000303466
 10
333.6956631662204
 20
65.16102366226011
 30
0.0
 10
334.3548756119206
 20
65.49987846949949
 30
0.0
 10
336.1728799138862
 20
66.36185201005725
 30
0.0
 10
339.2318987544066
 20
66.15584811001787
 30
0.0
 10
343.1303420856519
 20
65.85417492425091
 30
0.0
 10
344.2513037418228
 20
69.40628502350051
 30
0.0
 10
344.3919579686861
 20
72.58431494646998
 30
0.0
 10
345.2808428631441
 20
76.20172469600999
 30
0.0
 10
349.7410392833816
 20
78.20185174910517
 30
0.0
 10
355.7754084753604
 20
76.5874249473473
 30
0.0
 10
363.8676444386172
 20
78.20999102606862
 30
0.0
 10
372.0761457792531
 20
75.83996130001839
 30
0.0
 10
379.9788724062317
 20
78.0981325064177
 30
0.0
 10
387.4284185375962
 20
75.94023426449263
 30
0.0
 10
396.2046509120444
 20
78.30307861239049
 30
0.0
 10
404.9530315549935
 20
75.78955786960619
 30
0.0
 10
414.3662496208661
 20
78.63301635377053
 30
0.0
 10
420.7172366073199
 20
75.57608319985234
 30
0.0
 10
426.8632996430122
 20
78.77924202014179
 30
0.0
 10
428.3595708115234
 20
73.73840596697442
 30
0.0
 10
426.4580011560036
 20
70.40150957911788
 30
0.0
 10
427.8438161581569
 20
65.8311066085717
 30
0.0
 10
431.8914288945605
 20
65.32674701117191
 30
0.0
 10
435.007524078136
 20
65.6522199421775
 30
0.0
 10
436.9155641941786
 20
65.06075599412913
 30
0.0
 10
437.6956631662241
 20
64.77167978245148
 30
0.0
  0
LINE
  5
11B1
330
2
100
AcDbEntity
  8
0
100
AcDbLine
 10
342.6956631662204
 20
76.03977246922392
 30
0.0
 11
342.6956631662204
 21
67.15465554529242
 31
0.0
  0
LINE
  5
11B2
330
2
100
AcDbEntity
  8
0
100
AcDbLine
 10
436.6956631662223
 20
113.5368188982302
 30
0.0
 11
428.6956631662241
 21
105.0367728982315
 31
0.0
  0
LINE
  5
11B3
330
2
100
AcDbEntity
  8
0
100
AcDbLine
 10
428.6956631662241
 20
113.5368188982302
 30
0.0
 11
436.695663166224
 21
105.0367728982315
 31
0.0
  0
LINE
  5
11B4
330
2
100
AcDbEntity
  8
0
100
AcDbLine
 10
436.695663166224
 20
76.03677289823105
 30
0.0
 11
428.6956631662241
 21
67.53681889823116
 31
0.0
  0
LINE
  5
11B5
330
2
100
AcDbEntity
  8
0
100
AcDbLine
 10
428.6956631662241
 20
76.03677289823105
 30
0.0
 11
436.695663166224
 21
67.53681889823116
 31
0.0
  0
LINE
  5
11B6
330
2
100
AcDbEntity
  8
0
100
AcDbLine
 10
342.6956631662204
 20
76.0338653272384
 30
0.0
 11
334.6956631662204
 21
67.53681889823116
 31
0.0
  0
LINE
  5
11B7
330
2
100
AcDbEntity
  8
0
100
AcDbLine
 10
334.6956631662204
 20
76.0338653272384
 30
0.0
 11
342.6956631662204
 21
67.53681889823116
 31
0.0
  0
LINE
  5
11B8
330
2
100
AcDbEntity
  8
0
100
AcDbLine
 10
334.6956631662204
 20
113.5368188982302
 30
0.0
 11
342.6956631662204
 21
105.0338653272383
 31
0.0
  0
LINE
  5
11B9
330
2
100
AcDbEntity
  8
0
100
AcDbLine
 10
342.6956631662204
 20
113.5368188982311
 30
0.0
 11
334.6956631662204
 21
105.0338653272383
 31
0.0
  0
LINE
  5
11BA
330
2
100
AcDbEntity
  8
0
100
AcDbLine
 10
286.6103666269885
 20
335.0841554913204
 30
0.0
 11
286.6103666269885
 21
306.0841554913204
 31
0.0
  0
LINE
  5
11BB
330
2
100
AcDbEntity
  8
0
100
AcDbLine
 10
405.6103581729488
 20
335.0870630623135
 30
0.0
 11
405.6103581729488
 21
306.0870630623131
 31
0.0
  0
LINE
  5
11BC
330
2
100
AcDbEntity
  8
0
100
AcDbLine
 10
392.6103581729479
 20
306.0870630623131
 30
0.0
 11
405.6103581729488
 21
306.0870630623131
 31
0.0
  0
LINE
  5
11BD
330
2
100
AcDbEntity
  8
0
100
AcDbLine
 10
288.6103581729461
 20
306.0841554913204
 30
0.0
 11
286.6103666269885
 21
306.0841554913204
 31
0.0
  0
LINE
  5
11BE
330
2
100
AcDbEntity
  8
0
100
AcDbLine
 10
392.6103581729497
 20
335.0870630623135
 30
0.0
 11
405.6103581729488
 21
335.0870630623135
 31
0.0
  0
LINE
  5
11BF
330
2
100
AcDbEntity
  8
0
100
AcDbLine
 10
288.6103581729461
 20
335.0841554913204
 30
0.0
 11
286.6103666269885
 21
335.0841554913204
 31
0.0
  0
CIRCLE
  5
11C0
330
2
100
AcDbEntity
  8
0
100
AcDbCircle
 10
397.6103581729488
 20
320.5870630623131
 30
0.0
 40
2.049999999999999
  0
CIRCLE
  5
11C1
330
2
100
AcDbEntity
  8
HOJO
100
AcDbCircle
 10
397.6103581729488
 20
320.5871132769298
 30
0.0
 40
2.5
  0
LINE
  5
11C2
330
2
100
AcDbEntity
  8
CENTER
100
AcDbLine
 10
397.6103581729479
 20
325.6885814470557
 30
0.0
 11
397.6103581729479
 21
315.4856366775707
 31
0.0
  0
LINE
  5
11C3
330
2
100
AcDbEntity
  8
0
100
AcDbLine
 10
961.2816595970711
 20
335.0841554913263
 30
0.0
 11
961.2816595970711
 21
306.0841554913263
 31
0.0
  0
LINE
  5
11C4
330
2
100
AcDbEntity
  8
0
100
AcDbLine
 10
842.2816680511107
 20
335.0870630623195
 30
0.0
 11
842.2816680511107
 21
306.0870630623185
 31
0.0
  0
LINE
  5
11C5
330
2
100
AcDbEntity
  8
0
100
AcDbLine
 10
855.2816680511117
 20
306.0870630623185
 30
0.0
 11
842.2816680511107
 21
306.0870630623185
 31
0.0
  0
LINE
  5
11C6
330
2
100
AcDbEntity
  8
0
100
AcDbLine
 10
959.2816680511136
 20
306.0841554913263
 30
0.0
 11
961.2816595970711
 21
306.0841554913263
 31
0.0
  0
LINE
  5
11C7
330
2
100
AcDbEntity
  8
0
100
AcDbLine
 10
855.2816680511099
 20
335.0870630623195
 30
0.0
 11
842.2816680511107
 21
335.0870630623195
 31
0.0
  0
LINE
  5
11C8
330
2
100
AcDbEntity
  8
0
100
AcDbLine
 10
959.2816680511136
 20
335.0841554913263
 30
0.0
 11
961.2816595970711
 21
335.0841554913263
 31
0.0
  0
LINE
  5
11C9
330
2
100
AcDbEntity
  8
0
100
AcDbLine
 10
539.0863846056312
 20
640.4843681344173
 30
0.0
 11
568.0863846056312
 21
640.4843681344173
 31
0.0
  0
LINE
  5
11CA
330
2
100
AcDbEntity
  8
0
100
AcDbLine
 10
539.0834770346376
 20
521.4843765884575
 30
0.0
 11
568.0834770346385
 21
521.4843765884575
 31
0.0
  0
LINE
  5
11CB
330
2
100
AcDbEntity
  8
0
100
AcDbLine
 10
568.0834770346385
 20
534.4843765884584
 30
0.0
 11
568.0834770346385
 21
521.4843765884575
 31
0.0
  0
LINE
  5
11CC
330
2
100
AcDbEntity
  8
0
100
AcDbLine
 10
568.0863846056312
 20
638.4843765884597
 30
0.0
 11
568.0863846056312
 21
640.4843681344173
 31
0.0
  0
LINE
  5
11CD
330
2
100
AcDbEntity
  8
0
100
AcDbLine
 10
539.0834770346376
 20
534.484376588457
 30
0.0
 11
539.0834770346376
 21
521.4843765884575
 31
0.0
  0
LINE
  5
11CE
330
2
100
AcDbEntity
  8
0
100
AcDbLine
 10
539.0863846056312
 20
638.4843765884597
 30
0.0
 11
539.0863846056312
 21
640.4843681344173
 31
0.0
  0
CIRCLE
  5
11CF
330
2
100
AcDbEntity
  8
0
100
AcDbCircle
 10
553.5834770346386
 20
529.4843765884575
 30
0.0
 40
2.049999999999999
  0
CIRCLE
  5
11D0
330
2
100
AcDbEntity
  8
HOJO
100
AcDbCircle
 10
553.5834268200217
 20
529.4843765884575
 30
0.0
 40
2.5
  0
LINE
  5
11D1
330
2
100
AcDbEntity
  8
CENTER
100
AcDbLine
 10
548.4819586498964
 20
529.4843765884584
 30
0.0
 11
558.6849034193805
 21
529.4843765884584
 31
0.0
  0
ARC
  5
11D2
330
2
100
AcDbEntity
  8
0
100
AcDbCircle
 10
553.5834310346348
 20
320.5871090623273
 30
0.0
 40
8.999999999999982
100
AcDbArc
 50
109.4712206344713
 51
70.52877936552867
  0
LINE
  5
11D3
330
2
100
AcDbEntity
  8
0
100
AcDbLine
 10
550.5834310346348
 20
332.3871090623275
 30
0.0
 11
556.5834310346348
 21
332.3871090623275
 31
0.0
  0
LINE
  5
11D4
330
2
100
AcDbEntity
  8
0
100
AcDbLine
 10
550.5834310346348
 20
332.3871090623275
 30
0.0
 11
550.5834310346348
 21
329.0723904365659
 31
0.0
  0
LINE
  5
11D5
330
2
100
AcDbEntity
  8
0
100
AcDbLine
 10
556.5834310346348
 20
332.3871090623275
 30
0.0
 11
556.5834310346357
 21
329.0723904365655
 31
0.0
  0
CIRCLE
  5
11D6
330
2
100
AcDbEntity
  8
0
100
AcDbCircle
 10
553.5834310346348
 20
320.5871090623277
 30
0.0
 40
14.4999539999859
  0
ARC
  5
11D7
330
2
100
AcDbEntity
  8
0
100
AcDbCircle
 10
553.5834310346457
 20
320.5871090623387
 30
0.0
 40
10.15465453835361
100
AcDbArc
 50
107.1833853173834
 51
72.81661468272353
  0
ARC
  5
11D8
330
2
100
AcDbEntity
  8
0
100
AcDbCircle
 10
167.862465545519
 20
320.5871090623341
 30
0.0
 40
8.999999999999982
100
AcDbArc
 50
109.4712206344713
 51
70.52877936552867
  0
LINE
  5
11D9
330
2
100
AcDbEntity
  8
0
100
AcDbLine
 10
164.862465545519
 20
332.3871090623343
 30
0.0
 11
170.862465545519
 21
332.3871090623343
 31
0.0
  0
LINE
  5
11DA
330
2
100
AcDbEntity
  8
0
100
AcDbLine
 10
164.862465545519
 20
332.3871090623343
 30
0.0
 11
164.862465545519
 21
329.0723904365727
 31
0.0
  0
LINE
  5
11DB
330
2
100
AcDbEntity
  8
0
100
AcDbLine
 10
170.862465545519
 20
332.3871090623343
 30
0.0
 11
170.8624655455199
 21
329.0723904365723
 31
0.0
  0
ARC
  5
11DC
330
2
100
AcDbEntity
  8
0
100
AcDbCircle
 10
167.8624655455299
 20
320.5871090623455
 30
0.0
 40
10.15465453835361
100
AcDbArc
 50
107.1833853173834
 51
72.81661468272353
  0
CIRCLE
  5
11DD
330
2
100
AcDbEntity
  8
0
100
AcDbCircle
 10
167.862465545519
 20
320.5871090623346
 30
0.0
 40
14.4999539999859
  0
LINE
  5
11DF
330
2
100
AcDbEntity
  8
0
100
AcDbLine
 10
594.1683496415784
 20
618.9843765857967
 30
0.0
 11
594.3734310346384
 21
595.4843765884611
 31
0.0
  0
ARC
  5
11E0
330
2
100
AcDbEntity
  8
0
100
AcDbCircle
 10
597.3255474969468
 20
600.9843765884607
 30
0.0
 40
3.0
100
AcDbArc
 50
180.4999999999915
 51
270.0
  0
LINE
  5
11E1
330
2
100
AcDbEntity
  8
CENTER
100
AcDbLine
 10
950.9299003292575
 20
293.5983216194554
 30
0.0
 11
950.9299003292575
 21
278.2794319489003
 31
0.0
  0
INSERT
  5
11E2
330
2
100
AcDbEntity
  8
0
100
AcDbBlockReference
  2
A$C79D50562
 10
881.6334357729751
 20
285.9388767841778
 30
0.0
  0
ARC
  5
11E3
330
2
100
AcDbEntity
  8
0
100
AcDbCircle
 10
880.2816680511163
 20
284.5871090623186
 30
0.0
 40
5.0
100
AcDbArc
 50
180.0
 51
270.0
  0
ARC
  5
11E4
330
2
100
AcDbEntity
  8
0
100
AcDbCircle
 10
952.2816680511162
 20
284.5871090623186
 30
0.0
 40
5.0
100
AcDbArc
 50
270.0
 51
0.0
  0
LINE
  5
11E5
330
2
100
AcDbEntity
  8
CENTER
100
AcDbLine
 10
943.2704554939803
 20
355.2353413404594
 30
0.0
 11
958.5893451645345
 21
355.2353413404594
 31
0.0
  0
LINE
  5
11E6
330
2
100
AcDbEntity
  8
0
100
AcDbLine
 10
880.2816680511163
 20
361.5871090623187
 30
0.0
 11
952.2816680511162
 21
361.5871090623187
 31
0.0
  0
ARC
  5
11E7
330
2
100
AcDbEntity
  8
0
100
AcDbCircle
 10
941.2816680511163
 20
345.5871090623186
 30
0.0
 40
5.0
100
AcDbArc
 50
0.0
 51
90.0
  0
ARC
  5
11E8
330
2
100
AcDbEntity
  8
0
100
AcDbCircle
 10
941.2816680511163
 20
345.5871090623186
 30
0.0
 40
6.499999999999829
100
AcDbArc
 50
0.0
 51
90.0
  0
LINE
  5
11E9
330
2
100
AcDbEntity
  8
CENTER
100
AcDbLine
 10
943.2704554939803
 20
285.9388767841778
 30
0.0
 11
958.5893451645345
 21
285.9388767841778
 31
0.0
  0
ARC
  5
11EA
330
2
100
AcDbEntity
  8
0
100
AcDbCircle
 10
941.2816680511163
 20
295.5871090623186
 30
0.0
 40
5.0
100
AcDbArc
 50
270.0
 51
0.0
  0
ARC
  5
11EB
330
2
100
AcDbEntity
  8
0
100
AcDbCircle
 10
941.2816680511163
 20
295.5871090623186
 30
0.0
 40
6.499999999999829
100
AcDbArc
 50
270.0
 51
0.0
  0
LINE
  5
11EC
330
2
100
AcDbEntity
  8
0
100
AcDbLine
 10
946.2816680511163
 20
345.5871090623186
 30
0.0
 11
946.2816680511163
 21
295.5871090623186
 31
0.0
  0
LINE
  5
11ED
330
2
100
AcDbEntity
  8
0
100
AcDbLine
 10
886.2816680511162
 20
345.5871090623186
 30
0.0
 11
886.2816680511162
 21
295.5871090623186
 31
0.0
  0
LINE
  5
11EE
330
2
100
AcDbEntity
  8
0
100
AcDbLine
 10
884.7816680511163
 20
345.5871090623186
 30
0.0
 11
884.7816680511163
 21
295.5871090623186
 31
0.0
  0
CIRCLE
  5
11EF
330
2
100
AcDbEntity
  8
0
100
AcDbCircle
 10
916.2816680511163
 20
320.5871090623186
 30
0.0
 40
25.00000000482703
  0
LINE
  5
11F0
330
2
100
AcDbEntity
  8
0
100
AcDbLine
 10
941.2816680511163
 20
290.5871090623186
 30
0.0
 11
891.2816680511163
 21
290.5871090623186
 31
0.0
  0
LINE
  5
11F1
330
2
100
AcDbEntity
  8
0
100
AcDbLine
 10
941.2816680511163
 20
289.0871090623186
 30
0.0
 11
891.2816680511163
 21
289.0871090623186
 31
0.0
  0
ARC
  5
11F2
330
2
100
AcDbEntity
  8
0
100
AcDbCircle
 10
891.2816680511163
 20
295.5871090623186
 30
0.0
 40
5.0
100
AcDbArc
 50
180.0
 51
270.0
  0
ARC
  5
11F3
330
2
100
AcDbEntity
  8
0
100
AcDbCircle
 10
891.2816680511163
 20
295.5871090623186
 30
0.0
 40
6.499999999999829
100
AcDbArc
 50
180.0
 51
270.0
  0
LINE
  5
11F4
330
2
100
AcDbEntity
  8
CENTER
100
AcDbLine
 10
891.5329307095884
 20
299.2946544432907
 30
0.0
 11
891.5329307095884
 21
292.3820889982885
 31
0.0
  0
LINE
  5
11F5
330
2
100
AcDbEntity
  8
CENTER
100
AcDbLine
 10
888.0766479870866
 20
295.8383717207894
 30
0.0
 11
894.9892134320883
 21
295.8383717207894
 31
0.0
  0
LINE
  5
11F6
330
2
100
AcDbEntity
  8
CENTER
100
AcDbLine
 10
937.574122670146
 20
295.8383717207894
 30
0.0
 11
944.486688115146
 21
295.8383717207894
 31
0.0
  0
LINE
  5
11F7
330
2
100
AcDbEntity
  8
CENTER
100
AcDbLine
 10
941.0304053926459
 20
299.2946544432903
 30
0.0
 11
941.0304053926459
 21
292.3820889982885
 31
0.0
  0
LINE
  5
11F8
330
2
100
AcDbEntity
  8
0
100
AcDbLine
 10
891.2816680511163
 20
350.5871090623187
 30
0.0
 11
941.2816680511163
 21
350.5871090623187
 31
0.0
  0
LINE
  5
11F9
330
2
100
AcDbEntity
  8
0
100
AcDbLine
 10
891.2816680511163
 20
352.0871090623186
 30
0.0
 11
941.2816680511163
 21
352.0871090623186
 31
0.0
  0
ARC
  5
11FA
330
2
100
AcDbEntity
  8
0
100
AcDbCircle
 10
880.2816680511163
 20
356.5871090623186
 30
0.0
 40
5.0
100
AcDbArc
 50
180.0
 51
180.0
  0
LINE
  5
11FB
330
2
100
AcDbEntity
  8
CENTER
100
AcDbLine
 10
873.9739909376979
 20
355.2353413404594
 30
0.0
 11
889.292880608254
 21
355.2353413404594
 31
0.0
  0
LINE
  5
11FC
330
2
100
AcDbEntity
  8
CENTER
100
AcDbLine
 10
881.6334357729751
 20
362.894786175737
 30
0.0
 11
881.6334357729751
 21
347.5758965051819
 31
0.0
  0
ARC
  5
11FD
330
2
100
AcDbEntity
  8
0
100
AcDbCircle
 10
891.2816680511163
 20
345.5871090623186
 30
0.0
 40
5.0
100
AcDbArc
 50
90.0
 51
180.0
  0
ARC
  5
11FE
330
2
100
AcDbEntity
  8
0
100
AcDbCircle
 10
891.2816680511163
 20
345.5871090623186
 30
0.0
 40
6.499999999999829
100
AcDbArc
 50
90.0
 51
180.0
  0
LINE
  5
11FF
330
2
100
AcDbEntity
  8
CENTER
100
AcDbLine
 10
891.5329307095884
 20
348.7921291263488
 30
0.0
 11
891.5329307095884
 21
341.8795636813466
 31
0.0
  0
LINE
  5
1200
330
2
100
AcDbEntity
  8
CENTER
100
AcDbLine
 10
888.0766479870866
 20
345.3358464038474
 30
0.0
 11
894.9892134320883
 21
345.3358464038474
 31
0.0
  0
LINE
  5
1201
330
2
100
AcDbEntity
  8
CENTER
100
AcDbLine
 10
941.0304053926459
 20
348.7921291263488
 30
0.0
 11
941.0304053926459
 21
341.8795636813466
 31
0.0
  0
LINE
  5
1202
330
2
100
AcDbEntity
  8
CENTER
100
AcDbLine
 10
937.574122670146
 20
345.3358464038479
 30
0.0
 11
944.486688115146
 21
345.3358464038479
 31
0.0
  0
LINE
  5
1203
330
2
100
AcDbEntity
  8
0
100
AcDbLine
 10
947.7816680511162
 20
345.5871090623186
 30
0.0
 11
947.7816680511162
 21
295.5871090623186
 31
0.0
  0
LINE
  5
1204
330
2
100
AcDbEntity
  8
CENTER
100
AcDbLine
 10
950.9299003292575
 20
362.894786175737
 30
0.0
 11
950.9299003292575
 21
347.5758965051819
 31
0.0
  0
ARC
  5
1205
330
2
100
AcDbEntity
  8
0
100
AcDbCircle
 10
952.2816680511162
 20
356.5871090623186
 30
0.0
 40
5.0
100
AcDbArc
 50
0.0
 51
90.0
  0
CIRCLE
  5
1206
330
2
100
AcDbEntity
  8
CENTER
100
AcDbCircle
 10
916.2816680511163
 20
320.5871090623186
 30
0.0
 40
35.00000000000003
  0
LINE
  5
1207
330
2
100
AcDbEntity
  8
HIDS
100
AcDbLine
 10
900.0316680511163
 20
352.0871090623186
 30
0.0
 11
900.0316680511163
 21
336.1494835598078
 31
0.0
  0
LINE
  5
1208
330
2
100
AcDbEntity
  8
HIDS
100
AcDbLine
 10
911.5316680511163
 20
352.0871090623186
 30
0.0
 11
911.5316680511163
 21
342.5800056428075
 31
0.0
  0
LINE
  5
1209
330
2
100
AcDbEntity
  8
0
100
AcDbLine
 10
952.2816680511162
 20
279.5871090623186
 30
0.0
 11
880.2816680511163
 21
279.5871090623186
 31
0.0
  0
LINE
  5
120A
330
2
100
AcDbEntity
  8
0
100
AcDbLine
 10
650.5834310302692
 20
555.8361443103199
 30
0.0
 11
650.5834310302692
 21
635.1326088666014
 31
0.0
  0
LINE
  5
120C
330
2
100
AcDbEntity
  8
0
100
AcDbLine
 10
638.5834310302692
 20
636.4843765884611
 30
0.0
 11
648.600884101266
 21
636.3969555999101
 31
0.0
  0
LINE
  5
120D
330
2
100
AcDbEntity
  8
0
100
AcDbLine
 10
657.5834310302692
 20
627.3247503545612
 30
0.0
 11
676.2960880880663
 21
626.9981197106382
 31
0.0
  0
LINE
  5
120E
330
2
100
AcDbEntity
  8
0
100
AcDbLine
 10
678.5834310302692
 20
625.5367417832458
 30
0.0
 11
681.5834310302692
 21
625.4843765884611
 31
0.0
  0
LINE
  5
120F
330
2
100
AcDbEntity
  8
0
100
AcDbLine
 10
638.5834310302692
 20
554.4843765884611
 30
0.0
 11
648.6008841012659
 21
554.5717975770113
 31
0.0
  0
LINE
  5
1212
330
2
100
AcDbEntity
  8
0
100
AcDbLine
 10
678.5834310302692
 20
625.5367417832458
 30
0.0
 11
677.6500539646852
 21
626.4375345342651
 31
0.0
  0
LINE
  5
1213
330
2
100
AcDbEntity
  8
0
100
AcDbLine
 10
657.5834310302692
 20
563.6440028223606
 30
0.0
 11
676.2960880880664
 21
563.9706334662837
 31
0.0
  0
LINE
  5
1214
330
2
100
AcDbEntity
  8
0
100
AcDbLine
 10
678.5834310302692
 20
565.432011393676
 30
0.0
 11
681.5834310302692
 21
565.4843765884611
 31
0.0
  0
LINE
  5
1215
330
2
100
AcDbEntity
  8
0
100
AcDbLine
 10
678.5834310302692
 20
565.432011393676
 30
0.0
 11
677.6500539646853
 21
564.5312186426568
 31
0.0
  0
LINE
  5
1216
330
2
100
AcDbEntity
  8
0
100
AcDbLine
 10
681.5834310302692
 20
625.4843765884611
 30
0.0
 11
681.5834310302692
 21
565.4843765884611
 31
0.0
  0
LINE
  5
1217
330
2
100
AcDbEntity
  8
0
100
AcDbLine
 10
678.5834310302692
 20
565.432011393676
 30
0.0
 11
678.5834310302692
 21
625.5367417832458
 31
0.0
  0
CIRCLE
  5
1218
330
2
100
AcDbEntity
  8
0
100
AcDbCircle
 10
951.133082404994
 20
355.2353413404594
 30
0.0
 40
5.0
  0
CIRCLE
  5
1219
330
2
100
AcDbEntity
  8
0
100
AcDbCircle
 10
951.133082404994
 20
355.2353413404594
 30
0.0
 40
4.307179676972423
  0
CIRCLE
  5
121A
330
2
100
AcDbEntity
  8
0
100
AcDbCircle
 10
951.133082404994
 20
355.2353413404594
 30
0.0
 40
2.886751345948113
  0
LWPOLYLINE
  5
121B
330
2
100
AcDbEntity
  8
0
100
AcDbPolyline
 90
        6
 70
     1
 43
0.0
 10
953.633082404994
 20
356.6787170134335
 10
951.133082404994
 20
358.1220926864076
 10
948.6330824049941
 20
356.6787170134335
 10
948.6330824049941
 20
353.7919656674854
 10
951.133082404994
 20
352.3485899945113
 10
953.633082404994
 20
353.7919656674854
  0
CIRCLE
  5
121C
330
2
100
AcDbEntity
  8
0
100
AcDbCircle
 10
951.133082404994
 20
285.9388767841778
 30
0.0
 40
5.0
  0
CIRCLE
  5
121D
330
2
100
AcDbEntity
  8
0
100
AcDbCircle
 10
951.133082404994
 20
285.9388767841778
 30
0.0
 40
4.307179676972423
  0
CIRCLE
  5
121E
330
2
100
AcDbEntity
  8
0
100
AcDbCircle
 10
951.133082404994
 20
285.9388767841778
 30
0.0
 40
2.886751345948113
  0
LWPOLYLINE
  5
121F
330
2
100
AcDbEntity
  8
0
100
AcDbPolyline
 90
        6
 70
     1
 43
0.0
 10
953.633082404994
 20
287.382252457152
 10
951.133082404994
 20
288.825628130126
 10
948.6330824049941
 20
287.382252457152
 10
948.6330824049941
 20
284.4955011112038
 10
951.133082404994
 20
283.0521254382297
 10
953.633082404994
 20
284.4955011112038
  0
CIRCLE
  5
1220
330
2
100
AcDbEntity
  8
0
100
AcDbCircle
 10
881.6334357729751
 20
285.9388767841778
 30
0.0
 40
5.0
  0
CIRCLE
  5
1221
330
2
100
AcDbEntity
  8
0
100
AcDbCircle
 10
881.6334357729751
 20
285.9388767841778
 30
0.0
 40
4.307179676972423
  0
CIRCLE
  5
1222
330
2
100
AcDbEntity
  8
0
100
AcDbCircle
 10
881.6334357729751
 20
285.9388767841778
 30
0.0
 40
2.886751345948113
  0
LWPOLYLINE
  5
1223
330
2
100
AcDbEntity
  8
0
100
AcDbPolyline
 90
        6
 70
     1
 43
0.0
 10
884.1334357729751
 20
287.382252457152
 10
881.6334357729751
 20
288.825628130126
 10
879.133435772975
 20
287.382252457152
 10
879.133435772975
 20
284.4955011112038
 10
881.6334357729751
 20
283.0521254382297
 10
884.1334357729751
 20
284.4955011112038
  0
CIRCLE
  5
1224
330
2
100
AcDbEntity
  8
0
100
AcDbCircle
 10
881.6334357729751
 20
355.2353413404594
 30
0.0
 40
5.0
  0
CIRCLE
  5
1225
330
2
100
AcDbEntity
  8
0
100
AcDbCircle
 10
881.6334357729751
 20
355.2353413404594
 30
0.0
 40
4.307179676972423
  0
CIRCLE
  5
1226
330
2
100
AcDbEntity
  8
0
100
AcDbCircle
 10
881.6334357729751
 20
355.2353413404594
 30
0.0
 40
2.886751345948113
  0
LWPOLYLINE
  5
1227
330
2
100
AcDbEntity
  8
0
100
AcDbPolyline
 90
        6
 70
     1
 43
0.0
 10
884.1334357729751
 20
356.6787170134335
 10
881.6334357729751
 20
358.1220926864076
 10
879.133435772975
 20
356.6787170134335
 10
879.133435772975
 20
353.7919656674854
 10
881.6334357729751
 20
352.3485899945113
 10
884.1334357729751
 20
353.7919656674854
  0
LINE
  5
1228
330
2
100
AcDbEntity
  8
CENTER
  6
CENS
100
AcDbLine
 10
635.5834310302692
 20
560.8361443103198
 30
0.0
 11
662.5834310302693
 21
560.8361443103198
 31
0.0
  0
LINE
  5
1229
330
2
100
AcDbEntity
  8
0
100
AcDbLine
 10
657.1834310302696
 20
565.8361443103199
 30
0.0
 11
657.1834310302696
 21
555.8361443103199
 31
0.0
  0
LINE
  5
122A
330
2
100
AcDbEntity
  8
0
100
AcDbLine
 10
657.5834310302692
 20
556.5289646333476
 30
0.0
 11
657.5834310302692
 21
565.1433239872926
 31
0.0
  0
LINE
  5
122B
330
2
100
AcDbEntity
  8
0
100
AcDbLine
 10
651.5834310302692
 20
565.8361443103199
 30
0.0
 11
651.5834310302692
 21
555.8361443103199
 31
0.0
  0
LINE
  5
122C
330
2
100
AcDbEntity
  8
0
100
AcDbLine
 10
651.5834310302692
 20
555.8361443103199
 30
0.0
 11
650.5834310302692
 21
555.8361443103199
 31
0.0
  0
LINE
  5
122D
330
2
100
AcDbEntity
  8
0
100
AcDbLine
 10
650.5834310302692
 20
565.8361443103199
 30
0.0
 11
651.5834310302692
 21
565.8361443103199
 31
0.0
  0
LINE
  5
122E
330
2
100
AcDbEntity
  8
0
100
AcDbLine
 10
651.5834310302692
 20
565.8361443103199
 30
0.0
 11
651.5834310302692
 21
555.8361443103199
 31
0.0
  0
LINE
  5
122F
330
2
100
AcDbEntity
  8
0
100
AcDbLine
 10
657.1834310302696
 20
565.8361443103199
 30
0.0
 11
651.5834310302692
 21
565.8361443103199
 31
0.0
  0
LINE
  5
1230
330
2
100
AcDbEntity
  8
0
100
AcDbLine
 10
651.5834310302692
 20
555.8361443103199
 30
0.0
 11
657.1834310302696
 21
555.8361443103199
 31
0.0
  0
LINE
  5
1231
330
2
100
AcDbEntity
  8
0
100
AcDbLine
 10
657.1834310302696
 20
555.8361443103199
 30
0.0
 11
657.5834310302692
 21
556.5289646333476
 31
0.0
  0
LINE
  5
1232
330
2
100
AcDbEntity
  8
CENTER
  6
CENS
100
AcDbLine
 10
635.5834310302692
 20
630.1326088666014
 30
0.0
 11
662.5834310302693
 21
630.1326088666014
 31
0.0
  0
LINE
  5
1233
330
2
100
AcDbEntity
  8
0
100
AcDbLine
 10
657.1834310302696
 20
625.1326088666014
 30
0.0
 11
657.1834310302696
 21
635.1326088666014
 31
0.0
  0
LINE
  5
1234
330
2
100
AcDbEntity
  8
0
100
AcDbLine
 10
657.5834310302692
 20
634.4397885435742
 30
0.0
 11
657.5834310302692
 21
625.8254291896296
 31
0.0
  0
LINE
  5
1235
330
2
100
AcDbEntity
  8
0
100
AcDbLine
 10
651.5834310302692
 20
625.1326088666014
 30
0.0
 11
651.5834310302692
 21
635.1326088666014
 31
0.0
  0
LINE
  5
1236
330
2
100
AcDbEntity
  8
0
100
AcDbLine
 10
651.5834310302692
 20
635.1326088666014
 30
0.0
 11
650.5834310302692
 21
635.1326088666014
 31
0.0
  0
LINE
  5
1237
330
2
100
AcDbEntity
  8
0
100
AcDbLine
 10
650.5834310302692
 20
625.1326088666014
 30
0.0
 11
651.5834310302692
 21
625.1326088666014
 31
0.0
  0
LINE
  5
1238
330
2
100
AcDbEntity
  8
0
100
AcDbLine
 10
651.5834310302692
 20
625.1326088666014
 30
0.0
 11
651.5834310302692
 21
635.1326088666014
 31
0.0
  0
LINE
  5
1239
330
2
100
AcDbEntity
  8
0
100
AcDbLine
 10
657.1834310302696
 20
625.1326088666014
 30
0.0
 11
651.5834310302692
 21
625.1326088666014
 31
0.0
  0
LINE
  5
123A
330
2
100
AcDbEntity
  8
0
100
AcDbLine
 10
651.5834310302692
 20
635.1326088666014
 30
0.0
 11
657.1834310302696
 21
635.1326088666014
 31
0.0
  0
LINE
  5
123B
330
2
100
AcDbEntity
  8
0
100
AcDbLine
 10
657.1834310302696
 20
635.1326088666019
 30
0.0
 11
657.5834310302692
 21
634.4397885435742
 31
0.0
  0
LINE
  5
123C
330
2
100
AcDbEntity
  8
0
100
AcDbLine
 10
657.1834310302696
 20
625.1326088666014
 30
0.0
 11
657.5834310302692
 21
625.8254291896292
 31
0.0
  0
LINE
  5
123D
330
2
100
AcDbEntity
  8
0
100
AcDbLine
 10
657.5834310302692
 20
565.1433239872926
 30
0.0
 11
657.1834310302696
 21
565.8361443103199
 31
0.0
  0
LINE
  5
123E
330
2
100
AcDbEntity
  8
HIDS
100
AcDbLine
 10
907.7816680511162
 20
319.8371090623187
 30
0.0
 11
907.7816680511162
 21
311.3871090623188
 31
0.0
  0
LINE
  5
123F
330
2
100
AcDbEntity
  8
HIDS
100
AcDbLine
 10
907.4483347177842
 20
319.8371090623187
 30
0.0
 11
907.4483347177842
 21
311.0537757289853
 31
0.0
  0
LINE
  5
1240
330
2
100
AcDbEntity
  8
HIDS
100
AcDbLine
 10
904.1150013844502
 20
319.8371090623187
 30
0.0
 11
904.1150013844502
 21
312.2483608215917
 31
0.0
  0
LINE
  5
1241
330
2
100
AcDbEntity
  8
HIDS
100
AcDbLine
 10
903.7816680511163
 20
319.8371090623187
 30
0.0
 11
903.7816680511163
 21
312.7568791806357
 31
0.0
  0
LINE
  5
1242
330
2
100
AcDbEntity
  8
CENTER
  6
CENS
100
AcDbLine
 10
905.7816680511162
 20
359.5140429598823
 30
0.0
 11
905.7816680511162
 21
309.1348587177618
 31
0.0
  0
LINE
  5
1243
330
2
100
AcDbEntity
  8
HIDS
100
AcDbLine
 10
907.7816680511162
 20
319.8371090623187
 30
0.0
 11
907.7816680511162
 21
308.5325456110777
 31
0.0
  0
LINE
  5
1244
330
2
100
AcDbEntity
  8
HIDS
100
AcDbLine
 10
904.7524659972017
 20
311.3871090623188
 30
0.0
 11
905.7816680511162
 21
311.3871090623188
 31
0.0
  0
LINE
  5
1245
330
2
100
AcDbEntity
  8
0
100
AcDbLine
 10
904.5816680511155
 20
310.5871090623186
 30
0.0
 11
905.4390438300154
 21
310.5871090623186
 31
0.0
  0
LINE
  5
1246
330
2
100
AcDbEntity
  8
0
100
AcDbLine
 10
903.7816680511163
 20
312.7568791806357
 30
0.0
 11
903.7816680511163
 21
311.3871090623188
 31
0.0
  0
LINE
  5
1247
330
2
100
AcDbEntity
  8
HOJO
100
AcDbLine
 10
904.1150013844502
 20
312.2483608215917
 30
0.0
 11
904.1150013844502
 21
311.0537757289853
 31
0.0
  0
LINE
  5
1248
330
2
100
AcDbEntity
  8
0
100
AcDbLine
 10
903.7816680511163
 20
311.3871090623188
 30
0.0
 11
904.7524659972017
 21
311.3871090623188
 31
0.0
  0
LINE
  5
1249
330
2
100
AcDbEntity
  8
0
100
AcDbLine
 10
903.7816680511163
 20
311.3871090623188
 30
0.0
 11
904.5816680511155
 21
310.5871090623186
 31
0.0
  0
LINE
  5
124A
330
2
100
AcDbEntity
  8
HIDS
100
AcDbLine
 10
905.4390438300154
 20
310.5871090623186
 30
0.0
 11
905.7816680511162
 21
310.5871090623186
 31
0.0
  0
LINE
  5
124B
330
2
100
AcDbEntity
  8
HIDS
100
AcDbLine
 10
907.7816680511162
 20
311.3871090623188
 30
0.0
 11
906.981668051117
 21
310.5871090623186
 31
0.0
  0
LINE
  5
124C
330
2
100
AcDbEntity
  8
HIDS
100
AcDbLine
 10
906.981668051117
 20
310.5871090623186
 30
0.0
 11
905.7816680511162
 21
310.5871090623186
 31
0.0
  0
LINE
  5
124D
330
2
100
AcDbEntity
  8
HIDS
100
AcDbLine
 10
907.7816680511162
 20
311.3871090623188
 30
0.0
 11
905.7816680511162
 21
311.3871090623188
 31
0.0
  0
LINE
  5
124E
330
2
100
AcDbEntity
  8
HIDS
100
AcDbLine
 10
907.4483347177842
 20
311.0537757289853
 30
0.0
 11
907.4483347177842
 21
308.7746274338793
 31
0.0
  0
LINE
  5
124F
330
2
100
AcDbEntity
  8
HIDS
100
AcDbLine
 10
902.404978964739
 20
325.5871090623187
 30
0.0
 11
909.2816680511162
 21
325.5871090623187
 31
0.0
  0
LINE
  5
1250
330
2
100
AcDbEntity
  8
HIDS
100
AcDbLine
 10
904.370643745878
 20
329.2871090623185
 30
0.0
 11
909.2816680511162
 21
329.2871090623185
 31
0.0
  0
LINE
  5
1251
330
2
100
AcDbEntity
  8
HIDS
100
AcDbLine
 10
908.7620528088459
 20
329.5871090623187
 30
0.0
 11
904.5956721585966
 21
329.5871090623187
 31
0.0
  0
LINE
  5
1252
330
2
100
AcDbEntity
  8
HIDS
100
AcDbLine
 10
907.7816680511162
 20
323.9204423956517
 30
0.0
 11
903.7816680511163
 21
323.9204423956517
 31
0.0
  0
LINE
  5
1253
330
2
100
AcDbEntity
  8
HIDS
100
AcDbLine
 10
902.404978964739
 20
325.5871090623187
 30
0.0
 11
909.7816680511163
 21
325.5871090623187
 31
0.0
  0
LINE
  5
1254
330
2
100
AcDbEntity
  8
0
100
AcDbLine
 10
901.5507481884592
 20
321.3371090623187
 30
0.0
 11
905.7816680511162
 21
321.3371090623187
 31
0.0
  0
LINE
  5
1255
330
2
100
AcDbEntity
  8
0
100
AcDbLine
 10
901.5507481884592
 20
319.8371090623187
 30
0.0
 11
905.7816680511162
 21
319.8371090623187
 31
0.0
  0
LINE
  5
1256
330
2
100
AcDbEntity
  8
0
100
AcDbLine
 10
902.2816680511162
 20
329.2871090623185
 30
0.0
 11
902.2816680511162
 21
325.5871090623187
 31
0.0
  0
LINE
  5
1257
330
2
100
AcDbEntity
  8
0
100
AcDbLine
 10
903.7816680511163
 20
321.3371090623187
 30
0.0
 11
903.7816680511163
 21
319.8371090623187
 31
0.0
  0
LINE
  5
1258
330
2
100
AcDbEntity
  8
HOJO
100
AcDbLine
 10
904.1150013844502
 20
321.3371090623187
 30
0.0
 11
904.1150013844502
 21
319.8371090623187
 31
0.0
  0
LINE
  5
1259
330
2
100
AcDbEntity
  8
HIDS
100
AcDbLine
 10
903.7816680511163
 20
325.5871090623187
 30
0.0
 11
904.1150013844502
 21
323.9204423956517
 31
0.0
  0
LINE
  5
125A
330
2
100
AcDbEntity
  8
0
100
AcDbLine
 10
902.2816680511162
 20
325.5871090623187
 30
0.0
 11
902.404978964739
 21
325.5871090623187
 31
0.0
  0
LINE
  5
125B
330
2
100
AcDbEntity
  8
HIDS
100
AcDbLine
 10
904.1150013844502
 20
323.9204423956517
 30
0.0
 11
904.1150013844502
 21
321.3371090623187
 31
0.0
  0
LINE
  5
125C
330
2
100
AcDbEntity
  8
HIDS
100
AcDbLine
 10
903.7816680511163
 20
325.5871090623187
 30
0.0
 11
903.7816680511163
 21
321.3371090623187
 31
0.0
  0
LINE
  5
125D
330
2
100
AcDbEntity
  8
HIDS
100
AcDbLine
 10
903.2816680511162
 20
325.5871090623187
 30
0.0
 11
903.2816680511162
 21
321.3371090623187
 31
0.0
  0
LINE
  5
125E
330
2
100
AcDbEntity
  8
0
100
AcDbLine
 10
904.5956721585966
 20
329.5871090623187
 30
0.0
 11
902.8012832933868
 21
329.5871090623187
 31
0.0
  0
LINE
  5
125F
330
2
100
AcDbEntity
  8
0
100
AcDbLine
 10
902.2816680511162
 20
329.2871090623185
 30
0.0
 11
902.8012832933868
 21
329.5871090623187
 31
0.0
  0
LINE
  5
1260
330
2
100
AcDbEntity
  8
0
100
AcDbLine
 10
902.2816680511162
 20
329.2871090623185
 30
0.0
 11
904.370643745878
 21
329.2871090623185
 31
0.0
  0
LINE
  5
1261
330
2
100
AcDbEntity
  8
HIDS
100
AcDbLine
 10
909.2816680511162
 20
325.5871090623187
 30
0.0
 11
909.2816680511162
 21
329.2871090623185
 31
0.0
  0
LINE
  5
1262
330
2
100
AcDbEntity
  8
HIDS
100
AcDbLine
 10
909.7816680511163
 20
333.8276717391841
 30
0.0
 11
909.7816680511163
 21
325.5871090623187
 31
0.0
  0
LINE
  5
1263
330
2
100
AcDbEntity
  8
HOJO
100
AcDbLine
 10
907.4483347177842
 20
321.3371090623187
 30
0.0
 11
907.4483347177842
 21
319.8371090623187
 31
0.0
  0
LINE
  5
1264
330
2
100
AcDbEntity
  8
0
100
AcDbLine
 10
907.7816680511162
 20
321.3371090623187
 30
0.0
 11
907.7816680511162
 21
319.8371090623187
 31
0.0
  0
LINE
  5
1265
330
2
100
AcDbEntity
  8
0
100
AcDbLine
 10
905.7816680511162
 20
319.8371090623187
 30
0.0
 11
909.3219625975793
 21
319.8371090623187
 31
0.0
  0
LINE
  5
1266
330
2
100
AcDbEntity
  8
0
100
AcDbLine
 10
905.7816680511162
 20
321.3371090623187
 30
0.0
 11
909.3219625975793
 21
321.3371090623187
 31
0.0
  0
LINE
  5
1267
330
2
100
AcDbEntity
  8
HIDS
100
AcDbLine
 10
907.7816680511162
 20
325.5871090623187
 30
0.0
 11
907.4483347177842
 21
323.9204423956517
 31
0.0
  0
LINE
  5
1268
330
2
100
AcDbEntity
  8
HIDS
100
AcDbLine
 10
907.7816680511162
 20
325.5871090623187
 30
0.0
 11
907.7816680511162
 21
321.3371090623187
 31
0.0
  0
LINE
  5
1269
330
2
100
AcDbEntity
  8
HIDS
100
AcDbLine
 10
907.4483347177842
 20
323.9204423956517
 30
0.0
 11
907.4483347177842
 21
321.3371090623187
 31
0.0
  0
LINE
  5
126A
330
2
100
AcDbEntity
  8
HIDS
100
AcDbLine
 10
908.2816680511163
 20
325.5871090623187
 30
0.0
 11
908.2816680511163
 21
321.3371090623187
 31
0.0
  0
LINE
  5
126B
330
2
100
AcDbEntity
  8
HIDS
100
AcDbLine
 10
908.7620528088459
 20
329.5871090623187
 30
0.0
 11
909.2816680511162
 21
329.2871090623185
 31
0.0
  0
LINE
  5
126C
330
2
100
AcDbEntity
  8
0
100
AcDbLine
 10
930.2816680511163
 20
319.8371090623187
 30
0.0
 11
923.2413735046533
 21
319.8371090623187
 31
0.0
  0
LINE
  5
126D
330
2
100
AcDbEntity
  8
0
100
AcDbLine
 10
923.2413735046533
 20
321.3371090623187
 30
0.0
 11
930.2816680511163
 21
321.3371090623187
 31
0.0
  0
LINE
  5
126E
330
2
100
AcDbEntity
  8
0
100
AcDbLine
 10
930.2816680511163
 20
321.3371090623187
 30
0.0
 11
930.2816680511163
 21
319.8371090623187
 31
0.0
  0
ARC
  5
126F
330
2
100
AcDbEntity
  8
0
100
AcDbCircle
 10
916.2816680511145
 20
320.58710906232
 30
0.0
 40
8.154700538378051
100
AcDbArc
 50
185.2770359348315
 51
354.7229640651684
  0
ARC
  5
1270
330
2
100
AcDbEntity
  8
0
100
AcDbCircle
 10
916.2816680511145
 20
320.58710906232
 30
0.0
 40
8.154700538378051
100
AcDbArc
 50
5.277035934805344
 51
174.7229640651946
  0
CIRCLE
  5
1271
330
2
100
AcDbEntity
  8
0
100
AcDbCircle
 10
916.2816680511163
 20
320.5871090623186
 30
0.0
 40
7.000000000000113
  0
CIRCLE
  5
1272
330
2
100
AcDbEntity
  8
0
100
AcDbCircle
 10
916.2816680511181
 20
320.5871090623186
 30
0.0
 40
14.75000000000022
  0
CIRCLE
  5
1273
330
2
100
AcDbEntity
  8
0
100
AcDbCircle
 10
667.5834204212191
 20
584.9843765884611
 30
0.0
 40
9.0
  0
LINE
  5
1274
330
2
100
AcDbEntity
  8
CENTER
  6
CENS
100
AcDbLine
 10
667.5834204212172
 20
573.3982107430847
 30
0.0
 11
667.5834204212172
 21
596.5705424338366
 31
0.0
  0
LINE
  5
1275
330
2
100
AcDbEntity
  8
CENTER
  6
CENS
100
AcDbLine
 10
679.1695862665932
 20
584.9843765884607
 30
0.0
 11
655.9972545758413
 21
584.9843765884607
 31
0.0
  0
LINE
  5
1276
330
2
100
AcDbEntity
  8
0
100
AcDbLine
 10
900.9066680511162
 20
356.3395851771307
 30
0.0
 11
910.6566680511162
 21
356.3395851771307
 31
0.0
  0
ARC
  5
1277
330
2
100
AcDbEntity
  8
0
100
AcDbCircle
 10
900.9066680511162
 20
352.0895851771307
 30
0.0
 40
4.25
100
AcDbArc
 50
90.0
 51
179.9485848525427
  0
ARC
  5
1278
330
2
100
AcDbEntity
  8
0
100
AcDbCircle
 10
910.4066680511163
 20
352.0895851771307
 30
0.0
 40
4.25
100
AcDbArc
 50
0.0
 51
90.0
  0
ARC
  5
1279
330
2
100
AcDbEntity
  8
0
100
AcDbCircle
 10
880.2816680511126
 20
356.5871090623186
 30
0.0
 40
5.0
100
AcDbArc
 50
90.0
 51
180.0
  0
LINE
  5
127A
330
2
100
AcDbEntity
  8
0
100
AcDbLine
 10
70.86246554553008
 20
359.4997642276533
 30
0.0
 11
70.86246554553008
 21
280.9388767841911
 31
0.0
  0
LINE
  5
127B
330
2
100
AcDbEntity
  8
0
100
AcDbLine
 10
82.86246554553008
 20
279.5871090623318
 30
0.0
 11
72.84501247453327
 21
279.6745300508828
 31
0.0
  0
LINE
  5
127C
330
2
100
AcDbEntity
  8
0
100
AcDbLine
 10
63.86246554553008
 20
288.7467352962313
 30
0.0
 11
45.14980848773265
 21
289.0733659401549
 31
0.0
  0
LINE
  5
127D
330
2
100
AcDbEntity
  8
0
100
AcDbLine
 10
42.86246554553009
 20
290.5347438675467
 30
0.0
 11
39.86246554553008
 21
290.5871090623318
 31
0.0
  0
LINE
  5
127E
330
2
100
AcDbEntity
  8
0
100
AcDbLine
 10
82.86246554553008
 20
361.5871090623318
 30
0.0
 11
72.84501247453343
 21
361.4996880737816
 31
0.0
  0
LINE
  5
1281
330
2
100
AcDbEntity
  8
0
100
AcDbLine
 10
42.86246554553009
 20
290.5347438675467
 30
0.0
 11
43.79584261111403
 21
289.6339511165276
 31
0.0
  0
LINE
  5
1282
330
2
100
AcDbEntity
  8
0
100
AcDbLine
 10
63.86246554553008
 20
352.4274828284319
 30
0.0
 11
44.86384689817402
 21
352.095860706396
 31
0.0
  0
LINE
  5
1283
330
2
100
AcDbEntity
  8
0
100
AcDbLine
 10
42.86246554553009
 20
350.639474257117
 30
0.0
 11
39.86246554553008
 21
350.5871090623319
 31
0.0
  0
LINE
  5
1284
330
2
100
AcDbEntity
  8
0
100
AcDbLine
 10
42.86246554553009
 20
350.639474257117
 30
0.0
 11
43.79584261111389
 21
351.5402670081359
 31
0.0
  0
LINE
  5
1285
330
2
100
AcDbEntity
  8
0
100
AcDbLine
 10
39.86246554553008
 20
290.5871090623318
 30
0.0
 11
39.86246554553008
 21
350.5871090623319
 31
0.0
  0
LINE
  5
1286
330
2
100
AcDbEntity
  8
CENTER
  6
CENS
100
AcDbLine
 10
85.86246554553008
 20
355.2353413404726
 30
0.0
 11
58.86246554553008
 21
355.2353413404726
 31
0.0
  0
LINE
  5
1287
330
2
100
AcDbEntity
  8
0
100
AcDbLine
 10
64.26246554552972
 20
350.2353413404726
 30
0.0
 11
64.26246554552972
 21
360.2353413404726
 31
0.0
  0
LINE
  5
1288
330
2
100
AcDbEntity
  8
0
100
AcDbLine
 10
63.86246554553008
 20
359.5425210174449
 30
0.0
 11
63.86246554553008
 21
350.9281616635003
 31
0.0
  0
LINE
  5
1289
330
2
100
AcDbEntity
  8
0
100
AcDbLine
 10
69.86246554553009
 20
350.2353413404726
 30
0.0
 11
69.86246554553009
 21
360.2353413404726
 31
0.0
  0
LINE
  5
128A
330
2
100
AcDbEntity
  8
0
100
AcDbLine
 10
69.86246554553009
 20
360.2353413404726
 30
0.0
 11
70.86246554553008
 21
360.2353413404726
 31
0.0
  0
LINE
  5
128B
330
2
100
AcDbEntity
  8
0
100
AcDbLine
 10
70.86246554553008
 20
360.2353413404726
 30
0.0
 11
70.86246554553008
 21
350.2353413404726
 31
0.0
  0
LINE
  5
128C
330
2
100
AcDbEntity
  8
0
100
AcDbLine
 10
70.86246554553008
 20
350.2353413404726
 30
0.0
 11
69.86246554553009
 21
350.2353413404726
 31
0.0
  0
LINE
  5
128D
330
2
100
AcDbEntity
  8
0
100
AcDbLine
 10
69.86246554553009
 20
350.2353413404726
 30
0.0
 11
69.86246554553009
 21
360.2353413404726
 31
0.0
  0
LINE
  5
128E
330
2
100
AcDbEntity
  8
0
100
AcDbLine
 10
64.26246554552972
 20
350.2353413404726
 30
0.0
 11
69.86246554553009
 21
350.2353413404726
 31
0.0
  0
LINE
  5
128F
330
2
100
AcDbEntity
  8
0
100
AcDbLine
 10
69.86246554553009
 20
360.2353413404726
 30
0.0
 11
64.26246554552972
 21
360.2353413404726
 31
0.0
  0
LINE
  5
1290
330
2
100
AcDbEntity
  8
0
100
AcDbLine
 10
64.26246554552972
 20
360.2353413404726
 30
0.0
 11
63.86246554553008
 21
359.5425210174449
 31
0.0
  0
LINE
  5
1291
330
2
100
AcDbEntity
  8
0
100
AcDbLine
 10
64.26246554552972
 20
350.2353413404726
 30
0.0
 11
63.86246554553008
 21
350.9281616635003
 31
0.0
  0
LINE
  5
1292
330
2
100
AcDbEntity
  8
CENTER
  6
CENS
100
AcDbLine
 10
85.86246554553008
 20
285.938876784191
 30
0.0
 11
58.86246554553008
 21
285.938876784191
 31
0.0
  0
LINE
  5
1293
330
2
100
AcDbEntity
  8
0
100
AcDbLine
 10
64.26246554552972
 20
290.9388767841911
 30
0.0
 11
64.26246554552972
 21
280.9388767841911
 31
0.0
  0
LINE
  5
1294
330
2
100
AcDbEntity
  8
0
100
AcDbLine
 10
63.86246554553008
 20
281.6316971072183
 30
0.0
 11
63.86246554553008
 21
290.2460564611633
 31
0.0
  0
LINE
  5
1295
330
2
100
AcDbEntity
  8
0
100
AcDbLine
 10
69.86246554553009
 20
290.9388767841911
 30
0.0
 11
69.86246554553009
 21
280.9388767841911
 31
0.0
  0
LINE
  5
1296
330
2
100
AcDbEntity
  8
0
100
AcDbLine
 10
69.86246554553009
 20
280.9388767841911
 30
0.0
 11
70.86246554553008
 21
280.9388767841911
 31
0.0
  0
LINE
  5
1297
330
2
100
AcDbEntity
  8
0
100
AcDbLine
 10
70.86246554553008
 20
290.9388767841911
 30
0.0
 11
69.86246554553009
 21
290.9388767841911
 31
0.0
  0
LINE
  5
1298
330
2
100
AcDbEntity
  8
0
100
AcDbLine
 10
69.86246554553009
 20
290.9388767841911
 30
0.0
 11
69.86246554553009
 21
280.9388767841911
 31
0.0
  0
LINE
  5
1299
330
2
100
AcDbEntity
  8
0
100
AcDbLine
 10
64.26246554552972
 20
290.9388767841911
 30
0.0
 11
69.86246554553009
 21
290.9388767841911
 31
0.0
  0
LINE
  5
129A
330
2
100
AcDbEntity
  8
0
100
AcDbLine
 10
69.86246554553009
 20
280.9388767841911
 30
0.0
 11
64.26246554552972
 21
280.9388767841911
 31
0.0
  0
LINE
  5
129B
330
2
100
AcDbEntity
  8
0
100
AcDbLine
 10
64.26246554552972
 20
280.9388767841906
 30
0.0
 11
63.86246554553008
 21
281.6316971072183
 31
0.0
  0
LINE
  5
129C
330
2
100
AcDbEntity
  8
0
100
AcDbLine
 10
64.26246554552972
 20
290.9388767841911
 30
0.0
 11
63.86246554553008
 21
290.2460564611633
 31
0.0
  0
LINE
  5
129D
330
2
100
AcDbEntity
  8
0
100
AcDbLine
 10
48.7934280530485
 20
356.1650611127711
 30
0.0
 11
58.79190500461345
 21
356.3395851771439
 31
0.0
  0
ARC
  5
129E
330
2
100
AcDbEntity
  8
0
100
AcDbCircle
 10
58.86171463036271
 20
352.3401943965182
 30
0.0
 40
4.000000000000023
100
AcDbArc
 50
1.000000000001775
 51
90.99999999997569
  0
ARC
  5
129F
330
2
100
AcDbEntity
  8
0
100
AcDbCircle
 10
48.86323767879957
 20
352.1656703321455
 30
0.0
 40
4.000000000000023
100
AcDbArc
 50
90.99999999997569
 51
181.0000000000058
  0
LINE
  5
12A0
330
2
100
AcDbEntity
  8
CENTER
  6
CENS
100
AcDbLine
 10
53.86247615458024
 20
359.5140429598955
 30
0.0
 11
53.86247615458024
 21
338.328297216151
 31
0.0
  0
LINE
  5
12A2
330
2
100
AcDbEntity
  8
0
100
AcDbLine
 10
42.86246554553009
 20
290.5347438675467
 30
0.0
 11
42.86246554553009
 21
350.6394742571174
 31
0.0
  0
CIRCLE
  5
12A3
330
2
100
AcDbEntity
  8
0
100
AcDbCircle
 10
891.5329307095875
 20
345.3358464038493
 30
0.0
 40
2.0
  0
CIRCLE
  5
12A4
330
2
100
AcDbEntity
  8
HOJO
100
AcDbCircle
 10
891.5329307095875
 20
345.3358464038493
 30
0.0
 40
2.5
  0
CIRCLE
  5
12A5
330
2
100
AcDbEntity
  8
0
100
AcDbCircle
 10
941.0304053926415
 20
345.3358464038493
 30
0.0
 40
2.0
  0
CIRCLE
  5
12A6
330
2
100
AcDbEntity
  8
HOJO
100
AcDbCircle
 10
941.0304053926415
 20
345.3358464038493
 30
0.0
 40
2.5
  0
CIRCLE
  5
12A7
330
2
100
AcDbEntity
  8
0
100
AcDbCircle
 10
891.5329307095898
 20
295.8383717207885
 30
0.0
 40
2.0
  0
CIRCLE
  5
12A8
330
2
100
AcDbEntity
  8
HOJO
100
AcDbCircle
 10
891.5329307095898
 20
295.8383717207885
 30
0.0
 40
2.5
  0
CIRCLE
  5
12A9
330
2
100
AcDbEntity
  8
0
100
AcDbCircle
 10
941.0304053926436
 20
295.8383717207926
 30
0.0
 40
2.0
  0
CIRCLE
  5
12AA
330
2
100
AcDbEntity
  8
HOJO
100
AcDbCircle
 10
941.0304053926436
 20
295.8383717207926
 30
0.0
 40
2.5
  0
CIRCLE
  5
12AB
330
2
100
AcDbEntity
  8
0
100
AcDbCircle
 10
916.2816680511145
 20
320.58710906232
 30
0.0
 40
22.5
  0
TEXT
  5
12AC
330
2
100
AcDbEntity
  8
TITLE
100
AcDbText
 10
270.1886576106681
 20
591.634975866242
 30
0.0
 40
7.5
  1
AFCZ18S-7~10M400S1
100
AcDbText
  0
TEXT
  5
12AD
330
2
100
AcDbEntity
  8
TITLE
100
AcDbText
 10
270.1886576106681
 20
580.134975866242
 30
0.0
 40
7.5
  1
AFCZ18S-7~10L400S1
100
AcDbText
  0
LINE
  5
12AF
330
2
100
AcDbEntity
  8
0
100
AcDbLine
 10
650.5834310346386
 20
359.4997642276492
 30
0.0
 11
650.5834310346385
 21
329.6262709557804
 31
0.0
  0
LINE
  5
12B0
330
2
100
AcDbEntity
  8
0
100
AcDbLine
 10
650.5834310346385
 20
320.5871090623277
 30
0.0
 11
650.5834310346383
 21
280.938876784187
 31
0.0
  0
LINE
  5
12B2
330
2
100
AcDbEntity
  8
0
100
AcDbLine
 10
638.5834310346385
 20
279.5871090623277
 30
0.0
 11
648.6008841056351
 21
279.6745300508788
 31
0.0
  0
LINE
  5
12B3
330
2
100
AcDbEntity
  8
0
100
AcDbLine
 10
657.5834310346384
 20
288.7467352962271
 30
0.0
 11
676.2960880924358
 21
289.0733659401508
 31
0.0
  0
LINE
  5
12B4
330
2
100
AcDbEntity
  8
0
100
AcDbLine
 10
678.5834310346384
 20
290.5347438675426
 30
0.0
 11
681.5834310346384
 21
290.5871090623278
 31
0.0
  0
LINE
  5
12B5
330
2
100
AcDbEntity
  8
0
100
AcDbLine
 10
638.5834310346385
 20
361.5871090623278
 30
0.0
 11
648.6008841056352
 21
361.4996880737775
 31
0.0
  0
LINE
  5
12B8
330
2
100
AcDbEntity
  8
0
100
AcDbLine
 10
678.5834310346384
 20
290.5347438675426
 30
0.0
 11
677.6500539690545
 21
289.6339511165235
 31
0.0
  0
LINE
  5
12B9
330
2
100
AcDbEntity
  8
0
100
AcDbLine
 10
657.5834310346384
 20
352.4274828284279
 30
0.0
 11
676.5820496819944
 21
352.0958607063919
 31
0.0
  0
LINE
  5
12BA
330
2
100
AcDbEntity
  8
0
100
AcDbLine
 10
678.5834310346384
 20
350.6394742571129
 30
0.0
 11
681.5834310346384
 21
350.5871090623277
 31
0.0
  0
LINE
  5
12BB
330
2
100
AcDbEntity
  8
0
100
AcDbLine
 10
678.5834310346384
 20
350.6394742571129
 30
0.0
 11
677.6500539690545
 21
351.540267008132
 31
0.0
  0
LINE
  5
12BC
330
2
100
AcDbEntity
  8
0
100
AcDbLine
 10
681.5834310346384
 20
290.5871090623278
 30
0.0
 11
681.5834310346384
 21
350.5871090623277
 31
0.0
  0
LINE
  5
12BD
330
2
100
AcDbEntity
  8
0
100
AcDbLine
 10
678.5834310346384
 20
350.6394742571129
 30
0.0
 11
678.5834310346384
 21
347.0843896644115
 31
0.0
  0
LINE
  5
12BE
330
2
100
AcDbEntity
  8
CENTER
  6
CENS
100
AcDbLine
 10
635.5834310346384
 20
355.2353413404685
 30
0.0
 11
662.5834310346384
 21
355.2353413404685
 31
0.0
  0
LINE
  5
12BF
330
2
100
AcDbEntity
  8
0
100
AcDbLine
 10
657.1834310346388
 20
350.2353413404685
 30
0.0
 11
657.1834310346388
 21
360.2353413404685
 31
0.0
  0
LINE
  5
12C0
330
2
100
AcDbEntity
  8
0
100
AcDbLine
 10
657.5834310346384
 20
359.5425210174408
 30
0.0
 11
657.5834310346384
 21
350.9281616634962
 31
0.0
  0
LINE
  5
12C1
330
2
100
AcDbEntity
  8
0
100
AcDbLine
 10
651.5834310346384
 20
350.2353413404685
 30
0.0
 11
651.5834310346384
 21
360.2353413404685
 31
0.0
  0
LINE
  5
12C2
330
2
100
AcDbEntity
  8
0
100
AcDbLine
 10
651.5834310346384
 20
360.2353413404685
 30
0.0
 11
650.5834310346385
 21
360.2353413404685
 31
0.0
  0
LINE
  5
12C3
330
2
100
AcDbEntity
  8
0
100
AcDbLine
 10
650.5834310346385
 20
360.2353413404685
 30
0.0
 11
650.5834310346385
 21
350.2353413404685
 31
0.0
  0
LINE
  5
12C4
330
2
100
AcDbEntity
  8
0
100
AcDbLine
 10
650.5834310346385
 20
350.2353413404685
 30
0.0
 11
651.5834310346384
 21
350.2353413404685
 31
0.0
  0
LINE
  5
12C5
330
2
100
AcDbEntity
  8
0
100
AcDbLine
 10
651.5834310346384
 20
350.2353413404685
 30
0.0
 11
651.5834310346384
 21
360.2353413404685
 31
0.0
  0
LINE
  5
12C6
330
2
100
AcDbEntity
  8
0
100
AcDbLine
 10
657.1834310346388
 20
350.2353413404685
 30
0.0
 11
651.5834310346384
 21
350.2353413404685
 31
0.0
  0
LINE
  5
12C7
330
2
100
AcDbEntity
  8
0
100
AcDbLine
 10
651.5834310346384
 20
360.2353413404685
 30
0.0
 11
657.1834310346388
 21
360.2353413404685
 31
0.0
  0
LINE
  5
12C8
330
2
100
AcDbEntity
  8
0
100
AcDbLine
 10
657.1834310346388
 20
360.2353413404685
 30
0.0
 11
657.5834310346384
 21
359.5425210174408
 31
0.0
  0
LINE
  5
12C9
330
2
100
AcDbEntity
  8
0
100
AcDbLine
 10
657.1834310346388
 20
350.2353413404685
 30
0.0
 11
657.5834310346384
 21
350.9281616634962
 31
0.0
  0
LINE
  5
12CA
330
2
100
AcDbEntity
  8
CENTER
  6
CENS
100
AcDbLine
 10
635.5834310346384
 20
285.938876784187
 30
0.0
 11
662.5834310346384
 21
285.938876784187
 31
0.0
  0
LINE
  5
12CB
330
2
100
AcDbEntity
  8
0
100
AcDbLine
 10
657.1834310346388
 20
290.938876784187
 30
0.0
 11
657.1834310346388
 21
280.938876784187
 31
0.0
  0
LINE
  5
12CC
330
2
100
AcDbEntity
  8
0
100
AcDbLine
 10
657.5834310346384
 20
281.6316971072142
 30
0.0
 11
657.5834310346384
 21
290.2460564611592
 31
0.0
  0
LINE
  5
12CD
330
2
100
AcDbEntity
  8
0
100
AcDbLine
 10
651.5834310346384
 20
290.938876784187
 30
0.0
 11
651.5834310346384
 21
280.938876784187
 31
0.0
  0
LINE
  5
12CE
330
2
100
AcDbEntity
  8
0
100
AcDbLine
 10
651.5834310346384
 20
280.938876784187
 30
0.0
 11
650.5834310346383
 21
280.938876784187
 31
0.0
  0
LINE
  5
12CF
330
2
100
AcDbEntity
  8
0
100
AcDbLine
 10
650.5834310346385
 20
290.938876784187
 30
0.0
 11
651.5834310346384
 21
290.938876784187
 31
0.0
  0
LINE
  5
12D0
330
2
100
AcDbEntity
  8
0
100
AcDbLine
 10
651.5834310346384
 20
290.938876784187
 30
0.0
 11
651.5834310346384
 21
280.938876784187
 31
0.0
  0
LINE
  5
12D1
330
2
100
AcDbEntity
  8
0
100
AcDbLine
 10
657.1834310346388
 20
290.938876784187
 30
0.0
 11
651.5834310346384
 21
290.938876784187
 31
0.0
  0
LINE
  5
12D2
330
2
100
AcDbEntity
  8
0
100
AcDbLine
 10
651.5834310346384
 20
280.938876784187
 30
0.0
 11
657.1834310346388
 21
280.938876784187
 31
0.0
  0
LINE
  5
12D3
330
2
100
AcDbEntity
  8
0
100
AcDbLine
 10
657.1834310346388
 20
280.9388767841865
 30
0.0
 11
657.5834310346384
 21
281.6316971072142
 31
0.0
  0
LINE
  5
12D4
330
2
100
AcDbEntity
  8
0
100
AcDbLine
 10
657.1834310346388
 20
290.938876784187
 30
0.0
 11
657.5834310346384
 21
290.2460564611592
 31
0.0
  0
LINE
  5
12D5
330
2
100
AcDbEntity
  8
0
100
AcDbLine
 10
672.0834204255865
 20
327.5871090623282
 30
0.0
 11
662.0834204255864
 21
327.5871090623282
 31
0.0
  0
LINE
  5
12D6
330
2
100
AcDbEntity
  8
0
100
AcDbLine
 10
672.0834204255865
 20
327.5871090623277
 30
0.0
 11
672.0834204255865
 21
320.5871090623277
 31
0.0
  0
LINE
  5
12D7
330
2
100
AcDbEntity
  8
0
100
AcDbLine
 10
674.0834204255865
 20
328.7418096007073
 30
0.0
 11
672.0834204255865
 21
327.5871090623277
 31
0.0
  0
LINE
  5
12D8
330
2
100
AcDbEntity
  8
0
100
AcDbLine
 10
645.0834204255865
 20
327.8371090623277
 30
0.0
 11
645.0834204255865
 21
320.5871090623277
 31
0.0
  0
LINE
  5
12D9
330
2
100
AcDbEntity
  8
0
100
AcDbLine
 10
672.0834204255865
 20
327.5871090623277
 30
0.0
 11
662.0834204255864
 21
327.5871090623277
 31
0.0
  0
LINE
  5
12DA
330
2
100
AcDbEntity
  8
0
100
AcDbLine
 10
666.9956346042603
 20
335.3371090623277
 30
0.0
 11
674.0834204255865
 21
335.3371090623277
 31
0.0
  0
LINE
  5
12DB
330
2
100
AcDbEntity
  8
0
100
AcDbLine
 10
674.0834204255865
 20
335.3371090623277
 30
0.0
 11
674.0834204255865
 21
320.5871090623277
 31
0.0
  0
LINE
  5
12DC
330
2
100
AcDbEntity
  8
0
100
AcDbLine
 10
660.0834204255865
 20
330.8717902490507
 30
0.0
 11
660.0834204255865
 21
320.5871090623277
 31
0.0
  0
LINE
  5
12DD
330
2
100
AcDbEntity
  8
0
100
AcDbLine
 10
662.0834204255864
 20
331.397190396483
 30
0.0
 11
662.0834204255864
 21
320.5871090623277
 31
0.0
  0
LINE
  5
12DE
330
2
100
AcDbEntity
  8
0
100
AcDbLine
 10
653.0834204255865
 20
327.8371090623277
 30
0.0
 11
645.0834204255865
 21
327.8371090623277
 31
0.0
  0
LINE
  5
12DF
330
2
100
AcDbEntity
  8
0
100
AcDbLine
 10
653.0834204255865
 20
320.5871090623277
 30
0.0
 11
653.0834204255865
 21
327.8371090623277
 31
0.0
  0
LINE
  5
12E0
330
2
100
AcDbEntity
  8
0
100
AcDbLine
 10
660.0834204255865
 20
327.5871090623277
 30
0.0
 11
653.0834204255865
 21
327.5871090623277
 31
0.0
  0
LINE
  5
12E1
330
2
100
AcDbEntity
  8
0
100
AcDbLine
 10
641.3306436758542
 20
320.5871090623277
 30
0.0
 11
645.0834204255865
 21
327.0871090623277
 31
0.0
  0
LINE
  5
12E2
330
2
100
AcDbEntity
  8
0
100
AcDbLine
 10
674.5834310346384
 20
345.5871090623277
 30
0.0
 11
681.5834310346384
 21
345.5871090623277
 31
0.0
  0
LINE
  5
12E3
330
2
100
AcDbEntity
  8
0
100
AcDbLine
 10
674.5834310346384
 20
345.5871090623277
 30
0.0
 11
674.5834310346384
 21
320.5871090623277
 31
0.0
  0
SPLINE
  5
12E4
330
2
100
AcDbEntity
  8
HOJO
100
AcDbSpline
210
0.0
220
0.0
230
1.0
 70
     8
 71
     3
 72
    20
 73
    16
 74
     0
 42
0.0000000001
 43
0.0000000001
 40
0.0
 40
0.0
 40
0.0
 40
0.0
 40
5.311626210389601
 40
7.954639692924123
 40
10.24579206730457
 40
14.18281221953265
 40
18.83794314114633
 40
26.54246833222011
 40
31.19712602527561
 40
34.95638115537181
 40
42.12378530287149
 40
45.78553747213095
 40
50.20353689726185
 40
53.26513166942802
 40
54.23175360515262
 40
54.23175360515262
 40
54.23175360515262
 40
54.23175360515262
 10
681.5834310346384
 20
347.2745577843439
 30
0.0
 10
679.8704518687485
 20
347.1665157341177
 30
0.0
 10
677.3051109493374
 20
347.0047130117137
 30
0.0
 10
673.5333570622609
 20
346.7525803395456
 30
0.0
 10
672.2142158461268
 20
343.820138854579
 30
0.0
 10
669.7790064778367
 20
341.1656300312834
 30
0.0
 10
667.9409581346866
 20
336.0143345981196
 30
0.0
 10
663.8161217252094
 20
331.3045872464941
 30
0.0
 10
658.3384742222027
 20
330.6672558120745
 30
0.0
 10
653.4250887126367
 20
329.8132321805165
 30
0.0
 10
648.5910893658787
 20
329.4770916587454
 30
0.0
 10
643.5533626012387
 20
329.0737169098406
 30
0.0
 10
640.4822119798703
 20
324.8715139129809
 30
0.0
 10
639.4822376851447
 20
322.1932733920912
 30
0.0
 10
639.1261981599113
 20
320.8982603620202
 30
0.0
 10
639.043470387824
 20
320.5871090623277
 30
0.0
  0
LINE
  5
12E5
330
2
100
AcDbEntity
  8
0
100
AcDbLine
 10
672.6524685271201
 20
356.165061112767
 30
0.0
 11
662.653991575555
 21
356.3395851771397
 31
0.0
  0
ARC
  5
12E6
330
2
100
AcDbEntity
  8
0
100
AcDbCircle
 10
662.5841819498058
 20
352.3401943965141
 30
0.0
 40
4.000000000000023
100
AcDbArc
 50
89.0000000000243
 51
178.9999999999982
  0
ARC
  5
12E7
330
2
100
AcDbEntity
  8
0
100
AcDbCircle
 10
672.5826589013689
 20
352.1656703321415
 30
0.0
 40
4.000000000000023
100
AcDbArc
 50
358.9999999999958
 51
89.0000000000243
  0
LINE
  5
12E8
330
2
100
AcDbEntity
  8
CENTER
  6
CENS
100
AcDbLine
 10
667.5834204255883
 20
359.5140429598914
 30
0.0
 11
667.5834204255883
 21
338.3282972161469
 31
0.0
  0
LINE
  5
12EA
330
2
100
AcDbEntity
  8
0
100
AcDbLine
 10
678.5834310346384
 20
290.5347438675426
 30
0.0
 11
678.5834310346384
 21
320.5871090623277
 31
0.0
  0
LINE
  5
12EB
330
2
100
AcDbEntity
  8
0
100
AcDbLine
 10
671.48276436302
 20
343.0871090623277
 30
0.0
 11
674.5834310346388
 21
343.0871090623277
 31
0.0
  0
LINE
  5
217E
330
2
100
AcDbEntity
  8
PHAS
  6
SEKKEI_P_S
100
AcDbLine
 10
296.1103581729484
 20
292.0871090623132
 30
0.0
 11
296.1103581729484
 21
349.0871090623132
 31
0.0
  0
LINE
  5
217F
330
2
100
AcDbEntity
  8
PHAS
  6
SEKKEI_P_S
100
AcDbLine
 10
270.6103581729483
 20
307.5510070623132
 30
0.0
 11
270.6103581729483
 21
333.6231868204023
 31
0.0
  0
LINE
  5
2180
330
2
100
AcDbEntity
  8
PHAS
  6
SEKKEI_P_S
100
AcDbLine
 10
286.3103581729486
 20
295.2062604879575
 30
0.0
 11
286.3103581729486
 21
345.9679576366698
 31
0.0
  0
LINE
  5
2181
330
2
100
AcDbEntity
  8
PHAS
  6
SEKKEI_P_S
100
AcDbLine
 10
296.1103581729484
 20
292.0871090623132
 30
0.0
 11
289.2580009536367
 21
292.2067174024878
 31
0.0
  0
LINE
  5
2182
330
2
100
AcDbEntity
  8
PHAS
  6
SEKKEI_P_S
100
AcDbLine
 10
285.4840001729484
 20
300.7328000623129
 30
0.0
 11
285.4903599844109
 21
300.7316787920463
 31
0.0
  0
ARC
  5
2183
330
2
100
AcDbEntity
  8
PHAS
  6
SEKKEI_P_S
100
AcDbCircle
 10
285.3103581729486
 20
299.748015894972
 30
0.0
 40
1.0
100
AcDbArc
 50
0.0
 51
79.99956533742561
  0
ARC
  5
2184
330
2
100
AcDbEntity
  8
PHAS
  6
SEKKEI_P_S
100
AcDbCircle
 10
289.3103581729486
 20
295.2062604879575
 30
0.0
 40
3.0
100
AcDbArc
 50
180.0
 51
268.9999999999982
  0
LINE
  5
2185
330
2
100
AcDbEntity
  8
PHAS
  6
SEKKEI_P_S
100
AcDbLine
 10
274.7420799294362
 20
302.6269991260351
 30
0.0
 11
285.4840138216508
 21
300.7328223306104
 31
0.0
  0
ARC
  5
2186
330
2
100
AcDbEntity
  8
PHAS
  6
SEKKEI_P_S
100
AcDbCircle
 10
275.6103581729484
 20
307.5510313042251
 30
0.0
 40
5.0
100
AcDbArc
 50
180.0
 51
259.9995653374256
  0
LINE
  5
2187
330
2
100
AcDbEntity
  8
PHAS
  6
SEKKEI_P_S
100
AcDbLine
 10
296.1103581729484
 20
349.0871090623132
 30
0.0
 11
289.2580009536367
 21
348.9675007221395
 31
0.0
  0
ARC
  5
2188
330
2
100
AcDbEntity
  8
PHAS
  6
SEKKEI_P_S
100
AcDbCircle
 10
285.304012010188
 20
341.4250586910912
 30
0.0
 40
1.0
100
AcDbArc
 50
280.0004346625744
 51
0.0
  0
ARC
  5
2189
330
2
100
AcDbEntity
  8
PHAS
  6
SEKKEI_P_S
100
AcDbCircle
 10
275.6103581729484
 20
333.6231868204023
 30
0.0
 40
5.0
100
AcDbArc
 50
100.0004346625743
 51
180.0
  0
LINE
  5
218A
330
2
100
AcDbEntity
  8
PHAS
  6
SEKKEI_P_S
100
AcDbLine
 10
274.7420799294362
 20
338.5472189985912
 30
0.0
 11
285.4840138216508
 21
340.4413957940169
 31
0.0
  0
ARC
  5
218B
330
2
100
AcDbEntity
  8
PHAS
  6
SEKKEI_P_S
100
AcDbCircle
 10
289.31035817295
 20
345.9679576366689
 30
0.0
 40
3.0
100
AcDbArc
 50
91.00000000000177
 51
180.0
  0
CIRCLE
  5
23E4
330
2
100
AcDbEntity
  8
0
100
AcDbCircle
 10
553.5834310346457
 20
320.587109062325
 30
0.0
 40
23.5774
  0
ARC
  5
243A
330
2
100
AcDbEntity
  8
0
100
AcDbCircle
 10
648.5834310302692
 20
634.3970317537817
 30
0.0
 40
2.0
100
AcDbArc
 50
0.0
 51
89.49999999999816
  0
ARC
  5
243D
330
2
100
AcDbEntity
  8
0
100
AcDbCircle
 10
648.5834310302692
 20
556.5717214231397
 30
0.0
 40
2.0
100
AcDbArc
 50
270.4999999999971
 51
0.0
  0
ARC
  5
243E
330
2
100
AcDbEntity
  8
0
100
AcDbCircle
 10
648.5834310346385
 20
359.4997642276492
 30
0.0
 40
2.0
100
AcDbArc
 50
0.0
 51
89.50000000000288
  0
ARC
  5
243F
330
2
100
AcDbEntity
  8
0
100
AcDbCircle
 10
648.5834310346383
 20
281.6744538970071
 30
0.0
 40
2.0
100
AcDbArc
 50
270.5000000000018
 51
0.0
  0
ARC
  5
2440
330
2
100
AcDbEntity
  8
0
100
AcDbCircle
 10
72.86246554553009
 20
359.4997642276533
 30
0.0
 40
2.0
100
AcDbArc
 50
90.49999999999711
 51
180.0
  0
ARC
  5
2441
330
2
100
AcDbEntity
  8
0
100
AcDbCircle
 10
72.86246554553009
 20
281.6744538970112
 30
0.0
 40
2.0
100
AcDbArc
 50
180.0
 51
269.4999999999981
  0
ARC
  5
2442
330
2
100
AcDbEntity
  8
0
100
AcDbCircle
 10
676.2611832751917
 20
624.9984243203254
 30
0.0
 40
2.0
100
AcDbArc
 50
46.01776145272124
 51
89.00000000000034
  0
ARC
  5
2443
330
2
100
AcDbEntity
  8
0
100
AcDbCircle
 10
676.2611832751919
 20
565.9703288565965
 30
0.0
 40
2.0
100
AcDbArc
 50
270.9999999999996
 51
313.9822385472787
  0
ARC
  5
2444
330
2
100
AcDbEntity
  8
0
100
AcDbCircle
 10
676.2611832795613
 20
350.1011567941919
 30
0.0
 40
2.0
100
AcDbArc
 50
46.0177614527303
 51
89.00000000000034
  0
ARC
  5
2445
330
2
100
AcDbEntity
  8
0
100
AcDbCircle
 10
676.2611832795612
 20
291.0730613304636
 30
0.0
 40
2.0
100
AcDbArc
 50
271.000000000001
 51
313.9822385472697
  0
ARC
  5
2458
330
2
100
AcDbEntity
  8
0
100
AcDbCircle
 10
45.18471330060712
 20
350.1011567941958
 30
0.0
 40
2.0
100
AcDbArc
 50
90.99999999999965
 51
133.9822385472697
  0
ARC
  5
2459
330
2
100
AcDbEntity
  8
0
100
AcDbCircle
 10
45.18471330060726
 20
291.0730613304677
 30
0.0
 40
2.0
100
AcDbArc
 50
226.0177614527302
 51
268.9999999999989
  0
ENDSEC
  0
SECTION
  2
OBJECTS
  0
DICTIONARY
  5
7
330
0
100
AcDbDictionary
  3
ACAD_COLOR
350
2411
  3
ACAD_GROUP
350
75
  3
ACAD_LAYOUT
350
61
  3
ACAD_MATERIAL
350
23E7
  3
ACAD_MLEADERSTYLE
350
2436
  3
ACAD_MLINESTYLE
350
76
  3
ACAD_PLOTSETTINGS
350
77
  3
ACAD_PLOTSTYLENAME
350
6
  3
ACAD_SCALELIST
350
2414
  3
ACAD_TABLESTYLE
350
2412
  3
ACAD_VISUALSTYLE
350
2400
  3
ACADDIM
350
480
  3
ACDB_RECOMPOSE_DATA
350
246C
  3
ACDBHEADERROUNDTRIPXREC
350
24D9
  3
ACDBVARIABLEDICTIONARY
350
102
  3
DWGPROPS
350
24A5
  0
DICTIONARY
  5
2475
330
6E
100
AcDbDictionary
280
     1
  3
ACAD_XREC_ROUNDTRIP
360
24AC
  0
DICTIONARY
  5
AE4
330
66
100
AcDbDictionary
280
     1
  3
ACAD_LAYERSTATES
360
AE5
  0
DICTIONARY
  5
245A
330
5E
100
AcDbDictionary
280
     1
  3
ACAD_XREC_ROUNDTRIP
360
24A8
  3
ADSK_XREC_LAYER_RECONCILED
360
245B
  0
DICTIONARY
  5
245C
330
3E
100
AcDbDictionary
280
     1
  3
ACAD_XREC_ROUNDTRIP
360
24A7
  3
ADSK_XREC_LAYER_RECONCILED
360
245D
  0
DICTIONARY
  5
2462
330
2B5
100
AcDbDictionary
280
     1
  3
ACAD_XREC_ROUNDTRIP
360
24B2
  3
ADSK_XREC_LAYER_RECONCILED
360
2463
  0
DICTIONARY
  5
2464
330
2BA
100
AcDbDictionary
280
     1
  3
ACAD_XREC_ROUNDTRIP
360
24B3
  3
ADSK_XREC_LAYER_RECONCILED
360
2465
  0
DICTIONARY
  5
2468
330
3FA
100
AcDbDictionary
280
     1
  3
ACAD_XREC_ROUNDTRIP
360
24B5
  3
ADSK_XREC_LAYER_RECONCILED
360
2469
  0
DICTIONARY
  5
2169
330
2168
100
AcDbDictionary
280
     1
  3
ACAD_XREC_ROUNDTRIP
360
24B8
  3
ADSK_XREC_LAYER_RECONCILED
360
216B
  0
DICTIONARY
  5
243B
330
2
100
AcDbDictionary
280
     1
  3
ACAD_LAYOUTSELFREF
360
24FA
  3
ACAD_SORTENTS
360
243C
  0
DICTIONARY
  5
24FB
330
24D3
100
AcDbDictionary
280
     1
  3
ACAD_LAYOUTSELFREF
360
24FC
  0
DICTIONARY
  5
2411
102
{ACAD_REACTORS
330
7
102
}
330
7
100
AcDbDictionary
  0
DICTIONARY
  5
75
102
{ACAD_REACTORS
330
7
102
}
330
7
100
AcDbDictionary
  0
DICTIONARY
  5
61
102
{ACAD_REACTORS
330
7
102
}
330
7
100
AcDbDictionary
  0
DICTIONARY
  5
23E7
102
{ACAD_REACTORS
330
7
102
}
330
7
100
AcDbDictionary
  3
BYBLOCK
350
23F0
  3
BYLAYER
350
23E8
  3
GLOBAL
350
23F8
  0
DICTIONARY
  5
2436
102
{ACAD_REACTORS
330
7
102
}
330
7
100
AcDbDictionary
  3
STANDARD
350
2437
  0
DICTIONARY
  5
76
102
{ACAD_REACTORS
330
7
102
}
330
7
100
AcDbDictionary
  3
STANDARD
350
78
  0
DICTIONARY
  5
77
102
{ACAD_REACTORS
330
7
102
}
330
7
100
AcDbDictionary
  0
ACDBDICTIONARYWDFLT
  5
6
102
{ACAD_REACTORS
330
7
102
}
330
7
100
AcDbDictionary
281
     1
  3
Normal
350
5
100
AcDbDictionaryWithDefault
340
5
  0
DICTIONARY
  5
2414
102
{ACAD_REACTORS
330
7
102
}
330
7
100
AcDbDictionary
  3
A0
350
2415
  3
A1
350
2416
  3
A2
350
2417
  3
A3
350
2418
  3
A4
350
2419
  3
A5
350
241A
  3
A6
350
241B
  3
A7
350
241C
  3
A8
350
241D
  3
A9
350
241E
  3
B0
350
241F
  3
B1
350
2420
  3
B2
350
2421
  3
B3
350
2422
  3
B4
350
2423
  3
B5
350
2424
  3
B6
350
2425
  3
B7
350
2426
  3
B8
350
2427
  3
B9
350
2428
  3
C0
350
2429
  3
C1
350
242A
  3
C2
350
242B
  3
C3
350
242C
  3
C4
350
242D
  3
C5
350
242E
  3
C6
350
242F
  3
C7
350
2430
  3
C8
350
2431
  3
C9
350
2432
  3
D0
350
2433
  3
D1
350
2434
  3
D2
350
2435
  0
DICTIONARY
  5
2412
102
{ACAD_REACTORS
330
7
102
}
330
7
100
AcDbDictionary
  3
STANDARD
350
2413
  0
DICTIONARY
  5
2400
102
{ACAD_REACTORS
330
7
102
}
330
7
100
AcDbDictionary
  3
2DWIREFRAME
350
2406
  3
3D_HIDDEN
350
2408
  3
3DWIREFRAME
350
2407
  3
BASIC
350
2405
  3
BRIGHTEN
350
240C
  3
COLORCHANGE
350
2410
  3
CONCEPTUAL
350
2409
  3
DIM
350
240B
  3
FACEPATTERN
350
240F
  3
FLAT
350
2401
  3
FLATWITHEDGES
350
2402
  3
GOURAUD
350
2403
  3
GOURAUDWITHEDGES
350
2404
  3
LINEPATTERN
350
240E
  3
REALISTIC
350
240A
  3
THICKEN
350
240D
  0
XRECORD
  5
480
102
{ACAD_REACTORS
330
7
102
}
330
7
100
AcDbXrecord
 90
   990106
  3

 60
     0
 61
     0
 62
     1
 63
     3
 64
     1
 65
     0
 66
     0
 67
     3
 68
     1
 69
     0
 70
     0
 71
     0
 72
     0
 40
0.0
170
     2
340
0
  0
XRECORD
  5
246C
102
{ACAD_REACTORS
330
7
102
}
330
7
100
AcDbXrecord
 90
        1
330
2413
  0
DICTIONARY
  5
24D9
102
{ACAD_REACTORS
330
7
102
}
330
7
100
AcDbDictionary
  3
CEPSNTYPE
350
24E3
  3
DIMSTYLEDATA
350
24E7
  3
FINGERPRINTGUID
350
24E4
  3
HYPERLINKBASE
350
24DC
  3
INSUNITS
350
24E2
  3
LAYOUTDICT
350
24DE
  3
LWETCUNION
350
24E1
  3
PLOTSETDICT
350
24DF
  3
PLOTSTYLNAMDICT
350
24E0
  3
PSVPSCALE
350
24E6
  3
PUCSBASE
350
24EA
  3
PUCSORGBACK
350
24F0
  3
PUCSORGBOTTOM
350
24EC
  3
PUCSORGFRONT
350
24EF
  3
PUCSORGLEFT
350
24ED
  3
PUCSORGRIGHT
350
24EE
  3
PUCSORGTOP
350
24EB
  3
PUCSORTHOREF
350
24E8
  3
PUCSORTHOVIEW
350
24E9
  3
STYLESHEET
350
24DD
  3
TSTACKALIGN
350
24DA
  3
TSTACKSIZE
350
24DB
  3
UCSBASE
350
24F3
  3
UCSORGBACK
350
24F9
  3
UCSORGBOTTOM
350
24F5
  3
UCSORGFRONT
350
24F8
  3
UCSORGLEFT
350
24F6
  3
UCSORGRIGHT
350
24F7
  3
UCSORGTOP
350
24F4
  3
UCSORTHOREF
350
24F1
  3
UCSORTHOVIEW
350
24F2
  3
VERSIONGUID
350
24E5
  0
DICTIONARY
  5
102
102
{ACAD_REACTORS
330
7
102
}
330
7
100
AcDbDictionary
  3
CANNOSCALE
350
248D
  3
CMLEADERSTYLE
350
248C
  3
CTABLESTYLE
350
248B
  3
DIMASSOC
350
103
  3
INDEXCTL
350
248E
  3
SORTENTS
350
549
  0
XRECORD
  5
24A5
102
{ACAD_REACTORS
330
7
102
}
330
7
100
AcDbXrecord
  1
DWGPROPS COOKIE
  2

  3

  4

  6

  7

  8
ymorima
  9

300
=
301
=
302
=
303
=
304
=
305
=
306
=
307
=
308
=
309
=
 40
0.0153211921296296
 41
2454410.674643182
 42
2454425.679531424
  1

 90
        0
  0
XRECORD
  5
24AC
102
{ACAD_REACTORS
330
2475
102
}
330
2475
100
AcDbXrecord
102
VTR_0.000_0.000_1.000_1.000_VISUALSTYLE
340
2406
102
VTR_0.000_0.000_1.000_1.000_GRIDDISPLAY
 70
     3
102
VTR_0.000_0.000_1.000_1.000_GRIDMAJOR
 70
     5
102
VTR_0.000_0.000_1.000_1.000_DEFAULTLIGHTING
280
     1
102
VTR_0.000_0.000_1.000_1.000_DEFAULTLIGHTINGTYPE
 70
     1
102
VTR_0.000_0.000_1.000_1.000_BRIGHTNESS
141
0.0
102
VTR_0.000_0.000_1.000_1.000_CONTRAST
142
0.0
  0
DICTIONARY
  5
AE5
102
{ACAD_REACTORS
330
AE4
102
}
330
AE4
100
AcDbDictionary
  0
XRECORD
  5
24A8
102
{ACAD_REACTORS
330
245A
102
}
330
245A
100
AcDbXrecord
102
MATERIAL
340
23F8
  0
XRECORD
  5
245B
102
{ACAD_REACTORS
330
245A
102
}
330
245A
100
AcDbXrecord
290
     1
  0
XRECORD
  5
24A7
102
{ACAD_REACTORS
330
245C
102
}
330
245C
100
AcDbXrecord
102
MATERIAL
340
23F8
  0
XRECORD
  5
245D
102
{ACAD_REACTORS
330
245C
102
}
330
245C
100
AcDbXrecord
290
     1
  0
XRECORD
  5
24B2
102
{ACAD_REACTORS
330
2462
102
}
330
2462
100
AcDbXrecord
102
MATERIAL
340
23F8
  0
XRECORD
  5
2463
102
{ACAD_REACTORS
330
2462
102
}
330
2462
100
AcDbXrecord
290
     1
  0
XRECORD
  5
24B3
102
{ACAD_REACTORS
330
2464
102
}
330
2464
100
AcDbXrecord
102
MATERIAL
340
23F8
  0
XRECORD
  5
2465
102
{ACAD_REACTORS
330
2464
102
}
330
2464
100
AcDbXrecord
290
     1
  0
XRECORD
  5
24B5
102
{ACAD_REACTORS
330
2468
102
}
330
2468
100
AcDbXrecord
102
MATERIAL
340
23F8
  0
XRECORD
  5
2469
102
{ACAD_REACTORS
330
2468
102
}
330
2468
100
AcDbXrecord
290
     1
  0
XRECORD
  5
24B8
102
{ACAD_REACTORS
330
2169
102
}
330
2169
100
AcDbXrecord
102
MATERIAL
340
23F8
  0
XRECORD
  5
216B
102
{ACAD_REACTORS
330
2169
102
}
330
2169
100
AcDbXrecord
290
     1
  0
XRECORD
  5
24FA
102
{ACAD_REACTORS
330
243B
102
}
330
243B
100
AcDbXrecord
340
2
  0
SORTENTSTABLE
  5
243C
102
{ACAD_REACTORS
330
243B
102
}
330
243B
100
AcDbSortentsTable
330
2
331
1286
  5
128E
331
FDF
  5
FDF
331
1076
  5
1076
331
11C0
  5
11C0
331
F7A
  5
F7A
331
FE9
  5
FE9
331
1290
  5
1298
331
1080
  5
1080
331
115B
  5
115B
331
122B
  5
122F
331
11CA
  5
11CA
331
F84
  5
F84
331
129A
  5
12A2
331
1165
  5
1165
331
1235
  5
1239
331
F8E
  5
F8E
331
1100
  5
1100
331
116F
  5
116F
331
F29
  5
F29
331
131A
  5
1F74
331
123F
  5
1243
331
110A
  5
110A
331
F33
  5
F33
331
1114
  5
1114
331
1018
  5
1018
331
10A7
  5
10A7
331
11F9
  5
11F9
331
12C9
  5
12D5
331
1022
  5
1022
331
10B1
  5
10B1
331
1203
  5
1203
331
FB5
  5
FB5
331
104C
  5
104C
331
12D3
  5
12DF
331
10BB
  5
10BB
331
1196
  5
1196
331
126E
  5
1272
331
FBF
  5
FBF
331
1056
  5
1056
331
12DD
  5
12E9
331
F5A
  5
F5A
331
11A0
  5
11A0
331
1278
  5
127C
331
FC9
  5
FC9
331
1060
  5
1060
331
113B
  5
113B
331
11AA
  5
11AA
331
F64
  5
F64
331
1145
  5
1145
331
1215
  5
1219
331
F6E
  5
F6E
331
10E0
  5
10E0
331
114F
  5
114F
331
F09
  5
F09
331
12FA
  5
1306
331
121F
  5
1223
331
10EA
  5
10EA
331
F13
  5
F13
331
1304
  5
1310
331
10F4
  5
10F4
331
F1D
  5
F1D
331
FF8
  5
FF8
331
108F
  5
108F
331
233C
  5
2445
331
130E
  5
131A
331
11D9
  5
11D9
331
10FE
  5
10FE
331
2183
  5
23E4
331
12A9
  5
12B2
331
1002
  5
1002
331
1099
  5
1099
331
11E3
  5
11E3
331
F9D
  5
F9D
331
102C
  5
102C
331
100C
  5
100C
331
12B3
  5
12BF
331
117E
  5
117E
331
1E10
  5
2187
331
124E
  5
1252
331
11ED
  5
11ED
331
FA7
  5
FA7
331
1036
  5
1036
331
12BD
  5
12C9
331
2441
  5
127F
331
F3A
  5
F3A
331
1188
  5
1188
331
1258
  5
125C
331
1040
  5
1040
331
111B
  5
111B
331
F44
  5
F44
331
1262
  5
1266
331
1125
  5
1125
331
F4E
  5
F4E
331
10C0
  5
10C0
331
112F
  5
112F
331
12E2
  5
12EE
331
10CA
  5
10CA
331
12EC
  5
12F8
331
10D4
  5
10D4
331
FD8
  5
FD8
331
106F
  5
106F
331
12F6
  5
1302
331
10DE
  5
10DE
331
11B9
  5
11B9
331
1289
  5
1291
331
FE2
  5
FE2
331
1079
  5
1079
331
11C3
  5
11C3
331
F7D
  5
F7D
331
FEC
  5
FEC
331
1293
  5
129B
331
1083
  5
1083
331
115E
  5
115E
331
122E
  5
1232
331
11CD
  5
11CD
331
F87
  5
F87
331
129D
  5
12A5
331
F22
  5
F22
331
1168
  5
1168
331
1238
  5
123C
331
F91
  5
F91
331
2188
  5
2440
331
1103
  5
1103
331
1172
  5
1172
331
F2C
  5
F2C
331
131D
  5
2180
331
1242
  5
1246
331
110D
  5
110D
331
F36
  5
F36
331
1011
  5
1011
331
10A0
  5
10A0
331
1117
  5
1117
331
11F2
  5
11F2
331
12C2
  5
12CE
331
101B
  5
101B
331
10AA
  5
10AA
331
11FC
  5
11FC
331
12CC
  5
12D8
331
1025
  5
1025
331
10B4
  5
10B4
331
1206
  5
1206
331
FB8
  5
FB8
331
104F
  5
104F
331
12D6
  5
12E2
331
10BE
  5
10BE
331
1199
  5
1199
331
1271
  5
1275
331
FC2
  5
FC2
331
1059
  5
1059
331
11A3
  5
11A3
331
F5D
  5
F5D
331
FCC
  5
FCC
331
127B
  5
1281
331
1063
  5
1063
331
113E
  5
113E
331
120E
  5
1210
331
11AD
  5
11AD
331
F67
  5
F67
331
1148
  5
1148
331
1218
  5
121C
331
F71
  5
F71
331
10E3
  5
10E3
331
1152
  5
1152
331
F0C
  5
F0C
331
12FD
  5
1309
331
1222
  5
1226
331
10ED
  5
10ED
331
F16
  5
F16
331
FF1
  5
FF1
331
1088
  5
1088
331
1307
  5
1313
331
10F7
  5
10F7
331
11D2
  5
11D2
331
12A2
  5
12AA
331
FFB
  5
FFB
331
1092
  5
1092
331
1311
  5
131D
331
11DC
  5
11DC
331
2186
  5
243E
331
12AC
  5
12B5
331
1005
  5
1005
331
109C
  5
109C
331
11E6
  5
11E6
331
FA0
  5
FA0
331
102F
  5
102F
331
100F
  5
100F
331
243A
  5
120C
331
1181
  5
1181
331
1251
  5
1255
331
FAA
  5
FAA
331
1039
  5
1039
331
2444
  5
12C7
331
118B
  5
118B
331
F3D
  5
F3D
331
125B
  5
125F
331
1043
  5
1043
331
111E
  5
111E
331
F47
  5
F47
331
1265
  5
1269
331
1128
  5
1128
331
F51
  5
F51
331
10C3
  5
10C3
331
1132
  5
1132
331
12E5
  5
12F1
331
10CD
  5
10CD
331
FD1
  5
FD1
331
1068
  5
1068
331
12EF
  5
12FB
331
10D7
  5
10D7
331
11B2
  5
11B2
331
1282
  5
1289
331
FDB
  5
FDB
331
1072
  5
1072
331
11BC
  5
11BC
331
128C
  5
1294
331
FE5
  5
FE5
331
107C
  5
107C
331
11C6
  5
11C6
331
F80
  5
F80
331
FEF
  5
FEF
331
1296
  5
129E
331
1086
  5
1086
331
1161
  5
1161
331
1231
  5
1235
331
F8A
  5
F8A
331
116B
  5
116B
331
F25
  5
F25
331
F94
  5
F94
331
123B
  5
123F
331
218B
  5
2443
331
1106
  5
1106
331
1175
  5
1175
331
F2F
  5
F2F
331
1245
  5
1249
331
1110
  5
1110
331
1014
  5
1014
331
10A3
  5
10A3
331
11F5
  5
11F5
331
12C5
  5
12D1
331
101E
  5
101E
331
1E2A
  5
2188
331
10AD
  5
10AD
331
11FF
  5
11FF
331
FB1
  5
FB1
331
1048
  5
1048
331
12CF
  5
12DB
331
10B7
  5
10B7
331
1192
  5
1192
331
126A
  5
126E
331
FBB
  5
FBB
331
1052
  5
1052
331
12D9
  5
12E5
331
119C
  5
119C
331
1274
  5
1278
331
FC5
  5
FC5
331
105C
  5
105C
331
11A6
  5
11A6
331
F60
  5
F60
331
FCF
  5
FCF
331
127E
  5
1287
331
1141
  5
1141
331
1066
  5
1066
331
19B3
  5
2185
331
F6A
  5
F6A
331
114B
  5
114B
331
121B
  5
121F
331
F74
  5
F74
331
10E6
  5
10E6
331
1155
  5
1155
331
F0F
  5
F0F
331
1300
  5
130C
331
1225
  5
1229
331
10F0
  5
10F0
331
F19
  5
F19
331
FF4
  5
FF4
331
108B
  5
108B
331
130A
  5
1316
331
11D5
  5
11D5
331
10FA
  5
10FA
331
217F
  5
218B
331
12A5
  5
12AD
331
FFE
  5
FFE
331
1095
  5
1095
331
1314
  5
19B1
331
11DF
  5
11DF
331
F99
  5
F99
331
1028
  5
1028
331
1008
  5
1008
331
12AF
  5
12B7
331
109F
  5
109F
331
117A
  5
117A
331
124A
  5
124E
331
11E9
  5
11E9
331
FA3
  5
FA3
331
1032
  5
1032
331
12B9
  5
12C4
331
243D
  5
120B
331
1184
  5
1184
331
1254
  5
1258
331
FAD
  5
FAD
331
103C
  5
103C
331
118E
  5
118E
331
F40
  5
F40
331
125E
  5
1262
331
1046
  5
1046
331
1121
  5
1121
331
F4A
  5
F4A
331
112B
  5
112B
331
F54
  5
F54
331
10C6
  5
10C6
331
1135
  5
1135
331
12E8
  5
12F5
331
10D0
  5
10D0
331
FD4
  5
FD4
331
106B
  5
106B
331
12F2
  5
12FE
331
10DA
  5
10DA
331
11B5
  5
11B5
331
1285
  5
128D
331
FDE
  5
FDE
331
1075
  5
1075
331
F79
  5
F79
331
11BF
  5
11BF
331
128F
  5
1297
331
FE8
  5
FE8
331
107F
  5
107F
331
115A
  5
115A
331
122A
  5
122E
331
11C9
  5
11C9
331
F83
  5
F83
331
1299
  5
12A1
331
1164
  5
1164
331
1234
  5
1238
331
F8D
  5
F8D
331
116E
  5
116E
331
F28
  5
F28
331
1319
  5
1E2A
331
F97
  5
F97
331
123E
  5
1242
331
1109
  5
1109
331
F32
  5
F32
331
1113
  5
1113
331
1017
  5
1017
331
10A6
  5
10A6
331
11F8
  5
11F8
331
12C8
  5
12D4
331
1021
  5
1021
331
10B0
  5
10B0
331
1202
  5
1202
331
FB4
  5
FB4
331
104B
  5
104B
331
12D2
  5
12DE
331
10BA
  5
10BA
331
1195
  5
1195
331
126D
  5
1271
331
FBE
  5
FBE
331
1055
  5
1055
331
12DC
  5
12E8
331
F59
  5
F59
331
119F
  5
119F
331
1277
  5
127B
331
FC8
  5
FC8
331
105F
  5
105F
331
113A
  5
113A
331
120A
  5
120A
331
11A9
  5
11A9
331
F63
  5
F63
331
1144
  5
1144
331
1214
  5
1218
331
F6D
  5
F6D
331
114E
  5
114E
331
F08
  5
F08
331
12F9
  5
1305
331
F77
  5
F77
331
121E
  5
1222
331
10E9
  5
10E9
331
F12
  5
F12
331
1303
  5
130F
331
10F3
  5
10F3
331
F1C
  5
F1C
331
FF7
  5
FF7
331
108E
  5
108E
331
233B
  5
2444
331
130D
  5
1319
331
11D8
  5
11D8
331
10FD
  5
10FD
331
2182
  5
2380
331
12A8
  5
12B1
331
1001
  5
1001
331
1098
  5
1098
331
1317
  5
1DE0
331
11E2
  5
11E2
331
F9C
  5
F9C
331
102B
  5
102B
331
100B
  5
100B
331
12B2
  5
12BE
331
117D
  5
117D
331
124D
  5
1251
331
11EC
  5
11EC
331
FA6
  5
FA6
331
1035
  5
1035
331
12BC
  5
12C8
331
2440
  5
1280
331
F39
  5
F39
331
1187
  5
1187
331
1257
  5
125B
331
103F
  5
103F
331
111A
  5
111A
331
F43
  5
F43
331
1261
  5
1265
331
1124
  5
1124
331
F4D
  5
F4D
331
112E
  5
112E
331
12E1
  5
12ED
331
F57
  5
F57
331
10C9
  5
10C9
331
12EB
  5
12F7
331
10D3
  5
10D3
331
FD7
  5
FD7
331
106E
  5
106E
331
12F5
  5
1301
331
10DD
  5
10DD
331
11B8
  5
11B8
331
1288
  5
1290
331
FE1
  5
FE1
331
1078
  5
1078
331
11C2
  5
11C2
331
F7C
  5
F7C
331
FEB
  5
FEB
331
1292
  5
129A
331
1082
  5
1082
331
115D
  5
115D
331
122D
  5
1231
331
11CC
  5
11CC
331
F86
  5
F86
331
129C
  5
12A4
331
F21
  5
F21
331
1167
  5
1167
331
1237
  5
123B
331
F90
  5
F90
331
1102
  5
1102
331
1171
  5
1171
331
F2B
  5
F2B
331
131C
  5
217F
331
1241
  5
1245
331
110C
  5
110C
331
F35
  5
F35
331
1010
  5
1010
331
1116
  5
1116
331
11F1
  5
11F1
331
12C1
  5
12CD
331
101A
  5
101A
331
10A9
  5
10A9
331
11FB
  5
11FB
331
12CB
  5
12D7
331
1024
  5
1024
331
10B3
  5
10B3
331
1205
  5
1205
331
FB7
  5
FB7
331
104E
  5
104E
331
12D5
  5
12E1
331
2459
  5
1285
331
10BD
  5
10BD
331
1198
  5
1198
331
1270
  5
1274
331
FC1
  5
FC1
331
1058
  5
1058
331
12DF
  5
12EB
331
11A2
  5
11A2
331
F5C
  5
F5C
331
FCB
  5
FCB
331
127A
  5
127E
331
1062
  5
1062
331
113D
  5
113D
331
120D
  5
120F
331
11AC
  5
11AC
331
F66
  5
F66
331
1147
  5
1147
331
1217
  5
121B
331
F70
  5
F70
331
10E2
  5
10E2
331
1151
  5
1151
331
F0B
  5
F0B
331
12FC
  5
1308
331
1221
  5
1225
331
10EC
  5
10EC
331
F15
  5
F15
331
FF0
  5
FF0
331
1306
  5
1312
331
10F6
  5
10F6
331
11D1
  5
11D1
331
F1F
  5
F1F
331
FFA
  5
FFA
331
1091
  5
1091
331
1310
  5
131C
331
11DB
  5
11DB
331
2185
  5
243D
331
12AB
  5
12B4
331
1004
  5
1004
331
109B
  5
109B
331
11E5
  5
11E5
331
F9F
  5
F9F
331
102E
  5
102E
331
100E
  5
100E
331
12B5
  5
12C2
331
1180
  5
1180
331
1250
  5
1254
331
11EF
  5
11EF
331
FA9
  5
FA9
331
1038
  5
1038
331
12BF
  5
12CB
331
2443
  5
1217
331
118A
  5
118A
331
F3C
  5
F3C
331
125A
  5
125E
331
1042
  5
1042
331
111D
  5
111D
331
F46
  5
F46
331
1264
  5
1268
331
1127
  5
1127
331
F50
  5
F50
331
10C2
  5
10C2
331
1131
  5
1131
331
12E4
  5
12F0
331
10CC
  5
10CC
331
FD0
  5
FD0
331
12EE
  5
12FA
331
10D6
  5
10D6
331
11B1
  5
11B1
331
1281
  5
1288
331
FDA
  5
FDA
331
1071
  5
1071
331
11BB
  5
11BB
331
128B
  5
1293
331
FE4
  5
FE4
331
107B
  5
107B
331
11C5
  5
11C5
331
F7F
  5
F7F
331
FEE
  5
FEE
331
1295
  5
129D
331
1085
  5
1085
331
1160
  5
1160
331
1230
  5
1234
331
11CF
  5
11CF
331
F89
  5
F89
331
129F
  5
12A7
331
F24
  5
F24
331
116A
  5
116A
331
123A
  5
123E
331
F93
  5
F93
331
218A
  5
2442
331
1105
  5
1105
331
1174
  5
1174
331
F2E
  5
F2E
331
131F
  5
2182
331
1244
  5
1248
331
110F
  5
110F
331
1013
  5
1013
331
10A2
  5
10A2
331
11F4
  5
11F4
331
12C4
  5
12D0
331
101D
  5
101D
331
10AC
  5
10AC
331
11FE
  5
11FE
331
FB0
  5
FB0
331
1027
  5
1027
331
12CE
  5
12DA
331
10B6
  5
10B6
331
1191
  5
1191
331
1269
  5
126D
331
FBA
  5
FBA
331
1051
  5
1051
331
12D8
  5
12E4
331
119B
  5
119B
331
1273
  5
1277
331
FC4
  5
FC4
331
105B
  5
105B
331
11A5
  5
11A5
331
F5F
  5
F5F
331
FCE
  5
FCE
331
127D
  5
1286
331
1140
  5
1140
331
1065
  5
1065
331
19B2
  5
2184
331
11AF
  5
11AF
331
F69
  5
F69
331
114A
  5
114A
331
121A
  5
121E
331
F73
  5
F73
331
10E5
  5
10E5
331
1154
  5
1154
331
F0E
  5
F0E
331
12FF
  5
130B
331
1224
  5
1228
331
10EF
  5
10EF
331
F18
  5
F18
331
FF3
  5
FF3
331
108A
  5
108A
331
1309
  5
1315
331
11D4
  5
11D4
331
10F9
  5
10F9
331
217E
  5
218A
331
12A4
  5
12AC
331
FFD
  5
FFD
331
1094
  5
1094
331
1313
  5
131F
331
F98
  5
F98
331
1007
  5
1007
331
109E
  5
109E
331
1179
  5
1179
331
1249
  5
124D
331
11E8
  5
11E8
331
FA2
  5
FA2
331
1031
  5
1031
331
12B8
  5
12C3
331
1183
  5
1183
331
1253
  5
1257
331
FAC
  5
FAC
331
103B
  5
103B
331
118D
  5
118D
331
F3F
  5
F3F
331
125D
  5
1261
331
1045
  5
1045
331
1120
  5
1120
331
F49
  5
F49
331
1267
  5
126B
331
2380
  5
2458
331
112A
  5
112A
331
F53
  5
F53
331
10C5
  5
10C5
331
1134
  5
1134
331
12E7
  5
12F4
331
1F74
  5
2189
331
10CF
  5
10CF
331
FD3
  5
FD3
331
106A
  5
106A
331
12F1
  5
12FD
331
10D9
  5
10D9
331
11B4
  5
11B4
331
1284
  5
128C
331
FDD
  5
FDD
331
1074
  5
1074
331
F78
  5
F78
331
11BE
  5
11BE
331
128E
  5
1296
331
FE7
  5
FE7
331
107E
  5
107E
331
1159
  5
1159
331
1229
  5
122D
331
11C8
  5
11C8
331
F82
  5
F82
331
1298
  5
12A0
331
1163
  5
1163
331
1233
  5
1237
331
F8C
  5
F8C
331
116D
  5
116D
331
F27
  5
F27
331
1318
  5
1E10
331
F96
  5
F96
331
123D
  5
1241
331
1108
  5
1108
331
1177
  5
1177
331
F31
  5
F31
331
1247
  5
124B
331
1112
  5
1112
331
1016
  5
1016
331
10A5
  5
10A5
331
11F7
  5
11F7
331
12C7
  5
12D3
331
1020
  5
1020
331
10AF
  5
10AF
331
1201
  5
1201
331
FB3
  5
FB3
331
104A
  5
104A
331
12D1
  5
12DD
331
10B9
  5
10B9
331
1194
  5
1194
331
126C
  5
1270
331
FBD
  5
FBD
331
1054
  5
1054
331
12DB
  5
12E7
331
F58
  5
F58
331
119E
  5
119E
331
1276
  5
127A
331
FC7
  5
FC7
331
105E
  5
105E
331
1139
  5
1139
331
1209
  5
1209
331
11A8
  5
11A8
331
F62
  5
F62
331
1143
  5
1143
331
1213
  5
1216
331
F6C
  5
F6C
331
114D
  5
114D
331
F07
  5
F07
331
12F8
  5
1304
331
F76
  5
F76
331
121D
  5
1221
331
10E8
  5
10E8
331
1157
  5
1157
331
F11
  5
F11
331
1302
  5
130E
331
1227
  5
122B
331
10F2
  5
10F2
331
F1B
  5
F1B
331
FF6
  5
FF6
331
108D
  5
108D
331
130C
  5
1318
331
11D7
  5
11D7
331
10FC
  5
10FC
331
2181
  5
233C
331
12A7
  5
12B0
331
1000
  5
1000
331
1097
  5
1097
331
1316
  5
19B3
331
11E1
  5
11E1
331
F9B
  5
F9B
331
102A
  5
102A
331
100A
  5
100A
331
117C
  5
117C
331
124C
  5
1250
331
11EB
  5
11EB
331
FA5
  5
FA5
331
1034
  5
1034
331
12BB
  5
12C6
331
243F
  5
12BD
331
F38
  5
F38
331
1186
  5
1186
331
1256
  5
125A
331
FAF
  5
FAF
331
103E
  5
103E
331
1119
  5
1119
331
F42
  5
F42
331
1260
  5
1264
331
1123
  5
1123
331
F4C
  5
F4C
331
112D
  5
112D
331
12E0
  5
12EC
331
F56
  5
F56
331
10C8
  5
10C8
331
1137
  5
1137
331
12EA
  5
12F6
331
10D2
  5
10D2
331
FD6
  5
FD6
331
106D
  5
106D
331
12F4
  5
1300
331
10DC
  5
10DC
331
11B7
  5
11B7
331
1287
  5
128F
331
FE0
  5
FE0
331
1077
  5
1077
331
11C1
  5
11C1
331
F7B
  5
F7B
331
FEA
  5
FEA
331
1291
  5
1299
331
1081
  5
1081
331
115C
  5
115C
331
122C
  5
1230
331
11CB
  5
11CB
331
F85
  5
F85
331
129B
  5
12A3
331
F20
  5
F20
331
1166
  5
1166
331
1236
  5
123A
331
F8F
  5
F8F
331
1101
  5
1101
331
1170
  5
1170
331
F2A
  5
F2A
331
131B
  5
217E
331
1240
  5
1244
331
110B
  5
110B
331
F34
  5
F34
331
1115
  5
1115
331
11F0
  5
11F0
331
12C0
  5
12CC
331
1019
  5
1019
331
10A8
  5
10A8
331
11FA
  5
11FA
331
12CA
  5
12D6
331
1023
  5
1023
331
10B2
  5
10B2
331
1204
  5
1204
331
FB6
  5
FB6
331
104D
  5
104D
331
12D4
  5
12E0
331
2458
  5
128A
331
10BC
  5
10BC
331
1197
  5
1197
331
126F
  5
1273
331
FC0
  5
FC0
331
1057
  5
1057
331
12DE
  5
12EA
331
11A1
  5
11A1
331
F5B
  5
F5B
331
FCA
  5
FCA
331
1279
  5
127D
331
1061
  5
1061
331
113C
  5
113C
331
120C
  5
120E
331
11AB
  5
11AB
331
F65
  5
F65
331
1146
  5
1146
331
1216
  5
121A
331
F6F
  5
F6F
331
10E1
  5
10E1
331
1150
  5
1150
331
F0A
  5
F0A
331
12FB
  5
1307
331
1220
  5
1224
331
10EB
  5
10EB
331
F14
  5
F14
331
1305
  5
1311
331
10F5
  5
10F5
331
11D0
  5
11D0
331
12A0
  5
12A9
331
F1E
  5
F1E
331
FF9
  5
FF9
331
1090
  5
1090
331
130F
  5
131B
331
11DA
  5
11DA
331
10FF
  5
10FF
331
2184
  5
243A
331
12AA
  5
12B3
331
1003
  5
1003
331
109A
  5
109A
331
11E4
  5
11E4
331
F9E
  5
F9E
331
102D
  5
102D
331
100D
  5
100D
331
12B4
  5
12C1
331
117F
  5
117F
331
124F
  5
1253
331
11EE
  5
11EE
331
FA8
  5
FA8
331
1037
  5
1037
331
12BE
  5
12CA
331
2442
  5
1215
331
F3B
  5
F3B
331
1189
  5
1189
331
1259
  5
125D
331
1041
  5
1041
331
111C
  5
111C
331
F45
  5
F45
331
1263
  5
1267
331
1126
  5
1126
331
F4F
  5
F4F
331
10C1
  5
10C1
331
1130
  5
1130
331
12E3
  5
12EF
331
10CB
  5
10CB
331
12ED
  5
12F9
331
10D5
  5
10D5
331
11B0
  5
11B0
331
FD9
  5
FD9
331
1070
  5
1070
331
12F7
  5
1303
331
10DF
  5
10DF
331
11BA
  5
11BA
331
128A
  5
1292
331
FE3
  5
FE3
331
107A
  5
107A
331
11C4
  5
11C4
331
F7E
  5
F7E
331
FED
  5
FED
331
1294
  5
129C
331
1084
  5
1084
331
115F
  5
115F
331
122F
  5
1233
331
11CE
  5
11CE
331
F88
  5
F88
331
129E
  5
12A6
331
F23
  5
F23
331
1169
  5
1169
331
1239
  5
123D
331
F92
  5
F92
331
2189
  5
2441
331
1104
  5
1104
331
1173
  5
1173
331
F2D
  5
F2D
331
131E
  5
2181
331
1243
  5
1247
331
110E
  5
110E
331
F37
  5
F37
331
1012
  5
1012
331
10A1
  5
10A1
331
11F3
  5
11F3
331
12C3
  5
12CF
331
101C
  5
101C
331
10AB
  5
10AB
331
11FD
  5
11FD
331
12CD
  5
12D9
331
1026
  5
1026
331
10B5
  5
10B5
331
1190
  5
1190
331
1268
  5
126C
331
1207
  5
1207
331
FB9
  5
FB9
331
1050
  5
1050
331
12D7
  5
12E3
331
10BF
  5
10BF
331
119A
  5
119A
331
1272
  5
1276
331
FC3
  5
FC3
331
105A
  5
105A
331
11A4
  5
11A4
331
F5E
  5
F5E
331
FCD
  5
FCD
331
127C
  5
1282
331
113F
  5
113F
331
1064
  5
1064
331
19B1
  5
2183
331
120F
  5
1211
331
11AE
  5
11AE
331
F68
  5
F68
331
1149
  5
1149
331
1219
  5
121D
331
F72
  5
F72
331
10E4
  5
10E4
331
1153
  5
1153
331
F0D
  5
F0D
331
12FE
  5
130A
331
1223
  5
1227
331
10EE
  5
10EE
331
F17
  5
F17
331
FF2
  5
FF2
331
1089
  5
1089
331
1308
  5
1314
331
10F8
  5
10F8
331
11D3
  5
11D3
331
12A3
  5
12AB
331
FFC
  5
FFC
331
1DE0
  5
2186
331
1093
  5
1093
331
1312
  5
131E
331
11DD
  5
11DD
331
2187
  5
243F
331
12AD
  5
12B6
331
1006
  5
1006
331
109D
  5
109D
331
1178
  5
1178
331
1248
  5
124C
331
11E7
  5
11E7
331
FA1
  5
FA1
331
1030
  5
1030
331
1182
  5
1182
331
1252
  5
1256
331
FAB
  5
FAB
331
103A
  5
103A
331
2445
  5
12C0
331
118C
  5
118C
331
F3E
  5
F3E
331
125C
  5
1260
331
1044
  5
1044
331
111F
  5
111F
331
F48
  5
F48
331
1266
  5
126A
331
1129
  5
1129
331
F52
  5
F52
331
10C4
  5
10C4
331
1133
  5
1133
331
12E6
  5
12F2
331
10CE
  5
10CE
331
FD2
  5
FD2
331
1069
  5
1069
331
12F0
  5
12FC
331
10D8
  5
10D8
331
11B3
  5
11B3
331
1283
  5
128B
331
FDC
  5
FDC
331
1073
  5
1073
331
11BD
  5
11BD
331
128D
  5
1295
331
FE6
  5
FE6
331
107D
  5
107D
331
1158
  5
1158
331
1228
  5
122C
331
11C7
  5
11C7
331
F81
  5
F81
331
1297
  5
129F
331
1087
  5
1087
331
1162
  5
1162
331
1232
  5
1236
331
F8B
  5
F8B
331
116C
  5
116C
331
F26
  5
F26
331
F95
  5
F95
331
123C
  5
1240
331
1107
  5
1107
331
23E4
  5
2459
331
1176
  5
1176
331
F30
  5
F30
331
1246
  5
124A
331
1111
  5
1111
331
1015
  5
1015
331
10A4
  5
10A4
331
11F6
  5
11F6
331
12C6
  5
12D2
331
101F
  5
101F
331
10AE
  5
10AE
331
1200
  5
1200
331
FB2
  5
FB2
331
1049
  5
1049
331
12D0
  5
12DC
331
10B8
  5
10B8
331
1193
  5
1193
331
126B
  5
126F
331
FBC
  5
FBC
331
1053
  5
1053
331
12DA
  5
12E6
331
119D
  5
119D
331
1275
  5
1279
331
FC6
  5
FC6
331
105D
  5
105D
331
1138
  5
1138
331
1208
  5
1208
331
11A7
  5
11A7
331
F61
  5
F61
331
1067
  5
1067
331
1142
  5
1142
331
1212
  5
1214
331
F6B
  5
F6B
331
114C
  5
114C
331
F06
  5
F06
331
F75
  5
F75
331
121C
  5
1220
331
10E7
  5
10E7
331
1156
  5
1156
331
F10
  5
F10
331
1301
  5
130D
331
1226
  5
122A
331
10F1
  5
10F1
331
F1A
  5
F1A
331
FF5
  5
FF5
331
108C
  5
108C
331
130B
  5
1317
331
11D6
  5
11D6
331
10FB
  5
10FB
331
2180
  5
233B
331
12A6
  5
12AF
331
FFF
  5
FFF
331
1096
  5
1096
331
1315
  5
19B2
331
11E0
  5
11E0
331
F9A
  5
F9A
331
1029
  5
1029
331
1009
  5
1009
331
12B0
  5
12BC
331
117B
  5
117B
331
124B
  5
124F
331
11EA
  5
11EA
331
FA4
  5
FA4
331
1033
  5
1033
331
12BA
  5
12C5
331
243E
  5
12B8
331
1185
  5
1185
331
1255
  5
1259
331
FAE
  5
FAE
331
103D
  5
103D
331
1118
  5
1118
331
118F
  5
118F
331
F41
  5
F41
331
125F
  5
1263
331
1047
  5
1047
331
1122
  5
1122
331
F4B
  5
F4B
331
112C
  5
112C
331
F55
  5
F55
331
10C7
  5
10C7
331
1136
  5
1136
331
10D1
  5
10D1
331
FD5
  5
FD5
331
106C
  5
106C
331
12F3
  5
12FF
331
10DB
  5
10DB
331
11B6
  5
11B6
  0
XRECORD
  5
24FC
102
{ACAD_REACTORS
330
24FB
102
}
330
24FB
100
AcDbXrecord
340
24D3
  0
ACAD_PROXY_OBJECT
  5
23F0
102
{ACAD_XDICTIONARY
360
23F1
102
}
102
{ACAD_REACTORS
330
23E7
102
}
330
23E7
100
AcDbProxyObject
 90
      499
 91
      511
 93
     1340
310
42109E509B1BD8DAC02004014080404555555555555953FAA155555555555654FEA9AA400014080404555555555555953FAA155555555555654FEA9AA400000000000000E03F4080404555555555555953FAA155555555555654FEA9AA4014080404555555555555953FAA155555555555654FEA9AA4010201011555555555
310
55654FEA8555555555555953FAA6A9005020101155555555555654FEA8555555555555953FAA6A9002
 94
        0
1001
ACAD
1000
AcadProxyRoundTripData
1071
      504
1071
   655383
1070
     0
  0
ACAD_PROXY_OBJECT
  5
23E8
102
{ACAD_XDICTIONARY
360
23E9
102
}
102
{ACAD_REACTORS
330
23E7
102
}
330
23E7
100
AcDbProxyObject
 90
      499
 91
      511
 93
     1340
310
42109E53185E595C802004014080404555555555555953FAA155555555555654FEA9AA400014080404555555555555953FAA155555555555654FEA9AA400000000000000E03F4080404555555555555953FAA155555555555654FEA9AA4014080404555555555555953FAA155555555555654FEA9AA4010201011555555555
310
55654FEA8555555555555953FAA6A9005020101155555555555654FEA8555555555555953FAA6A9002
 94
        0
1001
ACAD
1000
AcadProxyRoundTripData
1071
      504
1071
   655383
1070
     0
  0
ACAD_PROXY_OBJECT
  5
23F8
102
{ACAD_XDICTIONARY
360
23F9
102
}
102
{ACAD_REACTORS
330
23E7
102
}
330
23E7
100
AcDbProxyObject
 90
      499
 91
      511
 93
     1332
310
41D1DB1BD8985B002004014080404555555555555953FAA155555555555654FEA9AA400014080404555555555555953FAA155555555555654FEA9AA400000000000000E03F4080404555555555555953FAA155555555555654FEA9AA4014080404555555555555953FAA155555555555654FEA9AA401020101155555555555
310
654FEA8555555555555953FAA6A9005020101155555555555654FEA8555555555555953FAA6A9000
 94
        0
1001
ACAD
1000
AcadProxyRoundTripData
1071
      504
1071
   655383
1070
     0
  0
ACAD_PROXY_OBJECT
  5
2437
102
{ACAD_REACTORS
330
2436
102
}
330
2436
100
AcDbProxyObject
 90
      499
 91
      511
 93
      618
310
40901902A4063FBFFFFFE056BD1B81E855B9FC0AD7A3703D0AD73F4254DD185B99185C990000AD7A3703D0AC73F90141901A02B5E8DC0F42B1CFC02B5E8DC0F42B1CFE5764000000000000300FC6
340
6A
340
0
340
16
340
0
 94
        0
1001
ACAD_MLEADERVER
1070
     2
1001
ACAD
1000
AcadProxyRoundTripData
1071
      508
1071
   655383
1070
     0
  0
MLINESTYLE
  5
78
102
{ACAD_REACTORS
330
76
102
}
330
76
100
AcDbMlineStyle
  2
STANDARD
 70
     0
  3

 62
     0
 51
90.0
 52
90.0
 71
     2
 49
0.5
 62
   256
  6
BYLAYER
 49
-0.5
 62
   256
  6
BYLAYER
  0
ACDBPLACEHOLDER
  5
5
102
{ACAD_REACTORS
330
6
102
}
330
6
100
AcDbPlaceHolder
280
     0
  0
ACAD_PROXY_OBJECT
  5
2415
102
{ACAD_REACTORS
330
2414
102
}
330
2414
100
AcDbProxyObject
 90
      499
 91
      511
 93
       49
310
904313A3100598
 94
        0
1001
ACAD
1000
AcadProxyRoundTripData
1071
      507
1071
   655383
1070
     0
  0
ACAD_PROXY_OBJECT
  5
2416
102
{ACAD_REACTORS
330
2414
102
}
330
2414
100
AcDbProxyObject
 90
      499
 91
      511
 93
      113
310
904313A3200400000000000000406B
 94
        0
1001
ACAD
1000
AcadProxyRoundTripData
1071
      507
1071
   655383
1070
     0
  0
ACAD_PROXY_OBJECT
  5
2417
102
{ACAD_REACTORS
330
2414
102
}
330
2414
100
AcDbProxyObject
 90
      499
 91
      511
 93
      113
310
904313A3400400000000000010406B
 94
        0
1001
ACAD
1000
AcadProxyRoundTripData
1071
      507
1071
   655383
1070
     0
  0
ACAD_PROXY_OBJECT
  5
2418
102
{ACAD_REACTORS
330
2414
102
}
330
2414
100
AcDbProxyObject
 90
      499
 91
      511
 93
      113
310
904313A3500400000000000014406B
 94
        0
1001
ACAD
1000
AcadProxyRoundTripData
1071
      507
1071
   655383
1070
     0
  0
ACAD_PROXY_OBJECT
  5
2419
102
{ACAD_REACTORS
330
2414
102
}
330
2414
100
AcDbProxyObject
 90
      499
 91
      511
 93
      113
310
904313A3800400000000000020406B
 94
        0
1001
ACAD
1000
AcadProxyRoundTripData
1071
      507
1071
   655383
1070
     0
  0
ACAD_PROXY_OBJECT
  5
241A
102
{ACAD_REACTORS
330
2414
102
}
330
2414
100
AcDbProxyObject
 90
      499
 91
      511
 93
      121
310
905313A3130004000000000000244051
 94
        0
1001
ACAD
1000
AcadProxyRoundTripData
1071
      507
1071
   655383
1070
     0
  0
ACAD_PROXY_OBJECT
  5
241B
102
{ACAD_REACTORS
330
2414
102
}
330
2414
100
AcDbProxyObject
 90
      499
 91
      511
 93
      121
310
905313A3136004000000000000304051
 94
        0
1001
ACAD
1000
AcadProxyRoundTripData
1071
      507
1071
   655383
1070
     0
  0
ACAD_PROXY_OBJECT
  5
241C
102
{ACAD_REACTORS
330
2414
102
}
330
2414
100
AcDbProxyObject
 90
      499
 91
      511
 93
      121
310
905313A3230004000000000000344051
 94
        0
1001
ACAD
1000
AcadProxyRoundTripData
1071
      507
1071
   655383
1070
     0
  0
ACAD_PROXY_OBJECT
  5
241D
102
{ACAD_REACTORS
330
2414
102
}
330
2414
100
AcDbProxyObject
 90
      499
 91
      511
 93
      121
310
905313A33300040000000000003E4051
 94
        0
1001
ACAD
1000
AcadProxyRoundTripData
1071
      507
1071
   655383
1070
     0
  0
ACAD_PROXY_OBJECT
  5
241E
102
{ACAD_REACTORS
330
2414
102
}
330
2414
100
AcDbProxyObject
 90
      499
 91
      511
 93
      121
310
905313A3430004000000000000444051
 94
        0
1001
ACAD
1000
AcadProxyRoundTripData
1071
      507
1071
   655383
1070
     0
  0
ACAD_PROXY_OBJECT
  5
241F
102
{ACAD_REACTORS
330
2414
102
}
330
2414
100
AcDbProxyObject
 90
      499
 91
      511
 93
      121
310
905313A3530004000000000000494051
 94
        0
1001
ACAD
1000
AcadProxyRoundTripData
1071
      507
1071
   655383
1070
     0
  0
ACAD_PROXY_OBJECT
  5
2420
102
{ACAD_REACTORS
330
2414
102
}
330
2414
100
AcDbProxyObject
 90
      499
 91
      511
 93
      129
310
906313A313030004000000000000594038
 94
        0
1001
ACAD
1000
AcadProxyRoundTripData
1071
      507
1071
   655383
1070
     0
  0
ACAD_PROXY_OBJECT
  5
2421
102
{ACAD_REACTORS
330
2414
102
}
330
2414
100
AcDbProxyObject
 90
      499
 91
      511
 93
      113
310
904323A31000000000000000010159
 94
        0
1001
ACAD
1000
AcadProxyRoundTripData
1071
      507
1071
   655383
1070
     0
  0
ACAD_PROXY_OBJECT
  5
2422
102
{ACAD_REACTORS
330
2414
102
}
330
2414
100
AcDbProxyObject
 90
      499
 91
      511
 93
      113
310
904343A31000000000000000410159
 94
        0
1001
ACAD
1000
AcadProxyRoundTripData
1071
      507
1071
   655383
1070
     0
  0
ACAD_PROXY_OBJECT
  5
2423
102
{ACAD_REACTORS
330
2414
102
}
330
2414
100
AcDbProxyObject
 90
      499
 91
      511
 93
      113
310
904383A31000000000000000810159
 94
        0
1001
ACAD
1000
AcadProxyRoundTripData
1071
      507
1071
   655383
1070
     0
  0
ACAD_PROXY_OBJECT
  5
2424
102
{ACAD_REACTORS
330
2414
102
}
330
2414
100
AcDbProxyObject
 90
      499
 91
      511
 93
      121
310
90531303A31000000000000000910140
 94
        0
1001
ACAD
1000
AcadProxyRoundTripData
1071
      507
1071
   655383
1070
     0
  0
ACAD_PROXY_OBJECT
  5
2425
102
{ACAD_REACTORS
330
2414
102
}
330
2414
100
AcDbProxyObject
 90
      499
 91
      511
 93
      129
310
9063130303A31000000000000001650138
 94
        0
1001
ACAD
1000
AcadProxyRoundTripData
1071
      507
1071
   655383
1070
     0
  0
ACAD_PROXY_OBJECT
  5
2426
102
{ACAD_REACTORS
330
2414
102
}
330
2414
100
AcDbProxyObject
 90
      499
 91
      511
 93
      265
310
90F312F31323822203D2031272D302200000000000000200FC00000000000028402B
 94
        0
1001
ACAD
1000
AcadProxyRoundTripData
1071
      507
1071
   655383
1070
     0
  0
ACAD_PROXY_OBJECT
  5
2427
102
{ACAD_REACTORS
330
2414
102
}
330
2414
100
AcDbProxyObject
 90
      499
 91
      511
 93
      257
310
90E312F363422203D2031272D302200000000000000240FC000000000000284040
 94
        0
1001
ACAD
1000
AcadProxyRoundTripData
1071
      507
1071
   655383
1070
     0
  0
ACAD_PROXY_OBJECT
  5
2428
102
{ACAD_REACTORS
330
2414
102
}
330
2414
100
AcDbProxyObject
 90
      499
 91
      511
 93
      257
310
90E312F333222203D2031272D302200000000000000280FC000000000000284040
 94
        0
1001
ACAD
1000
AcadProxyRoundTripData
1071
      507
1071
   655383
1070
     0
  0
ACAD_PROXY_OBJECT
  5
2429
102
{ACAD_REACTORS
330
2414
102
}
330
2414
100
AcDbProxyObject
 90
      499
 91
      511
 93
      257
310
90E312F313622203D2031272D3022000000000000002C0FC000000000000284040
 94
        0
1001
ACAD
1000
AcadProxyRoundTripData
1071
      507
1071
   655383
1070
     0
  0
ACAD_PROXY_OBJECT
  5
242A
102
{ACAD_REACTORS
330
2414
102
}
330
2414
100
AcDbProxyObject
 90
      499
 91
      511
 93
      257
310
90E332F333222203D2031272D3022000000000000002E0FC000000000000284040
 94
        0
1001
ACAD
1000
AcadProxyRoundTripData
1071
      507
1071
   655383
1070
     0
  0
ACAD_PROXY_OBJECT
  5
242B
102
{ACAD_REACTORS
330
2414
102
}
330
2414
100
AcDbProxyObject
 90
      499
 91
      511
 93
      249
310
90D312F3822203D2031272D302200000000000000300FC000000000000284040
 94
        0
1001
ACAD
1000
AcadProxyRoundTripData
1071
      507
1071
   655383
1070
     0
  0
ACAD_PROXY_OBJECT
  5
242C
102
{ACAD_REACTORS
330
2414
102
}
330
2414
100
AcDbProxyObject
 90
      499
 91
      511
 93
      257
310
90E332F313622203D2031272D302200000000000000320FC000000000000284040
 94
        0
1001
ACAD
1000
AcadProxyRoundTripData
1071
      507
1071
   655383
1070
     0
  0
ACAD_PROXY_OBJECT
  5
242D
102
{ACAD_REACTORS
330
2414
102
}
330
2414
100
AcDbProxyObject
 90
      499
 91
      511
 93
      249
310
90D312F3422203D2031272D302200000000000000340FC000000000000284040
 94
        0
1001
ACAD
1000
AcadProxyRoundTripData
1071
      507
1071
   655383
1070
     0
  0
ACAD_PROXY_OBJECT
  5
242E
102
{ACAD_REACTORS
330
2414
102
}
330
2414
100
AcDbProxyObject
 90
      499
 91
      511
 93
      249
310
90D332F3822203D2031272D302200000000000000360FC000000000000284040
 94
        0
1001
ACAD
1000
AcadProxyRoundTripData
1071
      507
1071
   655383
1070
     0
  0
ACAD_PROXY_OBJECT
  5
242F
102
{ACAD_REACTORS
330
2414
102
}
330
2414
100
AcDbProxyObject
 90
      499
 91
      511
 93
      249
310
90D312F3222203D2031272D302200000000000000380FC000000000000284040
 94
        0
1001
ACAD
1000
AcadProxyRoundTripData
1071
      507
1071
   655383
1070
     0
  0
ACAD_PROXY_OBJECT
  5
2430
102
{ACAD_REACTORS
330
2414
102
}
330
2414
100
AcDbProxyObject
 90
      499
 91
      511
 93
      249
310
90D332F3422203D2031272D3022000000000000003A0FC000000000000284040
 94
        0
1001
ACAD
1000
AcadProxyRoundTripData
1071
      507
1071
   655383
1070
     0
  0
ACAD_PROXY_OBJECT
  5
2431
102
{ACAD_REACTORS
330
2414
102
}
330
2414
100
AcDbProxyObject
 90
      499
 91
      511
 93
      169
310
90B3122203D2031272D3022004000000000000284020
 94
        0
1001
ACAD
1000
AcadProxyRoundTripData
1071
      507
1071
   655383
1070
     0
  0
ACAD_PROXY_OBJECT
  5
2432
102
{ACAD_REACTORS
330
2414
102
}
330
2414
100
AcDbProxyObject
 90
      499
 91
      511
 93
      265
310
90F312D312F3222203D2031272D3022000000000000003E0FC00000000000028402B
 94
        0
1001
ACAD
1000
AcadProxyRoundTripData
1071
      507
1071
   655383
1070
     0
  0
ACAD_PROXY_OBJECT
  5
2433
102
{ACAD_REACTORS
330
2414
102
}
330
2414
100
AcDbProxyObject
 90
      499
 91
      511
 93
      233
310
90B3322203D2031272D30220000000000000002100000000000000284000
 94
        0
1001
ACAD
1000
AcadProxyRoundTripData
1071
      507
1071
   655383
1070
     0
  0
ACAD_PROXY_OBJECT
  5
2434
102
{ACAD_REACTORS
330
2414
102
}
330
2414
100
AcDbProxyObject
 90
      499
 91
      511
 93
      233
310
90B3622203D2031272D30220000000000000006100000000000000284000
 94
        0
1001
ACAD
1000
AcadProxyRoundTripData
1071
      507
1071
   655383
1070
     0
  0
ACAD_PROXY_OBJECT
  5
2435
102
{ACAD_REACTORS
330
2414
102
}
330
2414
100
AcDbProxyObject
 90
      499
 91
      511
 93
      257
310
90E31272D3022203D2031272D3022000000000000000A100000000000000284040
 94
        0
1001
ACAD
1000
AcadProxyRoundTripData
1071
      507
1071
   655383
1070
     0
  0
ACAD_PROXY_OBJECT
  5
2413
102
{ACAD_XDICTIONARY
360
246A
102
}
102
{ACAD_REACTORS
330
2412
102
}
330
2412
100
AcDbProxyObject
 90
      499
 91
      511
 93
     1849
310
4254DD185B99185C990028B81E85EB51B8AE3F2E07A17AD46E2B8FC02B5E8DC0F42B1CFD028000000C1008070000C3001FDFF8000000C1003FBFF000000182007F7FE00000030400FEFFC00000060801FDFF8000000C1003FBFF00000018200000000000000681FA0B0000001820100E000186003FBFF000000182007F7FE0
310
0000030400FEFFC00000060801FDFF8000000C1003FBFF000000182007F7FE000000304000AD7A3703D0AC73F4160000003040201C00030C007F7FE00000030400FEFFC00000060801FDFF8000000C1003FBFF000000182007F7FE00000030400FEFFC000000608057
340
16
340
16
340
16
 94
        0
1001
ACAD
1000
AcadProxyRoundTripData
1071
      506
1071
   655383
1070
     0
  0
ACAD_PROXY_OBJECT
  5
2406
102
{ACAD_REACTORS
330
2400
102
}
330
2400
100
AcDbProxyObject
 90
      499
 91
      511
 93
      444
310
430C9915DA5C99599C985B59401049028333333333333E3BF0000000000000FB0107901411070040501600405405064090741402480A0340
 94
        0
1001
ACAD
1000
AcDbSavedByObjectVersion
1070
     0
1000
AcadProxyRoundTripData
1071
      505
1071
   655383
1070
     0
  0
ACAD_PROXY_OBJECT
  5
2408
102
{ACAD_REACTORS
330
2400
102
}
330
2400
100
AcDbProxyObject
 90
      499
 91
      511
 93
      508
310
428CD108121A5919195B8010640502408333333333333E3BF0000000000000FB01079024090700405020000000000001110200405405064090740C02480A0340
 94
        0
1001
ACAD
1000
AcDbSavedByObjectVersion
1070
     0
1000
AcadProxyRoundTripData
1071
      505
1071
   655383
1070
     0
  0
ACAD_PROXY_OBJECT
  5
2407
102
{ACAD_REACTORS
330
2400
102
}
330
2400
100
AcDbProxyObject
 90
      499
 91
      511
 93
      444
310
430CD915DA5C99599C985B59401059028333333333333E3BF0000000000000FB0107901411070040501600405405064090741402480A0340
 94
        0
1001
ACAD
1000
AcDbSavedByObjectVersion
1070
     0
1000
AcadProxyRoundTripData
1071
      505
1071
   655383
1070
     0
  0
ACAD_PROXY_OBJECT
  5
2405
102
{ACAD_REACTORS
330
2400
102
}
330
2400
100
AcDbProxyObject
 90
      499
 91
      511
 93
      396
310
4190985CDA58C0107406404333333333333E3BF0000000000000FB0107A41107004050150841D405064090741402480A0356
 94
        0
1001
ACAD
1000
AcDbSavedByObjectVersion
1070
     0
1000
AcadProxyRoundTripData
1071
      505
1071
   655383
1070
     0
  0
ACAD_PROXY_OBJECT
  5
240C
102
{ACAD_REACTORS
330
2400
102
}
330
2400
100
AcDbProxyObject
 90
      499
 91
      511
 93
      436
310
42509C9A59DA1D195B8010C409028333333333333E3BF0000000000000FB010790141107004050150841D405064090741402480A029956
 94
        0
1001
ACAD
1000
AcDbSavedByObjectVersion
1070
     0
1000
AcadProxyRoundTripData
1071
      505
1071
   655383
1070
     0
  0
ACAD_PROXY_OBJECT
  5
2410
102
{ACAD_REACTORS
330
2400
102
}
330
2400
100
AcDbProxyObject
 90
      499
 91
      511
 93
      460
310
4310DBDB1BDC90DA185B99D9401104090240C333333333333E3BF0000000000000FB0108901411070040501508421405064090741402480A0354
 94
        0
1001
ACAD
1000
AcDbSavedByObjectVersion
1070
     0
1000
AcadProxyRoundTripData
1071
      505
1071
   655383
1070
     0
  0
ACAD_PROXY_OBJECT
  5
2409
102
{ACAD_REACTORS
330
2400
102
}
330
2400
100
AcDbProxyObject
 90
      499
 91
      511
 93
      508
310
42D0DBDB98D95C1D1D585B0010940D028333333333333E3BF0000000000000FB0107902409070040501000000000000111010841D405064090740C02480A0340
 94
        0
1001
ACAD
1000
AcDbSavedByObjectVersion
1070
     0
1000
AcadProxyRoundTripData
1071
      505
1071
   655383
1070
     0
  0
ACAD_PROXY_OBJECT
  5
240B
102
{ACAD_REACTORS
330
2400
102
}
330
2400
100
AcDbProxyObject
 90
      499
 91
      511
 93
      420
310
41111A5B4010B409028333333333333E3BF0000000000000FB010790141107004050150841D405064090741402480A02677FFFFFDB
 94
        0
1001
ACAD
1000
AcDbSavedByObjectVersion
1070
     0
1000
AcadProxyRoundTripData
1071
      505
1071
   655383
1070
     0
  0
ACAD_PROXY_OBJECT
  5
240F
102
{ACAD_REACTORS
330
2400
102
}
330
2400
100
AcDbProxyObject
 90
      499
 91
      511
 93
      452
310
43119858D95C185D1D195C9B8010F409028333333333333E3BF0000000000000FB010790141107004050150841D405064090741402480A0350
 94
        0
1001
ACAD
1000
AcDbSavedByObjectVersion
1070
     0
1000
AcadProxyRoundTripData
1071
      505
1071
   655383
1070
     0
  0
ACAD_PROXY_OBJECT
  5
2401
102
{ACAD_REACTORS
330
2400
102
}
330
2400
100
AcDbProxyObject
 90
      499
 91
      511
 93
      396
310
41519B185D00240901404333333333333E3BF0000000000000F9010740A41107004050150841D405064090741402480A1B55
 94
        0
1001
ACAD
1000
AcDbSavedByObjectVersion
1070
     0
1000
AcadProxyRoundTripData
1071
      505
1071
   655383
1070
     0
  0
ACAD_PROXY_OBJECT
  5
2402
102
{ACAD_REACTORS
330
2400
102
}
330
2400
100
AcDbProxyObject
 90
      499
 91
      511
 93
      484
310
43919B185D15DA5D1A115919D95CC010140901404333333333333E3BF0000000000000F9010740901411070040501600405405064090741402480A1B50
 94
        0
1001
ACAD
1000
AcDbSavedByObjectVersion
1070
     0
1000
AcadProxyRoundTripData
1071
      505
1071
   655383
1070
     0
  0
ACAD_PROXY_OBJECT
  5
2403
102
{ACAD_REACTORS
330
2400
102
}
330
2400
100
AcDbProxyObject
 90
      499
 91
      511
 93
      420
310
4211DBDD5C985D590010240902404333333333333E3BF0000000000000F9010740A411070040501641D405064090741402480A1B50
 94
        0
1001
ACAD
1000
AcDbSavedByObjectVersion
1070
     0
1000
AcadProxyRoundTripData
1071
      505
1071
   655383
1070
     0
  0
ACAD_PROXY_OBJECT
  5
2404
102
{ACAD_REACTORS
330
2400
102
}
330
2400
100
AcDbProxyObject
 90
      499
 91
      511
 93
      508
310
4451DBDD5C985D5915DA5D1A115919D95CC010340902404333333333333E3BF0000000000000F9010740901411070040501600405405064090741402480A1B50
 94
        0
1001
ACAD
1000
AcDbSavedByObjectVersion
1070
     0
1000
AcadProxyRoundTripData
1071
      505
1071
   655383
1070
     0
  0
ACAD_PROXY_OBJECT
  5
240E
102
{ACAD_REACTORS
330
2400
102
}
330
2400
100
AcDbProxyObject
 90
      499
 91
      511
 93
      452
310
43131A5B995C185D1D195C9B8010E409028333333333333E3BF0000000000000FB010790141107004050750841D405064090741402483A0350
 94
        0
1001
ACAD
1000
AcDbSavedByObjectVersion
1070
     0
1000
AcadProxyRoundTripData
1071
      505
1071
   655383
1070
     0
  0
ACAD_PROXY_OBJECT
  5
240A
102
{ACAD_REACTORS
330
2400
102
}
330
2400
100
AcDbProxyObject
 90
      499
 91
      511
 93
      428
310
429499585B1A5CDD1A58C0108409028333333333333E3BF0000000000000FB01079019070040501508421405064090741402480A1B45
 94
        0
1001
ACAD
1000
AcDbSavedByObjectVersion
1070
     0
1000
AcadProxyRoundTripData
1071
      505
1071
   655383
1070
     0
  0
ACAD_PROXY_OBJECT
  5
240D
102
{ACAD_REACTORS
330
2400
102
}
330
2400
100
AcDbProxyObject
 90
      499
 91
      511
 93
      420
310
42151A1A58DAD95B8010D409028333333333333E3BF0000000000000FB010790141107004050150C41D405064090741402480A0352
 94
        0
1001
ACAD
1000
AcDbSavedByObjectVersion
1070
     0
1000
AcadProxyRoundTripData
1071
      505
1071
   655383
1070
     0
  0
XRECORD
  5
24E3
102
{ACAD_REACTORS
330
24D9
102
}
330
24D9
100
AcDbXrecord
 90
        0
  0
XRECORD
  5
24E7
102
{ACAD_REACTORS
330
24D9
102
}
330
24D9
100
AcDbXrecord
1000
DSTYLE
1002
{
1070
   179
 70
     2
1070
   277
 70
     6
1002
}
  0
XRECORD
  5
24E4
102
{ACAD_REACTORS
330
24D9
102
}
330
24D9
100
AcDbXrecord
  1
{6385560B-F4B1-4644-A7C2-A3E32AC3D232}
  0
XRECORD
  5
24DC
102
{ACAD_REACTORS
330
24D9
102
}
330
24D9
100
AcDbXrecord
  1

  0
XRECORD
  5
24E2
102
{ACAD_REACTORS
330
24D9
102
}
330
24D9
100
AcDbXrecord
 90
        0
  0
XRECORD
  5
24DE
102
{ACAD_REACTORS
330
24D9
102
}
330
24D9
100
AcDbXrecord
340
61
  0
XRECORD
  5
24E1
102
{ACAD_REACTORS
330
24D9
102
}
330
24D9
100
AcDbXrecord
 90
    10781
  0
XRECORD
  5
24DF
102
{ACAD_REACTORS
330
24D9
102
}
330
24D9
100
AcDbXrecord
340
77
  0
XRECORD
  5
24E0
102
{ACAD_REACTORS
330
24D9
102
}
330
24D9
100
AcDbXrecord
340
6
  0
XRECORD
  5
24E6
102
{ACAD_REACTORS
330
24D9
102
}
330
24D9
100
AcDbXrecord
 40
0.0
  0
XRECORD
  5
24EA
102
{ACAD_REACTORS
330
24D9
102
}
330
24D9
100
AcDbXrecord
340
0
  0
XRECORD
  5
24F0
102
{ACAD_REACTORS
330
24D9
102
}
330
24D9
100
AcDbXrecord
 10
0.0
 20
0.0
 30
0.0
  0
XRECORD
  5
24EC
102
{ACAD_REACTORS
330
24D9
102
}
330
24D9
100
AcDbXrecord
 10
0.0
 20
0.0
 30
0.0
  0
XRECORD
  5
24EF
102
{ACAD_REACTORS
330
24D9
102
}
330
24D9
100
AcDbXrecord
 10
0.0
 20
0.0
 30
0.0
  0
XRECORD
  5
24ED
102
{ACAD_REACTORS
330
24D9
102
}
330
24D9
100
AcDbXrecord
 10
0.0
 20
0.0
 30
0.0
  0
XRECORD
  5
24EE
102
{ACAD_REACTORS
330
24D9
102
}
330
24D9
100
AcDbXrecord
 10
0.0
 20
0.0
 30
0.0
  0
XRECORD
  5
24EB
102
{ACAD_REACTORS
330
24D9
102
}
330
24D9
100
AcDbXrecord
 10
0.0
 20
0.0
 30
0.0
  0
XRECORD
  5
24E8
102
{ACAD_REACTORS
330
24D9
102
}
330
24D9
100
AcDbXrecord
340
0
  0
XRECORD
  5
24E9
102
{ACAD_REACTORS
330
24D9
102
}
330
24D9
100
AcDbXrecord
 70
     0
  0
XRECORD
  5
24DD
102
{ACAD_REACTORS
330
24D9
102
}
330
24D9
100
AcDbXrecord
  1
Sekkei.ctb
  0
XRECORD
  5
24DA
102
{ACAD_REACTORS
330
24D9
102
}
330
24D9
100
AcDbXrecord
 90
        1
  0
XRECORD
  5
24DB
102
{ACAD_REACTORS
330
24D9
102
}
330
24D9
100
AcDbXrecord
 90
       70
  0
XRECORD
  5
24F3
102
{ACAD_REACTORS
330
24D9
102
}
330
24D9
100
AcDbXrecord
340
0
  0
XRECORD
  5
24F9
102
{ACAD_REACTORS
330
24D9
102
}
330
24D9
100
AcDbXrecord
 10
0.0
 20
0.0
 30
0.0
  0
XRECORD
  5
24F5
102
{ACAD_REACTORS
330
24D9
102
}
330
24D9
100
AcDbXrecord
 10
0.0
 20
0.0
 30
0.0
  0
XRECORD
  5
24F8
102
{ACAD_REACTORS
330
24D9
102
}
330
24D9
100
AcDbXrecord
 10
0.0
 20
0.0
 30
0.0
  0
XRECORD
  5
24F6
102
{ACAD_REACTORS
330
24D9
102
}
330
24D9
100
AcDbXrecord
 10
0.0
 20
0.0
 30
0.0
  0
XRECORD
  5
24F7
102
{ACAD_REACTORS
330
24D9
102
}
330
24D9
100
AcDbXrecord
 10
0.0
 20
0.0
 30
0.0
  0
XRECORD
  5
24F4
102
{ACAD_REACTORS
330
24D9
102
}
330
24D9
100
AcDbXrecord
 10
0.0
 20
0.0
 30
0.0
  0
XRECORD
  5
24F1
102
{ACAD_REACTORS
330
24D9
102
}
330
24D9
100
AcDbXrecord
340
0
  0
XRECORD
  5
24F2
102
{ACAD_REACTORS
330
24D9
102
}
330
24D9
100
AcDbXrecord
 70
     0
  0
XRECORD
  5
24E5
102
{ACAD_REACTORS
330
24D9
102
}
330
24D9
100
AcDbXrecord
  1
{981D48F7-D7DA-4C35-B769-1120A9FD0278}
  0
DICTIONARYVAR
  5
248D
102
{ACAD_REACTORS
330
102
102
}
330
102
100
DictionaryVariables
280
     0
  1
1:1
  0
DICTIONARYVAR
  5
248C
102
{ACAD_REACTORS
330
102
102
}
330
102
100
DictionaryVariables
280
     0
  1
STANDARD
  0
DICTIONARYVAR
  5
248B
102
{ACAD_REACTORS
330
102
102
}
330
102
100
DictionaryVariables
280
     0
  1
STANDARD
  0
DICTIONARYVAR
  5
103
102
{ACAD_REACTORS
330
102
102
}
330
102
100
DictionaryVariables
280
     0
  1
1
  0
DICTIONARYVAR
  5
248E
102
{ACAD_REACTORS
330
102
102
}
330
102
100
DictionaryVariables
280
     0
  1
0
  0
DICTIONARYVAR
  5
549
102
{ACAD_REACTORS
330
102
102
}
330
102
100
DictionaryVariables
280
     0
  1
96
  0
DICTIONARY
  5
23F1
330
23F0
100
AcDbDictionary
280
     1
  3
ACAD_XREC_ROUNDTRIP
360
24BE
  3
BUMPTILE
360
23F3
  3
DIFFUSETILE
360
23F2
  3
OPACITYTILE
360
23F6
  3
REFLECTIONTILE
360
23F5
  3
REFRACTIONTILE
360
23F7
  3
SPECULARTILE
360
23F4
  0
DICTIONARY
  5
23E9
330
23E8
100
AcDbDictionary
280
     1
  3
ACAD_XREC_ROUNDTRIP
360
24BD
  3
BUMPTILE
360
23EB
  3
DIFFUSETILE
360
23EA
  3
OPACITYTILE
360
23EE
  3
REFLECTIONTILE
360
23ED
  3
REFRACTIONTILE
360
23EF
  3
SPECULARTILE
360
23EC
  0
DICTIONARY
  5
23F9
330
23F8
100
AcDbDictionary
280
     1
  3
ACAD_XREC_ROUNDTRIP
360
24BF
  3
BUMPTILE
360
23FB
  3
DIFFUSETILE
360
23FA
  3
OPACITYTILE
360
23FE
  3
REFLECTIONTILE
360
23FD
  3
REFRACTIONTILE
360
23FF
  3
SPECULARTILE
360
23FC
  0
DICTIONARY
  5
246A
330
2413
100
AcDbDictionary
280
     1
  3
ACAD_ROUNDTRIP_2008_TABLES
360
24A4
  3
ACAD_XREC_ROUNDTRIP
360
24C0
  0
XRECORD
  5
24BE
102
{ACAD_REACTORS
330
23F1
102
}
330
23F1
100
AcDbXrecord
102
MATERIAL
148
0.0
149
0.0
149
0.0
 93
        0
 94
      127
282
     0
 72
     0
 77
     0
171
     0
175
     0
179
     0
273
     0
  0
XRECORD
  5
23F3
102
{ACAD_REACTORS
330
23F1
102
}
330
23F1
100
AcDbXrecord
270
     1
271
     1
  0
XRECORD
  5
23F2
102
{ACAD_REACTORS
330
23F1
102
}
330
23F1
100
AcDbXrecord
270
     1
271
     1
  0
XRECORD
  5
23F6
102
{ACAD_REACTORS
330
23F1
102
}
330
23F1
100
AcDbXrecord
270
     1
271
     1
  0
XRECORD
  5
23F5
102
{ACAD_REACTORS
330
23F1
102
}
330
23F1
100
AcDbXrecord
270
     1
271
     1
  0
XRECORD
  5
23F7
102
{ACAD_REACTORS
330
23F1
102
}
330
23F1
100
AcDbXrecord
270
     1
271
     1
  0
XRECORD
  5
23F4
102
{ACAD_REACTORS
330
23F1
102
}
330
23F1
100
AcDbXrecord
270
     1
271
     1
  0
XRECORD
  5
24BD
102
{ACAD_REACTORS
330
23E9
102
}
330
23E9
100
AcDbXrecord
102
MATERIAL
148
0.0
149
0.0
149
0.0
 93
        0
 94
      127
282
     0
 72
     0
 77
     0
171
     0
175
     0
179
     0
273
     0
  0
XRECORD
  5
23EB
102
{ACAD_REACTORS
330
23E9
102
}
330
23E9
100
AcDbXrecord
270
     1
271
     1
  0
XRECORD
  5
23EA
102
{ACAD_REACTORS
330
23E9
102
}
330
23E9
100
AcDbXrecord
270
     1
271
     1
  0
XRECORD
  5
23EE
102
{ACAD_REACTORS
330
23E9
102
}
330
23E9
100
AcDbXrecord
270
     1
271
     1
  0
XRECORD
  5
23ED
102
{ACAD_REACTORS
330
23E9
102
}
330
23E9
100
AcDbXrecord
270
     1
271
     1
  0
XRECORD
  5
23EF
102
{ACAD_REACTORS
330
23E9
102
}
330
23E9
100
AcDbXrecord
270
     1
271
     1
  0
XRECORD
  5
23EC
102
{ACAD_REACTORS
330
23E9
102
}
330
23E9
100
AcDbXrecord
270
     1
271
     1
  0
XRECORD
  5
24BF
102
{ACAD_REACTORS
330
23F9
102
}
330
23F9
100
AcDbXrecord
102
MATERIAL
148
0.0
149
0.0
149
0.0
 93
        0
 94
      127
282
     0
 72
     0
 77
     0
171
     0
175
     0
179
     0
273
     0
  0
XRECORD
  5
23FB
102
{ACAD_REACTORS
330
23F9
102
}
330
23F9
100
AcDbXrecord
270
     1
271
     1
  0
XRECORD
  5
23FA
102
{ACAD_REACTORS
330
23F9
102
}
330
23F9
100
AcDbXrecord
270
     1
271
     1
  0
XRECORD
  5
23FE
102
{ACAD_REACTORS
330
23F9
102
}
330
23F9
100
AcDbXrecord
270
     1
271
     1
  0
XRECORD
  5
23FD
102
{ACAD_REACTORS
330
23F9
102
}
330
23F9
100
AcDbXrecord
270
     1
271
     1
  0
XRECORD
  5
23FF
102
{ACAD_REACTORS
330
23F9
102
}
330
23F9
100
AcDbXrecord
270
     1
271
     1
  0
XRECORD
  5
23FC
102
{ACAD_REACTORS
330
23F9
102
}
330
23F9
100
AcDbXrecord
270
     1
271
     1
  0
ACAD_PROXY_OBJECT
  5
24A4
102
{ACAD_REACTORS
330
246A
102
}
330
246A
100
AcDbProxyObject
 90
      499
 91
      511
 93
     1044
310
40D054060020000020000003200101A000080002A5058000000C100000000000000340FE901405075F5449544C450041501A8000000C800406800020000A9416000000304000AD7A3703D0AC73FA409014217D2115051115480105406A0000003200101A000080002A5028000000C10002B5E8DC0F42B1CFE903409065F444
310
15441003
340
16
340
16
340
16
 94
        0
1001
ACAD
1000
AcadProxyRoundTripData
1071
      510
1071
   655383
1070
     0
  0
XRECORD
  5
24C0
102
{ACAD_REACTORS
330
246A
102
}
330
246A
100
AcDbXrecord
102
ACAD_ROUNDTRIP_PRE2007_TABLESTYLE
 90
      512
 91
        0
  1

 92
      512
 93
        0
  2

 94
      512
 95
        0
  3

  0
ENDSEC
  0
EOF
