  0
SECTION
  2
HEADER
  9
$ACADVER
  1
AC1014
  9
$ACADMAINTVER
 70
     9
  9
$DWGCODEPAGE
  3
ANSI_932
  9
$INSBASE
 10
0.0
 20
0.0
 30
0.0
  9
$EXTMIN
 10
29.41773264297785
 20
95.91591147024605
 30
0.0
  9
$EXTMAX
 10
968.8369266945226
 20
706.6540158794664
 30
0.0
  9
$LIMMIN
 10
0.0
 20
0.0
  9
$LIMMAX
 10
297.0
 20
210.0
  9
$ORTHOMODE
 70
     1
  9
$REGENMODE
 70
     1
  9
$FILLMODE
 70
     1
  9
$QTEXTMODE
 70
     0
  9
$MIRRTEXT
 70
     0
  9
$DRAGMODE
 70
     2
  9
$LTSCALE
 40
3.0
  9
$OSMODE
 70
    37
  9
$ATTMODE
 70
     1
  9
$TEXTSIZE
 40
2.0
  9
$TRACEWID
 40
1.0
  9
$TEXTSTYLE
  7
STANDARD
  9
$CLAYER
  8
0
  9
$CELTYPE
  6
BYLAYER
  9
$CECOLOR
 62
   256
  9
$CELTSCALE
 40
1.0
  9
$DELOBJ
 70
     1
  9
$DISPSILH
 70
     0
  9
$DIMSCALE
 40
3.0
  9
$DIMASZ
 40
1.8
  9
$DIMEXO
 40
0.625
  9
$DIMDLI
 40
3.75
  9
$DIMRND
 40
0.0
  9
$DIMDLE
 40
0.0
  9
$DIMEXE
 40
0.8
  9
$DIMTP
 40
0.0
  9
$DIMTM
 40
0.0
  9
$DIMTXT
 40
1.8
  9
$DIMCEN
 40
2.5
  9
$DIMTSZ
 40
0.0
  9
$DIMTOL
 70
     0
  9
$DIMLIM
 70
     0
  9
$DIMTIH
 70
     0
  9
$DIMTOH
 70
     0
  9
$DIMSE1
 70
     0
  9
$DIMSE2
 70
     0
  9
$DIMTAD
 70
     1
  9
$DIMZIN
 70
     8
  9
$DIMBLK
  1

  9
$DIMASO
 70
     1
  9
$DIMSHO
 70
     1
  9
$DIMPOST
  1

  9
$DIMAPOST
  1

  9
$DIMALT
 70
     0
  9
$DIMALTD
 70
     4
  9
$DIMALTF
 40
0.0394
  9
$DIMLFAC
 40
1.0
  9
$DIMTOFL
 70
     1
  9
$DIMTVP
 40
0.0
  9
$DIMTIX
 70
     0
  9
$DIMSOXD
 70
     0
  9
$DIMSAH
 70
     0
  9
$DIMBLK1
  1

  9
$DIMBLK2
  1

  9
$DIMSTYLE
  2
STANDARD
  9
$DIMCLRD
 70
     0
  9
$DIMCLRE
 70
     0
  9
$DIMCLRT
 70
     0
  9
$DIMTFAC
 40
1.0
  9
$DIMGAP
 40
0.75
  9
$DIMJUST
 70
     0
  9
$DIMSD1
 70
     0
  9
$DIMSD2
 70
     0
  9
$DIMTOLJ
 70
     1
  9
$DIMTZIN
 70
     0
  9
$DIMALTZ
 70
     0
  9
$DIMALTTZ
 70
     0
  9
$DIMFIT
 70
     3
  9
$DIMUPT
 70
     0
  9
$DIMUNIT
 70
     8
  9
$DIMDEC
 70
     2
  9
$DIMTDEC
 70
     2
  9
$DIMALTU
 70
     8
  9
$DIMALTTD
 70
     4
  9
$DIMTXSTY
  7
STANDARD
  9
$DIMAUNIT
 70
     0
  9
$LUNITS
 70
     2
  9
$LUPREC
 70
     3
  9
$SKETCHINC
 40
1.0
  9
$FILLETRAD
 40
2.0
  9
$AUNITS
 70
     0
  9
$AUPREC
 70
     2
  9
$MENU
  1
.
  9
$ELEVATION
 40
0.0
  9
$PELEVATION
 40
0.0
  9
$THICKNESS
 40
0.0
  9
$LIMCHECK
 70
     0
  9
$BLIPMODE
 70
     0
  9
$CHAMFERA
 40
0.0
  9
$CHAMFERB
 40
0.0
  9
$CHAMFERC
 40
20.0
  9
$CHAMFERD
 40
0.0
  9
$SKPOLY
 70
     0
  9
$TDCREATE
 40
2454410.724518044
  9
$TDUPDATE
 40
2454425.685351018
  9
$TDINDWG
 40
0.0204354861
  9
$TDUSRTIMER
 40
0.0204354861
  9
$USRTIMER
 70
     1
  9
$ANGBASE
 50
0.0
  9
$ANGDIR
 70
     0
  9
$PDMODE
 70
     0
  9
$PDSIZE
 40
-10.0
  9
$PLINEWID
 40
0.0
  9
$COORDS
 70
     0
  9
$SPLFRAME
 70
     0
  9
$SPLINETYPE
 70
     6
  9
$SPLINESEGS
 70
     8
  9
$ATTDIA
 70
     0
  9
$ATTREQ
 70
     1
  9
$HANDLING
 70
-16383
  9
$HANDSEED
  5
1F43
  9
$SURFTAB1
 70
     6
  9
$SURFTAB2
 70
     6
  9
$SURFTYPE
 70
     6
  9
$SURFU
 70
     6
  9
$SURFV
 70
     6
  9
$UCSNAME
  2

  9
$UCSORG
 10
0.0
 20
0.0
 30
0.0
  9
$UCSXDIR
 10
1.0
 20
0.0
 30
0.0
  9
$UCSYDIR
 10
0.0
 20
1.0
 30
0.0
  9
$PUCSNAME
  2

  9
$PUCSORG
 10
0.0
 20
0.0
 30
0.0
  9
$PUCSXDIR
 10
1.0
 20
0.0
 30
0.0
  9
$PUCSYDIR
 10
0.0
 20
1.0
 30
0.0
  9
$USERI1
 70
     0
  9
$USERI2
 70
     0
  9
$USERI3
 70
     0
  9
$USERI4
 70
     0
  9
$USERI5
 70
     0
  9
$USERR1
 40
0.0
  9
$USERR2
 40
0.0
  9
$USERR3
 40
0.0
  9
$USERR4
 40
0.0
  9
$USERR5
 40
0.0
  9
$WORLDVIEW
 70
     1
  9
$SHADEDGE
 70
     3
  9
$SHADEDIF
 70
    70
  9
$TILEMODE
 70
     1
  9
$MAXACTVP
 70
    48
  9
$PINSBASE
 10
0.0
 20
0.0
 30
0.0
  9
$PLIMCHECK
 70
     0
  9
$PEXTMIN
 10
0.0
 20
0.0
 30
0.0
  9
$PEXTMAX
 10
0.0
 20
0.0
 30
0.0
  9
$PLIMMIN
 10
0.0
 20
0.0
  9
$PLIMMAX
 10
12.0
 20
9.0
  9
$UNITMODE
 70
     0
  9
$VISRETAIN
 70
     1
  9
$PLINEGEN
 70
     0
  9
$PSLTSCALE
 70
     1
  9
$TREEDEPTH
 70
  3020
  9
$PICKSTYLE
 70
     1
  9
$CMLSTYLE
  2
STANDARD
  9
$CMLJUST
 70
     0
  9
$CMLSCALE
 40
1.0
  9
$PROXYGRAPHICS
 70
     1
  9
$MEASUREMENT
 70
     0
  0
ENDSEC
  0
SECTION
  2
CLASSES
  0
CLASS
  1
DICTIONARYVAR
  2
AcDbDictionaryVar
  3
AutoCAD 2000
 90
        0
280
     0
281
     0
  0
CLASS
  1
ACDBDICTIONARYWDFLT
  2
AcDbDictionaryWithDefault
  3
AutoCAD 2000
 90
        0
280
     0
281
     0
  0
CLASS
  1
ACDBPLACEHOLDER
  2
AcDbPlaceHolder
  3
AutoCAD 2000
 90
        0
280
     0
281
     0
  0
CLASS
  1
LAYOUT
  2
AcDbLayout
  3
AutoCAD 2000
 90
        0
280
     0
281
     0
  0
CLASS
  1
MATERIAL
  2
AcDbMaterial
  3
ObjectDBX Classes
 90
     1153
280
     0
281
     0
  0
CLASS
  1
VISUALSTYLE
  2
AcDbVisualStyle
  3
ObjectDBX Classes
 90
     4095
280
     0
281
     0
  0
CLASS
  1
TABLESTYLE
  2
AcDbTableStyle
  3
ObjectDBX Classes
 90
     4095
280
     0
281
     0
  0
CLASS
  1
SCALE
  2
AcDbScale
  3
ObjectDBX Classes
 90
     1153
280
     0
281
     0
  0
CLASS
  1
MLEADERSTYLE
  2
AcDbMLeaderStyle
  3
ACDB_MLEADERSTYLE_CLASS
 90
     4095
280
     0
281
     0
  0
CLASS
  1
SORTENTSTABLE
  2
AcDbSortentsTable
  3
AutoCAD 2000
 90
        0
280
     0
281
     0
  0
CLASS
  1
CELLSTYLEMAP
  2
AcDbCellStyleMap
  3
ObjectDBX Classes
 90
     1152
280
     0
281
     0
  0
CLASS
  1
ACAD_PROXY_OBJECT_WRAPPER
  2
AcDbProxyObjectWrapper
  3
AutoCAD 2000
 90
        0
280
     0
281
     0
  0
CLASS
  1
LONG_TRANSACTION
  2
AcDbLongTransaction
  3
AutoCAD 2000
 90
        0
280
     0
281
     0
  0
CLASS
  1
LWPOLYLINE
  2
AcDbPolyline
  3
AutoCAD 2000
 90
        0
280
     0
281
     1
  0
CLASS
  1
HATCH
  2
AcDbHatch
  3
AutoCAD 2000
 90
        0
280
     0
281
     1
  0
CLASS
  1
XRECORD
  2
AcDbXrecord
  3
AutoCAD 2000
 90
        0
280
     0
281
     0
  0
ENDSEC
  0
SECTION
  2
TABLES
  0
TABLE
  2
VPORT
  5
6E
102
{ACAD_XDICTIONARY
360
1E9E
102
}
330
0
100
AcDbSymbolTable
 70
     2
  0
VPORT
  5
1F1E
330
6E
100
AcDbSymbolTableRecord
100
AcDbViewportTableRecord
  2
*ACTIVE
 70
     0
 10
0.0
 20
0.0
 11
1.0
 21
1.0
 12
507.1035428315593
 22
385.5907717934387
 13
0.0
 23
0.0
 14
10.0
 24
10.0
 15
10.0
 25
10.0
 16
0.0
 26
0.0
 36
1.0
 17
0.0
 27
0.0
 37
0.0
 40
646.5652993610431
 41
1.753504672897196
 42
50.0
 43
0.0
 44
0.0
 50
0.0
 51
0.0
 71
     0
 72
   100
 73
     1
 74
     3
 75
     0
 76
     0
 77
     0
 78
     0
  0
ENDTAB
  0
TABLE
  2
LTYPE
  5
69
330
0
100
AcDbSymbolTable
 70
     8
  0
LTYPE
  5
6A
330
69
100
AcDbSymbolTableRecord
100
AcDbLinetypeTableRecord
  2
BYBLOCK
 70
     0
  3

 72
    65
 73
     0
 40
0.0
  0
LTYPE
  5
6B
330
69
100
AcDbSymbolTableRecord
100
AcDbLinetypeTableRecord
  2
BYLAYER
 70
     0
  3

 72
    65
 73
     0
 40
0.0
  0
LTYPE
  5
8
330
69
100
AcDbSymbolTableRecord
100
AcDbLinetypeTableRecord
  2
CONTINUOUS
 70
     0
  3
Solid line
 72
    65
 73
     0
 40
0.0
  0
LTYPE
  5
27C
330
69
100
AcDbSymbolTableRecord
100
AcDbLinetypeTableRecord
  2
SEKKEI_A2_
 70
     0
  3
center(A2)  ____ _ ____ _ ____ _ ____ _ ____ _ 
 72
    65
 73
     4
 40
14.28749999999999
 49
9.525
 74
     0
 49
-1.587499999999999
 74
     0
 49
1.587499999999999
 74
     0
 49
-1.587499999999999
 74
     0
  0
LTYPE
  5
48F
330
69
100
AcDbSymbolTableRecord
100
AcDbLinetypeTableRecord
  2
SEKKEI_H
 70
     0
  3
Hidden-S _ _ _ _ _ _ _ _ _ _ _ _ _ _ _ _ _
 72
    65
 73
     2
 40
2.381249999999999
 49
1.587499999999999
 74
     0
 49
-0.79375
 74
     0
  0
LTYPE
  5
7F0
330
69
100
AcDbSymbolTableRecord
100
AcDbLinetypeTableRecord
  2
HIDDEN3
 70
     0
  3
Hidden (.3x) _ _ _ _ _ _ _ _ _ _ _ _ _ _ _ _ _
 72
    65
 73
     2
 40
2.857499999999999
 49
1.905
 74
     0
 49
-0.9525
 74
     0
  0
LTYPE
  5
AE1
330
69
100
AcDbSymbolTableRecord
100
AcDbLinetypeTableRecord
  2
CENS
 70
     0
  3
(一点鎖線１)---- - ---- - ---- - ---- - ---- - 
 72
    65
 73
     4
 40
7.0
 49
4.0
 74
     0
 49
-1.0
 74
     0
 49
1.0
 74
     0
 49
-1.0
 74
     0
  0
LTYPE
  5
1B85
330
69
100
AcDbSymbolTableRecord
100
AcDbLinetypeTableRecord
  2
SEKKEI-P_A4_
 70
     0
  3
Phantom(A4)  ____ _ _ ____ _ _ ____ _ _ _____
 72
    65
 73
     6
 40
15.0
 49
7.5
 74
     0
 49
-1.5
 74
     0
 49
1.5
 74
     0
 49
-1.5
 74
     0
 49
1.5
 74
     0
 49
-1.5
 74
     0
  0
LTYPE
  5
1B86
330
69
100
AcDbSymbolTableRecord
100
AcDbLinetypeTableRecord
  2
SEKKEI_P_S
 70
     0
  3
Phantom_S   __ _ _ __ _ _ __ _ _ ___
 72
    65
 73
     6
 40
7.5
 49
3.75
 74
     0
 49
-0.75
 74
     0
 49
0.75
 74
     0
 49
-0.75
 74
     0
 49
0.75
 74
     0
 49
-0.75
 74
     0
  0
ENDTAB
  0
TABLE
  2
LAYER
  5
66
102
{ACAD_XDICTIONARY
360
AE2
102
}
330
0
100
AcDbSymbolTable
 70
    10
  0
LAYER
  5
5E
102
{ACAD_XDICTIONARY
360
1E83
102
}
330
66
100
AcDbSymbolTableRecord
100
AcDbLayerTableRecord
  2
0
 70
     0
 62
     7
  6
CONTINUOUS
  0
LAYER
  5
3E
102
{ACAD_XDICTIONARY
360
1E85
102
}
330
66
100
AcDbSymbolTableRecord
100
AcDbLayerTableRecord
  2
CENTER
 70
     0
 62
     3
  6
SEKKEI_A2_
  0
LAYER
  5
2B5
102
{ACAD_XDICTIONARY
360
1E8B
102
}
330
66
100
AcDbSymbolTableRecord
100
AcDbLayerTableRecord
  2
HIDS
 70
     0
 62
     1
  6
HIDDEN3
  0
LAYER
  5
2BA
102
{ACAD_XDICTIONARY
360
1E8D
102
}
330
66
100
AcDbSymbolTableRecord
100
AcDbLayerTableRecord
  2
HOJO
 70
     0
 62
     4
  6
CONTINUOUS
  0
LAYER
  5
3FA
102
{ACAD_XDICTIONARY
360
1E91
102
}
330
66
100
AcDbSymbolTableRecord
100
AcDbLayerTableRecord
  2
TITLE
 70
     0
 62
     4
  6
CONTINUOUS
  0
LAYER
  5
1B87
102
{ACAD_XDICTIONARY
360
1B88
102
}
330
66
100
AcDbSymbolTableRecord
100
AcDbLayerTableRecord
  2
PHAS
 70
     0
 62
     2
  6
SEKKEI-P_A4_
  0
ENDTAB
  0
TABLE
  2
STYLE
  5
67
330
0
100
AcDbSymbolTable
 70
     2
  0
STYLE
  5
16
330
67
100
AcDbSymbolTableRecord
100
AcDbTextStyleTableRecord
  2
STANDARD
 70
     0
 40
0.0
 41
1.0
 50
0.0
 71
     0
 42
2.0
  3
simplex.shx
  4
extfont.shx
  0
ENDTAB
  0
TABLE
  2
VIEW
  5
6C
330
0
100
AcDbSymbolTable
 70
     0
  0
ENDTAB
  0
TABLE
  2
UCS
  5
6D
330
0
100
AcDbSymbolTable
 70
     0
  0
ENDTAB
  0
TABLE
  2
APPID
  5
70
330
0
100
AcDbSymbolTable
 70
     2
  0
APPID
  5
71
330
70
100
AcDbSymbolTableRecord
100
AcDbRegAppTableRecord
  2
ACAD
 70
     0
  0
APPID
  5
1E60
330
70
100
AcDbSymbolTableRecord
100
AcDbRegAppTableRecord
  2
ACAD_MLEADERVER
 70
     0
  0
ENDTAB
  0
TABLE
  2
DIMSTYLE
  5
72
330
0
100
AcDbSymbolTable
 70
     1
  0
DIMSTYLE
105
73
330
72
100
AcDbSymbolTableRecord
100
AcDbDimStyleTableRecord
  2
STANDARD
 70
     0
  3

  4

  5

  6

  7

 40
3.0
 41
1.8
 42
0.625
 43
3.75
 44
0.8
 45
0.0
 46
0.0
 47
0.0
 48
0.0
140
1.8
141
2.5
142
0.0
143
0.0394
144
1.0
145
0.0
146
1.0
147
0.75
 71
     0
 72
     0
 73
     0
 74
     0
 75
     0
 76
     0
 77
     1
 78
     8
170
     0
171
     4
172
     1
173
     0
174
     0
175
     0
176
     0
177
     0
178
     0
270
     8
271
     2
272
     2
273
     8
274
     4
340
16
275
     0
280
     0
281
     0
282
     0
283
     1
284
     0
285
     0
286
     0
287
     3
288
     0
  0
ENDTAB
  0
TABLE
  2
BLOCK_RECORD
  5
1
330
0
100
AcDbSymbolTable
 70
    57
  0
BLOCK_RECORD
  5
2
102
{ACAD_XDICTIONARY
360
1E64
102
}
330
1
100
AcDbSymbolTableRecord
100
AcDbBlockTableRecord
  2
*MODEL_SPACE
  0
BLOCK_RECORD
  5
1F19
102
{ACAD_XDICTIONARY
360
1F41
102
}
330
1
100
AcDbSymbolTableRecord
100
AcDbBlockTableRecord
  2
*PAPER_SPACE
  0
BLOCK_RECORD
  5
8DB
330
1
100
AcDbSymbolTableRecord
100
AcDbBlockTableRecord
  2
A$C79D50562
  0
ENDTAB
  0
ENDSEC
  0
SECTION
  2
BLOCKS
  0
BLOCK
  5
5D
330
2
100
AcDbEntity
  8
0
100
AcDbBlockBegin
  2
*MODEL_SPACE
 70
     0
 10
0.0
 20
0.0
 30
0.0
  3
*MODEL_SPACE
  1

  0
ENDBLK
  5
5F
330
2
100
AcDbEntity
  8
0
100
AcDbBlockEnd
  0
BLOCK
  5
1F1B
330
1F19
100
AcDbEntity
 67
     1
  8
0
100
AcDbBlockBegin
  2
*PAPER_SPACE
 70
     0
 10
0.0
 20
0.0
 30
0.0
  3
*PAPER_SPACE
  1

  0
ENDBLK
  5
1F1C
330
1F19
100
AcDbEntity
 67
     1
  8
0
100
AcDbBlockEnd
  0
BLOCK
  5
8DE
330
8DB
100
AcDbEntity
  8
0
100
AcDbBlockBegin
  2
A$C79D50562
 70
     0
 10
0.0
 20
0.0
 30
0.0
  3
A$C79D50562
  1

  0
LINE
  5
8DC
330
8DB
100
AcDbEntity
  8
CENTER
100
AcDbLine
 10
0.0
 20
7.659444835277668
 30
0.0
 11
0.0
 21
-7.659444835277668
 31
0.0
  0
LINE
  5
8DD
330
8DB
100
AcDbEntity
  8
CENTER
100
AcDbLine
 10
-7.659444835277668
 20
0.0
 30
0.0
 11
7.659444835277668
 21
0.0
 31
0.0
  0
ENDBLK
  5
8DF
330
8DB
100
AcDbEntity
  8
0
100
AcDbBlockEnd
  0
ENDSEC
  0
SECTION
  2
ENTITIES
  0
TEXT
  5
F06
330
2
100
AcDbEntity
  8
TITLE
100
AcDbText
 10
265.3676411714301
 20
644.7952953279529
 30
0.0
 40
7.5
  1
AFCZ18S-7~10M400S3
100
AcDbText
  0
TEXT
  5
F07
330
2
100
AcDbEntity
  8
TITLE
100
AcDbText
 10
265.3676411714301
 20
633.295295327953
 30
0.0
 40
7.5
  1
AFCZ18S-7~10L400S3
100
AcDbText
  0
LINE
  5
F09
330
2
100
AcDbEntity
  8
CENTER
100
AcDbLine
 10
167.4177326429778
 20
325.756756807384
 30
0.0
 11
167.4177326429778
 21
427.7567568073841
 31
0.0
  0
LINE
  5
F0A
330
2
100
AcDbEntity
  8
CENTER
100
AcDbLine
 10
218.4177326429778
 20
376.7567568073809
 30
0.0
 11
29.41773264297785
 21
376.7567568073809
 31
0.0
  0
LINE
  5
F0B
330
2
100
AcDbEntity
  8
CENTER
100
AcDbLine
 10
595.6239795063254
 20
421.24203818162
 30
0.0
 11
506.6534167578481
 21
332.2714754331431
 31
0.0
  0
LINE
  5
F0C
330
2
100
AcDbEntity
  8
CENTER
100
AcDbLine
 10
506.653416757849
 20
421.2420381816186
 30
0.0
 11
595.6239795063263
 21
332.2714754331408
 31
0.0
  0
LINE
  5
F0D
330
2
100
AcDbEntity
  8
CENTER
100
AcDbLine
 10
551.1386981320863
 20
706.6540158794664
 30
0.0
 11
551.1386981320863
 21
567.6540243335066
 31
0.0
  0
LINE
  5
F0E
330
2
100
AcDbEntity
  8
CENTER
100
AcDbLine
 10
500.3437795251454
 20
651.6540243335098
 30
0.0
 11
689.1386981320863
 21
651.6540243335107
 31
0.0
  0
CIRCLE
  5
F0F
330
2
100
AcDbEntity
  8
CENTER
100
AcDbCircle
 10
551.1386981320881
 20
376.7567568073809
 30
0.0
 40
48.99999999999932
  0
LINE
  5
F10
330
2
100
AcDbEntity
  8
CENTER
100
AcDbLine
 10
523.4904658539478
 20
411.4049890855207
 30
0.0
 11
509.4904658539478
 21
411.4049890855207
 31
0.0
  0
LINE
  5
F11
330
2
100
AcDbEntity
  8
CENTER
100
AcDbLine
 10
516.4904658539469
 20
418.4049890855212
 30
0.0
 11
516.4904658539469
 21
404.4049890855212
 31
0.0
  0
LINE
  5
F12
330
2
100
AcDbEntity
  8
CENTER
100
AcDbLine
 10
523.4904658539478
 20
342.108524529241
 30
0.0
 11
509.4904658539478
 21
342.108524529241
 31
0.0
  0
LINE
  5
F13
330
2
100
AcDbEntity
  8
CENTER
100
AcDbLine
 10
516.4904658539469
 20
349.1085245292396
 30
0.0
 11
516.4904658539469
 21
335.1085245292396
 31
0.0
  0
LINE
  5
F14
330
2
100
AcDbEntity
  8
CENTER
100
AcDbLine
 10
592.7869304102293
 20
342.1085245292446
 30
0.0
 11
578.7869304102294
 21
342.1085245292446
 31
0.0
  0
LINE
  5
F15
330
2
100
AcDbEntity
  8
CENTER
100
AcDbLine
 10
585.7869304102293
 20
349.1085245292396
 30
0.0
 11
585.7869304102293
 21
335.1085245292396
 31
0.0
  0
LINE
  5
F16
330
2
100
AcDbEntity
  8
CENTER
100
AcDbLine
 10
592.7869304102293
 20
411.4049890855222
 30
0.0
 11
578.7869304102294
 21
411.4049890855222
 31
0.0
  0
LINE
  5
F17
330
2
100
AcDbEntity
  8
CENTER
100
AcDbLine
 10
585.7869304102275
 20
418.4049890855212
 30
0.0
 11
585.7869304102275
 21
404.4049890855212
 31
0.0
  0
LINE
  5
F18
330
2
100
AcDbEntity
  8
0
100
AcDbLine
 10
619.1386981320863
 20
343.7567568074977
 30
0.0
 11
613.6386981320917
 21
343.7567568074977
 31
0.0
  0
LINE
  5
F19
330
2
100
AcDbEntity
  8
0
100
AcDbLine
 10
619.1386981320863
 20
409.7567568072632
 30
0.0
 11
613.6386981320917
 21
409.7567568072632
 31
0.0
  0
CIRCLE
  5
F1A
330
2
100
AcDbEntity
  8
0
100
AcDbCircle
 10
551.1386981320881
 20
376.7567568073804
 30
0.0
 40
23.0
  0
CIRCLE
  5
F1B
330
2
100
AcDbEntity
  8
0
100
AcDbCircle
 10
551.1386981320881
 20
376.7567568073804
 30
0.0
 40
27.99999999999875
  0
CIRCLE
  5
F1C
330
2
100
AcDbEntity
  8
0
100
AcDbCircle
 10
551.1386981320881
 20
376.7567568073804
 30
0.0
 40
35.00000000000011
  0
LINE
  5
F1D
330
2
100
AcDbEntity
  8
0
100
AcDbLine
 10
592.1386981320881
 20
412.7567568073804
 30
0.0
 11
592.1386981320881
 21
340.7567568073804
 31
0.0
  0
CIRCLE
  5
F1E
330
2
100
AcDbEntity
  8
HOJO
100
AcDbCircle
 10
516.4904658539478
 20
342.1085245292396
 30
0.0
 40
3.0
  0
CIRCLE
  5
F1F
330
2
100
AcDbEntity
  8
0
100
AcDbCircle
 10
516.4904658539478
 20
342.1085245292396
 30
0.0
 40
2.399999999999999
  0
CIRCLE
  5
F20
330
2
100
AcDbEntity
  8
HOJO
100
AcDbCircle
 10
585.7869304102293
 20
342.1085245292396
 30
0.0
 40
3.0
  0
CIRCLE
  5
F21
330
2
100
AcDbEntity
  8
0
100
AcDbCircle
 10
585.7869304102293
 20
342.1085245292396
 30
0.0
 40
2.399999999999999
  0
CIRCLE
  5
F22
330
2
100
AcDbEntity
  8
0
100
AcDbCircle
 10
516.4904658539478
 20
411.4049890855212
 30
0.0
 40
2.399999999999999
  0
CIRCLE
  5
F23
330
2
100
AcDbEntity
  8
HOJO
100
AcDbCircle
 10
516.4904658539478
 20
411.4049890855212
 30
0.0
 40
3.0
  0
ARC
  5
F24
330
2
100
AcDbEntity
  8
0
100
AcDbCircle
 10
515.1386981320881
 20
412.7567568073804
 30
0.0
 40
5.0
100
AcDbArc
 50
90.0
 51
180.0
  0
CIRCLE
  5
F25
330
2
100
AcDbEntity
  8
HOJO
100
AcDbCircle
 10
585.7869304102293
 20
411.4049890855212
 30
0.0
 40
3.0
  0
CIRCLE
  5
F26
330
2
100
AcDbEntity
  8
0
100
AcDbCircle
 10
585.7869304102293
 20
411.4049890855212
 30
0.0
 40
2.399999999999999
  0
LINE
  5
F27
330
2
100
AcDbEntity
  8
0
100
AcDbLine
 10
636.1386981320863
 20
418.2567568073805
 30
0.0
 11
636.1386981320863
 21
335.2567568073804
 31
0.0
  0
LINE
  5
F28
330
2
100
AcDbEntity
  8
0
100
AcDbLine
 10
624.1386981320864
 20
416.2567568073805
 30
0.0
 11
624.138698132089
 21
337.2567568073804
 31
0.0
  0
ARC
  5
F29
330
2
100
AcDbEntity
  8
0
100
AcDbCircle
 10
619.1386981320863
 20
338.7567568074977
 30
0.0
 40
5.0
100
AcDbArc
 50
0.0
 51
90.0
  0
LINE
  5
F2A
330
2
100
AcDbEntity
  8
0
100
AcDbLine
 10
636.1386981320863
 20
335.7567568073804
 30
0.0
 11
626.1386981320891
 21
335.7567568073804
 31
0.0
  0
ARC
  5
F2B
330
2
100
AcDbEntity
  8
0
100
AcDbCircle
 10
626.1386981320891
 20
337.7567568073804
 30
0.0
 40
2.0
100
AcDbArc
 50
180.0
 51
270.0
  0
ARC
  5
F2C
330
2
100
AcDbEntity
  8
0
100
AcDbCircle
 10
619.1386981320863
 20
414.7567568072632
 30
0.0
 40
5.0
100
AcDbArc
 50
270.0
 51
0.0
  0
LINE
  5
F2D
330
2
100
AcDbEntity
  8
0
100
AcDbLine
 10
626.1386981320863
 20
417.7567568073804
 30
0.0
 11
636.1386981320863
 21
417.7567568073804
 31
0.0
  0
ARC
  5
F2E
330
2
100
AcDbEntity
  8
0
100
AcDbCircle
 10
626.1386981320863
 20
415.7567568073805
 30
0.0
 40
2.0
100
AcDbArc
 50
90.0
 51
180.0
  0
LINE
  5
F2F
330
2
100
AcDbEntity
  8
0
100
AcDbLine
 10
126.4177326429778
 20
340.7567568073804
 30
0.0
 11
126.4177326429778
 21
412.7567568073804
 31
0.0
  0
LINE
  5
F30
330
2
100
AcDbEntity
  8
0
100
AcDbLine
 10
94.41773264298239
 20
337.2567568073804
 30
0.0
 11
94.41773264298239
 21
416.2567568073805
 31
0.0
  0
LINE
  5
F31
330
2
100
AcDbEntity
  8
0
100
AcDbLine
 10
106.9177326429714
 20
345.7567568074973
 30
0.0
 11
106.917732642976
 21
407.7567568072631
 31
0.0
  0
LINE
  5
F32
330
2
100
AcDbEntity
  8
0
100
AcDbLine
 10
82.41773264297785
 20
335.2567568073804
 30
0.0
 11
82.41773264297785
 21
418.2567568073805
 31
0.0
  0
LINE
  5
F33
330
2
100
AcDbEntity
  8
0
100
AcDbLine
 10
99.41773264297786
 20
409.7567568072632
 30
0.0
 11
104.9177326429778
 21
409.7567568072632
 31
0.0
  0
ARC
  5
F34
330
2
100
AcDbEntity
  8
0
100
AcDbCircle
 10
99.41773264297786
 20
414.7567568072632
 30
0.0
 40
5.0
100
AcDbArc
 50
180.0
 51
270.0
  0
LINE
  5
F35
330
2
100
AcDbEntity
  8
0
100
AcDbLine
 10
82.41773264297785
 20
417.7567568073804
 30
0.0
 11
92.41773264297785
 21
417.7567568073804
 31
0.0
  0
ARC
  5
F36
330
2
100
AcDbEntity
  8
0
100
AcDbCircle
 10
92.41773264297785
 20
415.7567568073805
 30
0.0
 40
2.0
100
AcDbArc
 50
0.0
 51
90.0
  0
LINE
  5
F37
330
2
100
AcDbEntity
  8
0
100
AcDbLine
 10
99.41773264298241
 20
343.7567568074973
 30
0.0
 11
104.9177326429778
 21
343.7567568074973
 31
0.0
  0
LINE
  5
F38
330
2
100
AcDbEntity
  8
0
100
AcDbLine
 10
92.41773264297966
 20
335.7567568073804
 30
0.0
 11
82.41773264297785
 21
335.7567568073804
 31
0.0
  0
ARC
  5
F39
330
2
100
AcDbEntity
  8
0
100
AcDbCircle
 10
99.41773264298241
 20
338.7567568074973
 30
0.0
 40
5.0
100
AcDbArc
 50
90.0
 51
180.0
  0
ARC
  5
F3A
330
2
100
AcDbEntity
  8
0
100
AcDbCircle
 10
92.41773264297966
 20
337.7567568073804
 30
0.0
 40
2.0
100
AcDbArc
 50
270.0
 51
0.0
  0
ARC
  5
F3B
330
2
100
AcDbEntity
  8
0
100
AcDbCircle
 10
203.4177326429778
 20
340.7567568073804
 30
0.0
 40
5.0
100
AcDbArc
 50
270.0
 51
0.0
  0
ARC
  5
F3C
330
2
100
AcDbEntity
  8
0
100
AcDbCircle
 10
131.4177326429778
 20
340.7567568073804
 30
0.0
 40
5.0
100
AcDbArc
 50
180.0
 51
270.0
  0
ARC
  5
F3D
330
2
100
AcDbEntity
  8
0
100
AcDbCircle
 10
131.4177326429778
 20
412.7567568073804
 30
0.0
 40
5.0
100
AcDbArc
 50
90.0
 51
180.0
  0
ARC
  5
F3E
330
2
100
AcDbEntity
  8
0
100
AcDbCircle
 10
203.4177326429778
 20
412.7567568073804
 30
0.0
 40
5.0
100
AcDbArc
 50
0.0
 51
90.0
  0
LINE
  5
F3F
330
2
100
AcDbEntity
  8
0
100
AcDbLine
 10
606.506054557343
 20
674.6540243308431
 30
0.0
 11
592.2236167390281
 21
674.6540243308431
 31
0.0
  0
LINE
  5
F40
330
2
100
AcDbEntity
  8
0
100
AcDbLine
 10
510.1386981320863
 20
675.1540243308436
 30
0.0
 11
591.7236167390263
 21
675.1540243308459
 31
0.0
  0
LINE
  5
F41
330
2
100
AcDbEntity
  8
0
100
AcDbLine
 10
516.1386981320863
 20
603.6540243335107
 30
0.0
 11
586.1386981320863
 21
603.6540243335107
 31
0.0
  0
LINE
  5
F42
330
2
100
AcDbEntity
  8
0
100
AcDbLine
 10
510.1386981320863
 20
675.1540243308436
 30
0.0
 11
510.7190348401489
 21
608.6540243335102
 31
0.0
  0
LINE
  5
F43
330
2
100
AcDbEntity
  8
0
100
AcDbLine
 10
510.7190348401489
 20
608.6540243335102
 30
0.0
 11
591.5534428170828
 21
608.6540243335089
 31
0.0
  0
ARC
  5
F44
330
2
100
AcDbEntity
  8
0
100
AcDbCircle
 10
587.1386981320881
 20
412.7567568073804
 30
0.0
 40
5.0
100
AcDbArc
 50
0.0
 51
90.0
  0
ARC
  5
F45
330
2
100
AcDbEntity
  8
0
100
AcDbCircle
 10
587.138698132089
 20
340.7567568073804
 30
0.0
 40
5.0
100
AcDbArc
 50
270.0
 51
0.0
  0
ARC
  5
F46
330
2
100
AcDbEntity
  8
0
100
AcDbCircle
 10
515.1386981320881
 20
340.7567568073804
 30
0.0
 40
5.0
100
AcDbArc
 50
180.0
 51
270.0
  0
LINE
  5
F47
330
2
100
AcDbEntity
  8
0
100
AcDbLine
 10
636.1386981277171
 20
692.6540243335103
 30
0.0
 11
636.1386981277171
 21
610.6540243335103
 31
0.0
  0
ARC
  5
F48
330
2
100
AcDbEntity
  8
0
100
AcDbCircle
 10
167.4177326429778
 20
505.7567568073841
 30
0.0
 40
170.0
100
AcDbArc
 50
263.8230035951078
 51
276.176996404892
  0
ARC
  5
F49
330
2
100
AcDbEntity
  8
0
100
AcDbCircle
 10
144.8216892027874
 20
296.9759654954227
 30
0.0
 40
40.0
100
AcDbArc
 50
83.82300359510784
 51
103.3676742026266
  0
ARC
  5
F4A
330
2
100
AcDbEntity
  8
0
100
AcDbCircle
 10
190.0137760831673
 20
296.9759654954222
 30
0.0
 40
40.0
100
AcDbArc
 50
76.63232579737331
 51
96.17699640483721
  0
ARC
  5
F4B
330
2
100
AcDbEntity
  8
0
100
AcDbCircle
 10
200.4177326429778
 20
340.756756807384
 30
0.0
 40
5.0
100
AcDbArc
 50
256.632325797373
 51
270.0
  0
LINE
  5
F4C
330
2
100
AcDbEntity
  8
0
100
AcDbLine
 10
203.4177326429778
 20
335.756756807384
 30
0.0
 11
200.4177326429778
 21
335.756756807384
 31
0.0
  0
LINE
  5
F4D
330
2
100
AcDbEntity
  8
0
100
AcDbLine
 10
208.4177326429778
 20
340.756756807384
 30
0.0
 11
208.4177326429778
 21
343.756756807384
 31
0.0
  0
ARC
  5
F4E
330
2
100
AcDbEntity
  8
0
100
AcDbCircle
 10
203.4177326429769
 20
343.756756807384
 30
0.0
 40
5.0
100
AcDbArc
 50
0.0
 51
13.36767420262659
  0
ARC
  5
F4F
330
2
100
AcDbEntity
  8
0
100
AcDbCircle
 10
247.1985239549392
 20
354.1607133671936
 30
0.0
 40
40.0
100
AcDbArc
 50
173.8230035951369
 51
193.3676742026266
  0
ARC
  5
F50
330
2
100
AcDbEntity
  8
0
100
AcDbCircle
 10
38.41773264297785
 20
376.7567568073841
 30
0.0
 40
170.0
100
AcDbArc
 50
353.8230035951369
 51
6.176996404863066
  0
ARC
  5
F51
330
2
100
AcDbEntity
  8
0
100
AcDbCircle
 10
247.1985239549401
 20
399.3528002475736
 30
0.0
 40
40.0
100
AcDbArc
 50
166.6323257973733
 51
186.176996404863
  0
LINE
  5
F52
330
2
100
AcDbEntity
  8
0
100
AcDbLine
 10
208.4177326429778
 20
409.7567568073841
 30
0.0
 11
208.4177326429778
 21
412.7567568073841
 31
0.0
  0
ARC
  5
F53
330
2
100
AcDbEntity
  8
0
100
AcDbCircle
 10
203.4177326429778
 20
409.7567568073841
 30
0.0
 40
5.0
100
AcDbArc
 50
346.6323257973734
 51
0.0
  0
LINE
  5
F54
330
2
100
AcDbEntity
  8
0
100
AcDbLine
 10
203.4177326429778
 20
417.7567568073841
 30
0.0
 11
200.4177326429778
 21
417.7567568073841
 31
0.0
  0
ARC
  5
F55
330
2
100
AcDbEntity
  8
0
100
AcDbCircle
 10
190.0137760831682
 20
456.5375481193455
 30
0.0
 40
40.0
100
AcDbArc
 50
263.8230035951078
 51
283.3676742026265
  0
ARC
  5
F56
330
2
100
AcDbEntity
  8
0
100
AcDbCircle
 10
200.4177326429778
 20
412.7567568073832
 30
0.0
 40
5.0
100
AcDbArc
 50
90.0
 51
103.3676742026266
  0
ARC
  5
F57
330
2
100
AcDbEntity
  8
0
100
AcDbCircle
 10
167.4177326429778
 20
247.756756807384
 30
0.0
 40
170.0
100
AcDbArc
 50
83.82300359510784
 51
96.17699640483721
  0
ARC
  5
F58
330
2
100
AcDbEntity
  8
0
100
AcDbCircle
 10
144.8216892027883
 20
456.5375481193459
 30
0.0
 40
40.0
100
AcDbArc
 50
256.632325797373
 51
276.176996404892
  0
ARC
  5
F59
330
2
100
AcDbEntity
  8
0
100
AcDbCircle
 10
134.4177326429778
 20
412.7567568073841
 30
0.0
 40
5.0
100
AcDbArc
 50
76.63232579737331
 51
90.0
  0
LINE
  5
F5A
330
2
100
AcDbEntity
  8
0
100
AcDbLine
 10
134.4177326429778
 20
417.7567568073841
 30
0.0
 11
131.4177326429778
 21
417.7567568073841
 31
0.0
  0
ARC
  5
F5B
330
2
100
AcDbEntity
  8
0
100
AcDbCircle
 10
134.4177326429778
 20
340.7567568073849
 30
0.0
 40
5.0
100
AcDbArc
 50
270.0
 51
283.3676742026265
  0
LINE
  5
F5C
330
2
100
AcDbEntity
  8
0
100
AcDbLine
 10
134.4177326429778
 20
335.756756807384
 30
0.0
 11
131.4177326429778
 21
335.756756807384
 31
0.0
  0
ARC
  5
F5D
330
2
100
AcDbEntity
  8
0
100
AcDbCircle
 10
551.1386981320845
 20
247.7567568073822
 30
0.0
 40
170.0
100
AcDbArc
 50
83.82300359510784
 51
96.17699640483721
  0
ARC
  5
F5E
330
2
100
AcDbEntity
  8
0
100
AcDbCircle
 10
573.7347415722759
 20
456.5375481193441
 30
0.0
 40
40.0
100
AcDbArc
 50
263.8230035951078
 51
283.3676742026265
  0
ARC
  5
F5F
330
2
100
AcDbEntity
  8
0
100
AcDbCircle
 10
528.542654691895
 20
456.5375481193446
 30
0.0
 40
40.0
100
AcDbArc
 50
256.632325797373
 51
276.176996404892
  0
ARC
  5
F60
330
2
100
AcDbEntity
  8
0
100
AcDbCircle
 10
518.1386981320845
 20
412.7567568073823
 30
0.0
 40
5.0
100
AcDbArc
 50
76.63232579737331
 51
90.0
  0
LINE
  5
F61
330
2
100
AcDbEntity
  8
0
100
AcDbLine
 10
515.1386981320845
 20
417.7567568073823
 30
0.0
 11
518.1386981320845
 21
417.7567568073823
 31
0.0
  0
LINE
  5
F62
330
2
100
AcDbEntity
  8
0
100
AcDbLine
 10
510.1386981320845
 20
412.7567568073823
 30
0.0
 11
510.1386981320845
 21
409.7567568073823
 31
0.0
  0
ARC
  5
F63
330
2
100
AcDbEntity
  8
0
100
AcDbCircle
 10
515.1386981320854
 20
409.7567568073823
 30
0.0
 40
5.0
100
AcDbArc
 50
180.0
 51
193.3676742026266
  0
ARC
  5
F64
330
2
100
AcDbEntity
  8
0
100
AcDbCircle
 10
471.3579068201231
 20
399.3528002475727
 30
0.0
 40
40.0
100
AcDbArc
 50
353.8230035951369
 51
13.36767420262659
  0
ARC
  5
F65
330
2
100
AcDbEntity
  8
0
100
AcDbCircle
 10
680.1386981320854
 20
376.7567568073823
 30
0.0
 40
170.0
100
AcDbArc
 50
173.8230035951369
 51
186.176996404863
  0
ARC
  5
F66
330
2
100
AcDbEntity
  8
0
100
AcDbCircle
 10
471.3579068201231
 20
354.1607133671931
 30
0.0
 40
40.0
100
AcDbArc
 50
346.6323257973734
 51
6.176996404863066
  0
LINE
  5
F67
330
2
100
AcDbEntity
  8
0
100
AcDbLine
 10
510.1386981320845
 20
343.7567568073822
 30
0.0
 11
510.1386981320845
 21
340.7567568073822
 31
0.0
  0
ARC
  5
F68
330
2
100
AcDbEntity
  8
0
100
AcDbCircle
 10
515.1386981320854
 20
343.7567568073822
 30
0.0
 40
5.0
100
AcDbArc
 50
166.6323257973733
 51
180.0
  0
LINE
  5
F69
330
2
100
AcDbEntity
  8
0
100
AcDbLine
 10
515.1386981320845
 20
335.7567568073822
 30
0.0
 11
518.1386981320845
 21
335.7567568073822
 31
0.0
  0
ARC
  5
F6A
330
2
100
AcDbEntity
  8
0
100
AcDbCircle
 10
528.542654691895
 20
296.9759654954208
 30
0.0
 40
40.0
100
AcDbArc
 50
83.82300359510784
 51
103.3676742026266
  0
ARC
  5
F6B
330
2
100
AcDbEntity
  8
0
100
AcDbCircle
 10
518.1386981320845
 20
340.7567568073831
 30
0.0
 40
5.0
100
AcDbArc
 50
270.0
 51
283.3676742026265
  0
ARC
  5
F6C
330
2
100
AcDbEntity
  8
0
100
AcDbCircle
 10
551.1386981320845
 20
505.7567568073827
 30
0.0
 40
170.0
100
AcDbArc
 50
263.8230035951078
 51
276.176996404892
  0
ARC
  5
F6D
330
2
100
AcDbEntity
  8
0
100
AcDbCircle
 10
573.734741572274
 20
296.9759654954208
 30
0.0
 40
40.0
100
AcDbArc
 50
76.63232579737331
 51
96.17699640483721
  0
ARC
  5
F6E
330
2
100
AcDbEntity
  8
0
100
AcDbCircle
 10
584.1386981320844
 20
340.7567568073827
 30
0.0
 40
5.0
100
AcDbArc
 50
256.632325797373
 51
270.0
  0
LINE
  5
F6F
330
2
100
AcDbEntity
  8
0
100
AcDbLine
 10
584.1386981320844
 20
335.7567568073822
 30
0.0
 11
587.1386981320854
 21
335.7567568073822
 31
0.0
  0
ARC
  5
F70
330
2
100
AcDbEntity
  8
0
100
AcDbCircle
 10
584.1386981320844
 20
412.7567568073819
 30
0.0
 40
5.0
100
AcDbArc
 50
90.0
 51
103.3676742026266
  0
LINE
  5
F71
330
2
100
AcDbEntity
  8
0
100
AcDbLine
 10
584.1386981320844
 20
417.7567568073823
 30
0.0
 11
587.1386981320845
 21
417.7567568073823
 31
0.0
  0
LINE
  5
F72
330
2
100
AcDbEntity
  8
0
100
AcDbLine
 10
591.5534428170828
 20
608.6540243335089
 30
0.0
 11
591.9286981320863
 21
651.6540243335103
 31
0.0
  0
ARC
  5
F73
330
2
100
AcDbEntity
  8
0
100
AcDbCircle
 10
594.8808145943947
 20
646.1540243335102
 30
0.0
 40
3.0
100
AcDbArc
 50
90.0
 51
179.5000000000084
  0
ARC
  5
F74
330
2
100
AcDbEntity
  8
0
100
AcDbCircle
 10
594.675733201311
 20
622.6540243335103
 30
0.0
 40
3.0
100
AcDbArc
 50
90.0
 51
179.5000000000084
  0
ARC
  5
F75
330
2
100
AcDbEntity
  8
0
100
AcDbCircle
 10
594.6233719945665
 20
616.6540243335102
 30
0.0
 40
3.0
100
AcDbArc
 50
90.0
 51
179.5000000000084
  0
LINE
  5
F76
330
2
100
AcDbEntity
  8
0
100
AcDbLine
 10
591.7236167390263
 20
675.1540243308459
 30
0.0
 11
592.2236167390263
 21
674.6540243308459
 31
0.0
  0
LINE
  5
F77
330
2
100
AcDbEntity
  8
0
100
AcDbLine
 10
111.917732642976
 20
402.7567568072631
 30
0.0
 11
121.4177326429778
 21
402.7567568072631
 31
0.0
  0
ARC
  5
F78
330
2
100
AcDbEntity
  8
0
100
AcDbCircle
 10
104.9177326429778
 20
407.7567568072631
 30
0.0
 40
2.0
100
AcDbArc
 50
0.0
 51
90.0
  0
ARC
  5
F79
330
2
100
AcDbEntity
  8
0
100
AcDbCircle
 10
104.9177326429778
 20
345.7567568074973
 30
0.0
 40
2.0
100
AcDbArc
 50
270.0
 51
0.0
  0
LINE
  5
F7A
330
2
100
AcDbEntity
  8
0
100
AcDbLine
 10
111.9177326429724
 20
350.7567568074977
 30
0.0
 11
121.4177326429778
 21
350.7567568074977
 31
0.0
  0
LINE
  5
F7B
330
2
100
AcDbEntity
  8
0
100
AcDbLine
 10
125.9177326429787
 20
364.6324011543987
 30
0.0
 11
125.9177326429778
 21
388.881112460363
 31
0.0
  0
LINE
  5
F7C
330
2
100
AcDbEntity
  8
0
100
AcDbLine
 10
106.9177326429733
 20
364.6324011543987
 30
0.0
 11
126.4177326429787
 21
364.6324011543987
 31
0.0
  0
LINE
  5
F7D
330
2
100
AcDbEntity
  8
0
100
AcDbLine
 10
106.917732642976
 20
388.881112460363
 30
0.0
 11
126.4177326429778
 21
388.881112460363
 31
0.0
  0
LINE
  5
F7E
330
2
100
AcDbEntity
  8
0
100
AcDbLine
 10
606.6386981320981
 20
402.7567568072636
 30
0.0
 11
597.1386981320882
 21
402.756756807264
 31
0.0
  0
ARC
  5
F7F
330
2
100
AcDbEntity
  8
0
100
AcDbCircle
 10
613.6386981320917
 20
407.756756807264
 30
0.0
 40
2.0
100
AcDbArc
 50
90.0
 51
180.0
  0
LINE
  5
F80
330
2
100
AcDbEntity
  8
0
100
AcDbLine
 10
611.6386981320963
 20
407.7567568072645
 30
0.0
 11
611.6386981320954
 21
345.7567568074986
 31
0.0
  0
LINE
  5
F81
330
2
100
AcDbEntity
  8
0
100
AcDbLine
 10
606.6386981320963
 20
350.7567568074986
 30
0.0
 11
597.1386981320882
 21
350.7567568074986
 31
0.0
  0
ARC
  5
F82
330
2
100
AcDbEntity
  8
0
100
AcDbCircle
 10
613.6386981320917
 20
345.7567568074986
 30
0.0
 40
2.0
100
AcDbArc
 50
180.0
 51
270.0
  0
LINE
  5
F83
330
2
100
AcDbEntity
  8
0
100
AcDbLine
 10
595.1386981320881
 20
379.2567568073809
 30
0.0
 11
608.6386981320963
 21
379.2567568073809
 31
0.0
  0
LINE
  5
F84
330
2
100
AcDbEntity
  8
0
100
AcDbLine
 10
595.1386981320881
 20
374.2567568073813
 30
0.0
 11
608.6386981320954
 21
374.2567568073809
 31
0.0
  0
ARC
  5
F85
330
2
100
AcDbEntity
  8
0
100
AcDbCircle
 10
111.9177326429724
 20
345.7567568074977
 30
0.0
 40
5.0
100
AcDbArc
 50
90.0
 51
180.0
  0
ARC
  5
F86
330
2
100
AcDbEntity
  8
0
100
AcDbCircle
 10
111.917732642976
 20
407.7567568072631
 30
0.0
 40
5.0
100
AcDbArc
 50
180.0
 51
270.0
  0
ARC
  5
F87
330
2
100
AcDbEntity
  8
0
100
AcDbCircle
 10
121.4177326429778
 20
407.7567568072631
 30
0.0
 40
5.0
100
AcDbArc
 50
270.0
 51
0.0
  0
ARC
  5
F88
330
2
100
AcDbEntity
  8
0
100
AcDbCircle
 10
121.4177326429778
 20
345.7567568074977
 30
0.0
 40
5.0
100
AcDbArc
 50
0.0
 51
90.0
  0
ARC
  5
F89
330
2
100
AcDbEntity
  8
0
100
AcDbCircle
 10
606.6386981320981
 20
407.7567568072636
 30
0.0
 40
5.0
100
AcDbArc
 50
270.0
 51
0.0
  0
ARC
  5
F8A
330
2
100
AcDbEntity
  8
0
100
AcDbCircle
 10
597.1386981320882
 20
407.756756807264
 30
0.0
 40
5.0
100
AcDbArc
 50
180.0
 51
270.0
  0
ARC
  5
F8B
330
2
100
AcDbEntity
  8
0
100
AcDbCircle
 10
606.6386981320963
 20
345.7567568074986
 30
0.0
 40
5.0
100
AcDbArc
 50
0.0
 51
90.0
  0
ARC
  5
F8C
330
2
100
AcDbEntity
  8
0
100
AcDbCircle
 10
597.1386981320882
 20
345.7567568074986
 30
0.0
 40
5.0
100
AcDbArc
 50
90.0
 51
180.0
  0
ARC
  5
F8D
330
2
100
AcDbEntity
  8
0
100
AcDbCircle
 10
608.6386981320963
 20
382.2567568073809
 30
0.0
 40
3.0
100
AcDbArc
 50
270.0
 51
0.0
  0
ARC
  5
F8E
330
2
100
AcDbEntity
  8
0
100
AcDbCircle
 10
595.1386981320881
 20
382.2567568073809
 30
0.0
 40
3.0
100
AcDbArc
 50
180.0
 51
270.0
  0
ARC
  5
F8F
330
2
100
AcDbEntity
  8
0
100
AcDbCircle
 10
608.6386981320954
 20
371.2567568073809
 30
0.0
 40
3.0
100
AcDbArc
 50
0.0
 51
90.0
  0
ARC
  5
F90
330
2
100
AcDbEntity
  8
0
100
AcDbCircle
 10
595.1386981320881
 20
371.2567568073814
 30
0.0
 40
3.0
100
AcDbArc
 50
90.0
 51
180.0
  0
LINE
  5
F91
330
2
100
AcDbEntity
  8
0
100
AcDbLine
 10
522.7521322331183
 20
601.7238233269149
 30
0.0
 11
523.0712940276624
 21
592.5842253401055
 31
0.0
  0
ARC
  5
F92
330
2
100
AcDbEntity
  8
0
100
AcDbCircle
 10
520.7533505790804
 20
601.6540243335098
 30
0.0
 40
2.0
100
AcDbArc
 50
2.000000000003654
 51
90.0
  0
LINE
  5
F93
330
2
100
AcDbEntity
  8
0
100
AcDbLine
 10
525.0700756817011
 20
590.6540243335125
 30
0.0
 11
577.2073205824715
 21
590.6540243335098
 31
0.0
  0
ARC
  5
F94
330
2
100
AcDbEntity
  8
0
100
AcDbCircle
 10
525.0700756817011
 20
592.6540243335103
 30
0.0
 40
2.0
100
AcDbArc
 50
182.0000000000036
 51
270.0
  0
ARC
  5
F95
330
2
100
AcDbEntity
  8
0
100
AcDbCircle
 10
577.2073205824715
 20
592.6540243335097
 30
0.0
 40
2.0
100
AcDbArc
 50
270.0
 51
357.9999999999963
  0
LINE
  5
F96
330
2
100
AcDbEntity
  8
0
100
AcDbLine
 10
579.5252640310552
 20
601.7238233269149
 30
0.0
 11
579.2061022365103
 21
592.5842253401051
 31
0.0
  0
ARC
  5
F97
330
2
100
AcDbEntity
  8
0
100
AcDbCircle
 10
581.524045685094
 20
601.6540243335098
 30
0.0
 40
2.0
100
AcDbArc
 50
90.0
 51
177.9999999999963
  0
LINE
  5
F98
330
2
100
AcDbEntity
  8
0
100
AcDbLine
 10
626.0870118739283
 20
692.6540243335103
 30
0.0
 11
636.1386981277171
 21
692.6540243335103
 31
0.0
  0
LINE
  5
F99
330
2
100
AcDbEntity
  8
0
100
AcDbLine
 10
626.0870118739283
 20
610.6540243335103
 30
0.0
 11
636.1386981277171
 21
610.6540243335103
 31
0.0
  0
ARC
  5
F9A
330
2
100
AcDbEntity
  8
0
100
AcDbCircle
 10
626.0870118739283
 20
690.6540243335102
 30
0.0
 40
2.0
100
AcDbArc
 50
90.0
 51
178.5000000000102
  0
LINE
  5
F9B
330
2
100
AcDbEntity
  8
0
100
AcDbLine
 10
624.0876972239782
 20
690.7063782301256
 30
0.0
 11
623.0650753477837
 21
651.6540243335103
 31
0.0
  0
ARC
  5
F9C
330
2
100
AcDbEntity
  8
0
100
AcDbCircle
 10
626.0870118739283
 20
612.6540243335102
 30
0.0
 40
2.0
100
AcDbArc
 50
181.4999999999897
 51
270.0
  0
LINE
  5
F9D
330
2
100
AcDbEntity
  8
0
100
AcDbLine
 10
624.0876972239782
 20
612.6016704368948
 30
0.0
 11
623.0650753477828
 21
651.6540243335103
 31
0.0
  0
LINE
  5
F9E
330
2
100
AcDbEntity
  8
0
100
AcDbLine
 10
613.5870118739283
 20
618.6540243335103
 30
0.0
 11
619.0584264049255
 21
618.6540243335103
 31
0.0
  0
ARC
  5
F9F
330
2
100
AcDbEntity
  8
0
100
AcDbCircle
 10
619.0584264049245
 20
689.6540243335103
 30
0.0
 40
5.0
100
AcDbArc
 50
270.0
 51
358.5000000000103
  0
ARC
  5
FA0
330
2
100
AcDbEntity
  8
0
100
AcDbCircle
 10
619.0584264049255
 20
613.6540243335103
 30
0.0
 40
5.0
100
AcDbArc
 50
1.499999999989693
 51
90.0
  0
ARC
  5
FA1
330
2
100
AcDbEntity
  8
0
100
AcDbCircle
 10
613.5870118739283
 20
682.6540243335102
 30
0.0
 40
2.0
100
AcDbArc
 50
90.0
 51
178.4999999999842
  0
LINE
  5
FA2
330
2
100
AcDbEntity
  8
0
100
AcDbLine
 10
611.5876972239773
 20
620.6016704368944
 30
0.0
 11
610.7745627204301
 21
651.6540243335103
 31
0.0
  0
ARC
  5
FA3
330
2
100
AcDbEntity
  8
0
100
AcDbCircle
 10
613.5870118739283
 20
620.6540243335102
 30
0.0
 40
2.0
100
AcDbArc
 50
181.5000000000418
 51
270.0
  0
LINE
  5
FA4
330
2
100
AcDbEntity
  8
0
100
AcDbLine
 10
613.5870118739283
 20
684.6540243335103
 30
0.0
 11
619.0584264049245
 21
684.6540243335103
 31
0.0
  0
LINE
  5
FA5
330
2
100
AcDbEntity
  8
0
100
AcDbLine
 10
611.5876972239773
 20
682.706378230126
 30
0.0
 11
610.7745627203091
 21
651.6540243335103
 31
0.0
  0
LINE
  5
FA6
330
2
100
AcDbEntity
  8
0
100
AcDbLine
 10
594.675733201311
 20
625.6540243335102
 30
0.0
 11
606.5846123264925
 21
625.6540243335102
 31
0.0
  0
ARC
  5
FA7
330
2
100
AcDbEntity
  8
0
100
AcDbCircle
 10
606.506054561785
 20
679.6540243335102
 30
0.0
 40
5.0
100
AcDbArc
 50
270.0
 51
358.4999999999842
  0
ARC
  5
FA8
330
2
100
AcDbEntity
  8
0
100
AcDbCircle
 10
606.5846123264925
 20
620.6540243335102
 30
0.0
 40
5.0
100
AcDbArc
 50
1.50000000001575
 51
90.0
  0
LINE
  5
FA9
330
2
100
AcDbEntity
  8
0
100
AcDbLine
 10
594.6233719945665
 20
619.6540243335102
 30
0.0
 11
610.5870118739282
 21
619.6540243335102
 31
0.0
  0
ARC
  5
FAA
330
2
100
AcDbEntity
  8
0
100
AcDbCircle
 10
610.5870118739282
 20
616.6540243335102
 30
0.0
 40
3.0
100
AcDbArc
 50
53.13010235412992
 51
90.0
  0
LINE
  5
FAB
330
2
100
AcDbEntity
  8
0
100
AcDbLine
 10
584.1517910929403
 20
675.1540243308459
 30
0.0
 11
584.7416597956915
 21
652.6278473852025
 31
0.0
  0
ARC
  5
FAC
330
2
100
AcDbEntity
  8
0
100
AcDbCircle
 10
585.7413171206669
 20
652.6540243335102
 30
0.0
 40
1.0
100
AcDbArc
 50
181.4999999999897
 51
270.0
  0
LINE
  5
FAD
330
2
100
AcDbEntity
  8
0
100
AcDbLine
 10
594.8808145943947
 20
654.1540243335098
 30
0.0
 11
607.9175569114656
 21
654.1540243335102
 31
0.0
  0
LINE
  5
FAE
330
2
100
AcDbEntity
  8
0
100
AcDbLine
 10
594.8808145943947
 20
649.1540243335102
 30
0.0
 11
607.9175569115648
 21
649.1540243335102
 31
0.0
  0
ARC
  5
FAF
330
2
100
AcDbEntity
  8
0
100
AcDbCircle
 10
607.9175569114656
 20
657.1540243335102
 30
0.0
 40
3.0
100
AcDbArc
 50
270.0
 51
358.5000000000103
  0
ARC
  5
FB0
330
2
100
AcDbEntity
  8
0
100
AcDbCircle
 10
607.9175569115648
 20
646.1540243335102
 30
0.0
 40
3.0
100
AcDbArc
 50
1.499999999781174
 51
90.0
  0
LINE
  5
FB1
330
2
100
AcDbEntity
  8
0
100
AcDbLine
 10
532.8466629661459
 20
674.6540243335102
 30
0.0
 11
532.8466629661459
 21
610.1540052950422
 31
0.0
  0
LINE
  5
FB2
330
2
100
AcDbEntity
  8
0
100
AcDbLine
 10
518.1386981320872
 20
674.6540243335102
 30
0.0
 11
518.1386981320872
 21
610.1540052950422
 31
0.0
  0
LINE
  5
FB3
330
2
100
AcDbEntity
  8
0
100
AcDbLine
 10
515.1386981320854
 20
674.6540243335102
 30
0.0
 11
515.1386981320854
 21
610.1540052950422
 31
0.0
  0
LINE
  5
FB4
330
2
100
AcDbEntity
  8
0
100
AcDbLine
 10
569.4307332980267
 20
674.6540243335102
 30
0.0
 11
569.4307332980267
 21
610.1540052950422
 31
0.0
  0
LINE
  5
FB5
330
2
100
AcDbEntity
  8
0
100
AcDbLine
 10
584.1386981320854
 20
651.6540243335103
 30
0.0
 11
584.1386981320854
 21
610.1540052950422
 31
0.0
  0
LINE
  5
FB6
330
2
100
AcDbEntity
  8
0
100
AcDbLine
 10
586.9292534712601
 20
675.1540243335102
 30
0.0
 11
586.9292534712601
 21
610.1540052950422
 31
0.0
  0
LINE
  5
FB7
330
2
100
AcDbEntity
  8
0
100
AcDbLine
 10
585.7413171206669
 20
651.6540243335103
 30
0.0
 11
591.9286981320863
 21
651.6540243335103
 31
0.0
  0
LINE
  5
FB8
330
2
100
AcDbEntity
  8
0
100
AcDbLine
 10
623.0650753477837
 20
651.6540243335103
 30
0.0
 11
636.1386981277171
 21
651.6540243335103
 31
0.0
  0
LINE
  5
FB9
330
2
100
AcDbEntity
  8
0
100
AcDbLine
 10
123.4177326429778
 20
344.7567568073758
 30
0.0
 11
107.9177326429787
 21
344.7567568073758
 31
0.0
  0
ARC
  5
FBA
330
2
100
AcDbEntity
  8
0
100
AcDbCircle
 10
107.9177326429787
 20
341.7567568073759
 30
0.0
 40
3.0
100
AcDbArc
 50
90.0
 51
126.86989764587
  0
ARC
  5
FBB
330
2
100
AcDbEntity
  8
0
100
AcDbCircle
 10
123.4177326429778
 20
341.7567568073759
 30
0.0
 40
3.0
100
AcDbArc
 50
0.0
 51
90.0
  0
LINE
  5
FBC
330
2
100
AcDbEntity
  8
0
100
AcDbLine
 10
123.4177326429778
 20
408.7567568073859
 30
0.0
 11
107.9177326429787
 21
408.7567568073859
 31
0.0
  0
ARC
  5
FBD
330
2
100
AcDbEntity
  8
0
100
AcDbCircle
 10
123.4177326429778
 20
411.7567568073859
 30
0.0
 40
3.0
100
AcDbArc
 50
270.0
 51
0.0
  0
ARC
  5
FBE
330
2
100
AcDbEntity
  8
0
100
AcDbCircle
 10
107.9177326429787
 20
411.7567568073859
 30
0.0
 40
3.0
100
AcDbArc
 50
233.1301023541299
 51
270.0
  0
LINE
  5
FBF
330
2
100
AcDbEntity
  8
0
100
AcDbLine
 10
595.1386981320881
 20
344.756756807379
 30
0.0
 11
610.6386981320873
 21
344.756756807379
 31
0.0
  0
ARC
  5
FC0
330
2
100
AcDbEntity
  8
0
100
AcDbCircle
 10
595.1386981320881
 20
341.756756807379
 30
0.0
 40
3.0
100
AcDbArc
 50
90.0
 51
180.0
  0
ARC
  5
FC1
330
2
100
AcDbEntity
  8
0
100
AcDbCircle
 10
610.6386981320873
 20
341.756756807379
 30
0.0
 40
3.0
100
AcDbArc
 50
53.13010235412992
 51
90.0
  0
LINE
  5
FC2
330
2
100
AcDbEntity
  8
0
100
AcDbLine
 10
595.1386981320881
 20
408.7567568073886
 30
0.0
 11
610.6386981320873
 21
408.7567568073886
 31
0.0
  0
ARC
  5
FC3
330
2
100
AcDbEntity
  8
0
100
AcDbCircle
 10
595.1386981320881
 20
411.7567568073891
 30
0.0
 40
3.0
100
AcDbArc
 50
180.0
 51
270.0
  0
ARC
  5
FC4
330
2
100
AcDbEntity
  8
0
100
AcDbCircle
 10
610.6386981320873
 20
411.7567568073891
 30
0.0
 40
3.0
100
AcDbArc
 50
270.0
 51
306.86989764587
  0
LINE
  5
FC5
330
2
100
AcDbEntity
  8
0
100
AcDbLine
 10
547.9362140475712
 20
342.5836304297803
 30
0.0
 11
549.196214590647
 21
342.5836304297803
 31
0.0
  0
LINE
  5
FC6
330
2
100
AcDbEntity
  8
0
100
AcDbLine
 10
549.6862140475648
 20
346.0836304297681
 30
0.0
 11
547.9362140475712
 21
342.5836304297803
 31
0.0
  0
ARC
  5
FC7
330
2
100
AcDbEntity
  8
0
100
AcDbCircle
 10
552.5911822150544
 20
344.8936304297725
 30
0.0
 40
1.189999999995825
100
AcDbArc
 50
307.5189678667999
 51
90.0
  0
LINE
  5
FC8
330
2
100
AcDbEntity
  8
0
100
AcDbLine
 10
553.3159208186523
 20
343.9497798290703
 30
0.0
 11
554.1852634535842
 21
342.5836304297803
 31
0.0
  0
LINE
  5
FC9
330
2
100
AcDbEntity
  8
0
100
AcDbLine
 10
552.9252629105083
 20
342.5836304297803
 30
0.0
 11
554.1852634535842
 21
342.5836304297803
 31
0.0
  0
LINE
  5
FCA
330
2
100
AcDbEntity
  8
0
100
AcDbLine
 10
550.351214047562
 20
342.5836304297803
 30
0.0
 11
551.4011822150584
 21
342.5836304297803
 31
0.0
  0
LINE
  5
FCB
330
2
100
AcDbEntity
  8
0
100
AcDbLine
 10
549.4587145906459
 20
343.1086304297786
 30
0.0
 11
549.196214590647
 21
342.5836304297803
 31
0.0
  0
LINE
  5
FCC
330
2
100
AcDbEntity
  8
0
100
AcDbLine
 10
549.4587145906459
 20
343.1086304297786
 30
0.0
 11
550.351214047562
 21
343.1086304297786
 31
0.0
  0
LINE
  5
FCD
330
2
100
AcDbEntity
  8
0
100
AcDbLine
 10
550.351214047562
 20
343.1086304297786
 30
0.0
 11
550.351214047562
 21
342.5836304297803
 31
0.0
  0
LINE
  5
FCE
330
2
100
AcDbEntity
  8
0
100
AcDbLine
 10
550.0187145906445
 20
344.2286304297744
 30
0.0
 11
550.351214047562
 21
344.2286304297744
 31
0.0
  0
LINE
  5
FCF
330
2
100
AcDbEntity
  8
0
100
AcDbLine
 10
550.351214047562
 20
344.8936293436103
 30
0.0
 11
550.351214047562
 21
344.2286304297744
 31
0.0
  0
LINE
  5
FD0
330
2
100
AcDbEntity
  8
0
100
AcDbLine
 10
550.351214047562
 20
344.8936293436103
 30
0.0
 11
550.0187145906445
 21
344.2286304297744
 31
0.0
  0
LINE
  5
FD1
330
2
100
AcDbEntity
  8
0
100
AcDbLine
 10
551.549964047558
 20
344.7448804297727
 30
0.0
 11
552.9252629105083
 21
342.5836304297803
 31
0.0
  0
LINE
  5
FD2
330
2
100
AcDbEntity
  8
0
100
AcDbLine
 10
551.4011822150584
 20
344.8936304297725
 30
0.0
 11
551.4011822150584
 21
342.5836304297803
 31
0.0
  0
LINE
  5
FD3
330
2
100
AcDbEntity
  8
0
100
AcDbLine
 10
551.4011822150584
 20
344.8936304297725
 30
0.0
 11
552.5168390475544
 21
344.8936304297725
 31
0.0
  0
LINE
  5
FD4
330
2
100
AcDbEntity
  8
0
100
AcDbLine
 10
551.549964047558
 20
344.7448804297727
 30
0.0
 11
552.5168390475544
 21
344.7448804297727
 31
0.0
  0
ARC
  5
FD5
330
2
100
AcDbEntity
  8
0
100
AcDbCircle
 10
552.5168390475544
 20
344.8192554297724
 30
0.0
 40
0.0743749999997391
100
AcDbArc
 50
270.0
 51
90.0
  0
LINE
  5
FD6
330
2
100
AcDbEntity
  8
0
100
AcDbLine
 10
549.6862140475648
 20
346.0836304297681
 30
0.0
 11
552.5911822150544
 21
346.0836304297681
 31
0.0
  0
LINE
  5
FD7
330
2
100
AcDbEntity
  8
0
100
AcDbLine
 10
516.1386981320863
 20
608.6540243335102
 30
0.0
 11
516.1386981320863
 21
603.6540243335102
 31
0.0
  0
LINE
  5
FD8
330
2
100
AcDbEntity
  8
0
100
AcDbLine
 10
586.1386981320863
 20
608.6540243335102
 30
0.0
 11
586.1386981320863
 21
603.6540243335102
 31
0.0
  0
LINE
  5
FD9
330
2
100
AcDbEntity
  8
0
100
AcDbLine
 10
92.41773264297966
 20
335.2567568073804
 30
0.0
 11
82.41773264297785
 21
335.2567568073804
 31
0.0
  0
ARC
  5
FDA
330
2
100
AcDbEntity
  8
0
100
AcDbCircle
 10
92.41773264297966
 20
337.2567568073804
 30
0.0
 40
2.0
100
AcDbArc
 50
270.0
 51
0.0
  0
LINE
  5
FDB
330
2
100
AcDbEntity
  8
0
100
AcDbLine
 10
82.41773264297785
 20
418.2567568073805
 30
0.0
 11
92.41773264297785
 21
418.2567568073805
 31
0.0
  0
ARC
  5
FDC
330
2
100
AcDbEntity
  8
0
100
AcDbCircle
 10
92.41773264297785
 20
416.2567568073805
 30
0.0
 40
2.0
100
AcDbArc
 50
0.0
 51
90.0
  0
LINE
  5
FDD
330
2
100
AcDbEntity
  8
0
100
AcDbLine
 10
626.1386981320863
 20
418.2567568073805
 30
0.0
 11
636.1386981320863
 21
418.2567568073805
 31
0.0
  0
ARC
  5
FDE
330
2
100
AcDbEntity
  8
0
100
AcDbCircle
 10
626.1386981320863
 20
416.2567568073805
 30
0.0
 40
2.0
100
AcDbArc
 50
90.0
 51
180.0
  0
LINE
  5
FDF
330
2
100
AcDbEntity
  8
0
100
AcDbLine
 10
636.1386981320863
 20
335.2567568073804
 30
0.0
 11
626.1386981320891
 21
335.2567568073804
 31
0.0
  0
ARC
  5
FE0
330
2
100
AcDbEntity
  8
0
100
AcDbCircle
 10
626.1386981320891
 20
337.2567568073804
 30
0.0
 40
2.0
100
AcDbArc
 50
180.0
 51
270.0
  0
LINE
  5
FE1
330
2
100
AcDbEntity
  8
CENTER
100
AcDbLine
 10
551.1386981320936
 20
435.7567568073805
 30
0.0
 11
551.1386981320936
 21
317.7567568073813
 31
0.0
  0
LINE
  5
FE2
330
2
100
AcDbEntity
  8
CENTER
100
AcDbLine
 10
492.1386981320891
 20
376.7567568073768
 30
0.0
 11
689.1386981320863
 21
376.7567568073773
 31
0.0
  0
LINE
  5
FE3
330
2
100
AcDbEntity
  8
CENTER
100
AcDbLine
 10
210.6677326429778
 20
411.2567568073809
 30
0.0
 11
193.1677326429778
 21
411.2567568073809
 31
0.0
  0
LINE
  5
FE4
330
2
100
AcDbEntity
  8
CENTER
100
AcDbLine
 10
201.9177326429778
 20
420.0067568073809
 30
0.0
 11
201.9177326429778
 21
402.5067568073809
 31
0.0
  0
LINE
  5
FE5
330
2
100
AcDbEntity
  8
CENTER
100
AcDbLine
 10
124.1677326429778
 20
411.2567568073809
 30
0.0
 11
141.6677326429778
 21
411.2567568073809
 31
0.0
  0
LINE
  5
FE6
330
2
100
AcDbEntity
  8
CENTER
100
AcDbLine
 10
126.2445275622237
 20
403.2567568073809
 30
0.0
 11
136.5909377237383
 21
403.2567568073809
 31
0.0
  0
CIRCLE
  5
FE7
330
2
100
AcDbEntity
  8
HOJO
100
AcDbCircle
 10
131.4177326429805
 20
403.2567568073809
 30
0.0
 40
2.0
  0
LINE
  5
FE8
330
2
100
AcDbEntity
  8
CENTER
100
AcDbLine
 10
131.4177326429805
 20
408.4299618881382
 30
0.0
 11
131.4177326429805
 21
398.0835517266241
 31
0.0
  0
LINE
  5
FE9
330
2
100
AcDbEntity
  8
CENTER
100
AcDbLine
 10
210.6677326429778
 20
342.2567568073809
 30
0.0
 11
193.1677326429778
 21
342.2567568073809
 31
0.0
  0
LINE
  5
FEA
330
2
100
AcDbEntity
  8
CENTER
100
AcDbLine
 10
203.4177326429751
 20
345.0835517266241
 30
0.0
 11
203.4177326429751
 21
355.4299618881381
 31
0.0
  0
LINE
  5
FEB
330
2
100
AcDbEntity
  8
CENTER
100
AcDbLine
 10
208.5909377237328
 20
350.2567568073808
 30
0.0
 11
198.2445275622183
 21
350.2567568073808
 31
0.0
  0
CIRCLE
  5
FEC
330
2
100
AcDbEntity
  8
HOJO
100
AcDbCircle
 10
203.4177326429751
 20
350.2567568073808
 30
0.0
 40
2.0
  0
LINE
  5
FED
330
2
100
AcDbEntity
  8
CENTER
100
AcDbLine
 10
124.1677326429778
 20
342.2567568073813
 30
0.0
 11
141.6677326429778
 21
342.2567568073813
 31
0.0
  0
ARC
  5
FEE
330
2
100
AcDbEntity
  8
0
100
AcDbCircle
 10
138.9177326429805
 20
394.2186975845097
 30
0.0
 40
5.0
100
AcDbArc
 50
135.0000000000181
 51
180.0
  0
ARC
  5
FEF
330
2
100
AcDbEntity
  8
0
100
AcDbCircle
 10
195.9177326429751
 20
394.2186975845097
 30
0.0
 40
5.0
100
AcDbArc
 50
0.0
 51
44.99999999998187
  0
CIRCLE
  5
FF0
330
2
100
AcDbEntity
  8
0
100
AcDbCircle
 10
167.4177326429778
 20
376.7567568073809
 30
0.0
 40
23.0
  0
LINE
  5
FF1
330
2
100
AcDbEntity
  8
0
100
AcDbLine
 10
126.8277326429777
 20
340.7567568073813
 30
0.0
 11
126.8277326429777
 21
412.7567568073809
 31
0.0
  0
CIRCLE
  5
FF2
330
2
100
AcDbEntity
  8
0
100
AcDbCircle
 10
167.4177326429778
 20
376.7567568073809
 30
0.0
 40
29.0
  0
CIRCLE
  5
FF3
330
2
100
AcDbEntity
  8
0
100
AcDbCircle
 10
167.4177326429778
 20
376.7567568073809
 30
0.0
 40
26.5
  0
CIRCLE
  5
FF4
330
2
100
AcDbEntity
  8
0
100
AcDbCircle
 10
167.4177326429778
 20
376.7567568073809
 30
0.0
 40
28.5
  0
ARC
  5
FF5
330
2
100
AcDbEntity
  8
0
100
AcDbCircle
 10
195.9177326429751
 20
394.2186975845093
 30
0.0
 40
8.5
100
AcDbArc
 50
0.0
 51
44.99999999998187
  0
ARC
  5
FF6
330
2
100
AcDbEntity
  8
0
100
AcDbCircle
 10
138.9177326429805
 20
394.2186975845097
 30
0.0
 40
8.5
100
AcDbArc
 50
135.0000000000181
 51
180.0
  0
CIRCLE
  5
FF7
330
2
100
AcDbEntity
  8
0
100
AcDbCircle
 10
167.4177326429778
 20
376.7567568073809
 30
0.0
 40
23.5774
  0
CIRCLE
  5
FF8
330
2
100
AcDbEntity
  8
0
100
AcDbCircle
 10
167.4177326429778
 20
376.7567568073809
 30
0.0
 40
25.9226
  0
LINE
  5
FF9
330
2
100
AcDbEntity
  8
0
100
AcDbLine
 10
184.8796734201066
 20
413.7567568073782
 30
0.0
 11
149.9557918658499
 21
413.7567568073782
 31
0.0
  0
LINE
  5
FFA
330
2
100
AcDbEntity
  8
0
100
AcDbLine
 10
184.8796734201066
 20
410.2567568073782
 30
0.0
 11
149.9557918658499
 21
410.2567568073782
 31
0.0
  0
LINE
  5
FFB
330
2
100
AcDbEntity
  8
0
100
AcDbLine
 10
203.7707086693205
 20
397.4715067596125
 30
0.0
 11
200.5371303055324
 21
396.1321147463349
 31
0.0
  0
ARC
  5
FFC
330
2
100
AcDbEntity
  8
0
100
AcDbCircle
 10
184.8796734201066
 20
405.2567568073782
 30
0.0
 40
8.5
100
AcDbArc
 50
44.99999999998187
 51
90.0
  0
LINE
  5
FFD
330
2
100
AcDbEntity
  8
0
100
AcDbLine
 10
188.1324825952103
 20
413.1097328337241
 30
0.0
 11
186.7930905819319
 21
409.8761544699345
 31
0.0
  0
LINE
  5
FFE
330
2
100
AcDbEntity
  8
0
100
AcDbLine
 10
201.9281402830608
 20
400.229105224595
 30
0.0
 11
190.8900810601924
 21
411.2671644474639
 31
0.0
  0
LINE
  5
FFF
330
2
100
AcDbEntity
  8
0
100
AcDbLine
 10
199.4532665489075
 20
397.7542314904421
 30
0.0
 11
188.415207326039
 21
408.792290713311
 31
0.0
  0
ARC
  5
1000
330
2
100
AcDbEntity
  8
0
100
AcDbCircle
 10
184.8796734201066
 20
405.2567568073782
 30
0.0
 40
5.0
100
AcDbArc
 50
44.99999999998187
 51
90.0
  0
LINE
  5
1001
330
2
100
AcDbEntity
  8
0
100
AcDbLine
 10
131.0647566166351
 20
397.471506759613
 30
0.0
 11
134.2983349804242
 21
396.1321147463349
 31
0.0
  0
LINE
  5
1002
330
2
100
AcDbEntity
  8
0
100
AcDbLine
 10
134.4177326429778
 20
417.756756807381
 30
0.0
 11
131.8277326429777
 21
417.756756807381
 31
0.0
  0
LINE
  5
1003
330
2
100
AcDbEntity
  8
0
100
AcDbLine
 10
132.9073250028948
 20
400.2291052245955
 30
0.0
 11
143.9453842257641
 21
411.2671644474639
 31
0.0
  0
ARC
  5
1004
330
2
100
AcDbEntity
  8
0
100
AcDbCircle
 10
149.9557918658499
 20
405.2567568073782
 30
0.0
 40
8.5
100
AcDbArc
 50
90.0
 51
135.0000000000181
  0
LINE
  5
1005
330
2
100
AcDbEntity
  8
0
100
AcDbLine
 10
146.7029826907462
 20
413.1097328337241
 30
0.0
 11
148.0423747040238
 21
409.8761544699345
 31
0.0
  0
LINE
  5
1006
330
2
100
AcDbEntity
  8
0
100
AcDbLine
 10
135.3821987370481
 20
397.7542314904421
 30
0.0
 11
146.4202579599166
 21
408.792290713311
 31
0.0
  0
ARC
  5
1007
330
2
100
AcDbEntity
  8
0
100
AcDbCircle
 10
149.9557918658499
 20
405.2567568073782
 30
0.0
 40
5.0
100
AcDbArc
 50
90.0
 51
135.0000000000181
  0
ARC
  5
1008
330
2
100
AcDbEntity
  8
0
100
AcDbCircle
 10
131.8277326429777
 20
412.7567568073809
 30
0.0
 40
5.0
100
AcDbArc
 50
90.0
 51
180.0
  0
CIRCLE
  5
1009
330
2
100
AcDbEntity
  8
0
100
AcDbCircle
 10
131.4177326429805
 20
403.2567568073809
 30
0.0
 40
1.6
  0
LINE
  5
100A
330
2
100
AcDbEntity
  8
0
100
AcDbLine
 10
149.9557918658499
 20
339.7567568073836
 30
0.0
 11
184.8796734201066
 21
339.7567568073836
 31
0.0
  0
LINE
  5
100B
330
2
100
AcDbEntity
  8
0
100
AcDbLine
 10
149.9557918658499
 20
343.2567568073836
 30
0.0
 11
184.8796734201066
 21
343.2567568073836
 31
0.0
  0
LINE
  5
100C
330
2
100
AcDbEntity
  8
0
100
AcDbLine
 10
204.4177326429751
 20
359.2948160302525
 30
0.0
 11
204.4177326429751
 21
394.2186975845093
 31
0.0
  0
LINE
  5
100D
330
2
100
AcDbEntity
  8
0
100
AcDbLine
 10
200.9177326429751
 20
359.2948160302525
 30
0.0
 11
200.9177326429751
 21
394.2186975845097
 31
0.0
  0
CIRCLE
  5
100E
330
2
100
AcDbEntity
  8
0
100
AcDbCircle
 10
203.4177326429751
 20
350.2567568073808
 30
0.0
 40
1.6
  0
ARC
  5
100F
330
2
100
AcDbEntity
  8
0
100
AcDbCircle
 10
195.9177326429751
 20
359.2948160302525
 30
0.0
 40
8.5
100
AcDbArc
 50
315.0000000000184
 51
0.0
  0
LINE
  5
1010
330
2
100
AcDbEntity
  8
0
100
AcDbLine
 10
203.7707086693205
 20
356.0420068551493
 30
0.0
 11
200.5371303055314
 21
357.3813988684268
 31
0.0
  0
LINE
  5
1011
330
2
100
AcDbEntity
  8
0
100
AcDbLine
 10
201.9281402830608
 20
353.2844083901668
 30
0.0
 11
190.8900810601924
 21
342.2463491672983
 31
0.0
  0
LINE
  5
1012
330
2
100
AcDbEntity
  8
0
100
AcDbLine
 10
199.4532665489075
 20
355.7592821243196
 30
0.0
 11
188.415207326039
 21
344.7212229014507
 31
0.0
  0
ARC
  5
1013
330
2
100
AcDbEntity
  8
0
100
AcDbCircle
 10
195.9177326429751
 20
359.2948160302525
 30
0.0
 40
5.0
100
AcDbArc
 50
315.0000000000184
 51
0.0
  0
ARC
  5
1014
330
2
100
AcDbEntity
  8
0
100
AcDbCircle
 10
184.8796734201066
 20
348.2567568073836
 30
0.0
 40
5.0
100
AcDbArc
 50
270.0
 51
315.0000000000184
  0
ARC
  5
1015
330
2
100
AcDbEntity
  8
0
100
AcDbCircle
 10
184.8796734201066
 20
348.2567568073836
 30
0.0
 40
8.5
100
AcDbArc
 50
270.0
 51
315.0000000000184
  0
LINE
  5
1016
330
2
100
AcDbEntity
  8
0
100
AcDbLine
 10
188.1324825952103
 20
340.4037807810377
 30
0.0
 11
186.7930905819319
 21
343.6373591448272
 31
0.0
  0
LINE
  5
1017
330
2
100
AcDbEntity
  8
0
100
AcDbLine
 10
134.4177326429778
 20
335.7567568073813
 30
0.0
 11
131.8277326429777
 21
335.7567568073813
 31
0.0
  0
LINE
  5
1018
330
2
100
AcDbEntity
  8
0
100
AcDbLine
 10
131.0647566166351
 20
356.0420068551493
 30
0.0
 11
134.2983349804242
 21
357.3813988684273
 31
0.0
  0
LINE
  5
1019
330
2
100
AcDbEntity
  8
0
100
AcDbLine
 10
132.9073250028948
 20
353.2844083901672
 30
0.0
 11
143.9453842257641
 21
342.2463491672978
 31
0.0
  0
LINE
  5
101A
330
2
100
AcDbEntity
  8
0
100
AcDbLine
 10
133.9177326429805
 20
394.2186975845097
 30
0.0
 11
133.9177326429805
 21
359.2948160302525
 31
0.0
  0
LINE
  5
101B
330
2
100
AcDbEntity
  8
0
100
AcDbLine
 10
135.3821987370481
 20
355.7592821243201
 30
0.0
 11
146.4202579599166
 21
344.7212229014512
 31
0.0
  0
ARC
  5
101C
330
2
100
AcDbEntity
  8
0
100
AcDbCircle
 10
138.9177326429805
 20
359.2948160302525
 30
0.0
 40
5.0
100
AcDbArc
 50
180.0
 51
224.9999999999815
  0
ARC
  5
101D
330
2
100
AcDbEntity
  8
0
100
AcDbCircle
 10
149.9557918658499
 20
348.2567568073836
 30
0.0
 40
8.5
100
AcDbArc
 50
224.9999999999815
 51
270.0
  0
ARC
  5
101E
330
2
100
AcDbEntity
  8
0
100
AcDbCircle
 10
149.9557918658499
 20
348.2567568073836
 30
0.0
 40
5.0
100
AcDbArc
 50
224.9999999999815
 51
270.0
  0
LINE
  5
101F
330
2
100
AcDbEntity
  8
0
100
AcDbLine
 10
146.7029826907462
 20
340.4037807810377
 30
0.0
 11
148.0423747040238
 21
343.6373591448272
 31
0.0
  0
LINE
  5
1020
330
2
100
AcDbEntity
  8
0
100
AcDbLine
 10
130.4177326429805
 20
394.2186975845097
 30
0.0
 11
130.4177326429805
 21
359.2948160302525
 31
0.0
  0
ARC
  5
1021
330
2
100
AcDbEntity
  8
0
100
AcDbCircle
 10
138.9177326429805
 20
359.2948160302525
 30
0.0
 40
8.5
100
AcDbArc
 50
180.0
 51
224.9999999999815
  0
ARC
  5
1022
330
2
100
AcDbEntity
  8
0
100
AcDbCircle
 10
131.8277326429777
 20
340.7567568073813
 30
0.0
 40
5.0
100
AcDbArc
 50
180.0
 51
270.0
  0
LINE
  5
1023
330
2
100
AcDbEntity
  8
CENTER
100
AcDbLine
 10
211.903014017216
 20
421.2420381816191
 30
0.0
 11
122.9324512687387
 21
332.2714754331418
 31
0.0
  0
LINE
  5
1024
330
2
100
AcDbEntity
  8
CENTER
100
AcDbLine
 10
132.9177326429778
 20
338.0725140632143
 30
0.0
 11
132.9177326429778
 21
351.0067568073809
 31
0.0
  0
LINE
  5
1025
330
2
100
AcDbEntity
  8
CENTER
100
AcDbLine
 10
132.9177326429778
 20
420.0067568073809
 30
0.0
 11
132.9177326429778
 21
402.5067568073809
 31
0.0
  0
LINE
  5
1026
330
2
100
AcDbEntity
  8
CENTER
100
AcDbLine
 10
132.9177326429778
 20
337.0474612725001
 30
0.0
 11
132.9177326429778
 21
333.6507991301231
 31
0.0
  0
LINE
  5
1027
330
2
100
AcDbEntity
  8
CENTER
100
AcDbLine
 10
201.9177326429778
 20
337.0474612725001
 30
0.0
 11
201.9177326429778
 21
333.6507991301231
 31
0.0
  0
LINE
  5
1028
330
2
100
AcDbEntity
  8
CENTER
100
AcDbLine
 10
201.9177326429778
 20
338.0725140632143
 30
0.0
 11
201.9177326429778
 21
351.0067568073809
 31
0.0
  0
LINE
  5
1029
330
2
100
AcDbEntity
  8
CENTER
100
AcDbLine
 10
122.9324512687396
 20
421.2420381816191
 30
0.0
 11
211.903014017216
 21
332.2714754331418
 31
0.0
  0
CIRCLE
  5
102A
330
2
100
AcDbEntity
  8
0
100
AcDbCircle
 10
201.9177326429778
 20
411.2567568073809
 30
0.0
 40
5.000000000000113
  0
LINE
  5
102B
330
2
100
AcDbEntity
  8
0
100
AcDbLine
 10
204.4177326429778
 20
409.8133811344069
 30
0.0
 11
204.4177326429778
 21
412.700132480355
 31
0.0
  0
LINE
  5
102C
330
2
100
AcDbEntity
  8
0
100
AcDbLine
 10
199.4177326429778
 20
409.8133811344069
 30
0.0
 11
199.4177326429778
 21
412.700132480355
 31
0.0
  0
CIRCLE
  5
102D
330
2
100
AcDbEntity
  8
0
100
AcDbCircle
 10
201.9177326429778
 20
411.2567568073809
 30
0.0
 40
4.307179676972509
  0
LINE
  5
102E
330
2
100
AcDbEntity
  8
0
100
AcDbLine
 10
199.4177326429778
 20
409.8133811344069
 30
0.0
 11
201.9177326429778
 21
408.3700054614328
 31
0.0
  0
LINE
  5
102F
330
2
100
AcDbEntity
  8
0
100
AcDbLine
 10
204.4177326429778
 20
409.8133811344069
 30
0.0
 11
201.9177326429778
 21
408.3700054614328
 31
0.0
  0
LINE
  5
1030
330
2
100
AcDbEntity
  8
0
100
AcDbLine
 10
201.9177326429778
 20
414.143508153329
 30
0.0
 11
199.4177326429778
 21
412.700132480355
 31
0.0
  0
LINE
  5
1031
330
2
100
AcDbEntity
  8
0
100
AcDbLine
 10
201.9177326429778
 20
414.143508153329
 30
0.0
 11
204.4177326429778
 21
412.700132480355
 31
0.0
  0
CIRCLE
  5
1032
330
2
100
AcDbEntity
  8
0
100
AcDbCircle
 10
201.9177326429778
 20
342.2567568073809
 30
0.0
 40
5.000000000000113
  0
LINE
  5
1033
330
2
100
AcDbEntity
  8
0
100
AcDbLine
 10
204.4177326429778
 20
340.8133811344068
 30
0.0
 11
204.4177326429778
 21
343.7001324803549
 31
0.0
  0
LINE
  5
1034
330
2
100
AcDbEntity
  8
0
100
AcDbLine
 10
199.4177326429778
 20
340.8133811344068
 30
0.0
 11
199.4177326429778
 21
343.7001324803549
 31
0.0
  0
CIRCLE
  5
1035
330
2
100
AcDbEntity
  8
0
100
AcDbCircle
 10
201.9177326429778
 20
342.2567568073809
 30
0.0
 40
4.307179676972509
  0
LINE
  5
1036
330
2
100
AcDbEntity
  8
0
100
AcDbLine
 10
199.4177326429778
 20
340.8133811344068
 30
0.0
 11
201.9177326429778
 21
339.3700054614327
 31
0.0
  0
LINE
  5
1037
330
2
100
AcDbEntity
  8
0
100
AcDbLine
 10
204.4177326429778
 20
340.8133811344068
 30
0.0
 11
201.9177326429778
 21
339.3700054614327
 31
0.0
  0
LINE
  5
1038
330
2
100
AcDbEntity
  8
0
100
AcDbLine
 10
201.9177326429778
 20
345.143508153329
 30
0.0
 11
199.4177326429778
 21
343.7001324803549
 31
0.0
  0
LINE
  5
1039
330
2
100
AcDbEntity
  8
0
100
AcDbLine
 10
201.9177326429778
 20
345.143508153329
 30
0.0
 11
204.4177326429778
 21
343.7001324803549
 31
0.0
  0
CIRCLE
  5
103A
330
2
100
AcDbEntity
  8
0
100
AcDbCircle
 10
132.9177326429778
 20
342.2567568073813
 30
0.0
 40
5.000000000000113
  0
LINE
  5
103B
330
2
100
AcDbEntity
  8
0
100
AcDbLine
 10
135.4177326429778
 20
340.8133811344072
 30
0.0
 11
135.4177326429778
 21
343.7001324803549
 31
0.0
  0
LINE
  5
103C
330
2
100
AcDbEntity
  8
0
100
AcDbLine
 10
130.4177326429787
 20
340.8133811344072
 30
0.0
 11
130.4177326429787
 21
343.7001324803554
 31
0.0
  0
CIRCLE
  5
103D
330
2
100
AcDbEntity
  8
0
100
AcDbCircle
 10
132.9177326429778
 20
342.2567568073813
 30
0.0
 40
4.307179676972509
  0
LINE
  5
103E
330
2
100
AcDbEntity
  8
0
100
AcDbLine
 10
130.4177326429787
 20
340.8133811344072
 30
0.0
 11
132.9177326429787
 21
339.3700054614332
 31
0.0
  0
LINE
  5
103F
330
2
100
AcDbEntity
  8
0
100
AcDbLine
 10
135.4177326429778
 20
340.8133811344072
 30
0.0
 11
132.9177326429787
 21
339.3700054614332
 31
0.0
  0
LINE
  5
1040
330
2
100
AcDbEntity
  8
0
100
AcDbLine
 10
132.9177326429778
 20
345.1435081533294
 30
0.0
 11
130.4177326429787
 21
343.7001324803554
 31
0.0
  0
LINE
  5
1041
330
2
100
AcDbEntity
  8
0
100
AcDbLine
 10
132.9177326429778
 20
345.1435081533294
 30
0.0
 11
135.4177326429778
 21
343.7001324803549
 31
0.0
  0
CIRCLE
  5
1042
330
2
100
AcDbEntity
  8
0
100
AcDbCircle
 10
132.9177326429778
 20
411.2567568073809
 30
0.0
 40
5.000000000000113
  0
LINE
  5
1043
330
2
100
AcDbEntity
  8
0
100
AcDbLine
 10
135.4177326429778
 20
409.8133811344069
 30
0.0
 11
135.4177326429778
 21
412.700132480355
 31
0.0
  0
LINE
  5
1044
330
2
100
AcDbEntity
  8
0
100
AcDbLine
 10
130.4177326429778
 20
409.8133811344069
 30
0.0
 11
130.4177326429778
 21
412.700132480355
 31
0.0
  0
CIRCLE
  5
1045
330
2
100
AcDbEntity
  8
0
100
AcDbCircle
 10
132.9177326429778
 20
411.2567568073809
 30
0.0
 40
4.307179676972509
  0
LINE
  5
1046
330
2
100
AcDbEntity
  8
0
100
AcDbLine
 10
130.4177326429778
 20
409.8133811344069
 30
0.0
 11
132.9177326429778
 21
408.3700054614328
 31
0.0
  0
LINE
  5
1047
330
2
100
AcDbEntity
  8
0
100
AcDbLine
 10
135.4177326429778
 20
409.8133811344069
 30
0.0
 11
132.9177326429778
 21
408.3700054614328
 31
0.0
  0
LINE
  5
1048
330
2
100
AcDbEntity
  8
0
100
AcDbLine
 10
132.9177326429778
 20
414.143508153329
 30
0.0
 11
130.4177326429778
 21
412.700132480355
 31
0.0
  0
LINE
  5
1049
330
2
100
AcDbEntity
  8
0
100
AcDbLine
 10
132.9177326429778
 20
414.143508153329
 30
0.0
 11
135.4177326429778
 21
412.700132480355
 31
0.0
  0
LINE
  5
104A
330
2
100
AcDbEntity
  8
0
100
AcDbLine
 10
372.1656252703985
 20
336.3414569493288
 30
0.0
 11
372.1656252704003
 21
417.172056665393
 31
0.0
  0
LINE
  5
104B
330
2
100
AcDbEntity
  8
0
100
AcDbLine
 10
377.1656252703976
 20
341.7567568073672
 30
0.0
 11
377.1656252703976
 21
411.7567568073672
 31
0.0
  0
LINE
  5
104C
330
2
100
AcDbEntity
  8
0
100
AcDbLine
 10
379.0958262769925
 20
348.3701909083992
 30
0.0
 11
388.2354242638018
 21
348.6893527029432
 31
0.0
  0
ARC
  5
104D
330
2
100
AcDbEntity
  8
0
100
AcDbCircle
 10
379.1656252703976
 20
346.3714092543613
 30
0.0
 40
2.0
100
AcDbArc
 50
92.00000000000406
 51
180.0
  0
LINE
  5
104E
330
2
100
AcDbEntity
  8
0
100
AcDbLine
 10
390.1656252703958
 20
350.688134356982
 30
0.0
 11
390.1656252703976
 21
402.8253792577524
 31
0.0
  0
ARC
  5
104F
330
2
100
AcDbEntity
  8
0
100
AcDbCircle
 10
388.1656252703976
 20
350.688134356982
 30
0.0
 40
2.0
100
AcDbArc
 50
272.000000000004
 51
0.0
  0
ARC
  5
1050
330
2
100
AcDbEntity
  8
0
100
AcDbCircle
 10
388.1656252703976
 20
402.8253792577524
 30
0.0
 40
2.0
100
AcDbArc
 50
0.0
 51
87.99999999999595
  0
LINE
  5
1051
330
2
100
AcDbEntity
  8
0
100
AcDbLine
 10
379.0958262769925
 20
405.1433227063362
 30
0.0
 11
388.2354242638027
 21
404.8241609117913
 31
0.0
  0
ARC
  5
1052
330
2
100
AcDbEntity
  8
0
100
AcDbCircle
 10
379.1656252703976
 20
407.1421043603749
 30
0.0
 40
2.0
100
AcDbArc
 50
180.0
 51
267.9999999999959
  0
LINE
  5
1053
330
2
100
AcDbEntity
  8
0
100
AcDbLine
 10
288.1656252703958
 20
340.6961529862664
 30
0.0
 11
288.1656252703958
 21
350.2567568073613
 31
0.0
  0
LINE
  5
1054
330
2
100
AcDbEntity
  8
0
100
AcDbLine
 10
288.1656252703958
 20
403.2567568073627
 30
0.0
 11
288.1656252703958
 21
412.8173606284263
 31
0.0
  0
LINE
  5
1055
330
2
100
AcDbEntity
  8
0
100
AcDbLine
 10
293.1046541943112
 20
417.8169888673937
 30
0.0
 11
329.1656252703958
 21
418.2567568073464
 31
0.0
  0
LINE
  5
1056
330
2
100
AcDbEntity
  8
0
100
AcDbLine
 10
365.2265963464813
 20
417.8169888673919
 30
0.0
 11
329.1656252703967
 21
418.2567568073464
 31
0.0
  0
LINE
  5
1057
330
2
100
AcDbEntity
  8
0
100
AcDbLine
 10
365.2265963464813
 20
335.6965247473007
 30
0.0
 11
329.1656252703967
 21
335.2567568073472
 31
0.0
  0
ARC
  5
1058
330
2
100
AcDbEntity
  8
0
100
AcDbCircle
 10
293.1656252703958
 20
340.6961529862664
 30
0.0
 40
5.0
100
AcDbArc
 50
180.0
 51
269.3013056170002
  0
ARC
  5
1059
330
2
100
AcDbEntity
  8
0
100
AcDbCircle
 10
365.1656252703958
 20
340.6961529862682
 30
0.0
 40
5.0
100
AcDbArc
 50
270.6986943829997
 51
298.478561495585
  0
ARC
  5
105A
330
2
100
AcDbEntity
  8
0
100
AcDbCircle
 10
365.1656252703958
 20
412.8173606284244
 30
0.0
 40
5.0
100
AcDbArc
 50
61.52143850500972
 51
89.30130561700025
  0
ARC
  5
105B
330
2
100
AcDbEntity
  8
0
100
AcDbCircle
 10
293.1656252703958
 20
412.8173606284263
 30
0.0
 40
5.0
100
AcDbArc
 50
90.69869438299972
 51
180.0
  0
LINE
  5
105C
330
2
100
AcDbEntity
  8
0
100
AcDbLine
 10
293.1046541943112
 20
335.6965247472989
 30
0.0
 11
329.1656252703958
 21
335.2567568073472
 31
0.0
  0
LINE
  5
105D
330
2
100
AcDbEntity
  8
0
100
AcDbLine
 10
305.665625270394
 20
417.7523933734209
 30
0.0
 11
372.1656252704003
 21
417.172056665393
 31
0.0
  0
LINE
  5
105E
330
2
100
AcDbEntity
  8
0
100
AcDbLine
 10
305.665625270394
 20
335.7611202412458
 30
0.0
 11
372.1656252703985
 21
336.3414569493288
 31
0.0
  0
LINE
  5
105F
330
2
100
AcDbEntity
  8
0
100
AcDbLine
 10
305.665625270394
 20
335.7611202412458
 30
0.0
 11
305.665625270394
 21
417.7523933734209
 31
0.0
  0
LINE
  5
1060
330
2
100
AcDbEntity
  8
0
100
AcDbLine
 10
372.1656252703976
 20
341.7567568073672
 30
0.0
 11
377.1656252703976
 21
341.7567568073672
 31
0.0
  0
LINE
  5
1061
330
2
100
AcDbEntity
  8
0
100
AcDbLine
 10
372.1656252703976
 20
411.7567568073672
 30
0.0
 11
377.1656252703976
 21
411.7567568073672
 31
0.0
  0
LINE
  5
1062
330
2
100
AcDbEntity
  8
CENTER
100
AcDbLine
 10
329.1656252703903
 20
428.2567568073468
 30
0.0
 11
329.1656252703903
 21
325.2567568073472
 31
0.0
  0
LINE
  5
1063
330
2
100
AcDbEntity
  8
CENTER
100
AcDbLine
 10
258.1656252703962
 20
376.7567568073623
 30
0.0
 11
413.1656252703967
 21
376.7567568073623
 31
0.0
  0
LINE
  5
1064
330
2
100
AcDbEntity
  8
0
100
AcDbLine
 10
294.665625270394
 20
406.2567568073809
 30
0.0
 11
294.665625270394
 21
347.2567568073436
 31
0.0
  0
LINE
  5
1065
330
2
100
AcDbEntity
  8
0
100
AcDbLine
 10
287.1656252703994
 20
350.2567568073613
 30
0.0
 11
288.4656252703987
 21
350.2567568073613
 31
0.0
  0
LINE
  5
1066
330
2
100
AcDbEntity
  8
0
100
AcDbLine
 10
290.6656252703994
 20
350.456756807362
 30
0.0
 11
290.8656252703993
 21
350.2567568073617
 31
0.0
  0
LINE
  5
1067
330
2
100
AcDbEntity
  8
0
100
AcDbLine
 10
288.8656252703992
 20
350.9567568073611
 30
0.0
 11
290.4656252703987
 21
350.956756807362
 31
0.0
  0
LINE
  5
1068
330
2
100
AcDbEntity
  8
0
100
AcDbLine
 10
287.1656252703994
 20
350.2567568073613
 30
0.0
 11
286.1656252703994
 21
350.8341070765508
 31
0.0
  0
LINE
  5
1069
330
2
100
AcDbEntity
  8
0
100
AcDbLine
 10
294.1656252703949
 20
348.2567568073676
 30
0.0
 11
294.6656252703994
 21
347.7567568073622
 31
0.0
  0
LINE
  5
106A
330
2
100
AcDbEntity
  8
0
100
AcDbLine
 10
290.8656252703993
 20
350.2567568073617
 30
0.0
 11
294.1656252703994
 21
350.2567568073622
 31
0.0
  0
LINE
  5
106B
330
2
100
AcDbEntity
  8
0
100
AcDbLine
 10
286.1656252703939
 20
402.6794065381714
 30
0.0
 11
286.1656252703939
 21
350.8341070765536
 31
0.0
  0
LINE
  5
106C
330
2
100
AcDbEntity
  8
HIDS
  6
SEKKEI_H
100
AcDbLine
 10
297.5798388327691
 20
413.1709703697347
 30
0.0
 11
295.2514117080216
 21
410.8425432449898
 31
0.0
  0
LINE
  5
106D
330
2
100
AcDbEntity
  8
0
100
AcDbLine
 10
298.1656252703967
 20
336.7567568073622
 30
0.0
 11
298.1656252703967
 21
416.7567568073622
 31
0.0
  0
LINE
  5
106E
330
2
100
AcDbEntity
  8
0
100
AcDbLine
 10
305.6656252703949
 20
417.7567568073623
 30
0.0
 11
299.1656252703967
 21
417.7567568073623
 31
0.0
  0
LINE
  5
106F
330
2
100
AcDbEntity
  8
0
100
AcDbLine
 10
305.665625270394
 20
417.7567568073632
 30
0.0
 11
305.665625270394
 21
335.7567568073622
 31
0.0
  0
LINE
  5
1070
330
2
100
AcDbEntity
  8
0
100
AcDbLine
 10
287.1656252703994
 20
403.2567568073631
 30
0.0
 11
286.1656252703994
 21
402.6794065381732
 31
0.0
  0
LINE
  5
1071
330
2
100
AcDbEntity
  8
0
100
AcDbLine
 10
290.6656252703994
 20
403.0567568073625
 30
0.0
 11
290.6656252703994
 21
350.456756807362
 31
0.0
  0
LINE
  5
1072
330
2
100
AcDbEntity
  8
0
100
AcDbLine
 10
288.8656252703992
 20
402.5567568073629
 30
0.0
 11
290.4656252703987
 21
402.5567568073625
 31
0.0
  0
LINE
  5
1073
330
2
100
AcDbEntity
  8
0
100
AcDbLine
 10
288.6656252703994
 20
403.0567568073633
 30
0.0
 11
288.6656252704785
 21
350.456756807362
 31
0.0
  0
LINE
  5
1074
330
2
100
AcDbEntity
  8
0
100
AcDbLine
 10
290.6656252703994
 20
403.0567568073625
 30
0.0
 11
290.8656252703993
 21
403.2567568073623
 31
0.0
  0
LINE
  5
1075
330
2
100
AcDbEntity
  8
0
100
AcDbLine
 10
287.1656252703994
 20
403.2567568073631
 30
0.0
 11
288.4656252703987
 21
403.2567568073627
 31
0.0
  0
LINE
  5
1076
330
2
100
AcDbEntity
  8
0
100
AcDbLine
 10
294.1656252703949
 20
348.2567568073676
 30
0.0
 11
294.1656252703939
 21
405.2567568073568
 31
0.0
  0
LINE
  5
1077
330
2
100
AcDbEntity
  8
0
100
AcDbLine
 10
294.1656252703994
 20
405.2567568073623
 30
0.0
 11
294.1656252703994
 21
403.2567568073623
 31
0.0
  0
LINE
  5
1078
330
2
100
AcDbEntity
  8
0
100
AcDbLine
 10
294.1656252703994
 20
405.2567568073623
 30
0.0
 11
294.6656252703994
 21
405.7567568073623
 31
0.0
  0
LINE
  5
1079
330
2
100
AcDbEntity
  8
0
100
AcDbLine
 10
290.8656252703993
 20
403.2567568073623
 30
0.0
 11
294.1656252703994
 21
403.2567568073623
 31
0.0
  0
ARC
  5
107A
330
2
100
AcDbEntity
  8
0
100
AcDbCircle
 10
299.1656252703967
 20
416.7567568073622
 30
0.0
 40
1.0
100
AcDbArc
 50
90.0
 51
180.0
  0
ARC
  5
107B
330
2
100
AcDbEntity
  8
HIDS
  6
SEKKEI_H
100
AcDbCircle
 10
296.1656252703967
 20
414.5851839321085
 30
0.0
 40
2.0
100
AcDbArc
 50
314.9999999999447
 51
0.0
  0
ARC
  5
107C
330
2
100
AcDbEntity
  8
HIDS
  6
SEKKEI_H
100
AcDbCircle
 10
296.6656252703939
 20
409.4283296826156
 30
0.0
 40
2.0
100
AcDbArc
 50
134.9999999999444
 51
180.0
  0
LINE
  5
107D
330
2
100
AcDbEntity
  8
HIDS
  6
SEKKEI_H
100
AcDbLine
 10
297.5798388327691
 20
340.3425432449898
 30
0.0
 11
295.2514117080225
 21
342.6709703697346
 31
0.0
  0
LINE
  5
107E
330
2
100
AcDbEntity
  8
0
100
AcDbLine
 10
305.665625270394
 20
335.7567568073622
 30
0.0
 11
299.1656252703976
 21
335.7567568073622
 31
0.0
  0
ARC
  5
107F
330
2
100
AcDbEntity
  8
0
100
AcDbCircle
 10
299.1656252703976
 20
336.7567568073622
 30
0.0
 40
1.0
100
AcDbArc
 50
180.0
 51
270.0
  0
ARC
  5
1080
330
2
100
AcDbEntity
  8
HIDS
  6
SEKKEI_H
100
AcDbCircle
 10
296.1656252703967
 20
338.928329682616
 30
0.0
 40
2.0
100
AcDbArc
 50
0.0
 51
45.00000000005555
  0
ARC
  5
1081
330
2
100
AcDbEntity
  8
HIDS
  6
SEKKEI_H
100
AcDbCircle
 10
296.6656252703939
 20
344.0851839321089
 30
0.0
 40
2.0
100
AcDbArc
 50
180.0
 51
225.0000000000552
  0
ARC
  5
1082
330
2
100
AcDbEntity
  8
0
100
AcDbCircle
 10
288.4656252703987
 20
403.0567568073625
 30
0.0
 40
0.2
100
AcDbArc
 50
0.0000000001302755
 51
90.0
  0
ARC
  5
1083
330
2
100
AcDbEntity
  8
0
100
AcDbCircle
 10
288.8656252703992
 20
402.7567568073632
 30
0.0
 40
0.2
100
AcDbArc
 50
180.0000000001302
 51
270.0
  0
ARC
  5
1084
330
2
100
AcDbEntity
  8
0
100
AcDbCircle
 10
290.4656252703987
 20
402.7567568073623
 30
0.0
 40
0.2
100
AcDbArc
 50
270.0
 51
0.0
  0
ARC
  5
1085
330
2
100
AcDbEntity
  8
0
100
AcDbCircle
 10
288.4656252703987
 20
350.4567568073611
 30
0.0
 40
0.2
100
AcDbArc
 50
270.0
 51
0.0000000001042204
  0
ARC
  5
1086
330
2
100
AcDbEntity
  8
0
100
AcDbCircle
 10
288.8656252704001
 20
350.7567568073613
 30
0.0
 40
0.2
100
AcDbArc
 50
90.0
 51
179.9999999998697
  0
ARC
  5
1087
330
2
100
AcDbEntity
  8
0
100
AcDbCircle
 10
290.4656252703987
 20
350.7567568073613
 30
0.0
 40
0.2
100
AcDbArc
 50
0.0
 51
90.0
  0
LINE
  5
1088
330
2
100
AcDbEntity
  8
0
100
AcDbLine
 10
287.1656252703994
 20
403.2567568073631
 30
0.0
 11
287.1656252703994
 21
350.2567568073613
 31
0.0
  0
LINE
  5
1089
330
2
100
AcDbEntity
  8
0
100
AcDbLine
 10
290.8656252703993
 20
350.2567568073617
 30
0.0
 11
290.8656252703993
 21
403.2567568073623
 31
0.0
  0
LINE
  5
108A
330
2
100
AcDbEntity
  8
0
100
AcDbLine
 10
372.1656252704003
 20
412.7567568073823
 30
0.0
 11
305.665625270394
 21
412.7567568073823
 31
0.0
  0
LINE
  5
108B
330
2
100
AcDbEntity
  8
0
100
AcDbLine
 10
372.1656252704003
 20
409.7567568073823
 30
0.0
 11
305.665625270394
 21
409.7567568073823
 31
0.0
  0
LINE
  5
108C
330
2
100
AcDbEntity
  8
0
100
AcDbLine
 10
372.1656252703994
 20
395.0487919732463
 30
0.0
 11
305.665625270394
 21
395.0487919732463
 31
0.0
  0
LINE
  5
108D
330
2
100
AcDbEntity
  8
0
100
AcDbLine
 10
305.665625270394
 20
412.7567568073823
 30
0.0
 11
298.1656252703967
 21
412.7567568073823
 31
0.0
  0
LINE
  5
108E
330
2
100
AcDbEntity
  8
0
100
AcDbLine
 10
305.665625270394
 20
409.7567568073823
 30
0.0
 11
298.1656252703967
 21
409.7567568073823
 31
0.0
  0
LINE
  5
108F
330
2
100
AcDbEntity
  8
0
100
AcDbLine
 10
305.665625270394
 20
395.0487919732463
 30
0.0
 11
298.1656252703967
 21
395.0487919732463
 31
0.0
  0
LINE
  5
1090
330
2
100
AcDbEntity
  8
0
100
AcDbLine
 10
372.1656252704003
 20
340.7567568073422
 30
0.0
 11
305.665625270394
 21
340.7567568073422
 31
0.0
  0
LINE
  5
1091
330
2
100
AcDbEntity
  8
0
100
AcDbLine
 10
372.1656252704003
 20
343.7567568073422
 30
0.0
 11
305.665625270394
 21
343.7567568073422
 31
0.0
  0
LINE
  5
1092
330
2
100
AcDbEntity
  8
0
100
AcDbLine
 10
372.1656252703994
 20
358.4647216414782
 30
0.0
 11
305.665625270394
 21
358.4647216414782
 31
0.0
  0
LINE
  5
1093
330
2
100
AcDbEntity
  8
0
100
AcDbLine
 10
305.665625270394
 20
340.7567568073422
 30
0.0
 11
298.1656252703967
 21
340.7567568073422
 31
0.0
  0
LINE
  5
1094
330
2
100
AcDbEntity
  8
0
100
AcDbLine
 10
305.665625270394
 20
343.7567568073422
 30
0.0
 11
298.1656252703967
 21
343.7567568073422
 31
0.0
  0
LINE
  5
1095
330
2
100
AcDbEntity
  8
0
100
AcDbLine
 10
305.665625270394
 20
358.4647216414782
 30
0.0
 11
298.1656252703967
 21
358.4647216414782
 31
0.0
  0
LINE
  5
1096
330
2
100
AcDbEntity
  8
CENTER
  6
CENS
100
AcDbLine
 10
285.6656252703967
 20
411.2567568073809
 30
0.0
 11
310.7283720145431
 21
411.2567568073809
 31
0.0
  0
LINE
  5
1097
330
2
100
AcDbEntity
  8
0
100
AcDbLine
 10
296.6656252703976
 20
406.2567568073809
 30
0.0
 11
291.0656252703972
 21
406.2567568073809
 31
0.0
  0
LINE
  5
1098
330
2
100
AcDbEntity
  8
0
100
AcDbLine
 10
296.6656252703976
 20
416.2567568073809
 30
0.0
 11
291.0656252703972
 21
416.2567568073809
 31
0.0
  0
LINE
  5
1099
330
2
100
AcDbEntity
  8
0
100
AcDbLine
 10
296.6656252703976
 20
416.2567568073809
 30
0.0
 11
296.6656252703976
 21
406.2567568073814
 31
0.0
  0
LINE
  5
109A
330
2
100
AcDbEntity
  8
0
100
AcDbLine
 10
290.6656252703976
 20
415.5639364843532
 30
0.0
 11
290.6656252703967
 21
406.9495771304087
 31
0.0
  0
LINE
  5
109B
330
2
100
AcDbEntity
  8
0
100
AcDbLine
 10
291.0656252703972
 20
416.2567568073809
 30
0.0
 11
291.0656252703972
 21
406.2567568073809
 31
0.0
  0
LINE
  5
109C
330
2
100
AcDbEntity
  8
0
100
AcDbLine
 10
291.0656252703972
 20
416.2567568073809
 30
0.0
 11
290.6656252703976
 21
415.5639364843532
 31
0.0
  0
LINE
  5
109D
330
2
100
AcDbEntity
  8
0
100
AcDbLine
 10
291.0656252703972
 20
406.2567568073809
 30
0.0
 11
290.6656252703976
 21
406.9495771304087
 31
0.0
  0
LINE
  5
109E
330
2
100
AcDbEntity
  8
0
100
AcDbLine
 10
296.6656252703967
 20
416.2567568073809
 30
0.0
 11
298.1656252703967
 21
416.2567568073809
 31
0.0
  0
LINE
  5
109F
330
2
100
AcDbEntity
  8
0
100
AcDbLine
 10
296.6656252703967
 20
406.2567568073809
 30
0.0
 11
298.1656252703967
 21
406.2567568073809
 31
0.0
  0
LINE
  5
10A0
330
2
100
AcDbEntity
  8
HIDS
  6
SEKKEI_H
100
AcDbLine
 10
294.665625270394
 20
406.2567568073809
 30
0.0
 11
294.665625270394
 21
409.4283296826156
 31
0.0
  0
LINE
  5
10A1
330
2
100
AcDbEntity
  8
CENTER
  6
CENS
100
AcDbLine
 10
285.6656252703967
 20
342.2567568073436
 30
0.0
 11
310.7283720145431
 21
342.2567568073436
 31
0.0
  0
LINE
  5
10A2
330
2
100
AcDbEntity
  8
0
100
AcDbLine
 10
296.6656252703976
 20
347.2567568073436
 30
0.0
 11
291.0656252703972
 21
347.2567568073436
 31
0.0
  0
LINE
  5
10A3
330
2
100
AcDbEntity
  8
0
100
AcDbLine
 10
296.6656252703976
 20
337.2567568073435
 30
0.0
 11
291.0656252703972
 21
337.2567568073435
 31
0.0
  0
LINE
  5
10A4
330
2
100
AcDbEntity
  8
0
100
AcDbLine
 10
296.6656252703976
 20
337.2567568073435
 30
0.0
 11
296.6656252703976
 21
347.2567568073431
 31
0.0
  0
LINE
  5
10A5
330
2
100
AcDbEntity
  8
0
100
AcDbLine
 10
290.6656252703976
 20
337.9495771303713
 30
0.0
 11
290.6656252703967
 21
346.5639364843159
 31
0.0
  0
LINE
  5
10A6
330
2
100
AcDbEntity
  8
0
100
AcDbLine
 10
291.0656252703972
 20
337.2567568073435
 30
0.0
 11
291.0656252703972
 21
347.2567568073436
 31
0.0
  0
LINE
  5
10A7
330
2
100
AcDbEntity
  8
0
100
AcDbLine
 10
291.0656252703972
 20
337.2567568073435
 30
0.0
 11
290.6656252703976
 21
337.9495771303713
 31
0.0
  0
LINE
  5
10A8
330
2
100
AcDbEntity
  8
0
100
AcDbLine
 10
291.0656252703972
 20
347.2567568073436
 30
0.0
 11
290.6656252703976
 21
346.5639364843159
 31
0.0
  0
LINE
  5
10A9
330
2
100
AcDbEntity
  8
0
100
AcDbLine
 10
296.6656252703967
 20
337.2567568073435
 30
0.0
 11
298.1656252703967
 21
337.2567568073435
 31
0.0
  0
LINE
  5
10AA
330
2
100
AcDbEntity
  8
0
100
AcDbLine
 10
296.6656252703967
 20
347.2567568073436
 30
0.0
 11
298.1656252703967
 21
347.2567568073436
 31
0.0
  0
LINE
  5
10AB
330
2
100
AcDbEntity
  8
HIDS
  6
SEKKEI_H
100
AcDbLine
 10
294.665625270394
 20
347.2567568073436
 30
0.0
 11
294.665625270394
 21
344.0851839321089
 31
0.0
  0
LINE
  5
10AC
330
2
100
AcDbEntity
  8
0
100
AcDbLine
 10
580.6386981321045
 20
686.154024330845
 30
0.0
 11
521.6386981320681
 21
686.154024330845
 31
0.0
  0
LINE
  5
10AD
330
2
100
AcDbEntity
  8
0
100
AcDbLine
 10
524.6386981320854
 20
693.6540243308404
 30
0.0
 11
524.6386981320863
 21
692.3540243308402
 31
0.0
  0
LINE
  5
10AE
330
2
100
AcDbEntity
  8
0
100
AcDbLine
 10
524.8386981320853
 20
690.1540243308404
 30
0.0
 11
524.6386981320863
 21
689.9540243308397
 31
0.0
  0
LINE
  5
10AF
330
2
100
AcDbEntity
  8
0
100
AcDbLine
 10
525.3386981320852
 20
691.9540243308397
 30
0.0
 11
525.3386981320852
 21
690.3540243308403
 31
0.0
  0
LINE
  5
10B0
330
2
100
AcDbEntity
  8
0
100
AcDbLine
 10
524.6386981320854
 20
693.6540243308395
 30
0.0
 11
525.2160484012745
 21
694.6540243308405
 31
0.0
  0
LINE
  5
10B1
330
2
100
AcDbEntity
  8
0
100
AcDbLine
 10
522.6386981320918
 20
686.6540243308441
 30
0.0
 11
522.1386981320863
 21
686.1540243308395
 31
0.0
  0
LINE
  5
10B2
330
2
100
AcDbEntity
  8
0
100
AcDbLine
 10
524.6386981320863
 20
689.9540243308397
 30
0.0
 11
524.6386981320863
 21
686.6540243308395
 31
0.0
  0
LINE
  5
10B3
330
2
100
AcDbEntity
  8
0
100
AcDbLine
 10
577.0613478628945
 20
694.654024330845
 30
0.0
 11
525.2160484012781
 21
694.654024330845
 31
0.0
  0
LINE
  5
10B4
330
2
100
AcDbEntity
  8
HIDS
  6
SEKKEI_H
100
AcDbLine
 10
587.5529116944587
 20
683.2398107684698
 30
0.0
 11
585.2244845697129
 21
685.5682378932174
 31
0.0
  0
LINE
  5
10B5
330
2
100
AcDbEntity
  8
0
100
AcDbLine
 10
511.195460851113
 20
682.6540243308422
 30
0.0
 11
590.6719354130616
 21
682.6540243308427
 31
0.0
  0
ARC
  5
10B6
330
2
100
AcDbEntity
  8
0
100
AcDbCircle
 10
511.195460851113
 20
681.6540243308423
 30
0.0
 40
1.0
100
AcDbArc
 50
90.0
 51
179.5000000000084
  0
LINE
  5
10B7
330
2
100
AcDbEntity
  8
0
100
AcDbLine
 10
577.6386981320863
 20
693.6540243308395
 30
0.0
 11
577.0613478628981
 21
694.6540243308405
 31
0.0
  0
LINE
  5
10B8
330
2
100
AcDbEntity
  8
0
100
AcDbLine
 10
577.4386981320874
 20
690.1540243308404
 30
0.0
 11
524.8386981320853
 21
690.1540243308404
 31
0.0
  0
LINE
  5
10B9
330
2
100
AcDbEntity
  8
0
100
AcDbLine
 10
576.9386981320874
 20
691.9540243308397
 30
0.0
 11
576.9386981320874
 21
690.3540243308403
 31
0.0
  0
LINE
  5
10BA
330
2
100
AcDbEntity
  8
0
100
AcDbLine
 10
577.4386981320874
 20
692.1540243308404
 30
0.0
 11
524.8386981320853
 21
692.1540243307604
 31
0.0
  0
LINE
  5
10BB
330
2
100
AcDbEntity
  8
0
100
AcDbLine
 10
577.4386981320874
 20
690.1540243308404
 30
0.0
 11
577.6386981320863
 21
689.9540243308397
 31
0.0
  0
LINE
  5
10BC
330
2
100
AcDbEntity
  8
0
100
AcDbLine
 10
577.6386981320863
 20
693.6540243308404
 30
0.0
 11
577.6386981320863
 21
692.3540243308402
 31
0.0
  0
LINE
  5
10BD
330
2
100
AcDbEntity
  8
0
100
AcDbLine
 10
522.6386981320918
 20
686.6540243308441
 30
0.0
 11
579.6386981320808
 21
686.654024330845
 31
0.0
  0
LINE
  5
10BE
330
2
100
AcDbEntity
  8
0
100
AcDbLine
 10
579.6386981320863
 20
686.6540243308395
 30
0.0
 11
577.6386981320863
 21
686.6540243308395
 31
0.0
  0
LINE
  5
10BF
330
2
100
AcDbEntity
  8
0
100
AcDbLine
 10
579.6386981320863
 20
686.6540243308395
 30
0.0
 11
580.1386981320863
 21
686.1540243308395
 31
0.0
  0
LINE
  5
10C0
330
2
100
AcDbEntity
  8
0
100
AcDbLine
 10
577.6386981320863
 20
689.9540243308397
 30
0.0
 11
577.6386981320863
 21
686.6540243308395
 31
0.0
  0
ARC
  5
10C1
330
2
100
AcDbEntity
  8
HIDS
  6
SEKKEI_H
100
AcDbCircle
 10
588.967125256833
 20
684.6540243308423
 30
0.0
 40
2.0
100
AcDbArc
 50
224.9999999999815
 51
270.0
  0
ARC
  5
10C2
330
2
100
AcDbEntity
  8
HIDS
  6
SEKKEI_H
100
AcDbCircle
 10
583.8102710073396
 20
684.154024330845
 30
0.0
 40
2.0
100
AcDbArc
 50
44.99999999998187
 51
90.0
  0
LINE
  5
10C3
330
2
100
AcDbEntity
  8
HIDS
  6
SEKKEI_H
100
AcDbLine
 10
514.7244845697129
 20
683.2398107684698
 30
0.0
 11
517.0529116944597
 21
685.5682378932174
 31
0.0
  0
LINE
  5
10C4
330
2
100
AcDbEntity
  8
0
100
AcDbLine
 10
510.1386981320863
 20
675.154024330845
 30
0.0
 11
510.1954989280482
 21
681.6627508663409
 31
0.0
  0
ARC
  5
10C5
330
2
100
AcDbEntity
  8
HIDS
  6
SEKKEI_H
100
AcDbCircle
 10
513.3102710073396
 20
684.6540243308423
 30
0.0
 40
2.0
100
AcDbArc
 50
270.0
 51
315.0000000000184
  0
ARC
  5
10C6
330
2
100
AcDbEntity
  8
HIDS
  6
SEKKEI_H
100
AcDbCircle
 10
518.467125256833
 20
684.154024330845
 30
0.0
 40
2.0
100
AcDbArc
 50
90.0
 51
135.0000000000181
  0
ARC
  5
10C7
330
2
100
AcDbEntity
  8
0
100
AcDbCircle
 10
577.4386981320874
 20
692.3540243308402
 30
0.0
 40
0.2
100
AcDbArc
 50
270.0000000001042
 51
359.9999999999739
  0
ARC
  5
10C8
330
2
100
AcDbEntity
  8
0
100
AcDbCircle
 10
577.1386981320863
 20
691.9540243308397
 30
0.0
 40
0.2
100
AcDbArc
 50
90.00000000010421
 51
179.9999999999739
  0
ARC
  5
10C9
330
2
100
AcDbEntity
  8
0
100
AcDbCircle
 10
577.1386981320863
 20
690.3540243308403
 30
0.0
 40
0.2
100
AcDbArc
 50
179.9999999999739
 51
270.0
  0
ARC
  5
10CA
330
2
100
AcDbEntity
  8
0
100
AcDbCircle
 10
524.8386981320853
 20
692.3540243308402
 30
0.0
 40
0.2
100
AcDbArc
 50
180.0
 51
270.0000000001042
  0
ARC
  5
10CB
330
2
100
AcDbEntity
  8
0
100
AcDbCircle
 10
525.1386981320863
 20
691.9540243308397
 30
0.0
 40
0.2
100
AcDbArc
 50
0.0
 51
89.99999999984366
  0
ARC
  5
10CC
330
2
100
AcDbEntity
  8
0
100
AcDbCircle
 10
525.1386981320863
 20
690.3540243308403
 30
0.0
 40
0.2
100
AcDbArc
 50
270.0
 51
0.0
  0
LINE
  5
10CD
330
2
100
AcDbEntity
  8
0
100
AcDbLine
 10
577.6386981320863
 20
693.6540243308404
 30
0.0
 11
524.6386981320854
 21
693.6540243308395
 31
0.0
  0
LINE
  5
10CE
330
2
100
AcDbEntity
  8
0
100
AcDbLine
 10
524.6386981320863
 20
689.9540243308397
 30
0.0
 11
577.6386981320863
 21
689.9540243308397
 31
0.0
  0
LINE
  5
10CF
330
2
100
AcDbEntity
  8
0
100
AcDbLine
 10
587.1386981321063
 20
675.154024330845
 30
0.0
 11
587.1386981321063
 21
682.6540243308422
 31
0.0
  0
LINE
  5
10D0
330
2
100
AcDbEntity
  8
0
100
AcDbLine
 10
584.1386981321063
 20
675.154024330845
 30
0.0
 11
584.1386981321063
 21
682.6540243308422
 31
0.0
  0
LINE
  5
10D1
330
2
100
AcDbEntity
  8
0
100
AcDbLine
 10
569.4307332979713
 20
675.154024330845
 30
0.0
 11
569.4307332979713
 21
682.6540243308422
 31
0.0
  0
LINE
  5
10D2
330
2
100
AcDbEntity
  8
0
100
AcDbLine
 10
515.1386981320663
 20
675.154024330845
 30
0.0
 11
515.1386981320663
 21
682.6540243308422
 31
0.0
  0
LINE
  5
10D3
330
2
100
AcDbEntity
  8
0
100
AcDbLine
 10
518.1386981320663
 20
675.154024330845
 30
0.0
 11
518.1386981320663
 21
682.6540243308422
 31
0.0
  0
LINE
  5
10D4
330
2
100
AcDbEntity
  8
0
100
AcDbLine
 10
532.8466629662013
 20
675.154024330845
 30
0.0
 11
532.8466629662013
 21
682.6540243308422
 31
0.0
  0
LINE
  5
10D5
330
2
100
AcDbEntity
  8
CENTER
  6
CENS
100
AcDbLine
 10
585.6386981321045
 20
695.1540243308422
 30
0.0
 11
585.6386981321045
 21
670.0912775866959
 31
0.0
  0
LINE
  5
10D6
330
2
100
AcDbEntity
  8
0
100
AcDbLine
 10
580.6386981321045
 20
684.1540243308422
 30
0.0
 11
580.6386981321045
 21
689.7540243308417
 31
0.0
  0
LINE
  5
10D7
330
2
100
AcDbEntity
  8
0
100
AcDbLine
 10
590.6386981321045
 20
684.1540243308422
 30
0.0
 11
590.6386981321045
 21
689.7540243308417
 31
0.0
  0
LINE
  5
10D8
330
2
100
AcDbEntity
  8
0
100
AcDbLine
 10
590.6386981321045
 20
684.1540243308422
 30
0.0
 11
580.6386981321045
 21
684.1540243308422
 31
0.0
  0
LINE
  5
10D9
330
2
100
AcDbEntity
  8
0
100
AcDbLine
 10
589.9458778090773
 20
690.1540243308422
 30
0.0
 11
581.3315184551327
 21
690.1540243308422
 31
0.0
  0
LINE
  5
10DA
330
2
100
AcDbEntity
  8
0
100
AcDbLine
 10
590.6386981321045
 20
689.7540243308426
 30
0.0
 11
580.6386981321045
 21
689.7540243308417
 31
0.0
  0
LINE
  5
10DB
330
2
100
AcDbEntity
  8
0
100
AcDbLine
 10
590.6386981321045
 20
689.7540243308417
 30
0.0
 11
589.9458778090773
 21
690.1540243308422
 31
0.0
  0
LINE
  5
10DC
330
2
100
AcDbEntity
  8
0
100
AcDbLine
 10
580.6386981321045
 20
689.7540243308417
 30
0.0
 11
581.3315184551327
 21
690.1540243308422
 31
0.0
  0
LINE
  5
10DD
330
2
100
AcDbEntity
  8
0
100
AcDbLine
 10
590.6386981321045
 20
684.1540243308422
 30
0.0
 11
590.6386981321045
 21
682.6540243308422
 31
0.0
  0
LINE
  5
10DE
330
2
100
AcDbEntity
  8
0
100
AcDbLine
 10
580.6386981321045
 20
684.1540243308422
 30
0.0
 11
580.6386981321045
 21
682.6540243308422
 31
0.0
  0
LINE
  5
10DF
330
2
100
AcDbEntity
  8
HIDS
  6
SEKKEI_H
100
AcDbLine
 10
580.6386981321045
 20
686.154024330845
 30
0.0
 11
583.8102710073396
 21
686.154024330845
 31
0.0
  0
LINE
  5
10E0
330
2
100
AcDbEntity
  8
CENTER
  6
CENS
100
AcDbLine
 10
516.6386981320681
 20
695.1540243308422
 30
0.0
 11
516.6386981320681
 21
670.0912775866959
 31
0.0
  0
LINE
  5
10E1
330
2
100
AcDbEntity
  8
0
100
AcDbLine
 10
521.6386981320681
 20
684.1540243308422
 30
0.0
 11
521.6386981320681
 21
689.7540243308417
 31
0.0
  0
LINE
  5
10E2
330
2
100
AcDbEntity
  8
0
100
AcDbLine
 10
511.6386981320681
 20
684.1540243308422
 30
0.0
 11
511.6386981320681
 21
689.7540243308417
 31
0.0
  0
LINE
  5
10E3
330
2
100
AcDbEntity
  8
0
100
AcDbLine
 10
511.6386981320681
 20
684.1540243308422
 30
0.0
 11
521.6386981320681
 21
684.1540243308422
 31
0.0
  0
LINE
  5
10E4
330
2
100
AcDbEntity
  8
0
100
AcDbLine
 10
512.3315184550953
 20
690.1540243308422
 30
0.0
 11
520.9458778090399
 21
690.1540243308422
 31
0.0
  0
LINE
  5
10E5
330
2
100
AcDbEntity
  8
0
100
AcDbLine
 10
511.6386981320681
 20
689.7540243308426
 30
0.0
 11
521.6386981320681
 21
689.7540243308417
 31
0.0
  0
LINE
  5
10E6
330
2
100
AcDbEntity
  8
0
100
AcDbLine
 10
511.6386981320681
 20
689.7540243308417
 30
0.0
 11
512.3315184550953
 21
690.1540243308422
 31
0.0
  0
LINE
  5
10E7
330
2
100
AcDbEntity
  8
0
100
AcDbLine
 10
521.6386981320681
 20
689.7540243308417
 30
0.0
 11
520.9458778090399
 21
690.1540243308422
 31
0.0
  0
LINE
  5
10E8
330
2
100
AcDbEntity
  8
0
100
AcDbLine
 10
511.6386981320681
 20
684.1540243308422
 30
0.0
 11
511.6386981320681
 21
682.6540243308422
 31
0.0
  0
LINE
  5
10E9
330
2
100
AcDbEntity
  8
0
100
AcDbLine
 10
521.6386981320681
 20
684.1540243308422
 30
0.0
 11
521.6386981320681
 21
682.6540243308422
 31
0.0
  0
LINE
  5
10EA
330
2
100
AcDbEntity
  8
HIDS
  6
SEKKEI_H
100
AcDbLine
 10
521.6386981320681
 20
686.154024330845
 30
0.0
 11
518.467125256833
 21
686.154024330845
 31
0.0
  0
LINE
  5
10EB
330
2
100
AcDbEntity
  8
0
100
AcDbLine
 10
591.6718973361255
 20
681.6627508663409
 30
0.0
 11
591.7286981320865
 21
675.1540243308459
 31
0.0
  0
ARC
  5
10EC
330
2
100
AcDbEntity
  8
0
100
AcDbCircle
 10
590.6719354130616
 20
681.6540243308427
 30
0.0
 40
1.0
100
AcDbArc
 50
0.4999999999915503
 51
90.0
  0
LINE
  5
10ED
330
2
100
AcDbEntity
  8
0
100
AcDbLine
 10
417.2509302636724
 20
106.2911667852471
 30
0.0
 11
417.2509302636724
 21
132.9327984839664
 31
0.0
  0
LINE
  5
10EE
330
2
100
AcDbEntity
  8
0
100
AcDbLine
 10
417.2509302636743
 20
160.4801348025948
 30
0.0
 11
417.2509302636743
 21
187.1217665013113
 31
0.0
  0
LINE
  5
10EF
330
2
100
AcDbEntity
  8
0
100
AcDbLine
 10
422.2509302636724
 20
111.7064666432856
 30
0.0
 11
422.2509302636724
 21
133.7817659311389
 31
0.0
  0
LINE
  5
10F0
330
2
100
AcDbEntity
  8
0
100
AcDbLine
 10
422.2509302636724
 20
159.6311673554222
 30
0.0
 11
422.2509302636724
 21
181.7064666432856
 31
0.0
  0
LINE
  5
10F1
330
2
100
AcDbEntity
  8
0
100
AcDbLine
 10
424.1811312702672
 20
118.3199007443176
 30
0.0
 11
433.3207292570757
 21
118.6390625388616
 31
0.0
  0
ARC
  5
10F2
330
2
100
AcDbEntity
  8
0
100
AcDbCircle
 10
424.2509302636724
 20
116.3211190902797
 30
0.0
 40
2.0
100
AcDbArc
 50
92.00000000000406
 51
180.0
  0
LINE
  5
10F3
330
2
100
AcDbEntity
  8
0
100
AcDbLine
 10
435.2509302636706
 20
120.6378441929004
 30
0.0
 11
435.2509302636706
 21
132.2064206432805
 31
0.0
  0
LINE
  5
10F4
330
2
100
AcDbEntity
  8
0
100
AcDbLine
 10
435.2509302636724
 20
161.2064206432809
 30
0.0
 11
435.2509302636724
 21
172.7750890936708
 31
0.0
  0
ARC
  5
10F5
330
2
100
AcDbEntity
  8
0
100
AcDbCircle
 10
433.2509302636724
 20
120.6378441929004
 30
0.0
 40
2.0
100
AcDbArc
 50
272.000000000004
 51
0.0
  0
ARC
  5
10F6
330
2
100
AcDbEntity
  8
0
100
AcDbCircle
 10
433.2509302636724
 20
172.7750890936708
 30
0.0
 40
2.0
100
AcDbArc
 50
0.0
 51
87.99999999999595
  0
LINE
  5
10F7
330
2
100
AcDbEntity
  8
0
100
AcDbLine
 10
424.1811312702672
 20
175.0930325422545
 30
0.0
 11
433.3207292570775
 21
174.7738707477096
 31
0.0
  0
ARC
  5
10F8
330
2
100
AcDbEntity
  8
0
100
AcDbCircle
 10
424.2509302636724
 20
177.0918141962933
 30
0.0
 40
2.0
100
AcDbArc
 50
180.0
 51
267.9999999999959
  0
LINE
  5
10F9
330
2
100
AcDbEntity
  8
0
100
AcDbLine
 10
350.7509302636687
 20
187.7021032093393
 30
0.0
 11
417.2509302636743
 21
187.1217665013113
 31
0.0
  0
LINE
  5
10FA
330
2
100
AcDbEntity
  8
0
100
AcDbLine
 10
350.7509302636687
 20
105.7108300771641
 30
0.0
 11
417.2509302636724
 21
106.2911667852471
 31
0.0
  0
LINE
  5
10FB
330
2
100
AcDbEntity
  8
0
100
AcDbLine
 10
350.7509302636687
 20
105.7108300771641
 30
0.0
 11
350.7509302636687
 21
133.5833105992527
 31
0.0
  0
LINE
  5
10FC
330
2
100
AcDbEntity
  8
0
100
AcDbLine
 10
350.7509302636687
 20
161.2035130722878
 30
0.0
 11
350.7509302636687
 21
187.7021032093393
 31
0.0
  0
LINE
  5
10FD
330
2
100
AcDbEntity
  8
0
100
AcDbLine
 10
417.2509302636724
 20
111.7064666432856
 30
0.0
 11
422.2509302636724
 21
111.7064666432856
 31
0.0
  0
LINE
  5
10FE
330
2
100
AcDbEntity
  8
0
100
AcDbLine
 10
417.2509302636724
 20
181.7064666432856
 30
0.0
 11
422.2509302636724
 21
181.7064666432856
 31
0.0
  0
LINE
  5
10FF
330
2
100
AcDbEntity
  8
CENTER
100
AcDbLine
 10
374.2509302636651
 20
197.497021816277
 30
0.0
 11
374.2509302636651
 21
95.91591147024605
 31
0.0
  0
LINE
  5
1100
330
2
100
AcDbEntity
  8
CENTER
100
AcDbLine
 10
319.2509387177112
 20
146.7064666432806
 30
0.0
 11
458.2509302636706
 21
146.7064666432806
 31
0.0
  0
LINE
  5
1101
330
2
100
AcDbEntity
  8
0
100
AcDbLine
 10
340.2509302636687
 20
123.3243032903418
 30
0.0
 11
340.8995942171356
 21
123.3073174269319
 31
0.0
  0
LINE
  5
1102
330
2
100
AcDbEntity
  8
0
100
AcDbLine
 10
339.7509302636688
 20
176.2064666432992
 30
0.0
 11
339.7509302636688
 21
171.0036202547161
 31
0.0
  0
LINE
  5
1103
330
2
100
AcDbEntity
  8
0
100
AcDbLine
 10
339.7509302636688
 20
122.4093130318451
 30
0.0
 11
339.7509302636688
 21
117.2064666432619
 31
0.0
  0
LINE
  5
1104
330
2
100
AcDbEntity
  8
0
100
AcDbLine
 10
332.2509302636688
 20
123.7064666432806
 30
0.0
 11
331.2509302636688
 21
123.1291163740915
 31
0.0
  0
LINE
  5
1105
330
2
100
AcDbEntity
  8
0
100
AcDbLine
 10
332.2509302636742
 20
120.2064666432797
 30
0.0
 11
333.5509302636735
 21
120.2064666432797
 31
0.0
  0
LINE
  5
1106
330
2
100
AcDbEntity
  8
0
100
AcDbLine
 10
335.7509302636742
 20
120.4064666432804
 30
0.0
 11
335.9509302636731
 21
120.2064666432801
 31
0.0
  0
LINE
  5
1107
330
2
100
AcDbEntity
  8
0
100
AcDbLine
 10
333.9509302636731
 20
120.9064666432795
 30
0.0
 11
335.5509302636735
 21
120.9064666432804
 31
0.0
  0
LINE
  5
1108
330
2
100
AcDbEntity
  8
0
100
AcDbLine
 10
332.2509302636742
 20
120.2064666432797
 30
0.0
 11
331.2509302636742
 21
120.7838169124692
 31
0.0
  0
LINE
  5
1109
330
2
100
AcDbEntity
  8
0
100
AcDbLine
 10
339.2509302636688
 20
118.206466643286
 30
0.0
 11
339.7509302636742
 21
117.7064666432806
 31
0.0
  0
LINE
  5
110A
330
2
100
AcDbEntity
  8
0
100
AcDbLine
 10
335.9509302636731
 20
120.2064666432801
 30
0.0
 11
339.2509302636742
 21
120.2064666432806
 31
0.0
  0
LINE
  5
110B
330
2
100
AcDbEntity
  8
0
100
AcDbLine
 10
332.2509302636688
 20
123.7064666432806
 30
0.0
 11
340.2509302636687
 21
123.7064666432806
 31
0.0
  0
LINE
  5
110C
330
2
100
AcDbEntity
  8
0
100
AcDbLine
 10
331.2509302636688
 20
172.6291163740897
 30
0.0
 11
331.2509302636688
 21
161.2035130722878
 31
0.0
  0
LINE
  5
110D
330
2
100
AcDbEntity
  8
0
100
AcDbLine
 10
331.2509302636688
 20
132.2035130722878
 30
0.0
 11
331.2509302636688
 21
120.7838169124719
 31
0.0
  0
LINE
  5
110E
330
2
100
AcDbEntity
  8
0
100
AcDbLine
 10
332.2509302636688
 20
123.7064666432806
 30
0.0
 11
332.2509302636688
 21
132.2035130722878
 31
0.0
  0
LINE
  5
110F
330
2
100
AcDbEntity
  8
0
100
AcDbLine
 10
332.2509302636688
 20
161.2035130722878
 30
0.0
 11
332.2509302636688
 21
169.7064666432797
 31
0.0
  0
LINE
  5
1110
330
2
100
AcDbEntity
  8
0
100
AcDbLine
 10
340.2509302636687
 20
161.2035130722878
 30
0.0
 11
340.2509302636687
 21
170.0886299962193
 31
0.0
  0
LINE
  5
1111
330
2
100
AcDbEntity
  8
HIDS
  6
SEKKEI_H
100
AcDbLine
 10
342.6651438260439
 20
183.120680205653
 30
0.0
 11
340.3367167012954
 21
180.7922530809081
 31
0.0
  0
LINE
  5
1112
330
2
100
AcDbEntity
  8
0
100
AcDbLine
 10
343.2509302636706
 20
106.7064666432806
 30
0.0
 11
343.2509302636706
 21
132.0334712750963
 31
0.0
  0
LINE
  5
1113
330
2
100
AcDbEntity
  8
0
100
AcDbLine
 10
343.2509302636706
 20
161.3794620114658
 30
0.0
 11
343.2509302636706
 21
186.7064666432806
 31
0.0
  0
LINE
  5
1114
330
2
100
AcDbEntity
  8
0
100
AcDbLine
 10
350.7509302636687
 20
187.7064666432806
 30
0.0
 11
344.2509302636706
 21
187.7064666432806
 31
0.0
  0
LINE
  5
1115
330
2
100
AcDbEntity
  8
0
100
AcDbLine
 10
350.7509302636687
 20
187.7064666432815
 30
0.0
 11
350.7509302636687
 21
159.8296226873089
 31
0.0
  0
LINE
  5
1116
330
2
100
AcDbEntity
  8
0
100
AcDbLine
 10
350.7509302636687
 20
132.2035130722878
 30
0.0
 11
350.7509302636687
 21
105.7064666432806
 31
0.0
  0
LINE
  5
1117
330
2
100
AcDbEntity
  8
0
100
AcDbLine
 10
332.2509302636742
 20
173.2064666432815
 30
0.0
 11
331.2509302636742
 21
172.6291163740915
 31
0.0
  0
LINE
  5
1118
330
2
100
AcDbEntity
  8
0
100
AcDbLine
 10
335.7509302636742
 20
173.0064666432808
 30
0.0
 11
335.7509302636742
 21
171.0338248992001
 31
0.0
  0
LINE
  5
1119
330
2
100
AcDbEntity
  8
0
100
AcDbLine
 10
335.7509302636742
 20
122.3791083873611
 30
0.0
 11
335.7509302636742
 21
120.4064666432804
 31
0.0
  0
LINE
  5
111A
330
2
100
AcDbEntity
  8
0
100
AcDbLine
 10
333.9509302636731
 20
172.5064666432812
 30
0.0
 11
335.5509302636735
 21
172.5064666432808
 31
0.0
  0
LINE
  5
111B
330
2
100
AcDbEntity
  8
0
100
AcDbLine
 10
333.7509302636742
 20
173.0064666432817
 30
0.0
 11
333.750930263676
 21
171.1369765194116
 31
0.0
  0
LINE
  5
111C
330
2
100
AcDbEntity
  8
0
100
AcDbLine
 10
333.7509302637506
 20
122.2759567671627
 30
0.0
 11
333.7509302637524
 21
120.4064666432804
 31
0.0
  0
LINE
  5
111D
330
2
100
AcDbEntity
  8
0
100
AcDbLine
 10
332.2509302636688
 20
169.7064666432806
 30
0.0
 11
331.2509302636688
 21
170.2838169124697
 31
0.0
  0
LINE
  5
111E
330
2
100
AcDbEntity
  8
0
100
AcDbLine
 10
332.2509302636688
 20
169.7064666432797
 30
0.0
 11
340.2509302636687
 21
169.7064666432806
 31
0.0
  0
LINE
  5
111F
330
2
100
AcDbEntity
  8
0
100
AcDbLine
 10
335.7509302636742
 20
173.0064666432808
 30
0.0
 11
335.9509302636731
 21
173.2064666432806
 31
0.0
  0
LINE
  5
1120
330
2
100
AcDbEntity
  8
0
100
AcDbLine
 10
332.2509302636742
 20
173.2064666432815
 30
0.0
 11
333.5509302636735
 21
173.206466643281
 31
0.0
  0
LINE
  5
1121
330
2
100
AcDbEntity
  8
0
100
AcDbLine
 10
339.2509302636688
 20
118.206466643286
 30
0.0
 11
339.2509302636688
 21
122.2926616510298
 31
0.0
  0
LINE
  5
1122
330
2
100
AcDbEntity
  8
0
100
AcDbLine
 10
339.2509302636688
 20
171.1202716355314
 30
0.0
 11
339.2509302636688
 21
175.2064666432751
 31
0.0
  0
LINE
  5
1123
330
2
100
AcDbEntity
  8
0
100
AcDbLine
 10
339.2509302636742
 20
175.2064666432806
 30
0.0
 11
339.2509302636742
 21
173.2064666432806
 31
0.0
  0
LINE
  5
1124
330
2
100
AcDbEntity
  8
0
100
AcDbLine
 10
339.2509302636742
 20
175.2064666432806
 30
0.0
 11
339.7509302636742
 21
175.7064666432806
 31
0.0
  0
LINE
  5
1125
330
2
100
AcDbEntity
  8
0
100
AcDbLine
 10
335.9509302636731
 20
173.2064666432806
 30
0.0
 11
339.2509302636742
 21
173.2064666432806
 31
0.0
  0
ARC
  5
1126
330
2
100
AcDbEntity
  8
0
100
AcDbCircle
 10
344.2509302636706
 20
186.7064666432806
 30
0.0
 40
1.0
100
AcDbArc
 50
90.0
 51
180.0
  0
LINE
  5
1127
330
2
100
AcDbEntity
  8
0
100
AcDbLine
 10
340.2509302636687
 20
170.0886299962193
 30
0.0
 11
340.8995942171356
 21
170.1056158596292
 31
0.0
  0
ARC
  5
1128
330
2
100
AcDbEntity
  8
HIDS
  6
SEKKEI_H
100
AcDbCircle
 10
341.2509302636706
 20
184.5348937680268
 30
0.0
 40
2.0
100
AcDbArc
 50
314.9999999999447
 51
0.0
  0
ARC
  5
1129
330
2
100
AcDbEntity
  8
HIDS
  6
SEKKEI_H
100
AcDbCircle
 10
341.7509302636688
 20
179.3780395185339
 30
0.0
 40
2.0
100
AcDbArc
 50
134.9999999999444
 51
180.0
  0
LINE
  5
112A
330
2
100
AcDbEntity
  8
HIDS
  6
SEKKEI_H
100
AcDbLine
 10
342.6651438260439
 20
110.2922530809082
 30
0.0
 11
340.3367167012973
 21
112.620680205653
 31
0.0
  0
LINE
  5
112B
330
2
100
AcDbEntity
  8
0
100
AcDbLine
 10
350.7509302636687
 20
105.7064666432806
 30
0.0
 11
344.2509302636724
 21
105.7064666432806
 31
0.0
  0
ARC
  5
112C
330
2
100
AcDbEntity
  8
0
100
AcDbCircle
 10
344.2509302636724
 20
106.7064666432806
 30
0.0
 40
1.0
100
AcDbArc
 50
180.0
 51
270.0
  0
ARC
  5
112D
330
2
100
AcDbEntity
  8
HIDS
  6
SEKKEI_H
100
AcDbCircle
 10
341.2509302636706
 20
108.8780395185344
 30
0.0
 40
2.0
100
AcDbArc
 50
0.0
 51
45.00000000005555
  0
ARC
  5
112E
330
2
100
AcDbEntity
  8
HIDS
  6
SEKKEI_H
100
AcDbCircle
 10
341.7509302636688
 20
114.0348937680273
 30
0.0
 40
2.0
100
AcDbArc
 50
180.0
 51
225.0000000000552
  0
ARC
  5
112F
330
2
100
AcDbEntity
  8
0
100
AcDbCircle
 10
333.5509302636735
 20
173.0064666432808
 30
0.0
 40
0.2
100
AcDbArc
 50
0.0000000001302755
 51
90.0
  0
ARC
  5
1130
330
2
100
AcDbEntity
  8
0
100
AcDbCircle
 10
333.9509302636731
 20
172.7064666432815
 30
0.0
 40
0.2
100
AcDbArc
 50
180.0000000001302
 51
270.0
  0
ARC
  5
1131
330
2
100
AcDbEntity
  8
0
100
AcDbCircle
 10
335.5509302636735
 20
172.7064666432806
 30
0.0
 40
0.2
100
AcDbArc
 50
270.0
 51
0.0
  0
ARC
  5
1132
330
2
100
AcDbEntity
  8
0
100
AcDbCircle
 10
333.5509302636735
 20
120.4064666432795
 30
0.0
 40
0.2
100
AcDbArc
 50
270.0
 51
0.0000000001042204
  0
ARC
  5
1133
330
2
100
AcDbEntity
  8
0
100
AcDbCircle
 10
333.9509302636749
 20
120.7064666432797
 30
0.0
 40
0.2
100
AcDbArc
 50
90.0
 51
179.9999999998697
  0
ARC
  5
1134
330
2
100
AcDbEntity
  8
0
100
AcDbCircle
 10
335.5509302636735
 20
120.7064666432797
 30
0.0
 40
0.2
100
AcDbArc
 50
0.0
 51
90.0
  0
LINE
  5
1135
330
2
100
AcDbEntity
  8
0
100
AcDbLine
 10
332.2509302636742
 20
173.2064666432815
 30
0.0
 11
332.2509302636742
 21
171.6029807585345
 31
0.0
  0
LINE
  5
1136
330
2
100
AcDbEntity
  8
0
100
AcDbLine
 10
332.2509302636742
 20
121.8099525280267
 30
0.0
 11
332.2509302636742
 21
120.2064666432797
 31
0.0
  0
LINE
  5
1137
330
2
100
AcDbEntity
  8
0
100
AcDbLine
 10
335.9509302636731
 20
120.2064666432801
 30
0.0
 11
335.9509302636731
 21
122.3705759794447
 31
0.0
  0
LINE
  5
1138
330
2
100
AcDbEntity
  8
0
100
AcDbLine
 10
335.9509302636731
 20
171.0423573071165
 30
0.0
 11
335.9509302636731
 21
173.2064666432806
 31
0.0
  0
LINE
  5
1139
330
2
100
AcDbEntity
  8
0
100
AcDbLine
 10
417.2509302636743
 20
182.7064666433006
 30
0.0
 11
350.7509302636687
 21
182.7064666433006
 31
0.0
  0
LINE
  5
113A
330
2
100
AcDbEntity
  8
0
100
AcDbLine
 10
417.2509302636743
 20
179.7064666433006
 30
0.0
 11
350.7509302636687
 21
179.7064666433006
 31
0.0
  0
LINE
  5
113B
330
2
100
AcDbEntity
  8
0
100
AcDbLine
 10
417.2509302636743
 20
164.9985018091646
 30
0.0
 11
350.7509302636687
 21
164.9985018091646
 31
0.0
  0
LINE
  5
113C
330
2
100
AcDbEntity
  8
0
100
AcDbLine
 10
350.7509302636687
 20
182.7064666433006
 30
0.0
 11
343.2509302636706
 21
182.7064666433006
 31
0.0
  0
LINE
  5
113D
330
2
100
AcDbEntity
  8
0
100
AcDbLine
 10
350.7509302636687
 20
179.7064666433006
 30
0.0
 11
343.2509302636706
 21
179.7064666433006
 31
0.0
  0
LINE
  5
113E
330
2
100
AcDbEntity
  8
0
100
AcDbLine
 10
350.7509302636687
 20
164.9985018091646
 30
0.0
 11
343.2509302636706
 21
164.9985018091646
 31
0.0
  0
LINE
  5
113F
330
2
100
AcDbEntity
  8
0
100
AcDbLine
 10
417.2509302636743
 20
110.7064666432606
 30
0.0
 11
350.7509302636687
 21
110.7064666432606
 31
0.0
  0
LINE
  5
1140
330
2
100
AcDbEntity
  8
0
100
AcDbLine
 10
417.2509302636743
 20
113.7064666432606
 30
0.0
 11
350.7509302636687
 21
113.7064666432606
 31
0.0
  0
LINE
  5
1141
330
2
100
AcDbEntity
  8
0
100
AcDbLine
 10
417.2509302636743
 20
128.4144314773965
 30
0.0
 11
350.7509302636687
 21
128.4144314773965
 31
0.0
  0
LINE
  5
1142
330
2
100
AcDbEntity
  8
0
100
AcDbLine
 10
350.7509302636687
 20
110.7064666432606
 30
0.0
 11
343.2509302636706
 21
110.7064666432606
 31
0.0
  0
LINE
  5
1143
330
2
100
AcDbEntity
  8
0
100
AcDbLine
 10
350.7509302636687
 20
113.7064666432606
 30
0.0
 11
343.2509302636706
 21
113.7064666432606
 31
0.0
  0
LINE
  5
1144
330
2
100
AcDbEntity
  8
0
100
AcDbLine
 10
350.7509302636687
 20
128.4144314773965
 30
0.0
 11
343.2509302636706
 21
128.4144314773965
 31
0.0
  0
LINE
  5
1145
330
2
100
AcDbEntity
  8
CENTER
  6
CENS
100
AcDbLine
 10
330.7509302636706
 20
181.2064666432992
 30
0.0
 11
355.8136770078169
 21
181.2064666432992
 31
0.0
  0
LINE
  5
1146
330
2
100
AcDbEntity
  8
0
100
AcDbLine
 10
341.7509302636724
 20
176.2064666432992
 30
0.0
 11
336.150930263672
 21
176.2064666432992
 31
0.0
  0
LINE
  5
1147
330
2
100
AcDbEntity
  8
0
100
AcDbLine
 10
341.7509302636724
 20
186.2064666432992
 30
0.0
 11
336.150930263672
 21
186.2064666432992
 31
0.0
  0
LINE
  5
1148
330
2
100
AcDbEntity
  8
0
100
AcDbLine
 10
341.7509302636724
 20
186.2064666432992
 30
0.0
 11
341.7509302636724
 21
176.2064666432997
 31
0.0
  0
LINE
  5
1149
330
2
100
AcDbEntity
  8
0
100
AcDbLine
 10
335.7509302636724
 20
185.5136463202715
 30
0.0
 11
335.7509302636706
 21
176.899286966327
 31
0.0
  0
LINE
  5
114A
330
2
100
AcDbEntity
  8
0
100
AcDbLine
 10
336.150930263672
 20
186.2064666432992
 30
0.0
 11
336.150930263672
 21
176.2064666432992
 31
0.0
  0
LINE
  5
114B
330
2
100
AcDbEntity
  8
0
100
AcDbLine
 10
336.150930263672
 20
186.2064666432992
 30
0.0
 11
335.7509302636724
 21
185.5136463202715
 31
0.0
  0
LINE
  5
114C
330
2
100
AcDbEntity
  8
0
100
AcDbLine
 10
336.150930263672
 20
176.2064666432992
 30
0.0
 11
335.7509302636724
 21
176.899286966327
 31
0.0
  0
LINE
  5
114D
330
2
100
AcDbEntity
  8
0
100
AcDbLine
 10
341.7509302636706
 20
186.2064666432992
 30
0.0
 11
343.2509302636706
 21
186.2064666432992
 31
0.0
  0
LINE
  5
114E
330
2
100
AcDbEntity
  8
0
100
AcDbLine
 10
341.7509302636706
 20
176.2064666432992
 30
0.0
 11
343.2509302636706
 21
176.2064666432992
 31
0.0
  0
LINE
  5
114F
330
2
100
AcDbEntity
  8
HIDS
  6
SEKKEI_H
100
AcDbLine
 10
339.7509302636688
 20
176.2064666432992
 30
0.0
 11
339.7509302636688
 21
179.3780395185339
 31
0.0
  0
LINE
  5
1150
330
2
100
AcDbEntity
  8
CENTER
  6
CENS
100
AcDbLine
 10
330.7509302636706
 20
112.2064666432619
 30
0.0
 11
355.8136770078169
 21
112.2064666432619
 31
0.0
  0
LINE
  5
1151
330
2
100
AcDbEntity
  8
0
100
AcDbLine
 10
341.7509302636724
 20
117.2064666432619
 30
0.0
 11
336.150930263672
 21
117.2064666432619
 31
0.0
  0
LINE
  5
1152
330
2
100
AcDbEntity
  8
0
100
AcDbLine
 10
341.7509302636724
 20
107.2064666432619
 30
0.0
 11
336.150930263672
 21
107.2064666432619
 31
0.0
  0
LINE
  5
1153
330
2
100
AcDbEntity
  8
0
100
AcDbLine
 10
341.7509302636724
 20
107.2064666432619
 30
0.0
 11
341.7509302636724
 21
117.2064666432615
 31
0.0
  0
LINE
  5
1154
330
2
100
AcDbEntity
  8
0
100
AcDbLine
 10
335.7509302636724
 20
107.8992869662897
 30
0.0
 11
335.7509302636706
 21
116.5136463202342
 31
0.0
  0
LINE
  5
1155
330
2
100
AcDbEntity
  8
0
100
AcDbLine
 10
336.150930263672
 20
107.2064666432619
 30
0.0
 11
336.150930263672
 21
117.2064666432619
 31
0.0
  0
LINE
  5
1156
330
2
100
AcDbEntity
  8
0
100
AcDbLine
 10
336.150930263672
 20
107.2064666432619
 30
0.0
 11
335.7509302636724
 21
107.8992869662897
 31
0.0
  0
LINE
  5
1157
330
2
100
AcDbEntity
  8
0
100
AcDbLine
 10
336.150930263672
 20
117.2064666432619
 30
0.0
 11
335.7509302636724
 21
116.5136463202342
 31
0.0
  0
LINE
  5
1158
330
2
100
AcDbEntity
  8
0
100
AcDbLine
 10
341.7509302636706
 20
107.2064666432619
 30
0.0
 11
343.2509302636706
 21
107.2064666432619
 31
0.0
  0
LINE
  5
1159
330
2
100
AcDbEntity
  8
0
100
AcDbLine
 10
341.7509302636706
 20
117.2064666432619
 30
0.0
 11
343.2509302636706
 21
117.2064666432619
 31
0.0
  0
LINE
  5
115A
330
2
100
AcDbEntity
  8
HIDS
  6
SEKKEI_H
100
AcDbLine
 10
339.7509302636688
 20
117.2064666432619
 30
0.0
 11
339.7509302636688
 21
114.0348937680273
 31
0.0
  0
LINE
  5
115B
330
2
100
AcDbEntity
  8
0
100
AcDbLine
 10
329.2509387177112
 20
161.2035130722878
 30
0.0
 11
329.2509387177112
 21
132.2035130722878
 31
0.0
  0
LINE
  5
115C
330
2
100
AcDbEntity
  8
0
100
AcDbLine
 10
448.2509302636706
 20
161.2064206432809
 30
0.0
 11
448.2509302636706
 21
132.2064206432805
 31
0.0
  0
LINE
  5
115D
330
2
100
AcDbEntity
  8
0
100
AcDbLine
 10
421.2509302636706
 20
156.2064206432805
 30
0.0
 11
421.2509302636706
 21
137.2064206432805
 31
0.0
  0
LINE
  5
115E
330
2
100
AcDbEntity
  8
CENTER
  6
CENS
100
AcDbLine
 10
440.2509302636706
 20
152.4703976016107
 30
0.0
 11
440.2509302636706
 21
165.9747182443392
 31
0.0
  0
LINE
  5
115F
330
2
100
AcDbEntity
  8
0
100
AcDbLine
 10
425.0804673847385
 20
132.2064206432805
 30
0.0
 11
448.2509302636706
 21
132.2064206432805
 31
0.0
  0
LINE
  5
1160
330
2
100
AcDbEntity
  8
0
100
AcDbLine
 10
343.3931727603492
 20
132.2035130722878
 30
0.0
 11
329.2509387177112
 21
132.2035130722878
 31
0.0
  0
LINE
  5
1161
330
2
100
AcDbEntity
  8
0
100
AcDbLine
 10
329.2509387177112
 20
158.5064206432807
 30
0.0
 11
448.2509302636706
 21
158.5064206432807
 31
0.0
  0
LINE
  5
1162
330
2
100
AcDbEntity
  8
0
100
AcDbLine
 10
421.2509302636706
 20
137.7064206432809
 30
0.0
 11
431.2509302636706
 21
137.7064206432809
 31
0.0
  0
LINE
  5
1163
330
2
100
AcDbEntity
  8
0
100
AcDbLine
 10
421.2509302636706
 20
155.7064206432805
 30
0.0
 11
431.2509302636706
 21
155.7064206432805
 31
0.0
  0
LINE
  5
1164
330
2
100
AcDbEntity
  8
0
100
AcDbLine
 10
425.080438913196
 20
161.2064206432809
 30
0.0
 11
448.2509302636706
 21
161.2064206432809
 31
0.0
  0
LINE
  5
1165
330
2
100
AcDbEntity
  8
0
100
AcDbLine
 10
437.2509302636706
 20
156.2064206432805
 30
0.0
 11
443.2509302636706
 21
156.2064206432805
 31
0.0
  0
LINE
  5
1166
330
2
100
AcDbEntity
  8
0
100
AcDbLine
 10
437.2509302636706
 20
137.2064206432809
 30
0.0
 11
443.2509302636706
 21
137.2064206432809
 31
0.0
  0
LINE
  5
1167
330
2
100
AcDbEntity
  8
0
100
AcDbLine
 10
443.2509302636706
 20
137.2064206432809
 30
0.0
 11
443.2509302636706
 21
156.2064206432805
 31
0.0
  0
LINE
  5
1168
330
2
100
AcDbEntity
  8
0
100
AcDbLine
 10
446.2509302636706
 20
155.7064206432805
 30
0.0
 11
446.2509302636724
 21
137.7064206432814
 31
0.0
  0
LINE
  5
1169
330
2
100
AcDbEntity
  8
0
100
AcDbLine
 10
448.2509302636724
 20
136.5517201049023
 30
0.0
 11
446.2509302636724
 21
137.7064206432814
 31
0.0
  0
LINE
  5
116A
330
2
100
AcDbEntity
  8
0
100
AcDbLine
 10
443.2509302636706
 20
137.7064206432809
 30
0.0
 11
446.2509302636706
 21
137.7064206432809
 31
0.0
  0
LINE
  5
116B
330
2
100
AcDbEntity
  8
0
100
AcDbLine
 10
448.2509302636706
 20
156.8611211816596
 30
0.0
 11
446.2509302636706
 21
155.7064206432805
 31
0.0
  0
LINE
  5
116C
330
2
100
AcDbEntity
  8
0
100
AcDbLine
 10
443.2509302636706
 20
155.7064206432805
 30
0.0
 11
446.2509302636706
 21
155.7064206432805
 31
0.0
  0
LINE
  5
116D
330
2
100
AcDbEntity
  8
0
100
AcDbLine
 10
437.2509302636706
 20
137.2064206432809
 30
0.0
 11
437.2509302636706
 21
156.2064206432805
 31
0.0
  0
LINE
  5
116E
330
2
100
AcDbEntity
  8
0
100
AcDbLine
 10
432.4009302636721
 20
156.2064206432805
 30
0.0
 11
432.4009302636721
 21
137.2064206432805
 31
0.0
  0
LINE
  5
116F
330
2
100
AcDbEntity
  8
0
100
AcDbLine
 10
431.2509302636706
 20
156.2064206432805
 30
0.0
 11
431.2509302636706
 21
137.2064206432805
 31
0.0
  0
LINE
  5
1170
330
2
100
AcDbEntity
  8
0
100
AcDbLine
 10
432.4009302636721
 20
137.7064206432809
 30
0.0
 11
437.2509302636706
 21
137.7064206432805
 31
0.0
  0
LINE
  5
1171
330
2
100
AcDbEntity
  8
0
100
AcDbLine
 10
432.4009302636721
 20
155.7064206432805
 30
0.0
 11
437.2509302636706
 21
155.7064206432805
 31
0.0
  0
LINE
  5
1172
330
2
100
AcDbEntity
  8
0
100
AcDbLine
 10
417.2509302636706
 20
161.7064206432805
 30
0.0
 11
417.2509302636706
 21
161.2064206432805
 31
0.0
  0
LINE
  5
1173
330
2
100
AcDbEntity
  8
0
100
AcDbLine
 10
417.2509302636706
 20
132.2064206432805
 30
0.0
 11
417.2509302636706
 21
131.7064206432805
 31
0.0
  0
LINE
  5
1174
330
2
100
AcDbEntity
  8
0
100
AcDbLine
 10
343.398448236762
 20
161.2035130722878
 30
0.0
 11
329.2509387177112
 21
161.2035130722878
 31
0.0
  0
LINE
  5
1175
330
2
100
AcDbEntity
  8
0
100
AcDbLine
 10
352.2509387177112
 20
156.2064206432805
 30
0.0
 11
352.2509387177112
 21
137.2064206432805
 31
0.0
  0
LINE
  5
1176
330
2
100
AcDbEntity
  8
0
100
AcDbLine
 10
331.2509387177112
 20
155.7064666432806
 30
0.0
 11
331.2509387177112
 21
137.7064666432806
 31
0.0
  0
LINE
  5
1177
330
2
100
AcDbEntity
  8
0
100
AcDbLine
 10
340.1009387177116
 20
156.2035130722878
 30
0.0
 11
340.1009387177116
 21
137.2035130722878
 31
0.0
  0
LINE
  5
1178
330
2
100
AcDbEntity
  8
0
100
AcDbLine
 10
341.2509387177113
 20
156.2035130722878
 30
0.0
 11
341.2509387177113
 21
137.2035130722878
 31
0.0
  0
LINE
  5
1179
330
2
100
AcDbEntity
  8
0
100
AcDbLine
 10
331.2509387177112
 20
137.7064666432806
 30
0.0
 11
329.2509387177112
 21
136.5517661049015
 31
0.0
  0
LINE
  5
117A
330
2
100
AcDbEntity
  8
0
100
AcDbLine
 10
331.2509387177112
 20
155.7064666432806
 30
0.0
 11
329.2509387177112
 21
156.8611671816597
 31
0.0
  0
LINE
  5
117B
330
2
100
AcDbEntity
  8
0
100
AcDbLine
 10
442.3009302631551
 20
158.5064206432807
 30
0.0
 11
442.3009302631551
 21
161.2064206432809
 31
0.0
  0
LINE
  5
117C
330
2
100
AcDbEntity
  8
0
100
AcDbLine
 10
438.2009302641879
 20
158.5064206432807
 30
0.0
 11
438.2009302641879
 21
161.2064206432809
 31
0.0
  0
LINE
  5
117D
330
2
100
AcDbEntity
  8
HOJO
100
AcDbLine
 10
442.7509302636706
 20
158.5064206432807
 30
0.0
 11
442.7509302636706
 21
161.2064206432809
 31
0.0
  0
LINE
  5
117E
330
2
100
AcDbEntity
  8
HOJO
100
AcDbLine
 10
437.7509302636743
 20
158.5064206432807
 30
0.0
 11
437.7509302636743
 21
161.2064206432809
 31
0.0
  0
LINE
  5
117F
330
2
100
AcDbEntity
  8
0
100
AcDbLine
 10
431.2509302636706
 20
156.2064206432805
 30
0.0
 11
432.4009302636721
 21
156.2064206432805
 31
0.0
  0
LINE
  5
1180
330
2
100
AcDbEntity
  8
0
100
AcDbLine
 10
431.2509302636706
 20
137.2064206432805
 30
0.0
 11
432.4009302636721
 21
137.2064206432805
 31
0.0
  0
LINE
  5
1181
330
2
100
AcDbEntity
  8
0
100
AcDbLine
 10
340.1009387177116
 20
156.2035130722878
 30
0.0
 11
341.2509387177113
 21
156.2035130722878
 31
0.0
  0
LINE
  5
1182
330
2
100
AcDbEntity
  8
0
100
AcDbLine
 10
340.1009387177116
 20
137.2035130722878
 30
0.0
 11
341.2509387177113
 21
137.2035130722878
 31
0.0
  0
LINE
  5
1183
330
2
100
AcDbEntity
  8
0
100
AcDbLine
 10
352.2509387177112
 20
156.2064206432805
 30
0.0
 11
421.2509302636706
 21
156.2064206432805
 31
0.0
  0
LINE
  5
1184
330
2
100
AcDbEntity
  8
0
100
AcDbLine
 10
421.2509302636706
 20
137.2064206432805
 30
0.0
 11
352.2509387177112
 21
137.2064206432805
 31
0.0
  0
LINE
  5
1185
330
2
100
AcDbEntity
  8
0
100
AcDbLine
 10
352.2509387177112
 20
155.7064666432806
 30
0.0
 11
341.2509387177113
 21
155.7064666432806
 31
0.0
  0
LINE
  5
1186
330
2
100
AcDbEntity
  8
0
100
AcDbLine
 10
352.2509387177112
 20
137.7064666432806
 30
0.0
 11
341.2509387177113
 21
137.7064666432806
 31
0.0
  0
LINE
  5
1187
330
2
100
AcDbEntity
  8
0
100
AcDbLine
 10
340.1009387177116
 20
155.7064666432806
 30
0.0
 11
331.2509387177112
 21
155.7064666432806
 31
0.0
  0
LINE
  5
1188
330
2
100
AcDbEntity
  8
0
100
AcDbLine
 10
340.1009387177116
 20
137.7064666432806
 30
0.0
 11
331.2509387177112
 21
137.7064666432806
 31
0.0
  0
LINE
  5
1189
330
2
100
AcDbEntity
  8
0
100
AcDbLine
 10
434.2509302636724
 20
123.7064666432806
 30
0.0
 11
434.2509302636724
 21
132.2064206432805
 31
0.0
  0
LINE
  5
118A
330
2
100
AcDbEntity
  8
0
100
AcDbLine
 10
434.2509302636724
 20
161.2064206432809
 30
0.0
 11
434.2509302636724
 21
169.7064666432797
 31
0.0
  0
LINE
  5
118B
330
2
100
AcDbEntity
  8
0
100
AcDbLine
 10
426.2509302636724
 20
123.442139937404
 30
0.0
 11
426.2509302636724
 21
132.2064206432805
 31
0.0
  0
LINE
  5
118C
330
2
100
AcDbEntity
  8
0
100
AcDbLine
 10
426.2509302636724
 20
161.2064206432809
 30
0.0
 11
426.2509302636724
 21
169.9707933491571
 31
0.0
  0
LINE
  5
118D
330
2
100
AcDbEntity
  8
0
100
AcDbLine
 10
434.2509302636724
 20
123.7064666432806
 30
0.0
 11
426.2509302636724
 21
123.7064666432806
 31
0.0
  0
LINE
  5
118E
330
2
100
AcDbEntity
  8
0
100
AcDbLine
 10
434.2509302636724
 20
123.7064666432806
 30
0.0
 11
435.2509302636724
 21
123.129116374091
 31
0.0
  0
LINE
  5
118F
330
2
100
AcDbEntity
  8
0
100
AcDbLine
 10
426.2509302636724
 20
123.442139937404
 30
0.0
 11
425.2600180473953
 21
123.4161919878264
 31
0.0
  0
LINE
  5
1190
330
2
100
AcDbEntity
  8
0
100
AcDbLine
 10
434.2509302636724
 20
169.7064666432797
 30
0.0
 11
426.2509302636724
 21
169.7064666432797
 31
0.0
  0
LINE
  5
1191
330
2
100
AcDbEntity
  8
0
100
AcDbLine
 10
434.2509302636724
 20
169.7064666432806
 30
0.0
 11
435.2509302636724
 21
170.2838169124697
 31
0.0
  0
LINE
  5
1192
330
2
100
AcDbEntity
  8
0
100
AcDbLine
 10
426.2509302636724
 20
169.9707933491571
 30
0.0
 11
425.2600180473753
 21
169.9967412987352
 31
0.0
  0
SPLINE
  5
1193
330
2
100
AcDbEntity
  8
HOJO
100
AcDbSpline
210
0.0
220
0.0
230
1.0
 70
     8
 71
     3
 72
    30
 73
    26
 74
     0
 42
0.0000000001
 43
0.0000000001
 40
0.5016654732119501
 40
0.5016654732119501
 40
0.5016654732119501
 40
0.5016654732119501
 40
2.680955593237801
 40
6.481103170843645
 40
9.861715666174537
 40
12.67866478189151
 40
16.05777144949662
 40
20.04695970870067
 40
22.66457515320929
 40
29.72623868189037
 40
37.99790621919433
 40
46.99071548625449
 40
54.49076198617444
 40
61.82498628838093
 40
69.45839622923616
 40
80.97138657320707
 40
88.08160211842633
 40
97.70908643514403
 40
100.9862254185234
 40
104.809996963859
 40
108.9004570007386
 40
112.9568108017827
 40
116.4247884416666
 40
119.9571556713895
 40
122.4205000303466
 40
122.4205000303466
 40
122.4205000303466
 40
122.4205000303466
 10
331.2509302636688
 20
172.0822618792516
 30
0.0
 10
331.910142709369
 20
171.7434070720122
 30
0.0
 10
333.7281470113346
 20
170.8814335314545
 30
0.0
 10
336.7871658518549
 20
171.0874374314939
 30
0.0
 10
340.6856091831002
 20
171.3891106172608
 30
0.0
 10
341.8065708392703
 20
167.8370005180112
 30
0.0
 10
341.9472250661335
 20
164.6589705950418
 30
0.0
 10
342.8361099605924
 20
161.0415608455018
 30
0.0
 10
347.2963063808299
 20
159.0414337924066
 30
0.0
 10
353.3306755728087
 20
160.6558605941645
 30
0.0
 10
361.4229115360656
 20
159.0332945154431
 30
0.0
 10
369.6314128767014
 20
161.4033242414934
 30
0.0
 10
377.53413950368
 20
159.1451530350941
 30
0.0
 10
384.9836856350437
 20
161.3030512770191
 30
0.0
 10
393.7599180094919
 20
158.9402069291212
 30
0.0
 10
402.5082986524418
 20
161.4537276719056
 30
0.0
 10
411.9215167183145
 20
158.6102691877412
 30
0.0
 10
418.2725037047682
 20
161.6672023416594
 30
0.0
 10
424.4185667404606
 20
158.46404352137
 30
0.0
 10
425.9148379089717
 20
163.5048795745373
 30
0.0
 10
424.013268253452
 20
166.8417759623939
 30
0.0
 10
425.3990832556053
 20
171.41217893294
 30
0.0
 10
429.4466959920089
 20
171.9165385303399
 30
0.0
 10
432.5627911755844
 20
171.5910655993342
 30
0.0
 10
434.470831291627
 20
172.1825295473826
 30
0.0
 10
435.2509302636724
 20
172.4716057590603
 30
0.0
  0
SPLINE
  5
1194
330
2
100
AcDbEntity
  8
HOJO
100
AcDbSpline
210
0.0
220
0.0
230
1.0
 70
     8
 71
     3
 72
    30
 73
    26
 74
     0
 42
0.0000000001
 43
0.0000000001
 40
0.5016654732119501
 40
0.5016654732119501
 40
0.5016654732119501
 40
0.5016654732119501
 40
2.680955593237801
 40
6.481103170843645
 40
9.861715666174537
 40
12.67866478189151
 40
16.05777144949662
 40
20.04695970870067
 40
22.66457515320929
 40
29.72623868189037
 40
37.99790621919433
 40
46.99071548625449
 40
54.49076198617444
 40
61.82498628838093
 40
69.45839622923616
 40
80.97138657320707
 40
88.08160211842633
 40
97.70908643514403
 40
100.9862254185234
 40
104.809996963859
 40
108.9004570007386
 40
112.9568108017827
 40
116.4247884416666
 40
119.9571556713895
 40
122.4205000303466
 40
122.4205000303466
 40
122.4205000303466
 40
122.4205000303466
 10
331.2509302636688
 20
121.3306714073095
 30
0.0
 10
331.910142709369
 20
121.6695262145489
 30
0.0
 10
333.7281470113346
 20
122.5314997551067
 30
0.0
 10
336.7871658518549
 20
122.3254958550673
 30
0.0
 10
340.6856091831002
 20
122.0238226693003
 30
0.0
 10
341.8065708392703
 20
125.5759327685499
 30
0.0
 10
341.9472250661335
 20
128.7539626915194
 30
0.0
 10
342.8361099605924
 20
132.3713724410594
 30
0.0
 10
347.2963063808299
 20
134.3714994941546
 30
0.0
 10
353.3306755728087
 20
132.7570726923967
 30
0.0
 10
361.4229115360656
 20
134.379638771118
 30
0.0
 10
369.6314128767014
 20
132.0096090450678
 30
0.0
 10
377.53413950368
 20
134.2677802514671
 30
0.0
 10
384.9836856350437
 20
132.1098820095421
 30
0.0
 10
393.7599180094919
 20
134.4727263574399
 30
0.0
 10
402.5082986524418
 20
131.9592056146556
 30
0.0
 10
411.9215167183145
 20
134.80266409882
 30
0.0
 10
418.2725037047682
 20
131.7457309449018
 30
0.0
 10
424.4185667404606
 20
134.9488897651912
 30
0.0
 10
425.9148379089717
 20
129.9080537120238
 30
0.0
 10
424.013268253452
 20
126.5711573241673
 30
0.0
 10
425.3990832556053
 20
122.0007543536211
 30
0.0
 10
429.4466959920089
 20
121.4963947562213
 30
0.0
 10
432.5627911755844
 20
121.8218676872269
 30
0.0
 10
434.470831291627
 20
121.2304037391785
 30
0.0
 10
435.2509302636724
 20
120.9413275275009
 30
0.0
  0
LINE
  5
1195
330
2
100
AcDbEntity
  8
0
100
AcDbLine
 10
340.2509302636687
 20
132.2094202142733
 30
0.0
 11
340.2509302636687
 21
123.3243032903418
 31
0.0
  0
LINE
  5
1196
330
2
100
AcDbEntity
  8
0
100
AcDbLine
 10
434.2509302636706
 20
169.7064666432797
 30
0.0
 11
426.2509302636724
 21
161.2064206432809
 31
0.0
  0
LINE
  5
1197
330
2
100
AcDbEntity
  8
0
100
AcDbLine
 10
426.2509302636724
 20
169.7064666432797
 30
0.0
 11
434.2509302636724
 21
161.2064206432809
 31
0.0
  0
LINE
  5
1198
330
2
100
AcDbEntity
  8
0
100
AcDbLine
 10
434.2509302636724
 20
132.2064206432805
 30
0.0
 11
426.2509302636724
 21
123.7064666432806
 31
0.0
  0
LINE
  5
1199
330
2
100
AcDbEntity
  8
0
100
AcDbLine
 10
426.2509302636724
 20
132.2064206432805
 30
0.0
 11
434.2509302636724
 21
123.7064666432806
 31
0.0
  0
LINE
  5
119A
330
2
100
AcDbEntity
  8
0
100
AcDbLine
 10
340.2509302636687
 20
132.2035130722878
 30
0.0
 11
332.2509302636688
 21
123.7064666432806
 31
0.0
  0
LINE
  5
119B
330
2
100
AcDbEntity
  8
0
100
AcDbLine
 10
332.2509302636688
 20
132.2035130722878
 30
0.0
 11
340.2509302636687
 21
123.7064666432806
 31
0.0
  0
LINE
  5
119C
330
2
100
AcDbEntity
  8
0
100
AcDbLine
 10
332.2509302636688
 20
169.7064666432797
 30
0.0
 11
340.2509302636687
 21
161.2035130722878
 31
0.0
  0
LINE
  5
119D
330
2
100
AcDbEntity
  8
0
100
AcDbLine
 10
340.2509302636687
 20
169.7064666432806
 30
0.0
 11
332.2509302636688
 21
161.2035130722878
 31
0.0
  0
LINE
  5
119E
330
2
100
AcDbEntity
  8
0
100
AcDbLine
 10
284.1656337244364
 20
391.2538032363695
 30
0.0
 11
284.1656337244364
 21
362.2538032363694
 31
0.0
  0
LINE
  5
119F
330
2
100
AcDbEntity
  8
0
100
AcDbLine
 10
403.1656252703966
 20
391.2567108073626
 30
0.0
 11
403.1656252703966
 21
362.2567108073621
 31
0.0
  0
LINE
  5
11A0
330
2
100
AcDbEntity
  8
0
100
AcDbLine
 10
390.1656252703958
 20
362.2567108073621
 30
0.0
 11
403.1656252703966
 21
362.2567108073621
 31
0.0
  0
LINE
  5
11A1
330
2
100
AcDbEntity
  8
0
100
AcDbLine
 10
286.1656252703939
 20
362.2538032363694
 30
0.0
 11
284.1656337244364
 21
362.2538032363694
 31
0.0
  0
LINE
  5
11A2
330
2
100
AcDbEntity
  8
0
100
AcDbLine
 10
390.1656252703976
 20
391.2567108073626
 30
0.0
 11
403.1656252703966
 21
391.2567108073626
 31
0.0
  0
LINE
  5
11A3
330
2
100
AcDbEntity
  8
0
100
AcDbLine
 10
286.1656252703939
 20
391.2538032363695
 30
0.0
 11
284.1656337244364
 21
391.2538032363695
 31
0.0
  0
CIRCLE
  5
11A4
330
2
100
AcDbEntity
  8
0
100
AcDbCircle
 10
395.1656252703967
 20
376.7567108073622
 30
0.0
 40
2.049999999999999
  0
CIRCLE
  5
11A5
330
2
100
AcDbEntity
  8
HOJO
100
AcDbCircle
 10
395.1656252703967
 20
376.7567610219789
 30
0.0
 40
2.5
  0
LINE
  5
11A6
330
2
100
AcDbEntity
  8
CENTER
100
AcDbLine
 10
395.1656252703958
 20
381.8582291921048
 30
0.0
 11
395.1656252703958
 21
371.6552844226198
 31
0.0
  0
LINE
  5
11A7
330
2
100
AcDbEntity
  8
0
100
AcDbLine
 10
536.6416517030791
 20
696.6540158794664
 30
0.0
 11
565.641651703079
 21
696.6540158794664
 31
0.0
  0
LINE
  5
11A8
330
2
100
AcDbEntity
  8
0
100
AcDbLine
 10
536.6387441320855
 20
577.6540243335066
 30
0.0
 11
565.6387441320864
 21
577.6540243335066
 31
0.0
  0
LINE
  5
11A9
330
2
100
AcDbEntity
  8
0
100
AcDbLine
 10
565.6387441320864
 20
590.6540243335075
 30
0.0
 11
565.6387441320864
 21
577.6540243335066
 31
0.0
  0
LINE
  5
11AA
330
2
100
AcDbEntity
  8
0
100
AcDbLine
 10
565.641651703079
 20
694.6540243335089
 30
0.0
 11
565.641651703079
 21
696.6540158794664
 31
0.0
  0
LINE
  5
11AB
330
2
100
AcDbEntity
  8
0
100
AcDbLine
 10
536.6387441320855
 20
590.6540243335062
 30
0.0
 11
536.6387441320855
 21
577.6540243335066
 31
0.0
  0
LINE
  5
11AC
330
2
100
AcDbEntity
  8
0
100
AcDbLine
 10
536.6416517030791
 20
694.6540243335089
 30
0.0
 11
536.6416517030791
 21
696.6540158794664
 31
0.0
  0
CIRCLE
  5
11AD
330
2
100
AcDbEntity
  8
0
100
AcDbCircle
 10
551.1387441320864
 20
585.6540243335066
 30
0.0
 40
2.049999999999999
  0
CIRCLE
  5
11AE
330
2
100
AcDbEntity
  8
HOJO
100
AcDbCircle
 10
551.1386939174697
 20
585.6540243335066
 30
0.0
 40
2.5
  0
LINE
  5
11AF
330
2
100
AcDbEntity
  8
CENTER
100
AcDbLine
 10
546.0372257473443
 20
585.6540243335075
 30
0.0
 11
556.2401705168283
 21
585.6540243335075
 31
0.0
  0
ARC
  5
11B0
330
2
100
AcDbEntity
  8
0
100
AcDbCircle
 10
551.1386981320827
 20
376.7567568073764
 30
0.0
 40
8.999999999999982
100
AcDbArc
 50
109.4712206344713
 51
70.52877936552867
  0
LINE
  5
11B1
330
2
100
AcDbEntity
  8
0
100
AcDbLine
 10
548.1386981320826
 20
388.5567568073765
 30
0.0
 11
554.1386981320827
 21
388.5567568073765
 31
0.0
  0
LINE
  5
11B2
330
2
100
AcDbEntity
  8
0
100
AcDbLine
 10
548.1386981320826
 20
388.5567568073765
 30
0.0
 11
548.1386981320826
 21
385.242038181615
 31
0.0
  0
LINE
  5
11B3
330
2
100
AcDbEntity
  8
0
100
AcDbLine
 10
554.1386981320827
 20
388.5567568073765
 30
0.0
 11
554.1386981320836
 21
385.2420381816145
 31
0.0
  0
CIRCLE
  5
11B4
330
2
100
AcDbEntity
  8
0
100
AcDbCircle
 10
551.1386981320827
 20
376.7567568073768
 30
0.0
 40
14.4999539999859
  0
ARC
  5
11B5
330
2
100
AcDbEntity
  8
0
100
AcDbCircle
 10
551.1386981320936
 20
376.7567568073877
 30
0.0
 40
10.15465453835361
100
AcDbArc
 50
107.1833853173834
 51
72.81661468272353
  0
ARC
  5
11B6
330
2
100
AcDbEntity
  8
0
100
AcDbCircle
 10
167.4177326429669
 20
376.7567568073832
 30
0.0
 40
8.999999999999982
100
AcDbArc
 50
109.4712206344713
 51
70.52877936552867
  0
LINE
  5
11B7
330
2
100
AcDbEntity
  8
0
100
AcDbLine
 10
164.4177326429669
 20
388.5567568073834
 30
0.0
 11
170.4177326429669
 21
388.5567568073834
 31
0.0
  0
LINE
  5
11B8
330
2
100
AcDbEntity
  8
0
100
AcDbLine
 10
164.4177326429669
 20
388.5567568073834
 30
0.0
 11
164.4177326429669
 21
385.2420381816218
 31
0.0
  0
LINE
  5
11B9
330
2
100
AcDbEntity
  8
0
100
AcDbLine
 10
170.4177326429669
 20
388.5567568073834
 30
0.0
 11
170.4177326429678
 21
385.2420381816214
 31
0.0
  0
ARC
  5
11BA
330
2
100
AcDbEntity
  8
0
100
AcDbCircle
 10
167.4177326429778
 20
376.7567568073946
 30
0.0
 40
10.15465453835361
100
AcDbArc
 50
107.1833853173834
 51
72.81661468272353
  0
CIRCLE
  5
11BB
330
2
100
AcDbEntity
  8
0
100
AcDbCircle
 10
167.4177326429669
 20
376.7567568073836
 30
0.0
 40
14.4999539999859
  0
LINE
  5
11BD
330
2
100
AcDbEntity
  8
0
100
AcDbLine
 10
591.7236167390263
 20
675.1540243308459
 30
0.0
 11
591.9286981320863
 21
651.6540243335103
 31
0.0
  0
ARC
  5
11BE
330
2
100
AcDbEntity
  8
0
100
AcDbCircle
 10
594.8808145943947
 20
657.1540243335098
 30
0.0
 40
3.0
100
AcDbArc
 50
180.4999999999915
 51
270.0
  0
LINE
  5
11F5
330
2
100
AcDbEntity
  8
CENTER
100
AcDbLine
 10
968.8369266945226
 20
376.7567568073677
 30
0.0
 11
829.8369351485623
 21
376.7567568073677
 31
0.0
  0
LINE
  5
11F6
330
2
100
AcDbEntity
  8
CENTER
100
AcDbLine
 10
913.836935148566
 20
428.2567568073828
 30
0.0
 11
913.836935148566
 21
325.2567568073836
 31
0.0
  0
LINE
  5
11F7
330
2
100
AcDbEntity
  8
0
100
AcDbLine
 10
870.8369351485623
 20
417.1720566654016
 30
0.0
 11
870.8369351485606
 21
336.3414569493369
 31
0.0
  0
LINE
  5
11F8
330
2
100
AcDbEntity
  8
0
100
AcDbLine
 10
865.8369351485632
 20
411.7567568073627
 30
0.0
 11
865.8369351485632
 21
341.7567568073627
 31
0.0
  0
LINE
  5
11F9
330
2
100
AcDbEntity
  8
0
100
AcDbLine
 10
863.9067341419684
 20
405.1433227063307
 30
0.0
 11
854.7671361551591
 21
404.8241609117867
 31
0.0
  0
ARC
  5
11FA
330
2
100
AcDbEntity
  8
0
100
AcDbCircle
 10
863.8369351485632
 20
407.1421043603686
 30
0.0
 40
2.0
100
AcDbArc
 50
272.000000000004
 51
0.0
  0
LINE
  5
11FB
330
2
100
AcDbEntity
  8
0
100
AcDbLine
 10
852.836935148565
 20
402.8253792577479
 30
0.0
 11
852.8369351485633
 21
350.6881343569775
 31
0.0
  0
ARC
  5
11FC
330
2
100
AcDbEntity
  8
0
100
AcDbCircle
 10
854.8369351485632
 20
402.8253792577479
 30
0.0
 40
2.0
100
AcDbArc
 50
92.00000000000406
 51
180.0
  0
ARC
  5
11FD
330
2
100
AcDbEntity
  8
0
100
AcDbCircle
 10
854.8369351485632
 20
350.6881343569775
 30
0.0
 40
2.0
100
AcDbArc
 50
180.0
 51
267.9999999999959
  0
LINE
  5
11FE
330
2
100
AcDbEntity
  8
0
100
AcDbLine
 10
863.9067341419684
 20
348.3701909083937
 30
0.0
 11
854.767136155158
 21
348.6893527029387
 31
0.0
  0
ARC
  5
11FF
330
2
100
AcDbEntity
  8
0
100
AcDbCircle
 10
863.8369351485632
 20
346.371409254355
 30
0.0
 40
2.0
100
AcDbArc
 50
0.0
 51
87.99999999999595
  0
LINE
  5
1200
330
2
100
AcDbEntity
  8
0
100
AcDbLine
 10
954.836935148565
 20
412.8173606284636
 30
0.0
 11
954.836935148565
 21
340.6961529863037
 31
0.0
  0
LINE
  5
1201
330
2
100
AcDbEntity
  8
0
100
AcDbLine
 10
872.8369351485651
 20
412.8173606284617
 30
0.0
 11
872.8369351485651
 21
340.6961529863055
 31
0.0
  0
LINE
  5
1202
330
2
100
AcDbEntity
  8
0
100
AcDbLine
 10
949.8979062246496
 20
335.6965247473362
 30
0.0
 11
913.836935148565
 21
335.2567568073836
 31
0.0
  0
LINE
  5
1203
330
2
100
AcDbEntity
  8
0
100
AcDbLine
 10
877.7759640724795
 20
335.696524747338
 30
0.0
 11
913.8369351485641
 21
335.2567568073836
 31
0.0
  0
LINE
  5
1204
330
2
100
AcDbEntity
  8
0
100
AcDbLine
 10
877.7759640724795
 20
417.8169888674292
 30
0.0
 11
913.8369351485641
 21
418.2567568073827
 31
0.0
  0
ARC
  5
1205
330
2
100
AcDbEntity
  8
0
100
AcDbCircle
 10
949.8369351485651
 20
412.8173606284636
 30
0.0
 40
5.0
100
AcDbArc
 50
0.0
 51
89.30130561700025
  0
ARC
  5
1206
330
2
100
AcDbEntity
  8
0
100
AcDbCircle
 10
877.836935148565
 20
412.8173606284617
 30
0.0
 40
5.0
100
AcDbArc
 50
90.69869438299972
 51
180.0
  0
ARC
  5
1207
330
2
100
AcDbEntity
  8
0
100
AcDbCircle
 10
877.836935148565
 20
340.6961529863055
 30
0.0
 40
5.0
100
AcDbArc
 50
180.0
 51
269.3013056170002
  0
ARC
  5
1208
330
2
100
AcDbEntity
  8
0
100
AcDbCircle
 10
949.8369351485651
 20
340.6961529863037
 30
0.0
 40
5.0
100
AcDbArc
 50
270.6986943829997
 51
0.0
  0
LINE
  5
1209
330
2
100
AcDbEntity
  8
0
100
AcDbLine
 10
949.8979062246496
 20
417.816988867431
 30
0.0
 11
913.836935148565
 21
418.2567568073827
 31
0.0
  0
LINE
  5
120A
330
2
100
AcDbEntity
  8
0
100
AcDbLine
 10
875.4527856602178
 20
336.3011750321838
 30
0.0
 11
870.8369351485606
 21
336.3414569493369
 31
0.0
  0
LINE
  5
120B
330
2
100
AcDbEntity
  8
0
100
AcDbLine
 10
875.4527856601724
 20
417.212338582558
 30
0.0
 11
870.8369351485623
 21
417.1720566654016
 31
0.0
  0
LINE
  5
120C
330
2
100
AcDbEntity
  8
0
100
AcDbLine
 10
870.8369351485632
 20
411.7567568073627
 30
0.0
 11
865.8369351485632
 21
411.7567568073627
 31
0.0
  0
LINE
  5
120D
330
2
100
AcDbEntity
  8
0
100
AcDbLine
 10
870.8369351485632
 20
341.7567568073627
 30
0.0
 11
865.8369351485632
 21
341.7567568073627
 31
0.0
  0
LINE
  5
120E
330
2
100
AcDbEntity
  8
0
100
AcDbLine
 10
955.8369351485579
 20
403.2567568073659
 30
0.0
 11
954.836935148565
 21
403.2567568073659
 31
0.0
  0
LINE
  5
120F
330
2
100
AcDbEntity
  8
0
100
AcDbLine
 10
955.8369351485568
 20
403.2567568073659
 30
0.0
 11
956.8369351485578
 21
402.6794065381763
 31
0.0
  0
LINE
  5
1210
330
2
100
AcDbEntity
  8
0
100
AcDbLine
 10
956.8369351485614
 20
350.8341070765558
 30
0.0
 11
956.8369351485614
 21
402.6794065381737
 31
0.0
  0
LINE
  5
1211
330
2
100
AcDbEntity
  8
0
100
AcDbLine
 10
955.8369351485568
 20
350.256756807364
 30
0.0
 11
956.8369351485578
 21
350.834107076554
 31
0.0
  0
LINE
  5
1212
330
2
100
AcDbEntity
  8
0
100
AcDbLine
 10
955.8369351485579
 20
350.256756807364
 30
0.0
 11
954.836935148565
 21
350.2567568073645
 31
0.0
  0
LINE
  5
1213
330
2
100
AcDbEntity
  8
0
100
AcDbLine
 10
955.8369351485579
 20
350.256756807364
 30
0.0
 11
955.8369351485568
 21
403.2567568073659
 31
0.0
  0
LINE
  5
1214
330
2
100
AcDbEntity
  8
0
100
AcDbLine
 10
958.8369266945226
 20
391.253803236375
 30
0.0
 11
958.8369266945226
 21
362.2538032363749
 31
0.0
  0
LINE
  5
1215
330
2
100
AcDbEntity
  8
0
100
AcDbLine
 10
839.8369351485623
 20
391.2567108073681
 30
0.0
 11
839.8369351485623
 21
362.2567108073675
 31
0.0
  0
LINE
  5
1216
330
2
100
AcDbEntity
  8
0
100
AcDbLine
 10
852.8369351485633
 20
362.2567108073675
 30
0.0
 11
839.8369351485623
 21
362.2567108073675
 31
0.0
  0
LINE
  5
1217
330
2
100
AcDbEntity
  8
0
100
AcDbLine
 10
956.8369351485651
 20
362.2538032363749
 30
0.0
 11
958.8369266945226
 21
362.2538032363749
 31
0.0
  0
LINE
  5
1218
330
2
100
AcDbEntity
  8
0
100
AcDbLine
 10
852.8369351485615
 20
391.2567108073681
 30
0.0
 11
839.8369351485623
 21
391.2567108073681
 31
0.0
  0
LINE
  5
1219
330
2
100
AcDbEntity
  8
0
100
AcDbLine
 10
956.8369351485651
 20
391.253803236375
 30
0.0
 11
958.8369266945226
 21
391.253803236375
 31
0.0
  0
LINE
  5
121A
330
2
100
AcDbEntity
  8
0
100
AcDbLine
 10
648.1386981320865
 20
415.6694119726988
 30
0.0
 11
648.1386981320863
 21
385.79591870083
 31
0.0
  0
LINE
  5
121B
330
2
100
AcDbEntity
  8
0
100
AcDbLine
 10
648.1386981320863
 20
376.7567568073773
 30
0.0
 11
648.1386981320862
 21
337.1085245292364
 31
0.0
  0
LINE
  5
121D
330
2
100
AcDbEntity
  8
0
100
AcDbLine
 10
636.1386981320863
 20
335.7567568073772
 30
0.0
 11
646.156151203083
 21
335.8441777959282
 31
0.0
  0
LINE
  5
121E
330
2
100
AcDbEntity
  8
0
100
AcDbLine
 10
655.1386981320863
 20
344.9163830412766
 30
0.0
 11
673.8513551898838
 21
345.2430136852003
 31
0.0
  0
LINE
  5
121F
330
2
100
AcDbEntity
  8
0
100
AcDbLine
 10
676.1386981320863
 20
346.7043916125921
 30
0.0
 11
679.1386981320863
 21
346.7567568073772
 31
0.0
  0
LINE
  5
1220
330
2
100
AcDbEntity
  8
0
100
AcDbLine
 10
636.1386981320863
 20
417.7567568073773
 30
0.0
 11
646.1561512030831
 21
417.6693358188272
 31
0.0
  0
LINE
  5
1221
330
2
100
AcDbEntity
  8
0
100
AcDbLine
 10
669.0380314604679
 20
399.2567568073773
 30
0.0
 11
672.1386981320863
 21
399.2567568073773
 31
0.0
  0
LINE
  5
1224
330
2
100
AcDbEntity
  8
0
100
AcDbLine
 10
676.1386981320863
 20
346.7043916125921
 30
0.0
 11
675.2053210665025
 21
345.803598861573
 31
0.0
  0
LINE
  5
1225
330
2
100
AcDbEntity
  8
0
100
AcDbLine
 10
655.1386981320863
 20
408.5971305734774
 30
0.0
 11
674.1373167794423
 21
408.2655084514414
 31
0.0
  0
LINE
  5
1226
330
2
100
AcDbEntity
  8
0
100
AcDbLine
 10
676.1386981320863
 20
406.8091220021624
 30
0.0
 11
679.1386981320863
 21
406.7567568073773
 31
0.0
  0
LINE
  5
1227
330
2
100
AcDbEntity
  8
0
100
AcDbLine
 10
676.1386981320863
 20
406.8091220021624
 30
0.0
 11
675.2053210665024
 21
407.7099147531814
 31
0.0
  0
LINE
  5
1228
330
2
100
AcDbEntity
  8
0
100
AcDbLine
 10
679.1386981320863
 20
346.7567568073772
 30
0.0
 11
679.1386981320863
 21
406.7567568073773
 31
0.0
  0
LINE
  5
1229
330
2
100
AcDbEntity
  8
0
100
AcDbLine
 10
676.1386981320863
 20
406.8091220021624
 30
0.0
 11
676.1386981320863
 21
403.254037409461
 31
0.0
  0
LINE
  5
122A
330
2
100
AcDbEntity
  8
0
100
AcDbLine
 10
648.1386981277171
 20
612.0057920553691
 30
0.0
 11
648.1386981277171
 21
691.3022566116506
 31
0.0
  0
LINE
  5
122C
330
2
100
AcDbEntity
  8
0
100
AcDbLine
 10
636.1386981277171
 20
692.6540243335103
 30
0.0
 11
646.1561511987139
 21
692.5666033449592
 31
0.0
  0
LINE
  5
122D
330
2
100
AcDbEntity
  8
0
100
AcDbLine
 10
655.1386981277171
 20
683.4943980996103
 30
0.0
 11
673.8513551855144
 21
683.1677674556872
 31
0.0
  0
LINE
  5
122E
330
2
100
AcDbEntity
  8
0
100
AcDbLine
 10
676.1386981277171
 20
681.7063895282949
 30
0.0
 11
679.1386981277171
 21
681.6540243335102
 31
0.0
  0
LINE
  5
122F
330
2
100
AcDbEntity
  8
0
100
AcDbLine
 10
636.1386981277171
 20
610.6540243335103
 30
0.0
 11
646.1561511987138
 21
610.7414453220605
 31
0.0
  0
LINE
  5
1232
330
2
100
AcDbEntity
  8
0
100
AcDbLine
 10
676.1386981277171
 20
681.7063895282949
 30
0.0
 11
675.2053210621333
 21
682.6071822793141
 31
0.0
  0
LINE
  5
1233
330
2
100
AcDbEntity
  8
0
100
AcDbLine
 10
655.1386981277171
 20
619.8136505674097
 30
0.0
 11
673.8513551855143
 21
620.1402812113329
 31
0.0
  0
LINE
  5
1234
330
2
100
AcDbEntity
  8
0
100
AcDbLine
 10
676.1386981277171
 20
621.6016591387251
 30
0.0
 11
679.1386981277171
 21
621.6540243335103
 31
0.0
  0
LINE
  5
1235
330
2
100
AcDbEntity
  8
0
100
AcDbLine
 10
676.1386981277171
 20
621.6016591387251
 30
0.0
 11
675.2053210621332
 21
620.7008663877059
 31
0.0
  0
LINE
  5
1236
330
2
100
AcDbEntity
  8
0
100
AcDbLine
 10
679.1386981277171
 20
681.6540243335102
 30
0.0
 11
679.1386981277171
 21
621.6540243335103
 31
0.0
  0
LINE
  5
1237
330
2
100
AcDbEntity
  8
0
100
AcDbLine
 10
676.1386981277171
 20
621.6016591387251
 30
0.0
 11
676.1386981277171
 21
681.7063895282949
 31
0.0
  0
LINE
  5
1238
330
2
100
AcDbEntity
  8
CENTER
  6
CENS
100
AcDbLine
 10
633.1386981320863
 20
411.4049890855181
 30
0.0
 11
660.1386981320863
 21
411.4049890855181
 31
0.0
  0
LINE
  5
1239
330
2
100
AcDbEntity
  8
0
100
AcDbLine
 10
654.7386981320867
 20
406.404989085518
 30
0.0
 11
654.7386981320867
 21
416.4049890855181
 31
0.0
  0
LINE
  5
123A
330
2
100
AcDbEntity
  8
0
100
AcDbLine
 10
655.1386981320863
 20
415.7121687624903
 30
0.0
 11
655.1386981320863
 21
407.0978094085457
 31
0.0
  0
LINE
  5
123B
330
2
100
AcDbEntity
  8
0
100
AcDbLine
 10
649.1386981320864
 20
406.404989085518
 30
0.0
 11
649.1386981320864
 21
416.4049890855181
 31
0.0
  0
LINE
  5
123C
330
2
100
AcDbEntity
  8
0
100
AcDbLine
 10
649.1386981320864
 20
416.4049890855181
 30
0.0
 11
648.1386981320863
 21
416.4049890855181
 31
0.0
  0
LINE
  5
123D
330
2
100
AcDbEntity
  8
0
100
AcDbLine
 10
648.1386981320863
 20
416.4049890855181
 30
0.0
 11
648.1386981320863
 21
406.404989085518
 31
0.0
  0
LINE
  5
123E
330
2
100
AcDbEntity
  8
0
100
AcDbLine
 10
648.1386981320863
 20
406.404989085518
 30
0.0
 11
649.1386981320864
 21
406.404989085518
 31
0.0
  0
LINE
  5
123F
330
2
100
AcDbEntity
  8
0
100
AcDbLine
 10
649.1386981320864
 20
406.404989085518
 30
0.0
 11
649.1386981320864
 21
416.4049890855181
 31
0.0
  0
LINE
  5
1240
330
2
100
AcDbEntity
  8
0
100
AcDbLine
 10
654.7386981320867
 20
406.404989085518
 30
0.0
 11
649.1386981320864
 21
406.404989085518
 31
0.0
  0
LINE
  5
1241
330
2
100
AcDbEntity
  8
0
100
AcDbLine
 10
649.1386981320864
 20
416.4049890855181
 30
0.0
 11
654.7386981320867
 21
416.4049890855181
 31
0.0
  0
LINE
  5
1242
330
2
100
AcDbEntity
  8
0
100
AcDbLine
 10
654.7386981320867
 20
416.4049890855181
 30
0.0
 11
655.1386981320863
 21
415.7121687624903
 31
0.0
  0
LINE
  5
1243
330
2
100
AcDbEntity
  8
0
100
AcDbLine
 10
654.7386981320867
 20
406.404989085518
 30
0.0
 11
655.1386981320863
 21
407.0978094085457
 31
0.0
  0
LINE
  5
1244
330
2
100
AcDbEntity
  8
CENTER
  6
CENS
100
AcDbLine
 10
633.1386981320863
 20
342.1085245292364
 30
0.0
 11
660.1386981320863
 21
342.1085245292364
 31
0.0
  0
LINE
  5
1245
330
2
100
AcDbEntity
  8
0
100
AcDbLine
 10
654.7386981320867
 20
347.1085245292365
 30
0.0
 11
654.7386981320867
 21
337.1085245292364
 31
0.0
  0
LINE
  5
1246
330
2
100
AcDbEntity
  8
0
100
AcDbLine
 10
655.1386981320863
 20
337.8013448522637
 30
0.0
 11
655.1386981320863
 21
346.4157042062087
 31
0.0
  0
LINE
  5
1247
330
2
100
AcDbEntity
  8
0
100
AcDbLine
 10
649.1386981320864
 20
347.1085245292365
 30
0.0
 11
649.1386981320864
 21
337.1085245292364
 31
0.0
  0
LINE
  5
1248
330
2
100
AcDbEntity
  8
0
100
AcDbLine
 10
649.1386981320864
 20
337.1085245292364
 30
0.0
 11
648.1386981320862
 21
337.1085245292364
 31
0.0
  0
LINE
  5
1249
330
2
100
AcDbEntity
  8
0
100
AcDbLine
 10
648.1386981320863
 20
347.1085245292365
 30
0.0
 11
649.1386981320864
 21
347.1085245292365
 31
0.0
  0
LINE
  5
124A
330
2
100
AcDbEntity
  8
0
100
AcDbLine
 10
649.1386981320864
 20
347.1085245292365
 30
0.0
 11
649.1386981320864
 21
337.1085245292364
 31
0.0
  0
LINE
  5
124B
330
2
100
AcDbEntity
  8
0
100
AcDbLine
 10
654.7386981320867
 20
347.1085245292365
 30
0.0
 11
649.1386981320864
 21
347.1085245292365
 31
0.0
  0
LINE
  5
124C
330
2
100
AcDbEntity
  8
0
100
AcDbLine
 10
649.1386981320864
 20
337.1085245292364
 30
0.0
 11
654.7386981320867
 21
337.1085245292364
 31
0.0
  0
LINE
  5
124D
330
2
100
AcDbEntity
  8
0
100
AcDbLine
 10
654.7386981320867
 20
337.108524529236
 30
0.0
 11
655.1386981320863
 21
337.8013448522637
 31
0.0
  0
LINE
  5
124E
330
2
100
AcDbEntity
  8
0
100
AcDbLine
 10
654.7386981320867
 20
347.1085245292365
 30
0.0
 11
655.1386981320863
 21
346.4157042062087
 31
0.0
  0
LINE
  5
124F
330
2
100
AcDbEntity
  8
CENTER
  6
CENS
100
AcDbLine
 10
633.1386981277171
 20
617.005792055369
 30
0.0
 11
660.1386981277171
 21
617.005792055369
 31
0.0
  0
LINE
  5
1250
330
2
100
AcDbEntity
  8
0
100
AcDbLine
 10
654.7386981277175
 20
622.005792055369
 30
0.0
 11
654.7386981277175
 21
612.0057920553691
 31
0.0
  0
LINE
  5
1251
330
2
100
AcDbEntity
  8
0
100
AcDbLine
 10
655.1386981277171
 20
612.6986123783967
 30
0.0
 11
655.1386981277171
 21
621.3129717323417
 31
0.0
  0
LINE
  5
1252
330
2
100
AcDbEntity
  8
0
100
AcDbLine
 10
649.1386981277171
 20
622.005792055369
 30
0.0
 11
649.1386981277171
 21
612.0057920553691
 31
0.0
  0
LINE
  5
1253
330
2
100
AcDbEntity
  8
0
100
AcDbLine
 10
649.1386981277171
 20
612.0057920553691
 30
0.0
 11
648.1386981277171
 21
612.0057920553691
 31
0.0
  0
LINE
  5
1254
330
2
100
AcDbEntity
  8
0
100
AcDbLine
 10
648.1386981277171
 20
622.005792055369
 30
0.0
 11
649.1386981277171
 21
622.005792055369
 31
0.0
  0
LINE
  5
1255
330
2
100
AcDbEntity
  8
0
100
AcDbLine
 10
649.1386981277171
 20
622.005792055369
 30
0.0
 11
649.1386981277171
 21
612.0057920553691
 31
0.0
  0
LINE
  5
1256
330
2
100
AcDbEntity
  8
0
100
AcDbLine
 10
654.7386981277175
 20
622.005792055369
 30
0.0
 11
649.1386981277171
 21
622.005792055369
 31
0.0
  0
LINE
  5
1257
330
2
100
AcDbEntity
  8
0
100
AcDbLine
 10
649.1386981277171
 20
612.0057920553691
 30
0.0
 11
654.7386981277175
 21
612.0057920553691
 31
0.0
  0
LINE
  5
1258
330
2
100
AcDbEntity
  8
0
100
AcDbLine
 10
654.7386981277175
 20
612.0057920553691
 30
0.0
 11
655.1386981277171
 21
612.6986123783967
 31
0.0
  0
LINE
  5
1259
330
2
100
AcDbEntity
  8
CENTER
  6
CENS
100
AcDbLine
 10
633.1386981277171
 20
686.3022566116505
 30
0.0
 11
660.1386981277171
 21
686.3022566116505
 31
0.0
  0
LINE
  5
125A
330
2
100
AcDbEntity
  8
0
100
AcDbLine
 10
654.7386981277175
 20
681.3022566116505
 30
0.0
 11
654.7386981277175
 21
691.3022566116506
 31
0.0
  0
LINE
  5
125B
330
2
100
AcDbEntity
  8
0
100
AcDbLine
 10
655.1386981277171
 20
690.6094362886233
 30
0.0
 11
655.1386981277171
 21
681.9950769346787
 31
0.0
  0
LINE
  5
125C
330
2
100
AcDbEntity
  8
0
100
AcDbLine
 10
649.1386981277171
 20
681.3022566116505
 30
0.0
 11
649.1386981277171
 21
691.3022566116506
 31
0.0
  0
LINE
  5
125D
330
2
100
AcDbEntity
  8
0
100
AcDbLine
 10
649.1386981277171
 20
691.3022566116506
 30
0.0
 11
648.1386981277171
 21
691.3022566116506
 31
0.0
  0
LINE
  5
125E
330
2
100
AcDbEntity
  8
0
100
AcDbLine
 10
648.1386981277171
 20
681.3022566116505
 30
0.0
 11
649.1386981277171
 21
681.3022566116505
 31
0.0
  0
LINE
  5
125F
330
2
100
AcDbEntity
  8
0
100
AcDbLine
 10
649.1386981277171
 20
681.3022566116505
 30
0.0
 11
649.1386981277171
 21
691.3022566116506
 31
0.0
  0
LINE
  5
1260
330
2
100
AcDbEntity
  8
0
100
AcDbLine
 10
654.7386981277175
 20
681.3022566116505
 30
0.0
 11
649.1386981277171
 21
681.3022566116505
 31
0.0
  0
LINE
  5
1261
330
2
100
AcDbEntity
  8
0
100
AcDbLine
 10
649.1386981277171
 20
691.3022566116506
 30
0.0
 11
654.7386981277175
 21
691.3022566116506
 31
0.0
  0
LINE
  5
1262
330
2
100
AcDbEntity
  8
0
100
AcDbLine
 10
654.7386981277175
 20
691.302256611651
 30
0.0
 11
655.1386981277171
 21
690.6094362886233
 31
0.0
  0
LINE
  5
1263
330
2
100
AcDbEntity
  8
0
100
AcDbLine
 10
654.7386981277175
 20
681.3022566116505
 30
0.0
 11
655.1386981277171
 21
681.9950769346783
 31
0.0
  0
LINE
  5
1264
330
2
100
AcDbEntity
  8
0
100
AcDbLine
 10
655.1386981277171
 20
621.3129717323417
 30
0.0
 11
654.7386981277175
 21
622.005792055369
 31
0.0
  0
LINE
  5
1265
330
2
100
AcDbEntity
  8
0
100
AcDbLine
 10
669.6386875230343
 20
383.7567568073777
 30
0.0
 11
659.6386875230344
 21
383.7567568073777
 31
0.0
  0
LINE
  5
1266
330
2
100
AcDbEntity
  8
0
100
AcDbLine
 10
669.6386875230343
 20
383.7567568073773
 30
0.0
 11
669.6386875230343
 21
376.7567568073773
 31
0.0
  0
LINE
  5
1267
330
2
100
AcDbEntity
  8
0
100
AcDbLine
 10
671.6386875230344
 20
384.9114573457568
 30
0.0
 11
669.6386875230343
 21
383.7567568073773
 31
0.0
  0
LINE
  5
1268
330
2
100
AcDbEntity
  8
0
100
AcDbLine
 10
642.6386875230344
 20
384.0067568073773
 30
0.0
 11
642.6386875230344
 21
376.7567568073773
 31
0.0
  0
LINE
  5
1269
330
2
100
AcDbEntity
  8
0
100
AcDbLine
 10
669.6386875230343
 20
383.7567568073773
 30
0.0
 11
659.6386875230344
 21
383.7567568073773
 31
0.0
  0
LINE
  5
126A
330
2
100
AcDbEntity
  8
0
100
AcDbLine
 10
664.5509017017082
 20
391.5067568073773
 30
0.0
 11
671.6386875230344
 21
391.5067568073773
 31
0.0
  0
LINE
  5
126B
330
2
100
AcDbEntity
  8
0
100
AcDbLine
 10
671.6386875230344
 20
391.5067568073773
 30
0.0
 11
671.6386875230344
 21
376.7567568073773
 31
0.0
  0
LINE
  5
126C
330
2
100
AcDbEntity
  8
0
100
AcDbLine
 10
657.6386875230343
 20
387.0414379941003
 30
0.0
 11
657.6386875230343
 21
376.7567568073773
 31
0.0
  0
LINE
  5
126D
330
2
100
AcDbEntity
  8
0
100
AcDbLine
 10
659.6386875230344
 20
387.5668381415325
 30
0.0
 11
659.6386875230344
 21
376.7567568073773
 31
0.0
  0
LINE
  5
126E
330
2
100
AcDbEntity
  8
0
100
AcDbLine
 10
650.6386875230344
 20
384.0067568073773
 30
0.0
 11
642.6386875230344
 21
384.0067568073773
 31
0.0
  0
LINE
  5
126F
330
2
100
AcDbEntity
  8
0
100
AcDbLine
 10
650.6386875230344
 20
376.7567568073773
 30
0.0
 11
650.6386875230344
 21
384.0067568073773
 31
0.0
  0
LINE
  5
1270
330
2
100
AcDbEntity
  8
0
100
AcDbLine
 10
657.6386875230343
 20
383.7567568073773
 30
0.0
 11
650.6386875230344
 21
383.7567568073773
 31
0.0
  0
LINE
  5
1271
330
2
100
AcDbEntity
  8
0
100
AcDbLine
 10
638.8859107733021
 20
376.7567568073773
 30
0.0
 11
642.6386875230344
 21
383.2567568073773
 31
0.0
  0
LINE
  5
1272
330
2
100
AcDbEntity
  8
0
100
AcDbLine
 10
672.1386981320863
 20
401.7567568073773
 30
0.0
 11
679.1386981320863
 21
401.7567568073773
 31
0.0
  0
LINE
  5
1273
330
2
100
AcDbEntity
  8
0
100
AcDbLine
 10
672.1386981320863
 20
401.7567568073773
 30
0.0
 11
672.1386981320863
 21
376.7567568073773
 31
0.0
  0
SPLINE
  5
1274
330
2
100
AcDbEntity
  8
HOJO
100
AcDbSpline
210
0.0
220
0.0
230
1.0
 70
     8
 71
     3
 72
    20
 73
    16
 74
     0
 42
0.0000000001
 43
0.0000000001
 40
0.0
 40
0.0
 40
0.0
 40
0.0
 40
5.311626210389601
 40
7.954639692924123
 40
10.24579206730457
 40
14.18281221953265
 40
18.83794314114633
 40
26.54246833222011
 40
31.19712602527561
 40
34.95638115537181
 40
42.12378530287149
 40
45.78553747213095
 40
50.20353689726185
 40
53.26513166942802
 40
54.23175360515262
 40
54.23175360515262
 40
54.23175360515262
 40
54.23175360515262
 10
679.1386981320863
 20
403.4442055293934
 30
0.0
 10
677.4257189661964
 20
403.3361634791671
 30
0.0
 10
674.8603780467854
 20
403.1743607567632
 30
0.0
 10
671.0886241597088
 20
402.9222280845951
 30
0.0
 10
669.7694829435747
 20
399.9897865996285
 30
0.0
 10
667.3342735752846
 20
397.3352777763329
 30
0.0
 10
665.4962252321345
 20
392.1839823431691
 30
0.0
 10
661.3713888226572
 20
387.4742349915436
 30
0.0
 10
655.8937413196506
 20
386.836903557124
 30
0.0
 10
650.9803558100846
 20
385.982879925566
 30
0.0
 10
646.1463564633265
 20
385.6467394037949
 30
0.0
 10
641.1086296986866
 20
385.2433646548901
 30
0.0
 10
638.0374790773182
 20
381.0411616580303
 30
0.0
 10
637.0375047825925
 20
378.3629211371407
 30
0.0
 10
636.6814652573591
 20
377.0679081070697
 30
0.0
 10
636.5987374852718
 20
376.7567568073772
 30
0.0
  0
CIRCLE
  5
1276
330
2
100
AcDbEntity
  8
0
100
AcDbCircle
 10
665.138687518667
 20
641.1540243335102
 30
0.0
 40
9.0
  0
LINE
  5
1277
330
2
100
AcDbEntity
  8
CENTER
  6
CENS
100
AcDbLine
 10
665.1386875186651
 20
629.5678584881338
 30
0.0
 11
665.1386875186651
 21
652.7401901788858
 31
0.0
  0
LINE
  5
1278
330
2
100
AcDbEntity
  8
CENTER
  6
CENS
100
AcDbLine
 10
676.7248533640411
 20
641.1540243335098
 30
0.0
 11
653.5525216732892
 21
641.1540243335098
 31
0.0
  0
LINE
  5
1279
330
2
100
AcDbEntity
  8
0
100
AcDbLine
 10
670.2077356245679
 20
412.3347088578166
 30
0.0
 11
660.2092586730029
 21
412.5092329221892
 31
0.0
  0
ARC
  5
127A
330
2
100
AcDbEntity
  8
0
100
AcDbCircle
 10
660.1394490472537
 20
408.5098421415636
 30
0.0
 40
4.000000000000023
100
AcDbArc
 50
89.0000000000243
 51
178.9999999999974
  0
ARC
  5
127B
330
2
100
AcDbEntity
  8
0
100
AcDbCircle
 10
670.1379259988168
 20
408.335318077191
 30
0.0
 40
4.000000000000023
100
AcDbArc
 50
358.999999999995
 51
89.0000000000243
  0
LINE
  5
127C
330
2
100
AcDbEntity
  8
CENTER
  6
CENS
100
AcDbLine
 10
665.1386875230362
 20
415.683690704941
 30
0.0
 11
665.1386875230362
 21
394.4979449611965
 31
0.0
  0
LINE
  5
127E
330
2
100
AcDbEntity
  8
0
100
AcDbLine
 10
676.1386981320863
 20
346.7043916125921
 30
0.0
 11
676.1386981320863
 21
376.7567568073773
 31
0.0
  0
LINE
  5
127F
330
2
100
AcDbEntity
  8
0
100
AcDbLine
 10
70.41773264297785
 20
415.6694119727023
 30
0.0
 11
70.41773264297785
 21
337.1085245292401
 31
0.0
  0
LINE
  5
1280
330
2
100
AcDbEntity
  8
0
100
AcDbLine
 10
82.41773264297785
 20
335.7567568073808
 30
0.0
 11
72.40027957198105
 21
335.8441777959319
 31
0.0
  0
LINE
  5
1281
330
2
100
AcDbEntity
  8
0
100
AcDbLine
 10
63.41773264297785
 20
344.9163830412803
 30
0.0
 11
44.70507558518032
 21
345.2430136852039
 31
0.0
  0
LINE
  5
1282
330
2
100
AcDbEntity
  8
0
100
AcDbLine
 10
42.41773264297785
 20
346.7043916125957
 30
0.0
 11
39.41773264297785
 21
346.7567568073809
 31
0.0
  0
LINE
  5
1283
330
2
100
AcDbEntity
  8
0
100
AcDbLine
 10
82.41773264297785
 20
417.756756807381
 30
0.0
 11
72.4002795719812
 21
417.6693358188307
 31
0.0
  0
LINE
  5
1286
330
2
100
AcDbEntity
  8
0
100
AcDbLine
 10
42.41773264297785
 20
346.7043916125957
 30
0.0
 11
43.35110970856169
 21
345.8035988615766
 31
0.0
  0
LINE
  5
1287
330
2
100
AcDbEntity
  8
0
100
AcDbLine
 10
63.41773264297785
 20
408.597130573481
 30
0.0
 11
44.70507558518044
 21
408.2704999295578
 31
0.0
  0
LINE
  5
1288
330
2
100
AcDbEntity
  8
0
100
AcDbLine
 10
42.41773264297785
 20
406.8091220021661
 30
0.0
 11
39.41773264297785
 21
406.7567568073809
 31
0.0
  0
LINE
  5
1289
330
2
100
AcDbEntity
  8
0
100
AcDbLine
 10
42.41773264297785
 20
406.8091220021661
 30
0.0
 11
43.35110970856177
 21
407.7099147531851
 31
0.0
  0
LINE
  5
128A
330
2
100
AcDbEntity
  8
0
100
AcDbLine
 10
39.41773264297785
 20
346.7567568073809
 30
0.0
 11
39.41773264297785
 21
406.7567568073809
 31
0.0
  0
LINE
  5
128B
330
2
100
AcDbEntity
  8
CENTER
  6
CENS
100
AcDbLine
 10
85.41773264297786
 20
411.4049890855217
 30
0.0
 11
58.41773264297785
 21
411.4049890855217
 31
0.0
  0
LINE
  5
128C
330
2
100
AcDbEntity
  8
0
100
AcDbLine
 10
63.81773264297748
 20
406.4049890855216
 30
0.0
 11
63.81773264297748
 21
416.4049890855217
 31
0.0
  0
LINE
  5
128D
330
2
100
AcDbEntity
  8
0
100
AcDbLine
 10
63.41773264297785
 20
415.712168762494
 30
0.0
 11
63.41773264297785
 21
407.0978094085494
 31
0.0
  0
LINE
  5
128E
330
2
100
AcDbEntity
  8
0
100
AcDbLine
 10
69.41773264297785
 20
406.4049890855216
 30
0.0
 11
69.41773264297785
 21
416.4049890855217
 31
0.0
  0
LINE
  5
128F
330
2
100
AcDbEntity
  8
0
100
AcDbLine
 10
69.41773264297785
 20
416.4049890855217
 30
0.0
 11
70.41773264297785
 21
416.4049890855217
 31
0.0
  0
LINE
  5
1290
330
2
100
AcDbEntity
  8
0
100
AcDbLine
 10
70.41773264297785
 20
416.4049890855217
 30
0.0
 11
70.41773264297785
 21
406.4049890855216
 31
0.0
  0
LINE
  5
1291
330
2
100
AcDbEntity
  8
0
100
AcDbLine
 10
70.41773264297785
 20
406.4049890855216
 30
0.0
 11
69.41773264297785
 21
406.4049890855216
 31
0.0
  0
LINE
  5
1292
330
2
100
AcDbEntity
  8
0
100
AcDbLine
 10
69.41773264297785
 20
406.4049890855216
 30
0.0
 11
69.41773264297785
 21
416.4049890855217
 31
0.0
  0
LINE
  5
1293
330
2
100
AcDbEntity
  8
0
100
AcDbLine
 10
63.81773264297748
 20
406.4049890855216
 30
0.0
 11
69.41773264297785
 21
406.4049890855216
 31
0.0
  0
LINE
  5
1294
330
2
100
AcDbEntity
  8
0
100
AcDbLine
 10
69.41773264297785
 20
416.4049890855217
 30
0.0
 11
63.81773264297748
 21
416.4049890855217
 31
0.0
  0
LINE
  5
1295
330
2
100
AcDbEntity
  8
0
100
AcDbLine
 10
63.81773264297748
 20
416.4049890855217
 30
0.0
 11
63.41773264297785
 21
415.712168762494
 31
0.0
  0
LINE
  5
1296
330
2
100
AcDbEntity
  8
0
100
AcDbLine
 10
63.81773264297748
 20
406.4049890855216
 30
0.0
 11
63.41773264297785
 21
407.0978094085494
 31
0.0
  0
LINE
  5
1297
330
2
100
AcDbEntity
  8
CENTER
  6
CENS
100
AcDbLine
 10
85.41773264297786
 20
342.1085245292401
 30
0.0
 11
58.41773264297785
 21
342.1085245292401
 31
0.0
  0
LINE
  5
1298
330
2
100
AcDbEntity
  8
0
100
AcDbLine
 10
63.81773264297748
 20
347.1085245292401
 30
0.0
 11
63.81773264297748
 21
337.1085245292401
 31
0.0
  0
LINE
  5
1299
330
2
100
AcDbEntity
  8
0
100
AcDbLine
 10
63.41773264297785
 20
337.8013448522673
 30
0.0
 11
63.41773264297785
 21
346.4157042062124
 31
0.0
  0
LINE
  5
129A
330
2
100
AcDbEntity
  8
0
100
AcDbLine
 10
69.41773264297785
 20
347.1085245292401
 30
0.0
 11
69.41773264297785
 21
337.1085245292401
 31
0.0
  0
LINE
  5
129B
330
2
100
AcDbEntity
  8
0
100
AcDbLine
 10
69.41773264297785
 20
337.1085245292401
 30
0.0
 11
70.41773264297785
 21
337.1085245292401
 31
0.0
  0
LINE
  5
129C
330
2
100
AcDbEntity
  8
0
100
AcDbLine
 10
70.41773264297785
 20
347.1085245292401
 30
0.0
 11
69.41773264297785
 21
347.1085245292401
 31
0.0
  0
LINE
  5
129D
330
2
100
AcDbEntity
  8
0
100
AcDbLine
 10
69.41773264297785
 20
347.1085245292401
 30
0.0
 11
69.41773264297785
 21
337.1085245292401
 31
0.0
  0
LINE
  5
129E
330
2
100
AcDbEntity
  8
0
100
AcDbLine
 10
63.81773264297748
 20
347.1085245292401
 30
0.0
 11
69.41773264297785
 21
347.1085245292401
 31
0.0
  0
LINE
  5
129F
330
2
100
AcDbEntity
  8
0
100
AcDbLine
 10
69.41773264297785
 20
337.1085245292401
 30
0.0
 11
63.81773264297748
 21
337.1085245292401
 31
0.0
  0
LINE
  5
12A0
330
2
100
AcDbEntity
  8
0
100
AcDbLine
 10
63.81773264297748
 20
337.1085245292396
 30
0.0
 11
63.41773264297785
 21
337.8013448522673
 31
0.0
  0
LINE
  5
12A1
330
2
100
AcDbEntity
  8
0
100
AcDbLine
 10
63.81773264297748
 20
347.1085245292401
 30
0.0
 11
63.41773264297785
 21
346.4157042062124
 31
0.0
  0
LINE
  5
12A2
330
2
100
AcDbEntity
  8
0
100
AcDbLine
 10
48.34869515049627
 20
412.3347088578202
 30
0.0
 11
58.34717210206122
 21
412.5092329221929
 31
0.0
  0
ARC
  5
12A3
330
2
100
AcDbEntity
  8
0
100
AcDbCircle
 10
58.41698172781048
 20
408.5098421415673
 30
0.0
 40
4.000000000000023
100
AcDbArc
 50
1.000000000002589
 51
90.99999999997569
  0
ARC
  5
12A4
330
2
100
AcDbEntity
  8
0
100
AcDbCircle
 10
48.41850477624735
 20
408.3353180771946
 30
0.0
 40
4.000000000000023
100
AcDbArc
 50
90.99999999997569
 51
181.0000000000025
  0
LINE
  5
12A5
330
2
100
AcDbEntity
  8
CENTER
  6
CENS
100
AcDbLine
 10
53.417743252028
 20
415.6836907049446
 30
0.0
 11
53.417743252028
 21
394.4979449612001
 31
0.0
  0
LINE
  5
12A7
330
2
100
AcDbEntity
  8
0
100
AcDbLine
 10
42.41773264297785
 20
346.7043916125957
 30
0.0
 11
42.41773264297785
 21
406.8091220021665
 31
0.0
  0
LINE
  5
12A8
330
2
100
AcDbEntity
  8
CENTER
100
AcDbLine
 10
948.4851674267073
 20
349.7679693645045
 30
0.0
 11
948.4851674267073
 21
334.4490796939493
 31
0.0
  0
INSERT
  5
12A9
330
2
100
AcDbEntity
  8
0
100
AcDbBlockReference
  2
A$C79D50562
 10
879.1887028704248
 20
342.1085245292269
 30
0.0
  0
ARC
  5
12AA
330
2
100
AcDbEntity
  8
0
100
AcDbCircle
 10
877.8369351485659
 20
340.7567568073677
 30
0.0
 40
5.0
100
AcDbArc
 50
180.0
 51
270.0
  0
ARC
  5
12AB
330
2
100
AcDbEntity
  8
0
100
AcDbCircle
 10
949.836935148566
 20
340.7567568073677
 30
0.0
 40
5.0
100
AcDbArc
 50
270.0
 51
0.0
  0
LINE
  5
12AC
330
2
100
AcDbEntity
  8
CENTER
100
AcDbLine
 10
940.8257225914301
 20
411.4049890855085
 30
0.0
 11
956.1446122619843
 21
411.4049890855085
 31
0.0
  0
LINE
  5
12AD
330
2
100
AcDbEntity
  8
0
100
AcDbLine
 10
877.8369351485659
 20
417.7567568073677
 30
0.0
 11
949.836935148566
 21
417.7567568073677
 31
0.0
  0
ARC
  5
12AE
330
2
100
AcDbEntity
  8
0
100
AcDbCircle
 10
938.836935148566
 20
401.7567568073677
 30
0.0
 40
5.0
100
AcDbArc
 50
0.0
 51
90.0
  0
ARC
  5
12AF
330
2
100
AcDbEntity
  8
0
100
AcDbCircle
 10
938.836935148566
 20
401.7567568073677
 30
0.0
 40
6.499999999999829
100
AcDbArc
 50
0.0
 51
90.0
  0
LINE
  5
12B0
330
2
100
AcDbEntity
  8
CENTER
100
AcDbLine
 10
940.8257225914301
 20
342.1085245292269
 30
0.0
 11
956.1446122619843
 21
342.1085245292269
 31
0.0
  0
ARC
  5
12B1
330
2
100
AcDbEntity
  8
0
100
AcDbCircle
 10
938.836935148566
 20
351.7567568073677
 30
0.0
 40
5.0
100
AcDbArc
 50
270.0
 51
0.0
  0
ARC
  5
12B2
330
2
100
AcDbEntity
  8
0
100
AcDbCircle
 10
938.836935148566
 20
351.7567568073677
 30
0.0
 40
6.499999999999829
100
AcDbArc
 50
270.0
 51
0.0
  0
LINE
  5
12B3
330
2
100
AcDbEntity
  8
0
100
AcDbLine
 10
943.8369351485659
 20
401.7567568073677
 30
0.0
 11
943.8369351485659
 21
351.7567568073677
 31
0.0
  0
LINE
  5
12B4
330
2
100
AcDbEntity
  8
0
100
AcDbLine
 10
883.836935148566
 20
401.7567568073677
 30
0.0
 11
883.836935148566
 21
351.7567568073677
 31
0.0
  0
LINE
  5
12B5
330
2
100
AcDbEntity
  8
0
100
AcDbLine
 10
882.3369351485659
 20
401.7567568073677
 30
0.0
 11
882.3369351485659
 21
351.7567568073677
 31
0.0
  0
CIRCLE
  5
12B6
330
2
100
AcDbEntity
  8
0
100
AcDbCircle
 10
913.836935148566
 20
376.7567568073677
 30
0.0
 40
25.00000000482703
  0
LINE
  5
12B7
330
2
100
AcDbEntity
  8
0
100
AcDbLine
 10
938.836935148566
 20
346.7567568073677
 30
0.0
 11
888.836935148566
 21
346.7567568073677
 31
0.0
  0
LINE
  5
12B8
330
2
100
AcDbEntity
  8
0
100
AcDbLine
 10
938.836935148566
 20
345.2567568073677
 30
0.0
 11
888.836935148566
 21
345.2567568073677
 31
0.0
  0
ARC
  5
12B9
330
2
100
AcDbEntity
  8
0
100
AcDbCircle
 10
888.836935148566
 20
351.7567568073677
 30
0.0
 40
5.0
100
AcDbArc
 50
180.0
 51
270.0
  0
ARC
  5
12BA
330
2
100
AcDbEntity
  8
0
100
AcDbCircle
 10
888.836935148566
 20
351.7567568073677
 30
0.0
 40
6.499999999999829
100
AcDbArc
 50
180.0
 51
270.0
  0
LINE
  5
12BB
330
2
100
AcDbEntity
  8
CENTER
100
AcDbLine
 10
889.088197807038
 20
355.4643021883397
 30
0.0
 11
889.088197807038
 21
348.5517367433375
 31
0.0
  0
LINE
  5
12BC
330
2
100
AcDbEntity
  8
CENTER
100
AcDbLine
 10
885.6319150845363
 20
352.0080194658384
 30
0.0
 11
892.5444805295381
 21
352.0080194658384
 31
0.0
  0
LINE
  5
12BD
330
2
100
AcDbEntity
  8
CENTER
100
AcDbLine
 10
935.1293897675956
 20
352.0080194658384
 30
0.0
 11
942.0419552125956
 21
352.0080194658384
 31
0.0
  0
LINE
  5
12BE
330
2
100
AcDbEntity
  8
CENTER
100
AcDbLine
 10
938.5856724900957
 20
355.4643021883393
 30
0.0
 11
938.5856724900957
 21
348.5517367433375
 31
0.0
  0
LINE
  5
12BF
330
2
100
AcDbEntity
  8
0
100
AcDbLine
 10
888.836935148566
 20
406.7567568073677
 30
0.0
 11
938.836935148566
 21
406.7567568073677
 31
0.0
  0
LINE
  5
12C0
330
2
100
AcDbEntity
  8
0
100
AcDbLine
 10
888.836935148566
 20
408.2567568073677
 30
0.0
 11
938.836935148566
 21
408.2567568073677
 31
0.0
  0
ARC
  5
12C1
330
2
100
AcDbEntity
  8
0
100
AcDbCircle
 10
877.8369351485659
 20
412.7567568073677
 30
0.0
 40
5.0
100
AcDbArc
 50
180.0
 51
180.0
  0
LINE
  5
12C2
330
2
100
AcDbEntity
  8
CENTER
100
AcDbLine
 10
871.5292580351476
 20
411.4049890855085
 30
0.0
 11
886.8481477057036
 21
411.4049890855085
 31
0.0
  0
LINE
  5
12C3
330
2
100
AcDbEntity
  8
CENTER
100
AcDbLine
 10
879.1887028704248
 20
419.064433920786
 30
0.0
 11
879.1887028704248
 21
403.7455442502309
 31
0.0
  0
ARC
  5
12C4
330
2
100
AcDbEntity
  8
0
100
AcDbCircle
 10
888.836935148566
 20
401.7567568073677
 30
0.0
 40
5.0
100
AcDbArc
 50
90.0
 51
180.0
  0
ARC
  5
12C5
330
2
100
AcDbEntity
  8
0
100
AcDbCircle
 10
888.836935148566
 20
401.7567568073677
 30
0.0
 40
6.499999999999829
100
AcDbArc
 50
90.0
 51
180.0
  0
LINE
  5
12C6
330
2
100
AcDbEntity
  8
CENTER
100
AcDbLine
 10
889.088197807038
 20
404.9617768713979
 30
0.0
 11
889.088197807038
 21
398.0492114263956
 31
0.0
  0
LINE
  5
12C7
330
2
100
AcDbEntity
  8
CENTER
100
AcDbLine
 10
885.6319150845363
 20
401.5054941488966
 30
0.0
 11
892.5444805295381
 21
401.5054941488966
 31
0.0
  0
LINE
  5
12C8
330
2
100
AcDbEntity
  8
CENTER
100
AcDbLine
 10
938.5856724900957
 20
404.9617768713979
 30
0.0
 11
938.5856724900957
 21
398.0492114263956
 31
0.0
  0
LINE
  5
12C9
330
2
100
AcDbEntity
  8
CENTER
100
AcDbLine
 10
935.1293897675956
 20
401.505494148897
 30
0.0
 11
942.0419552125956
 21
401.505494148897
 31
0.0
  0
LINE
  5
12CA
330
2
100
AcDbEntity
  8
0
100
AcDbLine
 10
945.336935148566
 20
401.7567568073677
 30
0.0
 11
945.336935148566
 21
351.7567568073677
 31
0.0
  0
LINE
  5
12CB
330
2
100
AcDbEntity
  8
CENTER
100
AcDbLine
 10
948.4851674267073
 20
419.064433920786
 30
0.0
 11
948.4851674267073
 21
403.7455442502309
 31
0.0
  0
ARC
  5
12CC
330
2
100
AcDbEntity
  8
0
100
AcDbCircle
 10
949.836935148566
 20
412.7567568073677
 30
0.0
 40
5.0
100
AcDbArc
 50
0.0
 51
90.0
  0
CIRCLE
  5
12CD
330
2
100
AcDbEntity
  8
CENTER
100
AcDbCircle
 10
913.836935148566
 20
376.7567568073677
 30
0.0
 40
35.00000000000003
  0
LINE
  5
12CE
330
2
100
AcDbEntity
  8
HIDS
100
AcDbLine
 10
897.5869351485659
 20
408.2567568073677
 30
0.0
 11
897.5869351485659
 21
392.3191313048541
 31
0.0
  0
LINE
  5
12CF
330
2
100
AcDbEntity
  8
HIDS
100
AcDbLine
 10
909.0869351485659
 20
408.2567568073677
 30
0.0
 11
909.0869351485659
 21
398.7496533878547
 31
0.0
  0
LINE
  5
12D0
330
2
100
AcDbEntity
  8
0
100
AcDbLine
 10
949.836935148566
 20
335.7567568073676
 30
0.0
 11
877.8369351485659
 21
335.7567568073676
 31
0.0
  0
CIRCLE
  5
12D1
330
2
100
AcDbEntity
  8
0
100
AcDbCircle
 10
948.6883495024438
 20
411.4049890855085
 30
0.0
 40
5.0
  0
CIRCLE
  5
12D2
330
2
100
AcDbEntity
  8
0
100
AcDbCircle
 10
948.6883495024438
 20
411.4049890855085
 30
0.0
 40
4.307179676972423
  0
CIRCLE
  5
12D3
330
2
100
AcDbEntity
  8
0
100
AcDbCircle
 10
948.6883495024438
 20
411.4049890855085
 30
0.0
 40
2.886751345948113
  0
LWPOLYLINE
  5
12D4
330
2
100
AcDbEntity
  8
0
100
AcDbPolyline
 90
        6
 70
     1
 43
0.0
 10
951.1883495024438
 20
412.8483647584825
 10
948.6883495024438
 20
414.2917404314566
 10
946.1883495024437
 20
412.8483647584825
 10
946.1883495024437
 20
409.9616134125343
 10
948.6883495024438
 20
408.5182377395603
 10
951.1883495024438
 20
409.9616134125343
  0
CIRCLE
  5
12D5
330
2
100
AcDbEntity
  8
0
100
AcDbCircle
 10
948.6883495024438
 20
342.1085245292269
 30
0.0
 40
5.0
  0
CIRCLE
  5
12D6
330
2
100
AcDbEntity
  8
0
100
AcDbCircle
 10
948.6883495024438
 20
342.1085245292269
 30
0.0
 40
4.307179676972423
  0
CIRCLE
  5
12D7
330
2
100
AcDbEntity
  8
0
100
AcDbCircle
 10
948.6883495024438
 20
342.1085245292269
 30
0.0
 40
2.886751345948113
  0
LWPOLYLINE
  5
12D8
330
2
100
AcDbEntity
  8
0
100
AcDbPolyline
 90
        6
 70
     1
 43
0.0
 10
951.1883495024438
 20
343.551900202201
 10
948.6883495024438
 20
344.995275875175
 10
946.1883495024437
 20
343.551900202201
 10
946.1883495024437
 20
340.6651488562528
 10
948.6883495024438
 20
339.2217731832788
 10
951.1883495024438
 20
340.6651488562528
  0
CIRCLE
  5
12D9
330
2
100
AcDbEntity
  8
0
100
AcDbCircle
 10
879.1887028704248
 20
342.1085245292269
 30
0.0
 40
5.0
  0
CIRCLE
  5
12DA
330
2
100
AcDbEntity
  8
0
100
AcDbCircle
 10
879.1887028704248
 20
342.1085245292269
 30
0.0
 40
4.307179676972423
  0
CIRCLE
  5
12DB
330
2
100
AcDbEntity
  8
0
100
AcDbCircle
 10
879.1887028704248
 20
342.1085245292269
 30
0.0
 40
2.886751345948113
  0
LWPOLYLINE
  5
12DC
330
2
100
AcDbEntity
  8
0
100
AcDbPolyline
 90
        6
 70
     1
 43
0.0
 10
881.6887028704247
 20
343.551900202201
 10
879.1887028704248
 20
344.995275875175
 10
876.6887028704248
 20
343.551900202201
 10
876.6887028704248
 20
340.6651488562528
 10
879.1887028704248
 20
339.2217731832788
 10
881.6887028704247
 20
340.6651488562528
  0
CIRCLE
  5
12DD
330
2
100
AcDbEntity
  8
0
100
AcDbCircle
 10
879.1887028704248
 20
411.4049890855085
 30
0.0
 40
5.0
  0
CIRCLE
  5
12DE
330
2
100
AcDbEntity
  8
0
100
AcDbCircle
 10
879.1887028704248
 20
411.4049890855085
 30
0.0
 40
4.307179676972423
  0
CIRCLE
  5
12DF
330
2
100
AcDbEntity
  8
0
100
AcDbCircle
 10
879.1887028704248
 20
411.4049890855085
 30
0.0
 40
2.886751345948113
  0
LWPOLYLINE
  5
12E0
330
2
100
AcDbEntity
  8
0
100
AcDbPolyline
 90
        6
 70
     1
 43
0.0
 10
881.6887028704247
 20
412.8483647584825
 10
879.1887028704248
 20
414.2917404314566
 10
876.6887028704248
 20
412.8483647584825
 10
876.6887028704248
 20
409.9616134125343
 10
879.1887028704248
 20
408.5182377395603
 10
881.6887028704247
 20
409.9616134125343
  0
LINE
  5
12E1
330
2
100
AcDbEntity
  8
HIDS
100
AcDbLine
 10
905.336935148566
 20
376.0067568073677
 30
0.0
 11
905.336935148566
 21
367.5567568073678
 31
0.0
  0
LINE
  5
12E2
330
2
100
AcDbEntity
  8
HIDS
100
AcDbLine
 10
905.0036018152338
 20
376.0067568073677
 30
0.0
 11
905.0036018152338
 21
367.2234234740344
 31
0.0
  0
LINE
  5
12E3
330
2
100
AcDbEntity
  8
HIDS
100
AcDbLine
 10
901.6702684819
 20
376.0067568073677
 30
0.0
 11
901.6702684819
 21
368.4180085666407
 31
0.0
  0
LINE
  5
12E4
330
2
100
AcDbEntity
  8
HIDS
100
AcDbLine
 10
901.336935148566
 20
376.0067568073677
 30
0.0
 11
901.336935148566
 21
368.9265269256847
 31
0.0
  0
LINE
  5
12E5
330
2
100
AcDbEntity
  8
CENTER
  6
CENS
100
AcDbLine
 10
903.336935148566
 20
415.6836907049314
 30
0.0
 11
903.336935148566
 21
365.3045064628108
 31
0.0
  0
LINE
  5
12E6
330
2
100
AcDbEntity
  8
HIDS
100
AcDbLine
 10
905.336935148566
 20
376.0067568073677
 30
0.0
 11
905.336935148566
 21
364.7021933561267
 31
0.0
  0
LINE
  5
12E7
330
2
100
AcDbEntity
  8
HIDS
100
AcDbLine
 10
902.3077330946515
 20
367.5567568073678
 30
0.0
 11
903.336935148566
 21
367.5567568073678
 31
0.0
  0
LINE
  5
12E8
330
2
100
AcDbEntity
  8
0
100
AcDbLine
 10
902.1369351485652
 20
366.7567568073677
 30
0.0
 11
902.9943109274652
 21
366.7567568073677
 31
0.0
  0
LINE
  5
12E9
330
2
100
AcDbEntity
  8
0
100
AcDbLine
 10
901.336935148566
 20
368.9265269256847
 30
0.0
 11
901.336935148566
 21
367.5567568073678
 31
0.0
  0
LINE
  5
12EA
330
2
100
AcDbEntity
  8
HOJO
100
AcDbLine
 10
901.6702684819
 20
368.4180085666407
 30
0.0
 11
901.6702684819
 21
367.2234234740344
 31
0.0
  0
LINE
  5
12EB
330
2
100
AcDbEntity
  8
0
100
AcDbLine
 10
901.336935148566
 20
367.5567568073678
 30
0.0
 11
902.3077330946515
 21
367.5567568073678
 31
0.0
  0
LINE
  5
12EC
330
2
100
AcDbEntity
  8
0
100
AcDbLine
 10
901.336935148566
 20
367.5567568073678
 30
0.0
 11
902.1369351485652
 21
366.7567568073677
 31
0.0
  0
LINE
  5
12ED
330
2
100
AcDbEntity
  8
HIDS
100
AcDbLine
 10
902.9943109274652
 20
366.7567568073677
 30
0.0
 11
903.336935148566
 21
366.7567568073677
 31
0.0
  0
LINE
  5
12EE
330
2
100
AcDbEntity
  8
HIDS
100
AcDbLine
 10
905.336935148566
 20
367.5567568073678
 30
0.0
 11
904.5369351485668
 21
366.7567568073677
 31
0.0
  0
LINE
  5
12EF
330
2
100
AcDbEntity
  8
HIDS
100
AcDbLine
 10
904.5369351485668
 20
366.7567568073677
 30
0.0
 11
903.336935148566
 21
366.7567568073677
 31
0.0
  0
LINE
  5
12F0
330
2
100
AcDbEntity
  8
HIDS
100
AcDbLine
 10
905.336935148566
 20
367.5567568073678
 30
0.0
 11
903.336935148566
 21
367.5567568073678
 31
0.0
  0
LINE
  5
12F1
330
2
100
AcDbEntity
  8
HIDS
100
AcDbLine
 10
905.0036018152338
 20
367.2234234740344
 30
0.0
 11
905.0036018152338
 21
364.9442751789283
 31
0.0
  0
LINE
  5
12F2
330
2
100
AcDbEntity
  8
HIDS
100
AcDbLine
 10
899.9602460621888
 20
381.7567568073677
 30
0.0
 11
906.836935148566
 21
381.7567568073677
 31
0.0
  0
LINE
  5
12F3
330
2
100
AcDbEntity
  8
HIDS
100
AcDbLine
 10
901.9259108433278
 20
385.4567568073676
 30
0.0
 11
906.836935148566
 21
385.4567568073676
 31
0.0
  0
LINE
  5
12F4
330
2
100
AcDbEntity
  8
HIDS
100
AcDbLine
 10
906.3173199062955
 20
385.7567568073677
 30
0.0
 11
902.1509392560462
 21
385.7567568073677
 31
0.0
  0
LINE
  5
12F5
330
2
100
AcDbEntity
  8
HIDS
100
AcDbLine
 10
905.336935148566
 20
380.0900901407008
 30
0.0
 11
901.336935148566
 21
380.0900901407008
 31
0.0
  0
LINE
  5
12F6
330
2
100
AcDbEntity
  8
HIDS
100
AcDbLine
 10
899.9602460621888
 20
381.7567568073677
 30
0.0
 11
907.3369351485659
 21
381.7567568073677
 31
0.0
  0
LINE
  5
12F7
330
2
100
AcDbEntity
  8
0
100
AcDbLine
 10
899.1060152859088
 20
377.5067568073677
 30
0.0
 11
903.336935148566
 21
377.5067568073677
 31
0.0
  0
LINE
  5
12F8
330
2
100
AcDbEntity
  8
0
100
AcDbLine
 10
899.1060152859088
 20
376.0067568073677
 30
0.0
 11
903.336935148566
 21
376.0067568073677
 31
0.0
  0
LINE
  5
12F9
330
2
100
AcDbEntity
  8
0
100
AcDbLine
 10
899.836935148566
 20
385.4567568073676
 30
0.0
 11
899.836935148566
 21
381.7567568073677
 31
0.0
  0
LINE
  5
12FA
330
2
100
AcDbEntity
  8
0
100
AcDbLine
 10
901.336935148566
 20
377.5067568073677
 30
0.0
 11
901.336935148566
 21
376.0067568073677
 31
0.0
  0
LINE
  5
12FB
330
2
100
AcDbEntity
  8
HOJO
100
AcDbLine
 10
901.6702684819
 20
377.5067568073677
 30
0.0
 11
901.6702684819
 21
376.0067568073677
 31
0.0
  0
LINE
  5
12FC
330
2
100
AcDbEntity
  8
HIDS
100
AcDbLine
 10
901.336935148566
 20
381.7567568073677
 30
0.0
 11
901.6702684819
 21
380.0900901407008
 31
0.0
  0
LINE
  5
12FD
330
2
100
AcDbEntity
  8
0
100
AcDbLine
 10
899.836935148566
 20
381.7567568073677
 30
0.0
 11
899.9602460621888
 21
381.7567568073677
 31
0.0
  0
LINE
  5
12FE
330
2
100
AcDbEntity
  8
HIDS
100
AcDbLine
 10
901.6702684819
 20
380.0900901407008
 30
0.0
 11
901.6702684819
 21
377.5067568073677
 31
0.0
  0
LINE
  5
12FF
330
2
100
AcDbEntity
  8
HIDS
100
AcDbLine
 10
901.336935148566
 20
381.7567568073677
 30
0.0
 11
901.336935148566
 21
377.5067568073677
 31
0.0
  0
LINE
  5
1300
330
2
100
AcDbEntity
  8
HIDS
100
AcDbLine
 10
900.836935148566
 20
381.7567568073677
 30
0.0
 11
900.836935148566
 21
377.5067568073677
 31
0.0
  0
LINE
  5
1301
330
2
100
AcDbEntity
  8
0
100
AcDbLine
 10
902.1509392560462
 20
385.7567568073677
 30
0.0
 11
900.3565503908363
 21
385.7567568073677
 31
0.0
  0
LINE
  5
1302
330
2
100
AcDbEntity
  8
0
100
AcDbLine
 10
899.836935148566
 20
385.4567568073676
 30
0.0
 11
900.3565503908363
 21
385.7567568073677
 31
0.0
  0
LINE
  5
1303
330
2
100
AcDbEntity
  8
0
100
AcDbLine
 10
899.836935148566
 20
385.4567568073676
 30
0.0
 11
901.9259108433278
 21
385.4567568073676
 31
0.0
  0
LINE
  5
1304
330
2
100
AcDbEntity
  8
HIDS
100
AcDbLine
 10
906.836935148566
 20
381.7567568073677
 30
0.0
 11
906.836935148566
 21
385.4567568073676
 31
0.0
  0
LINE
  5
1305
330
2
100
AcDbEntity
  8
HIDS
100
AcDbLine
 10
907.3369351485659
 20
389.9973194842332
 30
0.0
 11
907.3369351485659
 21
381.7567568073677
 31
0.0
  0
LINE
  5
1306
330
2
100
AcDbEntity
  8
HOJO
100
AcDbLine
 10
905.0036018152338
 20
377.5067568073677
 30
0.0
 11
905.0036018152338
 21
376.0067568073677
 31
0.0
  0
LINE
  5
1307
330
2
100
AcDbEntity
  8
0
100
AcDbLine
 10
905.336935148566
 20
377.5067568073677
 30
0.0
 11
905.336935148566
 21
376.0067568073677
 31
0.0
  0
LINE
  5
1308
330
2
100
AcDbEntity
  8
0
100
AcDbLine
 10
903.336935148566
 20
376.0067568073677
 30
0.0
 11
906.8772296950289
 21
376.0067568073677
 31
0.0
  0
LINE
  5
1309
330
2
100
AcDbEntity
  8
0
100
AcDbLine
 10
903.336935148566
 20
377.5067568073677
 30
0.0
 11
906.8772296950289
 21
377.5067568073677
 31
0.0
  0
LINE
  5
130A
330
2
100
AcDbEntity
  8
HIDS
100
AcDbLine
 10
905.336935148566
 20
381.7567568073677
 30
0.0
 11
905.0036018152338
 21
380.0900901407008
 31
0.0
  0
LINE
  5
130B
330
2
100
AcDbEntity
  8
HIDS
100
AcDbLine
 10
905.336935148566
 20
381.7567568073677
 30
0.0
 11
905.336935148566
 21
377.5067568073677
 31
0.0
  0
LINE
  5
130C
330
2
100
AcDbEntity
  8
HIDS
100
AcDbLine
 10
905.0036018152338
 20
380.0900901407008
 30
0.0
 11
905.0036018152338
 21
377.5067568073677
 31
0.0
  0
LINE
  5
130D
330
2
100
AcDbEntity
  8
HIDS
100
AcDbLine
 10
905.836935148566
 20
381.7567568073677
 30
0.0
 11
905.836935148566
 21
377.5067568073677
 31
0.0
  0
LINE
  5
130E
330
2
100
AcDbEntity
  8
HIDS
100
AcDbLine
 10
906.3173199062955
 20
385.7567568073677
 30
0.0
 11
906.836935148566
 21
385.4567568073676
 31
0.0
  0
LINE
  5
130F
330
2
100
AcDbEntity
  8
0
100
AcDbLine
 10
927.8369351485659
 20
376.0067568073677
 30
0.0
 11
920.796640602103
 21
376.0067568073677
 31
0.0
  0
LINE
  5
1310
330
2
100
AcDbEntity
  8
0
100
AcDbLine
 10
920.796640602103
 20
377.5067568073677
 30
0.0
 11
927.8369351485659
 21
377.5067568073677
 31
0.0
  0
LINE
  5
1311
330
2
100
AcDbEntity
  8
0
100
AcDbLine
 10
927.8369351485659
 20
377.5067568073677
 30
0.0
 11
927.8369351485659
 21
376.0067568073677
 31
0.0
  0
ARC
  5
1312
330
2
100
AcDbEntity
  8
0
100
AcDbCircle
 10
913.8369351485641
 20
376.7567568073691
 30
0.0
 40
8.154700538378051
100
AcDbArc
 50
185.2770359348315
 51
354.7229640651684
  0
ARC
  5
1313
330
2
100
AcDbEntity
  8
0
100
AcDbCircle
 10
913.8369351485641
 20
376.7567568073691
 30
0.0
 40
8.154700538378051
100
AcDbArc
 50
5.277035934805344
 51
174.7229640651946
  0
CIRCLE
  5
1314
330
2
100
AcDbEntity
  8
0
100
AcDbCircle
 10
913.836935148566
 20
376.7567568073677
 30
0.0
 40
7.000000000000113
  0
CIRCLE
  5
1315
330
2
100
AcDbEntity
  8
HOJO
100
AcDbCircle
 10
889.088197807038
 20
401.5054941488966
 30
0.0
 40
2.0
  0
CIRCLE
  5
1316
330
2
100
AcDbEntity
  8
0
100
AcDbCircle
 10
889.088197807038
 20
401.5054941488966
 30
0.0
 40
1.6
  0
CIRCLE
  5
1317
330
2
100
AcDbEntity
  8
HOJO
100
AcDbCircle
 10
938.5856724900957
 20
401.505494148897
 30
0.0
 40
2.0
  0
CIRCLE
  5
1318
330
2
100
AcDbEntity
  8
0
100
AcDbCircle
 10
938.5856724900957
 20
401.505494148897
 30
0.0
 40
1.6
  0
CIRCLE
  5
1319
330
2
100
AcDbEntity
  8
HOJO
100
AcDbCircle
 10
938.5856724900957
 20
352.0080194658384
 30
0.0
 40
2.0
  0
CIRCLE
  5
131A
330
2
100
AcDbEntity
  8
0
100
AcDbCircle
 10
938.5856724900957
 20
352.0080194658384
 30
0.0
 40
1.6
  0
CIRCLE
  5
131B
330
2
100
AcDbEntity
  8
HOJO
100
AcDbCircle
 10
889.088197807038
 20
352.0080194658384
 30
0.0
 40
2.0
  0
CIRCLE
  5
131C
330
2
100
AcDbEntity
  8
0
100
AcDbCircle
 10
889.088197807038
 20
352.0080194658384
 30
0.0
 40
1.6
  0
CIRCLE
  5
131D
330
2
100
AcDbEntity
  8
0
100
AcDbCircle
 10
913.8369351485678
 20
376.7567568073677
 30
0.0
 40
14.75000000000022
  0
LINE
  5
131E
330
2
100
AcDbEntity
  8
0
100
AcDbLine
 10
898.461935148566
 20
412.5092329221797
 30
0.0
 11
908.211935148566
 21
412.5092329221797
 31
0.0
  0
ARC
  5
131F
330
2
100
AcDbEntity
  8
0
100
AcDbCircle
 10
898.461935148566
 20
408.2592329221797
 30
0.0
 40
4.25
100
AcDbArc
 50
90.0
 51
179.9485848525427
  0
ARC
  5
1320
330
2
100
AcDbEntity
  8
0
100
AcDbCircle
 10
907.9619351485659
 20
408.2592329221797
 30
0.0
 40
4.25
100
AcDbArc
 50
0.0
 51
90.0
  0
ARC
  5
1321
330
2
100
AcDbEntity
  8
0
100
AcDbCircle
 10
877.8369351485624
 20
412.7567568073677
 30
0.0
 40
5.0
100
AcDbArc
 50
90.0
 51
180.0
  0
CIRCLE
  5
1322
330
2
100
AcDbEntity
  8
0
100
AcDbCircle
 10
913.836935148566
 20
376.7567568073677
 30
0.0
 40
22.5
  0
LINE
  5
1B9F
330
2
100
AcDbEntity
  8
PHAS
  6
SEKKEI_P_S
100
AcDbLine
 10
293.6656252703962
 20
348.2567568073623
 30
0.0
 11
293.6656252703962
 21
405.2567568073623
 31
0.0
  0
LINE
  5
1BA0
330
2
100
AcDbEntity
  8
PHAS
  6
SEKKEI_P_S
100
AcDbLine
 10
268.1656252703962
 20
363.7206548073623
 30
0.0
 11
268.1656252703962
 21
389.7928345654514
 31
0.0
  0
LINE
  5
1BA1
330
2
100
AcDbEntity
  8
PHAS
  6
SEKKEI_P_S
100
AcDbLine
 10
283.8656252703965
 20
351.3759082330066
 30
0.0
 11
283.8656252703965
 21
402.1376053817189
 31
0.0
  0
LINE
  5
1BA2
330
2
100
AcDbEntity
  8
PHAS
  6
SEKKEI_P_S
100
AcDbLine
 10
293.6656252703962
 20
348.2567568073623
 30
0.0
 11
286.8132680510846
 21
348.376365147537
 31
0.0
  0
ARC
  5
1BA3
330
2
100
AcDbEntity
  8
PHAS
  6
SEKKEI_P_S
100
AcDbCircle
 10
282.8656252703965
 20
355.9176636400211
 30
0.0
 40
1.0
100
AcDbArc
 50
0.0
 51
79.99956533742561
  0
ARC
  5
1BA4
330
2
100
AcDbEntity
  8
PHAS
  6
SEKKEI_P_S
100
AcDbCircle
 10
286.8656252703965
 20
351.3759082330066
 30
0.0
 40
3.0
100
AcDbArc
 50
180.0
 51
268.9999999999982
  0
LINE
  5
1BA5
330
2
100
AcDbEntity
  8
PHAS
  6
SEKKEI_P_S
100
AcDbLine
 10
272.2973470268841
 20
358.7966468710843
 30
0.0
 11
283.0392809190986
 21
356.9024700756595
 31
0.0
  0
ARC
  5
1BA6
330
2
100
AcDbEntity
  8
PHAS
  6
SEKKEI_P_S
100
AcDbCircle
 10
273.1656252703962
 20
363.7206790492742
 30
0.0
 40
5.0
100
AcDbArc
 50
180.0
 51
259.9995653374256
  0
LINE
  5
1BA7
330
2
100
AcDbEntity
  8
PHAS
  6
SEKKEI_P_S
100
AcDbLine
 10
283.0392672703963
 20
356.902447807362
 30
0.0
 11
283.0456270818588
 21
356.9013265370954
 31
0.0
  0
LINE
  5
1BA8
330
2
100
AcDbEntity
  8
PHAS
  6
SEKKEI_P_S
100
AcDbLine
 10
293.6656252703962
 20
405.2567568073623
 30
0.0
 11
286.8132680510846
 21
405.1371484671886
 31
0.0
  0
LINE
  5
1BA9
330
2
100
AcDbEntity
  8
PHAS
  6
SEKKEI_P_S
100
AcDbLine
 10
272.2973470268841
 20
394.7168667436404
 30
0.0
 11
283.0392809190986
 21
396.611043539066
 31
0.0
  0
ARC
  5
1BAA
330
2
100
AcDbEntity
  8
PHAS
  6
SEKKEI_P_S
100
AcDbCircle
 10
273.1656252703962
 20
389.7928345654514
 30
0.0
 40
5.0
100
AcDbArc
 50
100.0004346625743
 51
180.0
  0
ARC
  5
1BAB
330
2
100
AcDbEntity
  8
PHAS
  6
SEKKEI_P_S
100
AcDbCircle
 10
282.859279107636
 20
397.5947064361403
 30
0.0
 40
1.0
100
AcDbArc
 50
280.0004346625744
 51
0.0
  0
ARC
  5
1BAC
330
2
100
AcDbEntity
  8
PHAS
  6
SEKKEI_P_S
100
AcDbCircle
 10
286.8656252703979
 20
402.137605381718
 30
0.0
 40
3.0
100
AcDbArc
 50
91.00000000000177
 51
180.0
  0
CIRCLE
  5
1E0C
330
2
100
AcDbEntity
  8
0
100
AcDbCircle
 10
551.1386981320936
 20
376.7567568073741
 30
0.0
 40
23.5774
  0
ARC
  5
1E63
330
2
100
AcDbEntity
  8
0
100
AcDbCircle
 10
646.1386981277171
 20
690.5666794988308
 30
0.0
 40
2.0
100
AcDbArc
 50
0.0
 51
89.49999999999816
  0
ARC
  5
1E66
330
2
100
AcDbEntity
  8
0
100
AcDbCircle
 10
646.1386981277171
 20
612.7413691681888
 30
0.0
 40
2.0
100
AcDbArc
 50
270.4999999999971
 51
0.0
  0
ARC
  5
1E67
330
2
100
AcDbEntity
  8
0
100
AcDbCircle
 10
646.1386981320864
 20
415.6694119726988
 30
0.0
 40
2.0
100
AcDbArc
 50
0.0
 51
89.50000000000288
  0
ARC
  5
1E68
330
2
100
AcDbEntity
  8
0
100
AcDbCircle
 10
646.1386981320862
 20
337.8441016420566
 30
0.0
 40
2.0
100
AcDbArc
 50
270.5000000000018
 51
0.0
  0
ARC
  5
1E69
330
2
100
AcDbEntity
  8
0
100
AcDbCircle
 10
72.41773264297785
 20
415.6694119727023
 30
0.0
 40
2.0
100
AcDbArc
 50
90.49999999999711
 51
180.0
  0
ARC
  5
1E6A
330
2
100
AcDbEntity
  8
0
100
AcDbCircle
 10
72.41773264297785
 20
337.8441016420603
 30
0.0
 40
2.0
100
AcDbArc
 50
180.0
 51
269.4999999999981
  0
ARC
  5
1E6B
330
2
100
AcDbEntity
  8
0
100
AcDbCircle
 10
673.8164503726399
 20
681.1680720653744
 30
0.0
 40
2.0
100
AcDbArc
 50
46.01776145272124
 51
89.00000000000034
  0
ARC
  5
1E6C
330
2
100
AcDbEntity
  8
0
100
AcDbCircle
 10
673.8164503726397
 20
622.1399766016457
 30
0.0
 40
2.0
100
AcDbArc
 50
270.9999999999996
 51
313.9822385472787
  0
ARC
  5
1E6D
330
2
100
AcDbEntity
  8
0
100
AcDbCircle
 10
673.8164503770091
 20
406.2708045392414
 30
0.0
 40
2.0
100
AcDbArc
 50
46.0177614527303
 51
89.00000000000034
  0
ARC
  5
1E6E
330
2
100
AcDbEntity
  8
0
100
AcDbCircle
 10
673.8164503770092
 20
347.2427090755131
 30
0.0
 40
2.0
100
AcDbArc
 50
271.000000000001
 51
313.9822385472697
  0
ARC
  5
1E81
330
2
100
AcDbEntity
  8
0
100
AcDbCircle
 10
44.739980398055
 20
406.270804539245
 30
0.0
 40
2.0
100
AcDbArc
 50
90.99999999999965
 51
133.9822385472697
  0
ARC
  5
1E82
330
2
100
AcDbEntity
  8
0
100
AcDbCircle
 10
44.73998039805493
 20
347.2427090755167
 30
0.0
 40
2.0
100
AcDbArc
 50
226.0177614527302
 51
268.9999999999989
  0
ENDSEC
  0
SECTION
  2
OBJECTS
  0
DICTIONARY
  5
7
330
0
100
AcDbDictionary
  3
ACAD_COLOR
350
1E39
  3
ACAD_GROUP
350
75
  3
ACAD_LAYOUT
350
61
  3
ACAD_MATERIAL
350
1E0F
  3
ACAD_MLEADERSTYLE
350
1E5E
  3
ACAD_MLINESTYLE
350
76
  3
ACAD_PLOTSETTINGS
350
77
  3
ACAD_PLOTSTYLENAME
350
6
  3
ACAD_SCALELIST
350
1E3C
  3
ACAD_TABLESTYLE
350
1E3A
  3
ACAD_VISUALSTYLE
350
1E28
  3
ACADDIM
350
480
  3
ACDB_RECOMPOSE_DATA
350
1E95
  3
ACDBHEADERROUNDTRIPXREC
350
1F1F
  3
ACDBVARIABLEDICTIONARY
350
102
  3
DWGPROPS
350
1EEB
  0
DICTIONARY
  5
1E9E
330
6E
100
AcDbDictionary
280
     1
  3
ACAD_XREC_ROUNDTRIP
360
1EF2
  0
DICTIONARY
  5
AE2
330
66
100
AcDbDictionary
280
     1
  3
ACAD_LAYERSTATES
360
AE3
  0
DICTIONARY
  5
1E83
330
5E
100
AcDbDictionary
280
     1
  3
ACAD_XREC_ROUNDTRIP
360
1EEE
  3
ADSK_XREC_LAYER_RECONCILED
360
1E84
  0
DICTIONARY
  5
1E85
330
3E
100
AcDbDictionary
280
     1
  3
ACAD_XREC_ROUNDTRIP
360
1EED
  3
ADSK_XREC_LAYER_RECONCILED
360
1E86
  0
DICTIONARY
  5
1E8B
330
2B5
100
AcDbDictionary
280
     1
  3
ACAD_XREC_ROUNDTRIP
360
1EF8
  3
ADSK_XREC_LAYER_RECONCILED
360
1E8C
  0
DICTIONARY
  5
1E8D
330
2BA
100
AcDbDictionary
280
     1
  3
ACAD_XREC_ROUNDTRIP
360
1EF9
  3
ADSK_XREC_LAYER_RECONCILED
360
1E8E
  0
DICTIONARY
  5
1E91
330
3FA
100
AcDbDictionary
280
     1
  3
ACAD_XREC_ROUNDTRIP
360
1EFB
  3
ADSK_XREC_LAYER_RECONCILED
360
1E92
  0
DICTIONARY
  5
1B88
330
1B87
100
AcDbDictionary
280
     1
  3
ACAD_XREC_ROUNDTRIP
360
1EFE
  3
ADSK_XREC_LAYER_RECONCILED
360
1B8A
  0
DICTIONARY
  5
1E64
330
2
100
AcDbDictionary
280
     1
  3
ACAD_LAYOUTSELFREF
360
1F40
  3
ACAD_SORTENTS
360
1E65
  0
DICTIONARY
  5
1F41
330
1F19
100
AcDbDictionary
280
     1
  3
ACAD_LAYOUTSELFREF
360
1F42
  0
DICTIONARY
  5
1E39
102
{ACAD_REACTORS
330
7
102
}
330
7
100
AcDbDictionary
  0
DICTIONARY
  5
75
102
{ACAD_REACTORS
330
7
102
}
330
7
100
AcDbDictionary
  0
DICTIONARY
  5
61
102
{ACAD_REACTORS
330
7
102
}
330
7
100
AcDbDictionary
  0
DICTIONARY
  5
1E0F
102
{ACAD_REACTORS
330
7
102
}
330
7
100
AcDbDictionary
  3
BYBLOCK
350
1E18
  3
BYLAYER
350
1E10
  3
GLOBAL
350
1E20
  0
DICTIONARY
  5
1E5E
102
{ACAD_REACTORS
330
7
102
}
330
7
100
AcDbDictionary
  3
STANDARD
350
1E5F
  0
DICTIONARY
  5
76
102
{ACAD_REACTORS
330
7
102
}
330
7
100
AcDbDictionary
  3
STANDARD
350
78
  0
DICTIONARY
  5
77
102
{ACAD_REACTORS
330
7
102
}
330
7
100
AcDbDictionary
  0
ACDBDICTIONARYWDFLT
  5
6
102
{ACAD_REACTORS
330
7
102
}
330
7
100
AcDbDictionary
281
     1
  3
Normal
350
5
100
AcDbDictionaryWithDefault
340
5
  0
DICTIONARY
  5
1E3C
102
{ACAD_REACTORS
330
7
102
}
330
7
100
AcDbDictionary
  3
A0
350
1E3D
  3
A1
350
1E3E
  3
A2
350
1E3F
  3
A3
350
1E40
  3
A4
350
1E41
  3
A5
350
1E42
  3
A6
350
1E43
  3
A7
350
1E44
  3
A8
350
1E45
  3
A9
350
1E46
  3
B0
350
1E47
  3
B1
350
1E48
  3
B2
350
1E49
  3
B3
350
1E4A
  3
B4
350
1E4B
  3
B5
350
1E4C
  3
B6
350
1E4D
  3
B7
350
1E4E
  3
B8
350
1E4F
  3
B9
350
1E50
  3
C0
350
1E51
  3
C1
350
1E52
  3
C2
350
1E53
  3
C3
350
1E54
  3
C4
350
1E55
  3
C5
350
1E56
  3
C6
350
1E57
  3
C7
350
1E58
  3
C8
350
1E59
  3
C9
350
1E5A
  3
D0
350
1E5B
  3
D1
350
1E5C
  3
D2
350
1E5D
  0
DICTIONARY
  5
1E3A
102
{ACAD_REACTORS
330
7
102
}
330
7
100
AcDbDictionary
  3
STANDARD
350
1E3B
  0
DICTIONARY
  5
1E28
102
{ACAD_REACTORS
330
7
102
}
330
7
100
AcDbDictionary
  3
2DWIREFRAME
350
1E2E
  3
3D_HIDDEN
350
1E30
  3
3DWIREFRAME
350
1E2F
  3
BASIC
350
1E2D
  3
BRIGHTEN
350
1E34
  3
COLORCHANGE
350
1E38
  3
CONCEPTUAL
350
1E31
  3
DIM
350
1E33
  3
FACEPATTERN
350
1E37
  3
FLAT
350
1E29
  3
FLATWITHEDGES
350
1E2A
  3
GOURAUD
350
1E2B
  3
GOURAUDWITHEDGES
350
1E2C
  3
LINEPATTERN
350
1E36
  3
REALISTIC
350
1E32
  3
THICKEN
350
1E35
  0
XRECORD
  5
480
102
{ACAD_REACTORS
330
7
102
}
330
7
100
AcDbXrecord
 90
   990106
  3

 60
     0
 61
     0
 62
     1
 63
     3
 64
     1
 65
     0
 66
     0
 67
     3
 68
     1
 69
     0
 70
     0
 71
     0
 72
     0
 40
0.0
170
     2
340
0
  0
XRECORD
  5
1E95
102
{ACAD_REACTORS
330
7
102
}
330
7
100
AcDbXrecord
 90
        1
330
1E3B
  0
DICTIONARY
  5
1F1F
102
{ACAD_REACTORS
330
7
102
}
330
7
100
AcDbDictionary
  3
CEPSNTYPE
350
1F29
  3
DIMSTYLEDATA
350
1F2D
  3
FINGERPRINTGUID
350
1F2A
  3
HYPERLINKBASE
350
1F22
  3
INSUNITS
350
1F28
  3
LAYOUTDICT
350
1F24
  3
LWETCUNION
350
1F27
  3
PLOTSETDICT
350
1F25
  3
PLOTSTYLNAMDICT
350
1F26
  3
PSVPSCALE
350
1F2C
  3
PUCSBASE
350
1F30
  3
PUCSORGBACK
350
1F36
  3
PUCSORGBOTTOM
350
1F32
  3
PUCSORGFRONT
350
1F35
  3
PUCSORGLEFT
350
1F33
  3
PUCSORGRIGHT
350
1F34
  3
PUCSORGTOP
350
1F31
  3
PUCSORTHOREF
350
1F2E
  3
PUCSORTHOVIEW
350
1F2F
  3
STYLESHEET
350
1F23
  3
TSTACKALIGN
350
1F20
  3
TSTACKSIZE
350
1F21
  3
UCSBASE
350
1F39
  3
UCSORGBACK
350
1F3F
  3
UCSORGBOTTOM
350
1F3B
  3
UCSORGFRONT
350
1F3E
  3
UCSORGLEFT
350
1F3C
  3
UCSORGRIGHT
350
1F3D
  3
UCSORGTOP
350
1F3A
  3
UCSORTHOREF
350
1F37
  3
UCSORTHOVIEW
350
1F38
  3
VERSIONGUID
350
1F2B
  0
DICTIONARY
  5
102
102
{ACAD_REACTORS
330
7
102
}
330
7
100
AcDbDictionary
  3
CANNOSCALE
350
1EB6
  3
CMLEADERSTYLE
350
1EB5
  3
CTABLESTYLE
350
1EB4
  3
DIMASSOC
350
103
  3
INDEXCTL
350
1EB7
  3
SORTENTS
350
549
  0
XRECORD
  5
1EEB
102
{ACAD_REACTORS
330
7
102
}
330
7
100
AcDbXrecord
  1
DWGPROPS COOKIE
  2

  3

  4

  6

  7

  8
ymorima
  9

300
=
301
=
302
=
303
=
304
=
305
=
306
=
307
=
308
=
309
=
 40
0.0202508333333333
 41
2454410.724518044
 42
2454425.679350578
  1

 90
        0
  0
XRECORD
  5
1EF2
102
{ACAD_REACTORS
330
1E9E
102
}
330
1E9E
100
AcDbXrecord
102
VTR_0.000_0.000_1.000_1.000_VISUALSTYLE
340
1E2E
102
VTR_0.000_0.000_1.000_1.000_GRIDDISPLAY
 70
     3
102
VTR_0.000_0.000_1.000_1.000_GRIDMAJOR
 70
     5
102
VTR_0.000_0.000_1.000_1.000_DEFAULTLIGHTING
280
     1
102
VTR_0.000_0.000_1.000_1.000_DEFAULTLIGHTINGTYPE
 70
     1
102
VTR_0.000_0.000_1.000_1.000_BRIGHTNESS
141
0.0
102
VTR_0.000_0.000_1.000_1.000_CONTRAST
142
0.0
  0
DICTIONARY
  5
AE3
102
{ACAD_REACTORS
330
AE2
102
}
330
AE2
100
AcDbDictionary
  0
XRECORD
  5
1EEE
102
{ACAD_REACTORS
330
1E83
102
}
330
1E83
100
AcDbXrecord
102
MATERIAL
340
1E20
  0
XRECORD
  5
1E84
102
{ACAD_REACTORS
330
1E83
102
}
330
1E83
100
AcDbXrecord
290
     1
  0
XRECORD
  5
1EED
102
{ACAD_REACTORS
330
1E85
102
}
330
1E85
100
AcDbXrecord
102
MATERIAL
340
1E20
  0
XRECORD
  5
1E86
102
{ACAD_REACTORS
330
1E85
102
}
330
1E85
100
AcDbXrecord
290
     1
  0
XRECORD
  5
1EF8
102
{ACAD_REACTORS
330
1E8B
102
}
330
1E8B
100
AcDbXrecord
102
MATERIAL
340
1E20
  0
XRECORD
  5
1E8C
102
{ACAD_REACTORS
330
1E8B
102
}
330
1E8B
100
AcDbXrecord
290
     1
  0
XRECORD
  5
1EF9
102
{ACAD_REACTORS
330
1E8D
102
}
330
1E8D
100
AcDbXrecord
102
MATERIAL
340
1E20
  0
XRECORD
  5
1E8E
102
{ACAD_REACTORS
330
1E8D
102
}
330
1E8D
100
AcDbXrecord
290
     1
  0
XRECORD
  5
1EFB
102
{ACAD_REACTORS
330
1E91
102
}
330
1E91
100
AcDbXrecord
102
MATERIAL
340
1E20
  0
XRECORD
  5
1E92
102
{ACAD_REACTORS
330
1E91
102
}
330
1E91
100
AcDbXrecord
290
     1
  0
XRECORD
  5
1EFE
102
{ACAD_REACTORS
330
1B88
102
}
330
1B88
100
AcDbXrecord
102
MATERIAL
340
1E20
  0
XRECORD
  5
1B8A
102
{ACAD_REACTORS
330
1B88
102
}
330
1B88
100
AcDbXrecord
290
     1
  0
XRECORD
  5
1F40
102
{ACAD_REACTORS
330
1E64
102
}
330
1E64
100
AcDbXrecord
340
2
  0
SORTENTSTABLE
  5
1E65
102
{ACAD_REACTORS
330
1E64
102
}
330
1E64
100
AcDbSortentsTable
330
2
331
1128
  5
1128
331
1287
  5
1292
331
10C3
  5
10C3
331
1004
  5
1004
331
1132
  5
1132
331
F9F
  5
F9F
331
1291
  5
129D
331
10CD
  5
10CD
331
100E
  5
100E
331
122C
  5
1231
331
1068
  5
1068
331
129B
  5
12A7
331
FA9
  5
FA9
331
10D7
  5
10D7
331
11B2
  5
11B2
331
F3C
  5
F3C
331
1236
  5
123E
331
1072
  5
1072
331
131B
  5
17D6
331
1240
  5
1248
331
F46
  5
F46
331
107C
  5
107C
331
11C6
  5
11C6
331
1E63
  5
1230
331
F50
  5
F50
331
1086
  5
1086
331
1161
  5
1161
331
1E6D
  5
122B
331
12C0
  5
12CC
331
116B
  5
116B
331
FD0
  5
FD0
331
12CA
  5
12D6
331
1106
  5
1106
331
1175
  5
1175
331
12D4
  5
12E0
331
FDA
  5
FDA
331
1110
  5
1110
331
126F
  5
1278
331
10A3
  5
10A3
331
FE4
  5
FE4
331
12DE
  5
12EA
331
11F5
  5
11F5
331
F7F
  5
F7F
331
1279
  5
1281
331
10AD
  5
10AD
331
FEE
  5
FEE
331
11FF
  5
11FF
331
120C
  5
120C
331
1048
  5
1048
331
F89
  5
F89
331
10B7
  5
10B7
331
1192
  5
1192
331
F24
  5
F24
331
1216
  5
1216
331
1052
  5
1052
331
F93
  5
F93
331
119C
  5
119C
331
12FB
  5
1307
331
1220
  5
1224
331
F2E
  5
F2E
331
105C
  5
105C
331
11A6
  5
11A6
331
1013
  5
1013
331
1305
  5
1311
331
1066
  5
1066
331
1141
  5
1141
331
12A0
  5
12AC
331
1B9F
  5
1BAB
331
130F
  5
131B
331
101D
  5
101D
331
114B
  5
114B
331
FB0
  5
FB0
331
12AA
  5
12B6
331
10E6
  5
10E6
331
1BA9
  5
1E69
331
1027
  5
1027
331
1155
  5
1155
331
12B4
  5
12C0
331
FBA
  5
FBA
331
10F0
  5
10F0
331
124F
  5
1257
331
108B
  5
108B
331
12BE
  5
12CA
331
FC4
  5
FC4
331
10FA
  5
10FA
331
11D5
  5
11D5
331
F5F
  5
F5F
331
1259
  5
1261
331
1095
  5
1095
331
FCE
  5
FCE
331
11DF
  5
11DF
331
1028
  5
1028
331
1263
  5
126B
331
F69
  5
F69
331
109F
  5
109F
331
117A
  5
117A
331
11E9
  5
11E9
331
1032
  5
1032
331
F73
  5
F73
331
1184
  5
1184
331
12E3
  5
12EF
331
F0E
  5
F0E
331
103C
  5
103C
331
118E
  5
118E
331
FF3
  5
FF3
331
12ED
  5
12F9
331
F18
  5
F18
331
1046
  5
1046
331
1121
  5
1121
331
1280
  5
128C
331
12F7
  5
1303
331
FFD
  5
FFD
331
112B
  5
112B
331
F98
  5
F98
331
128A
  5
1296
331
10C6
  5
10C6
331
1007
  5
1007
331
1135
  5
1135
331
1294
  5
12A0
331
FA2
  5
FA2
331
10D0
  5
10D0
331
122F
  5
1236
331
106B
  5
106B
331
129E
  5
12AA
331
FAC
  5
FAC
331
10DA
  5
10DA
331
11B5
  5
11B5
331
F3F
  5
F3F
331
1239
  5
1241
331
1075
  5
1075
331
11BF
  5
11BF
331
131E
  5
1BA1
331
1243
  5
124B
331
F49
  5
F49
331
107F
  5
107F
331
115A
  5
115A
331
11C9
  5
11C9
331
1E66
  5
1237
331
F53
  5
F53
331
1164
  5
1164
331
12C3
  5
12CF
331
116E
  5
116E
331
FD3
  5
FD3
331
12CD
  5
12D9
331
1109
  5
1109
331
1268
  5
1270
331
179F
  5
1BA9
331
12D7
  5
12E3
331
FDD
  5
FDD
331
1113
  5
1113
331
F78
  5
F78
331
1272
  5
127B
331
10A6
  5
10A6
331
FE7
  5
FE7
331
11F8
  5
11F8
331
127C
  5
1284
331
F82
  5
F82
331
10B0
  5
10B0
331
1202
  5
1202
331
120F
  5
120F
331
104B
  5
104B
331
F8C
  5
F8C
331
10BA
  5
10BA
331
1195
  5
1195
331
F27
  5
F27
331
1219
  5
1219
331
1055
  5
1055
331
F96
  5
F96
331
119F
  5
119F
331
12FE
  5
130A
331
F31
  5
F31
331
105F
  5
105F
331
113A
  5
113A
331
11A9
  5
11A9
331
1308
  5
1314
331
1016
  5
1016
331
1144
  5
1144
331
12A3
  5
12AF
331
1BA2
  5
1BAE
331
1312
  5
131E
331
1020
  5
1020
331
114E
  5
114E
331
FB3
  5
FB3
331
12AD
  5
12B9
331
10E9
  5
10E9
331
1BAC
  5
1E6C
331
1248
  5
1250
331
12B7
  5
12C3
331
FBD
  5
FBD
331
10F3
  5
10F3
331
F58
  5
F58
331
1252
  5
125A
331
108E
  5
108E
331
FC7
  5
FC7
331
10FD
  5
10FD
331
11D8
  5
11D8
331
F62
  5
F62
331
125C
  5
1264
331
1098
  5
1098
331
11E2
  5
11E2
331
102B
  5
102B
331
1266
  5
126E
331
F6C
  5
F6C
331
117D
  5
117D
331
F07
  5
F07
331
11EC
  5
11EC
331
1035
  5
1035
331
F76
  5
F76
331
1187
  5
1187
331
12E6
  5
12F2
331
F11
  5
F11
331
103F
  5
103F
331
111A
  5
111A
331
12F0
  5
12FC
331
F1B
  5
F1B
331
FF6
  5
FF6
331
1124
  5
1124
331
1283
  5
1290
331
1000
  5
1000
331
112E
  5
112E
331
F9B
  5
F9B
331
128D
  5
1299
331
10C9
  5
10C9
331
100A
  5
100A
331
1228
  5
122C
331
1297
  5
12A3
331
FA5
  5
FA5
331
10D3
  5
10D3
331
F38
  5
F38
331
1232
  5
1238
331
106E
  5
106E
331
FAF
  5
FAF
331
10DD
  5
10DD
331
11B8
  5
11B8
331
F42
  5
F42
331
123C
  5
1244
331
1078
  5
1078
331
11C2
  5
11C2
331
1321
  5
1BA4
331
1246
  5
124E
331
F4C
  5
F4C
331
1082
  5
1082
331
115D
  5
115D
331
11CC
  5
11CC
331
1E69
  5
128A
331
F56
  5
F56
331
1167
  5
1167
331
12C6
  5
12D2
331
1102
  5
1102
331
1171
  5
1171
331
FD6
  5
FD6
331
12D0
  5
12DC
331
110C
  5
110C
331
126B
  5
1273
331
12DA
  5
12E6
331
FE0
  5
FE0
331
1116
  5
1116
331
11F1
  5
11F1
331
F7B
  5
F7B
331
10A9
  5
10A9
331
FEA
  5
FEA
331
11FB
  5
11FB
331
1208
  5
1208
331
127F
  5
1287
331
F85
  5
F85
331
10B3
  5
10B3
331
F20
  5
F20
331
1205
  5
1205
331
1212
  5
1212
331
104E
  5
104E
331
F8F
  5
F8F
331
10BD
  5
10BD
331
1198
  5
1198
331
F2A
  5
F2A
331
1058
  5
1058
331
11A2
  5
11A2
331
1301
  5
130D
331
1226
  5
1229
331
F34
  5
F34
331
1062
  5
1062
331
113D
  5
113D
331
11AC
  5
11AC
331
130B
  5
1317
331
1019
  5
1019
331
1147
  5
1147
331
1BA5
  5
1E63
331
10E2
  5
10E2
331
1023
  5
1023
331
1315
  5
1321
331
1151
  5
1151
331
FB6
  5
FB6
331
12B0
  5
12BC
331
10EC
  5
10EC
331
124B
  5
1253
331
12BA
  5
12C6
331
FC0
  5
FC0
331
10F6
  5
10F6
331
11D1
  5
11D1
331
F5B
  5
F5B
331
1255
  5
125D
331
1091
  5
1091
331
FCA
  5
FCA
331
11DB
  5
11DB
331
125F
  5
1267
331
F65
  5
F65
331
109B
  5
109B
331
11E5
  5
11E5
331
102E
  5
102E
331
F6F
  5
F6F
331
1180
  5
1180
331
F0A
  5
F0A
331
11EF
  5
11EF
331
1038
  5
1038
331
118A
  5
118A
331
12E9
  5
12F5
331
F14
  5
F14
331
1042
  5
1042
331
111D
  5
111D
331
12F3
  5
12FF
331
F1E
  5
F1E
331
FF9
  5
FF9
331
1127
  5
1127
331
1286
  5
1291
331
10C2
  5
10C2
331
1003
  5
1003
331
1131
  5
1131
331
F9E
  5
F9E
331
1290
  5
129C
331
10CC
  5
10CC
331
100D
  5
100D
331
129A
  5
12A6
331
FA8
  5
FA8
331
10D6
  5
10D6
331
11B1
  5
11B1
331
F3B
  5
F3B
331
1235
  5
123D
331
1071
  5
1071
331
11BB
  5
11BB
331
131A
  5
179F
331
123F
  5
1247
331
F45
  5
F45
331
107B
  5
107B
331
11C5
  5
11C5
331
F4F
  5
F4F
331
1085
  5
1085
331
1160
  5
1160
331
11CF
  5
11CF
331
1E6C
  5
123B
331
116A
  5
116A
331
12C9
  5
12D5
331
1105
  5
1105
331
1174
  5
1174
331
12D3
  5
12DF
331
FD9
  5
FD9
331
110F
  5
110F
331
126E
  5
1277
331
10A2
  5
10A2
331
12DD
  5
12E9
331
FE3
  5
FE3
331
11F4
  5
11F4
331
F7E
  5
F7E
331
1278
  5
1280
331
10AC
  5
10AC
331
FED
  5
FED
331
11FE
  5
11FE
331
120B
  5
120B
331
F88
  5
F88
331
10B6
  5
10B6
331
1191
  5
1191
331
F23
  5
F23
331
1215
  5
1215
331
1051
  5
1051
331
F92
  5
F92
331
119B
  5
119B
331
12FA
  5
1306
331
121F
  5
1222
331
F2D
  5
F2D
331
105B
  5
105B
331
11A5
  5
11A5
331
1012
  5
1012
331
1304
  5
1310
331
F37
  5
F37
331
1065
  5
1065
331
1140
  5
1140
331
11AF
  5
11AF
331
130E
  5
131A
331
101C
  5
101C
331
114A
  5
114A
331
12A9
  5
12B5
331
1BA8
  5
1E68
331
10E5
  5
10E5
331
1026
  5
1026
331
1154
  5
1154
331
12B3
  5
12BF
331
FB9
  5
FB9
331
10EF
  5
10EF
331
124E
  5
1256
331
108A
  5
108A
331
12BD
  5
12C9
331
FC3
  5
FC3
331
10F9
  5
10F9
331
11D4
  5
11D4
331
F5E
  5
F5E
331
1258
  5
1260
331
1094
  5
1094
331
FCD
  5
FCD
331
11DE
  5
11DE
331
1262
  5
126A
331
F68
  5
F68
331
109E
  5
109E
331
1179
  5
1179
331
11E8
  5
11E8
331
1031
  5
1031
331
F72
  5
F72
331
1183
  5
1183
331
F0D
  5
F0D
331
12E2
  5
12EE
331
103B
  5
103B
331
118D
  5
118D
331
FF2
  5
FF2
331
12EC
  5
12F8
331
F17
  5
F17
331
1045
  5
1045
331
1120
  5
1120
331
17D6
  5
1BAA
331
12F6
  5
1302
331
FFC
  5
FFC
331
112A
  5
112A
331
1289
  5
1295
331
10C5
  5
10C5
331
1006
  5
1006
331
1134
  5
1134
331
1293
  5
129F
331
FA1
  5
FA1
331
10CF
  5
10CF
331
122E
  5
1235
331
106A
  5
106A
331
129D
  5
12A9
331
FAB
  5
FAB
331
10D9
  5
10D9
331
11B4
  5
11B4
331
F3E
  5
F3E
331
1238
  5
1240
331
1074
  5
1074
331
11BE
  5
11BE
331
131D
  5
1BA0
331
1242
  5
124A
331
F48
  5
F48
331
107E
  5
107E
331
1159
  5
1159
331
11C8
  5
11C8
331
F52
  5
F52
331
1163
  5
1163
331
12C2
  5
12CE
331
116D
  5
116D
331
FD2
  5
FD2
331
12CC
  5
12D8
331
1108
  5
1108
331
1177
  5
1177
331
179E
  5
1BA8
331
12D6
  5
12E2
331
FDC
  5
FDC
331
1112
  5
1112
331
1271
  5
127A
331
10A5
  5
10A5
331
FE6
  5
FE6
331
11F7
  5
11F7
331
F81
  5
F81
331
127B
  5
1283
331
10AF
  5
10AF
331
1201
  5
1201
331
120E
  5
120E
331
104A
  5
104A
331
F8B
  5
F8B
331
10B9
  5
10B9
331
1194
  5
1194
331
F26
  5
F26
331
1218
  5
1218
331
1054
  5
1054
331
F95
  5
F95
331
119E
  5
119E
331
12FD
  5
1309
331
F30
  5
F30
331
105E
  5
105E
331
1139
  5
1139
331
11A8
  5
11A8
331
1307
  5
1313
331
1015
  5
1015
331
1143
  5
1143
331
12A2
  5
12AE
331
1BA1
  5
1BAD
331
1311
  5
131D
331
101F
  5
101F
331
114D
  5
114D
331
FB2
  5
FB2
331
12AC
  5
12B8
331
10E8
  5
10E8
331
1BAB
  5
1E6B
331
1157
  5
1157
331
12B6
  5
12C2
331
FBC
  5
FBC
331
10F2
  5
10F2
331
1251
  5
1259
331
108D
  5
108D
331
FC6
  5
FC6
331
10FC
  5
10FC
331
11D7
  5
11D7
331
F61
  5
F61
331
125B
  5
1263
331
1097
  5
1097
331
11E1
  5
11E1
331
102A
  5
102A
331
1265
  5
126D
331
F6B
  5
F6B
331
117C
  5
117C
331
F06
  5
F06
331
11EB
  5
11EB
331
1034
  5
1034
331
F75
  5
F75
331
1186
  5
1186
331
12E5
  5
12F1
331
F10
  5
F10
331
103E
  5
103E
331
1119
  5
1119
331
FF5
  5
FF5
331
12EF
  5
12FB
331
F1A
  5
F1A
331
1123
  5
1123
331
1282
  5
128F
331
FFF
  5
FFF
331
112D
  5
112D
331
F9A
  5
F9A
331
128C
  5
1298
331
10C8
  5
10C8
331
1009
  5
1009
331
1137
  5
1137
331
1296
  5
12A2
331
FA4
  5
FA4
331
10D2
  5
10D2
331
106D
  5
106D
331
FAE
  5
FAE
331
10DC
  5
10DC
331
11B7
  5
11B7
331
F41
  5
F41
331
123B
  5
1243
331
1077
  5
1077
331
11C1
  5
11C1
331
1320
  5
1BA3
331
1245
  5
124D
331
F4B
  5
F4B
331
1081
  5
1081
331
115C
  5
115C
331
11CB
  5
11CB
331
1E68
  5
121F
331
1BF2
  5
1E81
331
F55
  5
F55
331
1166
  5
1166
331
12C5
  5
12D1
331
1101
  5
1101
331
1170
  5
1170
331
FD5
  5
FD5
331
12CF
  5
12DB
331
110B
  5
110B
331
126A
  5
1272
331
12D9
  5
12E5
331
FDF
  5
FDF
331
1115
  5
1115
331
11F0
  5
11F0
331
F7A
  5
F7A
331
1274
  5
127D
331
10A8
  5
10A8
331
FE9
  5
FE9
331
11FA
  5
11FA
331
127E
  5
1286
331
F84
  5
F84
331
10B2
  5
10B2
331
1204
  5
1204
331
1211
  5
1211
331
104D
  5
104D
331
F8E
  5
F8E
331
10BC
  5
10BC
331
1197
  5
1197
331
F29
  5
F29
331
121B
  5
121C
331
1057
  5
1057
331
11A1
  5
11A1
331
1300
  5
130C
331
1225
  5
1228
331
F33
  5
F33
331
1061
  5
1061
331
113C
  5
113C
331
11AB
  5
11AB
331
130A
  5
1316
331
1018
  5
1018
331
1146
  5
1146
331
12A5
  5
12B2
331
1BA4
  5
1E0C
331
10E1
  5
10E1
331
1022
  5
1022
331
1314
  5
1320
331
1150
  5
1150
331
FB5
  5
FB5
331
12AF
  5
12BB
331
10EB
  5
10EB
331
1BAE
  5
1E6E
331
124A
  5
1252
331
12B9
  5
12C5
331
FBF
  5
FBF
331
10F5
  5
10F5
331
11D0
  5
11D0
331
F5A
  5
F5A
331
1254
  5
125C
331
1090
  5
1090
331
FC9
  5
FC9
331
10FF
  5
10FF
331
11DA
  5
11DA
331
125E
  5
1266
331
F64
  5
F64
331
109A
  5
109A
331
11E4
  5
11E4
331
102D
  5
102D
331
F6E
  5
F6E
331
117F
  5
117F
331
F09
  5
F09
331
11EE
  5
11EE
331
1037
  5
1037
331
1189
  5
1189
331
12E8
  5
12F4
331
F13
  5
F13
331
1041
  5
1041
331
111C
  5
111C
331
12F2
  5
12FE
331
F1D
  5
F1D
331
FF8
  5
FF8
331
1126
  5
1126
331
10C1
  5
10C1
331
1002
  5
1002
331
1130
  5
1130
331
F9D
  5
F9D
331
128F
  5
129B
331
10CB
  5
10CB
331
100C
  5
100C
331
122A
  5
122F
331
1299
  5
12A5
331
FA7
  5
FA7
331
10D5
  5
10D5
331
11B0
  5
11B0
331
F3A
  5
F3A
331
1234
  5
123C
331
1070
  5
1070
331
10DF
  5
10DF
331
11BA
  5
11BA
331
1319
  5
179E
331
123E
  5
1246
331
F44
  5
F44
331
107A
  5
107A
331
11C4
  5
11C4
331
1323
  5
1BA6
331
F4E
  5
F4E
331
1084
  5
1084
331
115F
  5
115F
331
11CE
  5
11CE
331
1E6B
  5
1239
331
1169
  5
1169
331
12C8
  5
12D4
331
1104
  5
1104
331
1173
  5
1173
331
12D2
  5
12DE
331
FD8
  5
FD8
331
110E
  5
110E
331
126D
  5
1276
331
10A1
  5
10A1
331
12DC
  5
12E8
331
FE2
  5
FE2
331
11F3
  5
11F3
331
F7D
  5
F7D
331
1277
  5
127F
331
10AB
  5
10AB
331
FEC
  5
FEC
331
11FD
  5
11FD
331
120A
  5
120A
331
F87
  5
F87
331
10B5
  5
10B5
331
1190
  5
1190
331
F22
  5
F22
331
1207
  5
1207
331
1214
  5
1214
331
1050
  5
1050
331
F91
  5
F91
331
10BF
  5
10BF
331
119A
  5
119A
331
F2C
  5
F2C
331
121E
  5
1220
331
12F9
  5
1305
331
105A
  5
105A
331
11A4
  5
11A4
331
1011
  5
1011
331
1303
  5
130F
331
F36
  5
F36
331
1064
  5
1064
331
113F
  5
113F
331
11AE
  5
11AE
331
130D
  5
1319
331
101B
  5
101B
331
1149
  5
1149
331
12A8
  5
12B4
331
1BA7
  5
1E67
331
10E4
  5
10E4
331
1025
  5
1025
331
1317
  5
1323
331
1153
  5
1153
331
12B2
  5
12BE
331
FB8
  5
FB8
331
10EE
  5
10EE
331
124D
  5
1255
331
1089
  5
1089
331
12BC
  5
12C8
331
FC2
  5
FC2
331
10F8
  5
10F8
331
11D3
  5
11D3
331
F5D
  5
F5D
331
1257
  5
125F
331
1093
  5
1093
331
FCC
  5
FCC
331
11DD
  5
11DD
331
1E82
  5
128E
331
1261
  5
1269
331
F67
  5
F67
331
109D
  5
109D
331
1178
  5
1178
331
11E7
  5
11E7
331
1030
  5
1030
331
F71
  5
F71
331
1182
  5
1182
331
F0C
  5
F0C
331
12E1
  5
12ED
331
103A
  5
103A
331
118C
  5
118C
331
FF1
  5
FF1
331
12EB
  5
12F7
331
F16
  5
F16
331
1044
  5
1044
331
111F
  5
111F
331
12F5
  5
1301
331
FFB
  5
FFB
331
1129
  5
1129
331
1288
  5
1294
331
10C4
  5
10C4
331
1005
  5
1005
331
1133
  5
1133
331
FA0
  5
FA0
331
1292
  5
129E
331
10CE
  5
10CE
331
100F
  5
100F
331
122D
  5
1234
331
1069
  5
1069
331
129C
  5
12A8
331
FAA
  5
FAA
331
10D8
  5
10D8
331
11B3
  5
11B3
331
F3D
  5
F3D
331
1237
  5
123F
331
1073
  5
1073
331
11BD
  5
11BD
331
131C
  5
1B9F
331
1241
  5
1249
331
F47
  5
F47
331
107D
  5
107D
331
1158
  5
1158
331
11C7
  5
11C7
331
F51
  5
F51
331
1087
  5
1087
331
1162
  5
1162
331
1E6E
  5
1221
331
12C1
  5
12CD
331
116C
  5
116C
331
FD1
  5
FD1
331
12CB
  5
12D7
331
1107
  5
1107
331
1176
  5
1176
331
12D5
  5
12E1
331
FDB
  5
FDB
331
1111
  5
1111
331
1270
  5
1279
331
10A4
  5
10A4
331
FE5
  5
FE5
331
12DF
  5
12EB
331
11F6
  5
11F6
331
F80
  5
F80
331
127A
  5
1282
331
10AE
  5
10AE
331
FEF
  5
FEF
331
1200
  5
1200
331
120D
  5
120D
331
1049
  5
1049
331
F8A
  5
F8A
331
10B8
  5
10B8
331
1193
  5
1193
331
F25
  5
F25
331
1217
  5
1217
331
1053
  5
1053
331
F94
  5
F94
331
119D
  5
119D
331
12FC
  5
1308
331
1221
  5
1226
331
F2F
  5
F2F
331
105D
  5
105D
331
1138
  5
1138
331
11A7
  5
11A7
331
1014
  5
1014
331
1306
  5
1312
331
1067
  5
1067
331
1142
  5
1142
331
12A1
  5
12AD
331
1BA0
  5
1BAC
331
1310
  5
131C
331
101E
  5
101E
331
114C
  5
114C
331
FB1
  5
FB1
331
12AB
  5
12B7
331
10E7
  5
10E7
331
1BAA
  5
1E6A
331
1156
  5
1156
331
12B5
  5
12C1
331
FBB
  5
FBB
331
10F1
  5
10F1
331
1250
  5
1258
331
108C
  5
108C
331
FC5
  5
FC5
331
12BF
  5
12CB
331
10FB
  5
10FB
331
11D6
  5
11D6
331
F60
  5
F60
331
125A
  5
1262
331
1096
  5
1096
331
FCF
  5
FCF
331
11E0
  5
11E0
331
1029
  5
1029
331
1264
  5
126C
331
F6A
  5
F6A
331
117B
  5
117B
331
11EA
  5
11EA
331
1033
  5
1033
331
F74
  5
F74
331
1185
  5
1185
331
12E4
  5
12F0
331
F0F
  5
F0F
331
103D
  5
103D
331
1118
  5
1118
331
118F
  5
118F
331
FF4
  5
FF4
331
12EE
  5
12FA
331
F19
  5
F19
331
1047
  5
1047
331
1122
  5
1122
331
1281
  5
128D
331
FFE
  5
FFE
331
112C
  5
112C
331
F99
  5
F99
331
128B
  5
1297
331
10C7
  5
10C7
331
1008
  5
1008
331
1136
  5
1136
331
1295
  5
12A1
331
FA3
  5
FA3
331
10D1
  5
10D1
331
106C
  5
106C
331
129F
  5
12AB
331
FAD
  5
FAD
331
10DB
  5
10DB
331
11B6
  5
11B6
331
F40
  5
F40
331
123A
  5
1242
331
1076
  5
1076
331
11C0
  5
11C0
331
131F
  5
1BA2
331
1244
  5
124C
331
F4A
  5
F4A
331
1080
  5
1080
331
115B
  5
115B
331
11CA
  5
11CA
331
1E67
  5
121B
331
F54
  5
F54
331
1165
  5
1165
331
12C4
  5
12D0
331
1100
  5
1100
331
116F
  5
116F
331
1E0C
  5
1E82
331
FD4
  5
FD4
331
12CE
  5
12DA
331
110A
  5
110A
331
1269
  5
1271
331
12D8
  5
12E4
331
FDE
  5
FDE
331
1114
  5
1114
331
F79
  5
F79
331
1273
  5
127C
331
10A7
  5
10A7
331
FE8
  5
FE8
331
11F9
  5
11F9
331
F83
  5
F83
331
10B1
  5
10B1
331
1203
  5
1203
331
1210
  5
1210
331
104C
  5
104C
331
F8D
  5
F8D
331
10BB
  5
10BB
331
1196
  5
1196
331
F28
  5
F28
331
121A
  5
121A
331
1056
  5
1056
331
F97
  5
F97
331
11A0
  5
11A0
331
12FF
  5
130B
331
1224
  5
1227
331
F32
  5
F32
331
1060
  5
1060
331
113B
  5
113B
331
11AA
  5
11AA
331
1309
  5
1315
331
1017
  5
1017
331
1145
  5
1145
331
12A4
  5
12B0
331
1BA3
  5
1BF2
331
10E0
  5
10E0
331
1313
  5
131F
331
1021
  5
1021
331
114F
  5
114F
331
FB4
  5
FB4
331
12AE
  5
12BA
331
10EA
  5
10EA
331
1BAD
  5
1E6D
331
1249
  5
1251
331
12B8
  5
12C4
331
FBE
  5
FBE
331
10F4
  5
10F4
331
F59
  5
F59
331
1253
  5
125B
331
16E2
  5
1BA7
331
108F
  5
108F
331
FC8
  5
FC8
331
10FE
  5
10FE
331
11D9
  5
11D9
331
125D
  5
1265
331
F63
  5
F63
331
1099
  5
1099
331
11E3
  5
11E3
331
102C
  5
102C
331
1267
  5
126F
331
F6D
  5
F6D
331
117E
  5
117E
331
11ED
  5
11ED
331
1036
  5
1036
331
F77
  5
F77
331
1188
  5
1188
331
12E7
  5
12F3
331
F12
  5
F12
331
1040
  5
1040
331
111B
  5
111B
331
12F1
  5
12FD
331
F1C
  5
F1C
331
FF7
  5
FF7
331
1125
  5
1125
331
10C0
  5
10C0
331
1001
  5
1001
331
112F
  5
112F
331
F9C
  5
F9C
331
128E
  5
129A
331
10CA
  5
10CA
331
100B
  5
100B
331
1229
  5
122D
331
1298
  5
12A4
331
FA6
  5
FA6
331
10D4
  5
10D4
331
F39
  5
F39
331
1233
  5
123A
331
106F
  5
106F
331
10DE
  5
10DE
331
11B9
  5
11B9
331
F43
  5
F43
331
123D
  5
1245
331
1318
  5
16E2
331
1079
  5
1079
331
11C3
  5
11C3
331
1322
  5
1BA5
331
1247
  5
124F
331
F4D
  5
F4D
331
1083
  5
1083
331
115E
  5
115E
331
11CD
  5
11CD
331
1E6A
  5
1288
331
F57
  5
F57
331
1168
  5
1168
331
12C7
  5
12D3
331
1103
  5
1103
331
1172
  5
1172
331
12D1
  5
12DD
331
FD7
  5
FD7
331
110D
  5
110D
331
126C
  5
1274
331
10A0
  5
10A0
331
12DB
  5
12E7
331
FE1
  5
FE1
331
1117
  5
1117
331
11F2
  5
11F2
331
F7C
  5
F7C
331
1276
  5
127E
331
10AA
  5
10AA
331
FEB
  5
FEB
331
11FC
  5
11FC
331
1209
  5
1209
331
F86
  5
F86
331
10B4
  5
10B4
331
F21
  5
F21
331
1206
  5
1206
331
1213
  5
1213
331
104F
  5
104F
331
F90
  5
F90
331
10BE
  5
10BE
331
1199
  5
1199
331
F2B
  5
F2B
331
121D
  5
121E
331
12F8
  5
1304
331
1059
  5
1059
331
11A3
  5
11A3
331
1010
  5
1010
331
1302
  5
130E
331
1227
  5
122A
331
F35
  5
F35
331
1063
  5
1063
331
113E
  5
113E
331
11AD
  5
11AD
331
130C
  5
1318
331
101A
  5
101A
331
1148
  5
1148
331
12A7
  5
12B3
331
1BA6
  5
1E66
331
10E3
  5
10E3
331
1024
  5
1024
331
1316
  5
1322
331
1152
  5
1152
331
FB7
  5
FB7
331
12B1
  5
12BD
331
10ED
  5
10ED
331
124C
  5
1254
331
1088
  5
1088
331
12BB
  5
12C7
331
FC1
  5
FC1
331
10F7
  5
10F7
331
11D2
  5
11D2
331
F5C
  5
F5C
331
1256
  5
125E
331
1092
  5
1092
331
FCB
  5
FCB
331
11DC
  5
11DC
331
1E81
  5
1293
331
1260
  5
1268
331
F66
  5
F66
331
109C
  5
109C
331
11E6
  5
11E6
331
102F
  5
102F
331
F70
  5
F70
331
1181
  5
1181
331
F0B
  5
F0B
331
12E0
  5
12EC
331
1039
  5
1039
331
118B
  5
118B
331
FF0
  5
FF0
331
12EA
  5
12F6
331
F15
  5
F15
331
1043
  5
1043
331
111E
  5
111E
331
12F4
  5
1300
331
F1F
  5
F1F
331
FFA
  5
FFA
  0
XRECORD
  5
1F42
102
{ACAD_REACTORS
330
1F41
102
}
330
1F41
100
AcDbXrecord
340
1F19
  0
ACAD_PROXY_OBJECT
  5
1E18
102
{ACAD_XDICTIONARY
360
1E19
102
}
102
{ACAD_REACTORS
330
1E0F
102
}
330
1E0F
100
AcDbProxyObject
 90
      499
 91
      511
 93
     1340
310
42109E509B1BD8DAC02004014080404555555555555953FAA155555555555654FEA9AA400014080404555555555555953FAA155555555555654FEA9AA400000000000000E03F4080404555555555555953FAA155555555555654FEA9AA4014080404555555555555953FAA155555555555654FEA9AA4010201011555555555
310
55654FEA8555555555555953FAA6A9005020101155555555555654FEA8555555555555953FAA6A9001
 94
        0
1001
ACAD
1000
AcadProxyRoundTripData
1071
      504
1071
   655383
1070
     0
  0
ACAD_PROXY_OBJECT
  5
1E10
102
{ACAD_XDICTIONARY
360
1E11
102
}
102
{ACAD_REACTORS
330
1E0F
102
}
330
1E0F
100
AcDbProxyObject
 90
      499
 91
      511
 93
     1340
310
42109E53185E595C802004014080404555555555555953FAA155555555555654FEA9AA400014080404555555555555953FAA155555555555654FEA9AA400000000000000E03F4080404555555555555953FAA155555555555654FEA9AA4014080404555555555555953FAA155555555555654FEA9AA4010201011555555555
310
55654FEA8555555555555953FAA6A9005020101155555555555654FEA8555555555555953FAA6A9001
 94
        0
1001
ACAD
1000
AcadProxyRoundTripData
1071
      504
1071
   655383
1070
     0
  0
ACAD_PROXY_OBJECT
  5
1E20
102
{ACAD_XDICTIONARY
360
1E21
102
}
102
{ACAD_REACTORS
330
1E0F
102
}
330
1E0F
100
AcDbProxyObject
 90
      499
 91
      511
 93
     1332
310
41D1DB1BD8985B002004014080404555555555555953FAA155555555555654FEA9AA400014080404555555555555953FAA155555555555654FEA9AA400000000000000E03F4080404555555555555953FAA155555555555654FEA9AA4014080404555555555555953FAA155555555555654FEA9AA401020101155555555555
310
654FEA8555555555555953FAA6A9005020101155555555555654FEA8555555555555953FAA6A9000
 94
        0
1001
ACAD
1000
AcadProxyRoundTripData
1071
      504
1071
   655383
1070
     0
  0
ACAD_PROXY_OBJECT
  5
1E5F
102
{ACAD_REACTORS
330
1E5E
102
}
330
1E5E
100
AcDbProxyObject
 90
      499
 91
      511
 93
      618
310
40901902A4063FBFFFFFE056BD1B81E855B9FC0AD7A3703D0AD73F4254DD185B99185C990000AD7A3703D0AC73F90141901A02B5E8DC0F42B1CFC02B5E8DC0F42B1CFE5764000000000000300FC6
340
6A
340
0
340
16
340
0
 94
        0
1001
ACAD_MLEADERVER
1070
     2
1001
ACAD
1000
AcadProxyRoundTripData
1071
      508
1071
   655383
1070
     0
  0
MLINESTYLE
  5
78
102
{ACAD_REACTORS
330
76
102
}
330
76
100
AcDbMlineStyle
  2
STANDARD
 70
     0
  3

 62
     0
 51
90.0
 52
90.0
 71
     2
 49
0.5
 62
   256
  6
BYLAYER
 49
-0.5
 62
   256
  6
BYLAYER
  0
ACDBPLACEHOLDER
  5
5
102
{ACAD_REACTORS
330
6
102
}
330
6
100
AcDbPlaceHolder
280
     0
  0
ACAD_PROXY_OBJECT
  5
1E3D
102
{ACAD_REACTORS
330
1E3C
102
}
330
1E3C
100
AcDbProxyObject
 90
      499
 91
      511
 93
       49
310
904313A3100598
 94
        0
1001
ACAD
1000
AcadProxyRoundTripData
1071
      507
1071
   655383
1070
     0
  0
ACAD_PROXY_OBJECT
  5
1E3E
102
{ACAD_REACTORS
330
1E3C
102
}
330
1E3C
100
AcDbProxyObject
 90
      499
 91
      511
 93
      113
310
904313A3200400000000000000406B
 94
        0
1001
ACAD
1000
AcadProxyRoundTripData
1071
      507
1071
   655383
1070
     0
  0
ACAD_PROXY_OBJECT
  5
1E3F
102
{ACAD_REACTORS
330
1E3C
102
}
330
1E3C
100
AcDbProxyObject
 90
      499
 91
      511
 93
      113
310
904313A3400400000000000010406B
 94
        0
1001
ACAD
1000
AcadProxyRoundTripData
1071
      507
1071
   655383
1070
     0
  0
ACAD_PROXY_OBJECT
  5
1E40
102
{ACAD_REACTORS
330
1E3C
102
}
330
1E3C
100
AcDbProxyObject
 90
      499
 91
      511
 93
      113
310
904313A3500400000000000014406B
 94
        0
1001
ACAD
1000
AcadProxyRoundTripData
1071
      507
1071
   655383
1070
     0
  0
ACAD_PROXY_OBJECT
  5
1E41
102
{ACAD_REACTORS
330
1E3C
102
}
330
1E3C
100
AcDbProxyObject
 90
      499
 91
      511
 93
      113
310
904313A3800400000000000020406B
 94
        0
1001
ACAD
1000
AcadProxyRoundTripData
1071
      507
1071
   655383
1070
     0
  0
ACAD_PROXY_OBJECT
  5
1E42
102
{ACAD_REACTORS
330
1E3C
102
}
330
1E3C
100
AcDbProxyObject
 90
      499
 91
      511
 93
      121
310
905313A3130004000000000000244051
 94
        0
1001
ACAD
1000
AcadProxyRoundTripData
1071
      507
1071
   655383
1070
     0
  0
ACAD_PROXY_OBJECT
  5
1E43
102
{ACAD_REACTORS
330
1E3C
102
}
330
1E3C
100
AcDbProxyObject
 90
      499
 91
      511
 93
      121
310
905313A3136004000000000000304051
 94
        0
1001
ACAD
1000
AcadProxyRoundTripData
1071
      507
1071
   655383
1070
     0
  0
ACAD_PROXY_OBJECT
  5
1E44
102
{ACAD_REACTORS
330
1E3C
102
}
330
1E3C
100
AcDbProxyObject
 90
      499
 91
      511
 93
      121
310
905313A3230004000000000000344051
 94
        0
1001
ACAD
1000
AcadProxyRoundTripData
1071
      507
1071
   655383
1070
     0
  0
ACAD_PROXY_OBJECT
  5
1E45
102
{ACAD_REACTORS
330
1E3C
102
}
330
1E3C
100
AcDbProxyObject
 90
      499
 91
      511
 93
      121
310
905313A33300040000000000003E4051
 94
        0
1001
ACAD
1000
AcadProxyRoundTripData
1071
      507
1071
   655383
1070
     0
  0
ACAD_PROXY_OBJECT
  5
1E46
102
{ACAD_REACTORS
330
1E3C
102
}
330
1E3C
100
AcDbProxyObject
 90
      499
 91
      511
 93
      121
310
905313A3430004000000000000444051
 94
        0
1001
ACAD
1000
AcadProxyRoundTripData
1071
      507
1071
   655383
1070
     0
  0
ACAD_PROXY_OBJECT
  5
1E47
102
{ACAD_REACTORS
330
1E3C
102
}
330
1E3C
100
AcDbProxyObject
 90
      499
 91
      511
 93
      121
310
905313A3530004000000000000494051
 94
        0
1001
ACAD
1000
AcadProxyRoundTripData
1071
      507
1071
   655383
1070
     0
  0
ACAD_PROXY_OBJECT
  5
1E48
102
{ACAD_REACTORS
330
1E3C
102
}
330
1E3C
100
AcDbProxyObject
 90
      499
 91
      511
 93
      129
310
906313A313030004000000000000594038
 94
        0
1001
ACAD
1000
AcadProxyRoundTripData
1071
      507
1071
   655383
1070
     0
  0
ACAD_PROXY_OBJECT
  5
1E49
102
{ACAD_REACTORS
330
1E3C
102
}
330
1E3C
100
AcDbProxyObject
 90
      499
 91
      511
 93
      113
310
904323A31000000000000000010159
 94
        0
1001
ACAD
1000
AcadProxyRoundTripData
1071
      507
1071
   655383
1070
     0
  0
ACAD_PROXY_OBJECT
  5
1E4A
102
{ACAD_REACTORS
330
1E3C
102
}
330
1E3C
100
AcDbProxyObject
 90
      499
 91
      511
 93
      113
310
904343A31000000000000000410159
 94
        0
1001
ACAD
1000
AcadProxyRoundTripData
1071
      507
1071
   655383
1070
     0
  0
ACAD_PROXY_OBJECT
  5
1E4B
102
{ACAD_REACTORS
330
1E3C
102
}
330
1E3C
100
AcDbProxyObject
 90
      499
 91
      511
 93
      113
310
904383A31000000000000000810159
 94
        0
1001
ACAD
1000
AcadProxyRoundTripData
1071
      507
1071
   655383
1070
     0
  0
ACAD_PROXY_OBJECT
  5
1E4C
102
{ACAD_REACTORS
330
1E3C
102
}
330
1E3C
100
AcDbProxyObject
 90
      499
 91
      511
 93
      121
310
90531303A31000000000000000910140
 94
        0
1001
ACAD
1000
AcadProxyRoundTripData
1071
      507
1071
   655383
1070
     0
  0
ACAD_PROXY_OBJECT
  5
1E4D
102
{ACAD_REACTORS
330
1E3C
102
}
330
1E3C
100
AcDbProxyObject
 90
      499
 91
      511
 93
      129
310
9063130303A31000000000000001650138
 94
        0
1001
ACAD
1000
AcadProxyRoundTripData
1071
      507
1071
   655383
1070
     0
  0
ACAD_PROXY_OBJECT
  5
1E4E
102
{ACAD_REACTORS
330
1E3C
102
}
330
1E3C
100
AcDbProxyObject
 90
      499
 91
      511
 93
      265
310
90F312F31323822203D2031272D302200000000000000200FC00000000000028402B
 94
        0
1001
ACAD
1000
AcadProxyRoundTripData
1071
      507
1071
   655383
1070
     0
  0
ACAD_PROXY_OBJECT
  5
1E4F
102
{ACAD_REACTORS
330
1E3C
102
}
330
1E3C
100
AcDbProxyObject
 90
      499
 91
      511
 93
      257
310
90E312F363422203D2031272D302200000000000000240FC000000000000284040
 94
        0
1001
ACAD
1000
AcadProxyRoundTripData
1071
      507
1071
   655383
1070
     0
  0
ACAD_PROXY_OBJECT
  5
1E50
102
{ACAD_REACTORS
330
1E3C
102
}
330
1E3C
100
AcDbProxyObject
 90
      499
 91
      511
 93
      257
310
90E312F333222203D2031272D302200000000000000280FC000000000000284040
 94
        0
1001
ACAD
1000
AcadProxyRoundTripData
1071
      507
1071
   655383
1070
     0
  0
ACAD_PROXY_OBJECT
  5
1E51
102
{ACAD_REACTORS
330
1E3C
102
}
330
1E3C
100
AcDbProxyObject
 90
      499
 91
      511
 93
      257
310
90E312F313622203D2031272D3022000000000000002C0FC000000000000284040
 94
        0
1001
ACAD
1000
AcadProxyRoundTripData
1071
      507
1071
   655383
1070
     0
  0
ACAD_PROXY_OBJECT
  5
1E52
102
{ACAD_REACTORS
330
1E3C
102
}
330
1E3C
100
AcDbProxyObject
 90
      499
 91
      511
 93
      257
310
90E332F333222203D2031272D3022000000000000002E0FC000000000000284040
 94
        0
1001
ACAD
1000
AcadProxyRoundTripData
1071
      507
1071
   655383
1070
     0
  0
ACAD_PROXY_OBJECT
  5
1E53
102
{ACAD_REACTORS
330
1E3C
102
}
330
1E3C
100
AcDbProxyObject
 90
      499
 91
      511
 93
      249
310
90D312F3822203D2031272D302200000000000000300FC000000000000284040
 94
        0
1001
ACAD
1000
AcadProxyRoundTripData
1071
      507
1071
   655383
1070
     0
  0
ACAD_PROXY_OBJECT
  5
1E54
102
{ACAD_REACTORS
330
1E3C
102
}
330
1E3C
100
AcDbProxyObject
 90
      499
 91
      511
 93
      257
310
90E332F313622203D2031272D302200000000000000320FC000000000000284040
 94
        0
1001
ACAD
1000
AcadProxyRoundTripData
1071
      507
1071
   655383
1070
     0
  0
ACAD_PROXY_OBJECT
  5
1E55
102
{ACAD_REACTORS
330
1E3C
102
}
330
1E3C
100
AcDbProxyObject
 90
      499
 91
      511
 93
      249
310
90D312F3422203D2031272D302200000000000000340FC000000000000284040
 94
        0
1001
ACAD
1000
AcadProxyRoundTripData
1071
      507
1071
   655383
1070
     0
  0
ACAD_PROXY_OBJECT
  5
1E56
102
{ACAD_REACTORS
330
1E3C
102
}
330
1E3C
100
AcDbProxyObject
 90
      499
 91
      511
 93
      249
310
90D332F3822203D2031272D302200000000000000360FC000000000000284040
 94
        0
1001
ACAD
1000
AcadProxyRoundTripData
1071
      507
1071
   655383
1070
     0
  0
ACAD_PROXY_OBJECT
  5
1E57
102
{ACAD_REACTORS
330
1E3C
102
}
330
1E3C
100
AcDbProxyObject
 90
      499
 91
      511
 93
      249
310
90D312F3222203D2031272D302200000000000000380FC000000000000284040
 94
        0
1001
ACAD
1000
AcadProxyRoundTripData
1071
      507
1071
   655383
1070
     0
  0
ACAD_PROXY_OBJECT
  5
1E58
102
{ACAD_REACTORS
330
1E3C
102
}
330
1E3C
100
AcDbProxyObject
 90
      499
 91
      511
 93
      249
310
90D332F3422203D2031272D3022000000000000003A0FC000000000000284040
 94
        0
1001
ACAD
1000
AcadProxyRoundTripData
1071
      507
1071
   655383
1070
     0
  0
ACAD_PROXY_OBJECT
  5
1E59
102
{ACAD_REACTORS
330
1E3C
102
}
330
1E3C
100
AcDbProxyObject
 90
      499
 91
      511
 93
      169
310
90B3122203D2031272D3022004000000000000284020
 94
        0
1001
ACAD
1000
AcadProxyRoundTripData
1071
      507
1071
   655383
1070
     0
  0
ACAD_PROXY_OBJECT
  5
1E5A
102
{ACAD_REACTORS
330
1E3C
102
}
330
1E3C
100
AcDbProxyObject
 90
      499
 91
      511
 93
      265
310
90F312D312F3222203D2031272D3022000000000000003E0FC00000000000028402B
 94
        0
1001
ACAD
1000
AcadProxyRoundTripData
1071
      507
1071
   655383
1070
     0
  0
ACAD_PROXY_OBJECT
  5
1E5B
102
{ACAD_REACTORS
330
1E3C
102
}
330
1E3C
100
AcDbProxyObject
 90
      499
 91
      511
 93
      233
310
90B3322203D2031272D30220000000000000002100000000000000284000
 94
        0
1001
ACAD
1000
AcadProxyRoundTripData
1071
      507
1071
   655383
1070
     0
  0
ACAD_PROXY_OBJECT
  5
1E5C
102
{ACAD_REACTORS
330
1E3C
102
}
330
1E3C
100
AcDbProxyObject
 90
      499
 91
      511
 93
      233
310
90B3622203D2031272D30220000000000000006100000000000000284000
 94
        0
1001
ACAD
1000
AcadProxyRoundTripData
1071
      507
1071
   655383
1070
     0
  0
ACAD_PROXY_OBJECT
  5
1E5D
102
{ACAD_REACTORS
330
1E3C
102
}
330
1E3C
100
AcDbProxyObject
 90
      499
 91
      511
 93
      257
310
90E31272D3022203D2031272D3022000000000000000A100000000000000284040
 94
        0
1001
ACAD
1000
AcadProxyRoundTripData
1071
      507
1071
   655383
1070
     0
  0
ACAD_PROXY_OBJECT
  5
1E3B
102
{ACAD_XDICTIONARY
360
1E93
102
}
102
{ACAD_REACTORS
330
1E3A
102
}
330
1E3A
100
AcDbProxyObject
 90
      499
 91
      511
 93
     1849
310
4254DD185B99185C990028B81E85EB51B8AE3F2E07A17AD46E2B8FC02B5E8DC0F42B1CFD028000000C1008070000C3001FDFF8000000C1003FBFF000000182007F7FE00000030400FEFFC00000060801FDFF8000000C1003FBFF00000018200000000000000681FA0B0000001820100E000186003FBFF000000182007F7FE0
310
0000030400FEFFC00000060801FDFF8000000C1003FBFF000000182007F7FE000000304000AD7A3703D0AC73F4160000003040201C00030C007F7FE00000030400FEFFC00000060801FDFF8000000C1003FBFF000000182007F7FE00000030400FEFFC000000608015
340
16
340
16
340
16
 94
        0
1001
ACAD
1000
AcadProxyRoundTripData
1071
      506
1071
   655383
1070
     0
  0
ACAD_PROXY_OBJECT
  5
1E2E
102
{ACAD_REACTORS
330
1E28
102
}
330
1E28
100
AcDbProxyObject
 90
      499
 91
      511
 93
      444
310
430C9915DA5C99599C985B59401049028333333333333E3BF0000000000000FB0107901411070040501600405405064090741402480A0340
 94
        0
1001
ACAD
1000
AcDbSavedByObjectVersion
1070
     0
1000
AcadProxyRoundTripData
1071
      505
1071
   655383
1070
     0
  0
ACAD_PROXY_OBJECT
  5
1E30
102
{ACAD_REACTORS
330
1E28
102
}
330
1E28
100
AcDbProxyObject
 90
      499
 91
      511
 93
      508
310
428CD108121A5919195B8010640502408333333333333E3BF0000000000000FB01079024090700405020000000000001110200405405064090740C02480A0340
 94
        0
1001
ACAD
1000
AcDbSavedByObjectVersion
1070
     0
1000
AcadProxyRoundTripData
1071
      505
1071
   655383
1070
     0
  0
ACAD_PROXY_OBJECT
  5
1E2F
102
{ACAD_REACTORS
330
1E28
102
}
330
1E28
100
AcDbProxyObject
 90
      499
 91
      511
 93
      444
310
430CD915DA5C99599C985B59401059028333333333333E3BF0000000000000FB0107901411070040501600405405064090741402480A0340
 94
        0
1001
ACAD
1000
AcDbSavedByObjectVersion
1070
     0
1000
AcadProxyRoundTripData
1071
      505
1071
   655383
1070
     0
  0
ACAD_PROXY_OBJECT
  5
1E2D
102
{ACAD_REACTORS
330
1E28
102
}
330
1E28
100
AcDbProxyObject
 90
      499
 91
      511
 93
      396
310
4190985CDA58C0107406404333333333333E3BF0000000000000FB0107A41107004050150841D405064090741402480A0356
 94
        0
1001
ACAD
1000
AcDbSavedByObjectVersion
1070
     0
1000
AcadProxyRoundTripData
1071
      505
1071
   655383
1070
     0
  0
ACAD_PROXY_OBJECT
  5
1E34
102
{ACAD_REACTORS
330
1E28
102
}
330
1E28
100
AcDbProxyObject
 90
      499
 91
      511
 93
      436
310
42509C9A59DA1D195B8010C409028333333333333E3BF0000000000000FB010790141107004050150841D405064090741402480A029956
 94
        0
1001
ACAD
1000
AcDbSavedByObjectVersion
1070
     0
1000
AcadProxyRoundTripData
1071
      505
1071
   655383
1070
     0
  0
ACAD_PROXY_OBJECT
  5
1E38
102
{ACAD_REACTORS
330
1E28
102
}
330
1E28
100
AcDbProxyObject
 90
      499
 91
      511
 93
      460
310
4310DBDB1BDC90DA185B99D9401104090240C333333333333E3BF0000000000000FB0108901411070040501508421405064090741402480A0354
 94
        0
1001
ACAD
1000
AcDbSavedByObjectVersion
1070
     0
1000
AcadProxyRoundTripData
1071
      505
1071
   655383
1070
     0
  0
ACAD_PROXY_OBJECT
  5
1E31
102
{ACAD_REACTORS
330
1E28
102
}
330
1E28
100
AcDbProxyObject
 90
      499
 91
      511
 93
      508
310
42D0DBDB98D95C1D1D585B0010940D028333333333333E3BF0000000000000FB0107902409070040501000000000000111010841D405064090740C02480A0340
 94
        0
1001
ACAD
1000
AcDbSavedByObjectVersion
1070
     0
1000
AcadProxyRoundTripData
1071
      505
1071
   655383
1070
     0
  0
ACAD_PROXY_OBJECT
  5
1E33
102
{ACAD_REACTORS
330
1E28
102
}
330
1E28
100
AcDbProxyObject
 90
      499
 91
      511
 93
      420
310
41111A5B4010B409028333333333333E3BF0000000000000FB010790141107004050150841D405064090741402480A02677FFFFFDB
 94
        0
1001
ACAD
1000
AcDbSavedByObjectVersion
1070
     0
1000
AcadProxyRoundTripData
1071
      505
1071
   655383
1070
     0
  0
ACAD_PROXY_OBJECT
  5
1E37
102
{ACAD_REACTORS
330
1E28
102
}
330
1E28
100
AcDbProxyObject
 90
      499
 91
      511
 93
      452
310
43119858D95C185D1D195C9B8010F409028333333333333E3BF0000000000000FB010790141107004050150841D405064090741402480A0350
 94
        0
1001
ACAD
1000
AcDbSavedByObjectVersion
1070
     0
1000
AcadProxyRoundTripData
1071
      505
1071
   655383
1070
     0
  0
ACAD_PROXY_OBJECT
  5
1E29
102
{ACAD_REACTORS
330
1E28
102
}
330
1E28
100
AcDbProxyObject
 90
      499
 91
      511
 93
      396
310
41519B185D00240901404333333333333E3BF0000000000000F9010740A41107004050150841D405064090741402480A1B55
 94
        0
1001
ACAD
1000
AcDbSavedByObjectVersion
1070
     0
1000
AcadProxyRoundTripData
1071
      505
1071
   655383
1070
     0
  0
ACAD_PROXY_OBJECT
  5
1E2A
102
{ACAD_REACTORS
330
1E28
102
}
330
1E28
100
AcDbProxyObject
 90
      499
 91
      511
 93
      484
310
43919B185D15DA5D1A115919D95CC010140901404333333333333E3BF0000000000000F9010740901411070040501600405405064090741402480A1B50
 94
        0
1001
ACAD
1000
AcDbSavedByObjectVersion
1070
     0
1000
AcadProxyRoundTripData
1071
      505
1071
   655383
1070
     0
  0
ACAD_PROXY_OBJECT
  5
1E2B
102
{ACAD_REACTORS
330
1E28
102
}
330
1E28
100
AcDbProxyObject
 90
      499
 91
      511
 93
      420
310
4211DBDD5C985D590010240902404333333333333E3BF0000000000000F9010740A411070040501641D405064090741402480A1B50
 94
        0
1001
ACAD
1000
AcDbSavedByObjectVersion
1070
     0
1000
AcadProxyRoundTripData
1071
      505
1071
   655383
1070
     0
  0
ACAD_PROXY_OBJECT
  5
1E2C
102
{ACAD_REACTORS
330
1E28
102
}
330
1E28
100
AcDbProxyObject
 90
      499
 91
      511
 93
      508
310
4451DBDD5C985D5915DA5D1A115919D95CC010340902404333333333333E3BF0000000000000F9010740901411070040501600405405064090741402480A1B50
 94
        0
1001
ACAD
1000
AcDbSavedByObjectVersion
1070
     0
1000
AcadProxyRoundTripData
1071
      505
1071
   655383
1070
     0
  0
ACAD_PROXY_OBJECT
  5
1E36
102
{ACAD_REACTORS
330
1E28
102
}
330
1E28
100
AcDbProxyObject
 90
      499
 91
      511
 93
      452
310
43131A5B995C185D1D195C9B8010E409028333333333333E3BF0000000000000FB010790141107004050750841D405064090741402483A0350
 94
        0
1001
ACAD
1000
AcDbSavedByObjectVersion
1070
     0
1000
AcadProxyRoundTripData
1071
      505
1071
   655383
1070
     0
  0
ACAD_PROXY_OBJECT
  5
1E32
102
{ACAD_REACTORS
330
1E28
102
}
330
1E28
100
AcDbProxyObject
 90
      499
 91
      511
 93
      428
310
429499585B1A5CDD1A58C0108409028333333333333E3BF0000000000000FB01079019070040501508421405064090741402480A1B45
 94
        0
1001
ACAD
1000
AcDbSavedByObjectVersion
1070
     0
1000
AcadProxyRoundTripData
1071
      505
1071
   655383
1070
     0
  0
ACAD_PROXY_OBJECT
  5
1E35
102
{ACAD_REACTORS
330
1E28
102
}
330
1E28
100
AcDbProxyObject
 90
      499
 91
      511
 93
      420
310
42151A1A58DAD95B8010D409028333333333333E3BF0000000000000FB010790141107004050150C41D405064090741402480A0352
 94
        0
1001
ACAD
1000
AcDbSavedByObjectVersion
1070
     0
1000
AcadProxyRoundTripData
1071
      505
1071
   655383
1070
     0
  0
XRECORD
  5
1F29
102
{ACAD_REACTORS
330
1F1F
102
}
330
1F1F
100
AcDbXrecord
 90
        0
  0
XRECORD
  5
1F2D
102
{ACAD_REACTORS
330
1F1F
102
}
330
1F1F
100
AcDbXrecord
1000
DSTYLE
1002
{
1070
   179
 70
     2
1070
   277
 70
     6
1002
}
  0
XRECORD
  5
1F2A
102
{ACAD_REACTORS
330
1F1F
102
}
330
1F1F
100
AcDbXrecord
  1
{6385560B-F4B1-4644-A7C2-A3E32AC3D232}
  0
XRECORD
  5
1F22
102
{ACAD_REACTORS
330
1F1F
102
}
330
1F1F
100
AcDbXrecord
  1

  0
XRECORD
  5
1F28
102
{ACAD_REACTORS
330
1F1F
102
}
330
1F1F
100
AcDbXrecord
 90
        0
  0
XRECORD
  5
1F24
102
{ACAD_REACTORS
330
1F1F
102
}
330
1F1F
100
AcDbXrecord
340
61
  0
XRECORD
  5
1F27
102
{ACAD_REACTORS
330
1F1F
102
}
330
1F1F
100
AcDbXrecord
 90
    10781
  0
XRECORD
  5
1F25
102
{ACAD_REACTORS
330
1F1F
102
}
330
1F1F
100
AcDbXrecord
340
77
  0
XRECORD
  5
1F26
102
{ACAD_REACTORS
330
1F1F
102
}
330
1F1F
100
AcDbXrecord
340
6
  0
XRECORD
  5
1F2C
102
{ACAD_REACTORS
330
1F1F
102
}
330
1F1F
100
AcDbXrecord
 40
0.0
  0
XRECORD
  5
1F30
102
{ACAD_REACTORS
330
1F1F
102
}
330
1F1F
100
AcDbXrecord
340
0
  0
XRECORD
  5
1F36
102
{ACAD_REACTORS
330
1F1F
102
}
330
1F1F
100
AcDbXrecord
 10
0.0
 20
0.0
 30
0.0
  0
XRECORD
  5
1F32
102
{ACAD_REACTORS
330
1F1F
102
}
330
1F1F
100
AcDbXrecord
 10
0.0
 20
0.0
 30
0.0
  0
XRECORD
  5
1F35
102
{ACAD_REACTORS
330
1F1F
102
}
330
1F1F
100
AcDbXrecord
 10
0.0
 20
0.0
 30
0.0
  0
XRECORD
  5
1F33
102
{ACAD_REACTORS
330
1F1F
102
}
330
1F1F
100
AcDbXrecord
 10
0.0
 20
0.0
 30
0.0
  0
XRECORD
  5
1F34
102
{ACAD_REACTORS
330
1F1F
102
}
330
1F1F
100
AcDbXrecord
 10
0.0
 20
0.0
 30
0.0
  0
XRECORD
  5
1F31
102
{ACAD_REACTORS
330
1F1F
102
}
330
1F1F
100
AcDbXrecord
 10
0.0
 20
0.0
 30
0.0
  0
XRECORD
  5
1F2E
102
{ACAD_REACTORS
330
1F1F
102
}
330
1F1F
100
AcDbXrecord
340
0
  0
XRECORD
  5
1F2F
102
{ACAD_REACTORS
330
1F1F
102
}
330
1F1F
100
AcDbXrecord
 70
     0
  0
XRECORD
  5
1F23
102
{ACAD_REACTORS
330
1F1F
102
}
330
1F1F
100
AcDbXrecord
  1
Sekkei.ctb
  0
XRECORD
  5
1F20
102
{ACAD_REACTORS
330
1F1F
102
}
330
1F1F
100
AcDbXrecord
 90
        1
  0
XRECORD
  5
1F21
102
{ACAD_REACTORS
330
1F1F
102
}
330
1F1F
100
AcDbXrecord
 90
       70
  0
XRECORD
  5
1F39
102
{ACAD_REACTORS
330
1F1F
102
}
330
1F1F
100
AcDbXrecord
340
0
  0
XRECORD
  5
1F3F
102
{ACAD_REACTORS
330
1F1F
102
}
330
1F1F
100
AcDbXrecord
 10
0.0
 20
0.0
 30
0.0
  0
XRECORD
  5
1F3B
102
{ACAD_REACTORS
330
1F1F
102
}
330
1F1F
100
AcDbXrecord
 10
0.0
 20
0.0
 30
0.0
  0
XRECORD
  5
1F3E
102
{ACAD_REACTORS
330
1F1F
102
}
330
1F1F
100
AcDbXrecord
 10
0.0
 20
0.0
 30
0.0
  0
XRECORD
  5
1F3C
102
{ACAD_REACTORS
330
1F1F
102
}
330
1F1F
100
AcDbXrecord
 10
0.0
 20
0.0
 30
0.0
  0
XRECORD
  5
1F3D
102
{ACAD_REACTORS
330
1F1F
102
}
330
1F1F
100
AcDbXrecord
 10
0.0
 20
0.0
 30
0.0
  0
XRECORD
  5
1F3A
102
{ACAD_REACTORS
330
1F1F
102
}
330
1F1F
100
AcDbXrecord
 10
0.0
 20
0.0
 30
0.0
  0
XRECORD
  5
1F37
102
{ACAD_REACTORS
330
1F1F
102
}
330
1F1F
100
AcDbXrecord
340
0
  0
XRECORD
  5
1F38
102
{ACAD_REACTORS
330
1F1F
102
}
330
1F1F
100
AcDbXrecord
 70
     0
  0
XRECORD
  5
1F2B
102
{ACAD_REACTORS
330
1F1F
102
}
330
1F1F
100
AcDbXrecord
  1
{0CEEA861-D781-47FA-951D-48955F368703}
  0
DICTIONARYVAR
  5
1EB6
102
{ACAD_REACTORS
330
102
102
}
330
102
100
DictionaryVariables
280
     0
  1
1:1
  0
DICTIONARYVAR
  5
1EB5
102
{ACAD_REACTORS
330
102
102
}
330
102
100
DictionaryVariables
280
     0
  1
STANDARD
  0
DICTIONARYVAR
  5
1EB4
102
{ACAD_REACTORS
330
102
102
}
330
102
100
DictionaryVariables
280
     0
  1
STANDARD
  0
DICTIONARYVAR
  5
103
102
{ACAD_REACTORS
330
102
102
}
330
102
100
DictionaryVariables
280
     0
  1
1
  0
DICTIONARYVAR
  5
1EB7
102
{ACAD_REACTORS
330
102
102
}
330
102
100
DictionaryVariables
280
     0
  1
0
  0
DICTIONARYVAR
  5
549
102
{ACAD_REACTORS
330
102
102
}
330
102
100
DictionaryVariables
280
     0
  1
96
  0
DICTIONARY
  5
1E19
330
1E18
100
AcDbDictionary
280
     1
  3
ACAD_XREC_ROUNDTRIP
360
1F04
  3
BUMPTILE
360
1E1B
  3
DIFFUSETILE
360
1E1A
  3
OPACITYTILE
360
1E1E
  3
REFLECTIONTILE
360
1E1D
  3
REFRACTIONTILE
360
1E1F
  3
SPECULARTILE
360
1E1C
  0
DICTIONARY
  5
1E11
330
1E10
100
AcDbDictionary
280
     1
  3
ACAD_XREC_ROUNDTRIP
360
1F03
  3
BUMPTILE
360
1E13
  3
DIFFUSETILE
360
1E12
  3
OPACITYTILE
360
1E16
  3
REFLECTIONTILE
360
1E15
  3
REFRACTIONTILE
360
1E17
  3
SPECULARTILE
360
1E14
  0
DICTIONARY
  5
1E21
330
1E20
100
AcDbDictionary
280
     1
  3
ACAD_XREC_ROUNDTRIP
360
1F05
  3
BUMPTILE
360
1E23
  3
DIFFUSETILE
360
1E22
  3
OPACITYTILE
360
1E26
  3
REFLECTIONTILE
360
1E25
  3
REFRACTIONTILE
360
1E27
  3
SPECULARTILE
360
1E24
  0
DICTIONARY
  5
1E93
330
1E3B
100
AcDbDictionary
280
     1
  3
ACAD_ROUNDTRIP_2008_TABLES
360
1EEA
  3
ACAD_XREC_ROUNDTRIP
360
1F06
  0
XRECORD
  5
1F04
102
{ACAD_REACTORS
330
1E19
102
}
330
1E19
100
AcDbXrecord
102
MATERIAL
148
0.0
149
0.0
149
0.0
 93
        0
 94
      127
282
     0
 72
     0
 77
     0
171
     0
175
     0
179
     0
273
     0
  0
XRECORD
  5
1E1B
102
{ACAD_REACTORS
330
1E19
102
}
330
1E19
100
AcDbXrecord
270
     1
271
     1
  0
XRECORD
  5
1E1A
102
{ACAD_REACTORS
330
1E19
102
}
330
1E19
100
AcDbXrecord
270
     1
271
     1
  0
XRECORD
  5
1E1E
102
{ACAD_REACTORS
330
1E19
102
}
330
1E19
100
AcDbXrecord
270
     1
271
     1
  0
XRECORD
  5
1E1D
102
{ACAD_REACTORS
330
1E19
102
}
330
1E19
100
AcDbXrecord
270
     1
271
     1
  0
XRECORD
  5
1E1F
102
{ACAD_REACTORS
330
1E19
102
}
330
1E19
100
AcDbXrecord
270
     1
271
     1
  0
XRECORD
  5
1E1C
102
{ACAD_REACTORS
330
1E19
102
}
330
1E19
100
AcDbXrecord
270
     1
271
     1
  0
XRECORD
  5
1F03
102
{ACAD_REACTORS
330
1E11
102
}
330
1E11
100
AcDbXrecord
102
MATERIAL
148
0.0
149
0.0
149
0.0
 93
        0
 94
      127
282
     0
 72
     0
 77
     0
171
     0
175
     0
179
     0
273
     0
  0
XRECORD
  5
1E13
102
{ACAD_REACTORS
330
1E11
102
}
330
1E11
100
AcDbXrecord
270
     1
271
     1
  0
XRECORD
  5
1E12
102
{ACAD_REACTORS
330
1E11
102
}
330
1E11
100
AcDbXrecord
270
     1
271
     1
  0
XRECORD
  5
1E16
102
{ACAD_REACTORS
330
1E11
102
}
330
1E11
100
AcDbXrecord
270
     1
271
     1
  0
XRECORD
  5
1E15
102
{ACAD_REACTORS
330
1E11
102
}
330
1E11
100
AcDbXrecord
270
     1
271
     1
  0
XRECORD
  5
1E17
102
{ACAD_REACTORS
330
1E11
102
}
330
1E11
100
AcDbXrecord
270
     1
271
     1
  0
XRECORD
  5
1E14
102
{ACAD_REACTORS
330
1E11
102
}
330
1E11
100
AcDbXrecord
270
     1
271
     1
  0
XRECORD
  5
1F05
102
{ACAD_REACTORS
330
1E21
102
}
330
1E21
100
AcDbXrecord
102
MATERIAL
148
0.0
149
0.0
149
0.0
 93
        0
 94
      127
282
     0
 72
     0
 77
     0
171
     0
175
     0
179
     0
273
     0
  0
XRECORD
  5
1E23
102
{ACAD_REACTORS
330
1E21
102
}
330
1E21
100
AcDbXrecord
270
     1
271
     1
  0
XRECORD
  5
1E22
102
{ACAD_REACTORS
330
1E21
102
}
330
1E21
100
AcDbXrecord
270
     1
271
     1
  0
XRECORD
  5
1E26
102
{ACAD_REACTORS
330
1E21
102
}
330
1E21
100
AcDbXrecord
270
     1
271
     1
  0
XRECORD
  5
1E25
102
{ACAD_REACTORS
330
1E21
102
}
330
1E21
100
AcDbXrecord
270
     1
271
     1
  0
XRECORD
  5
1E27
102
{ACAD_REACTORS
330
1E21
102
}
330
1E21
100
AcDbXrecord
270
     1
271
     1
  0
XRECORD
  5
1E24
102
{ACAD_REACTORS
330
1E21
102
}
330
1E21
100
AcDbXrecord
270
     1
271
     1
  0
ACAD_PROXY_OBJECT
  5
1EEA
102
{ACAD_REACTORS
330
1E93
102
}
330
1E93
100
AcDbProxyObject
 90
      499
 91
      511
 93
     1044
310
40D054060020000020000003200101A000080002A5058000000C100000000000000340FE901405075F5449544C450041501A8000000C800406800020000A9416000000304000AD7A3703D0AC73FA409014217D2115051115480105406A0000003200101A000080002A5028000000C10002B5E8DC0F42B1CFE903409065F444
310
15441003
340
16
340
16
340
16
 94
        0
1001
ACAD
1000
AcadProxyRoundTripData
1071
      510
1071
   655383
1070
     0
  0
XRECORD
  5
1F06
102
{ACAD_REACTORS
330
1E93
102
}
330
1E93
100
AcDbXrecord
102
ACAD_ROUNDTRIP_PRE2007_TABLESTYLE
 90
      512
 91
        0
  1

 92
      512
 93
        0
  2

 94
      512
 95
        0
  3

  0
ENDSEC
  0
EOF
