  0
SECTION
  2
HEADER
  9
$ACADVER
  1
AC1014
  9
$ACADMAINTVER
 70
     9
  9
$DWGCODEPAGE
  3
ANSI_932
  9
$INSBASE
 10
0.0
 20
0.0
 30
0.0
  9
$EXTMIN
 10
39.41773873158786
 20
76.36044165221415
 30
0.0
  9
$EXTMAX
 10
984.8369327831326
 20
687.0985460614345
 30
0.0
  9
$LIMMIN
 10
0.0
 20
0.0
  9
$LIMMAX
 10
297.0
 20
210.0
  9
$ORTHOMODE
 70
     1
  9
$REGENMODE
 70
     1
  9
$FILLMODE
 70
     1
  9
$QTEXTMODE
 70
     0
  9
$MIRRTEXT
 70
     0
  9
$DRAGMODE
 70
     2
  9
$LTSCALE
 40
3.0
  9
$OSMODE
 70
    37
  9
$ATTMODE
 70
     1
  9
$TEXTSIZE
 40
2.0
  9
$TRACEWID
 40
1.0
  9
$TEXTSTYLE
  7
STANDARD
  9
$CLAYER
  8
0
  9
$CELTYPE
  6
BYLAYER
  9
$CECOLOR
 62
   256
  9
$CELTSCALE
 40
1.0
  9
$DELOBJ
 70
     1
  9
$DISPSILH
 70
     0
  9
$DIMSCALE
 40
3.0
  9
$DIMASZ
 40
1.8
  9
$DIMEXO
 40
0.625
  9
$DIMDLI
 40
3.75
  9
$DIMRND
 40
0.0
  9
$DIMDLE
 40
0.0
  9
$DIMEXE
 40
0.8
  9
$DIMTP
 40
0.0
  9
$DIMTM
 40
0.0
  9
$DIMTXT
 40
1.8
  9
$DIMCEN
 40
2.5
  9
$DIMTSZ
 40
0.0
  9
$DIMTOL
 70
     0
  9
$DIMLIM
 70
     0
  9
$DIMTIH
 70
     0
  9
$DIMTOH
 70
     0
  9
$DIMSE1
 70
     0
  9
$DIMSE2
 70
     0
  9
$DIMTAD
 70
     1
  9
$DIMZIN
 70
     8
  9
$DIMBLK
  1

  9
$DIMASO
 70
     1
  9
$DIMSHO
 70
     1
  9
$DIMPOST
  1

  9
$DIMAPOST
  1

  9
$DIMALT
 70
     0
  9
$DIMALTD
 70
     4
  9
$DIMALTF
 40
0.0394
  9
$DIMLFAC
 40
1.0
  9
$DIMTOFL
 70
     1
  9
$DIMTVP
 40
0.0
  9
$DIMTIX
 70
     0
  9
$DIMSOXD
 70
     0
  9
$DIMSAH
 70
     0
  9
$DIMBLK1
  1

  9
$DIMBLK2
  1

  9
$DIMSTYLE
  2
STANDARD
  9
$DIMCLRD
 70
     0
  9
$DIMCLRE
 70
     0
  9
$DIMCLRT
 70
     0
  9
$DIMTFAC
 40
1.0
  9
$DIMGAP
 40
0.75
  9
$DIMJUST
 70
     0
  9
$DIMSD1
 70
     0
  9
$DIMSD2
 70
     0
  9
$DIMTOLJ
 70
     1
  9
$DIMTZIN
 70
     0
  9
$DIMALTZ
 70
     0
  9
$DIMALTTZ
 70
     0
  9
$DIMFIT
 70
     3
  9
$DIMUPT
 70
     0
  9
$DIMUNIT
 70
     8
  9
$DIMDEC
 70
     2
  9
$DIMTDEC
 70
     2
  9
$DIMALTU
 70
     8
  9
$DIMALTTD
 70
     4
  9
$DIMTXSTY
  7
STANDARD
  9
$DIMAUNIT
 70
     0
  9
$LUNITS
 70
     2
  9
$LUPREC
 70
     3
  9
$SKETCHINC
 40
1.0
  9
$FILLETRAD
 40
10.0
  9
$AUNITS
 70
     0
  9
$AUPREC
 70
     2
  9
$MENU
  1
.
  9
$ELEVATION
 40
0.0
  9
$PELEVATION
 40
0.0
  9
$THICKNESS
 40
0.0
  9
$LIMCHECK
 70
     0
  9
$BLIPMODE
 70
     0
  9
$CHAMFERA
 40
0.0
  9
$CHAMFERB
 40
0.0
  9
$CHAMFERC
 40
20.0
  9
$CHAMFERD
 40
0.0
  9
$SKPOLY
 70
     0
  9
$TDCREATE
 40
2454410.727105034
  9
$TDUPDATE
 40
2454425.685550844
  9
$TDINDWG
 40
0.0143460648
  9
$TDUSRTIMER
 40
0.0143460648
  9
$USRTIMER
 70
     1
  9
$ANGBASE
 50
0.0
  9
$ANGDIR
 70
     0
  9
$PDMODE
 70
     0
  9
$PDSIZE
 40
-10.0
  9
$PLINEWID
 40
0.0
  9
$COORDS
 70
     0
  9
$SPLFRAME
 70
     0
  9
$SPLINETYPE
 70
     6
  9
$SPLINESEGS
 70
     8
  9
$ATTDIA
 70
     0
  9
$ATTREQ
 70
     1
  9
$HANDLING
 70
-16383
  9
$HANDSEED
  5
1D14
  9
$SURFTAB1
 70
     6
  9
$SURFTAB2
 70
     6
  9
$SURFTYPE
 70
     6
  9
$SURFU
 70
     6
  9
$SURFV
 70
     6
  9
$UCSNAME
  2

  9
$UCSORG
 10
0.0
 20
0.0
 30
0.0
  9
$UCSXDIR
 10
1.0
 20
0.0
 30
0.0
  9
$UCSYDIR
 10
0.0
 20
1.0
 30
0.0
  9
$PUCSNAME
  2

  9
$PUCSORG
 10
0.0
 20
0.0
 30
0.0
  9
$PUCSXDIR
 10
1.0
 20
0.0
 30
0.0
  9
$PUCSYDIR
 10
0.0
 20
1.0
 30
0.0
  9
$USERI1
 70
     0
  9
$USERI2
 70
     0
  9
$USERI3
 70
     0
  9
$USERI4
 70
     0
  9
$USERI5
 70
     0
  9
$USERR1
 40
0.0
  9
$USERR2
 40
0.0
  9
$USERR3
 40
0.0
  9
$USERR4
 40
0.0
  9
$USERR5
 40
0.0
  9
$WORLDVIEW
 70
     1
  9
$SHADEDGE
 70
     3
  9
$SHADEDIF
 70
    70
  9
$TILEMODE
 70
     1
  9
$MAXACTVP
 70
    48
  9
$PINSBASE
 10
0.0
 20
0.0
 30
0.0
  9
$PLIMCHECK
 70
     0
  9
$PEXTMIN
 10
0.0
 20
0.0
 30
0.0
  9
$PEXTMAX
 10
0.0
 20
0.0
 30
0.0
  9
$PLIMMIN
 10
0.0
 20
0.0
  9
$PLIMMAX
 10
12.0
 20
9.0
  9
$UNITMODE
 70
     0
  9
$VISRETAIN
 70
     1
  9
$PLINEGEN
 70
     0
  9
$PSLTSCALE
 70
     1
  9
$TREEDEPTH
 70
  3020
  9
$PICKSTYLE
 70
     1
  9
$CMLSTYLE
  2
STANDARD
  9
$CMLJUST
 70
     0
  9
$CMLSCALE
 40
1.0
  9
$PROXYGRAPHICS
 70
     1
  9
$MEASUREMENT
 70
     0
  0
ENDSEC
  0
SECTION
  2
CLASSES
  0
CLASS
  1
DICTIONARYVAR
  2
AcDbDictionaryVar
  3
AutoCAD 2000
 90
        0
280
     0
281
     0
  0
CLASS
  1
ACDBDICTIONARYWDFLT
  2
AcDbDictionaryWithDefault
  3
AutoCAD 2000
 90
        0
280
     0
281
     0
  0
CLASS
  1
ACDBPLACEHOLDER
  2
AcDbPlaceHolder
  3
AutoCAD 2000
 90
        0
280
     0
281
     0
  0
CLASS
  1
LAYOUT
  2
AcDbLayout
  3
AutoCAD 2000
 90
        0
280
     0
281
     0
  0
CLASS
  1
MATERIAL
  2
AcDbMaterial
  3
ObjectDBX Classes
 90
     1153
280
     0
281
     0
  0
CLASS
  1
VISUALSTYLE
  2
AcDbVisualStyle
  3
ObjectDBX Classes
 90
     4095
280
     0
281
     0
  0
CLASS
  1
TABLESTYLE
  2
AcDbTableStyle
  3
ObjectDBX Classes
 90
     4095
280
     0
281
     0
  0
CLASS
  1
SCALE
  2
AcDbScale
  3
ObjectDBX Classes
 90
     1153
280
     0
281
     0
  0
CLASS
  1
MLEADERSTYLE
  2
AcDbMLeaderStyle
  3
ACDB_MLEADERSTYLE_CLASS
 90
     4095
280
     0
281
     0
  0
CLASS
  1
CELLSTYLEMAP
  2
AcDbCellStyleMap
  3
ObjectDBX Classes
 90
     1152
280
     0
281
     0
  0
CLASS
  1
ACAD_PROXY_OBJECT_WRAPPER
  2
AcDbProxyObjectWrapper
  3
AutoCAD 2000
 90
        0
280
     0
281
     0
  0
CLASS
  1
LONG_TRANSACTION
  2
AcDbLongTransaction
  3
AutoCAD 2000
 90
        0
280
     0
281
     0
  0
CLASS
  1
LWPOLYLINE
  2
AcDbPolyline
  3
AutoCAD 2000
 90
        0
280
     0
281
     1
  0
CLASS
  1
HATCH
  2
AcDbHatch
  3
AutoCAD 2000
 90
        0
280
     0
281
     1
  0
CLASS
  1
XRECORD
  2
AcDbXrecord
  3
AutoCAD 2000
 90
        0
280
     0
281
     0
  0
ENDSEC
  0
SECTION
  2
TABLES
  0
TABLE
  2
VPORT
  5
6E
102
{ACAD_XDICTIONARY
360
1C43
102
}
330
0
100
AcDbSymbolTable
 70
     2
  0
VPORT
  5
1CEE
330
6E
100
AcDbSymbolTableRecord
100
AcDbViewportTableRecord
  2
*ACTIVE
 70
     0
 10
0.0
 20
0.0
 11
1.0
 21
1.0
 12
582.4825734236484
 22
366.0286273855111
 13
0.0
 23
0.0
 14
10.0
 24
10.0
 15
10.0
 25
10.0
 16
0.0
 26
0.0
 36
1.0
 17
0.0
 27
0.0
 37
0.0
 40
647.2290194777088
 41
1.753504672897196
 42
50.0
 43
0.0
 44
0.0
 50
0.0
 51
0.0
 71
     0
 72
   100
 73
     1
 74
     3
 75
     0
 76
     0
 77
     0
 78
     0
  0
ENDTAB
  0
TABLE
  2
LTYPE
  5
69
330
0
100
AcDbSymbolTable
 70
     8
  0
LTYPE
  5
6A
330
69
100
AcDbSymbolTableRecord
100
AcDbLinetypeTableRecord
  2
BYBLOCK
 70
     0
  3

 72
    65
 73
     0
 40
0.0
  0
LTYPE
  5
6B
330
69
100
AcDbSymbolTableRecord
100
AcDbLinetypeTableRecord
  2
BYLAYER
 70
     0
  3

 72
    65
 73
     0
 40
0.0
  0
LTYPE
  5
8
330
69
100
AcDbSymbolTableRecord
100
AcDbLinetypeTableRecord
  2
CONTINUOUS
 70
     0
  3
Solid line
 72
    65
 73
     0
 40
0.0
  0
LTYPE
  5
27C
330
69
100
AcDbSymbolTableRecord
100
AcDbLinetypeTableRecord
  2
SEKKEI_A2_
 70
     0
  3
center(A2)  ____ _ ____ _ ____ _ ____ _ ____ _ 
 72
    65
 73
     4
 40
14.28749999999999
 49
9.525
 74
     0
 49
-1.587499999999999
 74
     0
 49
1.587499999999999
 74
     0
 49
-1.587499999999999
 74
     0
  0
LTYPE
  5
48F
330
69
100
AcDbSymbolTableRecord
100
AcDbLinetypeTableRecord
  2
SEKKEI_H
 70
     0
  3
Hidden-S _ _ _ _ _ _ _ _ _ _ _ _ _ _ _ _ _
 72
    65
 73
     2
 40
2.381249999999999
 49
1.587499999999999
 74
     0
 49
-0.79375
 74
     0
  0
LTYPE
  5
7F0
330
69
100
AcDbSymbolTableRecord
100
AcDbLinetypeTableRecord
  2
HIDDEN3
 70
     0
  3
Hidden (.3x) _ _ _ _ _ _ _ _ _ _ _ _ _ _ _ _ _
 72
    65
 73
     2
 40
2.857499999999999
 49
1.905
 74
     0
 49
-0.9525
 74
     0
  0
LTYPE
  5
ADA
330
69
100
AcDbSymbolTableRecord
100
AcDbLinetypeTableRecord
  2
CENS
 70
     0
  3
(一点鎖線１)---- - ---- - ---- - ---- - ---- - 
 72
    65
 73
     4
 40
7.0
 49
4.0
 74
     0
 49
-1.0
 74
     0
 49
1.0
 74
     0
 49
-1.0
 74
     0
  0
LTYPE
  5
194C
330
69
100
AcDbSymbolTableRecord
100
AcDbLinetypeTableRecord
  2
SEKKEI-P_A4_
 70
     0
  3
Phantom(A4)  ____ _ _ ____ _ _ ____ _ _ _____
 72
    65
 73
     6
 40
15.0
 49
7.5
 74
     0
 49
-1.5
 74
     0
 49
1.5
 74
     0
 49
-1.5
 74
     0
 49
1.5
 74
     0
 49
-1.5
 74
     0
  0
LTYPE
  5
194D
330
69
100
AcDbSymbolTableRecord
100
AcDbLinetypeTableRecord
  2
SEKKEI_P_S
 70
     0
  3
Phantom_S   __ _ _ __ _ _ __ _ _ ___
 72
    65
 73
     6
 40
7.5
 49
3.75
 74
     0
 49
-0.75
 74
     0
 49
0.75
 74
     0
 49
-0.75
 74
     0
 49
0.75
 74
     0
 49
-0.75
 74
     0
  0
ENDTAB
  0
TABLE
  2
LAYER
  5
66
102
{ACAD_XDICTIONARY
360
ADB
102
}
330
0
100
AcDbSymbolTable
 70
    10
  0
LAYER
  5
5E
102
{ACAD_XDICTIONARY
360
1C02
102
}
330
66
100
AcDbSymbolTableRecord
100
AcDbLayerTableRecord
  2
0
 70
     0
 62
     7
  6
CONTINUOUS
  0
LAYER
  5
3E
102
{ACAD_XDICTIONARY
360
1C04
102
}
330
66
100
AcDbSymbolTableRecord
100
AcDbLayerTableRecord
  2
CENTER
 70
     0
 62
     3
  6
SEKKEI_A2_
  0
LAYER
  5
2B5
102
{ACAD_XDICTIONARY
360
1C0A
102
}
330
66
100
AcDbSymbolTableRecord
100
AcDbLayerTableRecord
  2
HIDS
 70
     0
 62
     1
  6
HIDDEN3
  0
LAYER
  5
2BA
102
{ACAD_XDICTIONARY
360
1C0C
102
}
330
66
100
AcDbSymbolTableRecord
100
AcDbLayerTableRecord
  2
HOJO
 70
     0
 62
     4
  6
CONTINUOUS
  0
LAYER
  5
3FA
102
{ACAD_XDICTIONARY
360
1C10
102
}
330
66
100
AcDbSymbolTableRecord
100
AcDbLayerTableRecord
  2
TITLE
 70
     0
 62
     4
  6
CONTINUOUS
  0
LAYER
  5
194E
102
{ACAD_XDICTIONARY
360
194F
102
}
330
66
100
AcDbSymbolTableRecord
100
AcDbLayerTableRecord
  2
PHAS
 70
     0
 62
     2
  6
SEKKEI-P_A4_
  0
ENDTAB
  0
TABLE
  2
STYLE
  5
67
330
0
100
AcDbSymbolTable
 70
     2
  0
STYLE
  5
16
330
67
100
AcDbSymbolTableRecord
100
AcDbTextStyleTableRecord
  2
STANDARD
 70
     0
 40
0.0
 41
1.0
 50
0.0
 71
     0
 42
2.0
  3
simplex.shx
  4
extfont.shx
  0
ENDTAB
  0
TABLE
  2
VIEW
  5
6C
330
0
100
AcDbSymbolTable
 70
     0
  0
ENDTAB
  0
TABLE
  2
UCS
  5
6D
330
0
100
AcDbSymbolTable
 70
     0
  0
ENDTAB
  0
TABLE
  2
APPID
  5
70
330
0
100
AcDbSymbolTable
 70
     3
  0
APPID
  5
71
330
70
100
AcDbSymbolTableRecord
100
AcDbRegAppTableRecord
  2
ACAD
 70
     0
  0
APPID
  5
1827
330
70
100
AcDbSymbolTableRecord
100
AcDbRegAppTableRecord
  2
ACAD_MLEADERVER
 70
     0
  0
APPID
  5
1C37
330
70
100
AcDbSymbolTableRecord
100
AcDbRegAppTableRecord
  2
ACAD_DSTYLE_DIMRADIAL_EXTENSION
 70
     0
  0
ENDTAB
  0
TABLE
  2
DIMSTYLE
  5
72
330
0
100
AcDbSymbolTable
 70
     1
  0
DIMSTYLE
105
73
330
72
100
AcDbSymbolTableRecord
100
AcDbDimStyleTableRecord
  2
STANDARD
 70
     0
  3

  4

  5

  6

  7

 40
3.0
 41
1.8
 42
0.625
 43
3.75
 44
0.8
 45
0.0
 46
0.0
 47
0.0
 48
0.0
140
1.8
141
2.5
142
0.0
143
0.0394
144
1.0
145
0.0
146
1.0
147
0.75
 71
     0
 72
     0
 73
     0
 74
     0
 75
     0
 76
     0
 77
     1
 78
     8
170
     0
171
     4
172
     1
173
     0
174
     0
175
     0
176
     0
177
     0
178
     0
270
     8
271
     2
272
     2
273
     8
274
     4
340
16
275
     0
280
     0
281
     0
282
     0
283
     1
284
     0
285
     0
286
     0
287
     3
288
     0
  0
ENDTAB
  0
TABLE
  2
BLOCK_RECORD
  5
1
330
0
100
AcDbSymbolTable
 70
    55
  0
BLOCK_RECORD
  5
2
102
{ACAD_XDICTIONARY
360
1D10
102
}
330
1
100
AcDbSymbolTableRecord
100
AcDbBlockTableRecord
  2
*MODEL_SPACE
  0
BLOCK_RECORD
  5
1CE9
102
{ACAD_XDICTIONARY
360
1D12
102
}
330
1
100
AcDbSymbolTableRecord
100
AcDbBlockTableRecord
  2
*PAPER_SPACE
  0
ENDTAB
  0
ENDSEC
  0
SECTION
  2
BLOCKS
  0
BLOCK
  5
5D
330
2
100
AcDbEntity
  8
0
100
AcDbBlockBegin
  2
*MODEL_SPACE
 70
     0
 10
0.0
 20
0.0
 30
0.0
  3
*MODEL_SPACE
  1

  0
ENDBLK
  5
5F
330
2
100
AcDbEntity
  8
0
100
AcDbBlockEnd
  0
BLOCK
  5
1CEB
330
1CE9
100
AcDbEntity
 67
     1
  8
0
100
AcDbBlockBegin
  2
*PAPER_SPACE
 70
     0
 10
0.0
 20
0.0
 30
0.0
  3
*PAPER_SPACE
  1

  0
ENDBLK
  5
1CEC
330
1CE9
100
AcDbEntity
 67
     1
  8
0
100
AcDbBlockEnd
  0
ENDSEC
  0
SECTION
  2
ENTITIES
  0
TEXT
  5
F02
330
2
100
AcDbEntity
  8
TITLE
100
AcDbText
 10
286.983619321524
 20
635.7403050238136
 30
0.0
 40
7.5
  1
AFCZ18S-3~5M750S1
100
AcDbText
  0
TEXT
  5
F03
330
2
100
AcDbEntity
  8
TITLE
100
AcDbText
 10
286.983619321524
 20
624.2403050238136
 30
0.0
 40
7.5
  1
AFCZ18S-3~5L750S1
100
AcDbText
  0
LINE
  5
F05
330
2
100
AcDbEntity
  8
CENTER
100
AcDbLine
 10
189.4177387315878
 20
306.2012869893522
 30
0.0
 11
189.4177387315878
 21
408.2012869893522
 31
0.0
  0
LINE
  5
F06
330
2
100
AcDbEntity
  8
CENTER
100
AcDbLine
 10
240.4177387315878
 20
357.201286989349
 30
0.0
 11
39.41773873158786
 21
357.201286989349
 31
0.0
  0
LINE
  5
F07
330
2
100
AcDbEntity
  8
CENTER
100
AcDbLine
 10
617.6239855949354
 20
401.6865683635881
 30
0.0
 11
528.6534228464581
 21
312.7160056151113
 31
0.0
  0
LINE
  5
F08
330
2
100
AcDbEntity
  8
CENTER
100
AcDbLine
 10
528.653422846459
 20
401.6865683635868
 30
0.0
 11
617.6239855949363
 21
312.716005615109
 31
0.0
  0
LINE
  5
F09
330
2
100
AcDbEntity
  8
CENTER
100
AcDbLine
 10
573.1387042206963
 20
687.0985460614345
 30
0.0
 11
573.1387042206963
 21
548.0985545154746
 31
0.0
  0
LINE
  5
F0A
330
2
100
AcDbEntity
  8
CENTER
100
AcDbLine
 10
522.3437856137555
 20
632.0985545154778
 30
0.0
 11
723.1387042163257
 21
632.098554515479
 31
0.0
  0
CIRCLE
  5
F0B
330
2
100
AcDbEntity
  8
CENTER
100
AcDbCircle
 10
573.1387042206981
 20
357.201286989349
 30
0.0
 40
48.99999999999932
  0
LINE
  5
F0C
330
2
100
AcDbEntity
  8
CENTER
100
AcDbLine
 10
545.4904719425578
 20
391.8495192674889
 30
0.0
 11
531.4904719425578
 21
391.8495192674889
 31
0.0
  0
LINE
  5
F0D
330
2
100
AcDbEntity
  8
CENTER
100
AcDbLine
 10
538.4904719425569
 20
398.8495192674893
 30
0.0
 11
538.4904719425569
 21
384.8495192674893
 31
0.0
  0
LINE
  5
F0E
330
2
100
AcDbEntity
  8
CENTER
100
AcDbLine
 10
545.4904719425578
 20
322.5530547112092
 30
0.0
 11
531.4904719425578
 21
322.5530547112092
 31
0.0
  0
LINE
  5
F0F
330
2
100
AcDbEntity
  8
CENTER
100
AcDbLine
 10
538.4904719425569
 20
329.5530547112078
 30
0.0
 11
538.4904719425569
 21
315.5530547112078
 31
0.0
  0
LINE
  5
F10
330
2
100
AcDbEntity
  8
CENTER
100
AcDbLine
 10
614.7869364988394
 20
322.5530547112128
 30
0.0
 11
600.7869364988394
 21
322.5530547112128
 31
0.0
  0
LINE
  5
F11
330
2
100
AcDbEntity
  8
CENTER
100
AcDbLine
 10
607.7869364988393
 20
329.5530547112078
 30
0.0
 11
607.7869364988393
 21
315.5530547112078
 31
0.0
  0
LINE
  5
F12
330
2
100
AcDbEntity
  8
CENTER
100
AcDbLine
 10
614.7869364988394
 20
391.8495192674902
 30
0.0
 11
600.7869364988394
 21
391.8495192674902
 31
0.0
  0
LINE
  5
F13
330
2
100
AcDbEntity
  8
CENTER
100
AcDbLine
 10
607.7869364988376
 20
398.8495192674893
 30
0.0
 11
607.7869364988376
 21
384.8495192674893
 31
0.0
  0
LINE
  5
F14
330
2
100
AcDbEntity
  8
0
100
AcDbLine
 10
641.1387042206963
 20
324.2012869894659
 30
0.0
 11
635.6387042207018
 21
324.2012869894659
 31
0.0
  0
LINE
  5
F15
330
2
100
AcDbEntity
  8
0
100
AcDbLine
 10
641.1387042206963
 20
390.2012869892312
 30
0.0
 11
635.6387042207018
 21
390.2012869892312
 31
0.0
  0
CIRCLE
  5
F16
330
2
100
AcDbEntity
  8
0
100
AcDbCircle
 10
573.1387042206981
 20
357.2012869893486
 30
0.0
 40
23.0
  0
CIRCLE
  5
F17
330
2
100
AcDbEntity
  8
0
100
AcDbCircle
 10
573.1387042206981
 20
357.2012869893486
 30
0.0
 40
27.99999999999875
  0
CIRCLE
  5
F18
330
2
100
AcDbEntity
  8
0
100
AcDbCircle
 10
573.1387042206981
 20
357.2012869893486
 30
0.0
 40
35.00000000000011
  0
LINE
  5
F19
330
2
100
AcDbEntity
  8
0
100
AcDbLine
 10
614.1387042206981
 20
393.2012869893485
 30
0.0
 11
614.1387042206981
 21
321.2012869893486
 31
0.0
  0
CIRCLE
  5
F1A
330
2
100
AcDbEntity
  8
HOJO
100
AcDbCircle
 10
538.4904719425578
 20
322.5530547112078
 30
0.0
 40
3.0
  0
CIRCLE
  5
F1B
330
2
100
AcDbEntity
  8
0
100
AcDbCircle
 10
538.4904719425578
 20
322.5530547112078
 30
0.0
 40
2.399999999999999
  0
CIRCLE
  5
F1C
330
2
100
AcDbEntity
  8
HOJO
100
AcDbCircle
 10
607.7869364988393
 20
322.5530547112078
 30
0.0
 40
3.0
  0
CIRCLE
  5
F1D
330
2
100
AcDbEntity
  8
0
100
AcDbCircle
 10
607.7869364988393
 20
322.5530547112078
 30
0.0
 40
2.399999999999999
  0
CIRCLE
  5
F1E
330
2
100
AcDbEntity
  8
0
100
AcDbCircle
 10
538.4904719425578
 20
391.8495192674893
 30
0.0
 40
2.399999999999999
  0
CIRCLE
  5
F1F
330
2
100
AcDbEntity
  8
HOJO
100
AcDbCircle
 10
538.4904719425578
 20
391.8495192674893
 30
0.0
 40
3.0
  0
ARC
  5
F20
330
2
100
AcDbEntity
  8
0
100
AcDbCircle
 10
537.1387042206982
 20
393.2012869893485
 30
0.0
 40
5.0
100
AcDbArc
 50
90.0
 51
180.0
  0
CIRCLE
  5
F21
330
2
100
AcDbEntity
  8
HOJO
100
AcDbCircle
 10
607.7869364988393
 20
391.8495192674893
 30
0.0
 40
3.0
  0
CIRCLE
  5
F22
330
2
100
AcDbEntity
  8
0
100
AcDbCircle
 10
607.7869364988393
 20
391.8495192674893
 30
0.0
 40
2.399999999999999
  0
LINE
  5
F23
330
2
100
AcDbEntity
  8
0
100
AcDbLine
 10
658.1387042206963
 20
398.7012869893486
 30
0.0
 11
658.1387042206963
 21
315.7012869893486
 31
0.0
  0
LINE
  5
F24
330
2
100
AcDbEntity
  8
0
100
AcDbLine
 10
646.1387042206963
 20
396.7012869893486
 30
0.0
 11
646.1387042206991
 21
317.7012869893486
 31
0.0
  0
ARC
  5
F25
330
2
100
AcDbEntity
  8
0
100
AcDbCircle
 10
641.1387042206963
 20
319.2012869894659
 30
0.0
 40
5.0
100
AcDbArc
 50
0.0
 51
90.0
  0
LINE
  5
F26
330
2
100
AcDbEntity
  8
0
100
AcDbLine
 10
658.1387042206963
 20
316.2012869893485
 30
0.0
 11
648.138704220699
 21
316.2012869893485
 31
0.0
  0
ARC
  5
F27
330
2
100
AcDbEntity
  8
0
100
AcDbCircle
 10
648.138704220699
 20
318.2012869893485
 30
0.0
 40
2.0
100
AcDbArc
 50
180.0
 51
270.0
  0
ARC
  5
F28
330
2
100
AcDbEntity
  8
0
100
AcDbCircle
 10
641.1387042206963
 20
395.2012869892312
 30
0.0
 40
5.0
100
AcDbArc
 50
270.0
 51
0.0
  0
LINE
  5
F29
330
2
100
AcDbEntity
  8
0
100
AcDbLine
 10
648.1387042206963
 20
398.2012869893486
 30
0.0
 11
658.1387042206963
 21
398.2012869893486
 31
0.0
  0
ARC
  5
F2A
330
2
100
AcDbEntity
  8
0
100
AcDbCircle
 10
648.1387042206963
 20
396.2012869893486
 30
0.0
 40
2.0
100
AcDbArc
 50
90.0
 51
180.0
  0
LINE
  5
F2B
330
2
100
AcDbEntity
  8
0
100
AcDbLine
 10
148.4177387315878
 20
321.2012869893486
 30
0.0
 11
148.4177387315878
 21
393.2012869893485
 31
0.0
  0
LINE
  5
F2C
330
2
100
AcDbEntity
  8
0
100
AcDbLine
 10
116.4177387315924
 20
317.7012869893486
 30
0.0
 11
116.4177387315924
 21
396.7012869893486
 31
0.0
  0
LINE
  5
F2D
330
2
100
AcDbEntity
  8
0
100
AcDbLine
 10
128.9177387315814
 20
326.2012869894654
 30
0.0
 11
128.917738731586
 21
388.2012869892312
 31
0.0
  0
LINE
  5
F2E
330
2
100
AcDbEntity
  8
0
100
AcDbLine
 10
104.4177387315878
 20
315.7012869893486
 30
0.0
 11
104.4177387315878
 21
398.7012869893486
 31
0.0
  0
LINE
  5
F2F
330
2
100
AcDbEntity
  8
0
100
AcDbLine
 10
121.4177387315878
 20
390.2012869892312
 30
0.0
 11
126.9177387315878
 21
390.2012869892312
 31
0.0
  0
ARC
  5
F30
330
2
100
AcDbEntity
  8
0
100
AcDbCircle
 10
121.4177387315878
 20
395.2012869892312
 30
0.0
 40
5.0
100
AcDbArc
 50
180.0
 51
270.0
  0
LINE
  5
F31
330
2
100
AcDbEntity
  8
0
100
AcDbLine
 10
104.4177387315878
 20
398.2012869893486
 30
0.0
 11
114.4177387315878
 21
398.2012869893486
 31
0.0
  0
ARC
  5
F32
330
2
100
AcDbEntity
  8
0
100
AcDbCircle
 10
114.4177387315878
 20
396.2012869893486
 30
0.0
 40
2.0
100
AcDbArc
 50
0.0
 51
90.0
  0
LINE
  5
F33
330
2
100
AcDbEntity
  8
0
100
AcDbLine
 10
121.4177387315924
 20
324.2012869894654
 30
0.0
 11
126.9177387315878
 21
324.2012869894654
 31
0.0
  0
LINE
  5
F34
330
2
100
AcDbEntity
  8
0
100
AcDbLine
 10
114.4177387315896
 20
316.2012869893485
 30
0.0
 11
104.4177387315878
 21
316.2012869893485
 31
0.0
  0
ARC
  5
F35
330
2
100
AcDbEntity
  8
0
100
AcDbCircle
 10
121.4177387315924
 20
319.2012869894654
 30
0.0
 40
5.0
100
AcDbArc
 50
90.0
 51
180.0
  0
ARC
  5
F36
330
2
100
AcDbEntity
  8
0
100
AcDbCircle
 10
114.4177387315896
 20
318.2012869893485
 30
0.0
 40
2.0
100
AcDbArc
 50
270.0
 51
0.0
  0
ARC
  5
F37
330
2
100
AcDbEntity
  8
0
100
AcDbCircle
 10
225.4177387315878
 20
321.2012869893486
 30
0.0
 40
5.0
100
AcDbArc
 50
270.0
 51
0.0
  0
ARC
  5
F38
330
2
100
AcDbEntity
  8
0
100
AcDbCircle
 10
153.4177387315878
 20
321.2012869893486
 30
0.0
 40
5.0
100
AcDbArc
 50
180.0
 51
270.0
  0
ARC
  5
F39
330
2
100
AcDbEntity
  8
0
100
AcDbCircle
 10
153.4177387315878
 20
393.2012869893485
 30
0.0
 40
5.0
100
AcDbArc
 50
90.0
 51
180.0
  0
ARC
  5
F3A
330
2
100
AcDbEntity
  8
0
100
AcDbCircle
 10
225.4177387315878
 20
393.2012869893485
 30
0.0
 40
5.0
100
AcDbArc
 50
0.0
 51
90.0
  0
LINE
  5
F3B
330
2
100
AcDbEntity
  8
0
100
AcDbLine
 10
628.5060606459531
 20
655.0985545128112
 30
0.0
 11
614.2236228276381
 21
655.0985545128112
 31
0.0
  0
LINE
  5
F3C
330
2
100
AcDbEntity
  8
0
100
AcDbLine
 10
532.1387042206963
 20
655.5985545128116
 30
0.0
 11
613.7236228276362
 21
655.5985545128139
 31
0.0
  0
LINE
  5
F3D
330
2
100
AcDbEntity
  8
0
100
AcDbLine
 10
538.1387042206963
 20
584.0985545154787
 30
0.0
 11
608.1387042206963
 21
584.0985545154787
 31
0.0
  0
LINE
  5
F3E
330
2
100
AcDbEntity
  8
0
100
AcDbLine
 10
532.1387042206963
 20
655.5985545128116
 30
0.0
 11
532.7190409287588
 21
589.0985545154783
 31
0.0
  0
LINE
  5
F3F
330
2
100
AcDbEntity
  8
0
100
AcDbLine
 10
532.7190409287588
 20
589.0985545154783
 30
0.0
 11
613.5534489056928
 21
589.0985545154769
 31
0.0
  0
ARC
  5
F40
330
2
100
AcDbEntity
  8
0
100
AcDbCircle
 10
609.1387042206982
 20
393.2012869893485
 30
0.0
 40
5.0
100
AcDbArc
 50
0.0
 51
90.0
  0
ARC
  5
F41
330
2
100
AcDbEntity
  8
0
100
AcDbCircle
 10
609.138704220699
 20
321.2012869893486
 30
0.0
 40
5.0
100
AcDbArc
 50
270.0
 51
0.0
  0
ARC
  5
F42
330
2
100
AcDbEntity
  8
0
100
AcDbCircle
 10
537.1387042206982
 20
321.2012869893486
 30
0.0
 40
5.0
100
AcDbArc
 50
180.0
 51
270.0
  0
LINE
  5
F43
330
2
100
AcDbEntity
  8
0
100
AcDbLine
 10
658.1387042163271
 20
673.0985545154783
 30
0.0
 11
658.1387042163271
 21
591.0985545154783
 31
0.0
  0
ARC
  5
F44
330
2
100
AcDbEntity
  8
0
100
AcDbCircle
 10
189.4177387315878
 20
486.2012869893522
 30
0.0
 40
170.0
100
AcDbArc
 50
263.8230035951095
 51
276.1769964048904
  0
ARC
  5
F45
330
2
100
AcDbEntity
  8
0
100
AcDbCircle
 10
166.8216952913974
 20
277.4204956773908
 30
0.0
 40
40.0
100
AcDbArc
 50
83.82300359510955
 51
103.36767420263
  0
ARC
  5
F46
330
2
100
AcDbEntity
  8
0
100
AcDbCircle
 10
212.0137821717773
 20
277.4204956773904
 30
0.0
 40
40.0
100
AcDbArc
 50
76.63232579736996
 51
96.17699640483891
  0
ARC
  5
F47
330
2
100
AcDbEntity
  8
0
100
AcDbCircle
 10
222.4177387315878
 20
321.2012869893522
 30
0.0
 40
5.0
100
AcDbArc
 50
256.63232579737
 51
270.0
  0
LINE
  5
F48
330
2
100
AcDbEntity
  8
0
100
AcDbLine
 10
225.4177387315878
 20
316.2012869893522
 30
0.0
 11
222.4177387315878
 21
316.2012869893522
 31
0.0
  0
LINE
  5
F49
330
2
100
AcDbEntity
  8
0
100
AcDbLine
 10
230.4177387315878
 20
321.2012869893522
 30
0.0
 11
230.4177387315878
 21
324.2012869893522
 31
0.0
  0
ARC
  5
F4A
330
2
100
AcDbEntity
  8
0
100
AcDbCircle
 10
225.4177387315869
 20
324.2012869893522
 30
0.0
 40
5.0
100
AcDbArc
 50
0.0
 51
13.36767420262659
  0
ARC
  5
F4B
330
2
100
AcDbEntity
  8
0
100
AcDbCircle
 10
269.1985300435492
 20
334.6052435491618
 30
0.0
 40
40.0
100
AcDbArc
 50
173.8230035951369
 51
193.3676742026266
  0
ARC
  5
F4C
330
2
100
AcDbEntity
  8
0
100
AcDbCircle
 10
60.41773873158786
 20
357.2012869893522
 30
0.0
 40
170.0
100
AcDbArc
 50
353.8230035951369
 51
6.176996404863066
  0
ARC
  5
F4D
330
2
100
AcDbEntity
  8
0
100
AcDbCircle
 10
269.1985300435501
 20
379.7973304295418
 30
0.0
 40
40.0
100
AcDbArc
 50
166.6323257973733
 51
186.176996404863
  0
LINE
  5
F4E
330
2
100
AcDbEntity
  8
0
100
AcDbLine
 10
230.4177387315878
 20
390.2012869893522
 30
0.0
 11
230.4177387315878
 21
393.2012869893522
 31
0.0
  0
ARC
  5
F4F
330
2
100
AcDbEntity
  8
0
100
AcDbCircle
 10
225.4177387315878
 20
390.2012869893522
 30
0.0
 40
5.0
100
AcDbArc
 50
346.6323257973734
 51
0.0
  0
LINE
  5
F50
330
2
100
AcDbEntity
  8
0
100
AcDbLine
 10
225.4177387315878
 20
398.2012869893522
 30
0.0
 11
222.4177387315878
 21
398.2012869893522
 31
0.0
  0
ARC
  5
F51
330
2
100
AcDbEntity
  8
0
100
AcDbCircle
 10
212.0137821717782
 20
436.9820783013135
 30
0.0
 40
40.0
100
AcDbArc
 50
263.8230035951095
 51
283.3676742026299
  0
ARC
  5
F52
330
2
100
AcDbEntity
  8
0
100
AcDbCircle
 10
222.4177387315878
 20
393.2012869893513
 30
0.0
 40
5.0
100
AcDbArc
 50
90.0
 51
103.36767420263
  0
ARC
  5
F53
330
2
100
AcDbEntity
  8
0
100
AcDbCircle
 10
189.4177387315878
 20
228.2012869893522
 30
0.0
 40
170.0
100
AcDbArc
 50
83.82300359510955
 51
96.17699640483891
  0
ARC
  5
F54
330
2
100
AcDbEntity
  8
0
100
AcDbCircle
 10
166.8216952913983
 20
436.982078301314
 30
0.0
 40
40.0
100
AcDbArc
 50
256.63232579737
 51
276.1769964048904
  0
ARC
  5
F55
330
2
100
AcDbEntity
  8
0
100
AcDbCircle
 10
156.4177387315878
 20
393.2012869893522
 30
0.0
 40
5.0
100
AcDbArc
 50
76.63232579736996
 51
90.0
  0
LINE
  5
F56
330
2
100
AcDbEntity
  8
0
100
AcDbLine
 10
156.4177387315878
 20
398.2012869893522
 30
0.0
 11
153.4177387315878
 21
398.2012869893522
 31
0.0
  0
ARC
  5
F57
330
2
100
AcDbEntity
  8
0
100
AcDbCircle
 10
156.4177387315878
 20
321.2012869893531
 30
0.0
 40
5.0
100
AcDbArc
 50
270.0
 51
283.3676742026299
  0
LINE
  5
F58
330
2
100
AcDbEntity
  8
0
100
AcDbLine
 10
156.4177387315878
 20
316.2012869893522
 30
0.0
 11
153.4177387315878
 21
316.2012869893522
 31
0.0
  0
ARC
  5
F59
330
2
100
AcDbEntity
  8
0
100
AcDbCircle
 10
573.1387042206945
 20
228.2012869893504
 30
0.0
 40
170.0
100
AcDbArc
 50
83.82300359510955
 51
96.17699640483891
  0
ARC
  5
F5A
330
2
100
AcDbEntity
  8
0
100
AcDbCircle
 10
595.7347476608858
 20
436.9820783013122
 30
0.0
 40
40.0
100
AcDbArc
 50
263.8230035951095
 51
283.3676742026299
  0
ARC
  5
F5B
330
2
100
AcDbEntity
  8
0
100
AcDbCircle
 10
550.5426607805049
 20
436.9820783013127
 30
0.0
 40
40.0
100
AcDbArc
 50
256.63232579737
 51
276.1769964048904
  0
ARC
  5
F5C
330
2
100
AcDbEntity
  8
0
100
AcDbCircle
 10
540.1387042206945
 20
393.2012869893504
 30
0.0
 40
5.0
100
AcDbArc
 50
76.63232579736996
 51
90.0
  0
LINE
  5
F5D
330
2
100
AcDbEntity
  8
0
100
AcDbLine
 10
537.1387042206945
 20
398.2012869893504
 30
0.0
 11
540.1387042206945
 21
398.2012869893504
 31
0.0
  0
LINE
  5
F5E
330
2
100
AcDbEntity
  8
0
100
AcDbLine
 10
532.1387042206945
 20
393.2012869893504
 30
0.0
 11
532.1387042206945
 21
390.2012869893504
 31
0.0
  0
ARC
  5
F5F
330
2
100
AcDbEntity
  8
0
100
AcDbCircle
 10
537.1387042206954
 20
390.2012869893504
 30
0.0
 40
5.0
100
AcDbArc
 50
180.0
 51
193.3676742026266
  0
ARC
  5
F60
330
2
100
AcDbEntity
  8
0
100
AcDbCircle
 10
493.3579129087331
 20
379.7973304295408
 30
0.0
 40
40.0
100
AcDbArc
 50
353.8230035951337
 51
13.36767420262659
  0
ARC
  5
F61
330
2
100
AcDbEntity
  8
0
100
AcDbCircle
 10
702.1387042206954
 20
357.2012869893504
 30
0.0
 40
170.0
100
AcDbArc
 50
173.8230035951369
 51
186.176996404863
  0
ARC
  5
F62
330
2
100
AcDbEntity
  8
0
100
AcDbCircle
 10
493.3579129087331
 20
334.6052435491613
 30
0.0
 40
40.0
100
AcDbArc
 50
346.6323257973734
 51
6.176996404863066
  0
LINE
  5
F63
330
2
100
AcDbEntity
  8
0
100
AcDbLine
 10
532.1387042206945
 20
324.2012869893504
 30
0.0
 11
532.1387042206945
 21
321.2012869893504
 31
0.0
  0
ARC
  5
F64
330
2
100
AcDbEntity
  8
0
100
AcDbCircle
 10
537.1387042206954
 20
324.2012869893504
 30
0.0
 40
5.0
100
AcDbArc
 50
166.6323257973733
 51
180.0
  0
LINE
  5
F65
330
2
100
AcDbEntity
  8
0
100
AcDbLine
 10
537.1387042206945
 20
316.2012869893504
 30
0.0
 11
540.1387042206945
 21
316.2012869893504
 31
0.0
  0
ARC
  5
F66
330
2
100
AcDbEntity
  8
0
100
AcDbCircle
 10
550.5426607805049
 20
277.420495677389
 30
0.0
 40
40.0
100
AcDbArc
 50
83.82300359510955
 51
103.36767420263
  0
ARC
  5
F67
330
2
100
AcDbEntity
  8
0
100
AcDbCircle
 10
540.1387042206945
 20
321.2012869893513
 30
0.0
 40
5.0
100
AcDbArc
 50
270.0
 51
283.3676742026299
  0
ARC
  5
F68
330
2
100
AcDbEntity
  8
0
100
AcDbCircle
 10
573.1387042206945
 20
486.2012869893509
 30
0.0
 40
170.0
100
AcDbArc
 50
263.8230035951095
 51
276.1769964048904
  0
ARC
  5
F69
330
2
100
AcDbEntity
  8
0
100
AcDbCircle
 10
595.734747660884
 20
277.420495677389
 30
0.0
 40
40.0
100
AcDbArc
 50
76.63232579736996
 51
96.17699640483891
  0
ARC
  5
F6A
330
2
100
AcDbEntity
  8
0
100
AcDbCircle
 10
606.1387042206945
 20
321.2012869893508
 30
0.0
 40
5.0
100
AcDbArc
 50
256.63232579737
 51
270.0
  0
LINE
  5
F6B
330
2
100
AcDbEntity
  8
0
100
AcDbLine
 10
606.1387042206945
 20
316.2012869893504
 30
0.0
 11
609.1387042206954
 21
316.2012869893504
 31
0.0
  0
ARC
  5
F6C
330
2
100
AcDbEntity
  8
0
100
AcDbCircle
 10
606.1387042206945
 20
393.2012869893499
 30
0.0
 40
5.0
100
AcDbArc
 50
90.0
 51
103.36767420263
  0
LINE
  5
F6D
330
2
100
AcDbEntity
  8
0
100
AcDbLine
 10
606.1387042206945
 20
398.2012869893504
 30
0.0
 11
609.1387042206945
 21
398.2012869893504
 31
0.0
  0
LINE
  5
F6E
330
2
100
AcDbEntity
  8
0
100
AcDbLine
 10
613.5534489056928
 20
589.0985545154769
 30
0.0
 11
613.9287042206963
 21
632.0985545154783
 31
0.0
  0
ARC
  5
F6F
330
2
100
AcDbEntity
  8
0
100
AcDbCircle
 10
616.8808206830046
 20
626.5985545154783
 30
0.0
 40
3.0
100
AcDbArc
 50
90.0
 51
179.4999999999954
  0
ARC
  5
F70
330
2
100
AcDbEntity
  8
0
100
AcDbCircle
 10
616.675739289921
 20
603.0985545154783
 30
0.0
 40
3.0
100
AcDbArc
 50
90.0
 51
179.4999999999954
  0
ARC
  5
F71
330
2
100
AcDbEntity
  8
0
100
AcDbCircle
 10
616.6233780831764
 20
597.0985545154783
 30
0.0
 40
3.0
100
AcDbArc
 50
90.0
 51
179.4999999999954
  0
LINE
  5
F72
330
2
100
AcDbEntity
  8
0
100
AcDbLine
 10
613.7236228276362
 20
655.5985545128139
 30
0.0
 11
614.2236228276362
 21
655.0985545128139
 31
0.0
  0
LINE
  5
F73
330
2
100
AcDbEntity
  8
0
100
AcDbLine
 10
133.917738731586
 20
383.2012869892313
 30
0.0
 11
143.4177387315878
 21
383.2012869892313
 31
0.0
  0
ARC
  5
F74
330
2
100
AcDbEntity
  8
0
100
AcDbCircle
 10
126.9177387315878
 20
388.2012869892312
 30
0.0
 40
2.0
100
AcDbArc
 50
359.9999999999869
 51
90.0
  0
ARC
  5
F75
330
2
100
AcDbEntity
  8
0
100
AcDbCircle
 10
126.9177387315878
 20
326.2012869894654
 30
0.0
 40
2.0
100
AcDbArc
 50
270.0
 51
359.9999999999869
  0
LINE
  5
F76
330
2
100
AcDbEntity
  8
0
100
AcDbLine
 10
133.9177387315824
 20
331.2012869894659
 30
0.0
 11
143.4177387315878
 21
331.2012869894659
 31
0.0
  0
LINE
  5
F77
330
2
100
AcDbEntity
  8
0
100
AcDbLine
 10
147.9177387315887
 20
345.0769313363669
 30
0.0
 11
147.9177387315878
 21
369.3256426423311
 31
0.0
  0
LINE
  5
F78
330
2
100
AcDbEntity
  8
0
100
AcDbLine
 10
128.9177387315833
 20
345.0769313363669
 30
0.0
 11
148.4177387315887
 21
345.0769313363669
 31
0.0
  0
LINE
  5
F79
330
2
100
AcDbEntity
  8
0
100
AcDbLine
 10
128.917738731586
 20
369.3256426423311
 30
0.0
 11
148.4177387315878
 21
369.3256426423311
 31
0.0
  0
LINE
  5
F7A
330
2
100
AcDbEntity
  8
0
100
AcDbLine
 10
628.6387042207081
 20
383.2012869892317
 30
0.0
 11
619.1387042206981
 21
383.2012869892322
 31
0.0
  0
ARC
  5
F7B
330
2
100
AcDbEntity
  8
0
100
AcDbCircle
 10
635.6387042207018
 20
388.2012869892321
 30
0.0
 40
2.0
100
AcDbArc
 50
90.0
 51
180.0
  0
LINE
  5
F7C
330
2
100
AcDbEntity
  8
0
100
AcDbLine
 10
633.6387042207063
 20
388.2012869892326
 30
0.0
 11
633.6387042207054
 21
326.2012869894668
 31
0.0
  0
LINE
  5
F7D
330
2
100
AcDbEntity
  8
0
100
AcDbLine
 10
628.6387042207064
 20
331.2012869894668
 30
0.0
 11
619.1387042206981
 21
331.2012869894668
 31
0.0
  0
ARC
  5
F7E
330
2
100
AcDbEntity
  8
0
100
AcDbCircle
 10
635.6387042207018
 20
326.2012869894668
 30
0.0
 40
2.0
100
AcDbArc
 50
180.0
 51
270.0
  0
LINE
  5
F7F
330
2
100
AcDbEntity
  8
0
100
AcDbLine
 10
617.1387042206982
 20
359.701286989349
 30
0.0
 11
630.6387042207063
 21
359.701286989349
 31
0.0
  0
LINE
  5
F80
330
2
100
AcDbEntity
  8
0
100
AcDbLine
 10
617.1387042206982
 20
354.7012869893495
 30
0.0
 11
630.6387042207054
 21
354.701286989349
 31
0.0
  0
ARC
  5
F81
330
2
100
AcDbEntity
  8
0
100
AcDbCircle
 10
133.9177387315824
 20
326.2012869894659
 30
0.0
 40
5.0
100
AcDbArc
 50
90.0
 51
179.9999999999869
  0
ARC
  5
F82
330
2
100
AcDbEntity
  8
0
100
AcDbCircle
 10
133.917738731586
 20
388.2012869892312
 30
0.0
 40
5.0
100
AcDbArc
 50
179.9999999999869
 51
270.0
  0
ARC
  5
F83
330
2
100
AcDbEntity
  8
0
100
AcDbCircle
 10
143.4177387315878
 20
388.2012869892312
 30
0.0
 40
5.0
100
AcDbArc
 50
270.0
 51
0.0
  0
ARC
  5
F84
330
2
100
AcDbEntity
  8
0
100
AcDbCircle
 10
143.4177387315878
 20
326.2012869894659
 30
0.0
 40
5.0
100
AcDbArc
 50
0.0
 51
90.0
  0
ARC
  5
F85
330
2
100
AcDbEntity
  8
0
100
AcDbCircle
 10
628.6387042207081
 20
388.2012869892317
 30
0.0
 40
5.0
100
AcDbArc
 50
270.0
 51
359.9999999999869
  0
ARC
  5
F86
330
2
100
AcDbEntity
  8
0
100
AcDbCircle
 10
619.1387042206981
 20
388.2012869892321
 30
0.0
 40
5.0
100
AcDbArc
 50
180.0
 51
270.0
  0
ARC
  5
F87
330
2
100
AcDbEntity
  8
0
100
AcDbCircle
 10
628.6387042207064
 20
326.2012869894668
 30
0.0
 40
5.0
100
AcDbArc
 50
0.0
 51
90.0
  0
ARC
  5
F88
330
2
100
AcDbEntity
  8
0
100
AcDbCircle
 10
619.1387042206981
 20
326.2012869894668
 30
0.0
 40
5.0
100
AcDbArc
 50
90.0
 51
180.0
  0
ARC
  5
F89
330
2
100
AcDbEntity
  8
0
100
AcDbCircle
 10
630.6387042207063
 20
362.701286989349
 30
0.0
 40
3.0
100
AcDbArc
 50
270.0
 51
0.0
  0
ARC
  5
F8A
330
2
100
AcDbEntity
  8
0
100
AcDbCircle
 10
617.1387042206982
 20
362.701286989349
 30
0.0
 40
3.0
100
AcDbArc
 50
180.0
 51
270.0
  0
ARC
  5
F8B
330
2
100
AcDbEntity
  8
0
100
AcDbCircle
 10
630.6387042207054
 20
351.701286989349
 30
0.0
 40
3.0
100
AcDbArc
 50
0.0
 51
90.0
  0
ARC
  5
F8C
330
2
100
AcDbEntity
  8
0
100
AcDbCircle
 10
617.1387042206982
 20
351.7012869893495
 30
0.0
 40
3.0
100
AcDbArc
 50
90.0
 51
180.0
  0
LINE
  5
F8D
330
2
100
AcDbEntity
  8
0
100
AcDbLine
 10
544.7521383217283
 20
582.168353508883
 30
0.0
 11
545.0713001162723
 21
573.0287555220736
 31
0.0
  0
ARC
  5
F8E
330
2
100
AcDbEntity
  8
0
100
AcDbCircle
 10
542.7533566676904
 20
582.0985545154778
 30
0.0
 40
2.0
100
AcDbArc
 50
2.000000000003654
 51
90.0
  0
LINE
  5
F8F
330
2
100
AcDbEntity
  8
0
100
AcDbLine
 10
547.0700817703111
 20
571.0985545154805
 30
0.0
 11
599.2073266710815
 21
571.0985545154779
 31
0.0
  0
ARC
  5
F90
330
2
100
AcDbEntity
  8
0
100
AcDbCircle
 10
547.0700817703111
 20
573.0985545154783
 30
0.0
 40
2.0
100
AcDbArc
 50
182.0000000000036
 51
270.0
  0
ARC
  5
F91
330
2
100
AcDbEntity
  8
0
100
AcDbCircle
 10
599.2073266710815
 20
573.0985545154778
 30
0.0
 40
2.0
100
AcDbArc
 50
270.0
 51
357.9999999999963
  0
LINE
  5
F92
330
2
100
AcDbEntity
  8
0
100
AcDbLine
 10
601.5252701196653
 20
582.168353508883
 30
0.0
 11
601.2061083251203
 21
573.0287555220732
 31
0.0
  0
ARC
  5
F93
330
2
100
AcDbEntity
  8
0
100
AcDbCircle
 10
603.524051773704
 20
582.0985545154778
 30
0.0
 40
2.0
100
AcDbArc
 50
90.0
 51
177.9999999999963
  0
LINE
  5
F94
330
2
100
AcDbEntity
  8
0
100
AcDbLine
 10
648.0870179625383
 20
673.0985545154783
 30
0.0
 11
658.1387042163271
 21
673.0985545154783
 31
0.0
  0
LINE
  5
F95
330
2
100
AcDbEntity
  8
0
100
AcDbLine
 10
648.0870179625383
 20
591.0985545154783
 30
0.0
 11
658.1387042163271
 21
591.0985545154783
 31
0.0
  0
ARC
  5
F96
330
2
100
AcDbEntity
  8
0
100
AcDbCircle
 10
648.0870179625383
 20
671.0985545154783
 30
0.0
 40
2.0
100
AcDbArc
 50
90.0
 51
178.5000000000102
  0
LINE
  5
F97
330
2
100
AcDbEntity
  8
0
100
AcDbLine
 10
646.0877033125882
 20
671.1509084120937
 30
0.0
 11
645.0650814363937
 21
632.0985545154783
 31
0.0
  0
ARC
  5
F98
330
2
100
AcDbEntity
  8
0
100
AcDbCircle
 10
648.0870179625383
 20
593.0985545154783
 30
0.0
 40
2.0
100
AcDbArc
 50
181.4999999999897
 51
270.0
  0
LINE
  5
F99
330
2
100
AcDbEntity
  8
0
100
AcDbLine
 10
646.0877033125882
 20
593.0462006188629
 30
0.0
 11
645.0650814363927
 21
632.0985545154783
 31
0.0
  0
LINE
  5
F9A
330
2
100
AcDbEntity
  8
0
100
AcDbLine
 10
635.5870179625383
 20
599.0985545154783
 30
0.0
 11
641.0584324935355
 21
599.0985545154783
 31
0.0
  0
ARC
  5
F9B
330
2
100
AcDbEntity
  8
0
100
AcDbCircle
 10
641.0584324935346
 20
670.0985545154783
 30
0.0
 40
5.0
100
AcDbArc
 50
270.0
 51
358.5000000000103
  0
ARC
  5
F9C
330
2
100
AcDbEntity
  8
0
100
AcDbCircle
 10
641.0584324935355
 20
594.0985545154783
 30
0.0
 40
5.0
100
AcDbArc
 50
1.499999999989693
 51
90.0
  0
ARC
  5
F9D
330
2
100
AcDbEntity
  8
0
100
AcDbCircle
 10
635.5870179625383
 20
663.0985545154783
 30
0.0
 40
2.0
100
AcDbArc
 50
90.0
 51
178.4999999999973
  0
LINE
  5
F9E
330
2
100
AcDbEntity
  8
0
100
AcDbLine
 10
633.5877033125873
 20
601.0462006188625
 30
0.0
 11
632.7745688090401
 21
632.0985545154783
 31
0.0
  0
ARC
  5
F9F
330
2
100
AcDbEntity
  8
0
100
AcDbCircle
 10
635.5870179625383
 20
601.0985545154783
 30
0.0
 40
2.0
100
AcDbArc
 50
181.5000000000548
 51
270.0
  0
LINE
  5
FA0
330
2
100
AcDbEntity
  8
0
100
AcDbLine
 10
635.5870179625383
 20
665.0985545154783
 30
0.0
 11
641.0584324935346
 21
665.0985545154783
 31
0.0
  0
LINE
  5
FA1
330
2
100
AcDbEntity
  8
0
100
AcDbLine
 10
633.5877033125873
 20
663.1509084120941
 30
0.0
 11
632.7745688089192
 21
632.0985545154783
 31
0.0
  0
LINE
  5
FA2
330
2
100
AcDbEntity
  8
0
100
AcDbLine
 10
616.675739289921
 20
606.0985545154783
 30
0.0
 11
628.5846184151026
 21
606.0985545154783
 31
0.0
  0
ARC
  5
FA3
330
2
100
AcDbEntity
  8
0
100
AcDbCircle
 10
628.506060650395
 20
660.0985545154783
 30
0.0
 40
5.0
100
AcDbArc
 50
270.0
 51
358.4999999999972
  0
ARC
  5
FA4
330
2
100
AcDbEntity
  8
0
100
AcDbCircle
 10
628.5846184151026
 20
601.0985545154783
 30
0.0
 40
5.0
100
AcDbArc
 50
1.500000000002716
 51
90.0
  0
LINE
  5
FA5
330
2
100
AcDbEntity
  8
0
100
AcDbLine
 10
616.6233780831764
 20
600.0985545154783
 30
0.0
 11
632.5870179625383
 21
600.0985545154783
 31
0.0
  0
ARC
  5
FA6
330
2
100
AcDbEntity
  8
0
100
AcDbCircle
 10
632.5870179625383
 20
597.0985545154783
 30
0.0
 40
3.0
100
AcDbArc
 50
53.13010235412992
 51
90.0
  0
LINE
  5
FA7
330
2
100
AcDbEntity
  8
0
100
AcDbLine
 10
606.1517971815503
 20
655.5985545128139
 30
0.0
 11
606.7416658843015
 21
633.0723775671706
 31
0.0
  0
ARC
  5
FA8
330
2
100
AcDbEntity
  8
0
100
AcDbCircle
 10
607.7413232092769
 20
633.0985545154783
 30
0.0
 40
1.0
100
AcDbArc
 50
181.4999999999897
 51
270.0
  0
LINE
  5
FA9
330
2
100
AcDbEntity
  8
0
100
AcDbLine
 10
616.8808206830046
 20
634.5985545154778
 30
0.0
 11
629.9175630000757
 21
634.5985545154783
 31
0.0
  0
LINE
  5
FAA
330
2
100
AcDbEntity
  8
0
100
AcDbLine
 10
616.8808206830046
 20
629.5985545154783
 30
0.0
 11
629.9175630001748
 21
629.5985545154783
 31
0.0
  0
ARC
  5
FAB
330
2
100
AcDbEntity
  8
0
100
AcDbCircle
 10
629.9175630000757
 20
637.5985545154783
 30
0.0
 40
3.0
100
AcDbArc
 50
270.0
 51
358.5000000000103
  0
ARC
  5
FAC
330
2
100
AcDbEntity
  8
0
100
AcDbCircle
 10
629.9175630001748
 20
626.5985545154783
 30
0.0
 40
3.0
100
AcDbArc
 50
1.499999999768141
 51
90.0
  0
LINE
  5
FAD
330
2
100
AcDbEntity
  8
0
100
AcDbLine
 10
554.8466690547559
 20
655.0985545154783
 30
0.0
 11
554.8466690547559
 21
590.5985354770102
 31
0.0
  0
LINE
  5
FAE
330
2
100
AcDbEntity
  8
0
100
AcDbLine
 10
540.1387042206972
 20
655.0985545154783
 30
0.0
 11
540.1387042206972
 21
590.5985354770102
 31
0.0
  0
LINE
  5
FAF
330
2
100
AcDbEntity
  8
0
100
AcDbLine
 10
537.1387042206954
 20
655.0985545154783
 30
0.0
 11
537.1387042206954
 21
590.5985354770102
 31
0.0
  0
LINE
  5
FB0
330
2
100
AcDbEntity
  8
0
100
AcDbLine
 10
591.4307393866367
 20
655.0985545154783
 30
0.0
 11
591.4307393866367
 21
590.5985354770102
 31
0.0
  0
LINE
  5
FB1
330
2
100
AcDbEntity
  8
0
100
AcDbLine
 10
606.1387042206954
 20
632.0985545154783
 30
0.0
 11
606.1387042206954
 21
590.5985354770102
 31
0.0
  0
LINE
  5
FB2
330
2
100
AcDbEntity
  8
0
100
AcDbLine
 10
608.9292595598701
 20
655.5985545154783
 30
0.0
 11
608.9292595598701
 21
590.5985354770102
 31
0.0
  0
LINE
  5
FB3
330
2
100
AcDbEntity
  8
0
100
AcDbLine
 10
607.7413232092769
 20
632.0985545154783
 30
0.0
 11
613.9287042206963
 21
632.0985545154783
 31
0.0
  0
LINE
  5
FB4
330
2
100
AcDbEntity
  8
0
100
AcDbLine
 10
645.0650814363937
 20
632.0985545154783
 30
0.0
 11
658.1387042163271
 21
632.0985545154783
 31
0.0
  0
LINE
  5
FB5
330
2
100
AcDbEntity
  8
0
100
AcDbLine
 10
145.4177387315878
 20
325.201286989344
 30
0.0
 11
129.9177387315887
 21
325.201286989344
 31
0.0
  0
ARC
  5
FB6
330
2
100
AcDbEntity
  8
0
100
AcDbCircle
 10
129.9177387315887
 20
322.201286989344
 30
0.0
 40
3.0
100
AcDbArc
 50
90.0
 51
126.86989764587
  0
ARC
  5
FB7
330
2
100
AcDbEntity
  8
0
100
AcDbCircle
 10
145.4177387315878
 20
322.201286989344
 30
0.0
 40
3.0
100
AcDbArc
 50
0.0
 51
90.0
  0
LINE
  5
FB8
330
2
100
AcDbEntity
  8
0
100
AcDbLine
 10
145.4177387315878
 20
389.201286989354
 30
0.0
 11
129.9177387315887
 21
389.201286989354
 31
0.0
  0
ARC
  5
FB9
330
2
100
AcDbEntity
  8
0
100
AcDbCircle
 10
145.4177387315878
 20
392.201286989354
 30
0.0
 40
3.0
100
AcDbArc
 50
270.0
 51
0.0
  0
ARC
  5
FBA
330
2
100
AcDbEntity
  8
0
100
AcDbCircle
 10
129.9177387315887
 20
392.201286989354
 30
0.0
 40
3.0
100
AcDbArc
 50
233.1301023541299
 51
270.0
  0
LINE
  5
FBB
330
2
100
AcDbEntity
  8
0
100
AcDbLine
 10
617.1387042206982
 20
325.2012869893472
 30
0.0
 11
632.6387042206972
 21
325.2012869893472
 31
0.0
  0
ARC
  5
FBC
330
2
100
AcDbEntity
  8
0
100
AcDbCircle
 10
617.1387042206982
 20
322.2012869893472
 30
0.0
 40
3.0
100
AcDbArc
 50
90.0
 51
180.0
  0
ARC
  5
FBD
330
2
100
AcDbEntity
  8
0
100
AcDbCircle
 10
632.6387042206972
 20
322.2012869893472
 30
0.0
 40
3.0
100
AcDbArc
 50
53.13010235412992
 51
90.0
  0
LINE
  5
FBE
330
2
100
AcDbEntity
  8
0
100
AcDbLine
 10
617.1387042206982
 20
389.2012869893568
 30
0.0
 11
632.6387042206972
 21
389.2012869893568
 31
0.0
  0
ARC
  5
FBF
330
2
100
AcDbEntity
  8
0
100
AcDbCircle
 10
617.1387042206982
 20
392.2012869893572
 30
0.0
 40
3.0
100
AcDbArc
 50
180.0
 51
270.0
  0
ARC
  5
FC0
330
2
100
AcDbEntity
  8
0
100
AcDbCircle
 10
632.6387042206972
 20
392.2012869893572
 30
0.0
 40
3.0
100
AcDbArc
 50
270.0
 51
306.86989764587
  0
LINE
  5
FC1
330
2
100
AcDbEntity
  8
0
100
AcDbLine
 10
569.9362201361812
 20
323.0281606117485
 30
0.0
 11
571.196220679257
 21
323.0281606117485
 31
0.0
  0
LINE
  5
FC2
330
2
100
AcDbEntity
  8
0
100
AcDbLine
 10
571.6862201361748
 20
326.5281606117362
 30
0.0
 11
569.9362201361812
 21
323.0281606117485
 31
0.0
  0
ARC
  5
FC3
330
2
100
AcDbEntity
  8
0
100
AcDbCircle
 10
574.5911883036645
 20
325.3381606117407
 30
0.0
 40
1.189999999995825
100
AcDbArc
 50
307.5189678667997
 51
90.0
  0
LINE
  5
FC4
330
2
100
AcDbEntity
  8
0
100
AcDbLine
 10
575.3159269072623
 20
324.3943100110385
 30
0.0
 11
576.1852695421942
 21
323.0281606117485
 31
0.0
  0
LINE
  5
FC5
330
2
100
AcDbEntity
  8
0
100
AcDbLine
 10
574.9252689991183
 20
323.0281606117485
 30
0.0
 11
576.1852695421942
 21
323.0281606117485
 31
0.0
  0
LINE
  5
FC6
330
2
100
AcDbEntity
  8
0
100
AcDbLine
 10
572.351220136172
 20
323.0281606117485
 30
0.0
 11
573.4011883036685
 21
323.0281606117485
 31
0.0
  0
LINE
  5
FC7
330
2
100
AcDbEntity
  8
0
100
AcDbLine
 10
571.4587206792559
 20
323.5531606117468
 30
0.0
 11
571.196220679257
 21
323.0281606117485
 31
0.0
  0
LINE
  5
FC8
330
2
100
AcDbEntity
  8
0
100
AcDbLine
 10
571.4587206792559
 20
323.5531606117468
 30
0.0
 11
572.351220136172
 21
323.5531606117468
 31
0.0
  0
LINE
  5
FC9
330
2
100
AcDbEntity
  8
0
100
AcDbLine
 10
572.351220136172
 20
323.5531606117468
 30
0.0
 11
572.351220136172
 21
323.0281606117485
 31
0.0
  0
LINE
  5
FCA
330
2
100
AcDbEntity
  8
0
100
AcDbLine
 10
572.0187206792545
 20
324.6731606117426
 30
0.0
 11
572.351220136172
 21
324.6731606117426
 31
0.0
  0
LINE
  5
FCB
330
2
100
AcDbEntity
  8
0
100
AcDbLine
 10
572.351220136172
 20
325.3381595255785
 30
0.0
 11
572.351220136172
 21
324.6731606117426
 31
0.0
  0
LINE
  5
FCC
330
2
100
AcDbEntity
  8
0
100
AcDbLine
 10
572.351220136172
 20
325.3381595255785
 30
0.0
 11
572.0187206792545
 21
324.6731606117426
 31
0.0
  0
LINE
  5
FCD
330
2
100
AcDbEntity
  8
0
100
AcDbLine
 10
573.5499701361679
 20
325.1894106117409
 30
0.0
 11
574.9252689991183
 21
323.0281606117485
 31
0.0
  0
LINE
  5
FCE
330
2
100
AcDbEntity
  8
0
100
AcDbLine
 10
573.4011883036685
 20
325.3381606117407
 30
0.0
 11
573.4011883036685
 21
323.0281606117485
 31
0.0
  0
LINE
  5
FCF
330
2
100
AcDbEntity
  8
0
100
AcDbLine
 10
573.4011883036685
 20
325.3381606117407
 30
0.0
 11
574.5168451361644
 21
325.3381606117407
 31
0.0
  0
LINE
  5
FD0
330
2
100
AcDbEntity
  8
0
100
AcDbLine
 10
573.5499701361679
 20
325.1894106117409
 30
0.0
 11
574.5168451361644
 21
325.1894106117409
 31
0.0
  0
ARC
  5
FD1
330
2
100
AcDbEntity
  8
0
100
AcDbCircle
 10
574.5168451361644
 20
325.2637856117406
 30
0.0
 40
0.0743749999997391
100
AcDbArc
 50
270.0
 51
90.0
  0
LINE
  5
FD2
330
2
100
AcDbEntity
  8
0
100
AcDbLine
 10
571.6862201361748
 20
326.5281606117362
 30
0.0
 11
574.5911883036645
 21
326.5281606117362
 31
0.0
  0
LINE
  5
FD3
330
2
100
AcDbEntity
  8
0
100
AcDbLine
 10
538.1387042206963
 20
589.0985545154783
 30
0.0
 11
538.1387042206963
 21
584.0985545154783
 31
0.0
  0
LINE
  5
FD4
330
2
100
AcDbEntity
  8
0
100
AcDbLine
 10
608.1387042206963
 20
589.0985545154783
 30
0.0
 11
608.1387042206963
 21
584.0985545154783
 31
0.0
  0
LINE
  5
FD5
330
2
100
AcDbEntity
  8
0
100
AcDbLine
 10
114.4177387315896
 20
315.7012869893486
 30
0.0
 11
104.4177387315878
 21
315.7012869893486
 31
0.0
  0
ARC
  5
FD6
330
2
100
AcDbEntity
  8
0
100
AcDbCircle
 10
114.4177387315896
 20
317.7012869893486
 30
0.0
 40
2.0
100
AcDbArc
 50
270.0
 51
0.0
  0
LINE
  5
FD7
330
2
100
AcDbEntity
  8
0
100
AcDbLine
 10
104.4177387315878
 20
398.7012869893486
 30
0.0
 11
114.4177387315878
 21
398.7012869893486
 31
0.0
  0
ARC
  5
FD8
330
2
100
AcDbEntity
  8
0
100
AcDbCircle
 10
114.4177387315878
 20
396.7012869893486
 30
0.0
 40
2.0
100
AcDbArc
 50
0.0
 51
90.0
  0
LINE
  5
FD9
330
2
100
AcDbEntity
  8
0
100
AcDbLine
 10
648.1387042206963
 20
398.7012869893486
 30
0.0
 11
658.1387042206963
 21
398.7012869893486
 31
0.0
  0
ARC
  5
FDA
330
2
100
AcDbEntity
  8
0
100
AcDbCircle
 10
648.1387042206963
 20
396.7012869893486
 30
0.0
 40
2.0
100
AcDbArc
 50
90.0
 51
180.0
  0
LINE
  5
FDB
330
2
100
AcDbEntity
  8
0
100
AcDbLine
 10
658.1387042206963
 20
315.7012869893486
 30
0.0
 11
648.138704220699
 21
315.7012869893486
 31
0.0
  0
ARC
  5
FDC
330
2
100
AcDbEntity
  8
0
100
AcDbCircle
 10
648.138704220699
 20
317.7012869893486
 30
0.0
 40
2.0
100
AcDbArc
 50
180.0
 51
270.0
  0
LINE
  5
FDD
330
2
100
AcDbEntity
  8
CENTER
100
AcDbLine
 10
573.1387042207036
 20
416.2012869893485
 30
0.0
 11
573.1387042207036
 21
298.2012869893495
 31
0.0
  0
LINE
  5
FDE
330
2
100
AcDbEntity
  8
CENTER
100
AcDbLine
 10
514.138704220699
 20
357.2012869893449
 30
0.0
 11
723.1387042163253
 21
357.2012869893451
 31
0.0
  0
LINE
  5
FDF
330
2
100
AcDbEntity
  8
CENTER
100
AcDbLine
 10
232.6677387315878
 20
391.701286989349
 30
0.0
 11
215.1677387315878
 21
391.701286989349
 31
0.0
  0
LINE
  5
FE0
330
2
100
AcDbEntity
  8
CENTER
100
AcDbLine
 10
223.9177387315878
 20
400.451286989349
 30
0.0
 11
223.9177387315878
 21
382.951286989349
 31
0.0
  0
LINE
  5
FE1
330
2
100
AcDbEntity
  8
CENTER
100
AcDbLine
 10
146.1677387315878
 20
391.701286989349
 30
0.0
 11
163.6677387315878
 21
391.701286989349
 31
0.0
  0
LINE
  5
FE2
330
2
100
AcDbEntity
  8
CENTER
100
AcDbLine
 10
148.2445336508337
 20
383.701286989349
 30
0.0
 11
158.5909438123483
 21
383.701286989349
 31
0.0
  0
CIRCLE
  5
FE3
330
2
100
AcDbEntity
  8
HOJO
100
AcDbCircle
 10
153.4177387315905
 20
383.701286989349
 30
0.0
 40
2.0
  0
LINE
  5
FE4
330
2
100
AcDbEntity
  8
CENTER
100
AcDbLine
 10
153.4177387315905
 20
388.8744920701063
 30
0.0
 11
153.4177387315905
 21
378.5280819085922
 31
0.0
  0
LINE
  5
FE5
330
2
100
AcDbEntity
  8
CENTER
100
AcDbLine
 10
232.6677387315878
 20
322.701286989349
 30
0.0
 11
215.1677387315878
 21
322.701286989349
 31
0.0
  0
LINE
  5
FE6
330
2
100
AcDbEntity
  8
CENTER
100
AcDbLine
 10
225.4177387315851
 20
325.5280819085922
 30
0.0
 11
225.4177387315851
 21
335.8744920701063
 31
0.0
  0
LINE
  5
FE7
330
2
100
AcDbEntity
  8
CENTER
100
AcDbLine
 10
230.5909438123428
 20
330.701286989349
 30
0.0
 11
220.2445336508283
 21
330.701286989349
 31
0.0
  0
CIRCLE
  5
FE8
330
2
100
AcDbEntity
  8
HOJO
100
AcDbCircle
 10
225.4177387315851
 20
330.701286989349
 30
0.0
 40
2.0
  0
LINE
  5
FE9
330
2
100
AcDbEntity
  8
CENTER
100
AcDbLine
 10
146.1677387315878
 20
322.7012869893495
 30
0.0
 11
163.6677387315878
 21
322.7012869893495
 31
0.0
  0
ARC
  5
FEA
330
2
100
AcDbEntity
  8
0
100
AcDbCircle
 10
160.9177387315905
 20
374.6632277664778
 30
0.0
 40
5.0
100
AcDbArc
 50
135.0000000000089
 51
180.0
  0
ARC
  5
FEB
330
2
100
AcDbEntity
  8
0
100
AcDbCircle
 10
217.9177387315851
 20
374.6632277664778
 30
0.0
 40
5.0
100
AcDbArc
 50
0.0
 51
44.99999999999107
  0
CIRCLE
  5
FEC
330
2
100
AcDbEntity
  8
0
100
AcDbCircle
 10
189.4177387315878
 20
357.201286989349
 30
0.0
 40
23.0
  0
LINE
  5
FED
330
2
100
AcDbEntity
  8
0
100
AcDbLine
 10
148.8277387315877
 20
321.2012869893495
 30
0.0
 11
148.8277387315877
 21
393.201286989349
 31
0.0
  0
CIRCLE
  5
FEE
330
2
100
AcDbEntity
  8
0
100
AcDbCircle
 10
189.4177387315878
 20
357.201286989349
 30
0.0
 40
29.0
  0
CIRCLE
  5
FEF
330
2
100
AcDbEntity
  8
0
100
AcDbCircle
 10
189.4177387315878
 20
357.201286989349
 30
0.0
 40
26.5
  0
CIRCLE
  5
FF0
330
2
100
AcDbEntity
  8
0
100
AcDbCircle
 10
189.4177387315878
 20
357.201286989349
 30
0.0
 40
28.5
  0
ARC
  5
FF1
330
2
100
AcDbEntity
  8
0
100
AcDbCircle
 10
217.9177387315851
 20
374.6632277664774
 30
0.0
 40
8.5
100
AcDbArc
 50
0.0
 51
44.99999999999107
  0
ARC
  5
FF2
330
2
100
AcDbEntity
  8
0
100
AcDbCircle
 10
160.9177387315905
 20
374.6632277664778
 30
0.0
 40
8.5
100
AcDbArc
 50
135.0000000000089
 51
180.0
  0
CIRCLE
  5
FF3
330
2
100
AcDbEntity
  8
0
100
AcDbCircle
 10
189.4177387315878
 20
357.201286989349
 30
0.0
 40
23.5774
  0
CIRCLE
  5
FF4
330
2
100
AcDbEntity
  8
0
100
AcDbCircle
 10
189.4177387315878
 20
357.201286989349
 30
0.0
 40
25.9226
  0
LINE
  5
FF5
330
2
100
AcDbEntity
  8
0
100
AcDbLine
 10
206.8796795087166
 20
394.2012869893463
 30
0.0
 11
171.9557979544599
 21
394.2012869893463
 31
0.0
  0
LINE
  5
FF6
330
2
100
AcDbEntity
  8
0
100
AcDbLine
 10
206.8796795087166
 20
390.7012869893463
 30
0.0
 11
171.9557979544599
 21
390.7012869893463
 31
0.0
  0
LINE
  5
FF7
330
2
100
AcDbEntity
  8
0
100
AcDbLine
 10
225.7707147579306
 20
377.9160369415806
 30
0.0
 11
222.5371363941424
 21
376.576644928303
 31
0.0
  0
ARC
  5
FF8
330
2
100
AcDbEntity
  8
0
100
AcDbCircle
 10
206.8796795087166
 20
385.7012869893463
 30
0.0
 40
8.5
100
AcDbArc
 50
44.99999999999107
 51
90.0
  0
LINE
  5
FF9
330
2
100
AcDbEntity
  8
0
100
AcDbLine
 10
210.1324886838203
 20
393.5542630156922
 30
0.0
 11
208.7930966705418
 21
390.3206846519026
 31
0.0
  0
LINE
  5
FFA
330
2
100
AcDbEntity
  8
0
100
AcDbLine
 10
223.9281463716709
 20
380.6736354065631
 30
0.0
 11
212.8900871488024
 21
391.7116946294321
 31
0.0
  0
LINE
  5
FFB
330
2
100
AcDbEntity
  8
0
100
AcDbLine
 10
221.4532726375175
 20
378.1987616724102
 30
0.0
 11
210.415213414649
 21
389.2368208952792
 31
0.0
  0
ARC
  5
FFC
330
2
100
AcDbEntity
  8
0
100
AcDbCircle
 10
206.8796795087166
 20
385.7012869893463
 30
0.0
 40
5.0
100
AcDbArc
 50
44.99999999999107
 51
90.0
  0
LINE
  5
FFD
330
2
100
AcDbEntity
  8
0
100
AcDbLine
 10
153.0647627052451
 20
377.9160369415811
 30
0.0
 11
156.2983410690342
 21
376.576644928303
 31
0.0
  0
LINE
  5
FFE
330
2
100
AcDbEntity
  8
0
100
AcDbLine
 10
156.4177387315878
 20
398.201286989349
 30
0.0
 11
153.8277387315877
 21
398.201286989349
 31
0.0
  0
LINE
  5
FFF
330
2
100
AcDbEntity
  8
0
100
AcDbLine
 10
154.9073310915048
 20
380.6736354065636
 30
0.0
 11
165.9453903143742
 21
391.7116946294321
 31
0.0
  0
ARC
  5
1000
330
2
100
AcDbEntity
  8
0
100
AcDbCircle
 10
171.9557979544599
 20
385.7012869893463
 30
0.0
 40
8.5
100
AcDbArc
 50
90.0
 51
135.0000000000089
  0
LINE
  5
1001
330
2
100
AcDbEntity
  8
0
100
AcDbLine
 10
168.7029887793562
 20
393.5542630156922
 30
0.0
 11
170.0423807926338
 21
390.3206846519026
 31
0.0
  0
LINE
  5
1002
330
2
100
AcDbEntity
  8
0
100
AcDbLine
 10
157.3822048256581
 20
378.1987616724102
 30
0.0
 11
168.4202640485266
 21
389.2368208952792
 31
0.0
  0
ARC
  5
1003
330
2
100
AcDbEntity
  8
0
100
AcDbCircle
 10
171.9557979544599
 20
385.7012869893463
 30
0.0
 40
5.0
100
AcDbArc
 50
90.0
 51
135.0000000000089
  0
ARC
  5
1004
330
2
100
AcDbEntity
  8
0
100
AcDbCircle
 10
153.8277387315877
 20
393.201286989349
 30
0.0
 40
5.0
100
AcDbArc
 50
90.0
 51
180.0
  0
CIRCLE
  5
1005
330
2
100
AcDbEntity
  8
0
100
AcDbCircle
 10
153.4177387315905
 20
383.701286989349
 30
0.0
 40
1.6
  0
LINE
  5
1006
330
2
100
AcDbEntity
  8
0
100
AcDbLine
 10
171.9557979544599
 20
320.2012869893517
 30
0.0
 11
206.8796795087166
 21
320.2012869893517
 31
0.0
  0
LINE
  5
1007
330
2
100
AcDbEntity
  8
0
100
AcDbLine
 10
171.9557979544599
 20
323.7012869893518
 30
0.0
 11
206.8796795087166
 21
323.7012869893518
 31
0.0
  0
LINE
  5
1008
330
2
100
AcDbEntity
  8
0
100
AcDbLine
 10
226.4177387315851
 20
339.7393462122207
 30
0.0
 11
226.4177387315851
 21
374.6632277664774
 31
0.0
  0
LINE
  5
1009
330
2
100
AcDbEntity
  8
0
100
AcDbLine
 10
222.9177387315851
 20
339.7393462122207
 30
0.0
 11
222.9177387315851
 21
374.6632277664778
 31
0.0
  0
CIRCLE
  5
100A
330
2
100
AcDbEntity
  8
0
100
AcDbCircle
 10
225.4177387315851
 20
330.701286989349
 30
0.0
 40
1.6
  0
ARC
  5
100B
330
2
100
AcDbEntity
  8
0
100
AcDbCircle
 10
217.9177387315851
 20
339.7393462122207
 30
0.0
 40
8.5
100
AcDbArc
 50
315.0000000000089
 51
0.0
  0
LINE
  5
100C
330
2
100
AcDbEntity
  8
0
100
AcDbLine
 10
225.7707147579306
 20
336.4865370371174
 30
0.0
 11
222.5371363941415
 21
337.825929050395
 31
0.0
  0
LINE
  5
100D
330
2
100
AcDbEntity
  8
0
100
AcDbLine
 10
223.9281463716709
 20
333.7289385721349
 30
0.0
 11
212.8900871488024
 21
322.6908793492664
 31
0.0
  0
LINE
  5
100E
330
2
100
AcDbEntity
  8
0
100
AcDbLine
 10
221.4532726375175
 20
336.2038123062878
 30
0.0
 11
210.415213414649
 21
325.1657530834189
 31
0.0
  0
ARC
  5
100F
330
2
100
AcDbEntity
  8
0
100
AcDbCircle
 10
217.9177387315851
 20
339.7393462122207
 30
0.0
 40
5.0
100
AcDbArc
 50
315.0000000000089
 51
0.0
  0
ARC
  5
1010
330
2
100
AcDbEntity
  8
0
100
AcDbCircle
 10
206.8796795087166
 20
328.7012869893517
 30
0.0
 40
5.0
100
AcDbArc
 50
270.0
 51
315.0000000000089
  0
ARC
  5
1011
330
2
100
AcDbEntity
  8
0
100
AcDbCircle
 10
206.8796795087166
 20
328.7012869893517
 30
0.0
 40
8.5
100
AcDbArc
 50
270.0
 51
315.0000000000089
  0
LINE
  5
1012
330
2
100
AcDbEntity
  8
0
100
AcDbLine
 10
210.1324886838203
 20
320.8483109630059
 30
0.0
 11
208.7930966705418
 21
324.0818893267954
 31
0.0
  0
LINE
  5
1013
330
2
100
AcDbEntity
  8
0
100
AcDbLine
 10
156.4177387315878
 20
316.2012869893495
 30
0.0
 11
153.8277387315877
 21
316.2012869893495
 31
0.0
  0
LINE
  5
1014
330
2
100
AcDbEntity
  8
0
100
AcDbLine
 10
153.0647627052451
 20
336.4865370371174
 30
0.0
 11
156.2983410690342
 21
337.8259290503955
 31
0.0
  0
LINE
  5
1015
330
2
100
AcDbEntity
  8
0
100
AcDbLine
 10
154.9073310915048
 20
333.7289385721354
 30
0.0
 11
165.9453903143742
 21
322.690879349266
 31
0.0
  0
LINE
  5
1016
330
2
100
AcDbEntity
  8
0
100
AcDbLine
 10
155.9177387315905
 20
374.6632277664778
 30
0.0
 11
155.9177387315905
 21
339.7393462122207
 31
0.0
  0
LINE
  5
1017
330
2
100
AcDbEntity
  8
0
100
AcDbLine
 10
157.3822048256581
 20
336.2038123062883
 30
0.0
 11
168.4202640485266
 21
325.1657530834193
 31
0.0
  0
ARC
  5
1018
330
2
100
AcDbEntity
  8
0
100
AcDbCircle
 10
160.9177387315905
 20
339.7393462122207
 30
0.0
 40
5.0
100
AcDbArc
 50
180.0
 51
224.9999999999911
  0
ARC
  5
1019
330
2
100
AcDbEntity
  8
0
100
AcDbCircle
 10
171.9557979544599
 20
328.7012869893517
 30
0.0
 40
8.5
100
AcDbArc
 50
224.9999999999911
 51
270.0
  0
ARC
  5
101A
330
2
100
AcDbEntity
  8
0
100
AcDbCircle
 10
171.9557979544599
 20
328.7012869893517
 30
0.0
 40
5.0
100
AcDbArc
 50
224.9999999999911
 51
270.0
  0
LINE
  5
101B
330
2
100
AcDbEntity
  8
0
100
AcDbLine
 10
168.7029887793562
 20
320.8483109630059
 30
0.0
 11
170.0423807926338
 21
324.0818893267954
 31
0.0
  0
LINE
  5
101C
330
2
100
AcDbEntity
  8
0
100
AcDbLine
 10
152.4177387315905
 20
374.6632277664778
 30
0.0
 11
152.4177387315905
 21
339.7393462122207
 31
0.0
  0
ARC
  5
101D
330
2
100
AcDbEntity
  8
0
100
AcDbCircle
 10
160.9177387315905
 20
339.7393462122207
 30
0.0
 40
8.5
100
AcDbArc
 50
180.0
 51
224.9999999999911
  0
ARC
  5
101E
330
2
100
AcDbEntity
  8
0
100
AcDbCircle
 10
153.8277387315877
 20
321.2012869893495
 30
0.0
 40
5.0
100
AcDbArc
 50
180.0
 51
270.0
  0
LINE
  5
101F
330
2
100
AcDbEntity
  8
CENTER
100
AcDbLine
 10
233.903020105826
 20
401.6865683635872
 30
0.0
 11
144.9324573573487
 21
312.7160056151099
 31
0.0
  0
LINE
  5
1020
330
2
100
AcDbEntity
  8
CENTER
100
AcDbLine
 10
154.9177387315878
 20
318.5170442451824
 30
0.0
 11
154.9177387315878
 21
331.451286989349
 31
0.0
  0
LINE
  5
1021
330
2
100
AcDbEntity
  8
CENTER
100
AcDbLine
 10
154.9177387315878
 20
400.451286989349
 30
0.0
 11
154.9177387315878
 21
382.951286989349
 31
0.0
  0
LINE
  5
1022
330
2
100
AcDbEntity
  8
CENTER
100
AcDbLine
 10
154.9177387315878
 20
317.4919914544683
 30
0.0
 11
154.9177387315878
 21
314.0953293120913
 31
0.0
  0
LINE
  5
1023
330
2
100
AcDbEntity
  8
CENTER
100
AcDbLine
 10
223.9177387315878
 20
317.4919914544683
 30
0.0
 11
223.9177387315878
 21
314.0953293120913
 31
0.0
  0
LINE
  5
1024
330
2
100
AcDbEntity
  8
CENTER
100
AcDbLine
 10
223.9177387315878
 20
318.5170442451824
 30
0.0
 11
223.9177387315878
 21
331.451286989349
 31
0.0
  0
LINE
  5
1025
330
2
100
AcDbEntity
  8
CENTER
100
AcDbLine
 10
144.9324573573496
 20
401.6865683635872
 30
0.0
 11
233.903020105826
 21
312.7160056151099
 31
0.0
  0
CIRCLE
  5
1026
330
2
100
AcDbEntity
  8
0
100
AcDbCircle
 10
223.9177387315878
 20
391.701286989349
 30
0.0
 40
5.000000000000113
  0
LINE
  5
1027
330
2
100
AcDbEntity
  8
0
100
AcDbLine
 10
226.4177387315878
 20
390.257911316375
 30
0.0
 11
226.4177387315878
 21
393.1446626623231
 31
0.0
  0
LINE
  5
1028
330
2
100
AcDbEntity
  8
0
100
AcDbLine
 10
221.4177387315878
 20
390.257911316375
 30
0.0
 11
221.4177387315878
 21
393.1446626623231
 31
0.0
  0
CIRCLE
  5
1029
330
2
100
AcDbEntity
  8
0
100
AcDbCircle
 10
223.9177387315878
 20
391.701286989349
 30
0.0
 40
4.307179676972509
  0
LINE
  5
102A
330
2
100
AcDbEntity
  8
0
100
AcDbLine
 10
221.4177387315878
 20
390.257911316375
 30
0.0
 11
223.9177387315878
 21
388.8145356434009
 31
0.0
  0
LINE
  5
102B
330
2
100
AcDbEntity
  8
0
100
AcDbLine
 10
226.4177387315878
 20
390.257911316375
 30
0.0
 11
223.9177387315878
 21
388.8145356434009
 31
0.0
  0
LINE
  5
102C
330
2
100
AcDbEntity
  8
0
100
AcDbLine
 10
223.9177387315878
 20
394.5880383352971
 30
0.0
 11
221.4177387315878
 21
393.1446626623231
 31
0.0
  0
LINE
  5
102D
330
2
100
AcDbEntity
  8
0
100
AcDbLine
 10
223.9177387315878
 20
394.5880383352971
 30
0.0
 11
226.4177387315878
 21
393.1446626623231
 31
0.0
  0
CIRCLE
  5
102E
330
2
100
AcDbEntity
  8
0
100
AcDbCircle
 10
223.9177387315878
 20
322.701286989349
 30
0.0
 40
5.000000000000113
  0
LINE
  5
102F
330
2
100
AcDbEntity
  8
0
100
AcDbLine
 10
226.4177387315878
 20
321.2579113163749
 30
0.0
 11
226.4177387315878
 21
324.1446626623231
 31
0.0
  0
LINE
  5
1030
330
2
100
AcDbEntity
  8
0
100
AcDbLine
 10
221.4177387315878
 20
321.2579113163749
 30
0.0
 11
221.4177387315878
 21
324.1446626623231
 31
0.0
  0
CIRCLE
  5
1031
330
2
100
AcDbEntity
  8
0
100
AcDbCircle
 10
223.9177387315878
 20
322.701286989349
 30
0.0
 40
4.307179676972509
  0
LINE
  5
1032
330
2
100
AcDbEntity
  8
0
100
AcDbLine
 10
221.4177387315878
 20
321.2579113163749
 30
0.0
 11
223.9177387315878
 21
319.8145356434009
 31
0.0
  0
LINE
  5
1033
330
2
100
AcDbEntity
  8
0
100
AcDbLine
 10
226.4177387315878
 20
321.2579113163749
 30
0.0
 11
223.9177387315878
 21
319.8145356434009
 31
0.0
  0
LINE
  5
1034
330
2
100
AcDbEntity
  8
0
100
AcDbLine
 10
223.9177387315878
 20
325.5880383352971
 30
0.0
 11
221.4177387315878
 21
324.1446626623231
 31
0.0
  0
LINE
  5
1035
330
2
100
AcDbEntity
  8
0
100
AcDbLine
 10
223.9177387315878
 20
325.5880383352971
 30
0.0
 11
226.4177387315878
 21
324.1446626623231
 31
0.0
  0
CIRCLE
  5
1036
330
2
100
AcDbEntity
  8
0
100
AcDbCircle
 10
154.9177387315878
 20
322.7012869893495
 30
0.0
 40
5.000000000000113
  0
LINE
  5
1037
330
2
100
AcDbEntity
  8
0
100
AcDbLine
 10
157.4177387315878
 20
321.2579113163754
 30
0.0
 11
157.4177387315878
 21
324.1446626623231
 31
0.0
  0
LINE
  5
1038
330
2
100
AcDbEntity
  8
0
100
AcDbLine
 10
152.4177387315887
 20
321.2579113163754
 30
0.0
 11
152.4177387315887
 21
324.1446626623235
 31
0.0
  0
CIRCLE
  5
1039
330
2
100
AcDbEntity
  8
0
100
AcDbCircle
 10
154.9177387315878
 20
322.7012869893495
 30
0.0
 40
4.307179676972509
  0
LINE
  5
103A
330
2
100
AcDbEntity
  8
0
100
AcDbLine
 10
152.4177387315887
 20
321.2579113163754
 30
0.0
 11
154.9177387315887
 21
319.8145356434013
 31
0.0
  0
LINE
  5
103B
330
2
100
AcDbEntity
  8
0
100
AcDbLine
 10
157.4177387315878
 20
321.2579113163754
 30
0.0
 11
154.9177387315887
 21
319.8145356434013
 31
0.0
  0
LINE
  5
103C
330
2
100
AcDbEntity
  8
0
100
AcDbLine
 10
154.9177387315878
 20
325.5880383352976
 30
0.0
 11
152.4177387315887
 21
324.1446626623235
 31
0.0
  0
LINE
  5
103D
330
2
100
AcDbEntity
  8
0
100
AcDbLine
 10
154.9177387315878
 20
325.5880383352976
 30
0.0
 11
157.4177387315878
 21
324.1446626623231
 31
0.0
  0
CIRCLE
  5
103E
330
2
100
AcDbEntity
  8
0
100
AcDbCircle
 10
154.9177387315878
 20
391.701286989349
 30
0.0
 40
5.000000000000113
  0
LINE
  5
103F
330
2
100
AcDbEntity
  8
0
100
AcDbLine
 10
157.4177387315878
 20
390.257911316375
 30
0.0
 11
157.4177387315878
 21
393.1446626623231
 31
0.0
  0
LINE
  5
1040
330
2
100
AcDbEntity
  8
0
100
AcDbLine
 10
152.4177387315878
 20
390.257911316375
 30
0.0
 11
152.4177387315878
 21
393.1446626623231
 31
0.0
  0
CIRCLE
  5
1041
330
2
100
AcDbEntity
  8
0
100
AcDbCircle
 10
154.9177387315878
 20
391.701286989349
 30
0.0
 40
4.307179676972509
  0
LINE
  5
1042
330
2
100
AcDbEntity
  8
0
100
AcDbLine
 10
152.4177387315878
 20
390.257911316375
 30
0.0
 11
154.9177387315878
 21
388.8145356434009
 31
0.0
  0
LINE
  5
1043
330
2
100
AcDbEntity
  8
0
100
AcDbLine
 10
157.4177387315878
 20
390.257911316375
 30
0.0
 11
154.9177387315878
 21
388.8145356434009
 31
0.0
  0
LINE
  5
1044
330
2
100
AcDbEntity
  8
0
100
AcDbLine
 10
154.9177387315878
 20
394.5880383352971
 30
0.0
 11
152.4177387315878
 21
393.1446626623231
 31
0.0
  0
LINE
  5
1045
330
2
100
AcDbEntity
  8
0
100
AcDbLine
 10
154.9177387315878
 20
394.5880383352971
 30
0.0
 11
157.4177387315878
 21
393.1446626623231
 31
0.0
  0
LINE
  5
1046
330
2
100
AcDbEntity
  8
0
100
AcDbLine
 10
394.1656313590085
 20
316.7859871312969
 30
0.0
 11
394.1656313590103
 21
397.6165868473611
 31
0.0
  0
LINE
  5
1047
330
2
100
AcDbEntity
  8
0
100
AcDbLine
 10
399.1656313590076
 20
322.2012869893354
 30
0.0
 11
399.1656313590076
 21
392.2012869893354
 31
0.0
  0
LINE
  5
1048
330
2
100
AcDbEntity
  8
0
100
AcDbLine
 10
401.0958323656025
 20
328.8147210903674
 30
0.0
 11
410.2354303524118
 21
329.1338828849114
 31
0.0
  0
ARC
  5
1049
330
2
100
AcDbEntity
  8
0
100
AcDbCircle
 10
401.1656313590076
 20
326.8159394363295
 30
0.0
 40
2.0
100
AcDbArc
 50
92.00000000000365
 51
180.0
  0
LINE
  5
104A
330
2
100
AcDbEntity
  8
0
100
AcDbLine
 10
412.1656313590058
 20
331.1326645389502
 30
0.0
 11
412.1656313590076
 21
383.2699094397206
 31
0.0
  0
ARC
  5
104B
330
2
100
AcDbEntity
  8
0
100
AcDbCircle
 10
410.1656313590076
 20
331.1326645389502
 30
0.0
 40
2.0
100
AcDbArc
 50
272.0000000000036
 51
0.0
  0
ARC
  5
104C
330
2
100
AcDbEntity
  8
0
100
AcDbCircle
 10
410.1656313590076
 20
383.2699094397206
 30
0.0
 40
2.0
100
AcDbArc
 50
0.0
 51
87.99999999999636
  0
LINE
  5
104D
330
2
100
AcDbEntity
  8
0
100
AcDbLine
 10
401.0958323656025
 20
385.5878528883043
 30
0.0
 11
410.2354303524127
 21
385.2686910937594
 31
0.0
  0
ARC
  5
104E
330
2
100
AcDbEntity
  8
0
100
AcDbCircle
 10
401.1656313590076
 20
387.5866345423431
 30
0.0
 40
2.0
100
AcDbArc
 50
180.0
 51
267.9999999999963
  0
LINE
  5
104F
330
2
100
AcDbEntity
  8
0
100
AcDbLine
 10
310.1656313590058
 20
321.1406831682346
 30
0.0
 11
310.1656313590058
 21
330.7012869893295
 31
0.0
  0
LINE
  5
1050
330
2
100
AcDbEntity
  8
0
100
AcDbLine
 10
310.1656313590058
 20
383.7012869893308
 30
0.0
 11
310.1656313590058
 21
393.2618908103944
 31
0.0
  0
LINE
  5
1051
330
2
100
AcDbEntity
  8
0
100
AcDbLine
 10
315.1046602829212
 20
398.2615190493618
 30
0.0
 11
351.1656313590058
 21
398.7012869893145
 31
0.0
  0
LINE
  5
1052
330
2
100
AcDbEntity
  8
0
100
AcDbLine
 10
387.2266024350913
 20
398.26151904936
 30
0.0
 11
351.1656313590067
 21
398.7012869893145
 31
0.0
  0
LINE
  5
1053
330
2
100
AcDbEntity
  8
0
100
AcDbLine
 10
387.2266024350913
 20
316.1410549292689
 30
0.0
 11
351.1656313590067
 21
315.7012869893154
 31
0.0
  0
ARC
  5
1054
330
2
100
AcDbEntity
  8
0
100
AcDbCircle
 10
315.1656313590058
 20
321.1406831682346
 30
0.0
 40
5.0
100
AcDbArc
 50
180.0
 51
269.3013056170002
  0
ARC
  5
1055
330
2
100
AcDbEntity
  8
0
100
AcDbCircle
 10
387.1656313590058
 20
321.1406831682364
 30
0.0
 40
5.0
100
AcDbArc
 50
270.6986943829997
 51
298.4785614955852
  0
ARC
  5
1056
330
2
100
AcDbEntity
  8
0
100
AcDbCircle
 10
387.1656313590058
 20
393.2618908103926
 30
0.0
 40
5.0
100
AcDbArc
 50
61.52143850500972
 51
89.30130561700025
  0
ARC
  5
1057
330
2
100
AcDbEntity
  8
0
100
AcDbCircle
 10
315.1656313590058
 20
393.2618908103944
 30
0.0
 40
5.0
100
AcDbArc
 50
90.69869438299972
 51
180.0
  0
LINE
  5
1058
330
2
100
AcDbEntity
  8
0
100
AcDbLine
 10
315.1046602829212
 20
316.1410549292671
 30
0.0
 11
351.1656313590058
 21
315.7012869893154
 31
0.0
  0
LINE
  5
1059
330
2
100
AcDbEntity
  8
0
100
AcDbLine
 10
327.665631359004
 20
398.196923555389
 30
0.0
 11
394.1656313590103
 21
397.6165868473611
 31
0.0
  0
LINE
  5
105A
330
2
100
AcDbEntity
  8
0
100
AcDbLine
 10
327.665631359004
 20
316.2056504232139
 30
0.0
 11
394.1656313590085
 21
316.7859871312969
 31
0.0
  0
LINE
  5
105B
330
2
100
AcDbEntity
  8
0
100
AcDbLine
 10
327.665631359004
 20
316.2056504232139
 30
0.0
 11
327.665631359004
 21
398.196923555389
 31
0.0
  0
LINE
  5
105C
330
2
100
AcDbEntity
  8
0
100
AcDbLine
 10
394.1656313590076
 20
322.2012869893354
 30
0.0
 11
399.1656313590076
 21
322.2012869893354
 31
0.0
  0
LINE
  5
105D
330
2
100
AcDbEntity
  8
0
100
AcDbLine
 10
394.1656313590076
 20
392.2012869893354
 30
0.0
 11
399.1656313590076
 21
392.2012869893354
 31
0.0
  0
LINE
  5
105E
330
2
100
AcDbEntity
  8
CENTER
100
AcDbLine
 10
351.1656313590003
 20
408.7012869893149
 30
0.0
 11
351.1656313590003
 21
305.7012869893154
 31
0.0
  0
LINE
  5
105F
330
2
100
AcDbEntity
  8
CENTER
100
AcDbLine
 10
280.1656313590062
 20
357.2012869893304
 30
0.0
 11
435.1656313590067
 21
357.2012869893304
 31
0.0
  0
LINE
  5
1060
330
2
100
AcDbEntity
  8
0
100
AcDbLine
 10
316.665631359004
 20
386.701286989349
 30
0.0
 11
316.665631359004
 21
327.7012869893117
 31
0.0
  0
LINE
  5
1061
330
2
100
AcDbEntity
  8
0
100
AcDbLine
 10
309.1656313590094
 20
330.7012869893295
 30
0.0
 11
310.4656313590087
 21
330.7012869893295
 31
0.0
  0
LINE
  5
1062
330
2
100
AcDbEntity
  8
0
100
AcDbLine
 10
312.6656313590094
 20
330.9012869893302
 30
0.0
 11
312.8656313590092
 21
330.7012869893299
 31
0.0
  0
LINE
  5
1063
330
2
100
AcDbEntity
  8
0
100
AcDbLine
 10
310.8656313590092
 20
331.4012869893293
 30
0.0
 11
312.4656313590087
 21
331.4012869893302
 31
0.0
  0
LINE
  5
1064
330
2
100
AcDbEntity
  8
0
100
AcDbLine
 10
309.1656313590094
 20
330.7012869893295
 30
0.0
 11
308.1656313590094
 21
331.278637258519
 31
0.0
  0
LINE
  5
1065
330
2
100
AcDbEntity
  8
0
100
AcDbLine
 10
316.1656313590049
 20
328.7012869893358
 30
0.0
 11
316.6656313590094
 21
328.2012869893303
 31
0.0
  0
LINE
  5
1066
330
2
100
AcDbEntity
  8
0
100
AcDbLine
 10
312.8656313590092
 20
330.7012869893299
 30
0.0
 11
316.1656313590094
 21
330.7012869893304
 31
0.0
  0
LINE
  5
1067
330
2
100
AcDbEntity
  8
0
100
AcDbLine
 10
308.165631359004
 20
383.1239367201395
 30
0.0
 11
308.165631359004
 21
331.2786372585217
 31
0.0
  0
LINE
  5
1068
330
2
100
AcDbEntity
  8
HIDS
  6
SEKKEI_H
100
AcDbLine
 10
319.5798449213791
 20
393.6155005517028
 30
0.0
 11
317.2514177966315
 21
391.287073426958
 31
0.0
  0
LINE
  5
1069
330
2
100
AcDbEntity
  8
0
100
AcDbLine
 10
320.1656313590067
 20
317.2012869893304
 30
0.0
 11
320.1656313590067
 21
397.2012869893304
 31
0.0
  0
LINE
  5
106A
330
2
100
AcDbEntity
  8
0
100
AcDbLine
 10
327.6656313590049
 20
398.2012869893304
 30
0.0
 11
321.1656313590067
 21
398.2012869893304
 31
0.0
  0
LINE
  5
106B
330
2
100
AcDbEntity
  8
0
100
AcDbLine
 10
327.665631359004
 20
398.2012869893313
 30
0.0
 11
327.665631359004
 21
316.2012869893304
 31
0.0
  0
LINE
  5
106C
330
2
100
AcDbEntity
  8
0
100
AcDbLine
 10
309.1656313590094
 20
383.7012869893313
 30
0.0
 11
308.1656313590094
 21
383.1239367201413
 31
0.0
  0
LINE
  5
106D
330
2
100
AcDbEntity
  8
0
100
AcDbLine
 10
312.6656313590094
 20
383.5012869893306
 30
0.0
 11
312.6656313590094
 21
330.9012869893302
 31
0.0
  0
LINE
  5
106E
330
2
100
AcDbEntity
  8
0
100
AcDbLine
 10
310.8656313590092
 20
383.001286989331
 30
0.0
 11
312.4656313590087
 21
383.0012869893305
 31
0.0
  0
LINE
  5
106F
330
2
100
AcDbEntity
  8
0
100
AcDbLine
 10
310.6656313590094
 20
383.5012869893315
 30
0.0
 11
310.6656313590885
 21
330.9012869893302
 31
0.0
  0
LINE
  5
1070
330
2
100
AcDbEntity
  8
0
100
AcDbLine
 10
312.6656313590094
 20
383.5012869893306
 30
0.0
 11
312.8656313590092
 21
383.7012869893304
 31
0.0
  0
LINE
  5
1071
330
2
100
AcDbEntity
  8
0
100
AcDbLine
 10
309.1656313590094
 20
383.7012869893313
 30
0.0
 11
310.4656313590087
 21
383.7012869893308
 31
0.0
  0
LINE
  5
1072
330
2
100
AcDbEntity
  8
0
100
AcDbLine
 10
316.1656313590049
 20
328.7012869893358
 30
0.0
 11
316.1656313590039
 21
385.7012869893249
 31
0.0
  0
LINE
  5
1073
330
2
100
AcDbEntity
  8
0
100
AcDbLine
 10
316.1656313590094
 20
385.7012869893304
 30
0.0
 11
316.1656313590094
 21
383.7012869893304
 31
0.0
  0
LINE
  5
1074
330
2
100
AcDbEntity
  8
0
100
AcDbLine
 10
316.1656313590094
 20
385.7012869893304
 30
0.0
 11
316.6656313590094
 21
386.2012869893304
 31
0.0
  0
LINE
  5
1075
330
2
100
AcDbEntity
  8
0
100
AcDbLine
 10
312.8656313590092
 20
383.7012869893304
 30
0.0
 11
316.1656313590094
 21
383.7012869893304
 31
0.0
  0
ARC
  5
1076
330
2
100
AcDbEntity
  8
0
100
AcDbCircle
 10
321.1656313590067
 20
397.2012869893304
 30
0.0
 40
1.0
100
AcDbArc
 50
90.0
 51
179.9999999999869
  0
ARC
  5
1077
330
2
100
AcDbEntity
  8
HIDS
  6
SEKKEI_H
100
AcDbCircle
 10
318.1656313590067
 20
395.0297141140766
 30
0.0
 40
2.0
100
AcDbArc
 50
314.9999999999444
 51
359.9999999999869
  0
ARC
  5
1078
330
2
100
AcDbEntity
  8
HIDS
  6
SEKKEI_H
100
AcDbCircle
 10
318.665631359004
 20
389.8728598645837
 30
0.0
 40
2.0
100
AcDbArc
 50
134.9999999999444
 51
180.0
  0
LINE
  5
1079
330
2
100
AcDbEntity
  8
HIDS
  6
SEKKEI_H
100
AcDbLine
 10
319.5798449213791
 20
320.787073426958
 30
0.0
 11
317.2514177966324
 21
323.1155005517028
 31
0.0
  0
LINE
  5
107A
330
2
100
AcDbEntity
  8
0
100
AcDbLine
 10
327.665631359004
 20
316.2012869893304
 30
0.0
 11
321.1656313590076
 21
316.2012869893304
 31
0.0
  0
ARC
  5
107B
330
2
100
AcDbEntity
  8
0
100
AcDbCircle
 10
321.1656313590076
 20
317.2012869893304
 30
0.0
 40
1.0
100
AcDbArc
 50
180.0
 51
270.0
  0
ARC
  5
107C
330
2
100
AcDbEntity
  8
HIDS
  6
SEKKEI_H
100
AcDbCircle
 10
318.1656313590067
 20
319.3728598645841
 30
0.0
 40
2.0
100
AcDbArc
 50
0.0
 51
45.00000000005555
  0
ARC
  5
107D
330
2
100
AcDbEntity
  8
HIDS
  6
SEKKEI_H
100
AcDbCircle
 10
318.665631359004
 20
324.529714114077
 30
0.0
 40
2.0
100
AcDbArc
 50
180.0
 51
225.0000000000555
  0
ARC
  5
107E
330
2
100
AcDbEntity
  8
0
100
AcDbCircle
 10
310.4656313590087
 20
383.5012869893306
 30
0.0
 40
0.2
100
AcDbArc
 50
0.0000000001302755
 51
90.0
  0
ARC
  5
107F
330
2
100
AcDbEntity
  8
0
100
AcDbCircle
 10
310.8656313590092
 20
383.2012869893313
 30
0.0
 40
0.2
100
AcDbArc
 50
180.0000000001302
 51
270.0
  0
ARC
  5
1080
330
2
100
AcDbEntity
  8
0
100
AcDbCircle
 10
312.4656313590087
 20
383.2012869893304
 30
0.0
 40
0.2
100
AcDbArc
 50
270.0
 51
0.0
  0
ARC
  5
1081
330
2
100
AcDbEntity
  8
0
100
AcDbCircle
 10
310.4656313590087
 20
330.9012869893293
 30
0.0
 40
0.2
100
AcDbArc
 50
270.0
 51
0.0000000001042204
  0
ARC
  5
1082
330
2
100
AcDbEntity
  8
0
100
AcDbCircle
 10
310.8656313590102
 20
331.2012869893294
 30
0.0
 40
0.2
100
AcDbArc
 50
90.0
 51
179.9999999998697
  0
ARC
  5
1083
330
2
100
AcDbEntity
  8
0
100
AcDbCircle
 10
312.4656313590087
 20
331.2012869893294
 30
0.0
 40
0.2
100
AcDbArc
 50
0.0
 51
90.0
  0
LINE
  5
1084
330
2
100
AcDbEntity
  8
0
100
AcDbLine
 10
309.1656313590094
 20
383.7012869893313
 30
0.0
 11
309.1656313590094
 21
330.7012869893295
 31
0.0
  0
LINE
  5
1085
330
2
100
AcDbEntity
  8
0
100
AcDbLine
 10
312.8656313590092
 20
330.7012869893299
 30
0.0
 11
312.8656313590092
 21
383.7012869893304
 31
0.0
  0
LINE
  5
1086
330
2
100
AcDbEntity
  8
0
100
AcDbLine
 10
394.1656313590103
 20
393.2012869893504
 30
0.0
 11
327.665631359004
 21
393.2012869893504
 31
0.0
  0
LINE
  5
1087
330
2
100
AcDbEntity
  8
0
100
AcDbLine
 10
394.1656313590103
 20
390.2012869893504
 30
0.0
 11
327.665631359004
 21
390.2012869893504
 31
0.0
  0
LINE
  5
1088
330
2
100
AcDbEntity
  8
0
100
AcDbLine
 10
394.1656313590094
 20
375.4933221552144
 30
0.0
 11
327.665631359004
 21
375.4933221552144
 31
0.0
  0
LINE
  5
1089
330
2
100
AcDbEntity
  8
0
100
AcDbLine
 10
327.665631359004
 20
393.2012869893504
 30
0.0
 11
320.1656313590067
 21
393.2012869893504
 31
0.0
  0
LINE
  5
108A
330
2
100
AcDbEntity
  8
0
100
AcDbLine
 10
327.665631359004
 20
390.2012869893504
 30
0.0
 11
320.1656313590067
 21
390.2012869893504
 31
0.0
  0
LINE
  5
108B
330
2
100
AcDbEntity
  8
0
100
AcDbLine
 10
327.665631359004
 20
375.4933221552144
 30
0.0
 11
320.1656313590067
 21
375.4933221552144
 31
0.0
  0
LINE
  5
108C
330
2
100
AcDbEntity
  8
0
100
AcDbLine
 10
394.1656313590103
 20
321.2012869893104
 30
0.0
 11
327.665631359004
 21
321.2012869893104
 31
0.0
  0
LINE
  5
108D
330
2
100
AcDbEntity
  8
0
100
AcDbLine
 10
394.1656313590103
 20
324.2012869893104
 30
0.0
 11
327.665631359004
 21
324.2012869893104
 31
0.0
  0
LINE
  5
108E
330
2
100
AcDbEntity
  8
0
100
AcDbLine
 10
394.1656313590094
 20
338.9092518234463
 30
0.0
 11
327.665631359004
 21
338.9092518234463
 31
0.0
  0
LINE
  5
108F
330
2
100
AcDbEntity
  8
0
100
AcDbLine
 10
327.665631359004
 20
321.2012869893104
 30
0.0
 11
320.1656313590067
 21
321.2012869893104
 31
0.0
  0
LINE
  5
1090
330
2
100
AcDbEntity
  8
0
100
AcDbLine
 10
327.665631359004
 20
324.2012869893104
 30
0.0
 11
320.1656313590067
 21
324.2012869893104
 31
0.0
  0
LINE
  5
1091
330
2
100
AcDbEntity
  8
0
100
AcDbLine
 10
327.665631359004
 20
338.9092518234463
 30
0.0
 11
320.1656313590067
 21
338.9092518234463
 31
0.0
  0
LINE
  5
1092
330
2
100
AcDbEntity
  8
CENTER
  6
CENS
100
AcDbLine
 10
307.6656313590067
 20
391.701286989349
 30
0.0
 11
332.728378103153
 21
391.701286989349
 31
0.0
  0
LINE
  5
1093
330
2
100
AcDbEntity
  8
0
100
AcDbLine
 10
318.6656313590076
 20
386.701286989349
 30
0.0
 11
313.0656313590073
 21
386.701286989349
 31
0.0
  0
LINE
  5
1094
330
2
100
AcDbEntity
  8
0
100
AcDbLine
 10
318.6656313590076
 20
396.701286989349
 30
0.0
 11
313.0656313590073
 21
396.701286989349
 31
0.0
  0
LINE
  5
1095
330
2
100
AcDbEntity
  8
0
100
AcDbLine
 10
318.6656313590076
 20
396.701286989349
 30
0.0
 11
318.6656313590076
 21
386.7012869893495
 31
0.0
  0
LINE
  5
1096
330
2
100
AcDbEntity
  8
0
100
AcDbLine
 10
312.6656313590076
 20
396.0084666663213
 30
0.0
 11
312.6656313590067
 21
387.3941073123767
 31
0.0
  0
LINE
  5
1097
330
2
100
AcDbEntity
  8
0
100
AcDbLine
 10
313.0656313590073
 20
396.701286989349
 30
0.0
 11
313.0656313590073
 21
386.701286989349
 31
0.0
  0
LINE
  5
1098
330
2
100
AcDbEntity
  8
0
100
AcDbLine
 10
313.0656313590073
 20
396.701286989349
 30
0.0
 11
312.6656313590076
 21
396.0084666663213
 31
0.0
  0
LINE
  5
1099
330
2
100
AcDbEntity
  8
0
100
AcDbLine
 10
313.0656313590073
 20
386.701286989349
 30
0.0
 11
312.6656313590076
 21
387.3941073123767
 31
0.0
  0
LINE
  5
109A
330
2
100
AcDbEntity
  8
0
100
AcDbLine
 10
318.6656313590067
 20
396.701286989349
 30
0.0
 11
320.1656313590067
 21
396.701286989349
 31
0.0
  0
LINE
  5
109B
330
2
100
AcDbEntity
  8
0
100
AcDbLine
 10
318.6656313590067
 20
386.701286989349
 30
0.0
 11
320.1656313590067
 21
386.701286989349
 31
0.0
  0
LINE
  5
109C
330
2
100
AcDbEntity
  8
HIDS
  6
SEKKEI_H
100
AcDbLine
 10
316.665631359004
 20
386.701286989349
 30
0.0
 11
316.665631359004
 21
389.8728598645837
 31
0.0
  0
LINE
  5
109D
330
2
100
AcDbEntity
  8
CENTER
  6
CENS
100
AcDbLine
 10
307.6656313590067
 20
322.7012869893117
 30
0.0
 11
332.728378103153
 21
322.7012869893117
 31
0.0
  0
LINE
  5
109E
330
2
100
AcDbEntity
  8
0
100
AcDbLine
 10
318.6656313590076
 20
327.7012869893117
 30
0.0
 11
313.0656313590073
 21
327.7012869893117
 31
0.0
  0
LINE
  5
109F
330
2
100
AcDbEntity
  8
0
100
AcDbLine
 10
318.6656313590076
 20
317.7012869893117
 30
0.0
 11
313.0656313590073
 21
317.7012869893117
 31
0.0
  0
LINE
  5
10A0
330
2
100
AcDbEntity
  8
0
100
AcDbLine
 10
318.6656313590076
 20
317.7012869893117
 30
0.0
 11
318.6656313590076
 21
327.7012869893113
 31
0.0
  0
LINE
  5
10A1
330
2
100
AcDbEntity
  8
0
100
AcDbLine
 10
312.6656313590076
 20
318.3941073123394
 30
0.0
 11
312.6656313590067
 21
327.008466666284
 31
0.0
  0
LINE
  5
10A2
330
2
100
AcDbEntity
  8
0
100
AcDbLine
 10
313.0656313590073
 20
317.7012869893117
 30
0.0
 11
313.0656313590073
 21
327.7012869893117
 31
0.0
  0
LINE
  5
10A3
330
2
100
AcDbEntity
  8
0
100
AcDbLine
 10
313.0656313590073
 20
317.7012869893117
 30
0.0
 11
312.6656313590076
 21
318.3941073123394
 31
0.0
  0
LINE
  5
10A4
330
2
100
AcDbEntity
  8
0
100
AcDbLine
 10
313.0656313590073
 20
327.7012869893117
 30
0.0
 11
312.6656313590076
 21
327.008466666284
 31
0.0
  0
LINE
  5
10A5
330
2
100
AcDbEntity
  8
0
100
AcDbLine
 10
318.6656313590067
 20
317.7012869893117
 30
0.0
 11
320.1656313590067
 21
317.7012869893117
 31
0.0
  0
LINE
  5
10A6
330
2
100
AcDbEntity
  8
0
100
AcDbLine
 10
318.6656313590067
 20
327.7012869893117
 30
0.0
 11
320.1656313590067
 21
327.7012869893117
 31
0.0
  0
LINE
  5
10A7
330
2
100
AcDbEntity
  8
HIDS
  6
SEKKEI_H
100
AcDbLine
 10
316.665631359004
 20
327.7012869893117
 30
0.0
 11
316.665631359004
 21
324.529714114077
 31
0.0
  0
LINE
  5
10A8
330
2
100
AcDbEntity
  8
0
100
AcDbLine
 10
602.6387042207145
 20
666.598554512813
 30
0.0
 11
543.6387042206781
 21
666.598554512813
 31
0.0
  0
LINE
  5
10A9
330
2
100
AcDbEntity
  8
0
100
AcDbLine
 10
546.6387042206954
 20
674.0985545128085
 30
0.0
 11
546.6387042206963
 21
672.7985545128083
 31
0.0
  0
LINE
  5
10AA
330
2
100
AcDbEntity
  8
0
100
AcDbLine
 10
546.8387042206952
 20
670.5985545128084
 30
0.0
 11
546.6387042206963
 21
670.3985545128078
 31
0.0
  0
LINE
  5
10AB
330
2
100
AcDbEntity
  8
0
100
AcDbLine
 10
547.3387042206952
 20
672.3985545128077
 30
0.0
 11
547.3387042206952
 21
670.7985545128082
 31
0.0
  0
LINE
  5
10AC
330
2
100
AcDbEntity
  8
0
100
AcDbLine
 10
546.6387042206954
 20
674.0985545128076
 30
0.0
 11
547.2160544898845
 21
675.0985545128084
 31
0.0
  0
LINE
  5
10AD
330
2
100
AcDbEntity
  8
0
100
AcDbLine
 10
544.6387042207017
 20
667.0985545128121
 30
0.0
 11
544.1387042206963
 21
666.5985545128076
 31
0.0
  0
LINE
  5
10AE
330
2
100
AcDbEntity
  8
0
100
AcDbLine
 10
546.6387042206963
 20
670.3985545128078
 30
0.0
 11
546.6387042206963
 21
667.0985545128075
 31
0.0
  0
LINE
  5
10AF
330
2
100
AcDbEntity
  8
0
100
AcDbLine
 10
599.0613539515045
 20
675.0985545128131
 30
0.0
 11
547.2160544898882
 21
675.0985545128131
 31
0.0
  0
LINE
  5
10B0
330
2
100
AcDbEntity
  8
HIDS
  6
SEKKEI_H
100
AcDbLine
 10
609.5529177830687
 20
663.6843409504379
 30
0.0
 11
607.224490658323
 21
666.0127680751855
 31
0.0
  0
LINE
  5
10B1
330
2
100
AcDbEntity
  8
0
100
AcDbLine
 10
533.195466939723
 20
663.0985545128103
 30
0.0
 11
612.6719415016716
 21
663.0985545128107
 31
0.0
  0
ARC
  5
10B2
330
2
100
AcDbEntity
  8
0
100
AcDbCircle
 10
533.195466939723
 20
662.0985545128103
 30
0.0
 40
1.0
100
AcDbArc
 50
90.0
 51
179.4999999999954
  0
LINE
  5
10B3
330
2
100
AcDbEntity
  8
0
100
AcDbLine
 10
599.6387042206963
 20
674.0985545128076
 30
0.0
 11
599.0613539515082
 21
675.0985545128084
 31
0.0
  0
LINE
  5
10B4
330
2
100
AcDbEntity
  8
0
100
AcDbLine
 10
599.4387042206974
 20
670.5985545128084
 30
0.0
 11
546.8387042206952
 21
670.5985545128084
 31
0.0
  0
LINE
  5
10B5
330
2
100
AcDbEntity
  8
0
100
AcDbLine
 10
598.9387042206974
 20
672.3985545128077
 30
0.0
 11
598.9387042206974
 21
670.7985545128082
 31
0.0
  0
LINE
  5
10B6
330
2
100
AcDbEntity
  8
0
100
AcDbLine
 10
599.4387042206974
 20
672.5985545128085
 30
0.0
 11
546.8387042206952
 21
672.5985545127285
 31
0.0
  0
LINE
  5
10B7
330
2
100
AcDbEntity
  8
0
100
AcDbLine
 10
599.4387042206974
 20
670.5985545128084
 30
0.0
 11
599.6387042206963
 21
670.3985545128078
 31
0.0
  0
LINE
  5
10B8
330
2
100
AcDbEntity
  8
0
100
AcDbLine
 10
599.6387042206963
 20
674.0985545128085
 30
0.0
 11
599.6387042206963
 21
672.7985545128083
 31
0.0
  0
LINE
  5
10B9
330
2
100
AcDbEntity
  8
0
100
AcDbLine
 10
544.6387042207017
 20
667.0985545128121
 30
0.0
 11
601.6387042206909
 21
667.0985545128131
 31
0.0
  0
LINE
  5
10BA
330
2
100
AcDbEntity
  8
0
100
AcDbLine
 10
601.6387042206964
 20
667.0985545128075
 30
0.0
 11
599.6387042206963
 21
667.0985545128075
 31
0.0
  0
LINE
  5
10BB
330
2
100
AcDbEntity
  8
0
100
AcDbLine
 10
601.6387042206964
 20
667.0985545128075
 30
0.0
 11
602.1387042206963
 21
666.5985545128076
 31
0.0
  0
LINE
  5
10BC
330
2
100
AcDbEntity
  8
0
100
AcDbLine
 10
599.6387042206963
 20
670.3985545128078
 30
0.0
 11
599.6387042206963
 21
667.0985545128075
 31
0.0
  0
ARC
  5
10BD
330
2
100
AcDbEntity
  8
HIDS
  6
SEKKEI_H
100
AcDbCircle
 10
610.967131345443
 20
665.0985545128103
 30
0.0
 40
2.0
100
AcDbArc
 50
224.9999999999911
 51
270.0
  0
ARC
  5
10BE
330
2
100
AcDbEntity
  8
HIDS
  6
SEKKEI_H
100
AcDbCircle
 10
605.8102770959497
 20
664.598554512813
 30
0.0
 40
2.0
100
AcDbArc
 50
44.99999999999107
 51
90.0
  0
LINE
  5
10BF
330
2
100
AcDbEntity
  8
HIDS
  6
SEKKEI_H
100
AcDbLine
 10
536.724490658323
 20
663.6843409504379
 30
0.0
 11
539.0529177830696
 21
666.0127680751855
 31
0.0
  0
LINE
  5
10C0
330
2
100
AcDbEntity
  8
0
100
AcDbLine
 10
532.1387042206963
 20
655.598554512813
 30
0.0
 11
532.1955050166581
 21
662.107281048309
 31
0.0
  0
ARC
  5
10C1
330
2
100
AcDbEntity
  8
HIDS
  6
SEKKEI_H
100
AcDbCircle
 10
535.3102770959496
 20
665.0985545128103
 30
0.0
 40
2.0
100
AcDbArc
 50
270.0
 51
315.0000000000089
  0
ARC
  5
10C2
330
2
100
AcDbEntity
  8
HIDS
  6
SEKKEI_H
100
AcDbCircle
 10
540.4671313454429
 20
664.598554512813
 30
0.0
 40
2.0
100
AcDbArc
 50
90.0
 51
135.0000000000089
  0
ARC
  5
10C3
330
2
100
AcDbEntity
  8
0
100
AcDbCircle
 10
599.4387042206974
 20
672.7985545128083
 30
0.0
 40
0.2
100
AcDbArc
 50
270.0000000001042
 51
359.9999999999739
  0
ARC
  5
10C4
330
2
100
AcDbEntity
  8
0
100
AcDbCircle
 10
599.1387042206963
 20
672.3985545128077
 30
0.0
 40
0.2
100
AcDbArc
 50
90.00000000010421
 51
179.9999999999739
  0
ARC
  5
10C5
330
2
100
AcDbEntity
  8
0
100
AcDbCircle
 10
599.1387042206963
 20
670.7985545128082
 30
0.0
 40
0.2
100
AcDbArc
 50
179.9999999999739
 51
270.0
  0
ARC
  5
10C6
330
2
100
AcDbEntity
  8
0
100
AcDbCircle
 10
546.8387042206952
 20
672.7985545128083
 30
0.0
 40
0.2
100
AcDbArc
 50
180.0
 51
270.0000000001042
  0
ARC
  5
10C7
330
2
100
AcDbEntity
  8
0
100
AcDbCircle
 10
547.1387042206963
 20
672.3985545128077
 30
0.0
 40
0.2
100
AcDbArc
 50
0.0
 51
89.99999999984366
  0
ARC
  5
10C8
330
2
100
AcDbEntity
  8
0
100
AcDbCircle
 10
547.1387042206963
 20
670.7985545128082
 30
0.0
 40
0.2
100
AcDbArc
 50
270.0
 51
0.0
  0
LINE
  5
10C9
330
2
100
AcDbEntity
  8
0
100
AcDbLine
 10
599.6387042206963
 20
674.0985545128085
 30
0.0
 11
546.6387042206954
 21
674.0985545128076
 31
0.0
  0
LINE
  5
10CA
330
2
100
AcDbEntity
  8
0
100
AcDbLine
 10
546.6387042206963
 20
670.3985545128078
 30
0.0
 11
599.6387042206963
 21
670.3985545128078
 31
0.0
  0
LINE
  5
10CB
330
2
100
AcDbEntity
  8
0
100
AcDbLine
 10
609.1387042207164
 20
655.598554512813
 30
0.0
 11
609.1387042207164
 21
663.0985545128103
 31
0.0
  0
LINE
  5
10CC
330
2
100
AcDbEntity
  8
0
100
AcDbLine
 10
606.1387042207163
 20
655.598554512813
 30
0.0
 11
606.1387042207163
 21
663.0985545128103
 31
0.0
  0
LINE
  5
10CD
330
2
100
AcDbEntity
  8
0
100
AcDbLine
 10
591.4307393865812
 20
655.598554512813
 30
0.0
 11
591.4307393865812
 21
663.0985545128103
 31
0.0
  0
LINE
  5
10CE
330
2
100
AcDbEntity
  8
0
100
AcDbLine
 10
537.1387042206763
 20
655.598554512813
 30
0.0
 11
537.1387042206763
 21
663.0985545128103
 31
0.0
  0
LINE
  5
10CF
330
2
100
AcDbEntity
  8
0
100
AcDbLine
 10
540.1387042206763
 20
655.598554512813
 30
0.0
 11
540.1387042206763
 21
663.0985545128103
 31
0.0
  0
LINE
  5
10D0
330
2
100
AcDbEntity
  8
0
100
AcDbLine
 10
554.8466690548114
 20
655.598554512813
 30
0.0
 11
554.8466690548114
 21
663.0985545128103
 31
0.0
  0
LINE
  5
10D1
330
2
100
AcDbEntity
  8
CENTER
  6
CENS
100
AcDbLine
 10
607.6387042207145
 20
675.5985545128103
 30
0.0
 11
607.6387042207145
 21
650.5358077686639
 31
0.0
  0
LINE
  5
10D2
330
2
100
AcDbEntity
  8
0
100
AcDbLine
 10
602.6387042207145
 20
664.5985545128103
 30
0.0
 11
602.6387042207145
 21
670.1985545128097
 31
0.0
  0
LINE
  5
10D3
330
2
100
AcDbEntity
  8
0
100
AcDbLine
 10
612.6387042207145
 20
664.5985545128103
 30
0.0
 11
612.6387042207145
 21
670.1985545128097
 31
0.0
  0
LINE
  5
10D4
330
2
100
AcDbEntity
  8
0
100
AcDbLine
 10
612.6387042207145
 20
664.5985545128103
 30
0.0
 11
602.6387042207145
 21
664.5985545128103
 31
0.0
  0
LINE
  5
10D5
330
2
100
AcDbEntity
  8
0
100
AcDbLine
 10
611.9458838976872
 20
670.5985545128103
 30
0.0
 11
603.3315245437427
 21
670.5985545128103
 31
0.0
  0
LINE
  5
10D6
330
2
100
AcDbEntity
  8
0
100
AcDbLine
 10
612.6387042207145
 20
670.1985545128106
 30
0.0
 11
602.6387042207145
 21
670.1985545128097
 31
0.0
  0
LINE
  5
10D7
330
2
100
AcDbEntity
  8
0
100
AcDbLine
 10
612.6387042207145
 20
670.1985545128097
 30
0.0
 11
611.9458838976872
 21
670.5985545128103
 31
0.0
  0
LINE
  5
10D8
330
2
100
AcDbEntity
  8
0
100
AcDbLine
 10
602.6387042207145
 20
670.1985545128097
 30
0.0
 11
603.3315245437427
 21
670.5985545128103
 31
0.0
  0
LINE
  5
10D9
330
2
100
AcDbEntity
  8
0
100
AcDbLine
 10
612.6387042207145
 20
664.5985545128103
 30
0.0
 11
612.6387042207145
 21
663.0985545128103
 31
0.0
  0
LINE
  5
10DA
330
2
100
AcDbEntity
  8
0
100
AcDbLine
 10
602.6387042207145
 20
664.5985545128103
 30
0.0
 11
602.6387042207145
 21
663.0985545128103
 31
0.0
  0
LINE
  5
10DB
330
2
100
AcDbEntity
  8
HIDS
  6
SEKKEI_H
100
AcDbLine
 10
602.6387042207145
 20
666.598554512813
 30
0.0
 11
605.8102770959497
 21
666.598554512813
 31
0.0
  0
LINE
  5
10DC
330
2
100
AcDbEntity
  8
CENTER
  6
CENS
100
AcDbLine
 10
538.6387042206782
 20
675.5985545128103
 30
0.0
 11
538.6387042206782
 21
650.5358077686639
 31
0.0
  0
LINE
  5
10DD
330
2
100
AcDbEntity
  8
0
100
AcDbLine
 10
543.6387042206781
 20
664.5985545128103
 30
0.0
 11
543.6387042206781
 21
670.1985545128097
 31
0.0
  0
LINE
  5
10DE
330
2
100
AcDbEntity
  8
0
100
AcDbLine
 10
533.6387042206781
 20
664.5985545128103
 30
0.0
 11
533.6387042206781
 21
670.1985545128097
 31
0.0
  0
LINE
  5
10DF
330
2
100
AcDbEntity
  8
0
100
AcDbLine
 10
533.6387042206781
 20
664.5985545128103
 30
0.0
 11
543.6387042206781
 21
664.5985545128103
 31
0.0
  0
LINE
  5
10E0
330
2
100
AcDbEntity
  8
0
100
AcDbLine
 10
534.3315245437054
 20
670.5985545128103
 30
0.0
 11
542.94588389765
 21
670.5985545128103
 31
0.0
  0
LINE
  5
10E1
330
2
100
AcDbEntity
  8
0
100
AcDbLine
 10
533.6387042206781
 20
670.1985545128106
 30
0.0
 11
543.6387042206781
 21
670.1985545128097
 31
0.0
  0
LINE
  5
10E2
330
2
100
AcDbEntity
  8
0
100
AcDbLine
 10
533.6387042206781
 20
670.1985545128097
 30
0.0
 11
534.3315245437054
 21
670.5985545128103
 31
0.0
  0
LINE
  5
10E3
330
2
100
AcDbEntity
  8
0
100
AcDbLine
 10
543.6387042206781
 20
670.1985545128097
 30
0.0
 11
542.94588389765
 21
670.5985545128103
 31
0.0
  0
LINE
  5
10E4
330
2
100
AcDbEntity
  8
0
100
AcDbLine
 10
533.6387042206781
 20
664.5985545128103
 30
0.0
 11
533.6387042206781
 21
663.0985545128103
 31
0.0
  0
LINE
  5
10E5
330
2
100
AcDbEntity
  8
0
100
AcDbLine
 10
543.6387042206781
 20
664.5985545128103
 30
0.0
 11
543.6387042206781
 21
663.0985545128103
 31
0.0
  0
LINE
  5
10E6
330
2
100
AcDbEntity
  8
HIDS
  6
SEKKEI_H
100
AcDbLine
 10
543.6387042206781
 20
666.598554512813
 30
0.0
 11
540.4671313454429
 21
666.598554512813
 31
0.0
  0
LINE
  5
10E7
330
2
100
AcDbEntity
  8
0
100
AcDbLine
 10
613.6719034247355
 20
662.107281048309
 30
0.0
 11
613.7287042206964
 21
655.5985545128139
 31
0.0
  0
ARC
  5
10E8
330
2
100
AcDbEntity
  8
0
100
AcDbCircle
 10
612.6719415016716
 20
662.0985545128108
 30
0.0
 40
1.0
100
AcDbArc
 50
0.4999999999915503
 51
90.0
  0
LINE
  5
10E9
330
2
100
AcDbEntity
  8
0
100
AcDbLine
 10
439.2509363522824
 20
86.73569696721528
 30
0.0
 11
439.2509363522824
 21
113.3773286659345
 31
0.0
  0
LINE
  5
10EA
330
2
100
AcDbEntity
  8
0
100
AcDbLine
 10
439.2509363522842
 20
140.9246649845629
 30
0.0
 11
439.2509363522842
 21
167.5662966832795
 31
0.0
  0
LINE
  5
10EB
330
2
100
AcDbEntity
  8
0
100
AcDbLine
 10
444.2509363522824
 20
92.15099682525375
 30
0.0
 11
444.2509363522824
 21
114.226296113107
 31
0.0
  0
LINE
  5
10EC
330
2
100
AcDbEntity
  8
0
100
AcDbLine
 10
444.2509363522824
 20
140.0756975373904
 30
0.0
 11
444.2509363522824
 21
162.1509968252538
 31
0.0
  0
LINE
  5
10ED
330
2
100
AcDbEntity
  8
0
100
AcDbLine
 10
446.1811373588773
 20
98.76443092628575
 30
0.0
 11
455.3207353456858
 21
99.08359272082975
 31
0.0
  0
ARC
  5
10EE
330
2
100
AcDbEntity
  8
0
100
AcDbCircle
 10
446.2509363522825
 20
96.76564927224786
 30
0.0
 40
2.0
100
AcDbArc
 50
92.00000000000365
 51
180.0
  0
LINE
  5
10EF
330
2
100
AcDbEntity
  8
0
100
AcDbLine
 10
457.2509363522806
 20
101.0823743748685
 30
0.0
 11
457.2509363522806
 21
112.6509508252486
 31
0.0
  0
LINE
  5
10F0
330
2
100
AcDbEntity
  8
0
100
AcDbLine
 10
457.2509363522824
 20
141.6509508252491
 30
0.0
 11
457.2509363522824
 21
153.2196192756389
 31
0.0
  0
ARC
  5
10F1
330
2
100
AcDbEntity
  8
0
100
AcDbCircle
 10
455.2509363522824
 20
101.0823743748685
 30
0.0
 40
2.0
100
AcDbArc
 50
272.0000000000036
 51
0.0
  0
ARC
  5
10F2
330
2
100
AcDbEntity
  8
0
100
AcDbCircle
 10
455.2509363522824
 20
153.2196192756389
 30
0.0
 40
2.0
100
AcDbArc
 50
0.0
 51
87.99999999999636
  0
LINE
  5
10F3
330
2
100
AcDbEntity
  8
0
100
AcDbLine
 10
446.1811373588773
 20
155.5375627242227
 30
0.0
 11
455.3207353456875
 21
155.2184009296777
 31
0.0
  0
ARC
  5
10F4
330
2
100
AcDbEntity
  8
0
100
AcDbCircle
 10
446.2509363522825
 20
157.5363443782615
 30
0.0
 40
2.0
100
AcDbArc
 50
180.0
 51
267.9999999999963
  0
LINE
  5
10F5
330
2
100
AcDbEntity
  8
0
100
AcDbLine
 10
372.7509363522788
 20
168.1466333913074
 30
0.0
 11
439.2509363522842
 21
167.5662966832795
 31
0.0
  0
LINE
  5
10F6
330
2
100
AcDbEntity
  8
0
100
AcDbLine
 10
372.7509363522788
 20
86.15536025913229
 30
0.0
 11
439.2509363522824
 21
86.73569696721528
 31
0.0
  0
LINE
  5
10F7
330
2
100
AcDbEntity
  8
0
100
AcDbLine
 10
372.7509363522788
 20
86.15536025913229
 30
0.0
 11
372.7509363522788
 21
114.0278407812209
 31
0.0
  0
LINE
  5
10F8
330
2
100
AcDbEntity
  8
0
100
AcDbLine
 10
372.7509363522788
 20
141.648043254256
 30
0.0
 11
372.7509363522788
 21
168.1466333913074
 31
0.0
  0
LINE
  5
10F9
330
2
100
AcDbEntity
  8
0
100
AcDbLine
 10
439.2509363522824
 20
92.15099682525375
 30
0.0
 11
444.2509363522824
 21
92.15099682525375
 31
0.0
  0
LINE
  5
10FA
330
2
100
AcDbEntity
  8
0
100
AcDbLine
 10
439.2509363522824
 20
162.1509968252538
 30
0.0
 11
444.2509363522824
 21
162.1509968252538
 31
0.0
  0
LINE
  5
10FB
330
2
100
AcDbEntity
  8
CENTER
100
AcDbLine
 10
396.2509363522751
 20
177.9415519982451
 30
0.0
 11
396.2509363522751
 21
76.36044165221415
 31
0.0
  0
LINE
  5
10FC
330
2
100
AcDbEntity
  8
CENTER
100
AcDbLine
 10
341.2509448063212
 20
127.1509968252487
 30
0.0
 11
480.2509363522806
 21
127.1509968252487
 31
0.0
  0
LINE
  5
10FD
330
2
100
AcDbEntity
  8
0
100
AcDbLine
 10
362.2509363522788
 20
103.76883347231
 30
0.0
 11
362.8996003057457
 21
103.7518476089001
 31
0.0
  0
LINE
  5
10FE
330
2
100
AcDbEntity
  8
0
100
AcDbLine
 10
361.7509363522788
 20
156.6509968252674
 30
0.0
 11
361.7509363522788
 21
151.4481504366843
 31
0.0
  0
LINE
  5
10FF
330
2
100
AcDbEntity
  8
0
100
AcDbLine
 10
361.7509363522788
 20
102.8538432138132
 30
0.0
 11
361.7509363522788
 21
97.65099682523009
 31
0.0
  0
LINE
  5
1100
330
2
100
AcDbEntity
  8
0
100
AcDbLine
 10
354.2509363522788
 20
104.1509968252487
 30
0.0
 11
353.2509363522787
 21
103.5736465560596
 31
0.0
  0
LINE
  5
1101
330
2
100
AcDbEntity
  8
0
100
AcDbLine
 10
354.2509363522842
 20
100.6509968252478
 30
0.0
 11
355.5509363522835
 21
100.6509968252478
 31
0.0
  0
LINE
  5
1102
330
2
100
AcDbEntity
  8
0
100
AcDbLine
 10
357.7509363522842
 20
100.8509968252485
 30
0.0
 11
357.9509363522831
 21
100.6509968252482
 31
0.0
  0
LINE
  5
1103
330
2
100
AcDbEntity
  8
0
100
AcDbLine
 10
355.9509363522831
 20
101.3509968252476
 30
0.0
 11
357.5509363522835
 21
101.3509968252485
 31
0.0
  0
LINE
  5
1104
330
2
100
AcDbEntity
  8
0
100
AcDbLine
 10
354.2509363522842
 20
100.6509968252478
 30
0.0
 11
353.2509363522842
 21
101.2283470944373
 31
0.0
  0
LINE
  5
1105
330
2
100
AcDbEntity
  8
0
100
AcDbLine
 10
361.2509363522788
 20
98.6509968252542
 30
0.0
 11
361.7509363522842
 21
98.15099682524873
 31
0.0
  0
LINE
  5
1106
330
2
100
AcDbEntity
  8
0
100
AcDbLine
 10
357.9509363522831
 20
100.6509968252482
 30
0.0
 11
361.2509363522842
 21
100.6509968252487
 31
0.0
  0
LINE
  5
1107
330
2
100
AcDbEntity
  8
0
100
AcDbLine
 10
354.2509363522788
 20
104.1509968252487
 30
0.0
 11
362.2509363522788
 21
104.1509968252487
 31
0.0
  0
LINE
  5
1108
330
2
100
AcDbEntity
  8
0
100
AcDbLine
 10
353.2509363522787
 20
153.0736465560579
 30
0.0
 11
353.2509363522787
 21
141.648043254256
 31
0.0
  0
LINE
  5
1109
330
2
100
AcDbEntity
  8
0
100
AcDbLine
 10
353.2509363522787
 20
112.6480432542559
 30
0.0
 11
353.2509363522787
 21
101.2283470944401
 31
0.0
  0
LINE
  5
110A
330
2
100
AcDbEntity
  8
0
100
AcDbLine
 10
354.2509363522788
 20
104.1509968252487
 30
0.0
 11
354.2509363522788
 21
112.6480432542559
 31
0.0
  0
LINE
  5
110B
330
2
100
AcDbEntity
  8
0
100
AcDbLine
 10
354.2509363522788
 20
141.648043254256
 30
0.0
 11
354.2509363522788
 21
150.1509968252478
 31
0.0
  0
LINE
  5
110C
330
2
100
AcDbEntity
  8
0
100
AcDbLine
 10
362.2509363522788
 20
141.648043254256
 30
0.0
 11
362.2509363522788
 21
150.5331601781875
 31
0.0
  0
LINE
  5
110D
330
2
100
AcDbEntity
  8
HIDS
  6
SEKKEI_H
100
AcDbLine
 10
364.6651499146539
 20
163.5652103876212
 30
0.0
 11
362.3367227899054
 21
161.2367832628763
 31
0.0
  0
LINE
  5
110E
330
2
100
AcDbEntity
  8
0
100
AcDbLine
 10
365.2509363522806
 20
87.15099682524874
 30
0.0
 11
365.2509363522806
 21
112.4780014570644
 31
0.0
  0
LINE
  5
110F
330
2
100
AcDbEntity
  8
0
100
AcDbLine
 10
365.2509363522806
 20
141.8239921934339
 30
0.0
 11
365.2509363522806
 21
167.1509968252488
 31
0.0
  0
LINE
  5
1110
330
2
100
AcDbEntity
  8
0
100
AcDbLine
 10
372.7509363522788
 20
168.1509968252488
 30
0.0
 11
366.2509363522806
 21
168.1509968252488
 31
0.0
  0
LINE
  5
1111
330
2
100
AcDbEntity
  8
0
100
AcDbLine
 10
372.7509363522788
 20
168.1509968252496
 30
0.0
 11
372.7509363522788
 21
140.274152869277
 31
0.0
  0
LINE
  5
1112
330
2
100
AcDbEntity
  8
0
100
AcDbLine
 10
372.7509363522788
 20
112.6480432542559
 30
0.0
 11
372.7509363522788
 21
86.15099682524874
 31
0.0
  0
LINE
  5
1113
330
2
100
AcDbEntity
  8
0
100
AcDbLine
 10
354.2509363522842
 20
153.6509968252497
 30
0.0
 11
353.2509363522842
 21
153.0736465560597
 31
0.0
  0
LINE
  5
1114
330
2
100
AcDbEntity
  8
0
100
AcDbLine
 10
357.7509363522842
 20
153.4509968252489
 30
0.0
 11
357.7509363522842
 21
151.4783550811683
 31
0.0
  0
LINE
  5
1115
330
2
100
AcDbEntity
  8
0
100
AcDbLine
 10
357.7509363522842
 20
102.8236385693292
 30
0.0
 11
357.7509363522842
 21
100.8509968252485
 31
0.0
  0
LINE
  5
1116
330
2
100
AcDbEntity
  8
0
100
AcDbLine
 10
355.9509363522831
 20
152.9509968252494
 30
0.0
 11
357.5509363522835
 21
152.9509968252489
 31
0.0
  0
LINE
  5
1117
330
2
100
AcDbEntity
  8
0
100
AcDbLine
 10
355.7509363522842
 20
153.4509968252498
 30
0.0
 11
355.7509363522861
 21
151.5815067013798
 31
0.0
  0
LINE
  5
1118
330
2
100
AcDbEntity
  8
0
100
AcDbLine
 10
355.7509363523606
 20
102.7204869491308
 30
0.0
 11
355.7509363523625
 21
100.8509968252485
 31
0.0
  0
LINE
  5
1119
330
2
100
AcDbEntity
  8
0
100
AcDbLine
 10
354.2509363522788
 20
150.1509968252487
 30
0.0
 11
353.2509363522787
 21
150.7283470944378
 31
0.0
  0
LINE
  5
111A
330
2
100
AcDbEntity
  8
0
100
AcDbLine
 10
354.2509363522788
 20
150.1509968252478
 30
0.0
 11
362.2509363522788
 21
150.1509968252487
 31
0.0
  0
LINE
  5
111B
330
2
100
AcDbEntity
  8
0
100
AcDbLine
 10
357.7509363522842
 20
153.4509968252489
 30
0.0
 11
357.9509363522831
 21
153.6509968252488
 31
0.0
  0
LINE
  5
111C
330
2
100
AcDbEntity
  8
0
100
AcDbLine
 10
354.2509363522842
 20
153.6509968252497
 30
0.0
 11
355.5509363522835
 21
153.6509968252492
 31
0.0
  0
LINE
  5
111D
330
2
100
AcDbEntity
  8
0
100
AcDbLine
 10
361.2509363522788
 20
98.6509968252542
 30
0.0
 11
361.2509363522788
 21
102.7371918329979
 31
0.0
  0
LINE
  5
111E
330
2
100
AcDbEntity
  8
0
100
AcDbLine
 10
361.2509363522788
 20
151.5648018174995
 30
0.0
 11
361.2509363522788
 21
155.6509968252433
 31
0.0
  0
LINE
  5
111F
330
2
100
AcDbEntity
  8
0
100
AcDbLine
 10
361.2509363522842
 20
155.6509968252488
 30
0.0
 11
361.2509363522842
 21
153.6509968252488
 31
0.0
  0
LINE
  5
1120
330
2
100
AcDbEntity
  8
0
100
AcDbLine
 10
361.2509363522842
 20
155.6509968252488
 30
0.0
 11
361.7509363522842
 21
156.1509968252488
 31
0.0
  0
LINE
  5
1121
330
2
100
AcDbEntity
  8
0
100
AcDbLine
 10
357.9509363522831
 20
153.6509968252488
 30
0.0
 11
361.2509363522842
 21
153.6509968252488
 31
0.0
  0
ARC
  5
1122
330
2
100
AcDbEntity
  8
0
100
AcDbCircle
 10
366.2509363522806
 20
167.1509968252488
 30
0.0
 40
1.0
100
AcDbArc
 50
90.0
 51
179.9999999999869
  0
LINE
  5
1123
330
2
100
AcDbEntity
  8
0
100
AcDbLine
 10
362.2509363522788
 20
150.5331601781875
 30
0.0
 11
362.8996003057457
 21
150.5501460415974
 31
0.0
  0
ARC
  5
1124
330
2
100
AcDbEntity
  8
HIDS
  6
SEKKEI_H
100
AcDbCircle
 10
363.2509363522806
 20
164.979423949995
 30
0.0
 40
2.0
100
AcDbArc
 50
314.9999999999444
 51
359.9999999999869
  0
ARC
  5
1125
330
2
100
AcDbEntity
  8
HIDS
  6
SEKKEI_H
100
AcDbCircle
 10
363.7509363522788
 20
159.8225697005021
 30
0.0
 40
2.0
100
AcDbArc
 50
134.9999999999444
 51
180.0
  0
LINE
  5
1126
330
2
100
AcDbEntity
  8
HIDS
  6
SEKKEI_H
100
AcDbLine
 10
364.6651499146539
 20
90.73678326287632
 30
0.0
 11
362.3367227899072
 21
93.06521038762117
 31
0.0
  0
LINE
  5
1127
330
2
100
AcDbEntity
  8
0
100
AcDbLine
 10
372.7509363522788
 20
86.15099682524874
 30
0.0
 11
366.2509363522824
 21
86.15099682524874
 31
0.0
  0
ARC
  5
1128
330
2
100
AcDbEntity
  8
0
100
AcDbCircle
 10
366.2509363522824
 20
87.15099682524874
 30
0.0
 40
1.0
100
AcDbArc
 50
180.0
 51
270.0
  0
ARC
  5
1129
330
2
100
AcDbEntity
  8
HIDS
  6
SEKKEI_H
100
AcDbCircle
 10
363.2509363522806
 20
89.32256970050252
 30
0.0
 40
2.0
100
AcDbArc
 50
0.0
 51
45.00000000005555
  0
ARC
  5
112A
330
2
100
AcDbEntity
  8
HIDS
  6
SEKKEI_H
100
AcDbCircle
 10
363.7509363522788
 20
94.47942394999541
 30
0.0
 40
2.0
100
AcDbArc
 50
180.0
 51
225.0000000000555
  0
ARC
  5
112B
330
2
100
AcDbEntity
  8
0
100
AcDbCircle
 10
355.5509363522835
 20
153.4509968252489
 30
0.0
 40
0.2
100
AcDbArc
 50
0.0000000001302755
 51
90.0
  0
ARC
  5
112C
330
2
100
AcDbEntity
  8
0
100
AcDbCircle
 10
355.9509363522831
 20
153.1509968252497
 30
0.0
 40
0.2
100
AcDbArc
 50
180.0000000001302
 51
270.0
  0
ARC
  5
112D
330
2
100
AcDbEntity
  8
0
100
AcDbCircle
 10
357.5509363522835
 20
153.1509968252487
 30
0.0
 40
0.2
100
AcDbArc
 50
270.0
 51
0.0
  0
ARC
  5
112E
330
2
100
AcDbEntity
  8
0
100
AcDbCircle
 10
355.5509363522835
 20
100.8509968252476
 30
0.0
 40
0.2
100
AcDbArc
 50
270.0
 51
0.0000000001042204
  0
ARC
  5
112F
330
2
100
AcDbEntity
  8
0
100
AcDbCircle
 10
355.9509363522849
 20
101.1509968252478
 30
0.0
 40
0.2
100
AcDbArc
 50
90.0
 51
179.9999999998697
  0
ARC
  5
1130
330
2
100
AcDbEntity
  8
0
100
AcDbCircle
 10
357.5509363522835
 20
101.1509968252478
 30
0.0
 40
0.2
100
AcDbArc
 50
0.0
 51
90.0
  0
LINE
  5
1131
330
2
100
AcDbEntity
  8
0
100
AcDbLine
 10
354.2509363522842
 20
153.6509968252497
 30
0.0
 11
354.2509363522842
 21
152.0475109405027
 31
0.0
  0
LINE
  5
1132
330
2
100
AcDbEntity
  8
0
100
AcDbLine
 10
354.2509363522842
 20
102.2544827099948
 30
0.0
 11
354.2509363522842
 21
100.6509968252478
 31
0.0
  0
LINE
  5
1133
330
2
100
AcDbEntity
  8
0
100
AcDbLine
 10
357.9509363522831
 20
100.6509968252482
 30
0.0
 11
357.9509363522831
 21
102.8151061614128
 31
0.0
  0
LINE
  5
1134
330
2
100
AcDbEntity
  8
0
100
AcDbLine
 10
357.9509363522831
 20
151.4868874890847
 30
0.0
 11
357.9509363522831
 21
153.6509968252488
 31
0.0
  0
LINE
  5
1135
330
2
100
AcDbEntity
  8
0
100
AcDbLine
 10
439.2509363522842
 20
163.1509968252688
 30
0.0
 11
372.7509363522788
 21
163.1509968252688
 31
0.0
  0
LINE
  5
1136
330
2
100
AcDbEntity
  8
0
100
AcDbLine
 10
439.2509363522842
 20
160.1509968252688
 30
0.0
 11
372.7509363522788
 21
160.1509968252688
 31
0.0
  0
LINE
  5
1137
330
2
100
AcDbEntity
  8
0
100
AcDbLine
 10
439.2509363522842
 20
145.4430319911328
 30
0.0
 11
372.7509363522788
 21
145.4430319911328
 31
0.0
  0
LINE
  5
1138
330
2
100
AcDbEntity
  8
0
100
AcDbLine
 10
372.7509363522788
 20
163.1509968252688
 30
0.0
 11
365.2509363522806
 21
163.1509968252688
 31
0.0
  0
LINE
  5
1139
330
2
100
AcDbEntity
  8
0
100
AcDbLine
 10
372.7509363522788
 20
160.1509968252688
 30
0.0
 11
365.2509363522806
 21
160.1509968252688
 31
0.0
  0
LINE
  5
113A
330
2
100
AcDbEntity
  8
0
100
AcDbLine
 10
372.7509363522788
 20
145.4430319911328
 30
0.0
 11
365.2509363522806
 21
145.4430319911328
 31
0.0
  0
LINE
  5
113B
330
2
100
AcDbEntity
  8
0
100
AcDbLine
 10
439.2509363522842
 20
91.15099682522872
 30
0.0
 11
372.7509363522788
 21
91.15099682522872
 31
0.0
  0
LINE
  5
113C
330
2
100
AcDbEntity
  8
0
100
AcDbLine
 10
439.2509363522842
 20
94.15099682522873
 30
0.0
 11
372.7509363522788
 21
94.15099682522873
 31
0.0
  0
LINE
  5
113D
330
2
100
AcDbEntity
  8
0
100
AcDbLine
 10
439.2509363522842
 20
108.8589616593647
 30
0.0
 11
372.7509363522788
 21
108.8589616593647
 31
0.0
  0
LINE
  5
113E
330
2
100
AcDbEntity
  8
0
100
AcDbLine
 10
372.7509363522788
 20
91.15099682522872
 30
0.0
 11
365.2509363522806
 21
91.15099682522872
 31
0.0
  0
LINE
  5
113F
330
2
100
AcDbEntity
  8
0
100
AcDbLine
 10
372.7509363522788
 20
94.15099682522873
 30
0.0
 11
365.2509363522806
 21
94.15099682522873
 31
0.0
  0
LINE
  5
1140
330
2
100
AcDbEntity
  8
0
100
AcDbLine
 10
372.7509363522788
 20
108.8589616593647
 30
0.0
 11
365.2509363522806
 21
108.8589616593647
 31
0.0
  0
LINE
  5
1141
330
2
100
AcDbEntity
  8
CENTER
  6
CENS
100
AcDbLine
 10
352.7509363522806
 20
161.6509968252674
 30
0.0
 11
377.8136830964269
 21
161.6509968252674
 31
0.0
  0
LINE
  5
1142
330
2
100
AcDbEntity
  8
0
100
AcDbLine
 10
363.7509363522824
 20
156.6509968252674
 30
0.0
 11
358.150936352282
 21
156.6509968252674
 31
0.0
  0
LINE
  5
1143
330
2
100
AcDbEntity
  8
0
100
AcDbLine
 10
363.7509363522824
 20
166.6509968252674
 30
0.0
 11
358.150936352282
 21
166.6509968252674
 31
0.0
  0
LINE
  5
1144
330
2
100
AcDbEntity
  8
0
100
AcDbLine
 10
363.7509363522824
 20
166.6509968252674
 30
0.0
 11
363.7509363522824
 21
156.6509968252679
 31
0.0
  0
LINE
  5
1145
330
2
100
AcDbEntity
  8
0
100
AcDbLine
 10
357.7509363522824
 20
165.9581765022397
 30
0.0
 11
357.7509363522806
 21
157.3438171482951
 31
0.0
  0
LINE
  5
1146
330
2
100
AcDbEntity
  8
0
100
AcDbLine
 10
358.150936352282
 20
166.6509968252674
 30
0.0
 11
358.150936352282
 21
156.6509968252674
 31
0.0
  0
LINE
  5
1147
330
2
100
AcDbEntity
  8
0
100
AcDbLine
 10
358.150936352282
 20
166.6509968252674
 30
0.0
 11
357.7509363522824
 21
165.9581765022397
 31
0.0
  0
LINE
  5
1148
330
2
100
AcDbEntity
  8
0
100
AcDbLine
 10
358.150936352282
 20
156.6509968252674
 30
0.0
 11
357.7509363522824
 21
157.3438171482951
 31
0.0
  0
LINE
  5
1149
330
2
100
AcDbEntity
  8
0
100
AcDbLine
 10
363.7509363522806
 20
166.6509968252674
 30
0.0
 11
365.2509363522806
 21
166.6509968252674
 31
0.0
  0
LINE
  5
114A
330
2
100
AcDbEntity
  8
0
100
AcDbLine
 10
363.7509363522806
 20
156.6509968252674
 30
0.0
 11
365.2509363522806
 21
156.6509968252674
 31
0.0
  0
LINE
  5
114B
330
2
100
AcDbEntity
  8
HIDS
  6
SEKKEI_H
100
AcDbLine
 10
361.7509363522788
 20
156.6509968252674
 30
0.0
 11
361.7509363522788
 21
159.8225697005021
 31
0.0
  0
LINE
  5
114C
330
2
100
AcDbEntity
  8
CENTER
  6
CENS
100
AcDbLine
 10
352.7509363522806
 20
92.65099682523009
 30
0.0
 11
377.8136830964269
 21
92.65099682523009
 31
0.0
  0
LINE
  5
114D
330
2
100
AcDbEntity
  8
0
100
AcDbLine
 10
363.7509363522824
 20
97.65099682523009
 30
0.0
 11
358.150936352282
 21
97.65099682523009
 31
0.0
  0
LINE
  5
114E
330
2
100
AcDbEntity
  8
0
100
AcDbLine
 10
363.7509363522824
 20
87.65099682523009
 30
0.0
 11
358.150936352282
 21
87.65099682523009
 31
0.0
  0
LINE
  5
114F
330
2
100
AcDbEntity
  8
0
100
AcDbLine
 10
363.7509363522824
 20
87.65099682523009
 30
0.0
 11
363.7509363522824
 21
97.65099682522965
 31
0.0
  0
LINE
  5
1150
330
2
100
AcDbEntity
  8
0
100
AcDbLine
 10
357.7509363522824
 20
88.34381714825781
 30
0.0
 11
357.7509363522806
 21
96.95817650220238
 31
0.0
  0
LINE
  5
1151
330
2
100
AcDbEntity
  8
0
100
AcDbLine
 10
358.150936352282
 20
87.65099682523009
 30
0.0
 11
358.150936352282
 21
97.65099682523009
 31
0.0
  0
LINE
  5
1152
330
2
100
AcDbEntity
  8
0
100
AcDbLine
 10
358.150936352282
 20
87.65099682523009
 30
0.0
 11
357.7509363522824
 21
88.34381714825781
 31
0.0
  0
LINE
  5
1153
330
2
100
AcDbEntity
  8
0
100
AcDbLine
 10
358.150936352282
 20
97.65099682523009
 30
0.0
 11
357.7509363522824
 21
96.95817650220238
 31
0.0
  0
LINE
  5
1154
330
2
100
AcDbEntity
  8
0
100
AcDbLine
 10
363.7509363522806
 20
87.65099682523009
 30
0.0
 11
365.2509363522806
 21
87.65099682523009
 31
0.0
  0
LINE
  5
1155
330
2
100
AcDbEntity
  8
0
100
AcDbLine
 10
363.7509363522806
 20
97.65099682523009
 30
0.0
 11
365.2509363522806
 21
97.65099682523009
 31
0.0
  0
LINE
  5
1156
330
2
100
AcDbEntity
  8
HIDS
  6
SEKKEI_H
100
AcDbLine
 10
361.7509363522788
 20
97.65099682523009
 30
0.0
 11
361.7509363522788
 21
94.47942394999541
 31
0.0
  0
LINE
  5
1157
330
2
100
AcDbEntity
  8
0
100
AcDbLine
 10
351.2509448063212
 20
141.648043254256
 30
0.0
 11
351.2509448063212
 21
112.6480432542559
 31
0.0
  0
LINE
  5
1158
330
2
100
AcDbEntity
  8
0
100
AcDbLine
 10
470.2509363522806
 20
141.6509508252491
 30
0.0
 11
470.2509363522806
 21
112.6509508252486
 31
0.0
  0
LINE
  5
1159
330
2
100
AcDbEntity
  8
0
100
AcDbLine
 10
443.2509363522806
 20
136.6509508252486
 30
0.0
 11
443.2509363522806
 21
117.6509508252486
 31
0.0
  0
LINE
  5
115A
330
2
100
AcDbEntity
  8
CENTER
  6
CENS
100
AcDbLine
 10
462.2509363522806
 20
132.9149277835788
 30
0.0
 11
462.2509363522806
 21
146.4192484263074
 31
0.0
  0
LINE
  5
115B
330
2
100
AcDbEntity
  8
0
100
AcDbLine
 10
447.0804734733485
 20
112.6509508252486
 30
0.0
 11
470.2509363522806
 21
112.6509508252486
 31
0.0
  0
LINE
  5
115C
330
2
100
AcDbEntity
  8
0
100
AcDbLine
 10
365.3931788489592
 20
112.6480432542559
 30
0.0
 11
351.2509448063212
 21
112.6480432542559
 31
0.0
  0
LINE
  5
115D
330
2
100
AcDbEntity
  8
0
100
AcDbLine
 10
351.2509448063212
 20
138.9509508252488
 30
0.0
 11
470.2509363522806
 21
138.9509508252488
 31
0.0
  0
LINE
  5
115E
330
2
100
AcDbEntity
  8
0
100
AcDbLine
 10
443.2509363522806
 20
118.150950825249
 30
0.0
 11
453.2509363522806
 21
118.150950825249
 31
0.0
  0
LINE
  5
115F
330
2
100
AcDbEntity
  8
0
100
AcDbLine
 10
443.2509363522806
 20
136.1509508252486
 30
0.0
 11
453.2509363522806
 21
136.1509508252486
 31
0.0
  0
LINE
  5
1160
330
2
100
AcDbEntity
  8
0
100
AcDbLine
 10
447.0804450018061
 20
141.6509508252491
 30
0.0
 11
470.2509363522806
 21
141.6509508252491
 31
0.0
  0
LINE
  5
1161
330
2
100
AcDbEntity
  8
0
100
AcDbLine
 10
459.2509363522806
 20
136.6509508252486
 30
0.0
 11
465.2509363522806
 21
136.6509508252486
 31
0.0
  0
LINE
  5
1162
330
2
100
AcDbEntity
  8
0
100
AcDbLine
 10
459.2509363522806
 20
117.650950825249
 30
0.0
 11
465.2509363522806
 21
117.650950825249
 31
0.0
  0
LINE
  5
1163
330
2
100
AcDbEntity
  8
0
100
AcDbLine
 10
465.2509363522806
 20
117.650950825249
 30
0.0
 11
465.2509363522806
 21
136.6509508252486
 31
0.0
  0
LINE
  5
1164
330
2
100
AcDbEntity
  8
0
100
AcDbLine
 10
468.2509363522806
 20
136.1509508252486
 30
0.0
 11
468.2509363522824
 21
118.1509508252495
 31
0.0
  0
LINE
  5
1165
330
2
100
AcDbEntity
  8
0
100
AcDbLine
 10
470.2509363522824
 20
116.9962502868704
 30
0.0
 11
468.2509363522824
 21
118.1509508252495
 31
0.0
  0
LINE
  5
1166
330
2
100
AcDbEntity
  8
0
100
AcDbLine
 10
465.2509363522806
 20
118.150950825249
 30
0.0
 11
468.2509363522806
 21
118.150950825249
 31
0.0
  0
LINE
  5
1167
330
2
100
AcDbEntity
  8
0
100
AcDbLine
 10
470.2509363522806
 20
137.3056513636277
 30
0.0
 11
468.2509363522806
 21
136.1509508252486
 31
0.0
  0
LINE
  5
1168
330
2
100
AcDbEntity
  8
0
100
AcDbLine
 10
465.2509363522806
 20
136.1509508252486
 30
0.0
 11
468.2509363522806
 21
136.1509508252486
 31
0.0
  0
LINE
  5
1169
330
2
100
AcDbEntity
  8
0
100
AcDbLine
 10
459.2509363522806
 20
117.650950825249
 30
0.0
 11
459.2509363522806
 21
136.6509508252486
 31
0.0
  0
LINE
  5
116A
330
2
100
AcDbEntity
  8
0
100
AcDbLine
 10
454.400936352282
 20
136.6509508252486
 30
0.0
 11
454.400936352282
 21
117.6509508252486
 31
0.0
  0
LINE
  5
116B
330
2
100
AcDbEntity
  8
0
100
AcDbLine
 10
453.2509363522806
 20
136.6509508252486
 30
0.0
 11
453.2509363522806
 21
117.6509508252486
 31
0.0
  0
LINE
  5
116C
330
2
100
AcDbEntity
  8
0
100
AcDbLine
 10
454.400936352282
 20
118.150950825249
 30
0.0
 11
459.2509363522806
 21
118.1509508252486
 31
0.0
  0
LINE
  5
116D
330
2
100
AcDbEntity
  8
0
100
AcDbLine
 10
454.400936352282
 20
136.1509508252486
 30
0.0
 11
459.2509363522806
 21
136.1509508252486
 31
0.0
  0
LINE
  5
116E
330
2
100
AcDbEntity
  8
0
100
AcDbLine
 10
439.2509363522806
 20
142.1509508252486
 30
0.0
 11
439.2509363522806
 21
141.6509508252486
 31
0.0
  0
LINE
  5
116F
330
2
100
AcDbEntity
  8
0
100
AcDbLine
 10
439.2509363522806
 20
112.6509508252486
 30
0.0
 11
439.2509363522806
 21
112.1509508252486
 31
0.0
  0
LINE
  5
1170
330
2
100
AcDbEntity
  8
0
100
AcDbLine
 10
365.3984543253721
 20
141.648043254256
 30
0.0
 11
351.2509448063212
 21
141.648043254256
 31
0.0
  0
LINE
  5
1171
330
2
100
AcDbEntity
  8
0
100
AcDbLine
 10
374.2509448063212
 20
136.6509508252486
 30
0.0
 11
374.2509448063212
 21
117.6509508252486
 31
0.0
  0
LINE
  5
1172
330
2
100
AcDbEntity
  8
0
100
AcDbLine
 10
353.2509448063212
 20
136.1509968252488
 30
0.0
 11
353.2509448063212
 21
118.1509968252487
 31
0.0
  0
LINE
  5
1173
330
2
100
AcDbEntity
  8
0
100
AcDbLine
 10
362.1009448063216
 20
136.648043254256
 30
0.0
 11
362.1009448063216
 21
117.6480432542559
 31
0.0
  0
LINE
  5
1174
330
2
100
AcDbEntity
  8
0
100
AcDbLine
 10
363.2509448063212
 20
136.648043254256
 30
0.0
 11
363.2509448063212
 21
117.6480432542559
 31
0.0
  0
LINE
  5
1175
330
2
100
AcDbEntity
  8
0
100
AcDbLine
 10
353.2509448063212
 20
118.1509968252487
 30
0.0
 11
351.2509448063212
 21
116.9962962868696
 31
0.0
  0
LINE
  5
1176
330
2
100
AcDbEntity
  8
0
100
AcDbLine
 10
353.2509448063212
 20
136.1509968252488
 30
0.0
 11
351.2509448063212
 21
137.3056973636278
 31
0.0
  0
LINE
  5
1177
330
2
100
AcDbEntity
  8
0
100
AcDbLine
 10
464.3009363517651
 20
138.9509508252488
 30
0.0
 11
464.3009363517651
 21
141.6509508252491
 31
0.0
  0
LINE
  5
1178
330
2
100
AcDbEntity
  8
0
100
AcDbLine
 10
460.2009363527979
 20
138.9509508252488
 30
0.0
 11
460.2009363527979
 21
141.6509508252491
 31
0.0
  0
LINE
  5
1179
330
2
100
AcDbEntity
  8
HOJO
100
AcDbLine
 10
464.7509363522806
 20
138.9509508252488
 30
0.0
 11
464.7509363522806
 21
141.6509508252491
 31
0.0
  0
LINE
  5
117A
330
2
100
AcDbEntity
  8
HOJO
100
AcDbLine
 10
459.7509363522842
 20
138.9509508252488
 30
0.0
 11
459.7509363522842
 21
141.6509508252491
 31
0.0
  0
LINE
  5
117B
330
2
100
AcDbEntity
  8
0
100
AcDbLine
 10
453.2509363522806
 20
136.6509508252486
 30
0.0
 11
454.400936352282
 21
136.6509508252486
 31
0.0
  0
LINE
  5
117C
330
2
100
AcDbEntity
  8
0
100
AcDbLine
 10
453.2509363522806
 20
117.6509508252486
 30
0.0
 11
454.400936352282
 21
117.6509508252486
 31
0.0
  0
LINE
  5
117D
330
2
100
AcDbEntity
  8
0
100
AcDbLine
 10
362.1009448063216
 20
136.648043254256
 30
0.0
 11
363.2509448063212
 21
136.648043254256
 31
0.0
  0
LINE
  5
117E
330
2
100
AcDbEntity
  8
0
100
AcDbLine
 10
362.1009448063216
 20
117.6480432542559
 30
0.0
 11
363.2509448063212
 21
117.6480432542559
 31
0.0
  0
LINE
  5
117F
330
2
100
AcDbEntity
  8
0
100
AcDbLine
 10
374.2509448063212
 20
136.6509508252486
 30
0.0
 11
443.2509363522806
 21
136.6509508252486
 31
0.0
  0
LINE
  5
1180
330
2
100
AcDbEntity
  8
0
100
AcDbLine
 10
443.2509363522806
 20
117.6509508252486
 30
0.0
 11
374.2509448063212
 21
117.6509508252486
 31
0.0
  0
LINE
  5
1181
330
2
100
AcDbEntity
  8
0
100
AcDbLine
 10
374.2509448063212
 20
136.1509968252488
 30
0.0
 11
363.2509448063212
 21
136.1509968252488
 31
0.0
  0
LINE
  5
1182
330
2
100
AcDbEntity
  8
0
100
AcDbLine
 10
374.2509448063212
 20
118.1509968252487
 30
0.0
 11
363.2509448063212
 21
118.1509968252487
 31
0.0
  0
LINE
  5
1183
330
2
100
AcDbEntity
  8
0
100
AcDbLine
 10
362.1009448063216
 20
136.1509968252488
 30
0.0
 11
353.2509448063212
 21
136.1509968252488
 31
0.0
  0
LINE
  5
1184
330
2
100
AcDbEntity
  8
0
100
AcDbLine
 10
362.1009448063216
 20
118.1509968252487
 30
0.0
 11
353.2509448063212
 21
118.1509968252487
 31
0.0
  0
LINE
  5
1185
330
2
100
AcDbEntity
  8
0
100
AcDbLine
 10
456.2509363522824
 20
104.1509968252487
 30
0.0
 11
456.2509363522824
 21
112.6509508252486
 31
0.0
  0
LINE
  5
1186
330
2
100
AcDbEntity
  8
0
100
AcDbLine
 10
456.2509363522824
 20
141.6509508252491
 30
0.0
 11
456.2509363522824
 21
150.1509968252478
 31
0.0
  0
LINE
  5
1187
330
2
100
AcDbEntity
  8
0
100
AcDbLine
 10
448.2509363522824
 20
103.8866701193721
 30
0.0
 11
448.2509363522824
 21
112.6509508252486
 31
0.0
  0
LINE
  5
1188
330
2
100
AcDbEntity
  8
0
100
AcDbLine
 10
448.2509363522824
 20
141.6509508252491
 30
0.0
 11
448.2509363522824
 21
150.4153235311253
 31
0.0
  0
LINE
  5
1189
330
2
100
AcDbEntity
  8
0
100
AcDbLine
 10
456.2509363522824
 20
104.1509968252487
 30
0.0
 11
448.2509363522824
 21
104.1509968252487
 31
0.0
  0
LINE
  5
118A
330
2
100
AcDbEntity
  8
0
100
AcDbLine
 10
456.2509363522824
 20
104.1509968252487
 30
0.0
 11
457.2509363522824
 21
103.5736465560592
 31
0.0
  0
LINE
  5
118B
330
2
100
AcDbEntity
  8
0
100
AcDbLine
 10
448.2509363522824
 20
103.8866701193721
 30
0.0
 11
447.2600241360053
 21
103.8607221697946
 31
0.0
  0
LINE
  5
118C
330
2
100
AcDbEntity
  8
0
100
AcDbLine
 10
456.2509363522824
 20
150.1509968252478
 30
0.0
 11
448.2509363522824
 21
150.1509968252478
 31
0.0
  0
LINE
  5
118D
330
2
100
AcDbEntity
  8
0
100
AcDbLine
 10
456.2509363522824
 20
150.1509968252487
 30
0.0
 11
457.2509363522824
 21
150.7283470944378
 31
0.0
  0
LINE
  5
118E
330
2
100
AcDbEntity
  8
0
100
AcDbLine
 10
448.2509363522824
 20
150.4153235311253
 30
0.0
 11
447.2600241359852
 21
150.4412714807033
 31
0.0
  0
SPLINE
  5
118F
330
2
100
AcDbEntity
  8
HOJO
100
AcDbSpline
210
0.0
220
0.0
230
1.0
 70
     8
 71
     3
 72
    30
 73
    26
 74
     0
 42
0.0000000001
 43
0.0000000001
 40
0.5016654732119501
 40
0.5016654732119501
 40
0.5016654732119501
 40
0.5016654732119501
 40
2.680955593237801
 40
6.481103170843645
 40
9.861715666174537
 40
12.67866478189151
 40
16.05777144949662
 40
20.04695970870067
 40
22.66457515320929
 40
29.72623868189037
 40
37.99790621919433
 40
46.99071548625449
 40
54.49076198617444
 40
61.82498628838093
 40
69.45839622923616
 40
80.97138657320707
 40
88.08160211842633
 40
97.70908643514403
 40
100.9862254185234
 40
104.809996963859
 40
108.9004570007386
 40
112.9568108017827
 40
116.4247884416666
 40
119.9571556713895
 40
122.4205000303466
 40
122.4205000303466
 40
122.4205000303466
 40
122.4205000303466
 10
353.2509363522787
 20
152.5267920612198
 30
0.0
 10
353.9101487979789
 20
152.1879372539804
 30
0.0
 10
355.7281530999446
 20
151.3259637134227
 30
0.0
 10
358.7871719404649
 20
151.531967613462
 30
0.0
 10
362.6856152717103
 20
151.833640799229
 30
0.0
 10
363.8065769278803
 20
148.2815306999794
 30
0.0
 10
363.9472311547435
 20
145.1035007770099
 30
0.0
 10
364.8361160492024
 20
141.4860910274699
 30
0.0
 10
369.2963124694399
 20
139.4859639743747
 30
0.0
 10
375.3306816614188
 20
141.1003907761326
 30
0.0
 10
383.4229176246756
 20
139.4778246974113
 30
0.0
 10
391.6314189653114
 20
141.8478544234615
 30
0.0
 10
399.5341455922901
 20
139.5896832170622
 30
0.0
 10
406.9836917236536
 20
141.7475814589873
 30
0.0
 10
415.7599240981019
 20
139.3847371110894
 30
0.0
 10
424.5083047410519
 20
141.8982578538737
 30
0.0
 10
433.9215228069244
 20
139.0547993697094
 30
0.0
 10
440.2725097933783
 20
142.1117325236276
 30
0.0
 10
446.4185728290706
 20
138.9085737033381
 30
0.0
 10
447.9148439975817
 20
143.9494097565055
 30
0.0
 10
446.0132743420619
 20
147.286306144362
 30
0.0
 10
447.3990893442153
 20
151.8567091149082
 30
0.0
 10
451.4467020806189
 20
152.361068712308
 30
0.0
 10
454.5627972641944
 20
152.0355957813024
 30
0.0
 10
456.470837380237
 20
152.6270597293508
 30
0.0
 10
457.2509363522824
 20
152.9161359410284
 30
0.0
  0
SPLINE
  5
1190
330
2
100
AcDbEntity
  8
HOJO
100
AcDbSpline
210
0.0
220
0.0
230
1.0
 70
     8
 71
     3
 72
    30
 73
    26
 74
     0
 42
0.0000000001
 43
0.0000000001
 40
0.5016654732119501
 40
0.5016654732119501
 40
0.5016654732119501
 40
0.5016654732119501
 40
2.680955593237801
 40
6.481103170843645
 40
9.861715666174537
 40
12.67866478189151
 40
16.05777144949662
 40
20.04695970870067
 40
22.66457515320929
 40
29.72623868189037
 40
37.99790621919433
 40
46.99071548625449
 40
54.49076198617444
 40
61.82498628838093
 40
69.45839622923616
 40
80.97138657320707
 40
88.08160211842633
 40
97.70908643514403
 40
100.9862254185234
 40
104.809996963859
 40
108.9004570007386
 40
112.9568108017827
 40
116.4247884416666
 40
119.9571556713895
 40
122.4205000303466
 40
122.4205000303466
 40
122.4205000303466
 40
122.4205000303466
 10
353.2509363522787
 20
101.7752015892777
 30
0.0
 10
353.9101487979789
 20
102.1140563965171
 30
0.0
 10
355.7281530999446
 20
102.9760299370748
 30
0.0
 10
358.7871719404649
 20
102.7700260370355
 30
0.0
 10
362.6856152717103
 20
102.4683528512685
 30
0.0
 10
363.8065769278803
 20
106.0204629505181
 30
0.0
 10
363.9472311547435
 20
109.1984928734876
 30
0.0
 10
364.8361160492024
 20
112.8159026230276
 30
0.0
 10
369.2963124694399
 20
114.8160296761228
 30
0.0
 10
375.3306816614188
 20
113.2016028743649
 30
0.0
 10
383.4229176246756
 20
114.8241689530862
 30
0.0
 10
391.6314189653114
 20
112.454139227036
 30
0.0
 10
399.5341455922901
 20
114.7123104334353
 30
0.0
 10
406.9836917236536
 20
112.5544121915102
 30
0.0
 10
415.7599240981019
 20
114.9172565394081
 30
0.0
 10
424.5083047410519
 20
112.4037357966238
 30
0.0
 10
433.9215228069244
 20
115.2471942807881
 30
0.0
 10
440.2725097933783
 20
112.1902611268699
 30
0.0
 10
446.4185728290706
 20
115.3934199471594
 30
0.0
 10
447.9148439975817
 20
110.352583893992
 30
0.0
 10
446.0132743420619
 20
107.0156875061355
 30
0.0
 10
447.3990893442153
 20
102.4452845355893
 30
0.0
 10
451.4467020806189
 20
101.9409249381895
 30
0.0
 10
454.5627972641944
 20
102.2663978691951
 30
0.0
 10
456.470837380237
 20
101.6749339211467
 30
0.0
 10
457.2509363522824
 20
101.3858577094691
 30
0.0
  0
LINE
  5
1191
330
2
100
AcDbEntity
  8
0
100
AcDbLine
 10
362.2509363522788
 20
112.6539503962415
 30
0.0
 11
362.2509363522788
 21
103.76883347231
 31
0.0
  0
LINE
  5
1192
330
2
100
AcDbEntity
  8
0
100
AcDbLine
 10
456.2509363522806
 20
150.1509968252478
 30
0.0
 11
448.2509363522824
 21
141.6509508252491
 31
0.0
  0
LINE
  5
1193
330
2
100
AcDbEntity
  8
0
100
AcDbLine
 10
448.2509363522824
 20
150.1509968252478
 30
0.0
 11
456.2509363522824
 21
141.6509508252491
 31
0.0
  0
LINE
  5
1194
330
2
100
AcDbEntity
  8
0
100
AcDbLine
 10
456.2509363522824
 20
112.6509508252486
 30
0.0
 11
448.2509363522824
 21
104.1509968252487
 31
0.0
  0
LINE
  5
1195
330
2
100
AcDbEntity
  8
0
100
AcDbLine
 10
448.2509363522824
 20
112.6509508252486
 30
0.0
 11
456.2509363522824
 21
104.1509968252487
 31
0.0
  0
LINE
  5
1196
330
2
100
AcDbEntity
  8
0
100
AcDbLine
 10
362.2509363522788
 20
112.6480432542559
 30
0.0
 11
354.2509363522788
 21
104.1509968252487
 31
0.0
  0
LINE
  5
1197
330
2
100
AcDbEntity
  8
0
100
AcDbLine
 10
354.2509363522788
 20
112.6480432542559
 30
0.0
 11
362.2509363522788
 21
104.1509968252487
 31
0.0
  0
LINE
  5
1198
330
2
100
AcDbEntity
  8
0
100
AcDbLine
 10
354.2509363522788
 20
150.1509968252478
 30
0.0
 11
362.2509363522788
 21
141.648043254256
 31
0.0
  0
LINE
  5
1199
330
2
100
AcDbEntity
  8
0
100
AcDbLine
 10
362.2509363522788
 20
150.1509968252487
 30
0.0
 11
354.2509363522788
 21
141.648043254256
 31
0.0
  0
LINE
  5
119A
330
2
100
AcDbEntity
  8
0
100
AcDbLine
 10
306.1656398130464
 20
371.6983334183376
 30
0.0
 11
306.1656398130464
 21
342.6983334183376
 31
0.0
  0
LINE
  5
119B
330
2
100
AcDbEntity
  8
0
100
AcDbLine
 10
425.1656313590067
 20
371.7012409893307
 30
0.0
 11
425.1656313590067
 21
342.7012409893303
 31
0.0
  0
LINE
  5
119C
330
2
100
AcDbEntity
  8
0
100
AcDbLine
 10
412.1656313590058
 20
342.7012409893303
 30
0.0
 11
425.1656313590067
 21
342.7012409893303
 31
0.0
  0
LINE
  5
119D
330
2
100
AcDbEntity
  8
0
100
AcDbLine
 10
308.165631359004
 20
342.6983334183376
 30
0.0
 11
306.1656398130464
 21
342.6983334183376
 31
0.0
  0
LINE
  5
119E
330
2
100
AcDbEntity
  8
0
100
AcDbLine
 10
412.1656313590076
 20
371.7012409893307
 30
0.0
 11
425.1656313590067
 21
371.7012409893307
 31
0.0
  0
LINE
  5
119F
330
2
100
AcDbEntity
  8
0
100
AcDbLine
 10
308.165631359004
 20
371.6983334183376
 30
0.0
 11
306.1656398130464
 21
371.6983334183376
 31
0.0
  0
CIRCLE
  5
11A0
330
2
100
AcDbEntity
  8
0
100
AcDbCircle
 10
417.1656313590067
 20
357.2012409893303
 30
0.0
 40
2.049999999999999
  0
CIRCLE
  5
11A1
330
2
100
AcDbEntity
  8
HOJO
100
AcDbCircle
 10
417.1656313590067
 20
357.201291203947
 30
0.0
 40
2.5
  0
LINE
  5
11A2
330
2
100
AcDbEntity
  8
CENTER
100
AcDbLine
 10
417.1656313590058
 20
362.3027593740729
 30
0.0
 11
417.1656313590058
 21
352.0998146045879
 31
0.0
  0
LINE
  5
11A3
330
2
100
AcDbEntity
  8
0
100
AcDbLine
 10
558.6416577916891
 20
677.0985460614345
 30
0.0
 11
587.6416577916891
 21
677.0985460614345
 31
0.0
  0
LINE
  5
11A4
330
2
100
AcDbEntity
  8
0
100
AcDbLine
 10
558.6387502206955
 20
558.0985545154747
 30
0.0
 11
587.6387502206965
 21
558.0985545154747
 31
0.0
  0
LINE
  5
11A5
330
2
100
AcDbEntity
  8
0
100
AcDbLine
 10
587.6387502206965
 20
571.0985545154755
 30
0.0
 11
587.6387502206965
 21
558.0985545154747
 31
0.0
  0
LINE
  5
11A6
330
2
100
AcDbEntity
  8
0
100
AcDbLine
 10
587.6416577916891
 20
675.0985545154769
 30
0.0
 11
587.6416577916891
 21
677.0985460614345
 31
0.0
  0
LINE
  5
11A7
330
2
100
AcDbEntity
  8
0
100
AcDbLine
 10
558.6387502206955
 20
571.0985545154742
 30
0.0
 11
558.6387502206955
 21
558.0985545154747
 31
0.0
  0
LINE
  5
11A8
330
2
100
AcDbEntity
  8
0
100
AcDbLine
 10
558.6416577916891
 20
675.0985545154769
 30
0.0
 11
558.6416577916891
 21
677.0985460614345
 31
0.0
  0
CIRCLE
  5
11A9
330
2
100
AcDbEntity
  8
0
100
AcDbCircle
 10
573.1387502206964
 20
566.0985545154747
 30
0.0
 40
2.049999999999999
  0
CIRCLE
  5
11AA
330
2
100
AcDbEntity
  8
HOJO
100
AcDbCircle
 10
573.1387000060797
 20
566.0985545154747
 30
0.0
 40
2.5
  0
LINE
  5
11AB
330
2
100
AcDbEntity
  8
CENTER
100
AcDbLine
 10
568.0372318359543
 20
566.0985545154756
 30
0.0
 11
578.2401766054383
 21
566.0985545154756
 31
0.0
  0
ARC
  5
11AC
330
2
100
AcDbEntity
  8
0
100
AcDbCircle
 10
573.1387042206927
 20
357.2012869893445
 30
0.0
 40
8.999999999999982
100
AcDbArc
 50
109.4712206344713
 51
70.52877936552867
  0
LINE
  5
11AD
330
2
100
AcDbEntity
  8
0
100
AcDbLine
 10
570.1387042206927
 20
369.0012869893446
 30
0.0
 11
576.1387042206926
 21
369.0012869893446
 31
0.0
  0
LINE
  5
11AE
330
2
100
AcDbEntity
  8
0
100
AcDbLine
 10
570.1387042206927
 20
369.0012869893446
 30
0.0
 11
570.1387042206927
 21
365.6865683635831
 31
0.0
  0
LINE
  5
11AF
330
2
100
AcDbEntity
  8
0
100
AcDbLine
 10
576.1387042206926
 20
369.0012869893446
 30
0.0
 11
576.1387042206936
 21
365.6865683635826
 31
0.0
  0
CIRCLE
  5
11B0
330
2
100
AcDbEntity
  8
0
100
AcDbCircle
 10
573.1387042206927
 20
357.2012869893449
 30
0.0
 40
14.4999539999859
  0
ARC
  5
11B1
330
2
100
AcDbEntity
  8
0
100
AcDbCircle
 10
573.1387042207036
 20
357.2012869893558
 30
0.0
 40
10.15465453835361
100
AcDbArc
 50
107.1833853173834
 51
72.81661468272726
  0
ARC
  5
11B2
330
2
100
AcDbEntity
  8
0
100
AcDbCircle
 10
189.4177387315769
 20
357.2012869893513
 30
0.0
 40
8.999999999999982
100
AcDbArc
 50
109.4712206344713
 51
70.52877936552867
  0
LINE
  5
11B3
330
2
100
AcDbEntity
  8
0
100
AcDbLine
 10
186.4177387315769
 20
369.0012869893515
 30
0.0
 11
192.4177387315769
 21
369.0012869893515
 31
0.0
  0
LINE
  5
11B4
330
2
100
AcDbEntity
  8
0
100
AcDbLine
 10
186.4177387315769
 20
369.0012869893515
 30
0.0
 11
186.4177387315769
 21
365.6865683635899
 31
0.0
  0
LINE
  5
11B5
330
2
100
AcDbEntity
  8
0
100
AcDbLine
 10
192.4177387315769
 20
369.0012869893515
 30
0.0
 11
192.4177387315778
 21
365.6865683635895
 31
0.0
  0
ARC
  5
11B6
330
2
100
AcDbEntity
  8
0
100
AcDbCircle
 10
189.4177387315878
 20
357.2012869893626
 30
0.0
 40
10.15465453835361
100
AcDbArc
 50
107.1833853173834
 51
72.81661468272726
  0
CIRCLE
  5
11B7
330
2
100
AcDbEntity
  8
0
100
AcDbCircle
 10
189.4177387315769
 20
357.2012869893518
 30
0.0
 40
14.4999539999859
  0
LINE
  5
11B9
330
2
100
AcDbEntity
  8
0
100
AcDbLine
 10
613.7236228276362
 20
655.5985545128139
 30
0.0
 11
613.9287042206963
 21
632.0985545154783
 31
0.0
  0
ARC
  5
11BA
330
2
100
AcDbEntity
  8
0
100
AcDbCircle
 10
616.8808206830046
 20
637.5985545154779
 30
0.0
 40
3.0
100
AcDbArc
 50
180.5000000000045
 51
270.0
  0
LINE
  5
11EE
330
2
100
AcDbEntity
  8
CENTER
100
AcDbLine
 10
984.8369327831326
 20
357.2012869893358
 30
0.0
 11
845.8369412371723
 21
357.2012869893358
 31
0.0
  0
LINE
  5
11EF
330
2
100
AcDbEntity
  8
CENTER
100
AcDbLine
 10
929.836941237176
 20
408.7012869893508
 30
0.0
 11
929.836941237176
 21
305.7012869893517
 31
0.0
  0
LINE
  5
11F0
330
2
100
AcDbEntity
  8
0
100
AcDbLine
 10
886.8369412371723
 20
397.6165868473697
 30
0.0
 11
886.8369412371706
 21
316.7859871313051
 31
0.0
  0
LINE
  5
11F1
330
2
100
AcDbEntity
  8
0
100
AcDbLine
 10
881.8369412371733
 20
392.2012869893308
 30
0.0
 11
881.8369412371733
 21
322.2012869893308
 31
0.0
  0
LINE
  5
11F2
330
2
100
AcDbEntity
  8
0
100
AcDbLine
 10
879.9067402305784
 20
385.5878528882988
 30
0.0
 11
870.7671422437691
 21
385.2686910937548
 31
0.0
  0
ARC
  5
11F3
330
2
100
AcDbEntity
  8
0
100
AcDbCircle
 10
879.8369412371732
 20
387.5866345423367
 30
0.0
 40
2.0
100
AcDbArc
 50
272.0000000000036
 51
0.0
  0
LINE
  5
11F4
330
2
100
AcDbEntity
  8
0
100
AcDbLine
 10
868.836941237175
 20
383.269909439716
 30
0.0
 11
868.8369412371732
 21
331.1326645389456
 31
0.0
  0
ARC
  5
11F5
330
2
100
AcDbEntity
  8
0
100
AcDbCircle
 10
870.8369412371732
 20
383.269909439716
 30
0.0
 40
2.0
100
AcDbArc
 50
92.00000000000365
 51
180.0
  0
ARC
  5
11F6
330
2
100
AcDbEntity
  8
0
100
AcDbCircle
 10
870.8369412371732
 20
331.1326645389456
 30
0.0
 40
2.0
100
AcDbArc
 50
180.0
 51
267.9999999999963
  0
LINE
  5
11F7
330
2
100
AcDbEntity
  8
0
100
AcDbLine
 10
879.9067402305784
 20
328.8147210903619
 30
0.0
 11
870.7671422437682
 21
329.1338828849069
 31
0.0
  0
ARC
  5
11F8
330
2
100
AcDbEntity
  8
0
100
AcDbCircle
 10
879.8369412371732
 20
326.8159394363231
 30
0.0
 40
2.0
100
AcDbArc
 50
0.0
 51
87.99999999999636
  0
LINE
  5
11F9
330
2
100
AcDbEntity
  8
0
100
AcDbLine
 10
965.8979123132596
 20
316.1410549293043
 30
0.0
 11
929.8369412371751
 21
315.7012869893518
 31
0.0
  0
LINE
  5
11FA
330
2
100
AcDbEntity
  8
0
100
AcDbLine
 10
893.7759701610897
 20
316.1410549293062
 30
0.0
 11
929.8369412371741
 21
315.7012869893518
 31
0.0
  0
LINE
  5
11FB
330
2
100
AcDbEntity
  8
0
100
AcDbLine
 10
893.7759701610897
 20
398.2615190493973
 30
0.0
 11
906.0242170663475
 21
398.4108879140959
 31
0.0
  0
ARC
  5
11FC
330
2
100
AcDbEntity
  8
0
100
AcDbCircle
 10
965.8369412371751
 20
393.2618908104316
 30
0.0
 40
5.0
100
AcDbArc
 50
44.50893050064553
 51
89.30130561700025
  0
ARC
  5
11FD
330
2
100
AcDbEntity
  8
0
100
AcDbCircle
 10
893.836941237175
 20
393.2618908104298
 30
0.0
 40
5.0
100
AcDbArc
 50
90.69869438299972
 51
135.4910694994468
  0
ARC
  5
11FE
330
2
100
AcDbEntity
  8
0
100
AcDbCircle
 10
893.836941237175
 20
321.1406831682737
 30
0.0
 40
5.0
100
AcDbArc
 50
224.5089305157256
 51
269.3013056170002
  0
ARC
  5
11FF
330
2
100
AcDbEntity
  8
0
100
AcDbCircle
 10
965.8369412371751
 20
321.1406831682718
 30
0.0
 40
5.0
100
AcDbArc
 50
270.6986943829997
 51
315.4910694841911
  0
LINE
  5
1200
330
2
100
AcDbEntity
  8
0
100
AcDbLine
 10
965.8979123132596
 20
398.2615190493991
 30
0.0
 11
929.8369412371751
 21
398.7012869893508
 31
0.0
  0
LINE
  5
1201
330
2
100
AcDbEntity
  8
0
100
AcDbLine
 10
891.4527917488278
 20
316.745705214152
 30
0.0
 11
886.8369412371706
 21
316.7859871313051
 31
0.0
  0
LINE
  5
1202
330
2
100
AcDbEntity
  8
0
100
AcDbLine
 10
891.4527917487824
 20
397.6568687645261
 30
0.0
 11
886.8369412371723
 21
397.6165868473697
 31
0.0
  0
LINE
  5
1203
330
2
100
AcDbEntity
  8
0
100
AcDbLine
 10
886.8369412371732
 20
392.2012869893308
 30
0.0
 11
881.8369412371733
 21
392.2012869893308
 31
0.0
  0
LINE
  5
1204
330
2
100
AcDbEntity
  8
0
100
AcDbLine
 10
886.8369412371732
 20
322.2012869893308
 30
0.0
 11
881.8369412371733
 21
322.2012869893308
 31
0.0
  0
LINE
  5
1205
330
2
100
AcDbEntity
  8
0
100
AcDbLine
 10
971.8369412371679
 20
383.701286989334
 30
0.0
 11
971.0137705054661
 21
383.701286989334
 31
0.0
  0
LINE
  5
1206
330
2
100
AcDbEntity
  8
0
100
AcDbLine
 10
971.836941237167
 20
383.701286989334
 30
0.0
 11
972.8369412371678
 21
383.1239367201445
 31
0.0
  0
LINE
  5
1207
330
2
100
AcDbEntity
  8
0
100
AcDbLine
 10
972.8369412371714
 20
331.278637258524
 30
0.0
 11
972.8369412371714
 21
383.1239367201417
 31
0.0
  0
LINE
  5
1208
330
2
100
AcDbEntity
  8
0
100
AcDbLine
 10
971.836941237167
 20
330.7012869893322
 30
0.0
 11
972.8369412371678
 21
331.2786372585222
 31
0.0
  0
LINE
  5
1209
330
2
100
AcDbEntity
  8
0
100
AcDbLine
 10
971.8369412371679
 20
330.7012869893322
 30
0.0
 11
971.0137705054664
 21
330.7012869893324
 31
0.0
  0
LINE
  5
120A
330
2
100
AcDbEntity
  8
0
100
AcDbLine
 10
971.8369412371679
 20
330.7012869893322
 30
0.0
 11
971.836941237167
 21
383.701286989334
 31
0.0
  0
LINE
  5
120B
330
2
100
AcDbEntity
  8
0
100
AcDbLine
 10
974.8369327831326
 20
371.6983334183431
 30
0.0
 11
974.8369327831326
 21
342.6983334183431
 31
0.0
  0
LINE
  5
120C
330
2
100
AcDbEntity
  8
0
100
AcDbLine
 10
855.8369412371723
 20
371.7012409893362
 30
0.0
 11
855.8369412371723
 21
342.7012409893357
 31
0.0
  0
LINE
  5
120D
330
2
100
AcDbEntity
  8
0
100
AcDbLine
 10
868.8369412371732
 20
342.7012409893357
 30
0.0
 11
855.8369412371723
 21
342.7012409893357
 31
0.0
  0
LINE
  5
120E
330
2
100
AcDbEntity
  8
0
100
AcDbLine
 10
972.8369412371751
 20
342.6983334183431
 30
0.0
 11
974.8369327831326
 21
342.6983334183431
 31
0.0
  0
LINE
  5
120F
330
2
100
AcDbEntity
  8
0
100
AcDbLine
 10
868.8369412371715
 20
371.7012409893362
 30
0.0
 11
855.8369412371723
 21
371.7012409893362
 31
0.0
  0
LINE
  5
1210
330
2
100
AcDbEntity
  8
0
100
AcDbLine
 10
972.8369412371751
 20
371.6983334183431
 30
0.0
 11
974.8369327831326
 21
371.6983334183431
 31
0.0
  0
LINE
  5
1211
330
2
100
AcDbEntity
  8
0
100
AcDbLine
 10
667.1387042163271
 20
661.7485545154786
 30
0.0
 11
667.1387042163289
 21
602.4485545154784
 31
0.0
  0
LINE
  5
1212
330
2
100
AcDbEntity
  8
0
100
AcDbLine
 10
689.1387042163271
 20
629.0985545154785
 30
0.0
 11
689.1387042163271
 21
610.0985545154785
 31
0.0
  0
LINE
  5
1213
330
2
100
AcDbEntity
  8
0
100
AcDbLine
 10
692.1387042163271
 20
632.0985545154785
 30
0.0
 11
700.1387042163253
 21
632.0985545154785
 31
0.0
  0
LINE
  5
1214
330
2
100
AcDbEntity
  8
0
100
AcDbLine
 10
668.7442554917918
 20
672.0985545154785
 30
0.0
 11
713.1387042163253
 21
672.0985545154785
 31
0.0
  0
LINE
  5
1215
330
2
100
AcDbEntity
  8
0
100
AcDbLine
 10
703.1387042163252
 20
667.0985545154785
 30
0.0
 11
703.1387042163252
 21
635.0985545154785
 31
0.0
  0
ARC
  5
1216
330
2
100
AcDbEntity
  8
0
100
AcDbCircle
 10
708.1387042163253
 20
667.0985545154785
 30
0.0
 40
5.0
100
AcDbArc
 50
90.0
 51
180.0
  0
ARC
  5
1217
330
2
100
AcDbEntity
  8
0
100
AcDbCircle
 10
700.1387042163253
 20
635.0985545154785
 30
0.0
 40
3.0
100
AcDbArc
 50
270.0
 51
0.0
  0
LINE
  5
1218
330
2
100
AcDbEntity
  8
0
100
AcDbLine
 10
658.1387042163271
 20
673.0985545154785
 30
0.0
 11
665.1387042163289
 21
673.0985545154785
 31
0.0
  0
ARC
  5
1219
330
2
100
AcDbEntity
  8
0
100
AcDbCircle
 10
668.7442554917918
 20
677.0985545154785
 30
0.0
 40
5.0
100
AcDbArc
 50
238.9972808660707
 51
270.0
  0
ARC
  5
121A
330
2
100
AcDbEntity
  8
0
100
AcDbCircle
 10
665.1387042163289
 20
671.0985545154785
 30
0.0
 40
2.0
100
AcDbArc
 50
18.96557498886414
 51
90.0
  0
ARC
  5
121B
330
2
100
AcDbEntity
  8
0
100
AcDbCircle
 10
692.1387042163271
 20
629.0985545154785
 30
0.0
 40
3.0
100
AcDbArc
 50
90.0
 51
180.0
  0
LINE
  5
121C
330
2
100
AcDbEntity
  8
0
100
AcDbLine
 10
668.7442554917918
 20
592.0985545154785
 30
0.0
 11
713.1387042163253
 21
592.0985545154783
 31
0.0
  0
LINE
  5
121D
330
2
100
AcDbEntity
  8
0
100
AcDbLine
 10
692.1387042163271
 20
607.0985545154785
 30
0.0
 11
700.1387042163253
 21
607.0985545154785
 31
0.0
  0
LINE
  5
121E
330
2
100
AcDbEntity
  8
0
100
AcDbLine
 10
703.1387042163252
 20
604.0985545154785
 30
0.0
 11
703.1387042163252
 21
597.0985545154783
 31
0.0
  0
ARC
  5
121F
330
2
100
AcDbEntity
  8
0
100
AcDbCircle
 10
700.1387042163253
 20
604.0985545154785
 30
0.0
 40
3.0
100
AcDbArc
 50
0.0
 51
90.0
  0
ARC
  5
1220
330
2
100
AcDbEntity
  8
0
100
AcDbCircle
 10
708.1387042163253
 20
597.0985545154785
 30
0.0
 40
5.0
100
AcDbArc
 50
180.0
 51
270.0
  0
ARC
  5
1221
330
2
100
AcDbEntity
  8
0
100
AcDbCircle
 10
692.1387042163271
 20
610.0985545154785
 30
0.0
 40
3.0
100
AcDbArc
 50
180.0
 51
270.0
  0
LINE
  5
1222
330
2
100
AcDbEntity
  8
0
100
AcDbLine
 10
658.1387042163271
 20
591.0985545154783
 30
0.0
 11
665.1387042163289
 21
591.0985545154785
 31
0.0
  0
ARC
  5
1223
330
2
100
AcDbEntity
  8
0
100
AcDbCircle
 10
668.7442554917918
 20
587.0985545154785
 30
0.0
 40
5.0
100
AcDbArc
 50
90.0
 51
121.0027191339292
  0
ARC
  5
1224
330
2
100
AcDbEntity
  8
0
100
AcDbCircle
 10
665.1387042163289
 20
593.0985545154785
 30
0.0
 40
2.0
100
AcDbArc
 50
270.0
 51
341.0344250111357
  0
LINE
  5
1225
330
2
100
AcDbEntity
  8
0
100
AcDbLine
 10
713.1387042163253
 20
672.0985545154785
 30
0.0
 11
713.1387042163253
 21
592.0985545154783
 31
0.0
  0
LINE
  5
1226
330
2
100
AcDbEntity
  8
0
100
AcDbLine
 10
893.7763374160951
 20
398.2012869893356
 30
0.0
 11
905.9639578909685
 21
398.2012869893365
 31
0.0
  0
LINE
  5
1227
330
2
100
AcDbEntity
  8
0
100
AcDbLine
 10
923.7099245833826
 20
398.2012869893379
 30
0.0
 11
965.8975450582568
 21
398.2012869893411
 31
0.0
  0
CIRCLE
  5
1228
330
2
100
AcDbEntity
  8
HIDS
100
AcDbCircle
 10
929.836941237176
 20
357.2012869893358
 30
0.0
 40
40.0
  0
CIRCLE
  5
1229
330
2
100
AcDbEntity
  8
0
100
AcDbCircle
 10
929.836941237176
 20
357.2012869893358
 30
0.0
 40
34.99999999543831
  0
LINE
  5
122A
330
2
100
AcDbEntity
  8
0
100
AcDbLine
 10
897.836941237176
 20
397.2012869893358
 30
0.0
 11
961.8369412371761
 21
397.2012869893358
 31
0.0
  0
LINE
  5
122B
330
2
100
AcDbEntity
  8
0
100
AcDbLine
 10
897.836941237176
 20
317.2012869893358
 30
0.0
 11
961.7438229386154
 21
317.201286989336
 31
0.0
  0
LINE
  5
122C
330
2
100
AcDbEntity
  8
0
100
AcDbLine
 10
888.7767091771276
 20
321.140315913251
 30
0.0
 11
888.336941237185
 21
357.2012869893358
 31
0.0
  0
LINE
  5
122D
330
2
100
AcDbEntity
  8
0
100
AcDbLine
 10
889.9300933820653
 20
325.1780159747693
 30
0.0
 11
889.836941237176
 21
357.2012869893358
 31
0.0
  0
ARC
  5
122E
330
2
100
AcDbEntity
  8
0
100
AcDbCircle
 10
893.7763374160951
 20
321.201286989336
 30
0.0
 40
5.0
100
AcDbArc
 50
180.6986943829866
 51
270.0
  0
ARC
  5
122F
330
2
100
AcDbEntity
  8
0
100
AcDbCircle
 10
897.9300595357365
 20
325.2012869893358
 30
0.0
 40
7.999999999999998
100
AcDbArc
 50
180.1666665999998
 51
270.0
  0
LINE
  5
1230
330
2
100
AcDbEntity
  8
CENTER
100
AcDbLine
 10
898.0169412371763
 20
330.8812869893359
 30
0.0
 11
898.0169412371763
 21
319.8812869893359
 31
0.0
  0
LINE
  5
1231
330
2
100
AcDbEntity
  8
CENTER
100
AcDbLine
 10
892.5169412371763
 20
325.3812869893359
 30
0.0
 11
903.5169412371763
 21
325.3812869893359
 31
0.0
  0
LINE
  5
1232
330
2
100
AcDbEntity
  8
0
100
AcDbLine
 10
888.7767091771276
 20
393.2622580654206
 30
0.0
 11
888.336941237185
 21
357.2012869893358
 31
0.0
  0
LINE
  5
1233
330
2
100
AcDbEntity
  8
HIDS
100
AcDbLine
 10
909.0869412371741
 20
397.2012869893358
 30
0.0
 11
909.4255628735357
 21
377.8016664347804
 31
0.0
  0
LINE
  5
1234
330
2
100
AcDbEntity
  8
HIDS
100
AcDbLine
 10
920.5869412371741
 20
397.2012869893358
 30
0.0
 11
920.3671869539823
 21
384.611572537209
 31
0.0
  0
LINE
  5
1235
330
2
100
AcDbEntity
  8
0
100
AcDbLine
 10
889.9300933820653
 20
389.2245580039026
 30
0.0
 11
889.836941237176
 21
357.2012869893358
 31
0.0
  0
LINE
  5
1236
330
2
100
AcDbEntity
  8
CENTER
100
AcDbLine
 10
898.0169412371763
 20
394.521286989336
 30
0.0
 11
898.0169412371763
 21
383.521286989336
 31
0.0
  0
ARC
  5
1237
330
2
100
AcDbEntity
  8
HIDS
100
AcDbCircle
 10
906.8023357634068
 20
395.2012869893358
 30
0.0
 40
2.0
100
AcDbArc
 50
90.0
 51
178.9999999999982
  0
ARC
  5
1238
330
2
100
AcDbEntity
  8
0
100
AcDbCircle
 10
893.7763374160951
 20
393.2012869893356
 30
0.0
 40
5.0
100
AcDbArc
 50
90.0
 51
179.3013056170132
  0
ARC
  5
1239
330
2
100
AcDbEntity
  8
0
100
AcDbCircle
 10
897.9300595357365
 20
389.2012869893358
 30
0.0
 40
7.999999999999998
100
AcDbArc
 50
90.0
 51
179.8333334000001
  0
LINE
  5
123A
330
2
100
AcDbEntity
  8
CENTER
100
AcDbLine
 10
892.5169412371763
 20
389.021286989336
 30
0.0
 11
903.5169412371763
 21
389.021286989336
 31
0.0
  0
LINE
  5
123B
330
2
100
AcDbEntity
  8
HIDS
100
AcDbLine
 10
904.8026403730949
 20
395.2361918022102
 30
0.0
 11
904.7054894108352
 21
389.6704169019438
 31
0.0
  0
ARC
  5
123C
330
2
100
AcDbEntity
  8
HIDS
100
AcDbCircle
 10
901.7059463253646
 20
389.722774121256
 30
0.0
 40
3.0
100
AcDbArc
 50
310.8597132650932
 51
358.9999999999852
  0
LINE
  5
123D
330
2
100
AcDbEntity
  8
0
100
AcDbLine
 10
970.8971732972242
 20
321.1403159132508
 30
0.0
 11
971.3369412371669
 21
357.2012869893047
 31
0.0
  0
LINE
  5
123E
330
2
100
AcDbEntity
  8
0
100
AcDbLine
 10
969.7437890922868
 20
325.1780159747693
 30
0.0
 11
969.8369412371759
 21
357.2012869893358
 31
0.0
  0
ARC
  5
123F
330
2
100
AcDbEntity
  8
0
100
AcDbCircle
 10
965.8975450582568
 20
321.2012869893358
 30
0.0
 40
5.0
100
AcDbArc
 50
270.0
 51
359.3013056170132
  0
ARC
  5
1240
330
2
100
AcDbEntity
  8
0
100
AcDbCircle
 10
961.7438229386154
 20
325.2012869893358
 30
0.0
 40
8.0
100
AcDbArc
 50
270.0
 51
359.8333334000002
  0
LINE
  5
1241
330
2
100
AcDbEntity
  8
HIDS
100
AcDbLine
 10
954.8712421012572
 20
319.166382176461
 30
0.0
 11
954.9683930635167
 21
324.7321570767276
 31
0.0
  0
LINE
  5
1242
330
2
100
AcDbEntity
  8
CENTER
100
AcDbLine
 10
961.6569412371758
 20
330.8812869893359
 30
0.0
 11
961.6569412371758
 21
319.8812869893359
 31
0.0
  0
ARC
  5
1243
330
2
100
AcDbEntity
  8
HIDS
100
AcDbCircle
 10
952.8715467109433
 20
319.201286989336
 30
0.0
 40
2.0
100
AcDbArc
 50
270.0
 51
358.9999999999852
  0
LINE
  5
1244
330
2
100
AcDbEntity
  8
CENTER
100
AcDbLine
 10
956.1569412371756
 20
325.3812869893359
 30
0.0
 11
967.1569412371757
 21
325.3812869893359
 31
0.0
  0
ARC
  5
1245
330
2
100
AcDbEntity
  8
HIDS
100
AcDbCircle
 10
957.9679361489855
 20
324.679799857415
 30
0.0
 40
3.0
100
AcDbArc
 50
130.8597132650931
 51
178.9999999999851
  0
LINE
  5
1246
330
2
100
AcDbEntity
  8
0
100
AcDbLine
 10
970.8971732972242
 20
393.2622580654209
 30
0.0
 11
971.3369412371669
 21
357.2012869893047
 31
0.0
  0
LINE
  5
1247
330
2
100
AcDbEntity
  8
0
100
AcDbLine
 10
969.7437890922868
 20
389.2245580039026
 30
0.0
 11
969.8369412371759
 21
357.2012869893358
 31
0.0
  0
LINE
  5
1248
330
2
100
AcDbEntity
  8
CENTER
100
AcDbLine
 10
961.6569412371758
 20
394.521286989336
 30
0.0
 11
961.6569412371758
 21
383.521286989336
 31
0.0
  0
ARC
  5
1249
330
2
100
AcDbEntity
  8
0
100
AcDbCircle
 10
961.7438229386154
 20
389.2012869893358
 30
0.0
 40
8.0
100
AcDbArc
 50
0.1666665999998381
 51
90.0
  0
LINE
  5
124A
330
2
100
AcDbEntity
  8
CENTER
100
AcDbLine
 10
956.1569412371756
 20
389.021286989336
 30
0.0
 11
967.1569412371757
 21
389.021286989336
 31
0.0
  0
ARC
  5
124B
330
2
100
AcDbEntity
  8
0
100
AcDbCircle
 10
965.8975450582568
 20
393.2012869893359
 30
0.0
 40
5.0
100
AcDbArc
 50
0.6986943829867131
 51
90.0
  0
CIRCLE
  5
124C
330
2
100
AcDbEntity
  8
0
100
AcDbCircle
 10
898.0169412371763
 20
389.021286989336
 30
0.0
 40
2.5
  0
CIRCLE
  5
124D
330
2
100
AcDbEntity
  8
HOJO
100
AcDbCircle
 10
898.0169412371763
 20
389.021286989336
 30
0.0
 40
3.0
  0
CIRCLE
  5
124E
330
2
100
AcDbEntity
  8
0
100
AcDbCircle
 10
961.6569412371758
 20
389.021286989336
 30
0.0
 40
2.5
  0
CIRCLE
  5
124F
330
2
100
AcDbEntity
  8
HOJO
100
AcDbCircle
 10
961.6569412371758
 20
389.021286989336
 30
0.0
 40
3.0
  0
CIRCLE
  5
1250
330
2
100
AcDbEntity
  8
0
100
AcDbCircle
 10
961.6569412371758
 20
325.3812869893359
 30
0.0
 40
2.5
  0
CIRCLE
  5
1251
330
2
100
AcDbEntity
  8
HOJO
100
AcDbCircle
 10
961.6569412371758
 20
325.3812869893359
 30
0.0
 40
3.0
  0
CIRCLE
  5
1252
330
2
100
AcDbEntity
  8
0
100
AcDbCircle
 10
898.0169412371763
 20
325.3812869893359
 30
0.0
 40
2.5
  0
CIRCLE
  5
1253
330
2
100
AcDbEntity
  8
HOJO
100
AcDbCircle
 10
898.0169412371763
 20
325.3812869893359
 30
0.0
 40
3.0
  0
LINE
  5
1254
330
2
100
AcDbEntity
  8
0
100
AcDbLine
 10
666.9701034113698
 20
366.8604208833483
 30
0.0
 11
666.4573474227202
 21
396.2361918022161
 31
0.0
  0
LINE
  5
1255
330
2
100
AcDbEntity
  8
0
100
AcDbLine
 10
703.7511546576208
 20
392.2885490215313
 30
0.0
 11
703.6891209548159
 21
388.7346405680924
 31
0.0
  0
ARC
  5
1256
330
2
100
AcDbEntity
  8
0
100
AcDbCircle
 10
664.4576520324083
 20
318.2012869893447
 30
0.0
 40
2.0
100
AcDbArc
 50
270.0
 51
358.9999999999982
  0
LINE
  5
1258
330
2
100
AcDbEntity
  8
0
100
AcDbLine
 10
667.1387042206954
 20
357.2012869893451
 30
0.0
 11
666.457347422722
 21
318.1663821764703
 31
0.0
  0
LINE
  5
1259
330
2
100
AcDbEntity
  8
0
100
AcDbLine
 10
703.7511546576208
 20
322.1140249571586
 30
0.0
 11
703.1387042206972
 21
357.2012869893451
 31
0.0
  0
LINE
  5
125A
330
2
100
AcDbEntity
  8
0
100
AcDbLine
 10
713.1387042206954
 20
317.2012869893451
 30
0.0
 11
667.6199296925772
 21
317.2012869893449
 31
0.0
  0
ARC
  5
125B
330
2
100
AcDbEntity
  8
0
100
AcDbCircle
 10
708.7503931334033
 20
322.2012869893449
 30
0.0
 40
5.0
100
AcDbArc
 50
181.0000000000017
 51
270.0
  0
LINE
  5
125C
330
2
100
AcDbEntity
  8
0
100
AcDbLine
 10
658.1387042206954
 20
316.2012869893449
 30
0.0
 11
664.4576520324083
 21
316.2012869893449
 31
0.0
  0
ARC
  5
125D
330
2
100
AcDbEntity
  8
0
100
AcDbCircle
 10
664.4576520324083
 20
396.2012869893454
 30
0.0
 40
2.0
100
AcDbArc
 50
0.9999999998845103
 51
90.0
  0
LINE
  5
125E
330
2
100
AcDbEntity
  8
0
100
AcDbLine
 10
713.1387042206954
 20
397.2012869893449
 30
0.0
 11
667.6199296925772
 21
397.2012869893451
 31
0.0
  0
ARC
  5
125F
330
2
100
AcDbEntity
  8
0
100
AcDbCircle
 10
708.7503931334033
 20
392.2012869893449
 30
0.0
 40
5.0
100
AcDbArc
 50
90.0
 51
178.9999999999982
  0
LINE
  5
1260
330
2
100
AcDbEntity
  8
0
100
AcDbLine
 10
658.1387042206972
 20
398.2012869893452
 30
0.0
 11
664.4576520324083
 21
398.2012869893454
 31
0.0
  0
LINE
  5
1261
330
2
100
AcDbEntity
  8
0
100
AcDbLine
 10
713.1387042206954
 20
397.2012869893449
 30
0.0
 11
713.1387042206954
 21
317.2012869893451
 31
0.0
  0
ARC
  5
1262
330
2
100
AcDbEntity
  8
0
100
AcDbCircle
 10
667.6199296925772
 20
400.7012869893451
 30
0.0
 40
3.5
100
AcDbArc
 50
234.9031987723861
 51
270.0
  0
ARC
  5
1263
330
2
100
AcDbEntity
  8
0
100
AcDbCircle
 10
667.6199296925772
 20
313.7012869893449
 30
0.0
 40
3.5
100
AcDbArc
 50
90.0
 51
125.0968012276142
  0
ARC
  5
1264
330
2
100
AcDbEntity
  8
0
100
AcDbCircle
 10
952.4329846773619
 20
436.9820783012988
 30
0.0
 40
40.0
100
AcDbArc
 50
263.8230035951095
 51
263.9988421367181
  0
ARC
  5
1265
330
2
100
AcDbEntity
  8
0
100
AcDbCircle
 10
907.2408977969901
 20
277.4204956773727
 30
0.0
 40
40.0
100
AcDbArc
 50
83.82300359510955
 51
83.99884213682334
  0
LINE
  5
1266
330
2
100
AcDbEntity
  8
0
100
AcDbLine
 10
893.7763374160951
 20
316.2012869893358
 30
0.0
 11
965.8975450582568
 21
316.2012869893358
 31
0.0
  0
ARC
  5
1267
330
2
100
AcDbEntity
  8
0
100
AcDbCircle
 10
952.4329846773619
 20
277.4204956773729
 30
0.0
 40
40.0
100
AcDbArc
 50
96.00115786317665
 51
96.17699640489044
  0
LINE
  5
1268
330
2
100
AcDbEntity
  8
CENTER
  6
CENS
100
AcDbLine
 10
651.5338862209248
 20
391.8512869893453
 30
0.0
 11
678.5338862209248
 21
391.8512869893453
 31
0.0
  0
LINE
  5
1269
330
2
100
AcDbEntity
  8
0
100
AcDbLine
 10
673.2211615455565
 20
386.8512869893452
 30
0.0
 11
673.2211615455565
 21
396.8512869893452
 31
0.0
  0
LINE
  5
126A
330
2
100
AcDbEntity
  8
0
100
AcDbLine
 10
673.6211615455561
 20
396.1584666663178
 30
0.0
 11
673.6211615455561
 21
387.544107312373
 31
0.0
  0
LINE
  5
126B
330
2
100
AcDbEntity
  8
0
100
AcDbLine
 10
667.6211615455561
 20
386.8512869893452
 30
0.0
 11
667.6211615455561
 21
396.8512869893452
 31
0.0
  0
LINE
  5
126C
330
2
100
AcDbEntity
  8
0
100
AcDbLine
 10
667.6211615455561
 20
396.8512869893452
 30
0.0
 11
666.621161545556
 21
396.8512869893452
 31
0.0
  0
LINE
  5
126D
330
2
100
AcDbEntity
  8
0
100
AcDbLine
 10
666.621161545556
 20
396.8512869893452
 30
0.0
 11
666.621161545556
 21
386.8512869893452
 31
0.0
  0
LINE
  5
126E
330
2
100
AcDbEntity
  8
0
100
AcDbLine
 10
666.621161545556
 20
386.8512869893452
 30
0.0
 11
667.6211615455561
 21
386.8512869893452
 31
0.0
  0
LINE
  5
126F
330
2
100
AcDbEntity
  8
0
100
AcDbLine
 10
667.6211615455561
 20
386.8512869893452
 30
0.0
 11
667.6211615455561
 21
396.8512869893452
 31
0.0
  0
LINE
  5
1270
330
2
100
AcDbEntity
  8
0
100
AcDbLine
 10
673.2211615455565
 20
386.8512869893452
 30
0.0
 11
667.6211615455561
 21
386.8512869893452
 31
0.0
  0
LINE
  5
1271
330
2
100
AcDbEntity
  8
0
100
AcDbLine
 10
667.6211615455561
 20
396.8512869893452
 30
0.0
 11
673.2211615455565
 21
396.8512869893452
 31
0.0
  0
LINE
  5
1272
330
2
100
AcDbEntity
  8
0
100
AcDbLine
 10
673.2211615455565
 20
396.8512869893452
 30
0.0
 11
673.6211615455561
 21
396.1584666663178
 31
0.0
  0
LINE
  5
1273
330
2
100
AcDbEntity
  8
0
100
AcDbLine
 10
673.2211615455565
 20
386.851286989345
 30
0.0
 11
673.6211615455561
 21
387.5441073123727
 31
0.0
  0
LINE
  5
1274
330
2
100
AcDbEntity
  8
CENTER
  6
CENS
100
AcDbLine
 10
651.5338862209248
 20
322.5512869893451
 30
0.0
 11
678.5338862209248
 21
322.5512869893451
 31
0.0
  0
LINE
  5
1275
330
2
100
AcDbEntity
  8
0
100
AcDbLine
 10
673.2211615455565
 20
327.5512869893451
 30
0.0
 11
673.2211615455565
 21
317.551286989345
 31
0.0
  0
LINE
  5
1276
330
2
100
AcDbEntity
  8
0
100
AcDbLine
 10
673.6211615455561
 20
318.2441073123726
 30
0.0
 11
673.6211615455561
 21
326.8584666663173
 31
0.0
  0
LINE
  5
1277
330
2
100
AcDbEntity
  8
0
100
AcDbLine
 10
667.6211615455561
 20
327.5512869893451
 30
0.0
 11
667.6211615455561
 21
317.551286989345
 31
0.0
  0
LINE
  5
1278
330
2
100
AcDbEntity
  8
0
100
AcDbLine
 10
667.6211615455561
 20
317.551286989345
 30
0.0
 11
666.621161545556
 21
317.551286989345
 31
0.0
  0
LINE
  5
1279
330
2
100
AcDbEntity
  8
0
100
AcDbLine
 10
666.621161545556
 20
317.551286989345
 30
0.0
 11
666.621161545556
 21
327.5512869893451
 31
0.0
  0
LINE
  5
127A
330
2
100
AcDbEntity
  8
0
100
AcDbLine
 10
666.621161545556
 20
327.5512869893451
 30
0.0
 11
667.6211615455561
 21
327.5512869893451
 31
0.0
  0
LINE
  5
127B
330
2
100
AcDbEntity
  8
0
100
AcDbLine
 10
667.6211615455561
 20
327.5512869893451
 30
0.0
 11
667.6211615455561
 21
317.551286989345
 31
0.0
  0
LINE
  5
127C
330
2
100
AcDbEntity
  8
0
100
AcDbLine
 10
673.2211615455565
 20
327.5512869893451
 30
0.0
 11
667.6211615455561
 21
327.5512869893451
 31
0.0
  0
LINE
  5
127D
330
2
100
AcDbEntity
  8
0
100
AcDbLine
 10
667.6211615455561
 20
317.551286989345
 30
0.0
 11
673.2211615455565
 21
317.551286989345
 31
0.0
  0
LINE
  5
127E
330
2
100
AcDbEntity
  8
0
100
AcDbLine
 10
673.2211615455565
 20
317.551286989345
 30
0.0
 11
673.6211615455561
 21
318.2441073123726
 31
0.0
  0
LINE
  5
127F
330
2
100
AcDbEntity
  8
0
100
AcDbLine
 10
673.2211615455565
 20
327.5512869893453
 30
0.0
 11
673.6211615455561
 21
326.8584666663176
 31
0.0
  0
LINE
  5
1280
330
2
100
AcDbEntity
  8
CENTER
  6
CENS
100
AcDbLine
 10
651.5338862165547
 20
597.4485545154784
 30
0.0
 11
678.5338862165547
 21
597.4485545154784
 31
0.0
  0
LINE
  5
1281
330
2
100
AcDbEntity
  8
0
100
AcDbLine
 10
673.2211615411863
 20
602.4485545154784
 30
0.0
 11
673.2211615411863
 21
592.4485545154785
 31
0.0
  0
LINE
  5
1282
330
2
100
AcDbEntity
  8
0
100
AcDbLine
 10
673.621161541186
 20
593.1413748385059
 30
0.0
 11
673.621161541186
 21
601.7557341924507
 31
0.0
  0
LINE
  5
1283
330
2
100
AcDbEntity
  8
0
100
AcDbLine
 10
667.6211615411859
 20
602.4485545154784
 30
0.0
 11
667.6211615411859
 21
592.4485545154785
 31
0.0
  0
LINE
  5
1284
330
2
100
AcDbEntity
  8
0
100
AcDbLine
 10
667.6211615411859
 20
592.4485545154785
 30
0.0
 11
666.6211615411859
 21
592.4485545154785
 31
0.0
  0
LINE
  5
1285
330
2
100
AcDbEntity
  8
0
100
AcDbLine
 10
666.6211615411859
 20
592.4485545154785
 30
0.0
 11
666.6211615411859
 21
602.4485545154784
 31
0.0
  0
LINE
  5
1286
330
2
100
AcDbEntity
  8
0
100
AcDbLine
 10
666.6211615411859
 20
602.4485545154784
 30
0.0
 11
667.6211615411859
 21
602.4485545154784
 31
0.0
  0
LINE
  5
1287
330
2
100
AcDbEntity
  8
0
100
AcDbLine
 10
667.6211615411859
 20
602.4485545154784
 30
0.0
 11
667.6211615411859
 21
592.4485545154785
 31
0.0
  0
LINE
  5
1288
330
2
100
AcDbEntity
  8
0
100
AcDbLine
 10
673.2211615411863
 20
602.4485545154784
 30
0.0
 11
667.6211615411859
 21
602.4485545154784
 31
0.0
  0
LINE
  5
1289
330
2
100
AcDbEntity
  8
0
100
AcDbLine
 10
667.6211615411859
 20
592.4485545154785
 30
0.0
 11
673.2211615411863
 21
592.4485545154785
 31
0.0
  0
LINE
  5
128A
330
2
100
AcDbEntity
  8
0
100
AcDbLine
 10
673.2211615411863
 20
592.4485545154785
 30
0.0
 11
673.621161541186
 21
593.1413748385059
 31
0.0
  0
LINE
  5
128B
330
2
100
AcDbEntity
  8
0
100
AcDbLine
 10
673.2211615411863
 20
602.4485545154787
 30
0.0
 11
673.621161541186
 21
601.755734192451
 31
0.0
  0
LINE
  5
128C
330
2
100
AcDbEntity
  8
CENTER
  6
CENS
100
AcDbLine
 10
651.5338862165547
 20
666.7485545154786
 30
0.0
 11
678.5338862165547
 21
666.7485545154786
 31
0.0
  0
LINE
  5
128D
330
2
100
AcDbEntity
  8
0
100
AcDbLine
 10
673.2211615411863
 20
661.7485545154786
 30
0.0
 11
673.2211615411863
 21
671.7485545154787
 31
0.0
  0
LINE
  5
128E
330
2
100
AcDbEntity
  8
0
100
AcDbLine
 10
673.621161541186
 20
671.0557341924511
 30
0.0
 11
673.621161541186
 21
662.4413748385063
 31
0.0
  0
LINE
  5
128F
330
2
100
AcDbEntity
  8
0
100
AcDbLine
 10
667.6211615411859
 20
661.7485545154786
 30
0.0
 11
667.6211615411859
 21
671.7485545154787
 31
0.0
  0
LINE
  5
1290
330
2
100
AcDbEntity
  8
0
100
AcDbLine
 10
667.6211615411859
 20
671.7485545154787
 30
0.0
 11
666.6211615411859
 21
671.7485545154787
 31
0.0
  0
LINE
  5
1291
330
2
100
AcDbEntity
  8
0
100
AcDbLine
 10
666.6211615411859
 20
671.7485545154787
 30
0.0
 11
666.6211615411859
 21
661.7485545154786
 31
0.0
  0
LINE
  5
1292
330
2
100
AcDbEntity
  8
0
100
AcDbLine
 10
666.6211615411859
 20
661.7485545154786
 30
0.0
 11
667.6211615411859
 21
661.7485545154786
 31
0.0
  0
LINE
  5
1293
330
2
100
AcDbEntity
  8
0
100
AcDbLine
 10
667.6211615411859
 20
661.7485545154786
 30
0.0
 11
667.6211615411859
 21
671.7485545154787
 31
0.0
  0
LINE
  5
1294
330
2
100
AcDbEntity
  8
0
100
AcDbLine
 10
673.2211615411863
 20
661.7485545154786
 30
0.0
 11
667.6211615411859
 21
661.7485545154786
 31
0.0
  0
LINE
  5
1295
330
2
100
AcDbEntity
  8
0
100
AcDbLine
 10
667.6211615411859
 20
671.7485545154787
 30
0.0
 11
673.2211615411863
 21
671.7485545154787
 31
0.0
  0
LINE
  5
1296
330
2
100
AcDbEntity
  8
0
100
AcDbLine
 10
673.2211615411863
 20
671.7485545154787
 30
0.0
 11
673.621161541186
 21
671.0557341924511
 31
0.0
  0
LINE
  5
1297
330
2
100
AcDbEntity
  8
0
100
AcDbLine
 10
673.2211615411863
 20
661.7485545154784
 30
0.0
 11
673.621161541186
 21
662.4413748385061
 31
0.0
  0
LINE
  5
1298
330
2
100
AcDbEntity
  8
0
100
AcDbLine
 10
713.1387042206954
 20
392.2012869893451
 30
0.0
 11
706.1387042206954
 21
392.2012869893451
 31
0.0
  0
LINE
  5
1299
330
2
100
AcDbEntity
  8
0
100
AcDbLine
 10
706.1387042206954
 20
392.2012869893451
 30
0.0
 11
706.1387042206954
 21
357.2012869893451
 31
0.0
  0
LINE
  5
129B
330
2
100
AcDbEntity
  8
0
100
AcDbLine
 10
706.1387042206954
 20
376.9512869893452
 30
0.0
 11
706.1387042206972
 21
357.2012869893451
 31
0.0
  0
LINE
  5
129C
330
2
100
AcDbEntity
  8
0
100
AcDbLine
 10
706.1387042206954
 20
376.9512869893452
 30
0.0
 11
696.4008996501782
 21
376.9512869893452
 31
0.0
  0
LINE
  5
129D
330
2
100
AcDbEntity
  8
0
100
AcDbLine
 10
704.1387042206954
 20
365.2012869893451
 30
0.0
 11
693.1387042206954
 21
365.2012869893451
 31
0.0
  0
LINE
  5
129E
330
2
100
AcDbEntity
  8
0
100
AcDbLine
 10
674.6387042206954
 20
365.4512869893451
 30
0.0
 11
674.6387042206954
 21
357.2012869893451
 31
0.0
  0
LINE
  5
129F
330
2
100
AcDbEntity
  8
0
100
AcDbLine
 10
674.6387042206954
 20
365.4512869893451
 30
0.0
 11
668.6387042206954
 21
365.4512869893451
 31
0.0
  0
LINE
  5
12A0
330
2
100
AcDbEntity
  8
0
100
AcDbLine
 10
668.6387042206954
 20
365.4512869893451
 30
0.0
 11
668.6387042206954
 21
357.2012869893451
 31
0.0
  0
LINE
  5
12A1
330
2
100
AcDbEntity
  8
0
100
AcDbLine
 10
691.1387042206954
 20
371.4766972100401
 30
0.0
 11
691.1387042206954
 21
357.2012869893451
 31
0.0
  0
LINE
  5
12A2
330
2
100
AcDbEntity
  8
0
100
AcDbLine
 10
693.1387042206954
 20
372.5304305504219
 30
0.0
 11
693.1387042206954
 21
357.2012869893451
 31
0.0
  0
LINE
  5
12A3
330
2
100
AcDbEntity
  8
0
100
AcDbLine
 10
691.1387042206954
 20
365.2012869893451
 30
0.0
 11
674.6387042206954
 21
365.2012869893451
 31
0.0
  0
LINE
  5
12A4
330
2
100
AcDbEntity
  8
0
100
AcDbLine
 10
706.1387042206954
 20
366.3559875277245
 30
0.0
 11
704.1387042206954
 21
365.2012869893451
 31
0.0
  0
LINE
  5
12A5
330
2
100
AcDbEntity
  8
0
100
AcDbLine
 10
704.1387042206954
 20
365.2012869893451
 30
0.0
 11
704.1387042206954
 21
357.2012869893451
 31
0.0
  0
LINE
  5
12A6
330
2
100
AcDbEntity
  8
0
100
AcDbLine
 10
668.6387042206954
 20
364.7012869893452
 30
0.0
 11
664.3085772017732
 21
357.2012869893451
 31
0.0
  0
SPLINE
  5
12A7
330
2
100
AcDbEntity
  8
HOJO
100
AcDbSpline
210
0.0
220
0.0
230
1.0
 70
     8
 71
     3
 72
    20
 73
    16
 74
     0
 42
0.0000000001
 43
0.0000000001
 40
1.102548511336045
 40
1.102548511336045
 40
1.102548511336045
 40
1.102548511336045
 40
5.647385924430076
 40
9.759277458584113
 40
14.59638394258456
 40
18.6386056126129
 40
22.25598020257161
 40
26.57819511411361
 40
31.00332353479096
 40
40.39337194914635
 40
45.49899296170218
 40
52.02718752358933
 40
57.17041693382338
 40
65.63449353306062
 40
69.3611614947018
 40
69.3611614947018
 40
69.3611614947018
 40
69.3611614947018
 10
709.5494561430044
 20
397.2012869893449
 30
0.0
 10
708.1406686226111
 20
396.4728595396568
 30
0.0
 10
705.6279826608517
 20
394.9421469174986
 30
0.0
 10
704.307056414724
 20
390.3776242601443
 30
0.0
 10
703.157147089176
 20
386.9860547656258
 30
0.0
 10
699.6693906771873
 20
383.3122895543816
 30
0.0
 10
697.9975555008243
 20
379.7869294244024
 30
0.0
 10
696.0203089403696
 20
376.2362127269075
 30
0.0
 10
692.632527627806
 20
370.6471681384533
 30
0.0
 10
685.1081685834908
 20
370.8227445860448
 30
0.0
 10
678.3798292268422
 20
369.6763740525471
 30
0.0
 10
673.0365626814347
 20
367.9577619480663
 30
0.0
 10
666.0377821670484
 20
367.6215906633431
 30
0.0
 10
662.323049367824
 20
362.1355963313879
 30
0.0
 10
661.0012079290283
 20
358.3656898382119
 30
0.0
 10
660.5885351559193
 20
357.2012869893451
 30
0.0
  0
LINE
  5
12A8
330
2
100
AcDbEntity
  8
HIDS
100
AcDbLine
 10
919.8369412371759
 20
374.2325083195869
 30
0.0
 11
919.8369412371759
 21
362.2012869893358
 31
0.0
  0
LINE
  5
12A9
330
2
100
AcDbEntity
  8
CENTER
  6
CENS
100
AcDbLine
 10
914.836941237176
 20
406.3249714120386
 30
0.0
 11
914.836941237176
 21
341.3536218318061
 31
0.0
  0
LINE
  5
12AA
330
2
100
AcDbEntity
  8
0
100
AcDbLine
 10
910.1011868811859
 20
356.4512869893358
 30
0.0
 11
921.872175076138
 21
356.4512869893358
 31
0.0
  0
LINE
  5
12AB
330
2
100
AcDbEntity
  8
0
100
AcDbLine
 10
910.1011868811859
 20
357.9512869893358
 30
0.0
 11
921.872175076138
 21
357.9512869893358
 31
0.0
  0
CIRCLE
  5
12AC
330
2
100
AcDbEntity
  8
0
100
AcDbCircle
 10
929.836941237176
 20
357.2012869893358
 30
0.0
 40
8.0
  0
LINE
  5
12AD
330
2
100
AcDbEntity
  8
0
100
AcDbLine
 10
947.0369412371749
 20
356.4512869893358
 30
0.0
 11
947.0369412371749
 21
357.9512869893358
 31
0.0
  0
LINE
  5
12AE
330
2
100
AcDbEntity
  8
0
100
AcDbLine
 10
937.8017073982139
 20
356.4512869893358
 30
0.0
 11
947.0369412371749
 21
356.4512869893358
 31
0.0
  0
LINE
  5
12AF
330
2
100
AcDbEntity
  8
0
100
AcDbLine
 10
937.8017073982139
 20
357.9512869893358
 30
0.0
 11
947.0369412371749
 21
357.9512869893358
 31
0.0
  0
LINE
  5
12B0
330
2
100
AcDbEntity
  8
HIDS
100
AcDbLine
 10
917.336941237176
 20
356.4512869893358
 30
0.0
 11
917.336941237176
 21
341.9103583059627
 31
0.0
  0
LINE
  5
12B1
330
2
100
AcDbEntity
  8
HIDS
100
AcDbLine
 10
916.9202745705099
 20
356.4512869893358
 30
0.0
 11
916.9202745705099
 21
342.2606637686592
 31
0.0
  0
LINE
  5
12B2
330
2
100
AcDbEntity
  8
HIDS
100
AcDbLine
 10
912.7536079038421
 20
356.4512869893358
 30
0.0
 11
912.7536079038421
 21
347.2905744911234
 31
0.0
  0
LINE
  5
12B3
330
2
100
AcDbEntity
  8
HIDS
100
AcDbLine
 10
912.336941237176
 20
356.4512869893358
 30
0.0
 11
912.336941237176
 21
348.0463702775355
 31
0.0
  0
LINE
  5
12B4
330
2
100
AcDbEntity
  8
HIDS
100
AcDbLine
 10
917.8369412371759
 20
362.2012869893358
 30
0.0
 11
917.8369412371759
 21
357.9512869893358
 31
0.0
  0
LINE
  5
12B5
330
2
100
AcDbEntity
  8
HIDS
100
AcDbLine
 10
911.8369412371761
 20
362.2012869893358
 30
0.0
 11
911.8369412371761
 21
357.9512869893358
 31
0.0
  0
LINE
  5
12B6
330
2
100
AcDbEntity
  8
HIDS
100
AcDbLine
 10
910.7303324328915
 20
362.2012869893358
 30
0.0
 11
919.8369412371759
 21
362.2012869893358
 31
0.0
  0
LINE
  5
12B7
330
2
100
AcDbEntity
  8
HIDS
100
AcDbLine
 10
919.086941237176
 20
362.2012869893358
 30
0.0
 11
919.086941237176
 21
366.9012869893359
 31
0.0
  0
LINE
  5
12B8
330
2
100
AcDbEntity
  8
0
100
AcDbLine
 10
910.586941237176
 20
366.9012869893359
 30
0.0
 11
910.586941237176
 21
362.2012869893358
 31
0.0
  0
LINE
  5
12B9
330
2
100
AcDbEntity
  8
HIDS
100
AcDbLine
 10
917.336941237176
 20
348.2012869893358
 30
0.0
 11
916.3369412371761
 21
347.2012869893358
 31
0.0
  0
LINE
  5
12BA
330
2
100
AcDbEntity
  8
HIDS
100
AcDbLine
 10
912.336941237176
 20
348.2012869893358
 30
0.0
 11
913.3369412371759
 21
347.2012869893358
 31
0.0
  0
LINE
  5
12BB
330
2
100
AcDbEntity
  8
HIDS
100
AcDbLine
 10
916.3369412371761
 20
347.2012869893358
 30
0.0
 11
914.836941237176
 21
347.2012869893358
 31
0.0
  0
LINE
  5
12BC
330
2
100
AcDbEntity
  8
HIDS
100
AcDbLine
 10
913.3369412371759
 20
347.2012869893358
 30
0.0
 11
914.836941237176
 21
347.2012869893358
 31
0.0
  0
LINE
  5
12BD
330
2
100
AcDbEntity
  8
HIDS
100
AcDbLine
 10
917.336941237176
 20
362.2012869893358
 30
0.0
 11
917.336941237176
 21
357.9512869893358
 31
0.0
  0
LINE
  5
12BE
330
2
100
AcDbEntity
  8
HIDS
100
AcDbLine
 10
916.9202745705099
 20
360.1179536560024
 30
0.0
 11
916.9202745705099
 21
357.9512869893358
 31
0.0
  0
LINE
  5
12BF
330
2
100
AcDbEntity
  8
HIDS
100
AcDbLine
 10
912.7536079038421
 20
360.1179536560024
 30
0.0
 11
912.7536079038421
 21
357.9512869893358
 31
0.0
  0
LINE
  5
12C0
330
2
100
AcDbEntity
  8
HIDS
100
AcDbLine
 10
912.336941237176
 20
362.2012869893358
 30
0.0
 11
912.336941237176
 21
357.9512869893358
 31
0.0
  0
LINE
  5
12C1
330
2
100
AcDbEntity
  8
HIDS
100
AcDbLine
 10
917.336941237176
 20
348.2012869893358
 30
0.0
 11
914.836941237176
 21
348.2012869893358
 31
0.0
  0
LINE
  5
12C2
330
2
100
AcDbEntity
  8
HIDS
100
AcDbLine
 10
912.336941237176
 20
348.2012869893358
 30
0.0
 11
914.836941237176
 21
348.2012869893358
 31
0.0
  0
LINE
  5
12C3
330
2
100
AcDbEntity
  8
HIDS
100
AcDbLine
 10
917.336941237176
 20
360.1179536560024
 30
0.0
 11
912.336941237176
 21
360.1179536560024
 31
0.0
  0
LINE
  5
12C4
330
2
100
AcDbEntity
  8
0
100
AcDbLine
 10
910.586941237176
 20
362.2012869893358
 30
0.0
 11
910.7303324328915
 21
362.2012869893358
 31
0.0
  0
LINE
  5
12C5
330
2
100
AcDbEntity
  8
HIDS
100
AcDbLine
 10
912.336941237176
 20
362.2012869893358
 30
0.0
 11
912.7536079038421
 21
360.1179536560024
 31
0.0
  0
LINE
  5
12C6
330
2
100
AcDbEntity
  8
HIDS
100
AcDbLine
 10
917.336941237176
 20
362.2012869893358
 30
0.0
 11
916.9202745705099
 21
360.1179536560024
 31
0.0
  0
LINE
  5
12C7
330
2
100
AcDbEntity
  8
0
100
AcDbLine
 10
910.586941237176
 20
366.9012869893359
 30
0.0
 11
912.6330899241713
 21
366.9012869893356
 31
0.0
  0
LINE
  5
12C8
330
2
100
AcDbEntity
  8
HIDS
100
AcDbLine
 10
918.5673259949055
 20
367.2012869893358
 30
0.0
 11
912.8057199069246
 21
367.2012869893358
 31
0.0
  0
LINE
  5
12C9
330
2
100
AcDbEntity
  8
0
100
AcDbLine
 10
910.586941237176
 20
366.9012869893359
 30
0.0
 11
911.1065564794465
 21
367.2012869893358
 31
0.0
  0
LINE
  5
12CA
330
2
100
AcDbEntity
  8
HIDS
100
AcDbLine
 10
918.5673259949055
 20
367.2012869893358
 30
0.0
 11
919.086941237176
 21
366.9012869893359
 31
0.0
  0
LINE
  5
12CB
330
2
100
AcDbEntity
  8
HIDS
100
AcDbLine
 10
910.7303324328915
 20
362.2012869893358
 30
0.0
 11
919.086941237176
 21
362.2012869893358
 31
0.0
  0
LINE
  5
12CC
330
2
100
AcDbEntity
  8
0
100
AcDbLine
 10
912.8057199069246
 20
367.2012869893358
 30
0.0
 11
911.1065564794465
 21
367.2012869893358
 31
0.0
  0
LINE
  5
12CD
330
2
100
AcDbEntity
  8
HIDS
100
AcDbLine
 10
912.6330899241713
 20
366.9012869893359
 30
0.0
 11
919.086941237176
 21
366.9012869893359
 31
0.0
  0
LINE
  5
12CE
330
2
100
AcDbEntity
  8
0
100
AcDbLine
 10
917.336941237176
 20
357.9512869893358
 30
0.0
 11
917.336941237176
 21
356.4512869893358
 31
0.0
  0
LINE
  5
12CF
330
2
100
AcDbEntity
  8
HOJO
100
AcDbLine
 10
916.9202745705099
 20
357.9512869893358
 30
0.0
 11
916.9202745705099
 21
356.4512869893358
 31
0.0
  0
LINE
  5
12D0
330
2
100
AcDbEntity
  8
HOJO
100
AcDbLine
 10
912.7536079038421
 20
357.9512869893358
 30
0.0
 11
912.7536079038421
 21
356.4512869893358
 31
0.0
  0
LINE
  5
12D1
330
2
100
AcDbEntity
  8
0
100
AcDbLine
 10
912.336941237176
 20
357.9512869893358
 30
0.0
 11
912.336941237176
 21
356.4512869893358
 31
0.0
  0
LINE
  5
12D2
330
2
100
AcDbEntity
  8
HIDS
100
AcDbLine
 10
912.336941237176
 20
356.4512869893358
 30
0.0
 11
912.336941237176
 21
348.2012869893358
 31
0.0
  0
LINE
  5
12D3
330
2
100
AcDbEntity
  8
HIDS
100
AcDbLine
 10
916.9202745705099
 20
356.4512869893358
 30
0.0
 11
916.9202745705099
 21
347.7846203226691
 31
0.0
  0
LINE
  5
12D4
330
2
100
AcDbEntity
  8
HIDS
100
AcDbLine
 10
917.336941237176
 20
356.4512869893358
 30
0.0
 11
917.336941237176
 21
348.2012869893358
 31
0.0
  0
LINE
  5
12D5
330
2
100
AcDbEntity
  8
HIDS
100
AcDbLine
 10
912.7536079038421
 20
356.4512869893358
 30
0.0
 11
912.7536079038421
 21
347.7846203226691
 31
0.0
  0
CIRCLE
  5
12D6
330
2
100
AcDbEntity
  8
0
100
AcDbCircle
 10
929.836941237176
 20
357.2012869893358
 30
0.0
 40
19.75
  0
ARC
  5
12D7
330
2
100
AcDbEntity
  8
0
100
AcDbCircle
 10
929.836941237176
 20
357.2012869893358
 30
0.0
 40
9.154700538379415
100
AcDbArc
 50
4.699230675929105
 51
175.3007693240709
  0
ARC
  5
12D8
330
2
100
AcDbEntity
  8
0
100
AcDbCircle
 10
929.836941237176
 20
357.2012869893358
 30
0.0
 40
9.154700538379415
100
AcDbArc
 50
184.6992306759291
 51
355.3007693240708
  0
LINE
  5
12D9
330
2
100
AcDbEntity
  8
0
100
AcDbLine
 10
909.8369412371759
 20
401.2012869893356
 30
0.0
 11
919.8369412371759
 21
401.2012869893356
 31
0.0
  0
ARC
  5
12DA
330
2
100
AcDbEntity
  8
0
100
AcDbCircle
 10
919.8369412371759
 20
397.2012869893356
 30
0.0
 40
4.0
100
AcDbArc
 50
0.0
 51
90.0
  0
ARC
  5
12DB
330
2
100
AcDbEntity
  8
0
100
AcDbCircle
 10
909.8369412371759
 20
397.2012869893356
 30
0.0
 40
4.0
100
AcDbArc
 50
90.0
 51
180.0
  0
LINE
  5
12DC
330
2
100
AcDbEntity
  8
0
100
AcDbLine
 10
704.138704220659
 20
401.201286989345
 30
0.0
 11
694.138704220659
 21
401.201286989345
 31
0.0
  0
ARC
  5
12DD
330
2
100
AcDbEntity
  8
0
100
AcDbCircle
 10
694.138704220659
 20
397.2012869893449
 30
0.0
 40
4.0
100
AcDbArc
 50
90.0
 51
180.0
  0
ARC
  5
12DE
330
2
100
AcDbEntity
  8
0
100
AcDbCircle
 10
704.138704220659
 20
397.2012869893449
 30
0.0
 40
4.0
100
AcDbArc
 50
0.0
 51
90.0
  0
LINE
  5
12DF
330
2
100
AcDbEntity
  8
CENTER
  6
CENS
100
AcDbLine
 10
699.138704220659
 20
406.3249714120503
 30
0.0
 11
699.138704220659
 21
382.9650454096834
 31
0.0
  0
CIRCLE
  5
12E0
330
2
100
AcDbEntity
  8
0
100
AcDbCircle
 10
699.1387042163271
 20
617.0985545154785
 30
0.0
 40
9.0
  0
LINE
  5
12E1
330
2
100
AcDbEntity
  8
CENTER
  6
CENS
100
AcDbLine
 10
699.1387042163271
 20
603.1639873277892
 30
0.0
 11
699.1387042163271
 21
631.0331217031674
 31
0.0
  0
LINE
  5
12E2
330
2
100
AcDbEntity
  8
CENTER
  6
CENS
100
AcDbLine
 10
713.0732714040162
 20
617.0985545154783
 30
0.0
 11
685.204137028638
 21
617.0985545154783
 31
0.0
  0
LINE
  5
12E3
330
2
100
AcDbEntity
  8
CENTER
  6
CENS
100
AcDbLine
 10
366.1656313590003
 20
406.3249714120332
 30
0.0
 11
366.1656313590003
 21
382.9650454096664
 31
0.0
  0
LINE
  5
12E4
330
2
100
AcDbEntity
  8
0
100
AcDbLine
 10
371.1656313590003
 20
401.2012869893301
 30
0.0
 11
361.1656313590003
 21
401.2012869893301
 31
0.0
  0
ARC
  5
12E5
330
2
100
AcDbEntity
  8
0
100
AcDbCircle
 10
361.1656313590003
 20
397.2012869893302
 30
0.0
 40
4.0
100
AcDbArc
 50
90.0
 51
159.1508477649675
  0
ARC
  5
12E6
330
2
100
AcDbEntity
  8
0
100
AcDbCircle
 10
371.1656313590003
 20
397.2012869893302
 30
0.0
 40
4.0
100
AcDbArc
 50
17.60182375627703
 51
90.0
  0
CIRCLE
  5
12E7
330
2
100
AcDbEntity
  8
CENTER
100
AcDbCircle
 10
929.836941237176
 20
357.2012869893358
 30
0.0
 40
45.0002755547118
  0
LINE
  5
12E8
330
2
100
AcDbEntity
  8
0
100
AcDbLine
 10
889.8369412370687
 20
357.2012869893358
 30
0.0
 11
888.336941237185
 21
357.2012869893358
 31
0.0
  0
LINE
  5
12E9
330
2
100
AcDbEntity
  8
0
100
AcDbLine
 10
969.8369412371759
 20
357.2012869891501
 30
0.0
 11
971.3369412371669
 21
357.2012869893047
 31
0.0
  0
LINE
  5
12EA
330
2
100
AcDbEntity
  8
0
100
AcDbLine
 10
95.41773873166244
 20
357.201286989349
 30
0.0
 11
96.0990955295631
 21
396.23619180222
 31
0.0
  0
LINE
  5
12EB
330
2
100
AcDbEntity
  8
0
100
AcDbLine
 10
58.80528829466243
 20
392.2885490215351
 30
0.0
 11
59.41773873159968
 21
357.201286989349
 31
0.0
  0
ARC
  5
12EC
330
2
100
AcDbEntity
  8
0
100
AcDbCircle
 10
98.098790919875
 20
318.2012869893485
 30
0.0
 40
2.0
100
AcDbArc
 50
181.0000000000017
 51
270.0
  0
LINE
  5
12EE
330
2
100
AcDbEntity
  8
0
100
AcDbLine
 10
95.41773873158787
 20
357.201286989349
 30
0.0
 11
96.09909552956128
 21
318.1663821764741
 31
0.0
  0
LINE
  5
12EF
330
2
100
AcDbEntity
  8
0
100
AcDbLine
 10
58.80528829466243
 20
322.1140249571624
 30
0.0
 11
59.41773873158604
 21
357.201286989349
 31
0.0
  0
LINE
  5
12F0
330
2
100
AcDbEntity
  8
0
100
AcDbLine
 10
49.41773873158786
 20
317.201286989349
 30
0.0
 11
94.93651325970608
 21
317.2012869893488
 31
0.0
  0
ARC
  5
12F1
330
2
100
AcDbEntity
  8
0
100
AcDbCircle
 10
76.52118106491548
 20
323.1013136933896
 30
0.0
 40
3.0
100
AcDbArc
 50
90.0
 51
178.9999999999982
  0
LINE
  5
12F2
330
2
100
AcDbEntity
  8
0
100
AcDbLine
 10
76.52118106491548
 20
326.1013136933896
 30
0.0
 11
63.87488667844014
 21
326.10131369339
 31
0.0
  0
ARC
  5
12F3
330
2
100
AcDbEntity
  8
0
100
AcDbCircle
 10
53.80604981887995
 20
322.2012869893488
 30
0.0
 40
5.0
100
AcDbArc
 50
270.0
 51
358.9999999999982
  0
ARC
  5
12F4
330
2
100
AcDbEntity
  8
0
100
AcDbCircle
 10
71.4523442053553
 20
319.2012869893488
 30
0.0
 40
2.0
100
AcDbArc
 50
270.0
 51
358.9999999999982
  0
LINE
  5
12F5
330
2
100
AcDbEntity
  8
0
100
AcDbLine
 10
73.52074369284423
 20
323.1024372675613
 30
0.0
 11
73.45203959566902
 21
319.1663821764742
 31
0.0
  0
LINE
  5
12F6
330
2
100
AcDbEntity
  8
0
100
AcDbLine
 10
104.4177387315878
 20
316.2012869893488
 30
0.0
 11
98.098790919875
 21
316.2012869893488
 31
0.0
  0
ARC
  5
12F7
330
2
100
AcDbEntity
  8
0
100
AcDbCircle
 10
98.098790919875
 20
396.2012869893492
 30
0.0
 40
2.0
100
AcDbArc
 50
90.0
 51
179.0000000001154
  0
LINE
  5
12F8
330
2
100
AcDbEntity
  8
0
100
AcDbLine
 10
49.41773873158786
 20
397.2012869893488
 30
0.0
 11
94.93651325970608
 21
397.201286989349
 31
0.0
  0
ARC
  5
12F9
330
2
100
AcDbEntity
  8
0
100
AcDbCircle
 10
53.80604981887995
 20
392.2012869893488
 30
0.0
 40
5.0
100
AcDbArc
 50
1.000000000001775
 51
90.0
  0
LINE
  5
12FA
330
2
100
AcDbEntity
  8
0
100
AcDbLine
 10
104.417738731586
 20
398.201286989349
 30
0.0
 11
98.098790919875
 21
398.2012869893492
 31
0.0
  0
LINE
  5
12FB
330
2
100
AcDbEntity
  8
0
100
AcDbLine
 10
49.41773873158786
 20
397.2012869893488
 30
0.0
 11
49.41773873158786
 21
317.201286989349
 31
0.0
  0
ARC
  5
12FC
330
2
100
AcDbEntity
  8
0
100
AcDbCircle
 10
94.93651325970608
 20
400.7012869893491
 30
0.0
 40
3.5
100
AcDbArc
 50
270.0
 51
305.0968012276138
  0
ARC
  5
12FD
330
2
100
AcDbEntity
  8
0
100
AcDbCircle
 10
94.93651325970608
 20
313.7012869893488
 30
0.0
 40
3.5
100
AcDbArc
 50
54.9031987723857
 51
90.0
  0
LINE
  5
12FE
330
2
100
AcDbEntity
  8
CENTER
  6
CENS
100
AcDbLine
 10
111.0225567313584
 20
391.8512869893491
 30
0.0
 11
84.02255673135845
 21
391.8512869893491
 31
0.0
  0
LINE
  5
12FF
330
2
100
AcDbEntity
  8
0
100
AcDbLine
 10
89.33528140672683
 20
386.8512869893491
 30
0.0
 11
89.33528140672683
 21
396.8512869893491
 31
0.0
  0
LINE
  5
1300
330
2
100
AcDbEntity
  8
0
100
AcDbLine
 10
88.93528140672719
 20
396.1584666663216
 30
0.0
 11
88.93528140672719
 21
387.5441073123768
 31
0.0
  0
LINE
  5
1301
330
2
100
AcDbEntity
  8
0
100
AcDbLine
 10
94.9352814067272
 20
386.8512869893491
 30
0.0
 11
94.9352814067272
 21
396.8512869893491
 31
0.0
  0
LINE
  5
1302
330
2
100
AcDbEntity
  8
0
100
AcDbLine
 10
94.9352814067272
 20
396.8512869893491
 30
0.0
 11
95.9352814067272
 21
396.8512869893491
 31
0.0
  0
LINE
  5
1303
330
2
100
AcDbEntity
  8
0
100
AcDbLine
 10
95.9352814067272
 20
396.8512869893491
 30
0.0
 11
95.9352814067272
 21
386.8512869893491
 31
0.0
  0
LINE
  5
1304
330
2
100
AcDbEntity
  8
0
100
AcDbLine
 10
95.9352814067272
 20
386.8512869893491
 30
0.0
 11
94.9352814067272
 21
386.8512869893491
 31
0.0
  0
LINE
  5
1305
330
2
100
AcDbEntity
  8
0
100
AcDbLine
 10
94.9352814067272
 20
386.8512869893491
 30
0.0
 11
94.9352814067272
 21
396.8512869893491
 31
0.0
  0
LINE
  5
1306
330
2
100
AcDbEntity
  8
0
100
AcDbLine
 10
89.33528140672683
 20
386.8512869893491
 30
0.0
 11
94.9352814067272
 21
386.8512869893491
 31
0.0
  0
LINE
  5
1307
330
2
100
AcDbEntity
  8
0
100
AcDbLine
 10
94.9352814067272
 20
396.8512869893491
 30
0.0
 11
89.33528140672683
 21
396.8512869893491
 31
0.0
  0
LINE
  5
1308
330
2
100
AcDbEntity
  8
0
100
AcDbLine
 10
89.33528140672683
 20
396.8512869893491
 30
0.0
 11
88.93528140672719
 21
396.1584666663216
 31
0.0
  0
LINE
  5
1309
330
2
100
AcDbEntity
  8
0
100
AcDbLine
 10
89.33528140672683
 20
386.8512869893489
 30
0.0
 11
88.93528140672719
 21
387.5441073123766
 31
0.0
  0
LINE
  5
130A
330
2
100
AcDbEntity
  8
CENTER
  6
CENS
100
AcDbLine
 10
111.0225567313584
 20
322.5512869893489
 30
0.0
 11
84.02255673135845
 21
322.5512869893489
 31
0.0
  0
LINE
  5
130B
330
2
100
AcDbEntity
  8
0
100
AcDbLine
 10
89.33528140672683
 20
327.5512869893489
 30
0.0
 11
89.33528140672683
 21
317.5512869893489
 31
0.0
  0
LINE
  5
130C
330
2
100
AcDbEntity
  8
0
100
AcDbLine
 10
88.93528140672719
 20
318.2441073123764
 30
0.0
 11
88.93528140672719
 21
326.8584666663212
 31
0.0
  0
LINE
  5
130D
330
2
100
AcDbEntity
  8
0
100
AcDbLine
 10
94.9352814067272
 20
327.5512869893489
 30
0.0
 11
94.9352814067272
 21
317.5512869893489
 31
0.0
  0
LINE
  5
130E
330
2
100
AcDbEntity
  8
0
100
AcDbLine
 10
94.9352814067272
 20
317.5512869893489
 30
0.0
 11
95.9352814067272
 21
317.5512869893489
 31
0.0
  0
LINE
  5
130F
330
2
100
AcDbEntity
  8
0
100
AcDbLine
 10
95.9352814067272
 20
317.5512869893489
 30
0.0
 11
95.9352814067272
 21
327.5512869893489
 31
0.0
  0
LINE
  5
1310
330
2
100
AcDbEntity
  8
0
100
AcDbLine
 10
95.9352814067272
 20
327.5512869893489
 30
0.0
 11
94.9352814067272
 21
327.5512869893489
 31
0.0
  0
LINE
  5
1311
330
2
100
AcDbEntity
  8
0
100
AcDbLine
 10
94.9352814067272
 20
327.5512869893489
 30
0.0
 11
94.9352814067272
 21
317.5512869893489
 31
0.0
  0
LINE
  5
1312
330
2
100
AcDbEntity
  8
0
100
AcDbLine
 10
89.33528140672683
 20
327.5512869893489
 30
0.0
 11
94.9352814067272
 21
327.5512869893489
 31
0.0
  0
LINE
  5
1313
330
2
100
AcDbEntity
  8
0
100
AcDbLine
 10
94.9352814067272
 20
317.5512869893489
 30
0.0
 11
89.33528140672683
 21
317.5512869893489
 31
0.0
  0
LINE
  5
1314
330
2
100
AcDbEntity
  8
0
100
AcDbLine
 10
89.33528140672683
 20
317.5512869893489
 30
0.0
 11
88.93528140672719
 21
318.2441073123764
 31
0.0
  0
LINE
  5
1315
330
2
100
AcDbEntity
  8
0
100
AcDbLine
 10
89.33528140672683
 20
327.5512869893491
 30
0.0
 11
88.93528140672719
 21
326.8584666663215
 31
0.0
  0
LINE
  5
1316
330
2
100
AcDbEntity
  8
0
100
AcDbLine
 10
58.41773873162424
 20
401.2012869893488
 30
0.0
 11
68.41773873162424
 21
401.2012869893488
 31
0.0
  0
ARC
  5
1317
330
2
100
AcDbEntity
  8
0
100
AcDbCircle
 10
68.41773873162424
 20
397.2012869893488
 30
0.0
 40
4.0
100
AcDbArc
 50
0.0
 51
90.0
  0
ARC
  5
1318
330
2
100
AcDbEntity
  8
0
100
AcDbCircle
 10
58.41773873162424
 20
397.2012869893488
 30
0.0
 40
4.0
100
AcDbArc
 50
90.0
 51
180.0
  0
LINE
  5
1319
330
2
100
AcDbEntity
  8
CENTER
  6
CENS
100
AcDbLine
 10
63.41773873162424
 20
406.3249714120541
 30
0.0
 11
63.41773873162424
 21
382.9650454096873
 31
0.0
  0
ARC
  5
131A
330
2
100
AcDbEntity
  8
0
100
AcDbCircle
 10
686.0352618873678
 20
391.3012602853046
 30
0.0
 40
3.0
100
AcDbArc
 50
270.0
 51
358.9999999999982
  0
LINE
  5
131B
330
2
100
AcDbEntity
  8
0
100
AcDbLine
 10
686.0352618873678
 20
388.3012602853046
 30
0.0
 11
698.6815562738431
 21
388.3012602853042
 31
0.0
  0
ARC
  5
131C
330
2
100
AcDbEntity
  8
0
100
AcDbCircle
 10
691.104098746928
 20
395.2012869893454
 30
0.0
 40
2.0
100
AcDbArc
 50
90.0
 51
178.9999999999982
  0
LINE
  5
131D
330
2
100
AcDbEntity
  8
0
100
AcDbLine
 10
689.0356992594391
 20
391.3001367111328
 30
0.0
 11
689.1044033566142
 21
395.23619180222
 31
0.0
  0
CIRCLE
  5
131E
330
2
100
AcDbEntity
  8
0
100
AcDbCircle
 10
929.836941237176
 20
357.2012869893358
 30
0.0
 40
29.0
  0
LINE
  5
131F
330
2
100
AcDbEntity
  8
0
100
AcDbLine
 10
706.1387042206954
 20
386.2012869893451
 30
0.0
 11
702.2290508719181
 21
386.2012869893451
 31
0.0
  0
LINE
  5
1320
330
2
100
AcDbEntity
  8
0
100
AcDbLine
 10
923.5750240268741
 20
398.6249221453227
 30
0.0
 11
929.8369412371741
 21
398.7012869893508
 31
0.0
  0
LINE
  5
1966
330
2
100
AcDbEntity
  8
PHAS
  6
SEKKEI_P_S
100
AcDbLine
 10
315.6656313590062
 20
328.7012869893304
 30
0.0
 11
315.6656313590062
 21
385.7012869893304
 31
0.0
  0
LINE
  5
1967
330
2
100
AcDbEntity
  8
PHAS
  6
SEKKEI_P_S
100
AcDbLine
 10
290.1656313590062
 20
344.1651849893304
 30
0.0
 11
290.1656313590062
 21
370.2373647474195
 31
0.0
  0
LINE
  5
1968
330
2
100
AcDbEntity
  8
PHAS
  6
SEKKEI_P_S
100
AcDbLine
 10
305.8656313590065
 20
331.8204384149747
 30
0.0
 11
305.8656313590065
 21
382.582135563687
 31
0.0
  0
LINE
  5
1969
330
2
100
AcDbEntity
  8
PHAS
  6
SEKKEI_P_S
100
AcDbLine
 10
315.6656313590062
 20
328.7012869893304
 30
0.0
 11
308.8132741396946
 21
328.820895329505
 31
0.0
  0
ARC
  5
196A
330
2
100
AcDbEntity
  8
PHAS
  6
SEKKEI_P_S
100
AcDbCircle
 10
304.8656313590065
 20
336.3621938219893
 30
0.0
 40
1.0
100
AcDbArc
 50
0.0
 51
79.99956533742561
  0
ARC
  5
196B
330
2
100
AcDbEntity
  8
PHAS
  6
SEKKEI_P_S
100
AcDbCircle
 10
308.8656313590065
 20
331.8204384149747
 30
0.0
 40
3.0
100
AcDbArc
 50
180.0
 51
268.9999999999982
  0
LINE
  5
196C
330
2
100
AcDbEntity
  8
PHAS
  6
SEKKEI_P_S
100
AcDbLine
 10
294.2973531154941
 20
339.2411770530524
 30
0.0
 11
305.0392870077087
 21
337.3470002576276
 31
0.0
  0
ARC
  5
196D
330
2
100
AcDbEntity
  8
PHAS
  6
SEKKEI_P_S
100
AcDbCircle
 10
295.1656313590063
 20
344.1652092312423
 30
0.0
 40
5.0
100
AcDbArc
 50
180.0
 51
259.9995653374256
  0
LINE
  5
196E
330
2
100
AcDbEntity
  8
PHAS
  6
SEKKEI_P_S
100
AcDbLine
 10
305.0392733590062
 20
337.3469779893301
 30
0.0
 11
305.0456331704688
 21
337.3458567190636
 31
0.0
  0
LINE
  5
196F
330
2
100
AcDbEntity
  8
PHAS
  6
SEKKEI_P_S
100
AcDbLine
 10
315.6656313590062
 20
385.7012869893304
 30
0.0
 11
308.8132741396946
 21
385.5816786491567
 31
0.0
  0
LINE
  5
1970
330
2
100
AcDbEntity
  8
PHAS
  6
SEKKEI_P_S
100
AcDbLine
 10
294.2973531154941
 20
375.1613969256085
 30
0.0
 11
305.0392870077087
 21
377.0555737210341
 31
0.0
  0
ARC
  5
1971
330
2
100
AcDbEntity
  8
PHAS
  6
SEKKEI_P_S
100
AcDbCircle
 10
295.1656313590063
 20
370.2373647474195
 30
0.0
 40
5.0
100
AcDbArc
 50
100.0004346625743
 51
180.0
  0
ARC
  5
1972
330
2
100
AcDbEntity
  8
PHAS
  6
SEKKEI_P_S
100
AcDbCircle
 10
304.8592851962459
 20
378.0392366181084
 30
0.0
 40
1.0
100
AcDbArc
 50
280.0004346625744
 51
0.0
  0
ARC
  5
1973
330
2
100
AcDbEntity
  8
PHAS
  6
SEKKEI_P_S
100
AcDbCircle
 10
308.8656313590079
 20
382.5821355636861
 30
0.0
 40
3.0
100
AcDbArc
 50
91.00000000000177
 51
180.0
  0
CIRCLE
  5
1C86
330
2
100
AcDbEntity
  8
0
100
AcDbCircle
 10
573.138704220709
 20
357.2012869893459
 30
0.0
 40
23.5774
  0
ENDSEC
  0
SECTION
  2
OBJECTS
  0
DICTIONARY
  5
7
330
0
100
AcDbDictionary
  3
ACAD_COLOR
350
1BD9
  3
ACAD_GROUP
350
75
  3
ACAD_LAYOUT
350
61
  3
ACAD_MATERIAL
350
1BAF
  3
ACAD_MLEADERSTYLE
350
1BFE
  3
ACAD_MLINESTYLE
350
76
  3
ACAD_PLOTSETTINGS
350
77
  3
ACAD_PLOTSTYLENAME
350
6
  3
ACAD_SCALELIST
350
1BDC
  3
ACAD_TABLESTYLE
350
1BDA
  3
ACAD_VISUALSTYLE
350
1BC8
  3
ACADDIM
350
480
  3
ACDB_RECOMPOSE_DATA
350
1C3A
  3
ACDBHEADERROUNDTRIPXREC
350
1CEF
  3
ACDBVARIABLEDICTIONARY
350
102
  3
DWGPROPS
350
1CBB
  0
DICTIONARY
  5
1C43
330
6E
100
AcDbDictionary
280
     1
  3
ACAD_XREC_ROUNDTRIP
360
1CC2
  0
DICTIONARY
  5
ADB
330
66
100
AcDbDictionary
280
     1
  3
ACAD_LAYERSTATES
360
ADC
  0
DICTIONARY
  5
1C02
330
5E
100
AcDbDictionary
280
     1
  3
ACAD_XREC_ROUNDTRIP
360
1CBE
  3
ADSK_XREC_LAYER_RECONCILED
360
1C03
  0
DICTIONARY
  5
1C04
330
3E
100
AcDbDictionary
280
     1
  3
ACAD_XREC_ROUNDTRIP
360
1CBD
  3
ADSK_XREC_LAYER_RECONCILED
360
1C05
  0
DICTIONARY
  5
1C0A
330
2B5
100
AcDbDictionary
280
     1
  3
ACAD_XREC_ROUNDTRIP
360
1CC8
  3
ADSK_XREC_LAYER_RECONCILED
360
1C0B
  0
DICTIONARY
  5
1C0C
330
2BA
100
AcDbDictionary
280
     1
  3
ACAD_XREC_ROUNDTRIP
360
1CC9
  3
ADSK_XREC_LAYER_RECONCILED
360
1C0D
  0
DICTIONARY
  5
1C10
330
3FA
100
AcDbDictionary
280
     1
  3
ACAD_XREC_ROUNDTRIP
360
1CCB
  3
ADSK_XREC_LAYER_RECONCILED
360
1C11
  0
DICTIONARY
  5
194F
330
194E
100
AcDbDictionary
280
     1
  3
ACAD_XREC_ROUNDTRIP
360
1CCE
  3
ADSK_XREC_LAYER_RECONCILED
360
1951
  0
DICTIONARY
  5
1D10
330
2
100
AcDbDictionary
280
     1
  3
ACAD_LAYOUTSELFREF
360
1D11
  0
DICTIONARY
  5
1D12
330
1CE9
100
AcDbDictionary
280
     1
  3
ACAD_LAYOUTSELFREF
360
1D13
  0
DICTIONARY
  5
1BD9
102
{ACAD_REACTORS
330
7
102
}
330
7
100
AcDbDictionary
  0
DICTIONARY
  5
75
102
{ACAD_REACTORS
330
7
102
}
330
7
100
AcDbDictionary
  0
DICTIONARY
  5
61
102
{ACAD_REACTORS
330
7
102
}
330
7
100
AcDbDictionary
  0
DICTIONARY
  5
1BAF
102
{ACAD_REACTORS
330
7
102
}
330
7
100
AcDbDictionary
  3
BYBLOCK
350
1BB8
  3
BYLAYER
350
1BB0
  3
GLOBAL
350
1BC0
  0
DICTIONARY
  5
1BFE
102
{ACAD_REACTORS
330
7
102
}
330
7
100
AcDbDictionary
  3
STANDARD
350
1BFF
  0
DICTIONARY
  5
76
102
{ACAD_REACTORS
330
7
102
}
330
7
100
AcDbDictionary
  3
STANDARD
350
78
  0
DICTIONARY
  5
77
102
{ACAD_REACTORS
330
7
102
}
330
7
100
AcDbDictionary
  0
ACDBDICTIONARYWDFLT
  5
6
102
{ACAD_REACTORS
330
7
102
}
330
7
100
AcDbDictionary
281
     1
  3
Normal
350
5
100
AcDbDictionaryWithDefault
340
5
  0
DICTIONARY
  5
1BDC
102
{ACAD_REACTORS
330
7
102
}
330
7
100
AcDbDictionary
  3
A0
350
1BDD
  3
A1
350
1BDE
  3
A2
350
1BDF
  3
A3
350
1BE0
  3
A4
350
1BE1
  3
A5
350
1BE2
  3
A6
350
1BE3
  3
A7
350
1BE4
  3
A8
350
1BE5
  3
A9
350
1BE6
  3
B0
350
1BE7
  3
B1
350
1BE8
  3
B2
350
1BE9
  3
B3
350
1BEA
  3
B4
350
1BEB
  3
B5
350
1BEC
  3
B6
350
1BED
  3
B7
350
1BEE
  3
B8
350
1BEF
  3
B9
350
1BF0
  3
C0
350
1BF1
  3
C1
350
1BF2
  3
C2
350
1BF3
  3
C3
350
1BF4
  3
C4
350
1BF5
  3
C5
350
1BF6
  3
C6
350
1BF7
  3
C7
350
1BF8
  3
C8
350
1BF9
  3
C9
350
1BFA
  3
D0
350
1BFB
  3
D1
350
1BFC
  3
D2
350
1BFD
  0
DICTIONARY
  5
1BDA
102
{ACAD_REACTORS
330
7
102
}
330
7
100
AcDbDictionary
  3
STANDARD
350
1BDB
  0
DICTIONARY
  5
1BC8
102
{ACAD_REACTORS
330
7
102
}
330
7
100
AcDbDictionary
  3
2DWIREFRAME
350
1BCE
  3
3D_HIDDEN
350
1BD0
  3
3DWIREFRAME
350
1BCF
  3
BASIC
350
1BCD
  3
BRIGHTEN
350
1BD4
  3
COLORCHANGE
350
1BD8
  3
CONCEPTUAL
350
1BD1
  3
DIM
350
1BD3
  3
FACEPATTERN
350
1BD7
  3
FLAT
350
1BC9
  3
FLATWITHEDGES
350
1BCA
  3
GOURAUD
350
1BCB
  3
GOURAUDWITHEDGES
350
1BCC
  3
LINEPATTERN
350
1BD6
  3
REALISTIC
350
1BD2
  3
THICKEN
350
1BD5
  0
XRECORD
  5
480
102
{ACAD_REACTORS
330
7
102
}
330
7
100
AcDbXrecord
 90
   990106
  3

 60
     0
 61
     0
 62
     1
 63
     3
 64
     1
 65
     0
 66
     0
 67
     3
 68
     1
 69
     0
 70
     0
 71
     0
 72
     0
 40
0.0
170
     2
340
0
  0
XRECORD
  5
1C3A
102
{ACAD_REACTORS
330
7
102
}
330
7
100
AcDbXrecord
 90
        1
330
1BDB
  0
DICTIONARY
  5
1CEF
102
{ACAD_REACTORS
330
7
102
}
330
7
100
AcDbDictionary
  3
CEPSNTYPE
350
1CF9
  3
DIMSTYLEDATA
350
1CFD
  3
FINGERPRINTGUID
350
1CFA
  3
HYPERLINKBASE
350
1CF2
  3
INSUNITS
350
1CF8
  3
LAYOUTDICT
350
1CF4
  3
LWETCUNION
350
1CF7
  3
PLOTSETDICT
350
1CF5
  3
PLOTSTYLNAMDICT
350
1CF6
  3
PSVPSCALE
350
1CFC
  3
PUCSBASE
350
1D00
  3
PUCSORGBACK
350
1D06
  3
PUCSORGBOTTOM
350
1D02
  3
PUCSORGFRONT
350
1D05
  3
PUCSORGLEFT
350
1D03
  3
PUCSORGRIGHT
350
1D04
  3
PUCSORGTOP
350
1D01
  3
PUCSORTHOREF
350
1CFE
  3
PUCSORTHOVIEW
350
1CFF
  3
STYLESHEET
350
1CF3
  3
TSTACKALIGN
350
1CF0
  3
TSTACKSIZE
350
1CF1
  3
UCSBASE
350
1D09
  3
UCSORGBACK
350
1D0F
  3
UCSORGBOTTOM
350
1D0B
  3
UCSORGFRONT
350
1D0E
  3
UCSORGLEFT
350
1D0C
  3
UCSORGRIGHT
350
1D0D
  3
UCSORGTOP
350
1D0A
  3
UCSORTHOREF
350
1D07
  3
UCSORTHOVIEW
350
1D08
  3
VERSIONGUID
350
1CFB
  0
DICTIONARY
  5
102
102
{ACAD_REACTORS
330
7
102
}
330
7
100
AcDbDictionary
  3
CANNOSCALE
350
1C5B
  3
CMLEADERSTYLE
350
1C5A
  3
CTABLESTYLE
350
1C59
  3
DIMASSOC
350
103
  3
INDEXCTL
350
1C5C
  3
SORTENTS
350
549
  0
XRECORD
  5
1CBB
102
{ACAD_REACTORS
330
7
102
}
330
7
100
AcDbXrecord
  1
DWGPROPS COOKIE
  2

  3

  4

  6

  7

  8
ymorima
  9

300
=
301
=
302
=
303
=
304
=
305
=
306
=
307
=
308
=
309
=
 40
0.0141615972222222
 41
2454410.727105034
 42
2454425.679441724
  1

 90
        0
  0
XRECORD
  5
1CC2
102
{ACAD_REACTORS
330
1C43
102
}
330
1C43
100
AcDbXrecord
102
VTR_0.000_0.000_1.000_1.000_VISUALSTYLE
340
1BCE
102
VTR_0.000_0.000_1.000_1.000_GRIDDISPLAY
 70
     3
102
VTR_0.000_0.000_1.000_1.000_GRIDMAJOR
 70
     5
102
VTR_0.000_0.000_1.000_1.000_DEFAULTLIGHTING
280
     1
102
VTR_0.000_0.000_1.000_1.000_DEFAULTLIGHTINGTYPE
 70
     1
102
VTR_0.000_0.000_1.000_1.000_BRIGHTNESS
141
0.0
102
VTR_0.000_0.000_1.000_1.000_CONTRAST
142
0.0
  0
DICTIONARY
  5
ADC
102
{ACAD_REACTORS
330
ADB
102
}
330
ADB
100
AcDbDictionary
  0
XRECORD
  5
1CBE
102
{ACAD_REACTORS
330
1C02
102
}
330
1C02
100
AcDbXrecord
102
MATERIAL
340
1BC0
  0
XRECORD
  5
1C03
102
{ACAD_REACTORS
330
1C02
102
}
330
1C02
100
AcDbXrecord
290
     1
  0
XRECORD
  5
1CBD
102
{ACAD_REACTORS
330
1C04
102
}
330
1C04
100
AcDbXrecord
102
MATERIAL
340
1BC0
  0
XRECORD
  5
1C05
102
{ACAD_REACTORS
330
1C04
102
}
330
1C04
100
AcDbXrecord
290
     1
  0
XRECORD
  5
1CC8
102
{ACAD_REACTORS
330
1C0A
102
}
330
1C0A
100
AcDbXrecord
102
MATERIAL
340
1BC0
  0
XRECORD
  5
1C0B
102
{ACAD_REACTORS
330
1C0A
102
}
330
1C0A
100
AcDbXrecord
290
     1
  0
XRECORD
  5
1CC9
102
{ACAD_REACTORS
330
1C0C
102
}
330
1C0C
100
AcDbXrecord
102
MATERIAL
340
1BC0
  0
XRECORD
  5
1C0D
102
{ACAD_REACTORS
330
1C0C
102
}
330
1C0C
100
AcDbXrecord
290
     1
  0
XRECORD
  5
1CCB
102
{ACAD_REACTORS
330
1C10
102
}
330
1C10
100
AcDbXrecord
102
MATERIAL
340
1BC0
  0
XRECORD
  5
1C11
102
{ACAD_REACTORS
330
1C10
102
}
330
1C10
100
AcDbXrecord
290
     1
  0
XRECORD
  5
1CCE
102
{ACAD_REACTORS
330
194F
102
}
330
194F
100
AcDbXrecord
102
MATERIAL
340
1BC0
  0
XRECORD
  5
1951
102
{ACAD_REACTORS
330
194F
102
}
330
194F
100
AcDbXrecord
290
     1
  0
XRECORD
  5
1D11
102
{ACAD_REACTORS
330
1D10
102
}
330
1D10
100
AcDbXrecord
340
2
  0
XRECORD
  5
1D13
102
{ACAD_REACTORS
330
1D12
102
}
330
1D12
100
AcDbXrecord
340
1CE9
  0
ACAD_PROXY_OBJECT
  5
1BB8
102
{ACAD_XDICTIONARY
360
1BB9
102
}
102
{ACAD_REACTORS
330
1BAF
102
}
330
1BAF
100
AcDbProxyObject
 90
      499
 91
      510
 93
     1340
310
42109E509B1BD8DAC02004014080404555555555555953FAA155555555555654FEA9AA400014080404555555555555953FAA155555555555654FEA9AA400000000000000E03F4080404555555555555953FAA155555555555654FEA9AA4014080404555555555555953FAA155555555555654FEA9AA4010201011555555555
310
55654FEA8555555555555953FAA6A9005020101155555555555654FEA8555555555555953FAA6A9000
 94
        0
1001
ACAD
1000
AcadProxyRoundTripData
1071
      504
1071
   655383
1070
     0
  0
ACAD_PROXY_OBJECT
  5
1BB0
102
{ACAD_XDICTIONARY
360
1BB1
102
}
102
{ACAD_REACTORS
330
1BAF
102
}
330
1BAF
100
AcDbProxyObject
 90
      499
 91
      510
 93
     1340
310
42109E53185E595C802004014080404555555555555953FAA155555555555654FEA9AA400014080404555555555555953FAA155555555555654FEA9AA400000000000000E03F4080404555555555555953FAA155555555555654FEA9AA4014080404555555555555953FAA155555555555654FEA9AA4010201011555555555
310
55654FEA8555555555555953FAA6A9005020101155555555555654FEA8555555555555953FAA6A9000
 94
        0
1001
ACAD
1000
AcadProxyRoundTripData
1071
      504
1071
   655383
1070
     0
  0
ACAD_PROXY_OBJECT
  5
1BC0
102
{ACAD_XDICTIONARY
360
1BC1
102
}
102
{ACAD_REACTORS
330
1BAF
102
}
330
1BAF
100
AcDbProxyObject
 90
      499
 91
      510
 93
     1332
310
41D1DB1BD8985B002004014080404555555555555953FAA155555555555654FEA9AA400014080404555555555555953FAA155555555555654FEA9AA400000000000000E03F4080404555555555555953FAA155555555555654FEA9AA4014080404555555555555953FAA155555555555654FEA9AA401020101155555555555
310
654FEA8555555555555953FAA6A9005020101155555555555654FEA8555555555555953FAA6A9000
 94
        0
1001
ACAD
1000
AcadProxyRoundTripData
1071
      504
1071
   655383
1070
     0
  0
ACAD_PROXY_OBJECT
  5
1BFF
102
{ACAD_REACTORS
330
1BFE
102
}
330
1BFE
100
AcDbProxyObject
 90
      499
 91
      510
 93
      618
310
40901902A4063FBFFFFFE056BD1B81E855B9FC0AD7A3703D0AD73F4254DD185B99185C990000AD7A3703D0AC73F90141901A02B5E8DC0F42B1CFC02B5E8DC0F42B1CFE5764000000000000300FC6
340
6A
340
0
340
16
340
0
 94
        0
1001
ACAD_MLEADERVER
1070
     2
1001
ACAD
1000
AcadProxyRoundTripData
1071
      508
1071
   655383
1070
     0
  0
MLINESTYLE
  5
78
102
{ACAD_REACTORS
330
76
102
}
330
76
100
AcDbMlineStyle
  2
STANDARD
 70
     0
  3

 62
     0
 51
90.0
 52
90.0
 71
     2
 49
0.5
 62
   256
  6
BYLAYER
 49
-0.5
 62
   256
  6
BYLAYER
  0
ACDBPLACEHOLDER
  5
5
102
{ACAD_REACTORS
330
6
102
}
330
6
100
AcDbPlaceHolder
280
     0
  0
ACAD_PROXY_OBJECT
  5
1BDD
102
{ACAD_REACTORS
330
1BDC
102
}
330
1BDC
100
AcDbProxyObject
 90
      499
 91
      510
 93
       49
310
904313A3100598
 94
        0
1001
ACAD
1000
AcadProxyRoundTripData
1071
      507
1071
   655383
1070
     0
  0
ACAD_PROXY_OBJECT
  5
1BDE
102
{ACAD_REACTORS
330
1BDC
102
}
330
1BDC
100
AcDbProxyObject
 90
      499
 91
      510
 93
      113
310
904313A3200400000000000000406B
 94
        0
1001
ACAD
1000
AcadProxyRoundTripData
1071
      507
1071
   655383
1070
     0
  0
ACAD_PROXY_OBJECT
  5
1BDF
102
{ACAD_REACTORS
330
1BDC
102
}
330
1BDC
100
AcDbProxyObject
 90
      499
 91
      510
 93
      113
310
904313A3400400000000000010406B
 94
        0
1001
ACAD
1000
AcadProxyRoundTripData
1071
      507
1071
   655383
1070
     0
  0
ACAD_PROXY_OBJECT
  5
1BE0
102
{ACAD_REACTORS
330
1BDC
102
}
330
1BDC
100
AcDbProxyObject
 90
      499
 91
      510
 93
      113
310
904313A3500400000000000014406B
 94
        0
1001
ACAD
1000
AcadProxyRoundTripData
1071
      507
1071
   655383
1070
     0
  0
ACAD_PROXY_OBJECT
  5
1BE1
102
{ACAD_REACTORS
330
1BDC
102
}
330
1BDC
100
AcDbProxyObject
 90
      499
 91
      510
 93
      113
310
904313A3800400000000000020406B
 94
        0
1001
ACAD
1000
AcadProxyRoundTripData
1071
      507
1071
   655383
1070
     0
  0
ACAD_PROXY_OBJECT
  5
1BE2
102
{ACAD_REACTORS
330
1BDC
102
}
330
1BDC
100
AcDbProxyObject
 90
      499
 91
      510
 93
      121
310
905313A3130004000000000000244051
 94
        0
1001
ACAD
1000
AcadProxyRoundTripData
1071
      507
1071
   655383
1070
     0
  0
ACAD_PROXY_OBJECT
  5
1BE3
102
{ACAD_REACTORS
330
1BDC
102
}
330
1BDC
100
AcDbProxyObject
 90
      499
 91
      510
 93
      121
310
905313A3136004000000000000304051
 94
        0
1001
ACAD
1000
AcadProxyRoundTripData
1071
      507
1071
   655383
1070
     0
  0
ACAD_PROXY_OBJECT
  5
1BE4
102
{ACAD_REACTORS
330
1BDC
102
}
330
1BDC
100
AcDbProxyObject
 90
      499
 91
      510
 93
      121
310
905313A3230004000000000000344051
 94
        0
1001
ACAD
1000
AcadProxyRoundTripData
1071
      507
1071
   655383
1070
     0
  0
ACAD_PROXY_OBJECT
  5
1BE5
102
{ACAD_REACTORS
330
1BDC
102
}
330
1BDC
100
AcDbProxyObject
 90
      499
 91
      510
 93
      121
310
905313A33300040000000000003E4051
 94
        0
1001
ACAD
1000
AcadProxyRoundTripData
1071
      507
1071
   655383
1070
     0
  0
ACAD_PROXY_OBJECT
  5
1BE6
102
{ACAD_REACTORS
330
1BDC
102
}
330
1BDC
100
AcDbProxyObject
 90
      499
 91
      510
 93
      121
310
905313A3430004000000000000444051
 94
        0
1001
ACAD
1000
AcadProxyRoundTripData
1071
      507
1071
   655383
1070
     0
  0
ACAD_PROXY_OBJECT
  5
1BE7
102
{ACAD_REACTORS
330
1BDC
102
}
330
1BDC
100
AcDbProxyObject
 90
      499
 91
      510
 93
      121
310
905313A3530004000000000000494051
 94
        0
1001
ACAD
1000
AcadProxyRoundTripData
1071
      507
1071
   655383
1070
     0
  0
ACAD_PROXY_OBJECT
  5
1BE8
102
{ACAD_REACTORS
330
1BDC
102
}
330
1BDC
100
AcDbProxyObject
 90
      499
 91
      510
 93
      129
310
906313A313030004000000000000594038
 94
        0
1001
ACAD
1000
AcadProxyRoundTripData
1071
      507
1071
   655383
1070
     0
  0
ACAD_PROXY_OBJECT
  5
1BE9
102
{ACAD_REACTORS
330
1BDC
102
}
330
1BDC
100
AcDbProxyObject
 90
      499
 91
      510
 93
      113
310
904323A31000000000000000010159
 94
        0
1001
ACAD
1000
AcadProxyRoundTripData
1071
      507
1071
   655383
1070
     0
  0
ACAD_PROXY_OBJECT
  5
1BEA
102
{ACAD_REACTORS
330
1BDC
102
}
330
1BDC
100
AcDbProxyObject
 90
      499
 91
      510
 93
      113
310
904343A31000000000000000410159
 94
        0
1001
ACAD
1000
AcadProxyRoundTripData
1071
      507
1071
   655383
1070
     0
  0
ACAD_PROXY_OBJECT
  5
1BEB
102
{ACAD_REACTORS
330
1BDC
102
}
330
1BDC
100
AcDbProxyObject
 90
      499
 91
      510
 93
      113
310
904383A31000000000000000810159
 94
        0
1001
ACAD
1000
AcadProxyRoundTripData
1071
      507
1071
   655383
1070
     0
  0
ACAD_PROXY_OBJECT
  5
1BEC
102
{ACAD_REACTORS
330
1BDC
102
}
330
1BDC
100
AcDbProxyObject
 90
      499
 91
      510
 93
      121
310
90531303A31000000000000000910140
 94
        0
1001
ACAD
1000
AcadProxyRoundTripData
1071
      507
1071
   655383
1070
     0
  0
ACAD_PROXY_OBJECT
  5
1BED
102
{ACAD_REACTORS
330
1BDC
102
}
330
1BDC
100
AcDbProxyObject
 90
      499
 91
      510
 93
      129
310
9063130303A31000000000000001650138
 94
        0
1001
ACAD
1000
AcadProxyRoundTripData
1071
      507
1071
   655383
1070
     0
  0
ACAD_PROXY_OBJECT
  5
1BEE
102
{ACAD_REACTORS
330
1BDC
102
}
330
1BDC
100
AcDbProxyObject
 90
      499
 91
      510
 93
      265
310
90F312F31323822203D2031272D302200000000000000200FC00000000000028402B
 94
        0
1001
ACAD
1000
AcadProxyRoundTripData
1071
      507
1071
   655383
1070
     0
  0
ACAD_PROXY_OBJECT
  5
1BEF
102
{ACAD_REACTORS
330
1BDC
102
}
330
1BDC
100
AcDbProxyObject
 90
      499
 91
      510
 93
      257
310
90E312F363422203D2031272D302200000000000000240FC000000000000284040
 94
        0
1001
ACAD
1000
AcadProxyRoundTripData
1071
      507
1071
   655383
1070
     0
  0
ACAD_PROXY_OBJECT
  5
1BF0
102
{ACAD_REACTORS
330
1BDC
102
}
330
1BDC
100
AcDbProxyObject
 90
      499
 91
      510
 93
      257
310
90E312F333222203D2031272D302200000000000000280FC000000000000284040
 94
        0
1001
ACAD
1000
AcadProxyRoundTripData
1071
      507
1071
   655383
1070
     0
  0
ACAD_PROXY_OBJECT
  5
1BF1
102
{ACAD_REACTORS
330
1BDC
102
}
330
1BDC
100
AcDbProxyObject
 90
      499
 91
      510
 93
      257
310
90E312F313622203D2031272D3022000000000000002C0FC000000000000284040
 94
        0
1001
ACAD
1000
AcadProxyRoundTripData
1071
      507
1071
   655383
1070
     0
  0
ACAD_PROXY_OBJECT
  5
1BF2
102
{ACAD_REACTORS
330
1BDC
102
}
330
1BDC
100
AcDbProxyObject
 90
      499
 91
      510
 93
      257
310
90E332F333222203D2031272D3022000000000000002E0FC000000000000284040
 94
        0
1001
ACAD
1000
AcadProxyRoundTripData
1071
      507
1071
   655383
1070
     0
  0
ACAD_PROXY_OBJECT
  5
1BF3
102
{ACAD_REACTORS
330
1BDC
102
}
330
1BDC
100
AcDbProxyObject
 90
      499
 91
      510
 93
      249
310
90D312F3822203D2031272D302200000000000000300FC000000000000284040
 94
        0
1001
ACAD
1000
AcadProxyRoundTripData
1071
      507
1071
   655383
1070
     0
  0
ACAD_PROXY_OBJECT
  5
1BF4
102
{ACAD_REACTORS
330
1BDC
102
}
330
1BDC
100
AcDbProxyObject
 90
      499
 91
      510
 93
      257
310
90E332F313622203D2031272D302200000000000000320FC000000000000284040
 94
        0
1001
ACAD
1000
AcadProxyRoundTripData
1071
      507
1071
   655383
1070
     0
  0
ACAD_PROXY_OBJECT
  5
1BF5
102
{ACAD_REACTORS
330
1BDC
102
}
330
1BDC
100
AcDbProxyObject
 90
      499
 91
      510
 93
      249
310
90D312F3422203D2031272D302200000000000000340FC000000000000284040
 94
        0
1001
ACAD
1000
AcadProxyRoundTripData
1071
      507
1071
   655383
1070
     0
  0
ACAD_PROXY_OBJECT
  5
1BF6
102
{ACAD_REACTORS
330
1BDC
102
}
330
1BDC
100
AcDbProxyObject
 90
      499
 91
      510
 93
      249
310
90D332F3822203D2031272D302200000000000000360FC000000000000284040
 94
        0
1001
ACAD
1000
AcadProxyRoundTripData
1071
      507
1071
   655383
1070
     0
  0
ACAD_PROXY_OBJECT
  5
1BF7
102
{ACAD_REACTORS
330
1BDC
102
}
330
1BDC
100
AcDbProxyObject
 90
      499
 91
      510
 93
      249
310
90D312F3222203D2031272D302200000000000000380FC000000000000284040
 94
        0
1001
ACAD
1000
AcadProxyRoundTripData
1071
      507
1071
   655383
1070
     0
  0
ACAD_PROXY_OBJECT
  5
1BF8
102
{ACAD_REACTORS
330
1BDC
102
}
330
1BDC
100
AcDbProxyObject
 90
      499
 91
      510
 93
      249
310
90D332F3422203D2031272D3022000000000000003A0FC000000000000284040
 94
        0
1001
ACAD
1000
AcadProxyRoundTripData
1071
      507
1071
   655383
1070
     0
  0
ACAD_PROXY_OBJECT
  5
1BF9
102
{ACAD_REACTORS
330
1BDC
102
}
330
1BDC
100
AcDbProxyObject
 90
      499
 91
      510
 93
      169
310
90B3122203D2031272D3022004000000000000284020
 94
        0
1001
ACAD
1000
AcadProxyRoundTripData
1071
      507
1071
   655383
1070
     0
  0
ACAD_PROXY_OBJECT
  5
1BFA
102
{ACAD_REACTORS
330
1BDC
102
}
330
1BDC
100
AcDbProxyObject
 90
      499
 91
      510
 93
      265
310
90F312D312F3222203D2031272D3022000000000000003E0FC00000000000028402B
 94
        0
1001
ACAD
1000
AcadProxyRoundTripData
1071
      507
1071
   655383
1070
     0
  0
ACAD_PROXY_OBJECT
  5
1BFB
102
{ACAD_REACTORS
330
1BDC
102
}
330
1BDC
100
AcDbProxyObject
 90
      499
 91
      510
 93
      233
310
90B3322203D2031272D30220000000000000002100000000000000284000
 94
        0
1001
ACAD
1000
AcadProxyRoundTripData
1071
      507
1071
   655383
1070
     0
  0
ACAD_PROXY_OBJECT
  5
1BFC
102
{ACAD_REACTORS
330
1BDC
102
}
330
1BDC
100
AcDbProxyObject
 90
      499
 91
      510
 93
      233
310
90B3622203D2031272D30220000000000000006100000000000000284000
 94
        0
1001
ACAD
1000
AcadProxyRoundTripData
1071
      507
1071
   655383
1070
     0
  0
ACAD_PROXY_OBJECT
  5
1BFD
102
{ACAD_REACTORS
330
1BDC
102
}
330
1BDC
100
AcDbProxyObject
 90
      499
 91
      510
 93
      257
310
90E31272D3022203D2031272D3022000000000000000A100000000000000284040
 94
        0
1001
ACAD
1000
AcadProxyRoundTripData
1071
      507
1071
   655383
1070
     0
  0
ACAD_PROXY_OBJECT
  5
1BDB
102
{ACAD_XDICTIONARY
360
1C38
102
}
102
{ACAD_REACTORS
330
1BDA
102
}
330
1BDA
100
AcDbProxyObject
 90
      499
 91
      510
 93
     1849
310
4254DD185B99185C990028B81E85EB51B8AE3F2E07A17AD46E2B8FC02B5E8DC0F42B1CFD028000000C1008070000C3001FDFF8000000C1003FBFF000000182007F7FE00000030400FEFFC00000060801FDFF8000000C1003FBFF00000018200000000000000681FA0B0000001820100E000186003FBFF000000182007F7FE0
310
0000030400FEFFC00000060801FDFF8000000C1003FBFF000000182007F7FE000000304000AD7A3703D0AC73F4160000003040201C00030C007F7FE00000030400FEFFC00000060801FDFF8000000C1003FBFF000000182007F7FE00000030400FEFFC000000608000
340
16
340
16
340
16
 94
        0
1001
ACAD
1000
AcadProxyRoundTripData
1071
      506
1071
   655383
1070
     0
  0
ACAD_PROXY_OBJECT
  5
1BCE
102
{ACAD_REACTORS
330
1BC8
102
}
330
1BC8
100
AcDbProxyObject
 90
      499
 91
      510
 93
      444
310
430C9915DA5C99599C985B59401049028333333333333E3BF0000000000000FB0107901411070040501600405405064090741402480A0340
 94
        0
1001
ACAD
1000
AcDbSavedByObjectVersion
1070
     0
1000
AcadProxyRoundTripData
1071
      505
1071
   655383
1070
     0
  0
ACAD_PROXY_OBJECT
  5
1BD0
102
{ACAD_REACTORS
330
1BC8
102
}
330
1BC8
100
AcDbProxyObject
 90
      499
 91
      510
 93
      508
310
428CD108121A5919195B8010640502408333333333333E3BF0000000000000FB01079024090700405020000000000001110200405405064090740C02480A0340
 94
        0
1001
ACAD
1000
AcDbSavedByObjectVersion
1070
     0
1000
AcadProxyRoundTripData
1071
      505
1071
   655383
1070
     0
  0
ACAD_PROXY_OBJECT
  5
1BCF
102
{ACAD_REACTORS
330
1BC8
102
}
330
1BC8
100
AcDbProxyObject
 90
      499
 91
      510
 93
      444
310
430CD915DA5C99599C985B59401059028333333333333E3BF0000000000000FB0107901411070040501600405405064090741402480A0340
 94
        0
1001
ACAD
1000
AcDbSavedByObjectVersion
1070
     0
1000
AcadProxyRoundTripData
1071
      505
1071
   655383
1070
     0
  0
ACAD_PROXY_OBJECT
  5
1BCD
102
{ACAD_REACTORS
330
1BC8
102
}
330
1BC8
100
AcDbProxyObject
 90
      499
 91
      510
 93
      396
310
4190985CDA58C0107406404333333333333E3BF0000000000000FB0107A41107004050150841D405064090741402480A0356
 94
        0
1001
ACAD
1000
AcDbSavedByObjectVersion
1070
     0
1000
AcadProxyRoundTripData
1071
      505
1071
   655383
1070
     0
  0
ACAD_PROXY_OBJECT
  5
1BD4
102
{ACAD_REACTORS
330
1BC8
102
}
330
1BC8
100
AcDbProxyObject
 90
      499
 91
      510
 93
      436
310
42509C9A59DA1D195B8010C409028333333333333E3BF0000000000000FB010790141107004050150841D405064090741402480A029956
 94
        0
1001
ACAD
1000
AcDbSavedByObjectVersion
1070
     0
1000
AcadProxyRoundTripData
1071
      505
1071
   655383
1070
     0
  0
ACAD_PROXY_OBJECT
  5
1BD8
102
{ACAD_REACTORS
330
1BC8
102
}
330
1BC8
100
AcDbProxyObject
 90
      499
 91
      510
 93
      460
310
4310DBDB1BDC90DA185B99D9401104090240C333333333333E3BF0000000000000FB0108901411070040501508421405064090741402480A0354
 94
        0
1001
ACAD
1000
AcDbSavedByObjectVersion
1070
     0
1000
AcadProxyRoundTripData
1071
      505
1071
   655383
1070
     0
  0
ACAD_PROXY_OBJECT
  5
1BD1
102
{ACAD_REACTORS
330
1BC8
102
}
330
1BC8
100
AcDbProxyObject
 90
      499
 91
      510
 93
      508
310
42D0DBDB98D95C1D1D585B0010940D028333333333333E3BF0000000000000FB0107902409070040501000000000000111010841D405064090740C02480A0340
 94
        0
1001
ACAD
1000
AcDbSavedByObjectVersion
1070
     0
1000
AcadProxyRoundTripData
1071
      505
1071
   655383
1070
     0
  0
ACAD_PROXY_OBJECT
  5
1BD3
102
{ACAD_REACTORS
330
1BC8
102
}
330
1BC8
100
AcDbProxyObject
 90
      499
 91
      510
 93
      420
310
41111A5B4010B409028333333333333E3BF0000000000000FB010790141107004050150841D405064090741402480A02677FFFFFDB
 94
        0
1001
ACAD
1000
AcDbSavedByObjectVersion
1070
     0
1000
AcadProxyRoundTripData
1071
      505
1071
   655383
1070
     0
  0
ACAD_PROXY_OBJECT
  5
1BD7
102
{ACAD_REACTORS
330
1BC8
102
}
330
1BC8
100
AcDbProxyObject
 90
      499
 91
      510
 93
      452
310
43119858D95C185D1D195C9B8010F409028333333333333E3BF0000000000000FB010790141107004050150841D405064090741402480A0350
 94
        0
1001
ACAD
1000
AcDbSavedByObjectVersion
1070
     0
1000
AcadProxyRoundTripData
1071
      505
1071
   655383
1070
     0
  0
ACAD_PROXY_OBJECT
  5
1BC9
102
{ACAD_REACTORS
330
1BC8
102
}
330
1BC8
100
AcDbProxyObject
 90
      499
 91
      510
 93
      396
310
41519B185D00240901404333333333333E3BF0000000000000F9010740A41107004050150841D405064090741402480A1B55
 94
        0
1001
ACAD
1000
AcDbSavedByObjectVersion
1070
     0
1000
AcadProxyRoundTripData
1071
      505
1071
   655383
1070
     0
  0
ACAD_PROXY_OBJECT
  5
1BCA
102
{ACAD_REACTORS
330
1BC8
102
}
330
1BC8
100
AcDbProxyObject
 90
      499
 91
      510
 93
      484
310
43919B185D15DA5D1A115919D95CC010140901404333333333333E3BF0000000000000F9010740901411070040501600405405064090741402480A1B50
 94
        0
1001
ACAD
1000
AcDbSavedByObjectVersion
1070
     0
1000
AcadProxyRoundTripData
1071
      505
1071
   655383
1070
     0
  0
ACAD_PROXY_OBJECT
  5
1BCB
102
{ACAD_REACTORS
330
1BC8
102
}
330
1BC8
100
AcDbProxyObject
 90
      499
 91
      510
 93
      420
310
4211DBDD5C985D590010240902404333333333333E3BF0000000000000F9010740A411070040501641D405064090741402480A1B50
 94
        0
1001
ACAD
1000
AcDbSavedByObjectVersion
1070
     0
1000
AcadProxyRoundTripData
1071
      505
1071
   655383
1070
     0
  0
ACAD_PROXY_OBJECT
  5
1BCC
102
{ACAD_REACTORS
330
1BC8
102
}
330
1BC8
100
AcDbProxyObject
 90
      499
 91
      510
 93
      508
310
4451DBDD5C985D5915DA5D1A115919D95CC010340902404333333333333E3BF0000000000000F9010740901411070040501600405405064090741402480A1B50
 94
        0
1001
ACAD
1000
AcDbSavedByObjectVersion
1070
     0
1000
AcadProxyRoundTripData
1071
      505
1071
   655383
1070
     0
  0
ACAD_PROXY_OBJECT
  5
1BD6
102
{ACAD_REACTORS
330
1BC8
102
}
330
1BC8
100
AcDbProxyObject
 90
      499
 91
      510
 93
      452
310
43131A5B995C185D1D195C9B8010E409028333333333333E3BF0000000000000FB010790141107004050750841D405064090741402483A0350
 94
        0
1001
ACAD
1000
AcDbSavedByObjectVersion
1070
     0
1000
AcadProxyRoundTripData
1071
      505
1071
   655383
1070
     0
  0
ACAD_PROXY_OBJECT
  5
1BD2
102
{ACAD_REACTORS
330
1BC8
102
}
330
1BC8
100
AcDbProxyObject
 90
      499
 91
      510
 93
      428
310
429499585B1A5CDD1A58C0108409028333333333333E3BF0000000000000FB01079019070040501508421405064090741402480A1B45
 94
        0
1001
ACAD
1000
AcDbSavedByObjectVersion
1070
     0
1000
AcadProxyRoundTripData
1071
      505
1071
   655383
1070
     0
  0
ACAD_PROXY_OBJECT
  5
1BD5
102
{ACAD_REACTORS
330
1BC8
102
}
330
1BC8
100
AcDbProxyObject
 90
      499
 91
      510
 93
      420
310
42151A1A58DAD95B8010D409028333333333333E3BF0000000000000FB010790141107004050150C41D405064090741402480A0352
 94
        0
1001
ACAD
1000
AcDbSavedByObjectVersion
1070
     0
1000
AcadProxyRoundTripData
1071
      505
1071
   655383
1070
     0
  0
XRECORD
  5
1CF9
102
{ACAD_REACTORS
330
1CEF
102
}
330
1CEF
100
AcDbXrecord
 90
        0
  0
XRECORD
  5
1CFD
102
{ACAD_REACTORS
330
1CEF
102
}
330
1CEF
100
AcDbXrecord
1000
DSTYLE
1002
{
1070
   179
 70
     2
1070
   277
 70
     6
1002
}
  0
XRECORD
  5
1CFA
102
{ACAD_REACTORS
330
1CEF
102
}
330
1CEF
100
AcDbXrecord
  1
{6385560B-F4B1-4644-A7C2-A3E32AC3D232}
  0
XRECORD
  5
1CF2
102
{ACAD_REACTORS
330
1CEF
102
}
330
1CEF
100
AcDbXrecord
  1

  0
XRECORD
  5
1CF8
102
{ACAD_REACTORS
330
1CEF
102
}
330
1CEF
100
AcDbXrecord
 90
        0
  0
XRECORD
  5
1CF4
102
{ACAD_REACTORS
330
1CEF
102
}
330
1CEF
100
AcDbXrecord
340
61
  0
XRECORD
  5
1CF7
102
{ACAD_REACTORS
330
1CEF
102
}
330
1CEF
100
AcDbXrecord
 90
    10781
  0
XRECORD
  5
1CF5
102
{ACAD_REACTORS
330
1CEF
102
}
330
1CEF
100
AcDbXrecord
340
77
  0
XRECORD
  5
1CF6
102
{ACAD_REACTORS
330
1CEF
102
}
330
1CEF
100
AcDbXrecord
340
6
  0
XRECORD
  5
1CFC
102
{ACAD_REACTORS
330
1CEF
102
}
330
1CEF
100
AcDbXrecord
 40
0.0
  0
XRECORD
  5
1D00
102
{ACAD_REACTORS
330
1CEF
102
}
330
1CEF
100
AcDbXrecord
340
0
  0
XRECORD
  5
1D06
102
{ACAD_REACTORS
330
1CEF
102
}
330
1CEF
100
AcDbXrecord
 10
0.0
 20
0.0
 30
0.0
  0
XRECORD
  5
1D02
102
{ACAD_REACTORS
330
1CEF
102
}
330
1CEF
100
AcDbXrecord
 10
0.0
 20
0.0
 30
0.0
  0
XRECORD
  5
1D05
102
{ACAD_REACTORS
330
1CEF
102
}
330
1CEF
100
AcDbXrecord
 10
0.0
 20
0.0
 30
0.0
  0
XRECORD
  5
1D03
102
{ACAD_REACTORS
330
1CEF
102
}
330
1CEF
100
AcDbXrecord
 10
0.0
 20
0.0
 30
0.0
  0
XRECORD
  5
1D04
102
{ACAD_REACTORS
330
1CEF
102
}
330
1CEF
100
AcDbXrecord
 10
0.0
 20
0.0
 30
0.0
  0
XRECORD
  5
1D01
102
{ACAD_REACTORS
330
1CEF
102
}
330
1CEF
100
AcDbXrecord
 10
0.0
 20
0.0
 30
0.0
  0
XRECORD
  5
1CFE
102
{ACAD_REACTORS
330
1CEF
102
}
330
1CEF
100
AcDbXrecord
340
0
  0
XRECORD
  5
1CFF
102
{ACAD_REACTORS
330
1CEF
102
}
330
1CEF
100
AcDbXrecord
 70
     0
  0
XRECORD
  5
1CF3
102
{ACAD_REACTORS
330
1CEF
102
}
330
1CEF
100
AcDbXrecord
  1
Sekkei.ctb
  0
XRECORD
  5
1CF0
102
{ACAD_REACTORS
330
1CEF
102
}
330
1CEF
100
AcDbXrecord
 90
        1
  0
XRECORD
  5
1CF1
102
{ACAD_REACTORS
330
1CEF
102
}
330
1CEF
100
AcDbXrecord
 90
       70
  0
XRECORD
  5
1D09
102
{ACAD_REACTORS
330
1CEF
102
}
330
1CEF
100
AcDbXrecord
340
0
  0
XRECORD
  5
1D0F
102
{ACAD_REACTORS
330
1CEF
102
}
330
1CEF
100
AcDbXrecord
 10
0.0
 20
0.0
 30
0.0
  0
XRECORD
  5
1D0B
102
{ACAD_REACTORS
330
1CEF
102
}
330
1CEF
100
AcDbXrecord
 10
0.0
 20
0.0
 30
0.0
  0
XRECORD
  5
1D0E
102
{ACAD_REACTORS
330
1CEF
102
}
330
1CEF
100
AcDbXrecord
 10
0.0
 20
0.0
 30
0.0
  0
XRECORD
  5
1D0C
102
{ACAD_REACTORS
330
1CEF
102
}
330
1CEF
100
AcDbXrecord
 10
0.0
 20
0.0
 30
0.0
  0
XRECORD
  5
1D0D
102
{ACAD_REACTORS
330
1CEF
102
}
330
1CEF
100
AcDbXrecord
 10
0.0
 20
0.0
 30
0.0
  0
XRECORD
  5
1D0A
102
{ACAD_REACTORS
330
1CEF
102
}
330
1CEF
100
AcDbXrecord
 10
0.0
 20
0.0
 30
0.0
  0
XRECORD
  5
1D07
102
{ACAD_REACTORS
330
1CEF
102
}
330
1CEF
100
AcDbXrecord
340
0
  0
XRECORD
  5
1D08
102
{ACAD_REACTORS
330
1CEF
102
}
330
1CEF
100
AcDbXrecord
 70
     0
  0
XRECORD
  5
1CFB
102
{ACAD_REACTORS
330
1CEF
102
}
330
1CEF
100
AcDbXrecord
  1
{01976466-8F29-4247-BFE2-F1261E7DE80F}
  0
DICTIONARYVAR
  5
1C5B
102
{ACAD_REACTORS
330
102
102
}
330
102
100
DictionaryVariables
280
     0
  1
1:1
  0
DICTIONARYVAR
  5
1C5A
102
{ACAD_REACTORS
330
102
102
}
330
102
100
DictionaryVariables
280
     0
  1
STANDARD
  0
DICTIONARYVAR
  5
1C59
102
{ACAD_REACTORS
330
102
102
}
330
102
100
DictionaryVariables
280
     0
  1
STANDARD
  0
DICTIONARYVAR
  5
103
102
{ACAD_REACTORS
330
102
102
}
330
102
100
DictionaryVariables
280
     0
  1
1
  0
DICTIONARYVAR
  5
1C5C
102
{ACAD_REACTORS
330
102
102
}
330
102
100
DictionaryVariables
280
     0
  1
0
  0
DICTIONARYVAR
  5
549
102
{ACAD_REACTORS
330
102
102
}
330
102
100
DictionaryVariables
280
     0
  1
96
  0
DICTIONARY
  5
1BB9
330
1BB8
100
AcDbDictionary
280
     1
  3
ACAD_XREC_ROUNDTRIP
360
1CD4
  3
BUMPTILE
360
1BBB
  3
DIFFUSETILE
360
1BBA
  3
OPACITYTILE
360
1BBE
  3
REFLECTIONTILE
360
1BBD
  3
REFRACTIONTILE
360
1BBF
  3
SPECULARTILE
360
1BBC
  0
DICTIONARY
  5
1BB1
330
1BB0
100
AcDbDictionary
280
     1
  3
ACAD_XREC_ROUNDTRIP
360
1CD3
  3
BUMPTILE
360
1BB3
  3
DIFFUSETILE
360
1BB2
  3
OPACITYTILE
360
1BB6
  3
REFLECTIONTILE
360
1BB5
  3
REFRACTIONTILE
360
1BB7
  3
SPECULARTILE
360
1BB4
  0
DICTIONARY
  5
1BC1
330
1BC0
100
AcDbDictionary
280
     1
  3
ACAD_XREC_ROUNDTRIP
360
1CD5
  3
BUMPTILE
360
1BC3
  3
DIFFUSETILE
360
1BC2
  3
OPACITYTILE
360
1BC6
  3
REFLECTIONTILE
360
1BC5
  3
REFRACTIONTILE
360
1BC7
  3
SPECULARTILE
360
1BC4
  0
DICTIONARY
  5
1C38
330
1BDB
100
AcDbDictionary
280
     1
  3
ACAD_ROUNDTRIP_2008_TABLES
360
1CBA
  3
ACAD_XREC_ROUNDTRIP
360
1CD6
  0
XRECORD
  5
1CD4
102
{ACAD_REACTORS
330
1BB9
102
}
330
1BB9
100
AcDbXrecord
102
MATERIAL
148
0.0
149
0.0
149
0.0
 93
        0
 94
      127
282
     0
 72
     0
 77
     0
171
     0
175
     0
179
     0
273
     0
  0
XRECORD
  5
1BBB
102
{ACAD_REACTORS
330
1BB9
102
}
330
1BB9
100
AcDbXrecord
270
     1
271
     1
  0
XRECORD
  5
1BBA
102
{ACAD_REACTORS
330
1BB9
102
}
330
1BB9
100
AcDbXrecord
270
     1
271
     1
  0
XRECORD
  5
1BBE
102
{ACAD_REACTORS
330
1BB9
102
}
330
1BB9
100
AcDbXrecord
270
     1
271
     1
  0
XRECORD
  5
1BBD
102
{ACAD_REACTORS
330
1BB9
102
}
330
1BB9
100
AcDbXrecord
270
     1
271
     1
  0
XRECORD
  5
1BBF
102
{ACAD_REACTORS
330
1BB9
102
}
330
1BB9
100
AcDbXrecord
270
     1
271
     1
  0
XRECORD
  5
1BBC
102
{ACAD_REACTORS
330
1BB9
102
}
330
1BB9
100
AcDbXrecord
270
     1
271
     1
  0
XRECORD
  5
1CD3
102
{ACAD_REACTORS
330
1BB1
102
}
330
1BB1
100
AcDbXrecord
102
MATERIAL
148
0.0
149
0.0
149
0.0
 93
        0
 94
      127
282
     0
 72
     0
 77
     0
171
     0
175
     0
179
     0
273
     0
  0
XRECORD
  5
1BB3
102
{ACAD_REACTORS
330
1BB1
102
}
330
1BB1
100
AcDbXrecord
270
     1
271
     1
  0
XRECORD
  5
1BB2
102
{ACAD_REACTORS
330
1BB1
102
}
330
1BB1
100
AcDbXrecord
270
     1
271
     1
  0
XRECORD
  5
1BB6
102
{ACAD_REACTORS
330
1BB1
102
}
330
1BB1
100
AcDbXrecord
270
     1
271
     1
  0
XRECORD
  5
1BB5
102
{ACAD_REACTORS
330
1BB1
102
}
330
1BB1
100
AcDbXrecord
270
     1
271
     1
  0
XRECORD
  5
1BB7
102
{ACAD_REACTORS
330
1BB1
102
}
330
1BB1
100
AcDbXrecord
270
     1
271
     1
  0
XRECORD
  5
1BB4
102
{ACAD_REACTORS
330
1BB1
102
}
330
1BB1
100
AcDbXrecord
270
     1
271
     1
  0
XRECORD
  5
1CD5
102
{ACAD_REACTORS
330
1BC1
102
}
330
1BC1
100
AcDbXrecord
102
MATERIAL
148
0.0
149
0.0
149
0.0
 93
        0
 94
      127
282
     0
 72
     0
 77
     0
171
     0
175
     0
179
     0
273
     0
  0
XRECORD
  5
1BC3
102
{ACAD_REACTORS
330
1BC1
102
}
330
1BC1
100
AcDbXrecord
270
     1
271
     1
  0
XRECORD
  5
1BC2
102
{ACAD_REACTORS
330
1BC1
102
}
330
1BC1
100
AcDbXrecord
270
     1
271
     1
  0
XRECORD
  5
1BC6
102
{ACAD_REACTORS
330
1BC1
102
}
330
1BC1
100
AcDbXrecord
270
     1
271
     1
  0
XRECORD
  5
1BC5
102
{ACAD_REACTORS
330
1BC1
102
}
330
1BC1
100
AcDbXrecord
270
     1
271
     1
  0
XRECORD
  5
1BC7
102
{ACAD_REACTORS
330
1BC1
102
}
330
1BC1
100
AcDbXrecord
270
     1
271
     1
  0
XRECORD
  5
1BC4
102
{ACAD_REACTORS
330
1BC1
102
}
330
1BC1
100
AcDbXrecord
270
     1
271
     1
  0
ACAD_PROXY_OBJECT
  5
1CBA
102
{ACAD_REACTORS
330
1C38
102
}
330
1C38
100
AcDbProxyObject
 90
      499
 91
      510
 93
     5304
310
40D054060020000020000003200101A000080002A5058000000C100000000000000340FD012E07A17AD46E2B8FCB81E85EB51B8AE3F2E07A17AD46E2B8FCB81E85EB51B8AE3F02B5E8DC0F42B1CFC0AD7A3703D0AC73F419019018000000C1003FBFFFFFE02B5E8DC0F42A9CFD029018000000C1003FBFFFFFE02B5E8DC0F4
310
2A9CFD049018000000C1003FBFFFFFE02B5E8DC0F42A9CFD089018000000C1003FBFFFFFE02B5E8DC0F42A9CFD109018000000C1003FBFFFFFE02B5E8DC0F42A9CFD209018000000C1003FBFFFFFE02B5E8DC0F42A9CFD01405075F5449544C450041501A8000000C800406800020000A9416000000304000AD7A3703D0AC7
310
3F404B81E85EB51B8AE3F2E07A17AD46E2B8FCB81E85EB51B8AE3F2E07A17AD46E2B8FC0AD7A3703D0AC73F02B5E8DC0F42B1CFD0640640600000030400FEFFFFFF80AD7A3703D0AA73F40A40600000030400FEFFFFFF80AD7A3703D0AA73F41240600000030400FEFFFFFF80AD7A3703D0AA73F42240600000030400FEFFF
310
FFF80AD7A3703D0AA73F44240600000030400FEFFFFFF80AD7A3703D0AA73F48240600000030400FEFFFFFF80AD7A3703D0AA73F409014217D2115051115480105406A0000003200101A000080002A5028000000C10002B5E8DC0F42B1CFD012E07A17AD46E2B8FCB81E85EB51B8AE3F2E07A17AD46E2B8FCB81E85EB51B8A
310
E3F02B5E8DC0F42B1CFC0AD7A3703D0AC73F419019018000000C1003FBFFFFFE02B5E8DC0F42A9CFD029018000000C1003FBFFFFFE02B5E8DC0F42A9CFD049018000000C1003FBFFFFFE02B5E8DC0F42A9CFD089018000000C1003FBFFFFFE02B5E8DC0F42A9CFD109018000000C1003FBFFFFFE02B5E8DC0F42A9CFD20901
310
8000000C1003FBFFFFFE02B5E8DC0F42A9CFD03409065F444154410000
340
16
340
0
340
0
340
0
340
0
340
0
340
0
340
16
340
0
340
0
340
0
340
0
340
0
340
0
340
16
340
0
340
0
340
0
340
0
340
0
340
0
 94
        0
1001
ACAD
1000
AcadProxyRoundTripData
1071
      509
1071
   655383
1070
     0
  0
XRECORD
  5
1CD6
102
{ACAD_REACTORS
330
1C38
102
}
330
1C38
100
AcDbXrecord
102
ACAD_ROUNDTRIP_PRE2007_TABLESTYLE
 90
      512
 91
        0
  1

 92
      512
 93
        0
  2

 94
      512
 95
        0
  3

  0
ENDSEC
  0
EOF
