  0
SECTION
  2
HEADER
  9
$ACADVER
  1
AC1014
  9
$ACADMAINTVER
 70
     9
  9
$DWGCODEPAGE
  3
ANSI_932
  9
$INSBASE
 10
0.0
 20
0.0
 30
0.0
  9
$EXTMIN
 10
39.41773335227458
 20
66.13817864379189
 30
0.0
  9
$EXTMAX
 10
984.8369274038192
 20
676.8762830530122
 30
0.0
  9
$LIMMIN
 10
0.0
 20
0.0
  9
$LIMMAX
 10
297.0
 20
210.0
  9
$ORTHOMODE
 70
     1
  9
$REGENMODE
 70
     1
  9
$FILLMODE
 70
     1
  9
$QTEXTMODE
 70
     0
  9
$MIRRTEXT
 70
     0
  9
$DRAGMODE
 70
     2
  9
$LTSCALE
 40
3.0
  9
$OSMODE
 70
    37
  9
$ATTMODE
 70
     1
  9
$TEXTSIZE
 40
2.0
  9
$TRACEWID
 40
1.0
  9
$TEXTSTYLE
  7
STANDARD
  9
$CLAYER
  8
0
  9
$CELTYPE
  6
BYLAYER
  9
$CECOLOR
 62
   256
  9
$CELTSCALE
 40
1.0
  9
$DELOBJ
 70
     1
  9
$DISPSILH
 70
     0
  9
$DIMSCALE
 40
3.0
  9
$DIMASZ
 40
1.8
  9
$DIMEXO
 40
0.625
  9
$DIMDLI
 40
3.75
  9
$DIMRND
 40
0.0
  9
$DIMDLE
 40
0.0
  9
$DIMEXE
 40
0.8
  9
$DIMTP
 40
0.0
  9
$DIMTM
 40
0.0
  9
$DIMTXT
 40
1.8
  9
$DIMCEN
 40
2.5
  9
$DIMTSZ
 40
0.0
  9
$DIMTOL
 70
     0
  9
$DIMLIM
 70
     0
  9
$DIMTIH
 70
     0
  9
$DIMTOH
 70
     0
  9
$DIMSE1
 70
     0
  9
$DIMSE2
 70
     0
  9
$DIMTAD
 70
     1
  9
$DIMZIN
 70
     8
  9
$DIMBLK
  1

  9
$DIMASO
 70
     1
  9
$DIMSHO
 70
     1
  9
$DIMPOST
  1

  9
$DIMAPOST
  1

  9
$DIMALT
 70
     0
  9
$DIMALTD
 70
     4
  9
$DIMALTF
 40
0.0394
  9
$DIMLFAC
 40
1.0
  9
$DIMTOFL
 70
     1
  9
$DIMTVP
 40
0.0
  9
$DIMTIX
 70
     0
  9
$DIMSOXD
 70
     0
  9
$DIMSAH
 70
     0
  9
$DIMBLK1
  1

  9
$DIMBLK2
  1

  9
$DIMSTYLE
  2
STANDARD
  9
$DIMCLRD
 70
     0
  9
$DIMCLRE
 70
     0
  9
$DIMCLRT
 70
     0
  9
$DIMTFAC
 40
1.0
  9
$DIMGAP
 40
0.75
  9
$DIMJUST
 70
     0
  9
$DIMSD1
 70
     0
  9
$DIMSD2
 70
     0
  9
$DIMTOLJ
 70
     1
  9
$DIMTZIN
 70
     0
  9
$DIMALTZ
 70
     0
  9
$DIMALTTZ
 70
     0
  9
$DIMFIT
 70
     3
  9
$DIMUPT
 70
     0
  9
$DIMUNIT
 70
     8
  9
$DIMDEC
 70
     2
  9
$DIMTDEC
 70
     2
  9
$DIMALTU
 70
     8
  9
$DIMALTTD
 70
     4
  9
$DIMTXSTY
  7
STANDARD
  9
$DIMAUNIT
 70
     0
  9
$LUNITS
 70
     2
  9
$LUPREC
 70
     3
  9
$SKETCHINC
 40
1.0
  9
$FILLETRAD
 40
10.0
  9
$AUNITS
 70
     0
  9
$AUPREC
 70
     2
  9
$MENU
  1
.
  9
$ELEVATION
 40
0.0
  9
$PELEVATION
 40
0.0
  9
$THICKNESS
 40
0.0
  9
$LIMCHECK
 70
     0
  9
$BLIPMODE
 70
     0
  9
$CHAMFERA
 40
0.0
  9
$CHAMFERB
 40
0.0
  9
$CHAMFERC
 40
20.0
  9
$CHAMFERD
 40
0.0
  9
$SKPOLY
 70
     0
  9
$TDCREATE
 40
2454410.729626366
  9
$TDUPDATE
 40
2454425.685151181
  9
$TDINDWG
 40
0.0133358565
  9
$TDUSRTIMER
 40
0.0133358565
  9
$USRTIMER
 70
     1
  9
$ANGBASE
 50
0.0
  9
$ANGDIR
 70
     0
  9
$PDMODE
 70
     0
  9
$PDSIZE
 40
-10.0
  9
$PLINEWID
 40
0.0
  9
$COORDS
 70
     0
  9
$SPLFRAME
 70
     0
  9
$SPLINETYPE
 70
     6
  9
$SPLINESEGS
 70
     8
  9
$ATTDIA
 70
     0
  9
$ATTREQ
 70
     1
  9
$HANDLING
 70
-16383
  9
$HANDSEED
  5
1EB0
  9
$SURFTAB1
 70
     6
  9
$SURFTAB2
 70
     6
  9
$SURFTYPE
 70
     6
  9
$SURFU
 70
     6
  9
$SURFV
 70
     6
  9
$UCSNAME
  2

  9
$UCSORG
 10
0.0
 20
0.0
 30
0.0
  9
$UCSXDIR
 10
1.0
 20
0.0
 30
0.0
  9
$UCSYDIR
 10
0.0
 20
1.0
 30
0.0
  9
$PUCSNAME
  2

  9
$PUCSORG
 10
0.0
 20
0.0
 30
0.0
  9
$PUCSXDIR
 10
1.0
 20
0.0
 30
0.0
  9
$PUCSYDIR
 10
0.0
 20
1.0
 30
0.0
  9
$USERI1
 70
     0
  9
$USERI2
 70
     0
  9
$USERI3
 70
     0
  9
$USERI4
 70
     0
  9
$USERI5
 70
     0
  9
$USERR1
 40
0.0
  9
$USERR2
 40
0.0
  9
$USERR3
 40
0.0
  9
$USERR4
 40
0.0
  9
$USERR5
 40
0.0
  9
$WORLDVIEW
 70
     1
  9
$SHADEDGE
 70
     3
  9
$SHADEDIF
 70
    70
  9
$TILEMODE
 70
     1
  9
$MAXACTVP
 70
    48
  9
$PINSBASE
 10
0.0
 20
0.0
 30
0.0
  9
$PLIMCHECK
 70
     0
  9
$PEXTMIN
 10
0.0
 20
0.0
 30
0.0
  9
$PEXTMAX
 10
0.0
 20
0.0
 30
0.0
  9
$PLIMMIN
 10
0.0
 20
0.0
  9
$PLIMMAX
 10
12.0
 20
9.0
  9
$UNITMODE
 70
     0
  9
$VISRETAIN
 70
     1
  9
$PLINEGEN
 70
     0
  9
$PSLTSCALE
 70
     1
  9
$TREEDEPTH
 70
  3020
  9
$PICKSTYLE
 70
     1
  9
$CMLSTYLE
  2
STANDARD
  9
$CMLJUST
 70
     0
  9
$CMLSCALE
 40
1.0
  9
$PROXYGRAPHICS
 70
     1
  9
$MEASUREMENT
 70
     0
  0
ENDSEC
  0
SECTION
  2
CLASSES
  0
CLASS
  1
DICTIONARYVAR
  2
AcDbDictionaryVar
  3
AutoCAD 2000
 90
        0
280
     0
281
     0
  0
CLASS
  1
ACDBDICTIONARYWDFLT
  2
AcDbDictionaryWithDefault
  3
AutoCAD 2000
 90
        0
280
     0
281
     0
  0
CLASS
  1
ACDBPLACEHOLDER
  2
AcDbPlaceHolder
  3
AutoCAD 2000
 90
        0
280
     0
281
     0
  0
CLASS
  1
LAYOUT
  2
AcDbLayout
  3
AutoCAD 2000
 90
        0
280
     0
281
     0
  0
CLASS
  1
MATERIAL
  2
AcDbMaterial
  3
ObjectDBX Classes
 90
     1153
280
     0
281
     0
  0
CLASS
  1
VISUALSTYLE
  2
AcDbVisualStyle
  3
ObjectDBX Classes
 90
     4095
280
     0
281
     0
  0
CLASS
  1
TABLESTYLE
  2
AcDbTableStyle
  3
ObjectDBX Classes
 90
     4095
280
     0
281
     0
  0
CLASS
  1
SCALE
  2
AcDbScale
  3
ObjectDBX Classes
 90
     1153
280
     0
281
     0
  0
CLASS
  1
MLEADERSTYLE
  2
AcDbMLeaderStyle
  3
ACDB_MLEADERSTYLE_CLASS
 90
     4095
280
     0
281
     0
  0
CLASS
  1
CELLSTYLEMAP
  2
AcDbCellStyleMap
  3
ObjectDBX Classes
 90
     1152
280
     0
281
     0
  0
CLASS
  1
ACAD_PROXY_OBJECT_WRAPPER
  2
AcDbProxyObjectWrapper
  3
AutoCAD 2000
 90
        0
280
     0
281
     0
  0
CLASS
  1
LONG_TRANSACTION
  2
AcDbLongTransaction
  3
AutoCAD 2000
 90
        0
280
     0
281
     0
  0
CLASS
  1
LWPOLYLINE
  2
AcDbPolyline
  3
AutoCAD 2000
 90
        0
280
     0
281
     1
  0
CLASS
  1
HATCH
  2
AcDbHatch
  3
AutoCAD 2000
 90
        0
280
     0
281
     1
  0
CLASS
  1
XRECORD
  2
AcDbXrecord
  3
AutoCAD 2000
 90
        0
280
     0
281
     0
  0
ENDSEC
  0
SECTION
  2
TABLES
  0
TABLE
  2
VPORT
  5
6E
102
{ACAD_XDICTIONARY
360
1E04
102
}
330
0
100
AcDbSymbolTable
 70
     2
  0
VPORT
  5
1E8A
330
6E
100
AcDbSymbolTableRecord
100
AcDbViewportTableRecord
  2
*ACTIVE
 70
     0
 10
0.0
 20
0.0
 11
1.0
 21
1.0
 12
582.5087600563555
 22
355.820959913658
 13
0.0
 23
0.0
 14
10.0
 24
10.0
 15
10.0
 25
10.0
 16
0.0
 26
0.0
 36
1.0
 17
0.0
 27
0.0
 37
0.0
 40
647.202179229585
 41
1.753504672897196
 42
50.0
 43
0.0
 44
0.0
 50
0.0
 51
0.0
 71
     0
 72
   100
 73
     1
 74
     3
 75
     0
 76
     0
 77
     0
 78
     0
  0
ENDTAB
  0
TABLE
  2
LTYPE
  5
69
330
0
100
AcDbSymbolTable
 70
     8
  0
LTYPE
  5
6A
330
69
100
AcDbSymbolTableRecord
100
AcDbLinetypeTableRecord
  2
BYBLOCK
 70
     0
  3

 72
    65
 73
     0
 40
0.0
  0
LTYPE
  5
6B
330
69
100
AcDbSymbolTableRecord
100
AcDbLinetypeTableRecord
  2
BYLAYER
 70
     0
  3

 72
    65
 73
     0
 40
0.0
  0
LTYPE
  5
8
330
69
100
AcDbSymbolTableRecord
100
AcDbLinetypeTableRecord
  2
CONTINUOUS
 70
     0
  3
Solid line
 72
    65
 73
     0
 40
0.0
  0
LTYPE
  5
27C
330
69
100
AcDbSymbolTableRecord
100
AcDbLinetypeTableRecord
  2
SEKKEI_A2_
 70
     0
  3
center(A2)  ____ _ ____ _ ____ _ ____ _ ____ _ 
 72
    65
 73
     4
 40
14.28749999999999
 49
9.525
 74
     0
 49
-1.587499999999999
 74
     0
 49
1.587499999999999
 74
     0
 49
-1.587499999999999
 74
     0
  0
LTYPE
  5
48F
330
69
100
AcDbSymbolTableRecord
100
AcDbLinetypeTableRecord
  2
SEKKEI_H
 70
     0
  3
Hidden-S _ _ _ _ _ _ _ _ _ _ _ _ _ _ _ _ _
 72
    65
 73
     2
 40
2.381249999999999
 49
1.587499999999999
 74
     0
 49
-0.79375
 74
     0
  0
LTYPE
  5
7F0
330
69
100
AcDbSymbolTableRecord
100
AcDbLinetypeTableRecord
  2
HIDDEN3
 70
     0
  3
Hidden (.3x) _ _ _ _ _ _ _ _ _ _ _ _ _ _ _ _ _
 72
    65
 73
     2
 40
2.857499999999999
 49
1.905
 74
     0
 49
-0.9525
 74
     0
  0
LTYPE
  5
ADA
330
69
100
AcDbSymbolTableRecord
100
AcDbLinetypeTableRecord
  2
CENS
 70
     0
  3
(一点鎖線１)---- - ---- - ---- - ---- - ---- - 
 72
    65
 73
     4
 40
7.0
 49
4.0
 74
     0
 49
-1.0
 74
     0
 49
1.0
 74
     0
 49
-1.0
 74
     0
  0
LTYPE
  5
1954
330
69
100
AcDbSymbolTableRecord
100
AcDbLinetypeTableRecord
  2
SEKKEI-P_A4_
 70
     0
  3
Phantom(A4)  ____ _ _ ____ _ _ ____ _ _ _____
 72
    65
 73
     6
 40
15.0
 49
7.5
 74
     0
 49
-1.5
 74
     0
 49
1.5
 74
     0
 49
-1.5
 74
     0
 49
1.5
 74
     0
 49
-1.5
 74
     0
  0
LTYPE
  5
1955
330
69
100
AcDbSymbolTableRecord
100
AcDbLinetypeTableRecord
  2
SEKKEI_P_S
 70
     0
  3
Phantom_S   __ _ _ __ _ _ __ _ _ ___
 72
    65
 73
     6
 40
7.5
 49
3.75
 74
     0
 49
-0.75
 74
     0
 49
0.75
 74
     0
 49
-0.75
 74
     0
 49
0.75
 74
     0
 49
-0.75
 74
     0
  0
ENDTAB
  0
TABLE
  2
LAYER
  5
66
102
{ACAD_XDICTIONARY
360
ADB
102
}
330
0
100
AcDbSymbolTable
 70
    10
  0
LAYER
  5
5E
102
{ACAD_XDICTIONARY
360
1DC3
102
}
330
66
100
AcDbSymbolTableRecord
100
AcDbLayerTableRecord
  2
0
 70
     0
 62
     7
  6
CONTINUOUS
  0
LAYER
  5
3E
102
{ACAD_XDICTIONARY
360
1DC5
102
}
330
66
100
AcDbSymbolTableRecord
100
AcDbLayerTableRecord
  2
CENTER
 70
     0
 62
     3
  6
SEKKEI_A2_
  0
LAYER
  5
2B5
102
{ACAD_XDICTIONARY
360
1DCB
102
}
330
66
100
AcDbSymbolTableRecord
100
AcDbLayerTableRecord
  2
HIDS
 70
     0
 62
     1
  6
HIDDEN3
  0
LAYER
  5
2BA
102
{ACAD_XDICTIONARY
360
1DCD
102
}
330
66
100
AcDbSymbolTableRecord
100
AcDbLayerTableRecord
  2
HOJO
 70
     0
 62
     4
  6
CONTINUOUS
  0
LAYER
  5
3FA
102
{ACAD_XDICTIONARY
360
1DD1
102
}
330
66
100
AcDbSymbolTableRecord
100
AcDbLayerTableRecord
  2
TITLE
 70
     0
 62
     4
  6
CONTINUOUS
  0
LAYER
  5
1956
102
{ACAD_XDICTIONARY
360
1957
102
}
330
66
100
AcDbSymbolTableRecord
100
AcDbLayerTableRecord
  2
PHAS
 70
     0
 62
     2
  6
SEKKEI-P_A4_
  0
ENDTAB
  0
TABLE
  2
STYLE
  5
67
330
0
100
AcDbSymbolTable
 70
     2
  0
STYLE
  5
16
330
67
100
AcDbSymbolTableRecord
100
AcDbTextStyleTableRecord
  2
STANDARD
 70
     0
 40
0.0
 41
1.0
 50
0.0
 71
     0
 42
2.0
  3
simplex.shx
  4
extfont.shx
  0
ENDTAB
  0
TABLE
  2
VIEW
  5
6C
330
0
100
AcDbSymbolTable
 70
     0
  0
ENDTAB
  0
TABLE
  2
UCS
  5
6D
330
0
100
AcDbSymbolTable
 70
     0
  0
ENDTAB
  0
TABLE
  2
APPID
  5
70
330
0
100
AcDbSymbolTable
 70
     3
  0
APPID
  5
71
330
70
100
AcDbSymbolTableRecord
100
AcDbRegAppTableRecord
  2
ACAD
 70
     0
  0
APPID
  5
1DC0
330
70
100
AcDbSymbolTableRecord
100
AcDbRegAppTableRecord
  2
ACAD_MLEADERVER
 70
     0
  0
APPID
  5
1DF8
330
70
100
AcDbSymbolTableRecord
100
AcDbRegAppTableRecord
  2
ACAD_DSTYLE_DIMRADIAL_EXTENSION
 70
     0
  0
ENDTAB
  0
TABLE
  2
DIMSTYLE
  5
72
330
0
100
AcDbSymbolTable
 70
     1
  0
DIMSTYLE
105
73
330
72
100
AcDbSymbolTableRecord
100
AcDbDimStyleTableRecord
  2
STANDARD
 70
     0
  3

  4

  5

  6

  7

 40
3.0
 41
1.8
 42
0.625
 43
3.75
 44
0.8
 45
0.0
 46
0.0
 47
0.0
 48
0.0
140
1.8
141
2.5
142
0.0
143
0.0394
144
1.0
145
0.0
146
1.0
147
0.75
 71
     0
 72
     0
 73
     0
 74
     0
 75
     0
 76
     0
 77
     1
 78
     8
170
     0
171
     4
172
     1
173
     0
174
     0
175
     0
176
     0
177
     0
178
     0
270
     8
271
     2
272
     2
273
     8
274
     4
340
16
275
     0
280
     0
281
     0
282
     0
283
     1
284
     0
285
     0
286
     0
287
     3
288
     0
  0
ENDTAB
  0
TABLE
  2
BLOCK_RECORD
  5
1
330
0
100
AcDbSymbolTable
 70
    55
  0
BLOCK_RECORD
  5
2
102
{ACAD_XDICTIONARY
360
1EAC
102
}
330
1
100
AcDbSymbolTableRecord
100
AcDbBlockTableRecord
  2
*MODEL_SPACE
  0
BLOCK_RECORD
  5
1E85
102
{ACAD_XDICTIONARY
360
1EAE
102
}
330
1
100
AcDbSymbolTableRecord
100
AcDbBlockTableRecord
  2
*PAPER_SPACE
  0
ENDTAB
  0
ENDSEC
  0
SECTION
  2
BLOCKS
  0
BLOCK
  5
5D
330
2
100
AcDbEntity
  8
0
100
AcDbBlockBegin
  2
*MODEL_SPACE
 70
     0
 10
0.0
 20
0.0
 30
0.0
  3
*MODEL_SPACE
  1

  0
ENDBLK
  5
5F
330
2
100
AcDbEntity
  8
0
100
AcDbBlockEnd
  0
BLOCK
  5
1E87
330
1E85
100
AcDbEntity
 67
     1
  8
0
100
AcDbBlockBegin
  2
*PAPER_SPACE
 70
     0
 10
0.0
 20
0.0
 30
0.0
  3
*PAPER_SPACE
  1

  0
ENDBLK
  5
1E88
330
1E85
100
AcDbEntity
 67
     1
  8
0
100
AcDbBlockEnd
  0
ENDSEC
  0
SECTION
  2
ENTITIES
  0
LINE
  5
F05
330
2
100
AcDbEntity
  8
CENTER
100
AcDbLine
 10
984.8369274038192
 20
346.9790239809136
 30
0.0
 11
845.836935857859
 21
346.9790239809136
 31
0.0
  0
LINE
  5
F06
330
2
100
AcDbEntity
  8
CENTER
100
AcDbLine
 10
929.8369358578627
 20
398.4790239809285
 30
0.0
 11
929.8369358578627
 21
295.4790239809295
 31
0.0
  0
LINE
  5
F07
330
2
100
AcDbEntity
  8
0
100
AcDbLine
 10
886.836935857859
 20
387.3943238389475
 30
0.0
 11
886.8369358578572
 21
306.5637241228829
 31
0.0
  0
LINE
  5
F08
330
2
100
AcDbEntity
  8
0
100
AcDbLine
 10
881.83693585786
 20
381.9790239809086
 30
0.0
 11
881.83693585786
 21
311.9790239809085
 31
0.0
  0
LINE
  5
F09
330
2
100
AcDbEntity
  8
0
100
AcDbLine
 10
879.906734851265
 20
375.3655898798766
 30
0.0
 11
870.7671368644557
 21
375.0464280853325
 31
0.0
  0
ARC
  5
F0A
330
2
100
AcDbEntity
  8
0
100
AcDbCircle
 10
879.83693585786
 20
377.3643715339145
 30
0.0
 40
2.0
100
AcDbArc
 50
272.0000000000036
 51
0.0
  0
LINE
  5
F0B
330
2
100
AcDbEntity
  8
0
100
AcDbLine
 10
868.8369358578619
 20
373.0476464312938
 30
0.0
 11
868.8369358578599
 21
320.9104015305234
 31
0.0
  0
ARC
  5
F0C
330
2
100
AcDbEntity
  8
0
100
AcDbCircle
 10
870.83693585786
 20
373.0476464312938
 30
0.0
 40
2.0
100
AcDbArc
 50
92.00000000000365
 51
180.0
  0
ARC
  5
F0D
330
2
100
AcDbEntity
  8
0
100
AcDbCircle
 10
870.83693585786
 20
320.9104015305234
 30
0.0
 40
2.0
100
AcDbArc
 50
180.0
 51
267.9999999999963
  0
LINE
  5
F0E
330
2
100
AcDbEntity
  8
0
100
AcDbLine
 10
879.906734851265
 20
318.5924580819397
 30
0.0
 11
870.7671368644549
 21
318.9116198764846
 31
0.0
  0
ARC
  5
F0F
330
2
100
AcDbEntity
  8
0
100
AcDbCircle
 10
879.83693585786
 20
316.5936764279009
 30
0.0
 40
2.0
100
AcDbArc
 50
0.0
 51
87.99999999999636
  0
LINE
  5
F10
330
2
100
AcDbEntity
  8
0
100
AcDbLine
 10
965.8979069339464
 20
305.9187919208821
 30
0.0
 11
929.8369358578618
 21
305.4790239809295
 31
0.0
  0
LINE
  5
F11
330
2
100
AcDbEntity
  8
0
100
AcDbLine
 10
893.7759647817763
 20
305.9187919208839
 30
0.0
 11
929.8369358578609
 21
305.4790239809295
 31
0.0
  0
LINE
  5
F12
330
2
100
AcDbEntity
  8
0
100
AcDbLine
 10
893.7759647817763
 20
388.0392560409751
 30
0.0
 11
906.0242116870346
 21
388.1886249056741
 31
0.0
  0
ARC
  5
F13
330
2
100
AcDbEntity
  8
0
100
AcDbCircle
 10
965.8369358578617
 20
383.0396278020094
 30
0.0
 40
5.0
100
AcDbArc
 50
44.50893050042473
 51
89.30130561700025
  0
ARC
  5
F14
330
2
100
AcDbEntity
  8
0
100
AcDbCircle
 10
893.8369358578619
 20
383.0396278020076
 30
0.0
 40
5.0
100
AcDbArc
 50
90.69869438299972
 51
135.4910694996584
  0
ARC
  5
F15
330
2
100
AcDbEntity
  8
0
100
AcDbCircle
 10
893.8369358578619
 20
310.9184201598514
 30
0.0
 40
5.0
100
AcDbArc
 50
224.5089305159469
 51
269.3013056170002
  0
ARC
  5
F16
330
2
100
AcDbEntity
  8
0
100
AcDbCircle
 10
965.8369358578617
 20
310.9184201598496
 30
0.0
 40
5.0
100
AcDbArc
 50
270.6986943829997
 51
315.4910694839697
  0
LINE
  5
F17
330
2
100
AcDbEntity
  8
0
100
AcDbLine
 10
965.8979069339464
 20
388.0392560409769
 30
0.0
 11
929.8369358578618
 21
388.4790239809286
 31
0.0
  0
LINE
  5
F18
330
2
100
AcDbEntity
  8
0
100
AcDbLine
 10
891.4527863695145
 20
306.5234422057297
 30
0.0
 11
886.8369358578572
 21
306.5637241228829
 31
0.0
  0
LINE
  5
F19
330
2
100
AcDbEntity
  8
0
100
AcDbLine
 10
891.452786369469
 20
387.4346057561038
 30
0.0
 11
886.836935857859
 21
387.3943238389475
 31
0.0
  0
LINE
  5
F1A
330
2
100
AcDbEntity
  8
0
100
AcDbLine
 10
886.83693585786
 20
381.9790239809086
 30
0.0
 11
881.83693585786
 21
381.9790239809086
 31
0.0
  0
LINE
  5
F1B
330
2
100
AcDbEntity
  8
0
100
AcDbLine
 10
886.83693585786
 20
311.9790239809085
 30
0.0
 11
881.83693585786
 21
311.9790239809085
 31
0.0
  0
LINE
  5
F1C
330
2
100
AcDbEntity
  8
0
100
AcDbLine
 10
971.8369358578545
 20
373.4790239809118
 30
0.0
 11
971.0137651261527
 21
373.4790239809118
 31
0.0
  0
LINE
  5
F1D
330
2
100
AcDbEntity
  8
0
100
AcDbLine
 10
971.8369358578536
 20
373.4790239809118
 30
0.0
 11
972.8369358578545
 21
372.9016737117222
 31
0.0
  0
LINE
  5
F1E
330
2
100
AcDbEntity
  8
0
100
AcDbLine
 10
972.8369358578582
 20
321.0563742501018
 30
0.0
 11
972.8369358578582
 21
372.9016737117195
 31
0.0
  0
LINE
  5
F1F
330
2
100
AcDbEntity
  8
0
100
AcDbLine
 10
971.8369358578536
 20
320.4790239809099
 30
0.0
 11
972.8369358578545
 21
321.0563742500999
 31
0.0
  0
LINE
  5
F20
330
2
100
AcDbEntity
  8
0
100
AcDbLine
 10
971.8369358578545
 20
320.4790239809099
 30
0.0
 11
971.0137651261536
 21
320.4790239809104
 31
0.0
  0
LINE
  5
F21
330
2
100
AcDbEntity
  8
0
100
AcDbLine
 10
971.8369358578545
 20
320.4790239809099
 30
0.0
 11
971.8369358578536
 21
373.4790239809118
 31
0.0
  0
LINE
  5
F22
330
2
100
AcDbEntity
  8
0
100
AcDbLine
 10
974.8369274038193
 20
361.4760704099208
 30
0.0
 11
974.8369274038193
 21
332.4760704099208
 31
0.0
  0
LINE
  5
F23
330
2
100
AcDbEntity
  8
0
100
AcDbLine
 10
855.8369358578591
 20
361.4789779809139
 30
0.0
 11
855.8369358578591
 21
332.4789779809135
 31
0.0
  0
LINE
  5
F24
330
2
100
AcDbEntity
  8
0
100
AcDbLine
 10
868.8369358578599
 20
332.4789779809135
 30
0.0
 11
855.8369358578591
 21
332.4789779809135
 31
0.0
  0
LINE
  5
F25
330
2
100
AcDbEntity
  8
0
100
AcDbLine
 10
972.8369358578618
 20
332.4760704099208
 30
0.0
 11
974.8369274038193
 21
332.4760704099208
 31
0.0
  0
LINE
  5
F26
330
2
100
AcDbEntity
  8
0
100
AcDbLine
 10
868.8369358578581
 20
361.4789779809139
 30
0.0
 11
855.8369358578591
 21
361.4789779809139
 31
0.0
  0
LINE
  5
F27
330
2
100
AcDbEntity
  8
0
100
AcDbLine
 10
972.8369358578618
 20
361.4760704099208
 30
0.0
 11
974.8369274038193
 21
361.4760704099208
 31
0.0
  0
LINE
  5
F2F
330
2
100
AcDbEntity
  8
CENTER
100
AcDbLine
 10
189.4177333522745
 20
295.9790239809299
 30
0.0
 11
189.4177333522745
 21
397.9790239809299
 31
0.0
  0
LINE
  5
F30
330
2
100
AcDbEntity
  8
CENTER
100
AcDbLine
 10
240.4177333522745
 20
346.9790239809268
 30
0.0
 11
39.41773335227458
 21
346.9790239809268
 31
0.0
  0
LINE
  5
F31
330
2
100
AcDbEntity
  8
CENTER
100
AcDbLine
 10
617.6239802156222
 20
391.4643053551658
 30
0.0
 11
528.6534174671449
 21
302.493742606689
 31
0.0
  0
LINE
  5
F32
330
2
100
AcDbEntity
  8
CENTER
100
AcDbLine
 10
528.6534174671458
 20
391.4643053551645
 30
0.0
 11
617.6239802156231
 21
302.4937426066867
 31
0.0
  0
LINE
  5
F33
330
2
100
AcDbEntity
  8
CENTER
100
AcDbLine
 10
573.138698841383
 20
676.8762830530122
 30
0.0
 11
573.138698841383
 21
537.8762915070524
 31
0.0
  0
LINE
  5
F34
330
2
100
AcDbEntity
  8
CENTER
100
AcDbLine
 10
522.3437802344421
 20
621.8762915070556
 30
0.0
 11
723.1386988370124
 21
621.8762915070567
 31
0.0
  0
CIRCLE
  5
F35
330
2
100
AcDbEntity
  8
CENTER
100
AcDbCircle
 10
573.1386988413849
 20
346.9790239809268
 30
0.0
 40
48.99999999999932
  0
LINE
  5
F36
330
2
100
AcDbEntity
  8
CENTER
100
AcDbLine
 10
545.4904665632446
 20
381.6272562590666
 30
0.0
 11
531.4904665632446
 21
381.6272562590666
 31
0.0
  0
LINE
  5
F37
330
2
100
AcDbEntity
  8
CENTER
100
AcDbLine
 10
538.4904665632436
 20
388.6272562590671
 30
0.0
 11
538.4904665632436
 21
374.6272562590671
 31
0.0
  0
LINE
  5
F38
330
2
100
AcDbEntity
  8
CENTER
100
AcDbLine
 10
545.4904665632446
 20
312.3307917027869
 30
0.0
 11
531.4904665632446
 21
312.3307917027869
 31
0.0
  0
LINE
  5
F39
330
2
100
AcDbEntity
  8
CENTER
100
AcDbLine
 10
538.4904665632436
 20
319.3307917027855
 30
0.0
 11
538.4904665632436
 21
305.3307917027855
 31
0.0
  0
LINE
  5
F3A
330
2
100
AcDbEntity
  8
CENTER
100
AcDbLine
 10
614.7869311195261
 20
312.3307917027905
 30
0.0
 11
600.7869311195261
 21
312.3307917027905
 31
0.0
  0
LINE
  5
F3B
330
2
100
AcDbEntity
  8
CENTER
100
AcDbLine
 10
607.7869311195261
 20
319.3307917027855
 30
0.0
 11
607.7869311195261
 21
305.3307917027855
 31
0.0
  0
LINE
  5
F3C
330
2
100
AcDbEntity
  8
CENTER
100
AcDbLine
 10
614.7869311195261
 20
381.627256259068
 30
0.0
 11
600.7869311195261
 21
381.627256259068
 31
0.0
  0
LINE
  5
F3D
330
2
100
AcDbEntity
  8
CENTER
100
AcDbLine
 10
607.7869311195243
 20
388.6272562590671
 30
0.0
 11
607.7869311195243
 21
374.6272562590671
 31
0.0
  0
LINE
  5
F3E
330
2
100
AcDbEntity
  8
0
100
AcDbLine
 10
641.1386988413831
 20
313.9790239810436
 30
0.0
 11
635.6386988413885
 21
313.9790239810436
 31
0.0
  0
LINE
  5
F3F
330
2
100
AcDbEntity
  8
0
100
AcDbLine
 10
641.1386988413831
 20
379.979023980809
 30
0.0
 11
635.6386988413885
 21
379.979023980809
 31
0.0
  0
CIRCLE
  5
F40
330
2
100
AcDbEntity
  8
0
100
AcDbCircle
 10
573.1386988413849
 20
346.9790239809263
 30
0.0
 40
23.0
  0
CIRCLE
  5
F41
330
2
100
AcDbEntity
  8
0
100
AcDbCircle
 10
573.1386988413849
 20
346.9790239809263
 30
0.0
 40
27.99999999999875
  0
CIRCLE
  5
F42
330
2
100
AcDbEntity
  8
0
100
AcDbCircle
 10
573.1386988413849
 20
346.9790239809263
 30
0.0
 40
35.00000000000011
  0
LINE
  5
F43
330
2
100
AcDbEntity
  8
0
100
AcDbLine
 10
614.1386988413849
 20
382.9790239809263
 30
0.0
 11
614.1386988413849
 21
310.9790239809263
 31
0.0
  0
CIRCLE
  5
F44
330
2
100
AcDbEntity
  8
HOJO
100
AcDbCircle
 10
538.4904665632445
 20
312.3307917027855
 30
0.0
 40
3.0
  0
CIRCLE
  5
F45
330
2
100
AcDbEntity
  8
0
100
AcDbCircle
 10
538.4904665632445
 20
312.3307917027855
 30
0.0
 40
2.399999999999999
  0
CIRCLE
  5
F46
330
2
100
AcDbEntity
  8
HOJO
100
AcDbCircle
 10
607.7869311195261
 20
312.3307917027855
 30
0.0
 40
3.0
  0
CIRCLE
  5
F47
330
2
100
AcDbEntity
  8
0
100
AcDbCircle
 10
607.7869311195261
 20
312.3307917027855
 30
0.0
 40
2.399999999999999
  0
CIRCLE
  5
F48
330
2
100
AcDbEntity
  8
0
100
AcDbCircle
 10
538.4904665632445
 20
381.627256259067
 30
0.0
 40
2.399999999999999
  0
CIRCLE
  5
F49
330
2
100
AcDbEntity
  8
HOJO
100
AcDbCircle
 10
538.4904665632445
 20
381.627256259067
 30
0.0
 40
3.0
  0
ARC
  5
F4A
330
2
100
AcDbEntity
  8
0
100
AcDbCircle
 10
537.1386988413848
 20
382.9790239809263
 30
0.0
 40
5.0
100
AcDbArc
 50
90.0
 51
180.0
  0
CIRCLE
  5
F4B
330
2
100
AcDbEntity
  8
HOJO
100
AcDbCircle
 10
607.7869311195261
 20
381.627256259067
 30
0.0
 40
3.0
  0
CIRCLE
  5
F4C
330
2
100
AcDbEntity
  8
0
100
AcDbCircle
 10
607.7869311195261
 20
381.627256259067
 30
0.0
 40
2.399999999999999
  0
LINE
  5
F4D
330
2
100
AcDbEntity
  8
0
100
AcDbLine
 10
658.138698841383
 20
388.4790239809263
 30
0.0
 11
658.138698841383
 21
305.4790239809263
 31
0.0
  0
LINE
  5
F4E
330
2
100
AcDbEntity
  8
0
100
AcDbLine
 10
646.138698841383
 20
386.4790239809263
 30
0.0
 11
646.1386988413858
 21
307.4790239809263
 31
0.0
  0
ARC
  5
F4F
330
2
100
AcDbEntity
  8
0
100
AcDbCircle
 10
641.1386988413831
 20
308.9790239810436
 30
0.0
 40
5.0
100
AcDbArc
 50
0.0
 51
90.0
  0
LINE
  5
F50
330
2
100
AcDbEntity
  8
0
100
AcDbLine
 10
658.138698841383
 20
305.9790239809263
 30
0.0
 11
648.1386988413857
 21
305.9790239809263
 31
0.0
  0
ARC
  5
F51
330
2
100
AcDbEntity
  8
0
100
AcDbCircle
 10
648.1386988413857
 20
307.9790239809263
 30
0.0
 40
2.0
100
AcDbArc
 50
180.0
 51
270.0
  0
ARC
  5
F52
330
2
100
AcDbEntity
  8
0
100
AcDbCircle
 10
641.1386988413831
 20
384.979023980809
 30
0.0
 40
5.0
100
AcDbArc
 50
270.0
 51
0.0
  0
LINE
  5
F53
330
2
100
AcDbEntity
  8
0
100
AcDbLine
 10
648.1386988413831
 20
387.9790239809263
 30
0.0
 11
658.138698841383
 21
387.9790239809263
 31
0.0
  0
ARC
  5
F54
330
2
100
AcDbEntity
  8
0
100
AcDbCircle
 10
648.1386988413831
 20
385.9790239809263
 30
0.0
 40
2.0
100
AcDbArc
 50
90.0
 51
180.0
  0
LINE
  5
F55
330
2
100
AcDbEntity
  8
0
100
AcDbLine
 10
148.4177333522745
 20
310.9790239809263
 30
0.0
 11
148.4177333522745
 21
382.9790239809263
 31
0.0
  0
LINE
  5
F56
330
2
100
AcDbEntity
  8
0
100
AcDbLine
 10
116.4177333522791
 20
307.4790239809263
 30
0.0
 11
116.4177333522791
 21
386.4790239809263
 31
0.0
  0
LINE
  5
F57
330
2
100
AcDbEntity
  8
0
100
AcDbLine
 10
128.9177333522682
 20
315.9790239810432
 30
0.0
 11
128.9177333522727
 21
377.979023980809
 31
0.0
  0
LINE
  5
F58
330
2
100
AcDbEntity
  8
0
100
AcDbLine
 10
104.4177333522745
 20
305.4790239809263
 30
0.0
 11
104.4177333522745
 21
388.4790239809263
 31
0.0
  0
LINE
  5
F59
330
2
100
AcDbEntity
  8
0
100
AcDbLine
 10
121.4177333522745
 20
379.979023980809
 30
0.0
 11
126.9177333522745
 21
379.979023980809
 31
0.0
  0
ARC
  5
F5A
330
2
100
AcDbEntity
  8
0
100
AcDbCircle
 10
121.4177333522745
 20
384.979023980809
 30
0.0
 40
5.0
100
AcDbArc
 50
180.0
 51
270.0
  0
LINE
  5
F5B
330
2
100
AcDbEntity
  8
0
100
AcDbLine
 10
104.4177333522745
 20
387.9790239809263
 30
0.0
 11
114.4177333522745
 21
387.9790239809263
 31
0.0
  0
ARC
  5
F5C
330
2
100
AcDbEntity
  8
0
100
AcDbCircle
 10
114.4177333522745
 20
385.9790239809263
 30
0.0
 40
2.0
100
AcDbArc
 50
0.0
 51
90.0
  0
LINE
  5
F5D
330
2
100
AcDbEntity
  8
0
100
AcDbLine
 10
121.4177333522791
 20
313.9790239810432
 30
0.0
 11
126.9177333522745
 21
313.9790239810432
 31
0.0
  0
LINE
  5
F5E
330
2
100
AcDbEntity
  8
0
100
AcDbLine
 10
114.4177333522764
 20
305.9790239809263
 30
0.0
 11
104.4177333522745
 21
305.9790239809263
 31
0.0
  0
ARC
  5
F5F
330
2
100
AcDbEntity
  8
0
100
AcDbCircle
 10
121.4177333522791
 20
308.9790239810432
 30
0.0
 40
5.0
100
AcDbArc
 50
90.0
 51
180.0
  0
ARC
  5
F60
330
2
100
AcDbEntity
  8
0
100
AcDbCircle
 10
114.4177333522764
 20
307.9790239809263
 30
0.0
 40
2.0
100
AcDbArc
 50
270.0
 51
0.0
  0
ARC
  5
F61
330
2
100
AcDbEntity
  8
0
100
AcDbCircle
 10
225.4177333522745
 20
310.9790239809263
 30
0.0
 40
5.0
100
AcDbArc
 50
270.0
 51
0.0
  0
ARC
  5
F62
330
2
100
AcDbEntity
  8
0
100
AcDbCircle
 10
153.4177333522745
 20
310.9790239809263
 30
0.0
 40
5.0
100
AcDbArc
 50
180.0
 51
270.0
  0
ARC
  5
F63
330
2
100
AcDbEntity
  8
0
100
AcDbCircle
 10
153.4177333522745
 20
382.9790239809263
 30
0.0
 40
5.0
100
AcDbArc
 50
90.0
 51
180.0
  0
ARC
  5
F64
330
2
100
AcDbEntity
  8
0
100
AcDbCircle
 10
225.4177333522745
 20
382.9790239809263
 30
0.0
 40
5.0
100
AcDbArc
 50
0.0
 51
90.0
  0
LINE
  5
F65
330
2
100
AcDbEntity
  8
0
100
AcDbLine
 10
628.5060552666398
 20
644.8762915043889
 30
0.0
 11
614.2236174483248
 21
644.8762915043889
 31
0.0
  0
LINE
  5
F66
330
2
100
AcDbEntity
  8
0
100
AcDbLine
 10
532.1386988413831
 20
645.3762915043894
 30
0.0
 11
613.723617448323
 21
645.3762915043917
 31
0.0
  0
LINE
  5
F67
330
2
100
AcDbEntity
  8
0
100
AcDbLine
 10
538.138698841383
 20
573.8762915070565
 30
0.0
 11
608.138698841383
 21
573.8762915070565
 31
0.0
  0
LINE
  5
F68
330
2
100
AcDbEntity
  8
0
100
AcDbLine
 10
532.1386988413831
 20
645.3762915043894
 30
0.0
 11
532.7190355494455
 21
578.876291507056
 31
0.0
  0
LINE
  5
F69
330
2
100
AcDbEntity
  8
0
100
AcDbLine
 10
532.7190355494455
 20
578.876291507056
 30
0.0
 11
613.5534435263796
 21
578.8762915070547
 31
0.0
  0
ARC
  5
F6A
330
2
100
AcDbEntity
  8
0
100
AcDbCircle
 10
609.1386988413849
 20
382.9790239809263
 30
0.0
 40
5.0
100
AcDbArc
 50
0.0
 51
90.0
  0
ARC
  5
F6B
330
2
100
AcDbEntity
  8
0
100
AcDbCircle
 10
609.1386988413858
 20
310.9790239809263
 30
0.0
 40
5.0
100
AcDbArc
 50
270.0
 51
0.0
  0
ARC
  5
F6C
330
2
100
AcDbEntity
  8
0
100
AcDbCircle
 10
537.1386988413848
 20
310.9790239809263
 30
0.0
 40
5.0
100
AcDbArc
 50
180.0
 51
270.0
  0
LINE
  5
F6D
330
2
100
AcDbEntity
  8
0
100
AcDbLine
 10
658.1386988370138
 20
662.876291507056
 30
0.0
 11
658.1386988370138
 21
580.876291507056
 31
0.0
  0
ARC
  5
F6E
330
2
100
AcDbEntity
  8
0
100
AcDbCircle
 10
189.4177333522745
 20
475.97902398093
 30
0.0
 40
170.0
100
AcDbArc
 50
263.8230035951095
 51
276.1769964048904
  0
ARC
  5
F6F
330
2
100
AcDbEntity
  8
0
100
AcDbCircle
 10
166.8216899120841
 20
267.1982326689685
 30
0.0
 40
40.0
100
AcDbArc
 50
83.82300359510955
 51
103.36767420263
  0
ARC
  5
F70
330
2
100
AcDbEntity
  8
0
100
AcDbCircle
 10
212.0137767924641
 20
267.198232668968
 30
0.0
 40
40.0
100
AcDbArc
 50
76.63232579736996
 51
96.17699640483891
  0
ARC
  5
F71
330
2
100
AcDbEntity
  8
0
100
AcDbCircle
 10
222.4177333522745
 20
310.9790239809299
 30
0.0
 40
5.0
100
AcDbArc
 50
256.63232579737
 51
270.0
  0
LINE
  5
F72
330
2
100
AcDbEntity
  8
0
100
AcDbLine
 10
225.4177333522745
 20
305.9790239809299
 30
0.0
 11
222.4177333522745
 21
305.9790239809299
 31
0.0
  0
LINE
  5
F73
330
2
100
AcDbEntity
  8
0
100
AcDbLine
 10
230.4177333522746
 20
310.9790239809299
 30
0.0
 11
230.4177333522746
 21
313.97902398093
 31
0.0
  0
ARC
  5
F74
330
2
100
AcDbEntity
  8
0
100
AcDbCircle
 10
225.4177333522736
 20
313.97902398093
 30
0.0
 40
5.0
100
AcDbArc
 50
0.0
 51
13.36767420262659
  0
ARC
  5
F75
330
2
100
AcDbEntity
  8
0
100
AcDbCircle
 10
269.1985246642359
 20
324.3829805407395
 30
0.0
 40
40.0
100
AcDbArc
 50
173.8230035951369
 51
193.3676742026266
  0
ARC
  5
F76
330
2
100
AcDbEntity
  8
0
100
AcDbCircle
 10
60.41773335227458
 20
346.9790239809299
 30
0.0
 40
170.0
100
AcDbArc
 50
353.8230035951369
 51
6.176996404863066
  0
ARC
  5
F77
330
2
100
AcDbEntity
  8
0
100
AcDbCircle
 10
269.1985246642368
 20
369.5750674211195
 30
0.0
 40
40.0
100
AcDbArc
 50
166.6323257973733
 51
186.176996404863
  0
LINE
  5
F78
330
2
100
AcDbEntity
  8
0
100
AcDbLine
 10
230.4177333522746
 20
379.9790239809299
 30
0.0
 11
230.4177333522746
 21
382.97902398093
 31
0.0
  0
ARC
  5
F79
330
2
100
AcDbEntity
  8
0
100
AcDbCircle
 10
225.4177333522745
 20
379.9790239809299
 30
0.0
 40
5.0
100
AcDbArc
 50
346.6323257973734
 51
0.0
  0
LINE
  5
F7A
330
2
100
AcDbEntity
  8
0
100
AcDbLine
 10
225.4177333522745
 20
387.9790239809299
 30
0.0
 11
222.4177333522745
 21
387.9790239809299
 31
0.0
  0
ARC
  5
F7B
330
2
100
AcDbEntity
  8
0
100
AcDbCircle
 10
212.013776792465
 20
426.7598152928913
 30
0.0
 40
40.0
100
AcDbArc
 50
263.8230035951095
 51
283.3676742026299
  0
ARC
  5
F7C
330
2
100
AcDbEntity
  8
0
100
AcDbCircle
 10
222.4177333522745
 20
382.979023980929
 30
0.0
 40
5.0
100
AcDbArc
 50
90.0
 51
103.36767420263
  0
ARC
  5
F7D
330
2
100
AcDbEntity
  8
0
100
AcDbCircle
 10
189.4177333522745
 20
217.9790239809299
 30
0.0
 40
170.0
100
AcDbArc
 50
83.82300359510955
 51
96.17699640483891
  0
ARC
  5
F7E
330
2
100
AcDbEntity
  8
0
100
AcDbCircle
 10
166.821689912085
 20
426.7598152928917
 30
0.0
 40
40.0
100
AcDbArc
 50
256.63232579737
 51
276.1769964048904
  0
ARC
  5
F7F
330
2
100
AcDbEntity
  8
0
100
AcDbCircle
 10
156.4177333522745
 20
382.97902398093
 30
0.0
 40
5.0
100
AcDbArc
 50
76.63232579736996
 51
90.0
  0
LINE
  5
F80
330
2
100
AcDbEntity
  8
0
100
AcDbLine
 10
156.4177333522745
 20
387.9790239809299
 30
0.0
 11
153.4177333522745
 21
387.9790239809299
 31
0.0
  0
ARC
  5
F81
330
2
100
AcDbEntity
  8
0
100
AcDbCircle
 10
156.4177333522745
 20
310.9790239809309
 30
0.0
 40
5.0
100
AcDbArc
 50
270.0
 51
283.3676742026299
  0
LINE
  5
F82
330
2
100
AcDbEntity
  8
0
100
AcDbLine
 10
156.4177333522745
 20
305.9790239809299
 30
0.0
 11
153.4177333522745
 21
305.9790239809299
 31
0.0
  0
ARC
  5
F83
330
2
100
AcDbEntity
  8
0
100
AcDbCircle
 10
573.1386988413812
 20
217.979023980928
 30
0.0
 40
170.0
100
AcDbArc
 50
83.82300359510955
 51
96.17699640483891
  0
ARC
  5
F84
330
2
100
AcDbEntity
  8
0
100
AcDbCircle
 10
595.7347422815725
 20
426.75981529289
 30
0.0
 40
40.0
100
AcDbArc
 50
263.8230035951095
 51
283.3676742026299
  0
ARC
  5
F85
330
2
100
AcDbEntity
  8
0
100
AcDbCircle
 10
550.5426554011917
 20
426.7598152928904
 30
0.0
 40
40.0
100
AcDbArc
 50
256.63232579737
 51
276.1769964048904
  0
ARC
  5
F86
330
2
100
AcDbEntity
  8
0
100
AcDbCircle
 10
540.1386988413812
 20
382.9790239809281
 30
0.0
 40
5.0
100
AcDbArc
 50
76.63232579736996
 51
90.0
  0
LINE
  5
F87
330
2
100
AcDbEntity
  8
0
100
AcDbLine
 10
537.1386988413812
 20
387.9790239809281
 30
0.0
 11
540.1386988413812
 21
387.9790239809281
 31
0.0
  0
LINE
  5
F88
330
2
100
AcDbEntity
  8
0
100
AcDbLine
 10
532.1386988413812
 20
382.9790239809281
 30
0.0
 11
532.1386988413812
 21
379.9790239809281
 31
0.0
  0
ARC
  5
F89
330
2
100
AcDbEntity
  8
0
100
AcDbCircle
 10
537.1386988413822
 20
379.9790239809281
 30
0.0
 40
5.0
100
AcDbArc
 50
180.0
 51
193.3676742026266
  0
ARC
  5
F8A
330
2
100
AcDbEntity
  8
0
100
AcDbCircle
 10
493.3579075294199
 20
369.5750674211186
 30
0.0
 40
40.0
100
AcDbArc
 50
353.8230035951337
 51
13.36767420262659
  0
ARC
  5
F8B
330
2
100
AcDbEntity
  8
0
100
AcDbCircle
 10
702.1386988413821
 20
346.9790239809281
 30
0.0
 40
170.0
100
AcDbArc
 50
173.8230035951369
 51
186.176996404863
  0
ARC
  5
F8C
330
2
100
AcDbEntity
  8
0
100
AcDbCircle
 10
493.3579075294199
 20
324.382980540739
 30
0.0
 40
40.0
100
AcDbArc
 50
346.6323257973734
 51
6.176996404863066
  0
LINE
  5
F8D
330
2
100
AcDbEntity
  8
0
100
AcDbLine
 10
532.1386988413812
 20
313.9790239809281
 30
0.0
 11
532.1386988413812
 21
310.9790239809281
 31
0.0
  0
ARC
  5
F8E
330
2
100
AcDbEntity
  8
0
100
AcDbCircle
 10
537.1386988413822
 20
313.9790239809281
 30
0.0
 40
5.0
100
AcDbArc
 50
166.6323257973733
 51
180.0
  0
LINE
  5
F8F
330
2
100
AcDbEntity
  8
0
100
AcDbLine
 10
537.1386988413812
 20
305.9790239809281
 30
0.0
 11
540.1386988413812
 21
305.9790239809281
 31
0.0
  0
ARC
  5
F90
330
2
100
AcDbEntity
  8
0
100
AcDbCircle
 10
550.5426554011917
 20
267.1982326689667
 30
0.0
 40
40.0
100
AcDbArc
 50
83.82300359510955
 51
103.36767420263
  0
ARC
  5
F91
330
2
100
AcDbEntity
  8
0
100
AcDbCircle
 10
540.1386988413812
 20
310.979023980929
 30
0.0
 40
5.0
100
AcDbArc
 50
270.0
 51
283.3676742026299
  0
ARC
  5
F92
330
2
100
AcDbEntity
  8
0
100
AcDbCircle
 10
573.1386988413812
 20
475.9790239809285
 30
0.0
 40
170.0
100
AcDbArc
 50
263.8230035951095
 51
276.1769964048904
  0
ARC
  5
F93
330
2
100
AcDbEntity
  8
0
100
AcDbCircle
 10
595.7347422815708
 20
267.1982326689667
 30
0.0
 40
40.0
100
AcDbArc
 50
76.63232579736996
 51
96.17699640483891
  0
ARC
  5
F94
330
2
100
AcDbEntity
  8
0
100
AcDbCircle
 10
606.1386988413812
 20
310.9790239809286
 30
0.0
 40
5.0
100
AcDbArc
 50
256.63232579737
 51
270.0
  0
LINE
  5
F95
330
2
100
AcDbEntity
  8
0
100
AcDbLine
 10
606.1386988413812
 20
305.9790239809281
 30
0.0
 11
609.1386988413821
 21
305.9790239809281
 31
0.0
  0
ARC
  5
F96
330
2
100
AcDbEntity
  8
0
100
AcDbCircle
 10
606.1386988413812
 20
382.9790239809277
 30
0.0
 40
5.0
100
AcDbArc
 50
90.0
 51
103.36767420263
  0
LINE
  5
F97
330
2
100
AcDbEntity
  8
0
100
AcDbLine
 10
606.1386988413812
 20
387.9790239809281
 30
0.0
 11
609.1386988413812
 21
387.9790239809281
 31
0.0
  0
LINE
  5
F98
330
2
100
AcDbEntity
  8
0
100
AcDbLine
 10
613.5534435263796
 20
578.8762915070547
 30
0.0
 11
613.928698841383
 21
621.876291507056
 31
0.0
  0
ARC
  5
F99
330
2
100
AcDbEntity
  8
0
100
AcDbCircle
 10
616.8808153036914
 20
616.376291507056
 30
0.0
 40
3.0
100
AcDbArc
 50
90.0
 51
179.4999999999954
  0
ARC
  5
F9A
330
2
100
AcDbEntity
  8
0
100
AcDbCircle
 10
616.6757339106077
 20
592.876291507056
 30
0.0
 40
3.0
100
AcDbArc
 50
90.0
 51
179.4999999999954
  0
ARC
  5
F9B
330
2
100
AcDbEntity
  8
0
100
AcDbCircle
 10
616.6233727038632
 20
586.876291507056
 30
0.0
 40
3.0
100
AcDbArc
 50
90.0
 51
179.4999999999954
  0
LINE
  5
F9C
330
2
100
AcDbEntity
  8
0
100
AcDbLine
 10
613.723617448323
 20
645.3762915043917
 30
0.0
 11
614.223617448323
 21
644.8762915043917
 31
0.0
  0
LINE
  5
F9D
330
2
100
AcDbEntity
  8
0
100
AcDbLine
 10
133.9177333522727
 20
372.979023980809
 30
0.0
 11
143.4177333522745
 21
372.979023980809
 31
0.0
  0
ARC
  5
F9E
330
2
100
AcDbEntity
  8
0
100
AcDbCircle
 10
126.9177333522745
 20
377.979023980809
 30
0.0
 40
2.0
100
AcDbArc
 50
359.9999999999869
 51
90.0
  0
ARC
  5
F9F
330
2
100
AcDbEntity
  8
0
100
AcDbCircle
 10
126.9177333522745
 20
315.9790239810432
 30
0.0
 40
2.0
100
AcDbArc
 50
270.0
 51
359.9999999999869
  0
LINE
  5
FA0
330
2
100
AcDbEntity
  8
0
100
AcDbLine
 10
133.9177333522691
 20
320.9790239810436
 30
0.0
 11
143.4177333522745
 21
320.9790239810436
 31
0.0
  0
LINE
  5
FA1
330
2
100
AcDbEntity
  8
0
100
AcDbLine
 10
147.9177333522754
 20
334.8546683279447
 30
0.0
 11
147.9177333522745
 21
359.1033796339089
 31
0.0
  0
LINE
  5
FA2
330
2
100
AcDbEntity
  8
0
100
AcDbLine
 10
128.91773335227
 20
334.8546683279447
 30
0.0
 11
148.4177333522754
 21
334.8546683279447
 31
0.0
  0
LINE
  5
FA3
330
2
100
AcDbEntity
  8
0
100
AcDbLine
 10
128.9177333522727
 20
359.1033796339089
 30
0.0
 11
148.4177333522745
 21
359.1033796339089
 31
0.0
  0
LINE
  5
FA4
330
2
100
AcDbEntity
  8
0
100
AcDbLine
 10
628.6386988413949
 20
372.9790239808094
 30
0.0
 11
619.1386988413849
 21
372.9790239808099
 31
0.0
  0
ARC
  5
FA5
330
2
100
AcDbEntity
  8
0
100
AcDbCircle
 10
635.6386988413885
 20
377.9790239808099
 30
0.0
 40
2.0
100
AcDbArc
 50
90.0
 51
180.0
  0
LINE
  5
FA6
330
2
100
AcDbEntity
  8
0
100
AcDbLine
 10
633.6386988413931
 20
377.9790239808103
 30
0.0
 11
633.6386988413921
 21
315.9790239810445
 31
0.0
  0
LINE
  5
FA7
330
2
100
AcDbEntity
  8
0
100
AcDbLine
 10
628.638698841393
 20
320.9790239810445
 30
0.0
 11
619.1386988413849
 21
320.9790239810445
 31
0.0
  0
ARC
  5
FA8
330
2
100
AcDbEntity
  8
0
100
AcDbCircle
 10
635.6386988413885
 20
315.9790239810445
 30
0.0
 40
2.0
100
AcDbArc
 50
180.0
 51
270.0
  0
LINE
  5
FA9
330
2
100
AcDbEntity
  8
0
100
AcDbLine
 10
617.1386988413849
 20
349.4790239809268
 30
0.0
 11
630.638698841393
 21
349.4790239809268
 31
0.0
  0
LINE
  5
FAA
330
2
100
AcDbEntity
  8
0
100
AcDbLine
 10
617.1386988413849
 20
344.4790239809272
 30
0.0
 11
630.6386988413922
 21
344.4790239809268
 31
0.0
  0
ARC
  5
FAB
330
2
100
AcDbEntity
  8
0
100
AcDbCircle
 10
133.9177333522691
 20
315.9790239810436
 30
0.0
 40
5.0
100
AcDbArc
 50
90.0
 51
179.9999999999869
  0
ARC
  5
FAC
330
2
100
AcDbEntity
  8
0
100
AcDbCircle
 10
133.9177333522727
 20
377.979023980809
 30
0.0
 40
5.0
100
AcDbArc
 50
179.9999999999869
 51
270.0
  0
ARC
  5
FAD
330
2
100
AcDbEntity
  8
0
100
AcDbCircle
 10
143.4177333522745
 20
377.979023980809
 30
0.0
 40
5.0
100
AcDbArc
 50
270.0
 51
0.0
  0
ARC
  5
FAE
330
2
100
AcDbEntity
  8
0
100
AcDbCircle
 10
143.4177333522745
 20
315.9790239810436
 30
0.0
 40
5.0
100
AcDbArc
 50
0.0
 51
90.0
  0
ARC
  5
FAF
330
2
100
AcDbEntity
  8
0
100
AcDbCircle
 10
628.6386988413949
 20
377.9790239808094
 30
0.0
 40
5.0
100
AcDbArc
 50
270.0
 51
359.9999999999869
  0
ARC
  5
FB0
330
2
100
AcDbEntity
  8
0
100
AcDbCircle
 10
619.1386988413849
 20
377.9790239808099
 30
0.0
 40
5.0
100
AcDbArc
 50
180.0
 51
270.0
  0
ARC
  5
FB1
330
2
100
AcDbEntity
  8
0
100
AcDbCircle
 10
628.638698841393
 20
315.9790239810445
 30
0.0
 40
5.0
100
AcDbArc
 50
0.0
 51
90.0
  0
ARC
  5
FB2
330
2
100
AcDbEntity
  8
0
100
AcDbCircle
 10
619.1386988413849
 20
315.9790239810445
 30
0.0
 40
5.0
100
AcDbArc
 50
90.0
 51
180.0
  0
ARC
  5
FB3
330
2
100
AcDbEntity
  8
0
100
AcDbCircle
 10
630.638698841393
 20
352.4790239809267
 30
0.0
 40
3.0
100
AcDbArc
 50
270.0
 51
0.0
  0
ARC
  5
FB4
330
2
100
AcDbEntity
  8
0
100
AcDbCircle
 10
617.1386988413849
 20
352.4790239809267
 30
0.0
 40
3.0
100
AcDbArc
 50
180.0
 51
270.0
  0
ARC
  5
FB5
330
2
100
AcDbEntity
  8
0
100
AcDbCircle
 10
630.6386988413922
 20
341.4790239809267
 30
0.0
 40
3.0
100
AcDbArc
 50
0.0
 51
90.0
  0
ARC
  5
FB6
330
2
100
AcDbEntity
  8
0
100
AcDbCircle
 10
617.1386988413849
 20
341.4790239809272
 30
0.0
 40
3.0
100
AcDbArc
 50
90.0
 51
180.0
  0
LINE
  5
FB7
330
2
100
AcDbEntity
  8
0
100
AcDbLine
 10
544.7521329424151
 20
571.9460905004607
 30
0.0
 11
545.071294736959
 21
562.8064925136514
 31
0.0
  0
ARC
  5
FB8
330
2
100
AcDbEntity
  8
0
100
AcDbCircle
 10
542.7533512883772
 20
571.8762915070556
 30
0.0
 40
2.0
100
AcDbArc
 50
2.000000000003654
 51
90.0
  0
LINE
  5
FB9
330
2
100
AcDbEntity
  8
0
100
AcDbLine
 10
547.0700763909978
 20
560.8762915070583
 30
0.0
 11
599.2073212917683
 21
560.8762915070555
 31
0.0
  0
ARC
  5
FBA
330
2
100
AcDbEntity
  8
0
100
AcDbCircle
 10
547.0700763909978
 20
562.876291507056
 30
0.0
 40
2.0
100
AcDbArc
 50
182.0000000000036
 51
270.0
  0
ARC
  5
FBB
330
2
100
AcDbEntity
  8
0
100
AcDbCircle
 10
599.2073212917683
 20
562.8762915070556
 30
0.0
 40
2.0
100
AcDbArc
 50
270.0
 51
357.9999999999963
  0
LINE
  5
FBC
330
2
100
AcDbEntity
  8
0
100
AcDbLine
 10
601.525264740352
 20
571.9460905004607
 30
0.0
 11
601.206102945807
 21
562.8064925136509
 31
0.0
  0
ARC
  5
FBD
330
2
100
AcDbEntity
  8
0
100
AcDbCircle
 10
603.5240463943908
 20
571.8762915070556
 30
0.0
 40
2.0
100
AcDbArc
 50
90.0
 51
177.9999999999963
  0
LINE
  5
FBE
330
2
100
AcDbEntity
  8
0
100
AcDbLine
 10
648.087012583225
 20
662.876291507056
 30
0.0
 11
658.1386988370138
 21
662.876291507056
 31
0.0
  0
LINE
  5
FBF
330
2
100
AcDbEntity
  8
0
100
AcDbLine
 10
648.087012583225
 20
580.876291507056
 30
0.0
 11
658.1386988370138
 21
580.876291507056
 31
0.0
  0
ARC
  5
FC0
330
2
100
AcDbEntity
  8
0
100
AcDbCircle
 10
648.087012583225
 20
660.8762915070561
 30
0.0
 40
2.0
100
AcDbArc
 50
90.0
 51
178.5000000000102
  0
LINE
  5
FC1
330
2
100
AcDbEntity
  8
0
100
AcDbLine
 10
646.0876979332749
 20
660.9286454036714
 30
0.0
 11
645.0650760570804
 21
621.876291507056
 31
0.0
  0
ARC
  5
FC2
330
2
100
AcDbEntity
  8
0
100
AcDbCircle
 10
648.087012583225
 20
582.876291507056
 30
0.0
 40
2.0
100
AcDbArc
 50
181.4999999999897
 51
270.0
  0
LINE
  5
FC3
330
2
100
AcDbEntity
  8
0
100
AcDbLine
 10
646.0876979332749
 20
582.8239376104407
 30
0.0
 11
645.0650760570795
 21
621.876291507056
 31
0.0
  0
LINE
  5
FC4
330
2
100
AcDbEntity
  8
0
100
AcDbLine
 10
635.587012583225
 20
588.876291507056
 30
0.0
 11
641.0584271142222
 21
588.876291507056
 31
0.0
  0
ARC
  5
FC5
330
2
100
AcDbEntity
  8
0
100
AcDbCircle
 10
641.0584271142213
 20
659.876291507056
 30
0.0
 40
5.0
100
AcDbArc
 50
270.0
 51
358.5000000000103
  0
ARC
  5
FC6
330
2
100
AcDbEntity
  8
0
100
AcDbCircle
 10
641.0584271142222
 20
583.876291507056
 30
0.0
 40
5.0
100
AcDbArc
 50
1.499999999989693
 51
90.0
  0
ARC
  5
FC7
330
2
100
AcDbEntity
  8
0
100
AcDbCircle
 10
635.587012583225
 20
652.8762915070561
 30
0.0
 40
2.0
100
AcDbArc
 50
90.0
 51
178.4999999999973
  0
LINE
  5
FC8
330
2
100
AcDbEntity
  8
0
100
AcDbLine
 10
633.587697933274
 20
590.8239376104402
 30
0.0
 11
632.7745634297269
 21
621.876291507056
 31
0.0
  0
ARC
  5
FC9
330
2
100
AcDbEntity
  8
0
100
AcDbCircle
 10
635.587012583225
 20
590.876291507056
 30
0.0
 40
2.0
100
AcDbArc
 50
181.5000000000548
 51
270.0
  0
LINE
  5
FCA
330
2
100
AcDbEntity
  8
0
100
AcDbLine
 10
635.587012583225
 20
654.876291507056
 30
0.0
 11
641.0584271142213
 21
654.876291507056
 31
0.0
  0
LINE
  5
FCB
330
2
100
AcDbEntity
  8
0
100
AcDbLine
 10
633.587697933274
 20
652.9286454036719
 30
0.0
 11
632.7745634296059
 21
621.876291507056
 31
0.0
  0
LINE
  5
FCC
330
2
100
AcDbEntity
  8
0
100
AcDbLine
 10
616.6757339106077
 20
595.876291507056
 30
0.0
 11
628.5846130357892
 21
595.876291507056
 31
0.0
  0
ARC
  5
FCD
330
2
100
AcDbEntity
  8
0
100
AcDbCircle
 10
628.5060552710818
 20
649.876291507056
 30
0.0
 40
5.0
100
AcDbArc
 50
270.0
 51
358.4999999999972
  0
ARC
  5
FCE
330
2
100
AcDbEntity
  8
0
100
AcDbCircle
 10
628.5846130357892
 20
590.876291507056
 30
0.0
 40
5.0
100
AcDbArc
 50
1.500000000002716
 51
90.0
  0
LINE
  5
FCF
330
2
100
AcDbEntity
  8
0
100
AcDbLine
 10
616.6233727038632
 20
589.8762915070561
 30
0.0
 11
632.587012583225
 21
589.8762915070561
 31
0.0
  0
ARC
  5
FD0
330
2
100
AcDbEntity
  8
0
100
AcDbCircle
 10
632.587012583225
 20
586.876291507056
 30
0.0
 40
3.0
100
AcDbArc
 50
53.13010235412992
 51
90.0
  0
LINE
  5
FD1
330
2
100
AcDbEntity
  8
0
100
AcDbLine
 10
606.1517918022371
 20
645.3762915043917
 30
0.0
 11
606.7416605049881
 21
622.8501145587483
 31
0.0
  0
ARC
  5
FD2
330
2
100
AcDbEntity
  8
0
100
AcDbCircle
 10
607.7413178299637
 20
622.8762915070561
 30
0.0
 40
1.0
100
AcDbArc
 50
181.4999999999897
 51
270.0
  0
LINE
  5
FD3
330
2
100
AcDbEntity
  8
0
100
AcDbLine
 10
616.8808153036914
 20
624.3762915070556
 30
0.0
 11
629.9175576207623
 21
624.376291507056
 31
0.0
  0
LINE
  5
FD4
330
2
100
AcDbEntity
  8
0
100
AcDbLine
 10
616.8808153036914
 20
619.3762915070561
 30
0.0
 11
629.9175576208615
 21
619.3762915070561
 31
0.0
  0
ARC
  5
FD5
330
2
100
AcDbEntity
  8
0
100
AcDbCircle
 10
629.9175576207623
 20
627.3762915070561
 30
0.0
 40
3.0
100
AcDbArc
 50
270.0
 51
358.5000000000103
  0
ARC
  5
FD6
330
2
100
AcDbEntity
  8
0
100
AcDbCircle
 10
629.9175576208615
 20
616.376291507056
 30
0.0
 40
3.0
100
AcDbArc
 50
1.499999999768141
 51
90.0
  0
LINE
  5
FD7
330
2
100
AcDbEntity
  8
0
100
AcDbLine
 10
554.8466636754426
 20
644.876291507056
 30
0.0
 11
554.8466636754426
 21
580.376272468588
 31
0.0
  0
LINE
  5
FD8
330
2
100
AcDbEntity
  8
0
100
AcDbLine
 10
540.138698841384
 20
644.876291507056
 30
0.0
 11
540.138698841384
 21
580.376272468588
 31
0.0
  0
LINE
  5
FD9
330
2
100
AcDbEntity
  8
0
100
AcDbLine
 10
537.1386988413822
 20
644.876291507056
 30
0.0
 11
537.1386988413822
 21
580.376272468588
 31
0.0
  0
LINE
  5
FDA
330
2
100
AcDbEntity
  8
0
100
AcDbLine
 10
591.4307340073235
 20
644.876291507056
 30
0.0
 11
591.4307340073235
 21
580.376272468588
 31
0.0
  0
LINE
  5
FDB
330
2
100
AcDbEntity
  8
0
100
AcDbLine
 10
606.1386988413821
 20
621.876291507056
 30
0.0
 11
606.1386988413821
 21
580.376272468588
 31
0.0
  0
LINE
  5
FDC
330
2
100
AcDbEntity
  8
0
100
AcDbLine
 10
608.9292541805568
 20
645.376291507056
 30
0.0
 11
608.9292541805568
 21
580.376272468588
 31
0.0
  0
LINE
  5
FDD
330
2
100
AcDbEntity
  8
0
100
AcDbLine
 10
607.7413178299637
 20
621.876291507056
 30
0.0
 11
613.928698841383
 21
621.876291507056
 31
0.0
  0
LINE
  5
FDE
330
2
100
AcDbEntity
  8
0
100
AcDbLine
 10
645.0650760570804
 20
621.876291507056
 30
0.0
 11
658.1386988370138
 21
621.876291507056
 31
0.0
  0
LINE
  5
FDF
330
2
100
AcDbEntity
  8
0
100
AcDbLine
 10
145.4177333522745
 20
314.9790239809218
 30
0.0
 11
129.9177333522754
 21
314.9790239809218
 31
0.0
  0
ARC
  5
FE0
330
2
100
AcDbEntity
  8
0
100
AcDbCircle
 10
129.9177333522754
 20
311.9790239809217
 30
0.0
 40
3.0
100
AcDbArc
 50
90.0
 51
126.86989764587
  0
ARC
  5
FE1
330
2
100
AcDbEntity
  8
0
100
AcDbCircle
 10
145.4177333522745
 20
311.9790239809217
 30
0.0
 40
3.0
100
AcDbArc
 50
0.0
 51
90.0
  0
LINE
  5
FE2
330
2
100
AcDbEntity
  8
0
100
AcDbLine
 10
145.4177333522745
 20
378.9790239809318
 30
0.0
 11
129.9177333522754
 21
378.9790239809318
 31
0.0
  0
ARC
  5
FE3
330
2
100
AcDbEntity
  8
0
100
AcDbCircle
 10
145.4177333522745
 20
381.9790239809318
 30
0.0
 40
3.0
100
AcDbArc
 50
270.0
 51
0.0
  0
ARC
  5
FE4
330
2
100
AcDbEntity
  8
0
100
AcDbCircle
 10
129.9177333522754
 20
381.9790239809318
 30
0.0
 40
3.0
100
AcDbArc
 50
233.1301023541299
 51
270.0
  0
LINE
  5
FE5
330
2
100
AcDbEntity
  8
0
100
AcDbLine
 10
617.1386988413849
 20
314.9790239809249
 30
0.0
 11
632.6386988413839
 21
314.9790239809249
 31
0.0
  0
ARC
  5
FE6
330
2
100
AcDbEntity
  8
0
100
AcDbCircle
 10
617.1386988413849
 20
311.9790239809249
 30
0.0
 40
3.0
100
AcDbArc
 50
90.0
 51
180.0
  0
ARC
  5
FE7
330
2
100
AcDbEntity
  8
0
100
AcDbCircle
 10
632.6386988413839
 20
311.9790239809249
 30
0.0
 40
3.0
100
AcDbArc
 50
53.13010235412992
 51
90.0
  0
LINE
  5
FE8
330
2
100
AcDbEntity
  8
0
100
AcDbLine
 10
617.1386988413849
 20
378.9790239809345
 30
0.0
 11
632.6386988413839
 21
378.9790239809345
 31
0.0
  0
ARC
  5
FE9
330
2
100
AcDbEntity
  8
0
100
AcDbCircle
 10
617.1386988413849
 20
381.979023980935
 30
0.0
 40
3.0
100
AcDbArc
 50
180.0
 51
270.0
  0
ARC
  5
FEA
330
2
100
AcDbEntity
  8
0
100
AcDbCircle
 10
632.6386988413839
 20
381.979023980935
 30
0.0
 40
3.0
100
AcDbArc
 50
270.0
 51
306.86989764587
  0
LINE
  5
FEB
330
2
100
AcDbEntity
  8
0
100
AcDbLine
 10
569.9362147568678
 20
312.8058976033262
 30
0.0
 11
571.1962152999437
 21
312.8058976033262
 31
0.0
  0
LINE
  5
FEC
330
2
100
AcDbEntity
  8
0
100
AcDbLine
 10
571.6862147568615
 20
316.305897603314
 30
0.0
 11
569.9362147568678
 21
312.8058976033262
 31
0.0
  0
ARC
  5
FED
330
2
100
AcDbEntity
  8
0
100
AcDbCircle
 10
574.5911829243511
 20
315.1158976033185
 30
0.0
 40
1.189999999995825
100
AcDbArc
 50
307.5189678667999
 51
90.0
  0
LINE
  5
FEE
330
2
100
AcDbEntity
  8
0
100
AcDbLine
 10
575.315921527949
 20
314.1720470026162
 30
0.0
 11
576.1852641628808
 21
312.8058976033262
 31
0.0
  0
LINE
  5
FEF
330
2
100
AcDbEntity
  8
0
100
AcDbLine
 10
574.925263619805
 20
312.8058976033262
 30
0.0
 11
576.1852641628808
 21
312.8058976033262
 31
0.0
  0
LINE
  5
FF0
330
2
100
AcDbEntity
  8
0
100
AcDbLine
 10
572.3512147568587
 20
312.8058976033262
 30
0.0
 11
573.4011829243552
 21
312.8058976033262
 31
0.0
  0
LINE
  5
FF1
330
2
100
AcDbEntity
  8
0
100
AcDbLine
 10
571.4587152999427
 20
313.3308976033245
 30
0.0
 11
571.1962152999437
 21
312.8058976033262
 31
0.0
  0
LINE
  5
FF2
330
2
100
AcDbEntity
  8
0
100
AcDbLine
 10
571.4587152999427
 20
313.3308976033245
 30
0.0
 11
572.3512147568587
 21
313.3308976033245
 31
0.0
  0
LINE
  5
FF3
330
2
100
AcDbEntity
  8
0
100
AcDbLine
 10
572.3512147568587
 20
313.3308976033245
 30
0.0
 11
572.3512147568587
 21
312.8058976033262
 31
0.0
  0
LINE
  5
FF4
330
2
100
AcDbEntity
  8
0
100
AcDbLine
 10
572.0187152999413
 20
314.4508976033203
 30
0.0
 11
572.3512147568587
 21
314.4508976033203
 31
0.0
  0
LINE
  5
FF5
330
2
100
AcDbEntity
  8
0
100
AcDbLine
 10
572.3512147568587
 20
315.1158965171562
 30
0.0
 11
572.3512147568587
 21
314.4508976033203
 31
0.0
  0
LINE
  5
FF6
330
2
100
AcDbEntity
  8
0
100
AcDbLine
 10
572.3512147568587
 20
315.1158965171562
 30
0.0
 11
572.0187152999413
 21
314.4508976033203
 31
0.0
  0
LINE
  5
FF7
330
2
100
AcDbEntity
  8
0
100
AcDbLine
 10
573.5499647568547
 20
314.9671476033186
 30
0.0
 11
574.925263619805
 21
312.8058976033262
 31
0.0
  0
LINE
  5
FF8
330
2
100
AcDbEntity
  8
0
100
AcDbLine
 10
573.4011829243552
 20
315.1158976033185
 30
0.0
 11
573.4011829243552
 21
312.8058976033262
 31
0.0
  0
LINE
  5
FF9
330
2
100
AcDbEntity
  8
0
100
AcDbLine
 10
573.4011829243552
 20
315.1158976033185
 30
0.0
 11
574.5168397568511
 21
315.1158976033185
 31
0.0
  0
LINE
  5
FFA
330
2
100
AcDbEntity
  8
0
100
AcDbLine
 10
573.5499647568547
 20
314.9671476033186
 30
0.0
 11
574.5168397568511
 21
314.9671476033186
 31
0.0
  0
ARC
  5
FFB
330
2
100
AcDbEntity
  8
0
100
AcDbCircle
 10
574.5168397568511
 20
315.0415226033183
 30
0.0
 40
0.0743749999997391
100
AcDbArc
 50
270.0
 51
90.0
  0
LINE
  5
FFC
330
2
100
AcDbEntity
  8
0
100
AcDbLine
 10
571.6862147568615
 20
316.305897603314
 30
0.0
 11
574.5911829243511
 21
316.305897603314
 31
0.0
  0
LINE
  5
FFD
330
2
100
AcDbEntity
  8
0
100
AcDbLine
 10
538.138698841383
 20
578.876291507056
 30
0.0
 11
538.138698841383
 21
573.8762915070561
 31
0.0
  0
LINE
  5
FFE
330
2
100
AcDbEntity
  8
0
100
AcDbLine
 10
608.138698841383
 20
578.876291507056
 30
0.0
 11
608.138698841383
 21
573.8762915070561
 31
0.0
  0
LINE
  5
FFF
330
2
100
AcDbEntity
  8
0
100
AcDbLine
 10
114.4177333522764
 20
305.4790239809263
 30
0.0
 11
104.4177333522745
 21
305.4790239809263
 31
0.0
  0
ARC
  5
1000
330
2
100
AcDbEntity
  8
0
100
AcDbCircle
 10
114.4177333522764
 20
307.4790239809263
 30
0.0
 40
2.0
100
AcDbArc
 50
270.0
 51
0.0
  0
LINE
  5
1001
330
2
100
AcDbEntity
  8
0
100
AcDbLine
 10
104.4177333522745
 20
388.4790239809263
 30
0.0
 11
114.4177333522745
 21
388.4790239809263
 31
0.0
  0
ARC
  5
1002
330
2
100
AcDbEntity
  8
0
100
AcDbCircle
 10
114.4177333522745
 20
386.4790239809263
 30
0.0
 40
2.0
100
AcDbArc
 50
0.0
 51
90.0
  0
LINE
  5
1003
330
2
100
AcDbEntity
  8
0
100
AcDbLine
 10
648.1386988413831
 20
388.4790239809263
 30
0.0
 11
658.138698841383
 21
388.4790239809263
 31
0.0
  0
ARC
  5
1004
330
2
100
AcDbEntity
  8
0
100
AcDbCircle
 10
648.1386988413831
 20
386.4790239809263
 30
0.0
 40
2.0
100
AcDbArc
 50
90.0
 51
180.0
  0
LINE
  5
1005
330
2
100
AcDbEntity
  8
0
100
AcDbLine
 10
658.138698841383
 20
305.4790239809263
 30
0.0
 11
648.1386988413857
 21
305.4790239809263
 31
0.0
  0
ARC
  5
1006
330
2
100
AcDbEntity
  8
0
100
AcDbCircle
 10
648.1386988413857
 20
307.4790239809263
 30
0.0
 40
2.0
100
AcDbArc
 50
180.0
 51
270.0
  0
LINE
  5
1007
330
2
100
AcDbEntity
  8
CENTER
100
AcDbLine
 10
573.1386988413903
 20
405.9790239809263
 30
0.0
 11
573.1386988413903
 21
287.9790239809272
 31
0.0
  0
LINE
  5
1008
330
2
100
AcDbEntity
  8
CENTER
100
AcDbLine
 10
514.1386988413858
 20
346.9790239809227
 30
0.0
 11
723.138698837012
 21
346.9790239809229
 31
0.0
  0
LINE
  5
1009
330
2
100
AcDbEntity
  8
CENTER
100
AcDbLine
 10
232.6677333522745
 20
381.4790239809267
 30
0.0
 11
215.1677333522745
 21
381.4790239809267
 31
0.0
  0
LINE
  5
100A
330
2
100
AcDbEntity
  8
CENTER
100
AcDbLine
 10
223.9177333522746
 20
390.2290239809268
 30
0.0
 11
223.9177333522746
 21
372.7290239809267
 31
0.0
  0
LINE
  5
100B
330
2
100
AcDbEntity
  8
CENTER
100
AcDbLine
 10
146.1677333522745
 20
381.4790239809267
 30
0.0
 11
163.6677333522745
 21
381.4790239809267
 31
0.0
  0
LINE
  5
100C
330
2
100
AcDbEntity
  8
CENTER
100
AcDbLine
 10
148.2445282715205
 20
373.4790239809267
 30
0.0
 11
158.590938433035
 21
373.4790239809267
 31
0.0
  0
CIRCLE
  5
100D
330
2
100
AcDbEntity
  8
HOJO
100
AcDbCircle
 10
153.4177333522773
 20
373.4790239809267
 30
0.0
 40
2.0
  0
LINE
  5
100E
330
2
100
AcDbEntity
  8
CENTER
100
AcDbLine
 10
153.4177333522773
 20
378.652229061684
 30
0.0
 11
153.4177333522773
 21
368.30581890017
 31
0.0
  0
LINE
  5
100F
330
2
100
AcDbEntity
  8
CENTER
100
AcDbLine
 10
232.6677333522745
 20
312.4790239809267
 30
0.0
 11
215.1677333522745
 21
312.4790239809267
 31
0.0
  0
LINE
  5
1010
330
2
100
AcDbEntity
  8
CENTER
100
AcDbLine
 10
225.4177333522718
 20
315.3058189001699
 30
0.0
 11
225.4177333522718
 21
325.652229061684
 31
0.0
  0
LINE
  5
1011
330
2
100
AcDbEntity
  8
CENTER
100
AcDbLine
 10
230.5909384330295
 20
320.4790239809268
 30
0.0
 11
220.244528271515
 21
320.4790239809268
 31
0.0
  0
CIRCLE
  5
1012
330
2
100
AcDbEntity
  8
HOJO
100
AcDbCircle
 10
225.4177333522718
 20
320.4790239809268
 30
0.0
 40
2.0
  0
LINE
  5
1013
330
2
100
AcDbEntity
  8
CENTER
100
AcDbLine
 10
146.1677333522745
 20
312.4790239809272
 30
0.0
 11
163.6677333522745
 21
312.4790239809272
 31
0.0
  0
ARC
  5
1014
330
2
100
AcDbEntity
  8
0
100
AcDbCircle
 10
160.9177333522772
 20
364.4409647580555
 30
0.0
 40
5.0
100
AcDbArc
 50
135.0000000000089
 51
180.0
  0
ARC
  5
1015
330
2
100
AcDbEntity
  8
0
100
AcDbCircle
 10
217.9177333522718
 20
364.4409647580555
 30
0.0
 40
5.0
100
AcDbArc
 50
0.0
 51
44.99999999999107
  0
CIRCLE
  5
1016
330
2
100
AcDbEntity
  8
0
100
AcDbCircle
 10
189.4177333522745
 20
346.9790239809268
 30
0.0
 40
23.0
  0
LINE
  5
1017
330
2
100
AcDbEntity
  8
0
100
AcDbLine
 10
148.8277333522744
 20
310.9790239809272
 30
0.0
 11
148.8277333522744
 21
382.9790239809268
 31
0.0
  0
CIRCLE
  5
1018
330
2
100
AcDbEntity
  8
0
100
AcDbCircle
 10
189.4177333522745
 20
346.9790239809268
 30
0.0
 40
29.0
  0
CIRCLE
  5
1019
330
2
100
AcDbEntity
  8
0
100
AcDbCircle
 10
189.4177333522745
 20
346.9790239809268
 30
0.0
 40
26.5
  0
CIRCLE
  5
101A
330
2
100
AcDbEntity
  8
0
100
AcDbCircle
 10
189.4177333522745
 20
346.9790239809268
 30
0.0
 40
28.5
  0
ARC
  5
101B
330
2
100
AcDbEntity
  8
0
100
AcDbCircle
 10
217.9177333522718
 20
364.4409647580551
 30
0.0
 40
8.5
100
AcDbArc
 50
0.0
 51
44.99999999999107
  0
ARC
  5
101C
330
2
100
AcDbEntity
  8
0
100
AcDbCircle
 10
160.9177333522772
 20
364.4409647580555
 30
0.0
 40
8.5
100
AcDbArc
 50
135.0000000000089
 51
180.0
  0
CIRCLE
  5
101D
330
2
100
AcDbEntity
  8
0
100
AcDbCircle
 10
189.4177333522745
 20
346.9790239809268
 30
0.0
 40
23.5774
  0
CIRCLE
  5
101E
330
2
100
AcDbEntity
  8
0
100
AcDbCircle
 10
189.4177333522745
 20
346.9790239809268
 30
0.0
 40
25.9226
  0
LINE
  5
101F
330
2
100
AcDbEntity
  8
0
100
AcDbLine
 10
206.8796741294034
 20
383.979023980924
 30
0.0
 11
171.9557925751466
 21
383.979023980924
 31
0.0
  0
LINE
  5
1020
330
2
100
AcDbEntity
  8
0
100
AcDbLine
 10
206.8796741294034
 20
380.479023980924
 30
0.0
 11
171.9557925751466
 21
380.479023980924
 31
0.0
  0
LINE
  5
1021
330
2
100
AcDbEntity
  8
0
100
AcDbLine
 10
225.7707093786172
 20
367.6937739331584
 30
0.0
 11
222.5371310148291
 21
366.3543819198808
 31
0.0
  0
ARC
  5
1022
330
2
100
AcDbEntity
  8
0
100
AcDbCircle
 10
206.8796741294034
 20
375.479023980924
 30
0.0
 40
8.5
100
AcDbArc
 50
44.99999999999107
 51
90.0
  0
LINE
  5
1023
330
2
100
AcDbEntity
  8
0
100
AcDbLine
 10
210.1324833045071
 20
383.3320000072699
 30
0.0
 11
208.7930912912286
 21
380.0984216434804
 31
0.0
  0
LINE
  5
1024
330
2
100
AcDbEntity
  8
0
100
AcDbLine
 10
223.9281409923576
 20
370.4513723981408
 30
0.0
 11
212.8900817694891
 21
381.4894316210098
 31
0.0
  0
LINE
  5
1025
330
2
100
AcDbEntity
  8
0
100
AcDbLine
 10
221.4532672582042
 20
367.976498663988
 30
0.0
 11
210.4152080353358
 21
379.0145578868569
 31
0.0
  0
ARC
  5
1026
330
2
100
AcDbEntity
  8
0
100
AcDbCircle
 10
206.8796741294034
 20
375.479023980924
 30
0.0
 40
5.0
100
AcDbArc
 50
44.99999999999107
 51
90.0
  0
LINE
  5
1027
330
2
100
AcDbEntity
  8
0
100
AcDbLine
 10
153.0647573259318
 20
367.6937739331588
 30
0.0
 11
156.2983356897209
 21
366.3543819198808
 31
0.0
  0
LINE
  5
1028
330
2
100
AcDbEntity
  8
0
100
AcDbLine
 10
156.4177333522745
 20
387.9790239809267
 30
0.0
 11
153.8277333522744
 21
387.9790239809267
 31
0.0
  0
LINE
  5
1029
330
2
100
AcDbEntity
  8
0
100
AcDbLine
 10
154.9073257121915
 20
370.4513723981413
 30
0.0
 11
165.9453849350609
 21
381.4894316210098
 31
0.0
  0
ARC
  5
102A
330
2
100
AcDbEntity
  8
0
100
AcDbCircle
 10
171.9557925751466
 20
375.479023980924
 30
0.0
 40
8.5
100
AcDbArc
 50
90.0
 51
135.0000000000089
  0
LINE
  5
102B
330
2
100
AcDbEntity
  8
0
100
AcDbLine
 10
168.7029834000429
 20
383.3320000072699
 30
0.0
 11
170.0423754133205
 21
380.0984216434804
 31
0.0
  0
LINE
  5
102C
330
2
100
AcDbEntity
  8
0
100
AcDbLine
 10
157.3821994463448
 20
367.976498663988
 30
0.0
 11
168.4202586692133
 21
379.0145578868569
 31
0.0
  0
ARC
  5
102D
330
2
100
AcDbEntity
  8
0
100
AcDbCircle
 10
171.9557925751466
 20
375.479023980924
 30
0.0
 40
5.0
100
AcDbArc
 50
90.0
 51
135.0000000000089
  0
ARC
  5
102E
330
2
100
AcDbEntity
  8
0
100
AcDbCircle
 10
153.8277333522744
 20
382.9790239809268
 30
0.0
 40
5.0
100
AcDbArc
 50
90.0
 51
180.0
  0
CIRCLE
  5
102F
330
2
100
AcDbEntity
  8
0
100
AcDbCircle
 10
153.4177333522773
 20
373.4790239809267
 30
0.0
 40
1.6
  0
LINE
  5
1030
330
2
100
AcDbEntity
  8
0
100
AcDbLine
 10
171.9557925751466
 20
309.9790239809295
 30
0.0
 11
206.8796741294034
 21
309.9790239809295
 31
0.0
  0
LINE
  5
1031
330
2
100
AcDbEntity
  8
0
100
AcDbLine
 10
171.9557925751466
 20
313.4790239809295
 30
0.0
 11
206.8796741294034
 21
313.4790239809295
 31
0.0
  0
LINE
  5
1032
330
2
100
AcDbEntity
  8
0
100
AcDbLine
 10
226.4177333522718
 20
329.5170832037984
 30
0.0
 11
226.4177333522718
 21
364.4409647580551
 31
0.0
  0
LINE
  5
1033
330
2
100
AcDbEntity
  8
0
100
AcDbLine
 10
222.9177333522718
 20
329.5170832037984
 30
0.0
 11
222.9177333522718
 21
364.4409647580555
 31
0.0
  0
CIRCLE
  5
1034
330
2
100
AcDbEntity
  8
0
100
AcDbCircle
 10
225.4177333522718
 20
320.4790239809268
 30
0.0
 40
1.6
  0
ARC
  5
1035
330
2
100
AcDbEntity
  8
0
100
AcDbCircle
 10
217.9177333522718
 20
329.5170832037984
 30
0.0
 40
8.5
100
AcDbArc
 50
315.0000000000089
 51
0.0
  0
LINE
  5
1036
330
2
100
AcDbEntity
  8
0
100
AcDbLine
 10
225.7707093786172
 20
326.2642740286951
 30
0.0
 11
222.5371310148282
 21
327.6036660419727
 31
0.0
  0
LINE
  5
1037
330
2
100
AcDbEntity
  8
0
100
AcDbLine
 10
223.9281409923576
 20
323.5066755637126
 30
0.0
 11
212.8900817694891
 21
312.4686163408442
 31
0.0
  0
LINE
  5
1038
330
2
100
AcDbEntity
  8
0
100
AcDbLine
 10
221.4532672582042
 20
325.9815492978655
 30
0.0
 11
210.4152080353358
 21
314.9434900749966
 31
0.0
  0
ARC
  5
1039
330
2
100
AcDbEntity
  8
0
100
AcDbCircle
 10
217.9177333522718
 20
329.5170832037984
 30
0.0
 40
5.0
100
AcDbArc
 50
315.0000000000089
 51
0.0
  0
ARC
  5
103A
330
2
100
AcDbEntity
  8
0
100
AcDbCircle
 10
206.8796741294034
 20
318.4790239809295
 30
0.0
 40
5.0
100
AcDbArc
 50
270.0
 51
315.0000000000089
  0
ARC
  5
103B
330
2
100
AcDbEntity
  8
0
100
AcDbCircle
 10
206.8796741294034
 20
318.4790239809295
 30
0.0
 40
8.5
100
AcDbArc
 50
270.0
 51
315.0000000000089
  0
LINE
  5
103C
330
2
100
AcDbEntity
  8
0
100
AcDbLine
 10
210.1324833045071
 20
310.6260479545836
 30
0.0
 11
208.7930912912286
 21
313.8596263183731
 31
0.0
  0
LINE
  5
103D
330
2
100
AcDbEntity
  8
0
100
AcDbLine
 10
156.4177333522745
 20
305.9790239809272
 30
0.0
 11
153.8277333522744
 21
305.9790239809272
 31
0.0
  0
LINE
  5
103E
330
2
100
AcDbEntity
  8
0
100
AcDbLine
 10
153.0647573259318
 20
326.2642740286951
 30
0.0
 11
156.2983356897209
 21
327.6036660419732
 31
0.0
  0
LINE
  5
103F
330
2
100
AcDbEntity
  8
0
100
AcDbLine
 10
154.9073257121915
 20
323.5066755637131
 30
0.0
 11
165.9453849350609
 21
312.4686163408437
 31
0.0
  0
LINE
  5
1040
330
2
100
AcDbEntity
  8
0
100
AcDbLine
 10
155.9177333522773
 20
364.4409647580555
 30
0.0
 11
155.9177333522773
 21
329.5170832037984
 31
0.0
  0
LINE
  5
1041
330
2
100
AcDbEntity
  8
0
100
AcDbLine
 10
157.3821994463448
 20
325.981549297866
 30
0.0
 11
168.4202586692133
 21
314.943490074997
 31
0.0
  0
ARC
  5
1042
330
2
100
AcDbEntity
  8
0
100
AcDbCircle
 10
160.9177333522772
 20
329.5170832037984
 30
0.0
 40
5.0
100
AcDbArc
 50
180.0
 51
224.9999999999911
  0
ARC
  5
1043
330
2
100
AcDbEntity
  8
0
100
AcDbCircle
 10
171.9557925751466
 20
318.4790239809295
 30
0.0
 40
8.5
100
AcDbArc
 50
224.9999999999911
 51
270.0
  0
ARC
  5
1044
330
2
100
AcDbEntity
  8
0
100
AcDbCircle
 10
171.9557925751466
 20
318.4790239809295
 30
0.0
 40
5.0
100
AcDbArc
 50
224.9999999999911
 51
270.0
  0
LINE
  5
1045
330
2
100
AcDbEntity
  8
0
100
AcDbLine
 10
168.7029834000429
 20
310.6260479545836
 30
0.0
 11
170.0423754133205
 21
313.8596263183731
 31
0.0
  0
LINE
  5
1046
330
2
100
AcDbEntity
  8
0
100
AcDbLine
 10
152.4177333522773
 20
364.4409647580555
 30
0.0
 11
152.4177333522773
 21
329.5170832037984
 31
0.0
  0
ARC
  5
1047
330
2
100
AcDbEntity
  8
0
100
AcDbCircle
 10
160.9177333522772
 20
329.5170832037984
 30
0.0
 40
8.5
100
AcDbArc
 50
180.0
 51
224.9999999999911
  0
ARC
  5
1048
330
2
100
AcDbEntity
  8
0
100
AcDbCircle
 10
153.8277333522744
 20
310.9790239809272
 30
0.0
 40
5.0
100
AcDbArc
 50
180.0
 51
270.0
  0
LINE
  5
1049
330
2
100
AcDbEntity
  8
CENTER
100
AcDbLine
 10
233.9030147265127
 20
391.464305355165
 30
0.0
 11
144.9324519780354
 21
302.4937426066877
 31
0.0
  0
LINE
  5
104A
330
2
100
AcDbEntity
  8
CENTER
100
AcDbLine
 10
154.9177333522745
 20
308.2947812367602
 30
0.0
 11
154.9177333522745
 21
321.2290239809267
 31
0.0
  0
LINE
  5
104B
330
2
100
AcDbEntity
  8
CENTER
100
AcDbLine
 10
154.9177333522745
 20
390.2290239809268
 30
0.0
 11
154.9177333522745
 21
372.7290239809267
 31
0.0
  0
LINE
  5
104C
330
2
100
AcDbEntity
  8
CENTER
100
AcDbLine
 10
154.9177333522745
 20
307.269728446046
 30
0.0
 11
154.9177333522745
 21
303.8730663036691
 31
0.0
  0
LINE
  5
104D
330
2
100
AcDbEntity
  8
CENTER
100
AcDbLine
 10
223.9177333522746
 20
307.269728446046
 30
0.0
 11
223.9177333522746
 21
303.8730663036691
 31
0.0
  0
LINE
  5
104E
330
2
100
AcDbEntity
  8
CENTER
100
AcDbLine
 10
223.9177333522746
 20
308.2947812367602
 30
0.0
 11
223.9177333522746
 21
321.2290239809267
 31
0.0
  0
LINE
  5
104F
330
2
100
AcDbEntity
  8
CENTER
100
AcDbLine
 10
144.9324519780363
 20
391.464305355165
 30
0.0
 11
233.9030147265127
 21
302.4937426066877
 31
0.0
  0
CIRCLE
  5
1050
330
2
100
AcDbEntity
  8
0
100
AcDbCircle
 10
223.9177333522746
 20
381.4790239809267
 30
0.0
 40
5.000000000000113
  0
LINE
  5
1051
330
2
100
AcDbEntity
  8
0
100
AcDbLine
 10
226.4177333522745
 20
380.0356483079527
 30
0.0
 11
226.4177333522745
 21
382.9223996539008
 31
0.0
  0
LINE
  5
1052
330
2
100
AcDbEntity
  8
0
100
AcDbLine
 10
221.4177333522745
 20
380.0356483079527
 30
0.0
 11
221.4177333522745
 21
382.9223996539008
 31
0.0
  0
CIRCLE
  5
1053
330
2
100
AcDbEntity
  8
0
100
AcDbCircle
 10
223.9177333522746
 20
381.4790239809267
 30
0.0
 40
4.307179676972509
  0
LINE
  5
1054
330
2
100
AcDbEntity
  8
0
100
AcDbLine
 10
221.4177333522745
 20
380.0356483079527
 30
0.0
 11
223.9177333522746
 21
378.5922726349786
 31
0.0
  0
LINE
  5
1055
330
2
100
AcDbEntity
  8
0
100
AcDbLine
 10
226.4177333522745
 20
380.0356483079527
 30
0.0
 11
223.9177333522746
 21
378.5922726349786
 31
0.0
  0
LINE
  5
1056
330
2
100
AcDbEntity
  8
0
100
AcDbLine
 10
223.9177333522746
 20
384.3657753268749
 30
0.0
 11
221.4177333522745
 21
382.9223996539008
 31
0.0
  0
LINE
  5
1057
330
2
100
AcDbEntity
  8
0
100
AcDbLine
 10
223.9177333522746
 20
384.3657753268749
 30
0.0
 11
226.4177333522745
 21
382.9223996539008
 31
0.0
  0
CIRCLE
  5
1058
330
2
100
AcDbEntity
  8
0
100
AcDbCircle
 10
223.9177333522746
 20
312.4790239809267
 30
0.0
 40
5.000000000000113
  0
LINE
  5
1059
330
2
100
AcDbEntity
  8
0
100
AcDbLine
 10
226.4177333522745
 20
311.0356483079527
 30
0.0
 11
226.4177333522745
 21
313.9223996539008
 31
0.0
  0
LINE
  5
105A
330
2
100
AcDbEntity
  8
0
100
AcDbLine
 10
221.4177333522745
 20
311.0356483079527
 30
0.0
 11
221.4177333522745
 21
313.9223996539008
 31
0.0
  0
CIRCLE
  5
105B
330
2
100
AcDbEntity
  8
0
100
AcDbCircle
 10
223.9177333522746
 20
312.4790239809267
 30
0.0
 40
4.307179676972509
  0
LINE
  5
105C
330
2
100
AcDbEntity
  8
0
100
AcDbLine
 10
221.4177333522745
 20
311.0356483079527
 30
0.0
 11
223.9177333522746
 21
309.5922726349786
 31
0.0
  0
LINE
  5
105D
330
2
100
AcDbEntity
  8
0
100
AcDbLine
 10
226.4177333522745
 20
311.0356483079527
 30
0.0
 11
223.9177333522746
 21
309.5922726349786
 31
0.0
  0
LINE
  5
105E
330
2
100
AcDbEntity
  8
0
100
AcDbLine
 10
223.9177333522746
 20
315.3657753268749
 30
0.0
 11
221.4177333522745
 21
313.9223996539008
 31
0.0
  0
LINE
  5
105F
330
2
100
AcDbEntity
  8
0
100
AcDbLine
 10
223.9177333522746
 20
315.3657753268749
 30
0.0
 11
226.4177333522745
 21
313.9223996539008
 31
0.0
  0
CIRCLE
  5
1060
330
2
100
AcDbEntity
  8
0
100
AcDbCircle
 10
154.9177333522745
 20
312.4790239809272
 30
0.0
 40
5.000000000000113
  0
LINE
  5
1061
330
2
100
AcDbEntity
  8
0
100
AcDbLine
 10
157.4177333522745
 20
311.0356483079531
 30
0.0
 11
157.4177333522745
 21
313.9223996539008
 31
0.0
  0
LINE
  5
1062
330
2
100
AcDbEntity
  8
0
100
AcDbLine
 10
152.4177333522754
 20
311.0356483079531
 30
0.0
 11
152.4177333522754
 21
313.9223996539013
 31
0.0
  0
CIRCLE
  5
1063
330
2
100
AcDbEntity
  8
0
100
AcDbCircle
 10
154.9177333522745
 20
312.4790239809272
 30
0.0
 40
4.307179676972509
  0
LINE
  5
1064
330
2
100
AcDbEntity
  8
0
100
AcDbLine
 10
152.4177333522754
 20
311.0356483079531
 30
0.0
 11
154.9177333522754
 21
309.5922726349791
 31
0.0
  0
LINE
  5
1065
330
2
100
AcDbEntity
  8
0
100
AcDbLine
 10
157.4177333522745
 20
311.0356483079531
 30
0.0
 11
154.9177333522754
 21
309.5922726349791
 31
0.0
  0
LINE
  5
1066
330
2
100
AcDbEntity
  8
0
100
AcDbLine
 10
154.9177333522745
 20
315.3657753268753
 30
0.0
 11
152.4177333522754
 21
313.9223996539013
 31
0.0
  0
LINE
  5
1067
330
2
100
AcDbEntity
  8
0
100
AcDbLine
 10
154.9177333522745
 20
315.3657753268753
 30
0.0
 11
157.4177333522745
 21
313.9223996539008
 31
0.0
  0
CIRCLE
  5
1068
330
2
100
AcDbEntity
  8
0
100
AcDbCircle
 10
154.9177333522745
 20
381.4790239809267
 30
0.0
 40
5.000000000000113
  0
LINE
  5
1069
330
2
100
AcDbEntity
  8
0
100
AcDbLine
 10
157.4177333522745
 20
380.0356483079527
 30
0.0
 11
157.4177333522745
 21
382.9223996539008
 31
0.0
  0
LINE
  5
106A
330
2
100
AcDbEntity
  8
0
100
AcDbLine
 10
152.4177333522745
 20
380.0356483079527
 30
0.0
 11
152.4177333522745
 21
382.9223996539008
 31
0.0
  0
CIRCLE
  5
106B
330
2
100
AcDbEntity
  8
0
100
AcDbCircle
 10
154.9177333522745
 20
381.4790239809267
 30
0.0
 40
4.307179676972509
  0
LINE
  5
106C
330
2
100
AcDbEntity
  8
0
100
AcDbLine
 10
152.4177333522745
 20
380.0356483079527
 30
0.0
 11
154.9177333522745
 21
378.5922726349786
 31
0.0
  0
LINE
  5
106D
330
2
100
AcDbEntity
  8
0
100
AcDbLine
 10
157.4177333522745
 20
380.0356483079527
 30
0.0
 11
154.9177333522745
 21
378.5922726349786
 31
0.0
  0
LINE
  5
106E
330
2
100
AcDbEntity
  8
0
100
AcDbLine
 10
154.9177333522745
 20
384.3657753268749
 30
0.0
 11
152.4177333522745
 21
382.9223996539008
 31
0.0
  0
LINE
  5
106F
330
2
100
AcDbEntity
  8
0
100
AcDbLine
 10
154.9177333522745
 20
384.3657753268749
 30
0.0
 11
157.4177333522745
 21
382.9223996539008
 31
0.0
  0
LINE
  5
1070
330
2
100
AcDbEntity
  8
0
100
AcDbLine
 10
394.1656259796952
 20
306.5637241228746
 30
0.0
 11
394.1656259796971
 21
387.3943238389388
 31
0.0
  0
LINE
  5
1071
330
2
100
AcDbEntity
  8
0
100
AcDbLine
 10
399.1656259796943
 20
311.9790239809131
 30
0.0
 11
399.1656259796943
 21
381.9790239809131
 31
0.0
  0
LINE
  5
1072
330
2
100
AcDbEntity
  8
0
100
AcDbLine
 10
401.0958269862892
 20
318.5924580819451
 30
0.0
 11
410.2354249730986
 21
318.9116198764891
 31
0.0
  0
ARC
  5
1073
330
2
100
AcDbEntity
  8
0
100
AcDbCircle
 10
401.1656259796943
 20
316.5936764279072
 30
0.0
 40
2.0
100
AcDbArc
 50
92.00000000000365
 51
180.0
  0
LINE
  5
1074
330
2
100
AcDbEntity
  8
0
100
AcDbLine
 10
412.1656259796925
 20
320.9104015305279
 30
0.0
 11
412.1656259796943
 21
373.0476464312983
 31
0.0
  0
ARC
  5
1075
330
2
100
AcDbEntity
  8
0
100
AcDbCircle
 10
410.1656259796944
 20
320.9104015305279
 30
0.0
 40
2.0
100
AcDbArc
 50
272.0000000000036
 51
0.0
  0
ARC
  5
1076
330
2
100
AcDbEntity
  8
0
100
AcDbCircle
 10
410.1656259796944
 20
373.0476464312983
 30
0.0
 40
2.0
100
AcDbArc
 50
0.0
 51
87.99999999999636
  0
LINE
  5
1077
330
2
100
AcDbEntity
  8
0
100
AcDbLine
 10
401.0958269862892
 20
375.365589879882
 30
0.0
 11
410.2354249730995
 21
375.0464280853371
 31
0.0
  0
ARC
  5
1078
330
2
100
AcDbEntity
  8
0
100
AcDbCircle
 10
401.1656259796943
 20
377.3643715339208
 30
0.0
 40
2.0
100
AcDbArc
 50
180.0
 51
267.9999999999963
  0
LINE
  5
1079
330
2
100
AcDbEntity
  8
0
100
AcDbLine
 10
310.1656259796925
 20
310.9184201598123
 30
0.0
 11
310.1656259796925
 21
320.4790239809072
 31
0.0
  0
LINE
  5
107A
330
2
100
AcDbEntity
  8
0
100
AcDbLine
 10
310.1656259796925
 20
373.4790239809086
 30
0.0
 11
310.1656259796925
 21
383.0396278019721
 31
0.0
  0
LINE
  5
107B
330
2
100
AcDbEntity
  8
0
100
AcDbLine
 10
315.1046549036079
 20
388.0392560409396
 30
0.0
 11
351.1656259796925
 21
388.4790239808922
 31
0.0
  0
LINE
  5
107C
330
2
100
AcDbEntity
  8
0
100
AcDbLine
 10
387.226597055778
 20
388.0392560409378
 30
0.0
 11
351.1656259796934
 21
388.4790239808922
 31
0.0
  0
LINE
  5
107D
330
2
100
AcDbEntity
  8
0
100
AcDbLine
 10
387.226597055778
 20
305.9187919208466
 30
0.0
 11
351.1656259796934
 21
305.4790239808931
 31
0.0
  0
ARC
  5
107E
330
2
100
AcDbEntity
  8
0
100
AcDbCircle
 10
315.1656259796925
 20
310.9184201598123
 30
0.0
 40
5.0
100
AcDbArc
 50
180.0
 51
269.3013056170002
  0
ARC
  5
107F
330
2
100
AcDbEntity
  8
0
100
AcDbCircle
 10
387.1656259796925
 20
310.9184201598141
 30
0.0
 40
5.0
100
AcDbArc
 50
270.6986943829997
 51
298.478561495585
  0
ARC
  5
1080
330
2
100
AcDbEntity
  8
0
100
AcDbCircle
 10
387.1656259796925
 20
383.0396278019703
 30
0.0
 40
5.0
100
AcDbArc
 50
61.52143850500972
 51
89.30130561700025
  0
ARC
  5
1081
330
2
100
AcDbEntity
  8
0
100
AcDbCircle
 10
315.1656259796925
 20
383.0396278019721
 30
0.0
 40
5.0
100
AcDbArc
 50
90.69869438299972
 51
180.0
  0
LINE
  5
1082
330
2
100
AcDbEntity
  8
0
100
AcDbLine
 10
315.1046549036079
 20
305.9187919208448
 30
0.0
 11
351.1656259796925
 21
305.4790239808931
 31
0.0
  0
LINE
  5
1083
330
2
100
AcDbEntity
  8
0
100
AcDbLine
 10
327.6656259796907
 20
387.9746605469668
 30
0.0
 11
394.1656259796971
 21
387.3943238389388
 31
0.0
  0
LINE
  5
1084
330
2
100
AcDbEntity
  8
0
100
AcDbLine
 10
327.6656259796907
 20
305.9833874147916
 30
0.0
 11
394.1656259796952
 21
306.5637241228746
 31
0.0
  0
LINE
  5
1085
330
2
100
AcDbEntity
  8
0
100
AcDbLine
 10
327.6656259796907
 20
305.9833874147916
 30
0.0
 11
327.6656259796907
 21
387.9746605469668
 31
0.0
  0
LINE
  5
1086
330
2
100
AcDbEntity
  8
0
100
AcDbLine
 10
394.1656259796943
 20
311.9790239809131
 30
0.0
 11
399.1656259796943
 21
311.9790239809131
 31
0.0
  0
LINE
  5
1087
330
2
100
AcDbEntity
  8
0
100
AcDbLine
 10
394.1656259796943
 20
381.9790239809131
 30
0.0
 11
399.1656259796943
 21
381.9790239809131
 31
0.0
  0
LINE
  5
1088
330
2
100
AcDbEntity
  8
CENTER
100
AcDbLine
 10
351.1656259796871
 20
398.4790239808927
 30
0.0
 11
351.1656259796871
 21
295.4790239808931
 31
0.0
  0
LINE
  5
1089
330
2
100
AcDbEntity
  8
CENTER
100
AcDbLine
 10
280.165625979693
 20
346.9790239809081
 30
0.0
 11
435.1656259796934
 21
346.9790239809081
 31
0.0
  0
LINE
  5
108A
330
2
100
AcDbEntity
  8
0
100
AcDbLine
 10
316.6656259796907
 20
376.4790239809268
 30
0.0
 11
316.6656259796907
 21
317.4790239808895
 31
0.0
  0
LINE
  5
108B
330
2
100
AcDbEntity
  8
0
100
AcDbLine
 10
309.1656259796962
 20
320.4790239809072
 30
0.0
 11
310.4656259796954
 21
320.4790239809072
 31
0.0
  0
LINE
  5
108C
330
2
100
AcDbEntity
  8
0
100
AcDbLine
 10
312.6656259796961
 20
320.6790239809079
 30
0.0
 11
312.865625979696
 21
320.4790239809077
 31
0.0
  0
LINE
  5
108D
330
2
100
AcDbEntity
  8
0
100
AcDbLine
 10
310.865625979696
 20
321.179023980907
 30
0.0
 11
312.4656259796954
 21
321.1790239809079
 31
0.0
  0
LINE
  5
108E
330
2
100
AcDbEntity
  8
0
100
AcDbLine
 10
309.1656259796962
 20
320.4790239809072
 30
0.0
 11
308.1656259796961
 21
321.0563742500967
 31
0.0
  0
LINE
  5
108F
330
2
100
AcDbEntity
  8
0
100
AcDbLine
 10
316.1656259796916
 20
318.4790239809136
 30
0.0
 11
316.6656259796961
 21
317.9790239809081
 31
0.0
  0
LINE
  5
1090
330
2
100
AcDbEntity
  8
0
100
AcDbLine
 10
312.865625979696
 20
320.4790239809077
 30
0.0
 11
316.1656259796961
 21
320.4790239809081
 31
0.0
  0
LINE
  5
1091
330
2
100
AcDbEntity
  8
0
100
AcDbLine
 10
308.1656259796907
 20
372.9016737117172
 30
0.0
 11
308.1656259796907
 21
321.0563742500994
 31
0.0
  0
LINE
  5
1092
330
2
100
AcDbEntity
  8
HIDS
  6
SEKKEI_H
100
AcDbLine
 10
319.5798395420658
 20
383.3932375432805
 30
0.0
 11
317.2514124173183
 21
381.0648104185357
 31
0.0
  0
LINE
  5
1093
330
2
100
AcDbEntity
  8
0
100
AcDbLine
 10
320.1656259796934
 20
306.9790239809081
 30
0.0
 11
320.1656259796934
 21
386.9790239809081
 31
0.0
  0
LINE
  5
1094
330
2
100
AcDbEntity
  8
0
100
AcDbLine
 10
327.6656259796916
 20
387.9790239809081
 30
0.0
 11
321.1656259796934
 21
387.9790239809081
 31
0.0
  0
LINE
  5
1095
330
2
100
AcDbEntity
  8
0
100
AcDbLine
 10
327.6656259796907
 20
387.979023980909
 30
0.0
 11
327.6656259796907
 21
305.9790239809081
 31
0.0
  0
LINE
  5
1096
330
2
100
AcDbEntity
  8
0
100
AcDbLine
 10
309.1656259796962
 20
373.479023980909
 30
0.0
 11
308.1656259796961
 21
372.901673711719
 31
0.0
  0
LINE
  5
1097
330
2
100
AcDbEntity
  8
0
100
AcDbLine
 10
312.6656259796961
 20
373.2790239809083
 30
0.0
 11
312.6656259796961
 21
320.6790239809079
 31
0.0
  0
LINE
  5
1098
330
2
100
AcDbEntity
  8
0
100
AcDbLine
 10
310.865625979696
 20
372.7790239809087
 30
0.0
 11
312.4656259796954
 21
372.7790239809083
 31
0.0
  0
LINE
  5
1099
330
2
100
AcDbEntity
  8
0
100
AcDbLine
 10
310.6656259796961
 20
373.2790239809092
 30
0.0
 11
310.6656259797753
 21
320.6790239809079
 31
0.0
  0
LINE
  5
109A
330
2
100
AcDbEntity
  8
0
100
AcDbLine
 10
312.6656259796961
 20
373.2790239809083
 30
0.0
 11
312.865625979696
 21
373.4790239809081
 31
0.0
  0
LINE
  5
109B
330
2
100
AcDbEntity
  8
0
100
AcDbLine
 10
309.1656259796962
 20
373.479023980909
 30
0.0
 11
310.4656259796954
 21
373.4790239809086
 31
0.0
  0
LINE
  5
109C
330
2
100
AcDbEntity
  8
0
100
AcDbLine
 10
316.1656259796916
 20
318.4790239809136
 30
0.0
 11
316.1656259796907
 21
375.4790239809027
 31
0.0
  0
LINE
  5
109D
330
2
100
AcDbEntity
  8
0
100
AcDbLine
 10
316.1656259796961
 20
375.4790239809081
 30
0.0
 11
316.1656259796961
 21
373.4790239809081
 31
0.0
  0
LINE
  5
109E
330
2
100
AcDbEntity
  8
0
100
AcDbLine
 10
316.1656259796961
 20
375.4790239809081
 30
0.0
 11
316.6656259796961
 21
375.9790239809081
 31
0.0
  0
LINE
  5
109F
330
2
100
AcDbEntity
  8
0
100
AcDbLine
 10
312.865625979696
 20
373.4790239809081
 30
0.0
 11
316.1656259796961
 21
373.4790239809081
 31
0.0
  0
ARC
  5
10A0
330
2
100
AcDbEntity
  8
0
100
AcDbCircle
 10
321.1656259796934
 20
386.9790239809081
 30
0.0
 40
1.0
100
AcDbArc
 50
90.0
 51
179.9999999999869
  0
ARC
  5
10A1
330
2
100
AcDbEntity
  8
HIDS
  6
SEKKEI_H
100
AcDbCircle
 10
318.1656259796934
 20
384.8074511056543
 30
0.0
 40
2.0
100
AcDbArc
 50
314.9999999999444
 51
359.9999999999869
  0
ARC
  5
10A2
330
2
100
AcDbEntity
  8
HIDS
  6
SEKKEI_H
100
AcDbCircle
 10
318.6656259796907
 20
379.6505968561614
 30
0.0
 40
2.0
100
AcDbArc
 50
134.9999999999444
 51
180.0
  0
LINE
  5
10A3
330
2
100
AcDbEntity
  8
HIDS
  6
SEKKEI_H
100
AcDbLine
 10
319.5798395420658
 20
310.5648104185357
 30
0.0
 11
317.2514124173192
 21
312.8932375432806
 31
0.0
  0
LINE
  5
10A4
330
2
100
AcDbEntity
  8
0
100
AcDbLine
 10
327.6656259796907
 20
305.9790239809081
 30
0.0
 11
321.1656259796943
 21
305.9790239809081
 31
0.0
  0
ARC
  5
10A5
330
2
100
AcDbEntity
  8
0
100
AcDbCircle
 10
321.1656259796943
 20
306.9790239809081
 30
0.0
 40
1.0
100
AcDbArc
 50
180.0
 51
270.0
  0
ARC
  5
10A6
330
2
100
AcDbEntity
  8
HIDS
  6
SEKKEI_H
100
AcDbCircle
 10
318.1656259796934
 20
309.1505968561619
 30
0.0
 40
2.0
100
AcDbArc
 50
0.0
 51
45.00000000005555
  0
ARC
  5
10A7
330
2
100
AcDbEntity
  8
HIDS
  6
SEKKEI_H
100
AcDbCircle
 10
318.6656259796907
 20
314.3074511056548
 30
0.0
 40
2.0
100
AcDbArc
 50
180.0
 51
225.0000000000555
  0
ARC
  5
10A8
330
2
100
AcDbEntity
  8
0
100
AcDbCircle
 10
310.4656259796954
 20
373.2790239809083
 30
0.0
 40
0.2
100
AcDbArc
 50
0.0000000001302755
 51
90.0
  0
ARC
  5
10A9
330
2
100
AcDbEntity
  8
0
100
AcDbCircle
 10
310.865625979696
 20
372.979023980909
 30
0.0
 40
0.2
100
AcDbArc
 50
180.0000000001302
 51
270.0
  0
ARC
  5
10AA
330
2
100
AcDbEntity
  8
0
100
AcDbCircle
 10
312.4656259796954
 20
372.9790239809081
 30
0.0
 40
0.2
100
AcDbArc
 50
270.0
 51
0.0
  0
ARC
  5
10AB
330
2
100
AcDbEntity
  8
0
100
AcDbCircle
 10
310.4656259796954
 20
320.679023980907
 30
0.0
 40
0.2
100
AcDbArc
 50
270.0
 51
0.0000000001042204
  0
ARC
  5
10AC
330
2
100
AcDbEntity
  8
0
100
AcDbCircle
 10
310.8656259796969
 20
320.9790239809072
 30
0.0
 40
0.2
100
AcDbArc
 50
90.0
 51
179.9999999998697
  0
ARC
  5
10AD
330
2
100
AcDbEntity
  8
0
100
AcDbCircle
 10
312.4656259796954
 20
320.9790239809072
 30
0.0
 40
0.2
100
AcDbArc
 50
0.0
 51
90.0
  0
LINE
  5
10AE
330
2
100
AcDbEntity
  8
0
100
AcDbLine
 10
309.1656259796962
 20
373.479023980909
 30
0.0
 11
309.1656259796962
 21
320.4790239809072
 31
0.0
  0
LINE
  5
10AF
330
2
100
AcDbEntity
  8
0
100
AcDbLine
 10
312.865625979696
 20
320.4790239809077
 30
0.0
 11
312.865625979696
 21
373.4790239809081
 31
0.0
  0
LINE
  5
10B0
330
2
100
AcDbEntity
  8
0
100
AcDbLine
 10
394.1656259796971
 20
382.9790239809281
 30
0.0
 11
327.6656259796907
 21
382.9790239809281
 31
0.0
  0
LINE
  5
10B1
330
2
100
AcDbEntity
  8
0
100
AcDbLine
 10
394.1656259796971
 20
379.9790239809281
 30
0.0
 11
327.6656259796907
 21
379.9790239809281
 31
0.0
  0
LINE
  5
10B2
330
2
100
AcDbEntity
  8
0
100
AcDbLine
 10
394.1656259796961
 20
365.2710591467922
 30
0.0
 11
327.6656259796907
 21
365.2710591467922
 31
0.0
  0
LINE
  5
10B3
330
2
100
AcDbEntity
  8
0
100
AcDbLine
 10
327.6656259796907
 20
382.9790239809281
 30
0.0
 11
320.1656259796934
 21
382.9790239809281
 31
0.0
  0
LINE
  5
10B4
330
2
100
AcDbEntity
  8
0
100
AcDbLine
 10
327.6656259796907
 20
379.9790239809281
 30
0.0
 11
320.1656259796934
 21
379.9790239809281
 31
0.0
  0
LINE
  5
10B5
330
2
100
AcDbEntity
  8
0
100
AcDbLine
 10
327.6656259796907
 20
365.2710591467922
 30
0.0
 11
320.1656259796934
 21
365.2710591467922
 31
0.0
  0
LINE
  5
10B6
330
2
100
AcDbEntity
  8
0
100
AcDbLine
 10
394.1656259796971
 20
310.9790239808881
 30
0.0
 11
327.6656259796907
 21
310.9790239808881
 31
0.0
  0
LINE
  5
10B7
330
2
100
AcDbEntity
  8
0
100
AcDbLine
 10
394.1656259796971
 20
313.9790239808881
 30
0.0
 11
327.6656259796907
 21
313.9790239808881
 31
0.0
  0
LINE
  5
10B8
330
2
100
AcDbEntity
  8
0
100
AcDbLine
 10
394.1656259796961
 20
328.6869888150241
 30
0.0
 11
327.6656259796907
 21
328.6869888150241
 31
0.0
  0
LINE
  5
10B9
330
2
100
AcDbEntity
  8
0
100
AcDbLine
 10
327.6656259796907
 20
310.9790239808881
 30
0.0
 11
320.1656259796934
 21
310.9790239808881
 31
0.0
  0
LINE
  5
10BA
330
2
100
AcDbEntity
  8
0
100
AcDbLine
 10
327.6656259796907
 20
313.9790239808881
 30
0.0
 11
320.1656259796934
 21
313.9790239808881
 31
0.0
  0
LINE
  5
10BB
330
2
100
AcDbEntity
  8
0
100
AcDbLine
 10
327.6656259796907
 20
328.6869888150241
 30
0.0
 11
320.1656259796934
 21
328.6869888150241
 31
0.0
  0
LINE
  5
10BC
330
2
100
AcDbEntity
  8
CENTER
  6
CENS
100
AcDbLine
 10
307.6656259796934
 20
381.4790239809267
 30
0.0
 11
332.7283727238398
 21
381.4790239809267
 31
0.0
  0
LINE
  5
10BD
330
2
100
AcDbEntity
  8
0
100
AcDbLine
 10
318.6656259796943
 20
376.4790239809268
 30
0.0
 11
313.065625979694
 21
376.4790239809268
 31
0.0
  0
LINE
  5
10BE
330
2
100
AcDbEntity
  8
0
100
AcDbLine
 10
318.6656259796943
 20
386.4790239809268
 30
0.0
 11
313.065625979694
 21
386.4790239809268
 31
0.0
  0
LINE
  5
10BF
330
2
100
AcDbEntity
  8
0
100
AcDbLine
 10
318.6656259796943
 20
386.4790239809268
 30
0.0
 11
318.6656259796943
 21
376.4790239809272
 31
0.0
  0
LINE
  5
10C0
330
2
100
AcDbEntity
  8
0
100
AcDbLine
 10
312.6656259796943
 20
385.786203657899
 30
0.0
 11
312.6656259796934
 21
377.1718443039545
 31
0.0
  0
LINE
  5
10C1
330
2
100
AcDbEntity
  8
0
100
AcDbLine
 10
313.065625979694
 20
386.4790239809268
 30
0.0
 11
313.065625979694
 21
376.4790239809268
 31
0.0
  0
LINE
  5
10C2
330
2
100
AcDbEntity
  8
0
100
AcDbLine
 10
313.065625979694
 20
386.4790239809268
 30
0.0
 11
312.6656259796943
 21
385.786203657899
 31
0.0
  0
LINE
  5
10C3
330
2
100
AcDbEntity
  8
0
100
AcDbLine
 10
313.065625979694
 20
376.4790239809268
 30
0.0
 11
312.6656259796943
 21
377.1718443039545
 31
0.0
  0
LINE
  5
10C4
330
2
100
AcDbEntity
  8
0
100
AcDbLine
 10
318.6656259796934
 20
386.4790239809268
 30
0.0
 11
320.1656259796934
 21
386.4790239809268
 31
0.0
  0
LINE
  5
10C5
330
2
100
AcDbEntity
  8
0
100
AcDbLine
 10
318.6656259796934
 20
376.4790239809268
 30
0.0
 11
320.1656259796934
 21
376.4790239809268
 31
0.0
  0
LINE
  5
10C6
330
2
100
AcDbEntity
  8
HIDS
  6
SEKKEI_H
100
AcDbLine
 10
316.6656259796907
 20
376.4790239809268
 30
0.0
 11
316.6656259796907
 21
379.6505968561614
 31
0.0
  0
LINE
  5
10C7
330
2
100
AcDbEntity
  8
CENTER
  6
CENS
100
AcDbLine
 10
307.6656259796934
 20
312.4790239808895
 30
0.0
 11
332.7283727238398
 21
312.4790239808895
 31
0.0
  0
LINE
  5
10C8
330
2
100
AcDbEntity
  8
0
100
AcDbLine
 10
318.6656259796943
 20
317.4790239808895
 30
0.0
 11
313.065625979694
 21
317.4790239808895
 31
0.0
  0
LINE
  5
10C9
330
2
100
AcDbEntity
  8
0
100
AcDbLine
 10
318.6656259796943
 20
307.4790239808895
 30
0.0
 11
313.065625979694
 21
307.4790239808895
 31
0.0
  0
LINE
  5
10CA
330
2
100
AcDbEntity
  8
0
100
AcDbLine
 10
318.6656259796943
 20
307.4790239808895
 30
0.0
 11
318.6656259796943
 21
317.479023980889
 31
0.0
  0
LINE
  5
10CB
330
2
100
AcDbEntity
  8
0
100
AcDbLine
 10
312.6656259796943
 20
308.1718443039172
 30
0.0
 11
312.6656259796934
 21
316.7862036578617
 31
0.0
  0
LINE
  5
10CC
330
2
100
AcDbEntity
  8
0
100
AcDbLine
 10
313.065625979694
 20
307.4790239808895
 30
0.0
 11
313.065625979694
 21
317.4790239808895
 31
0.0
  0
LINE
  5
10CD
330
2
100
AcDbEntity
  8
0
100
AcDbLine
 10
313.065625979694
 20
307.4790239808895
 30
0.0
 11
312.6656259796943
 21
308.1718443039172
 31
0.0
  0
LINE
  5
10CE
330
2
100
AcDbEntity
  8
0
100
AcDbLine
 10
313.065625979694
 20
317.4790239808895
 30
0.0
 11
312.6656259796943
 21
316.7862036578617
 31
0.0
  0
LINE
  5
10CF
330
2
100
AcDbEntity
  8
0
100
AcDbLine
 10
318.6656259796934
 20
307.4790239808895
 30
0.0
 11
320.1656259796934
 21
307.4790239808895
 31
0.0
  0
LINE
  5
10D0
330
2
100
AcDbEntity
  8
0
100
AcDbLine
 10
318.6656259796934
 20
317.4790239808895
 30
0.0
 11
320.1656259796934
 21
317.4790239808895
 31
0.0
  0
LINE
  5
10D1
330
2
100
AcDbEntity
  8
HIDS
  6
SEKKEI_H
100
AcDbLine
 10
316.6656259796907
 20
317.4790239808895
 30
0.0
 11
316.6656259796907
 21
314.3074511056548
 31
0.0
  0
LINE
  5
10D2
330
2
100
AcDbEntity
  8
0
100
AcDbLine
 10
602.6386988414012
 20
656.3762915043907
 30
0.0
 11
543.6386988413649
 21
656.3762915043907
 31
0.0
  0
LINE
  5
10D3
330
2
100
AcDbEntity
  8
0
100
AcDbLine
 10
546.6386988413821
 20
663.8762915043862
 30
0.0
 11
546.638698841383
 21
662.5762915043861
 31
0.0
  0
LINE
  5
10D4
330
2
100
AcDbEntity
  8
0
100
AcDbLine
 10
546.8386988413819
 20
660.3762915043862
 30
0.0
 11
546.638698841383
 21
660.1762915043855
 31
0.0
  0
LINE
  5
10D5
330
2
100
AcDbEntity
  8
0
100
AcDbLine
 10
547.3386988413819
 20
662.1762915043855
 30
0.0
 11
547.3386988413819
 21
660.576291504386
 31
0.0
  0
LINE
  5
10D6
330
2
100
AcDbEntity
  8
0
100
AcDbLine
 10
546.6386988413821
 20
663.8762915043853
 30
0.0
 11
547.2160491105712
 21
664.8762915043862
 31
0.0
  0
LINE
  5
10D7
330
2
100
AcDbEntity
  8
0
100
AcDbLine
 10
544.6386988413885
 20
656.8762915043898
 30
0.0
 11
544.1386988413831
 21
656.3762915043853
 31
0.0
  0
LINE
  5
10D8
330
2
100
AcDbEntity
  8
0
100
AcDbLine
 10
546.638698841383
 20
660.1762915043855
 30
0.0
 11
546.638698841383
 21
656.8762915043853
 31
0.0
  0
LINE
  5
10D9
330
2
100
AcDbEntity
  8
0
100
AcDbLine
 10
599.0613485721913
 20
664.8762915043907
 30
0.0
 11
547.2160491105748
 21
664.8762915043907
 31
0.0
  0
LINE
  5
10DA
330
2
100
AcDbEntity
  8
HIDS
  6
SEKKEI_H
100
AcDbLine
 10
609.5529124037555
 20
653.4620779420156
 30
0.0
 11
607.2244852790097
 21
655.7905050667632
 31
0.0
  0
LINE
  5
10DB
330
2
100
AcDbEntity
  8
0
100
AcDbLine
 10
533.1954615604097
 20
652.8762915043881
 30
0.0
 11
612.6719361223583
 21
652.8762915043885
 31
0.0
  0
ARC
  5
10DC
330
2
100
AcDbEntity
  8
0
100
AcDbCircle
 10
533.1954615604097
 20
651.876291504388
 30
0.0
 40
1.0
100
AcDbArc
 50
90.0
 51
179.4999999999954
  0
LINE
  5
10DD
330
2
100
AcDbEntity
  8
0
100
AcDbLine
 10
599.638698841383
 20
663.8762915043853
 30
0.0
 11
599.0613485721949
 21
664.8762915043862
 31
0.0
  0
LINE
  5
10DE
330
2
100
AcDbEntity
  8
0
100
AcDbLine
 10
599.4386988413841
 20
660.3762915043862
 30
0.0
 11
546.8386988413819
 21
660.3762915043862
 31
0.0
  0
LINE
  5
10DF
330
2
100
AcDbEntity
  8
0
100
AcDbLine
 10
598.9386988413841
 20
662.1762915043855
 30
0.0
 11
598.9386988413841
 21
660.576291504386
 31
0.0
  0
LINE
  5
10E0
330
2
100
AcDbEntity
  8
0
100
AcDbLine
 10
599.4386988413841
 20
662.3762915043862
 30
0.0
 11
546.8386988413819
 21
662.3762915043061
 31
0.0
  0
LINE
  5
10E1
330
2
100
AcDbEntity
  8
0
100
AcDbLine
 10
599.4386988413841
 20
660.3762915043862
 30
0.0
 11
599.638698841383
 21
660.1762915043855
 31
0.0
  0
LINE
  5
10E2
330
2
100
AcDbEntity
  8
0
100
AcDbLine
 10
599.638698841383
 20
663.8762915043862
 30
0.0
 11
599.638698841383
 21
662.5762915043861
 31
0.0
  0
LINE
  5
10E3
330
2
100
AcDbEntity
  8
0
100
AcDbLine
 10
544.6386988413885
 20
656.8762915043898
 30
0.0
 11
601.6386988413776
 21
656.8762915043907
 31
0.0
  0
LINE
  5
10E4
330
2
100
AcDbEntity
  8
0
100
AcDbLine
 10
601.638698841383
 20
656.8762915043853
 30
0.0
 11
599.638698841383
 21
656.8762915043853
 31
0.0
  0
LINE
  5
10E5
330
2
100
AcDbEntity
  8
0
100
AcDbLine
 10
601.638698841383
 20
656.8762915043853
 30
0.0
 11
602.138698841383
 21
656.3762915043853
 31
0.0
  0
LINE
  5
10E6
330
2
100
AcDbEntity
  8
0
100
AcDbLine
 10
599.638698841383
 20
660.1762915043855
 30
0.0
 11
599.638698841383
 21
656.8762915043853
 31
0.0
  0
ARC
  5
10E7
330
2
100
AcDbEntity
  8
HIDS
  6
SEKKEI_H
100
AcDbCircle
 10
610.9671259661297
 20
654.876291504388
 30
0.0
 40
2.0
100
AcDbArc
 50
224.9999999999911
 51
270.0
  0
ARC
  5
10E8
330
2
100
AcDbEntity
  8
HIDS
  6
SEKKEI_H
100
AcDbCircle
 10
605.8102717166364
 20
654.3762915043908
 30
0.0
 40
2.0
100
AcDbArc
 50
44.99999999999107
 51
90.0
  0
LINE
  5
10E9
330
2
100
AcDbEntity
  8
HIDS
  6
SEKKEI_H
100
AcDbLine
 10
536.7244852790097
 20
653.4620779420156
 30
0.0
 11
539.0529124037564
 21
655.7905050667632
 31
0.0
  0
LINE
  5
10EA
330
2
100
AcDbEntity
  8
0
100
AcDbLine
 10
532.1386988413831
 20
645.3762915043908
 30
0.0
 11
532.1954996373449
 21
651.8850180398867
 31
0.0
  0
ARC
  5
10EB
330
2
100
AcDbEntity
  8
HIDS
  6
SEKKEI_H
100
AcDbCircle
 10
535.3102717166364
 20
654.876291504388
 30
0.0
 40
2.0
100
AcDbArc
 50
270.0
 51
315.0000000000089
  0
ARC
  5
10EC
330
2
100
AcDbEntity
  8
HIDS
  6
SEKKEI_H
100
AcDbCircle
 10
540.4671259661297
 20
654.3762915043908
 30
0.0
 40
2.0
100
AcDbArc
 50
90.0
 51
135.0000000000089
  0
ARC
  5
10ED
330
2
100
AcDbEntity
  8
0
100
AcDbCircle
 10
599.4386988413841
 20
662.5762915043861
 30
0.0
 40
0.2
100
AcDbArc
 50
270.0000000001042
 51
359.9999999999739
  0
ARC
  5
10EE
330
2
100
AcDbEntity
  8
0
100
AcDbCircle
 10
599.1386988413831
 20
662.1762915043855
 30
0.0
 40
0.2
100
AcDbArc
 50
90.00000000010421
 51
179.9999999999739
  0
ARC
  5
10EF
330
2
100
AcDbEntity
  8
0
100
AcDbCircle
 10
599.1386988413831
 20
660.576291504386
 30
0.0
 40
0.2
100
AcDbArc
 50
179.9999999999739
 51
270.0
  0
ARC
  5
10F0
330
2
100
AcDbEntity
  8
0
100
AcDbCircle
 10
546.8386988413819
 20
662.5762915043861
 30
0.0
 40
0.2
100
AcDbArc
 50
180.0
 51
270.0000000001042
  0
ARC
  5
10F1
330
2
100
AcDbEntity
  8
0
100
AcDbCircle
 10
547.138698841383
 20
662.1762915043855
 30
0.0
 40
0.2
100
AcDbArc
 50
0.0
 51
89.99999999984366
  0
ARC
  5
10F2
330
2
100
AcDbEntity
  8
0
100
AcDbCircle
 10
547.138698841383
 20
660.576291504386
 30
0.0
 40
0.2
100
AcDbArc
 50
270.0
 51
0.0
  0
LINE
  5
10F3
330
2
100
AcDbEntity
  8
0
100
AcDbLine
 10
599.638698841383
 20
663.8762915043862
 30
0.0
 11
546.6386988413821
 21
663.8762915043853
 31
0.0
  0
LINE
  5
10F4
330
2
100
AcDbEntity
  8
0
100
AcDbLine
 10
546.638698841383
 20
660.1762915043855
 30
0.0
 11
599.638698841383
 21
660.1762915043855
 31
0.0
  0
LINE
  5
10F5
330
2
100
AcDbEntity
  8
0
100
AcDbLine
 10
609.138698841403
 20
645.3762915043908
 30
0.0
 11
609.138698841403
 21
652.8762915043881
 31
0.0
  0
LINE
  5
10F6
330
2
100
AcDbEntity
  8
0
100
AcDbLine
 10
606.1386988414031
 20
645.3762915043908
 30
0.0
 11
606.1386988414031
 21
652.8762915043881
 31
0.0
  0
LINE
  5
10F7
330
2
100
AcDbEntity
  8
0
100
AcDbLine
 10
591.430734007268
 20
645.3762915043908
 30
0.0
 11
591.430734007268
 21
652.8762915043881
 31
0.0
  0
LINE
  5
10F8
330
2
100
AcDbEntity
  8
0
100
AcDbLine
 10
537.1386988413631
 20
645.3762915043908
 30
0.0
 11
537.1386988413631
 21
652.8762915043881
 31
0.0
  0
LINE
  5
10F9
330
2
100
AcDbEntity
  8
0
100
AcDbLine
 10
540.138698841363
 20
645.3762915043908
 30
0.0
 11
540.138698841363
 21
652.8762915043881
 31
0.0
  0
LINE
  5
10FA
330
2
100
AcDbEntity
  8
0
100
AcDbLine
 10
554.8466636754981
 20
645.3762915043908
 30
0.0
 11
554.8466636754981
 21
652.8762915043881
 31
0.0
  0
LINE
  5
10FB
330
2
100
AcDbEntity
  8
CENTER
  6
CENS
100
AcDbLine
 10
607.6386988414013
 20
665.3762915043881
 30
0.0
 11
607.6386988414013
 21
640.3135447602417
 31
0.0
  0
LINE
  5
10FC
330
2
100
AcDbEntity
  8
0
100
AcDbLine
 10
602.6386988414012
 20
654.376291504388
 30
0.0
 11
602.6386988414012
 21
659.9762915043875
 31
0.0
  0
LINE
  5
10FD
330
2
100
AcDbEntity
  8
0
100
AcDbLine
 10
612.6386988414012
 20
654.376291504388
 30
0.0
 11
612.6386988414012
 21
659.9762915043875
 31
0.0
  0
LINE
  5
10FE
330
2
100
AcDbEntity
  8
0
100
AcDbLine
 10
612.6386988414012
 20
654.376291504388
 30
0.0
 11
602.6386988414012
 21
654.376291504388
 31
0.0
  0
LINE
  5
10FF
330
2
100
AcDbEntity
  8
0
100
AcDbLine
 10
611.945878518374
 20
660.376291504388
 30
0.0
 11
603.3315191644294
 21
660.376291504388
 31
0.0
  0
LINE
  5
1100
330
2
100
AcDbEntity
  8
0
100
AcDbLine
 10
612.6386988414012
 20
659.9762915043884
 30
0.0
 11
602.6386988414012
 21
659.9762915043875
 31
0.0
  0
LINE
  5
1101
330
2
100
AcDbEntity
  8
0
100
AcDbLine
 10
612.6386988414012
 20
659.9762915043875
 30
0.0
 11
611.945878518374
 21
660.376291504388
 31
0.0
  0
LINE
  5
1102
330
2
100
AcDbEntity
  8
0
100
AcDbLine
 10
602.6386988414012
 20
659.9762915043875
 30
0.0
 11
603.3315191644294
 21
660.376291504388
 31
0.0
  0
LINE
  5
1103
330
2
100
AcDbEntity
  8
0
100
AcDbLine
 10
612.6386988414012
 20
654.376291504388
 30
0.0
 11
612.6386988414012
 21
652.8762915043881
 31
0.0
  0
LINE
  5
1104
330
2
100
AcDbEntity
  8
0
100
AcDbLine
 10
602.6386988414012
 20
654.376291504388
 30
0.0
 11
602.6386988414012
 21
652.8762915043881
 31
0.0
  0
LINE
  5
1105
330
2
100
AcDbEntity
  8
HIDS
  6
SEKKEI_H
100
AcDbLine
 10
602.6386988414012
 20
656.3762915043907
 30
0.0
 11
605.8102717166364
 21
656.3762915043907
 31
0.0
  0
LINE
  5
1106
330
2
100
AcDbEntity
  8
CENTER
  6
CENS
100
AcDbLine
 10
538.6386988413648
 20
665.3762915043881
 30
0.0
 11
538.6386988413648
 21
640.3135447602417
 31
0.0
  0
LINE
  5
1107
330
2
100
AcDbEntity
  8
0
100
AcDbLine
 10
543.6386988413649
 20
654.376291504388
 30
0.0
 11
543.6386988413649
 21
659.9762915043875
 31
0.0
  0
LINE
  5
1108
330
2
100
AcDbEntity
  8
0
100
AcDbLine
 10
533.6386988413648
 20
654.376291504388
 30
0.0
 11
533.6386988413648
 21
659.9762915043875
 31
0.0
  0
LINE
  5
1109
330
2
100
AcDbEntity
  8
0
100
AcDbLine
 10
533.6386988413648
 20
654.376291504388
 30
0.0
 11
543.6386988413649
 21
654.376291504388
 31
0.0
  0
LINE
  5
110A
330
2
100
AcDbEntity
  8
0
100
AcDbLine
 10
534.3315191643921
 20
660.376291504388
 30
0.0
 11
542.9458785183367
 21
660.376291504388
 31
0.0
  0
LINE
  5
110B
330
2
100
AcDbEntity
  8
0
100
AcDbLine
 10
533.6386988413648
 20
659.9762915043884
 30
0.0
 11
543.6386988413649
 21
659.9762915043875
 31
0.0
  0
LINE
  5
110C
330
2
100
AcDbEntity
  8
0
100
AcDbLine
 10
533.6386988413648
 20
659.9762915043875
 30
0.0
 11
534.3315191643921
 21
660.376291504388
 31
0.0
  0
LINE
  5
110D
330
2
100
AcDbEntity
  8
0
100
AcDbLine
 10
543.6386988413649
 20
659.9762915043875
 30
0.0
 11
542.9458785183367
 21
660.376291504388
 31
0.0
  0
LINE
  5
110E
330
2
100
AcDbEntity
  8
0
100
AcDbLine
 10
533.6386988413648
 20
654.376291504388
 30
0.0
 11
533.6386988413648
 21
652.8762915043881
 31
0.0
  0
LINE
  5
110F
330
2
100
AcDbEntity
  8
0
100
AcDbLine
 10
543.6386988413649
 20
654.376291504388
 30
0.0
 11
543.6386988413649
 21
652.8762915043881
 31
0.0
  0
LINE
  5
1110
330
2
100
AcDbEntity
  8
HIDS
  6
SEKKEI_H
100
AcDbLine
 10
543.6386988413649
 20
656.3762915043907
 30
0.0
 11
540.4671259661297
 21
656.3762915043907
 31
0.0
  0
LINE
  5
1111
330
2
100
AcDbEntity
  8
0
100
AcDbLine
 10
613.6718980454222
 20
651.8850180398867
 30
0.0
 11
613.7286988413832
 21
645.3762915043917
 31
0.0
  0
ARC
  5
1112
330
2
100
AcDbEntity
  8
0
100
AcDbCircle
 10
612.6719361223583
 20
651.8762915043885
 30
0.0
 40
1.0
100
AcDbArc
 50
0.4999999999915503
 51
90.0
  0
LINE
  5
1113
330
2
100
AcDbEntity
  8
0
100
AcDbLine
 10
439.2509309729692
 20
76.51343395879303
 30
0.0
 11
439.2509309729692
 21
103.1550656575122
 31
0.0
  0
LINE
  5
1114
330
2
100
AcDbEntity
  8
0
100
AcDbLine
 10
439.2509309729709
 20
130.7024019761406
 30
0.0
 11
439.2509309729709
 21
157.3440336748572
 31
0.0
  0
LINE
  5
1115
330
2
100
AcDbEntity
  8
0
100
AcDbLine
 10
444.2509309729691
 20
81.92873381683147
 30
0.0
 11
444.2509309729691
 21
104.0040331046848
 31
0.0
  0
LINE
  5
1116
330
2
100
AcDbEntity
  8
0
100
AcDbLine
 10
444.2509309729691
 20
129.8534345289681
 30
0.0
 11
444.2509309729691
 21
151.9287338168314
 31
0.0
  0
LINE
  5
1117
330
2
100
AcDbEntity
  8
0
100
AcDbLine
 10
446.181131979564
 20
88.54216791786347
 30
0.0
 11
455.3207299663724
 21
88.86132971240749
 31
0.0
  0
ARC
  5
1118
330
2
100
AcDbEntity
  8
0
100
AcDbCircle
 10
446.2509309729691
 20
86.54338626382559
 30
0.0
 40
2.0
100
AcDbArc
 50
92.00000000000365
 51
180.0
  0
LINE
  5
1119
330
2
100
AcDbEntity
  8
0
100
AcDbLine
 10
457.2509309729674
 20
90.86011136644629
 30
0.0
 11
457.2509309729674
 21
102.4286878168263
 31
0.0
  0
LINE
  5
111A
330
2
100
AcDbEntity
  8
0
100
AcDbLine
 10
457.2509309729691
 20
131.4286878168268
 30
0.0
 11
457.2509309729691
 21
142.9973562672166
 31
0.0
  0
ARC
  5
111B
330
2
100
AcDbEntity
  8
0
100
AcDbCircle
 10
455.2509309729692
 20
90.86011136644629
 30
0.0
 40
2.0
100
AcDbArc
 50
272.0000000000036
 51
0.0
  0
ARC
  5
111C
330
2
100
AcDbEntity
  8
0
100
AcDbCircle
 10
455.2509309729692
 20
142.9973562672166
 30
0.0
 40
2.0
100
AcDbArc
 50
0.0
 51
87.99999999999636
  0
LINE
  5
111D
330
2
100
AcDbEntity
  8
0
100
AcDbLine
 10
446.181131979564
 20
145.3152997158003
 30
0.0
 11
455.3207299663743
 21
144.9961379212554
 31
0.0
  0
ARC
  5
111E
330
2
100
AcDbEntity
  8
0
100
AcDbCircle
 10
446.2509309729691
 20
147.3140813698391
 30
0.0
 40
2.0
100
AcDbArc
 50
180.0
 51
267.9999999999963
  0
LINE
  5
111F
330
2
100
AcDbEntity
  8
0
100
AcDbLine
 10
372.7509309729655
 20
157.9243703828851
 30
0.0
 11
439.2509309729709
 21
157.3440336748572
 31
0.0
  0
LINE
  5
1120
330
2
100
AcDbEntity
  8
0
100
AcDbLine
 10
372.7509309729655
 20
75.93309725071003
 30
0.0
 11
439.2509309729692
 21
76.51343395879303
 31
0.0
  0
LINE
  5
1121
330
2
100
AcDbEntity
  8
0
100
AcDbLine
 10
372.7509309729655
 20
75.93309725071003
 30
0.0
 11
372.7509309729655
 21
103.8055777727986
 31
0.0
  0
LINE
  5
1122
330
2
100
AcDbEntity
  8
0
100
AcDbLine
 10
372.7509309729655
 20
131.4257802458337
 30
0.0
 11
372.7509309729655
 21
157.9243703828851
 31
0.0
  0
LINE
  5
1123
330
2
100
AcDbEntity
  8
0
100
AcDbLine
 10
439.2509309729692
 20
81.92873381683147
 30
0.0
 11
444.2509309729691
 21
81.92873381683147
 31
0.0
  0
LINE
  5
1124
330
2
100
AcDbEntity
  8
0
100
AcDbLine
 10
439.2509309729692
 20
151.9287338168314
 30
0.0
 11
444.2509309729691
 21
151.9287338168314
 31
0.0
  0
LINE
  5
1125
330
2
100
AcDbEntity
  8
CENTER
100
AcDbLine
 10
396.2509309729619
 20
167.7192889898228
 30
0.0
 11
396.2509309729619
 21
66.13817864379189
 31
0.0
  0
LINE
  5
1126
330
2
100
AcDbEntity
  8
CENTER
100
AcDbLine
 10
341.250939427008
 20
116.9287338168264
 30
0.0
 11
480.2509309729673
 21
116.9287338168264
 31
0.0
  0
LINE
  5
1127
330
2
100
AcDbEntity
  8
0
100
AcDbLine
 10
362.2509309729655
 20
93.54657046388775
 30
0.0
 11
362.8995949264324
 21
93.52958460047785
 31
0.0
  0
LINE
  5
1128
330
2
100
AcDbEntity
  8
0
100
AcDbLine
 10
361.7509309729655
 20
146.4287338168451
 30
0.0
 11
361.7509309729655
 21
141.225887428262
 31
0.0
  0
LINE
  5
1129
330
2
100
AcDbEntity
  8
0
100
AcDbLine
 10
361.7509309729655
 20
92.63158020539094
 30
0.0
 11
361.7509309729655
 21
87.42873381680784
 31
0.0
  0
LINE
  5
112A
330
2
100
AcDbEntity
  8
0
100
AcDbLine
 10
354.2509309729655
 20
93.92873381682647
 30
0.0
 11
353.2509309729655
 21
93.3513835476374
 31
0.0
  0
LINE
  5
112B
330
2
100
AcDbEntity
  8
0
100
AcDbLine
 10
354.2509309729709
 20
90.42873381682557
 30
0.0
 11
355.5509309729702
 21
90.42873381682557
 31
0.0
  0
LINE
  5
112C
330
2
100
AcDbEntity
  8
0
100
AcDbLine
 10
357.7509309729709
 20
90.6287338168263
 30
0.0
 11
357.9509309729699
 21
90.42873381682602
 31
0.0
  0
LINE
  5
112D
330
2
100
AcDbEntity
  8
0
100
AcDbLine
 10
355.9509309729699
 20
91.12873381682538
 30
0.0
 11
357.5509309729702
 21
91.1287338168263
 31
0.0
  0
LINE
  5
112E
330
2
100
AcDbEntity
  8
0
100
AcDbLine
 10
354.2509309729709
 20
90.42873381682557
 30
0.0
 11
353.250930972971
 21
91.00608408601511
 31
0.0
  0
LINE
  5
112F
330
2
100
AcDbEntity
  8
0
100
AcDbLine
 10
361.2509309729655
 20
88.42873381683194
 30
0.0
 11
361.7509309729709
 21
87.92873381682648
 31
0.0
  0
LINE
  5
1130
330
2
100
AcDbEntity
  8
0
100
AcDbLine
 10
357.9509309729699
 20
90.42873381682602
 30
0.0
 11
361.250930972971
 21
90.42873381682648
 31
0.0
  0
LINE
  5
1131
330
2
100
AcDbEntity
  8
0
100
AcDbLine
 10
354.2509309729655
 20
93.92873381682647
 30
0.0
 11
362.2509309729655
 21
93.92873381682647
 31
0.0
  0
LINE
  5
1132
330
2
100
AcDbEntity
  8
0
100
AcDbLine
 10
353.2509309729655
 20
142.8513835476355
 30
0.0
 11
353.2509309729655
 21
131.4257802458337
 31
0.0
  0
LINE
  5
1133
330
2
100
AcDbEntity
  8
0
100
AcDbLine
 10
353.2509309729655
 20
102.4257802458337
 30
0.0
 11
353.2509309729655
 21
91.00608408601784
 31
0.0
  0
LINE
  5
1134
330
2
100
AcDbEntity
  8
0
100
AcDbLine
 10
354.2509309729655
 20
93.92873381682647
 30
0.0
 11
354.2509309729655
 21
102.4257802458337
 31
0.0
  0
LINE
  5
1135
330
2
100
AcDbEntity
  8
0
100
AcDbLine
 10
354.2509309729655
 20
131.4257802458337
 30
0.0
 11
354.2509309729655
 21
139.9287338168255
 31
0.0
  0
LINE
  5
1136
330
2
100
AcDbEntity
  8
0
100
AcDbLine
 10
362.2509309729655
 20
131.4257802458337
 30
0.0
 11
362.2509309729655
 21
140.3108971697652
 31
0.0
  0
LINE
  5
1137
330
2
100
AcDbEntity
  8
HIDS
  6
SEKKEI_H
100
AcDbLine
 10
364.6651445353406
 20
153.3429473791989
 30
0.0
 11
362.3367174105922
 21
151.014520254454
 31
0.0
  0
LINE
  5
1138
330
2
100
AcDbEntity
  8
0
100
AcDbLine
 10
365.2509309729673
 20
76.92873381682648
 30
0.0
 11
365.2509309729673
 21
102.2557384486421
 31
0.0
  0
LINE
  5
1139
330
2
100
AcDbEntity
  8
0
100
AcDbLine
 10
365.2509309729673
 20
131.6017291850116
 30
0.0
 11
365.2509309729673
 21
156.9287338168264
 31
0.0
  0
LINE
  5
113A
330
2
100
AcDbEntity
  8
0
100
AcDbLine
 10
372.7509309729655
 20
157.9287338168264
 30
0.0
 11
366.2509309729673
 21
157.9287338168264
 31
0.0
  0
LINE
  5
113B
330
2
100
AcDbEntity
  8
0
100
AcDbLine
 10
372.7509309729655
 20
157.9287338168273
 30
0.0
 11
372.7509309729655
 21
130.0518898608547
 31
0.0
  0
LINE
  5
113C
330
2
100
AcDbEntity
  8
0
100
AcDbLine
 10
372.7509309729655
 20
102.4257802458337
 30
0.0
 11
372.7509309729655
 21
75.92873381682648
 31
0.0
  0
LINE
  5
113D
330
2
100
AcDbEntity
  8
0
100
AcDbLine
 10
354.2509309729709
 20
143.4287338168273
 30
0.0
 11
353.250930972971
 21
142.8513835476374
 31
0.0
  0
LINE
  5
113E
330
2
100
AcDbEntity
  8
0
100
AcDbLine
 10
357.7509309729709
 20
143.2287338168266
 30
0.0
 11
357.7509309729709
 21
141.256092072746
 31
0.0
  0
LINE
  5
113F
330
2
100
AcDbEntity
  8
0
100
AcDbLine
 10
357.7509309729709
 20
92.60137556090695
 30
0.0
 11
357.7509309729709
 21
90.6287338168263
 31
0.0
  0
LINE
  5
1140
330
2
100
AcDbEntity
  8
0
100
AcDbLine
 10
355.9509309729699
 20
142.7287338168271
 30
0.0
 11
357.5509309729702
 21
142.7287338168266
 31
0.0
  0
LINE
  5
1141
330
2
100
AcDbEntity
  8
0
100
AcDbLine
 10
355.7509309729709
 20
143.2287338168275
 30
0.0
 11
355.7509309729728
 21
141.3592436929575
 31
0.0
  0
LINE
  5
1142
330
2
100
AcDbEntity
  8
0
100
AcDbLine
 10
355.7509309730473
 20
92.49822394070861
 30
0.0
 11
355.7509309730491
 21
90.6287338168263
 31
0.0
  0
LINE
  5
1143
330
2
100
AcDbEntity
  8
0
100
AcDbLine
 10
354.2509309729655
 20
139.9287338168264
 30
0.0
 11
353.2509309729655
 21
140.5060840860155
 31
0.0
  0
LINE
  5
1144
330
2
100
AcDbEntity
  8
0
100
AcDbLine
 10
354.2509309729655
 20
139.9287338168255
 30
0.0
 11
362.2509309729655
 21
139.9287338168264
 31
0.0
  0
LINE
  5
1145
330
2
100
AcDbEntity
  8
0
100
AcDbLine
 10
357.7509309729709
 20
143.2287338168266
 30
0.0
 11
357.9509309729699
 21
143.4287338168264
 31
0.0
  0
LINE
  5
1146
330
2
100
AcDbEntity
  8
0
100
AcDbLine
 10
354.2509309729709
 20
143.4287338168273
 30
0.0
 11
355.5509309729702
 21
143.4287338168269
 31
0.0
  0
LINE
  5
1147
330
2
100
AcDbEntity
  8
0
100
AcDbLine
 10
361.2509309729655
 20
88.42873381683194
 30
0.0
 11
361.2509309729655
 21
92.51492882457569
 31
0.0
  0
LINE
  5
1148
330
2
100
AcDbEntity
  8
0
100
AcDbLine
 10
361.2509309729655
 20
141.3425388090772
 30
0.0
 11
361.2509309729655
 21
145.428733816821
 31
0.0
  0
LINE
  5
1149
330
2
100
AcDbEntity
  8
0
100
AcDbLine
 10
361.250930972971
 20
145.4287338168264
 30
0.0
 11
361.250930972971
 21
143.4287338168264
 31
0.0
  0
LINE
  5
114A
330
2
100
AcDbEntity
  8
0
100
AcDbLine
 10
361.250930972971
 20
145.4287338168264
 30
0.0
 11
361.7509309729709
 21
145.9287338168264
 31
0.0
  0
LINE
  5
114B
330
2
100
AcDbEntity
  8
0
100
AcDbLine
 10
357.9509309729699
 20
143.4287338168264
 30
0.0
 11
361.250930972971
 21
143.4287338168264
 31
0.0
  0
ARC
  5
114C
330
2
100
AcDbEntity
  8
0
100
AcDbCircle
 10
366.2509309729673
 20
156.9287338168264
 30
0.0
 40
1.0
100
AcDbArc
 50
90.0
 51
179.9999999999869
  0
LINE
  5
114D
330
2
100
AcDbEntity
  8
0
100
AcDbLine
 10
362.2509309729655
 20
140.3108971697652
 30
0.0
 11
362.8995949264324
 21
140.3278830331751
 31
0.0
  0
ARC
  5
114E
330
2
100
AcDbEntity
  8
HIDS
  6
SEKKEI_H
100
AcDbCircle
 10
363.2509309729673
 20
154.7571609415727
 30
0.0
 40
2.0
100
AcDbArc
 50
314.9999999999444
 51
359.9999999999869
  0
ARC
  5
114F
330
2
100
AcDbEntity
  8
HIDS
  6
SEKKEI_H
100
AcDbCircle
 10
363.7509309729655
 20
149.6003066920798
 30
0.0
 40
2.0
100
AcDbArc
 50
134.9999999999444
 51
180.0
  0
LINE
  5
1150
330
2
100
AcDbEntity
  8
HIDS
  6
SEKKEI_H
100
AcDbLine
 10
364.6651445353406
 20
80.51452025445405
 30
0.0
 11
362.336717410594
 21
82.84294737919891
 31
0.0
  0
LINE
  5
1151
330
2
100
AcDbEntity
  8
0
100
AcDbLine
 10
372.7509309729655
 20
75.92873381682648
 30
0.0
 11
366.2509309729691
 21
75.92873381682648
 31
0.0
  0
ARC
  5
1152
330
2
100
AcDbEntity
  8
0
100
AcDbCircle
 10
366.2509309729691
 20
76.92873381682648
 30
0.0
 40
1.0
100
AcDbArc
 50
180.0
 51
270.0
  0
ARC
  5
1153
330
2
100
AcDbEntity
  8
HIDS
  6
SEKKEI_H
100
AcDbCircle
 10
363.2509309729673
 20
79.10030669208026
 30
0.0
 40
2.0
100
AcDbArc
 50
0.0
 51
45.00000000005555
  0
ARC
  5
1154
330
2
100
AcDbEntity
  8
HIDS
  6
SEKKEI_H
100
AcDbCircle
 10
363.7509309729655
 20
84.25716094157314
 30
0.0
 40
2.0
100
AcDbArc
 50
180.0
 51
225.0000000000555
  0
ARC
  5
1155
330
2
100
AcDbEntity
  8
0
100
AcDbCircle
 10
355.5509309729702
 20
143.2287338168266
 30
0.0
 40
0.2
100
AcDbArc
 50
0.0000000001302755
 51
90.0
  0
ARC
  5
1156
330
2
100
AcDbEntity
  8
0
100
AcDbCircle
 10
355.9509309729699
 20
142.9287338168274
 30
0.0
 40
0.2
100
AcDbArc
 50
180.0000000001302
 51
270.0
  0
ARC
  5
1157
330
2
100
AcDbEntity
  8
0
100
AcDbCircle
 10
357.5509309729702
 20
142.9287338168264
 30
0.0
 40
0.2
100
AcDbArc
 50
270.0
 51
0.0
  0
ARC
  5
1158
330
2
100
AcDbEntity
  8
0
100
AcDbCircle
 10
355.5509309729702
 20
90.62873381682539
 30
0.0
 40
0.2
100
AcDbArc
 50
270.0
 51
0.0000000001042204
  0
ARC
  5
1159
330
2
100
AcDbEntity
  8
0
100
AcDbCircle
 10
355.9509309729717
 20
90.92873381682556
 30
0.0
 40
0.2
100
AcDbArc
 50
90.0
 51
179.9999999998697
  0
ARC
  5
115A
330
2
100
AcDbEntity
  8
0
100
AcDbCircle
 10
357.5509309729702
 20
90.92873381682556
 30
0.0
 40
0.2
100
AcDbArc
 50
0.0
 51
90.0
  0
LINE
  5
115B
330
2
100
AcDbEntity
  8
0
100
AcDbLine
 10
354.2509309729709
 20
143.4287338168273
 30
0.0
 11
354.2509309729709
 21
141.8252479320804
 31
0.0
  0
LINE
  5
115C
330
2
100
AcDbEntity
  8
0
100
AcDbLine
 10
354.2509309729709
 20
92.03221970157256
 30
0.0
 11
354.2509309729709
 21
90.42873381682557
 31
0.0
  0
LINE
  5
115D
330
2
100
AcDbEntity
  8
0
100
AcDbLine
 10
357.9509309729699
 20
90.42873381682602
 30
0.0
 11
357.9509309729699
 21
92.59284315299055
 31
0.0
  0
LINE
  5
115E
330
2
100
AcDbEntity
  8
0
100
AcDbLine
 10
357.9509309729699
 20
141.2646244806624
 30
0.0
 11
357.9509309729699
 21
143.4287338168264
 31
0.0
  0
LINE
  5
115F
330
2
100
AcDbEntity
  8
0
100
AcDbLine
 10
439.2509309729709
 20
152.9287338168464
 30
0.0
 11
372.7509309729655
 21
152.9287338168464
 31
0.0
  0
LINE
  5
1160
330
2
100
AcDbEntity
  8
0
100
AcDbLine
 10
439.2509309729709
 20
149.9287338168464
 30
0.0
 11
372.7509309729655
 21
149.9287338168464
 31
0.0
  0
LINE
  5
1161
330
2
100
AcDbEntity
  8
0
100
AcDbLine
 10
439.2509309729709
 20
135.2207689827105
 30
0.0
 11
372.7509309729655
 21
135.2207689827105
 31
0.0
  0
LINE
  5
1162
330
2
100
AcDbEntity
  8
0
100
AcDbLine
 10
372.7509309729655
 20
152.9287338168464
 30
0.0
 11
365.2509309729673
 21
152.9287338168464
 31
0.0
  0
LINE
  5
1163
330
2
100
AcDbEntity
  8
0
100
AcDbLine
 10
372.7509309729655
 20
149.9287338168464
 30
0.0
 11
365.2509309729673
 21
149.9287338168464
 31
0.0
  0
LINE
  5
1164
330
2
100
AcDbEntity
  8
0
100
AcDbLine
 10
372.7509309729655
 20
135.2207689827105
 30
0.0
 11
365.2509309729673
 21
135.2207689827105
 31
0.0
  0
LINE
  5
1165
330
2
100
AcDbEntity
  8
0
100
AcDbLine
 10
439.2509309729709
 20
80.92873381680647
 30
0.0
 11
372.7509309729655
 21
80.92873381680647
 31
0.0
  0
LINE
  5
1166
330
2
100
AcDbEntity
  8
0
100
AcDbLine
 10
439.2509309729709
 20
83.92873381680647
 30
0.0
 11
372.7509309729655
 21
83.92873381680647
 31
0.0
  0
LINE
  5
1167
330
2
100
AcDbEntity
  8
0
100
AcDbLine
 10
439.2509309729709
 20
98.63669865094244
 30
0.0
 11
372.7509309729655
 21
98.63669865094244
 31
0.0
  0
LINE
  5
1168
330
2
100
AcDbEntity
  8
0
100
AcDbLine
 10
372.7509309729655
 20
80.92873381680647
 30
0.0
 11
365.2509309729673
 21
80.92873381680647
 31
0.0
  0
LINE
  5
1169
330
2
100
AcDbEntity
  8
0
100
AcDbLine
 10
372.7509309729655
 20
83.92873381680647
 30
0.0
 11
365.2509309729673
 21
83.92873381680647
 31
0.0
  0
LINE
  5
116A
330
2
100
AcDbEntity
  8
0
100
AcDbLine
 10
372.7509309729655
 20
98.63669865094244
 30
0.0
 11
365.2509309729673
 21
98.63669865094244
 31
0.0
  0
LINE
  5
116B
330
2
100
AcDbEntity
  8
CENTER
  6
CENS
100
AcDbLine
 10
352.7509309729673
 20
151.4287338168451
 30
0.0
 11
377.8136777171137
 21
151.4287338168451
 31
0.0
  0
LINE
  5
116C
330
2
100
AcDbEntity
  8
0
100
AcDbLine
 10
363.7509309729691
 20
146.4287338168451
 30
0.0
 11
358.1509309729688
 21
146.4287338168451
 31
0.0
  0
LINE
  5
116D
330
2
100
AcDbEntity
  8
0
100
AcDbLine
 10
363.7509309729691
 20
156.4287338168451
 30
0.0
 11
358.1509309729688
 21
156.4287338168451
 31
0.0
  0
LINE
  5
116E
330
2
100
AcDbEntity
  8
0
100
AcDbLine
 10
363.7509309729691
 20
156.4287338168451
 30
0.0
 11
363.7509309729691
 21
146.4287338168455
 31
0.0
  0
LINE
  5
116F
330
2
100
AcDbEntity
  8
0
100
AcDbLine
 10
357.7509309729691
 20
155.7359134938174
 30
0.0
 11
357.7509309729673
 21
147.1215541398728
 31
0.0
  0
LINE
  5
1170
330
2
100
AcDbEntity
  8
0
100
AcDbLine
 10
358.1509309729688
 20
156.4287338168451
 30
0.0
 11
358.1509309729688
 21
146.4287338168451
 31
0.0
  0
LINE
  5
1171
330
2
100
AcDbEntity
  8
0
100
AcDbLine
 10
358.1509309729688
 20
156.4287338168451
 30
0.0
 11
357.7509309729691
 21
155.7359134938174
 31
0.0
  0
LINE
  5
1172
330
2
100
AcDbEntity
  8
0
100
AcDbLine
 10
358.1509309729688
 20
146.4287338168451
 30
0.0
 11
357.7509309729691
 21
147.1215541398728
 31
0.0
  0
LINE
  5
1173
330
2
100
AcDbEntity
  8
0
100
AcDbLine
 10
363.7509309729673
 20
156.4287338168451
 30
0.0
 11
365.2509309729673
 21
156.4287338168451
 31
0.0
  0
LINE
  5
1174
330
2
100
AcDbEntity
  8
0
100
AcDbLine
 10
363.7509309729673
 20
146.4287338168451
 30
0.0
 11
365.2509309729673
 21
146.4287338168451
 31
0.0
  0
LINE
  5
1175
330
2
100
AcDbEntity
  8
HIDS
  6
SEKKEI_H
100
AcDbLine
 10
361.7509309729655
 20
146.4287338168451
 30
0.0
 11
361.7509309729655
 21
149.6003066920798
 31
0.0
  0
LINE
  5
1176
330
2
100
AcDbEntity
  8
CENTER
  6
CENS
100
AcDbLine
 10
352.7509309729673
 20
82.42873381680784
 30
0.0
 11
377.8136777171137
 21
82.42873381680784
 31
0.0
  0
LINE
  5
1177
330
2
100
AcDbEntity
  8
0
100
AcDbLine
 10
363.7509309729691
 20
87.42873381680784
 30
0.0
 11
358.1509309729688
 21
87.42873381680784
 31
0.0
  0
LINE
  5
1178
330
2
100
AcDbEntity
  8
0
100
AcDbLine
 10
363.7509309729691
 20
77.42873381680784
 30
0.0
 11
358.1509309729688
 21
77.42873381680784
 31
0.0
  0
LINE
  5
1179
330
2
100
AcDbEntity
  8
0
100
AcDbLine
 10
363.7509309729691
 20
77.42873381680784
 30
0.0
 11
363.7509309729691
 21
87.42873381680738
 31
0.0
  0
LINE
  5
117A
330
2
100
AcDbEntity
  8
0
100
AcDbLine
 10
357.7509309729691
 20
78.12155413983555
 30
0.0
 11
357.7509309729673
 21
86.73591349378012
 31
0.0
  0
LINE
  5
117B
330
2
100
AcDbEntity
  8
0
100
AcDbLine
 10
358.1509309729688
 20
77.42873381680784
 30
0.0
 11
358.1509309729688
 21
87.42873381680784
 31
0.0
  0
LINE
  5
117C
330
2
100
AcDbEntity
  8
0
100
AcDbLine
 10
358.1509309729688
 20
77.42873381680784
 30
0.0
 11
357.7509309729691
 21
78.12155413983555
 31
0.0
  0
LINE
  5
117D
330
2
100
AcDbEntity
  8
0
100
AcDbLine
 10
358.1509309729688
 20
87.42873381680784
 30
0.0
 11
357.7509309729691
 21
86.73591349378012
 31
0.0
  0
LINE
  5
117E
330
2
100
AcDbEntity
  8
0
100
AcDbLine
 10
363.7509309729673
 20
77.42873381680784
 30
0.0
 11
365.2509309729673
 21
77.42873381680784
 31
0.0
  0
LINE
  5
117F
330
2
100
AcDbEntity
  8
0
100
AcDbLine
 10
363.7509309729673
 20
87.42873381680784
 30
0.0
 11
365.2509309729673
 21
87.42873381680784
 31
0.0
  0
LINE
  5
1180
330
2
100
AcDbEntity
  8
HIDS
  6
SEKKEI_H
100
AcDbLine
 10
361.7509309729655
 20
87.42873381680784
 30
0.0
 11
361.7509309729655
 21
84.25716094157314
 31
0.0
  0
LINE
  5
1181
330
2
100
AcDbEntity
  8
0
100
AcDbLine
 10
351.250939427008
 20
131.4257802458337
 30
0.0
 11
351.250939427008
 21
102.4257802458337
 31
0.0
  0
LINE
  5
1182
330
2
100
AcDbEntity
  8
0
100
AcDbLine
 10
470.2509309729673
 20
131.4286878168268
 30
0.0
 11
470.2509309729673
 21
102.4286878168263
 31
0.0
  0
LINE
  5
1183
330
2
100
AcDbEntity
  8
0
100
AcDbLine
 10
443.2509309729673
 20
126.4286878168263
 30
0.0
 11
443.2509309729673
 21
107.4286878168263
 31
0.0
  0
LINE
  5
1184
330
2
100
AcDbEntity
  8
CENTER
  6
CENS
100
AcDbLine
 10
462.2509309729673
 20
122.6926647751565
 30
0.0
 11
462.2509309729673
 21
136.1969854178851
 31
0.0
  0
LINE
  5
1185
330
2
100
AcDbEntity
  8
0
100
AcDbLine
 10
447.0804680940353
 20
102.4286878168263
 30
0.0
 11
470.2509309729673
 21
102.4286878168263
 31
0.0
  0
LINE
  5
1186
330
2
100
AcDbEntity
  8
0
100
AcDbLine
 10
365.3931734696459
 20
102.4257802458337
 30
0.0
 11
351.250939427008
 21
102.4257802458337
 31
0.0
  0
LINE
  5
1187
330
2
100
AcDbEntity
  8
0
100
AcDbLine
 10
351.250939427008
 20
128.7286878168265
 30
0.0
 11
470.2509309729673
 21
128.7286878168265
 31
0.0
  0
LINE
  5
1188
330
2
100
AcDbEntity
  8
0
100
AcDbLine
 10
443.2509309729673
 20
107.9286878168268
 30
0.0
 11
453.2509309729674
 21
107.9286878168268
 31
0.0
  0
LINE
  5
1189
330
2
100
AcDbEntity
  8
0
100
AcDbLine
 10
443.2509309729673
 20
125.9286878168263
 30
0.0
 11
453.2509309729674
 21
125.9286878168263
 31
0.0
  0
LINE
  5
118A
330
2
100
AcDbEntity
  8
0
100
AcDbLine
 10
447.0804396224927
 20
131.4286878168268
 30
0.0
 11
470.2509309729673
 21
131.4286878168268
 31
0.0
  0
LINE
  5
118B
330
2
100
AcDbEntity
  8
0
100
AcDbLine
 10
459.2509309729673
 20
126.4286878168263
 30
0.0
 11
465.2509309729673
 21
126.4286878168263
 31
0.0
  0
LINE
  5
118C
330
2
100
AcDbEntity
  8
0
100
AcDbLine
 10
459.2509309729673
 20
107.4286878168268
 30
0.0
 11
465.2509309729673
 21
107.4286878168268
 31
0.0
  0
LINE
  5
118D
330
2
100
AcDbEntity
  8
0
100
AcDbLine
 10
465.2509309729673
 20
107.4286878168268
 30
0.0
 11
465.2509309729673
 21
126.4286878168263
 31
0.0
  0
LINE
  5
118E
330
2
100
AcDbEntity
  8
0
100
AcDbLine
 10
468.2509309729673
 20
125.9286878168263
 30
0.0
 11
468.2509309729692
 21
107.9286878168272
 31
0.0
  0
LINE
  5
118F
330
2
100
AcDbEntity
  8
0
100
AcDbLine
 10
470.2509309729691
 20
106.7739872784482
 30
0.0
 11
468.2509309729692
 21
107.9286878168272
 31
0.0
  0
LINE
  5
1190
330
2
100
AcDbEntity
  8
0
100
AcDbLine
 10
465.2509309729673
 20
107.9286878168268
 30
0.0
 11
468.2509309729673
 21
107.9286878168268
 31
0.0
  0
LINE
  5
1191
330
2
100
AcDbEntity
  8
0
100
AcDbLine
 10
470.2509309729673
 20
127.0833883552054
 30
0.0
 11
468.2509309729673
 21
125.9286878168263
 31
0.0
  0
LINE
  5
1192
330
2
100
AcDbEntity
  8
0
100
AcDbLine
 10
465.2509309729673
 20
125.9286878168263
 30
0.0
 11
468.2509309729673
 21
125.9286878168263
 31
0.0
  0
LINE
  5
1193
330
2
100
AcDbEntity
  8
0
100
AcDbLine
 10
459.2509309729673
 20
107.4286878168268
 30
0.0
 11
459.2509309729673
 21
126.4286878168263
 31
0.0
  0
LINE
  5
1194
330
2
100
AcDbEntity
  8
0
100
AcDbLine
 10
454.4009309729688
 20
126.4286878168263
 30
0.0
 11
454.4009309729688
 21
107.4286878168263
 31
0.0
  0
LINE
  5
1195
330
2
100
AcDbEntity
  8
0
100
AcDbLine
 10
453.2509309729674
 20
126.4286878168263
 30
0.0
 11
453.2509309729674
 21
107.4286878168263
 31
0.0
  0
LINE
  5
1196
330
2
100
AcDbEntity
  8
0
100
AcDbLine
 10
454.4009309729688
 20
107.9286878168268
 30
0.0
 11
459.2509309729673
 21
107.9286878168263
 31
0.0
  0
LINE
  5
1197
330
2
100
AcDbEntity
  8
0
100
AcDbLine
 10
454.4009309729688
 20
125.9286878168263
 30
0.0
 11
459.2509309729673
 21
125.9286878168263
 31
0.0
  0
LINE
  5
1198
330
2
100
AcDbEntity
  8
0
100
AcDbLine
 10
439.2509309729673
 20
131.9286878168263
 30
0.0
 11
439.2509309729673
 21
131.4286878168263
 31
0.0
  0
LINE
  5
1199
330
2
100
AcDbEntity
  8
0
100
AcDbLine
 10
439.2509309729673
 20
102.4286878168263
 30
0.0
 11
439.2509309729673
 21
101.9286878168263
 31
0.0
  0
LINE
  5
119A
330
2
100
AcDbEntity
  8
0
100
AcDbLine
 10
365.3984489460587
 20
131.4257802458337
 30
0.0
 11
351.250939427008
 21
131.4257802458337
 31
0.0
  0
LINE
  5
119B
330
2
100
AcDbEntity
  8
0
100
AcDbLine
 10
374.250939427008
 20
126.4286878168263
 30
0.0
 11
374.250939427008
 21
107.4286878168263
 31
0.0
  0
LINE
  5
119C
330
2
100
AcDbEntity
  8
0
100
AcDbLine
 10
353.250939427008
 20
125.9287338168264
 30
0.0
 11
353.250939427008
 21
107.9287338168264
 31
0.0
  0
LINE
  5
119D
330
2
100
AcDbEntity
  8
0
100
AcDbLine
 10
362.1009394270083
 20
126.4257802458337
 30
0.0
 11
362.1009394270083
 21
107.4257802458337
 31
0.0
  0
LINE
  5
119E
330
2
100
AcDbEntity
  8
0
100
AcDbLine
 10
363.250939427008
 20
126.4257802458337
 30
0.0
 11
363.250939427008
 21
107.4257802458337
 31
0.0
  0
LINE
  5
119F
330
2
100
AcDbEntity
  8
0
100
AcDbLine
 10
353.250939427008
 20
107.9287338168264
 30
0.0
 11
351.250939427008
 21
106.7740332784474
 31
0.0
  0
LINE
  5
11A0
330
2
100
AcDbEntity
  8
0
100
AcDbLine
 10
353.250939427008
 20
125.9287338168264
 30
0.0
 11
351.250939427008
 21
127.0834343552055
 31
0.0
  0
LINE
  5
11A1
330
2
100
AcDbEntity
  8
0
100
AcDbLine
 10
464.3009309724518
 20
128.7286878168265
 30
0.0
 11
464.3009309724518
 21
131.4286878168268
 31
0.0
  0
LINE
  5
11A2
330
2
100
AcDbEntity
  8
0
100
AcDbLine
 10
460.2009309734846
 20
128.7286878168265
 30
0.0
 11
460.2009309734846
 21
131.4286878168268
 31
0.0
  0
LINE
  5
11A3
330
2
100
AcDbEntity
  8
HOJO
100
AcDbLine
 10
464.7509309729673
 20
128.7286878168265
 30
0.0
 11
464.7509309729673
 21
131.4286878168268
 31
0.0
  0
LINE
  5
11A4
330
2
100
AcDbEntity
  8
HOJO
100
AcDbLine
 10
459.7509309729709
 20
128.7286878168265
 30
0.0
 11
459.7509309729709
 21
131.4286878168268
 31
0.0
  0
LINE
  5
11A5
330
2
100
AcDbEntity
  8
0
100
AcDbLine
 10
453.2509309729674
 20
126.4286878168263
 30
0.0
 11
454.4009309729688
 21
126.4286878168263
 31
0.0
  0
LINE
  5
11A6
330
2
100
AcDbEntity
  8
0
100
AcDbLine
 10
453.2509309729674
 20
107.4286878168263
 30
0.0
 11
454.4009309729688
 21
107.4286878168263
 31
0.0
  0
LINE
  5
11A7
330
2
100
AcDbEntity
  8
0
100
AcDbLine
 10
362.1009394270083
 20
126.4257802458337
 30
0.0
 11
363.250939427008
 21
126.4257802458337
 31
0.0
  0
LINE
  5
11A8
330
2
100
AcDbEntity
  8
0
100
AcDbLine
 10
362.1009394270083
 20
107.4257802458337
 30
0.0
 11
363.250939427008
 21
107.4257802458337
 31
0.0
  0
LINE
  5
11A9
330
2
100
AcDbEntity
  8
0
100
AcDbLine
 10
374.250939427008
 20
126.4286878168263
 30
0.0
 11
443.2509309729673
 21
126.4286878168263
 31
0.0
  0
LINE
  5
11AA
330
2
100
AcDbEntity
  8
0
100
AcDbLine
 10
443.2509309729673
 20
107.4286878168263
 30
0.0
 11
374.250939427008
 21
107.4286878168263
 31
0.0
  0
LINE
  5
11AB
330
2
100
AcDbEntity
  8
0
100
AcDbLine
 10
374.250939427008
 20
125.9287338168264
 30
0.0
 11
363.250939427008
 21
125.9287338168264
 31
0.0
  0
LINE
  5
11AC
330
2
100
AcDbEntity
  8
0
100
AcDbLine
 10
374.250939427008
 20
107.9287338168264
 30
0.0
 11
363.250939427008
 21
107.9287338168264
 31
0.0
  0
LINE
  5
11AD
330
2
100
AcDbEntity
  8
0
100
AcDbLine
 10
362.1009394270083
 20
125.9287338168264
 30
0.0
 11
353.250939427008
 21
125.9287338168264
 31
0.0
  0
LINE
  5
11AE
330
2
100
AcDbEntity
  8
0
100
AcDbLine
 10
362.1009394270083
 20
107.9287338168264
 30
0.0
 11
353.250939427008
 21
107.9287338168264
 31
0.0
  0
LINE
  5
11AF
330
2
100
AcDbEntity
  8
0
100
AcDbLine
 10
456.2509309729692
 20
93.92873381682647
 30
0.0
 11
456.2509309729692
 21
102.4286878168263
 31
0.0
  0
LINE
  5
11B0
330
2
100
AcDbEntity
  8
0
100
AcDbLine
 10
456.2509309729692
 20
131.4286878168268
 30
0.0
 11
456.2509309729692
 21
139.9287338168255
 31
0.0
  0
LINE
  5
11B1
330
2
100
AcDbEntity
  8
0
100
AcDbLine
 10
448.2509309729691
 20
93.66440711094993
 30
0.0
 11
448.2509309729691
 21
102.4286878168263
 31
0.0
  0
LINE
  5
11B2
330
2
100
AcDbEntity
  8
0
100
AcDbLine
 10
448.2509309729691
 20
131.4286878168268
 30
0.0
 11
448.2509309729691
 21
140.193060522703
 31
0.0
  0
LINE
  5
11B3
330
2
100
AcDbEntity
  8
0
100
AcDbLine
 10
456.2509309729692
 20
93.92873381682647
 30
0.0
 11
448.2509309729691
 21
93.92873381682647
 31
0.0
  0
LINE
  5
11B4
330
2
100
AcDbEntity
  8
0
100
AcDbLine
 10
456.2509309729692
 20
93.92873381682647
 30
0.0
 11
457.2509309729691
 21
93.35138354763694
 31
0.0
  0
LINE
  5
11B5
330
2
100
AcDbEntity
  8
0
100
AcDbLine
 10
448.2509309729691
 20
93.66440711094993
 30
0.0
 11
447.260018756692
 21
93.63845916137234
 31
0.0
  0
LINE
  5
11B6
330
2
100
AcDbEntity
  8
0
100
AcDbLine
 10
456.2509309729692
 20
139.9287338168255
 30
0.0
 11
448.2509309729691
 21
139.9287338168255
 31
0.0
  0
LINE
  5
11B7
330
2
100
AcDbEntity
  8
0
100
AcDbLine
 10
456.2509309729692
 20
139.9287338168264
 30
0.0
 11
457.2509309729691
 21
140.5060840860155
 31
0.0
  0
LINE
  5
11B8
330
2
100
AcDbEntity
  8
0
100
AcDbLine
 10
448.2509309729691
 20
140.193060522703
 30
0.0
 11
447.260018756672
 21
140.219008472281
 31
0.0
  0
SPLINE
  5
11B9
330
2
100
AcDbEntity
  8
HOJO
100
AcDbSpline
210
0.0
220
0.0
230
1.0
 70
     8
 71
     3
 72
    30
 73
    26
 74
     0
 42
0.0000000001
 43
0.0000000001
 40
0.5016654732119501
 40
0.5016654732119501
 40
0.5016654732119501
 40
0.5016654732119501
 40
2.680955593237801
 40
6.481103170843645
 40
9.861715666174537
 40
12.67866478189151
 40
16.05777144949662
 40
20.04695970870067
 40
22.66457515320929
 40
29.72623868189037
 40
37.99790621919433
 40
46.99071548625449
 40
54.49076198617444
 40
61.82498628838093
 40
69.45839622923616
 40
80.97138657320707
 40
88.08160211842633
 40
97.70908643514403
 40
100.9862254185234
 40
104.809996963859
 40
108.9004570007386
 40
112.9568108017827
 40
116.4247884416666
 40
119.9571556713895
 40
122.4205000303466
 40
122.4205000303466
 40
122.4205000303466
 40
122.4205000303466
 10
353.2509309729655
 20
142.3045290527976
 30
0.0
 10
353.9101434186657
 20
141.9656742455582
 30
0.0
 10
355.7281477206313
 20
141.1037007050004
 30
0.0
 10
358.7871665611517
 20
141.3097046050398
 30
0.0
 10
362.6856098923969
 20
141.6113777908067
 30
0.0
 10
363.806571548567
 20
138.0592676915571
 30
0.0
 10
363.9472257754302
 20
134.8812377685877
 30
0.0
 10
364.8361106698891
 20
131.2638280190477
 30
0.0
 10
369.2963070901266
 20
129.2637009659525
 30
0.0
 10
375.3306762821055
 20
130.8781277677103
 30
0.0
 10
383.4229122453623
 20
129.255561688989
 30
0.0
 10
391.6314135859981
 20
131.6255914150393
 30
0.0
 10
399.5341402129767
 20
129.36742020864
 30
0.0
 10
406.9836863443404
 20
131.525318450565
 30
0.0
 10
415.7599187187886
 20
129.1624741026672
 30
0.0
 10
424.5082993617386
 20
131.6759948454514
 30
0.0
 10
433.9215174276112
 20
128.8325363612871
 30
0.0
 10
440.272504414065
 20
131.8894695152053
 30
0.0
 10
446.4185674497573
 20
128.6863106949158
 30
0.0
 10
447.9148386182685
 20
133.7271467480832
 30
0.0
 10
446.0132689627487
 20
137.0640431359398
 30
0.0
 10
447.399083964902
 20
141.6344461064859
 30
0.0
 10
451.4466967013056
 20
142.1388057038857
 30
0.0
 10
454.562791884881
 20
141.8133327728801
 30
0.0
 10
456.4708320009238
 20
142.4047967209285
 30
0.0
 10
457.2509309729691
 20
142.6938729326062
 30
0.0
  0
SPLINE
  5
11BA
330
2
100
AcDbEntity
  8
HOJO
100
AcDbSpline
210
0.0
220
0.0
230
1.0
 70
     8
 71
     3
 72
    30
 73
    26
 74
     0
 42
0.0000000001
 43
0.0000000001
 40
0.5016654732119501
 40
0.5016654732119501
 40
0.5016654732119501
 40
0.5016654732119501
 40
2.680955593237801
 40
6.481103170843645
 40
9.861715666174537
 40
12.67866478189151
 40
16.05777144949662
 40
20.04695970870067
 40
22.66457515320929
 40
29.72623868189037
 40
37.99790621919433
 40
46.99071548625449
 40
54.49076198617444
 40
61.82498628838093
 40
69.45839622923616
 40
80.97138657320707
 40
88.08160211842633
 40
97.70908643514403
 40
100.9862254185234
 40
104.809996963859
 40
108.9004570007386
 40
112.9568108017827
 40
116.4247884416666
 40
119.9571556713895
 40
122.4205000303466
 40
122.4205000303466
 40
122.4205000303466
 40
122.4205000303466
 10
353.2509309729655
 20
91.55293858085547
 30
0.0
 10
353.9101434186657
 20
91.89179338809486
 30
0.0
 10
355.7281477206313
 20
92.75376692865263
 30
0.0
 10
358.7871665611517
 20
92.54776302861325
 30
0.0
 10
362.6856098923969
 20
92.24608984284628
 30
0.0
 10
363.806571548567
 20
95.79819994209589
 30
0.0
 10
363.9472257754302
 20
98.97622986506537
 30
0.0
 10
364.8361106698891
 20
102.5936396146053
 30
0.0
 10
369.2963070901266
 20
104.5937666677005
 30
0.0
 10
375.3306762821055
 20
102.9793398659426
 30
0.0
 10
383.4229122453623
 20
104.601905944664
 30
0.0
 10
391.6314135859981
 20
102.2318762186137
 30
0.0
 10
399.5341402129767
 20
104.490047425013
 30
0.0
 10
406.9836863443404
 20
102.332149183088
 30
0.0
 10
415.7599187187886
 20
104.6949935309858
 30
0.0
 10
424.5082993617386
 20
102.1814727882015
 30
0.0
 10
433.9215174276112
 20
105.0249312723658
 30
0.0
 10
440.272504414065
 20
101.9679981184477
 30
0.0
 10
446.4185674497573
 20
105.1711569387371
 30
0.0
 10
447.9148386182685
 20
100.1303208855698
 30
0.0
 10
446.0132689627487
 20
96.79342449771326
 30
0.0
 10
447.399083964902
 20
92.22302152716707
 30
0.0
 10
451.4466967013056
 20
91.71866192976727
 30
0.0
 10
454.562791884881
 20
92.04413486077289
 30
0.0
 10
456.4708320009238
 20
91.45267091272449
 30
0.0
 10
457.2509309729691
 20
91.16359470104686
 30
0.0
  0
LINE
  5
11BB
330
2
100
AcDbEntity
  8
0
100
AcDbLine
 10
362.2509309729655
 20
102.4316873878192
 30
0.0
 11
362.2509309729655
 21
93.54657046388775
 31
0.0
  0
LINE
  5
11BC
330
2
100
AcDbEntity
  8
0
100
AcDbLine
 10
456.2509309729673
 20
139.9287338168255
 30
0.0
 11
448.2509309729691
 21
131.4286878168268
 31
0.0
  0
LINE
  5
11BD
330
2
100
AcDbEntity
  8
0
100
AcDbLine
 10
448.2509309729691
 20
139.9287338168255
 30
0.0
 11
456.2509309729692
 21
131.4286878168268
 31
0.0
  0
LINE
  5
11BE
330
2
100
AcDbEntity
  8
0
100
AcDbLine
 10
456.2509309729692
 20
102.4286878168263
 30
0.0
 11
448.2509309729691
 21
93.92873381682647
 31
0.0
  0
LINE
  5
11BF
330
2
100
AcDbEntity
  8
0
100
AcDbLine
 10
448.2509309729691
 20
102.4286878168263
 30
0.0
 11
456.2509309729692
 21
93.92873381682647
 31
0.0
  0
LINE
  5
11C0
330
2
100
AcDbEntity
  8
0
100
AcDbLine
 10
362.2509309729655
 20
102.4257802458337
 30
0.0
 11
354.2509309729655
 21
93.92873381682647
 31
0.0
  0
LINE
  5
11C1
330
2
100
AcDbEntity
  8
0
100
AcDbLine
 10
354.2509309729655
 20
102.4257802458337
 30
0.0
 11
362.2509309729655
 21
93.92873381682647
 31
0.0
  0
LINE
  5
11C2
330
2
100
AcDbEntity
  8
0
100
AcDbLine
 10
354.2509309729655
 20
139.9287338168255
 30
0.0
 11
362.2509309729655
 21
131.4257802458337
 31
0.0
  0
LINE
  5
11C3
330
2
100
AcDbEntity
  8
0
100
AcDbLine
 10
362.2509309729655
 20
139.9287338168264
 30
0.0
 11
354.2509309729655
 21
131.4257802458337
 31
0.0
  0
LINE
  5
11C4
330
2
100
AcDbEntity
  8
0
100
AcDbLine
 10
306.1656344337332
 20
361.4760704099154
 30
0.0
 11
306.1656344337332
 21
332.4760704099154
 31
0.0
  0
LINE
  5
11C5
330
2
100
AcDbEntity
  8
0
100
AcDbLine
 10
425.1656259796934
 20
361.4789779809084
 30
0.0
 11
425.1656259796934
 21
332.478977980908
 31
0.0
  0
LINE
  5
11C6
330
2
100
AcDbEntity
  8
0
100
AcDbLine
 10
412.1656259796925
 20
332.478977980908
 30
0.0
 11
425.1656259796934
 21
332.478977980908
 31
0.0
  0
LINE
  5
11C7
330
2
100
AcDbEntity
  8
0
100
AcDbLine
 10
308.1656259796907
 20
332.4760704099154
 30
0.0
 11
306.1656344337332
 21
332.4760704099154
 31
0.0
  0
LINE
  5
11C8
330
2
100
AcDbEntity
  8
0
100
AcDbLine
 10
412.1656259796943
 20
361.4789779809084
 30
0.0
 11
425.1656259796934
 21
361.4789779809084
 31
0.0
  0
LINE
  5
11C9
330
2
100
AcDbEntity
  8
0
100
AcDbLine
 10
308.1656259796907
 20
361.4760704099154
 30
0.0
 11
306.1656344337332
 21
361.4760704099154
 31
0.0
  0
CIRCLE
  5
11CA
330
2
100
AcDbEntity
  8
0
100
AcDbCircle
 10
417.1656259796934
 20
346.978977980908
 30
0.0
 40
2.049999999999999
  0
CIRCLE
  5
11CB
330
2
100
AcDbEntity
  8
HOJO
100
AcDbCircle
 10
417.1656259796934
 20
346.9790281955248
 30
0.0
 40
2.5
  0
LINE
  5
11CC
330
2
100
AcDbEntity
  8
CENTER
100
AcDbLine
 10
417.1656259796925
 20
352.0804963656506
 30
0.0
 11
417.1656259796925
 21
341.8775515961657
 31
0.0
  0
LINE
  5
11CD
330
2
100
AcDbEntity
  8
0
100
AcDbLine
 10
558.6416524123758
 20
666.8762830530122
 30
0.0
 11
587.6416524123758
 21
666.8762830530122
 31
0.0
  0
LINE
  5
11CE
330
2
100
AcDbEntity
  8
0
100
AcDbLine
 10
558.6387448413822
 20
547.8762915070524
 30
0.0
 11
587.6387448413831
 21
547.8762915070524
 31
0.0
  0
LINE
  5
11CF
330
2
100
AcDbEntity
  8
0
100
AcDbLine
 10
587.6387448413831
 20
560.8762915070533
 30
0.0
 11
587.6387448413831
 21
547.8762915070524
 31
0.0
  0
LINE
  5
11D0
330
2
100
AcDbEntity
  8
0
100
AcDbLine
 10
587.6416524123758
 20
664.8762915070546
 30
0.0
 11
587.6416524123758
 21
666.8762830530122
 31
0.0
  0
LINE
  5
11D1
330
2
100
AcDbEntity
  8
0
100
AcDbLine
 10
558.6387448413822
 20
560.876291507052
 30
0.0
 11
558.6387448413822
 21
547.8762915070524
 31
0.0
  0
LINE
  5
11D2
330
2
100
AcDbEntity
  8
0
100
AcDbLine
 10
558.6416524123758
 20
664.8762915070546
 30
0.0
 11
558.6416524123758
 21
666.8762830530122
 31
0.0
  0
CIRCLE
  5
11D3
330
2
100
AcDbEntity
  8
0
100
AcDbCircle
 10
573.1387448413832
 20
555.8762915070524
 30
0.0
 40
2.049999999999999
  0
CIRCLE
  5
11D4
330
2
100
AcDbEntity
  8
HOJO
100
AcDbCircle
 10
573.1386946267664
 20
555.8762915070524
 30
0.0
 40
2.5
  0
LINE
  5
11D5
330
2
100
AcDbEntity
  8
CENTER
100
AcDbLine
 10
568.037226456641
 20
555.8762915070533
 30
0.0
 11
578.240171226125
 21
555.8762915070533
 31
0.0
  0
ARC
  5
11D6
330
2
100
AcDbEntity
  8
0
100
AcDbCircle
 10
573.1386988413794
 20
346.9790239809222
 30
0.0
 40
8.999999999999982
100
AcDbArc
 50
109.4712206344713
 51
70.52877936552867
  0
LINE
  5
11D7
330
2
100
AcDbEntity
  8
0
100
AcDbLine
 10
570.1386988413794
 20
358.7790239809224
 30
0.0
 11
576.1386988413794
 21
358.7790239809224
 31
0.0
  0
LINE
  5
11D8
330
2
100
AcDbEntity
  8
0
100
AcDbLine
 10
570.1386988413794
 20
358.7790239809224
 30
0.0
 11
570.1386988413794
 21
355.4643053551608
 31
0.0
  0
LINE
  5
11D9
330
2
100
AcDbEntity
  8
0
100
AcDbLine
 10
576.1386988413794
 20
358.7790239809224
 30
0.0
 11
576.1386988413803
 21
355.4643053551604
 31
0.0
  0
CIRCLE
  5
11DA
330
2
100
AcDbEntity
  8
0
100
AcDbCircle
 10
573.1386988413794
 20
346.9790239809227
 30
0.0
 40
14.4999539999859
  0
ARC
  5
11DB
330
2
100
AcDbEntity
  8
0
100
AcDbCircle
 10
573.1386988413903
 20
346.9790239809336
 30
0.0
 40
10.15465453835361
100
AcDbArc
 50
107.1833853173834
 51
72.81661468272726
  0
ARC
  5
11DC
330
2
100
AcDbEntity
  8
0
100
AcDbCircle
 10
189.4177333522636
 20
346.979023980929
 30
0.0
 40
8.999999999999982
100
AcDbArc
 50
109.4712206344713
 51
70.52877936552867
  0
LINE
  5
11DD
330
2
100
AcDbEntity
  8
0
100
AcDbLine
 10
186.4177333522636
 20
358.7790239809292
 30
0.0
 11
192.4177333522636
 21
358.7790239809292
 31
0.0
  0
LINE
  5
11DE
330
2
100
AcDbEntity
  8
0
100
AcDbLine
 10
186.4177333522636
 20
358.7790239809292
 30
0.0
 11
186.4177333522636
 21
355.4643053551677
 31
0.0
  0
LINE
  5
11DF
330
2
100
AcDbEntity
  8
0
100
AcDbLine
 10
192.4177333522636
 20
358.7790239809292
 30
0.0
 11
192.4177333522645
 21
355.4643053551672
 31
0.0
  0
ARC
  5
11E0
330
2
100
AcDbEntity
  8
0
100
AcDbCircle
 10
189.4177333522745
 20
346.9790239809404
 30
0.0
 40
10.15465453835361
100
AcDbArc
 50
107.1833853173834
 51
72.81661468272726
  0
CIRCLE
  5
11E1
330
2
100
AcDbEntity
  8
0
100
AcDbCircle
 10
189.4177333522636
 20
346.9790239809295
 30
0.0
 40
14.4999539999859
  0
LINE
  5
11E3
330
2
100
AcDbEntity
  8
0
100
AcDbLine
 10
613.723617448323
 20
645.3762915043917
 30
0.0
 11
613.928698841383
 21
621.876291507056
 31
0.0
  0
ARC
  5
11E4
330
2
100
AcDbEntity
  8
0
100
AcDbCircle
 10
616.8808153036914
 20
627.3762915070555
 30
0.0
 40
3.0
100
AcDbArc
 50
180.5000000000045
 51
270.0
  0
LINE
  5
1213
330
2
100
AcDbEntity
  8
CENTER
  6
CENS
100
AcDbLine
 10
366.165625979687
 20
396.1027084036109
 30
0.0
 11
366.165625979687
 21
372.7427824012441
 31
0.0
  0
LINE
  5
1214
330
2
100
AcDbEntity
  8
0
100
AcDbLine
 10
371.1656259796871
 20
390.9790239809079
 30
0.0
 11
361.1656259796871
 21
390.9790239809079
 31
0.0
  0
ARC
  5
1215
330
2
100
AcDbEntity
  8
0
100
AcDbCircle
 10
361.1656259796871
 20
386.9790239809079
 30
0.0
 40
4.0
100
AcDbArc
 50
90.0
 51
159.1508477649675
  0
ARC
  5
1216
330
2
100
AcDbEntity
  8
0
100
AcDbCircle
 10
371.1656259796871
 20
386.9790239809079
 30
0.0
 40
4.0
100
AcDbArc
 50
17.60182375627703
 51
90.0
  0
LINE
  5
1217
330
2
100
AcDbEntity
  8
0
100
AcDbLine
 10
667.1386988370138
 20
651.5262915070561
 30
0.0
 11
667.1386988370157
 21
592.2262915070559
 31
0.0
  0
LINE
  5
1218
330
2
100
AcDbEntity
  8
0
100
AcDbLine
 10
689.1386988370138
 20
618.8762915070561
 30
0.0
 11
689.1386988370138
 21
599.876291507056
 31
0.0
  0
LINE
  5
1219
330
2
100
AcDbEntity
  8
0
100
AcDbLine
 10
692.1386988370138
 20
621.876291507056
 30
0.0
 11
700.138698837012
 21
621.876291507056
 31
0.0
  0
LINE
  5
121A
330
2
100
AcDbEntity
  8
0
100
AcDbLine
 10
668.7442501124785
 20
661.876291507056
 30
0.0
 11
713.138698837012
 21
661.876291507056
 31
0.0
  0
LINE
  5
121B
330
2
100
AcDbEntity
  8
0
100
AcDbLine
 10
703.138698837012
 20
656.8762915070561
 30
0.0
 11
703.138698837012
 21
624.876291507056
 31
0.0
  0
ARC
  5
121C
330
2
100
AcDbEntity
  8
0
100
AcDbCircle
 10
708.138698837012
 20
656.8762915070561
 30
0.0
 40
5.0
100
AcDbArc
 50
90.0
 51
180.0
  0
ARC
  5
121D
330
2
100
AcDbEntity
  8
0
100
AcDbCircle
 10
700.138698837012
 20
624.876291507056
 30
0.0
 40
3.0
100
AcDbArc
 50
270.0
 51
0.0
  0
LINE
  5
121E
330
2
100
AcDbEntity
  8
0
100
AcDbLine
 10
658.1386988370138
 20
662.876291507056
 30
0.0
 11
665.1386988370156
 21
662.876291507056
 31
0.0
  0
ARC
  5
121F
330
2
100
AcDbEntity
  8
0
100
AcDbCircle
 10
668.7442501124785
 20
666.876291507056
 30
0.0
 40
5.0
100
AcDbArc
 50
238.9972808660705
 51
270.0
  0
ARC
  5
1220
330
2
100
AcDbEntity
  8
0
100
AcDbCircle
 10
665.1386988370156
 20
660.8762915070561
 30
0.0
 40
2.0
100
AcDbArc
 50
18.96557498886414
 51
90.0
  0
ARC
  5
1221
330
2
100
AcDbEntity
  8
0
100
AcDbCircle
 10
692.1386988370138
 20
618.8762915070561
 30
0.0
 40
3.0
100
AcDbArc
 50
90.0
 51
180.0
  0
LINE
  5
1222
330
2
100
AcDbEntity
  8
0
100
AcDbLine
 10
668.7442501124785
 20
581.8762915070561
 30
0.0
 11
713.138698837012
 21
581.8762915070558
 31
0.0
  0
LINE
  5
1223
330
2
100
AcDbEntity
  8
0
100
AcDbLine
 10
692.1386988370138
 20
596.876291507056
 30
0.0
 11
700.138698837012
 21
596.876291507056
 31
0.0
  0
LINE
  5
1224
330
2
100
AcDbEntity
  8
0
100
AcDbLine
 10
703.138698837012
 20
593.8762915070561
 30
0.0
 11
703.138698837012
 21
586.8762915070558
 31
0.0
  0
ARC
  5
1225
330
2
100
AcDbEntity
  8
0
100
AcDbCircle
 10
700.138698837012
 20
593.8762915070561
 30
0.0
 40
3.0
100
AcDbArc
 50
0.0
 51
90.0
  0
ARC
  5
1226
330
2
100
AcDbEntity
  8
0
100
AcDbCircle
 10
708.138698837012
 20
586.876291507056
 30
0.0
 40
5.0
100
AcDbArc
 50
180.0
 51
270.0
  0
ARC
  5
1227
330
2
100
AcDbEntity
  8
0
100
AcDbCircle
 10
692.1386988370138
 20
599.876291507056
 30
0.0
 40
3.0
100
AcDbArc
 50
180.0
 51
270.0
  0
LINE
  5
1228
330
2
100
AcDbEntity
  8
0
100
AcDbLine
 10
658.1386988370138
 20
580.8762915070558
 30
0.0
 11
665.1386988370156
 21
580.876291507056
 31
0.0
  0
ARC
  5
1229
330
2
100
AcDbEntity
  8
0
100
AcDbCircle
 10
668.7442501124785
 20
576.876291507056
 30
0.0
 40
5.0
100
AcDbArc
 50
90.0
 51
121.0027191339292
  0
ARC
  5
122A
330
2
100
AcDbEntity
  8
0
100
AcDbCircle
 10
665.1386988370156
 20
582.876291507056
 30
0.0
 40
2.0
100
AcDbArc
 50
270.0
 51
341.0344250111237
  0
LINE
  5
122B
330
2
100
AcDbEntity
  8
0
100
AcDbLine
 10
713.138698837012
 20
661.876291507056
 30
0.0
 11
713.138698837012
 21
581.8762915070558
 31
0.0
  0
LINE
  5
122C
330
2
100
AcDbEntity
  8
0
100
AcDbLine
 10
893.7763320367819
 20
387.9790239809129
 30
0.0
 11
905.9639525116551
 21
387.9790239809136
 31
0.0
  0
LINE
  5
122D
330
2
100
AcDbEntity
  8
0
100
AcDbLine
 10
923.7099192040693
 20
387.9790239809151
 30
0.0
 11
965.8975396789434
 21
387.9790239809183
 31
0.0
  0
CIRCLE
  5
122E
330
2
100
AcDbEntity
  8
HIDS
100
AcDbCircle
 10
929.8369358578627
 20
346.9790239809131
 30
0.0
 40
40.0
  0
CIRCLE
  5
122F
330
2
100
AcDbEntity
  8
0
100
AcDbCircle
 10
929.8369358578627
 20
346.9790239809131
 30
0.0
 40
34.99999999543831
  0
LINE
  5
1230
330
2
100
AcDbEntity
  8
0
100
AcDbLine
 10
897.8369358578627
 20
386.9790239809131
 30
0.0
 11
961.8369358578627
 21
386.9790239809131
 31
0.0
  0
LINE
  5
1231
330
2
100
AcDbEntity
  8
0
100
AcDbLine
 10
897.8369358578627
 20
306.9790239809131
 30
0.0
 11
961.7438175593022
 21
306.9790239809133
 31
0.0
  0
LINE
  5
1232
330
2
100
AcDbEntity
  8
0
100
AcDbLine
 10
888.7767037978145
 20
310.9180529048283
 30
0.0
 11
888.3369358578718
 21
346.9790239809131
 31
0.0
  0
LINE
  5
1233
330
2
100
AcDbEntity
  8
0
100
AcDbLine
 10
889.9300880027519
 20
314.9557529663466
 30
0.0
 11
889.8369358578626
 21
346.9790239809131
 31
0.0
  0
ARC
  5
1234
330
2
100
AcDbEntity
  8
0
100
AcDbCircle
 10
893.7763320367819
 20
310.9790239809133
 30
0.0
 40
5.0
100
AcDbArc
 50
180.6986943829866
 51
270.0
  0
ARC
  5
1235
330
2
100
AcDbEntity
  8
0
100
AcDbCircle
 10
897.9300541564231
 20
314.9790239809131
 30
0.0
 40
7.999999999999998
100
AcDbArc
 50
180.1666665999998
 51
270.0
  0
LINE
  5
1236
330
2
100
AcDbEntity
  8
CENTER
100
AcDbLine
 10
898.0169358578629
 20
320.6590239809132
 30
0.0
 11
898.0169358578629
 21
309.6590239809132
 31
0.0
  0
LINE
  5
1237
330
2
100
AcDbEntity
  8
CENTER
100
AcDbLine
 10
892.516935857863
 20
315.1590239809132
 30
0.0
 11
903.5169358578629
 21
315.1590239809132
 31
0.0
  0
LINE
  5
1238
330
2
100
AcDbEntity
  8
0
100
AcDbLine
 10
888.7767037978145
 20
383.0399950569979
 30
0.0
 11
888.3369358578718
 21
346.9790239809131
 31
0.0
  0
LINE
  5
1239
330
2
100
AcDbEntity
  8
HIDS
100
AcDbLine
 10
909.086935857861
 20
386.9790239809131
 30
0.0
 11
909.4255574942224
 21
367.5794034263577
 31
0.0
  0
LINE
  5
123A
330
2
100
AcDbEntity
  8
HIDS
100
AcDbLine
 10
920.5869358578608
 20
386.9790239809131
 30
0.0
 11
920.3671815746691
 21
374.3893095287863
 31
0.0
  0
LINE
  5
123B
330
2
100
AcDbEntity
  8
0
100
AcDbLine
 10
889.9300880027519
 20
379.0022949954798
 30
0.0
 11
889.8369358578626
 21
346.9790239809131
 31
0.0
  0
LINE
  5
123C
330
2
100
AcDbEntity
  8
CENTER
100
AcDbLine
 10
898.0169358578629
 20
384.2990239809133
 30
0.0
 11
898.0169358578629
 21
373.2990239809133
 31
0.0
  0
ARC
  5
123D
330
2
100
AcDbEntity
  8
HIDS
100
AcDbCircle
 10
906.8023303840934
 20
384.9790239809131
 30
0.0
 40
2.0
100
AcDbArc
 50
90.0
 51
178.9999999999982
  0
ARC
  5
123E
330
2
100
AcDbEntity
  8
0
100
AcDbCircle
 10
893.7763320367819
 20
382.9790239809129
 30
0.0
 40
5.0
100
AcDbArc
 50
90.0
 51
179.3013056170132
  0
ARC
  5
123F
330
2
100
AcDbEntity
  8
0
100
AcDbCircle
 10
897.9300541564231
 20
378.9790239809131
 30
0.0
 40
7.999999999999998
100
AcDbArc
 50
90.0
 51
179.8333334000001
  0
LINE
  5
1240
330
2
100
AcDbEntity
  8
CENTER
100
AcDbLine
 10
892.516935857863
 20
378.7990239809133
 30
0.0
 11
903.5169358578629
 21
378.7990239809133
 31
0.0
  0
LINE
  5
1241
330
2
100
AcDbEntity
  8
HIDS
100
AcDbLine
 10
904.8026349937815
 20
385.0139287937875
 30
0.0
 11
904.7054840315221
 21
379.4481538935211
 31
0.0
  0
ARC
  5
1242
330
2
100
AcDbEntity
  8
HIDS
100
AcDbCircle
 10
901.7059409460514
 20
379.5005111128332
 30
0.0
 40
3.0
100
AcDbArc
 50
310.8597132650736
 51
358.9999999999852
  0
LINE
  5
1243
330
2
100
AcDbEntity
  8
0
100
AcDbLine
 10
970.8971679179111
 20
310.9180529048281
 30
0.0
 11
971.3369358578535
 21
346.979023980882
 31
0.0
  0
LINE
  5
1244
330
2
100
AcDbEntity
  8
0
100
AcDbLine
 10
969.7437837129735
 20
314.9557529663466
 30
0.0
 11
969.8369358578627
 21
346.9790239809131
 31
0.0
  0
ARC
  5
1245
330
2
100
AcDbEntity
  8
0
100
AcDbCircle
 10
965.8975396789434
 20
310.9790239809131
 30
0.0
 40
5.0
100
AcDbArc
 50
270.0
 51
359.3013056170132
  0
ARC
  5
1246
330
2
100
AcDbEntity
  8
0
100
AcDbCircle
 10
961.7438175593022
 20
314.9790239809131
 30
0.0
 40
8.0
100
AcDbArc
 50
270.0
 51
359.8333334000002
  0
LINE
  5
1247
330
2
100
AcDbEntity
  8
HIDS
100
AcDbLine
 10
954.8712367219438
 20
308.9441191680383
 30
0.0
 11
954.9683876842035
 21
314.5098940683049
 31
0.0
  0
LINE
  5
1248
330
2
100
AcDbEntity
  8
CENTER
100
AcDbLine
 10
961.6569358578624
 20
320.6590239809132
 30
0.0
 11
961.6569358578624
 21
309.6590239809132
 31
0.0
  0
ARC
  5
1249
330
2
100
AcDbEntity
  8
HIDS
100
AcDbCircle
 10
952.8715413316302
 20
308.9790239809133
 30
0.0
 40
2.0
100
AcDbArc
 50
270.0
 51
358.9999999999852
  0
LINE
  5
124A
330
2
100
AcDbEntity
  8
CENTER
100
AcDbLine
 10
956.1569358578624
 20
315.1590239809132
 30
0.0
 11
967.1569358578624
 21
315.1590239809132
 31
0.0
  0
ARC
  5
124B
330
2
100
AcDbEntity
  8
HIDS
100
AcDbCircle
 10
957.9679307696721
 20
314.4575368489923
 30
0.0
 40
3.0
100
AcDbArc
 50
130.8597132650735
 51
178.9999999999851
  0
LINE
  5
124C
330
2
100
AcDbEntity
  8
0
100
AcDbLine
 10
970.8971679179111
 20
383.0399950569981
 30
0.0
 11
971.3369358578535
 21
346.979023980882
 31
0.0
  0
LINE
  5
124D
330
2
100
AcDbEntity
  8
0
100
AcDbLine
 10
969.7437837129735
 20
379.0022949954798
 30
0.0
 11
969.8369358578627
 21
346.9790239809131
 31
0.0
  0
LINE
  5
124E
330
2
100
AcDbEntity
  8
CENTER
100
AcDbLine
 10
961.6569358578624
 20
384.2990239809133
 30
0.0
 11
961.6569358578624
 21
373.2990239809133
 31
0.0
  0
ARC
  5
124F
330
2
100
AcDbEntity
  8
0
100
AcDbCircle
 10
961.7438175593022
 20
378.9790239809131
 30
0.0
 40
8.0
100
AcDbArc
 50
0.1666665999998381
 51
90.0
  0
LINE
  5
1250
330
2
100
AcDbEntity
  8
CENTER
100
AcDbLine
 10
956.1569358578624
 20
378.7990239809133
 30
0.0
 11
967.1569358578624
 21
378.7990239809133
 31
0.0
  0
ARC
  5
1251
330
2
100
AcDbEntity
  8
0
100
AcDbCircle
 10
965.8975396789434
 20
382.9790239809131
 30
0.0
 40
5.0
100
AcDbArc
 50
0.6986943829867131
 51
90.0
  0
CIRCLE
  5
1252
330
2
100
AcDbEntity
  8
0
100
AcDbCircle
 10
898.0169358578629
 20
378.7990239809133
 30
0.0
 40
2.5
  0
CIRCLE
  5
1253
330
2
100
AcDbEntity
  8
HOJO
100
AcDbCircle
 10
898.0169358578629
 20
378.7990239809133
 30
0.0
 40
3.0
  0
CIRCLE
  5
1254
330
2
100
AcDbEntity
  8
0
100
AcDbCircle
 10
961.6569358578624
 20
378.7990239809133
 30
0.0
 40
2.5
  0
CIRCLE
  5
1255
330
2
100
AcDbEntity
  8
HOJO
100
AcDbCircle
 10
961.6569358578624
 20
378.7990239809133
 30
0.0
 40
3.0
  0
CIRCLE
  5
1256
330
2
100
AcDbEntity
  8
0
100
AcDbCircle
 10
961.6569358578624
 20
315.1590239809132
 30
0.0
 40
2.5
  0
CIRCLE
  5
1257
330
2
100
AcDbEntity
  8
HOJO
100
AcDbCircle
 10
961.6569358578624
 20
315.1590239809132
 30
0.0
 40
3.0
  0
CIRCLE
  5
1258
330
2
100
AcDbEntity
  8
0
100
AcDbCircle
 10
898.0169358578629
 20
315.1590239809132
 30
0.0
 40
2.5
  0
CIRCLE
  5
1259
330
2
100
AcDbEntity
  8
HOJO
100
AcDbCircle
 10
898.0169358578629
 20
315.1590239809132
 30
0.0
 40
3.0
  0
ARC
  5
125A
330
2
100
AcDbEntity
  8
0
100
AcDbCircle
 10
952.4329792980486
 20
426.7598152928761
 30
0.0
 40
40.0
100
AcDbArc
 50
263.8230035951095
 51
263.9988421367181
  0
ARC
  5
125B
330
2
100
AcDbEntity
  8
0
100
AcDbCircle
 10
907.2408924176768
 20
267.1982326689499
 30
0.0
 40
40.0
100
AcDbArc
 50
83.82300359510955
 51
83.99884213682334
  0
LINE
  5
125C
330
2
100
AcDbEntity
  8
0
100
AcDbLine
 10
893.7763320367819
 20
305.9790239809131
 30
0.0
 11
965.8975396789434
 21
305.9790239809131
 31
0.0
  0
ARC
  5
125D
330
2
100
AcDbEntity
  8
0
100
AcDbCircle
 10
952.4329792980486
 20
267.1982326689501
 30
0.0
 40
40.0
100
AcDbArc
 50
96.00115786317665
 51
96.17699640489044
  0
LINE
  5
125E
330
2
100
AcDbEntity
  8
CENTER
  6
CENS
100
AcDbLine
 10
651.5338808372414
 20
587.2262915070559
 30
0.0
 11
678.5338808372414
 21
587.2262915070559
 31
0.0
  0
LINE
  5
125F
330
2
100
AcDbEntity
  8
0
100
AcDbLine
 10
673.221156161873
 20
592.2262915070559
 30
0.0
 11
673.221156161873
 21
582.226291507056
 31
0.0
  0
LINE
  5
1260
330
2
100
AcDbEntity
  8
0
100
AcDbLine
 10
673.6211561618727
 20
582.9191118300834
 30
0.0
 11
673.6211561618727
 21
591.5334711840282
 31
0.0
  0
LINE
  5
1261
330
2
100
AcDbEntity
  8
0
100
AcDbLine
 10
667.6211561618726
 20
592.2262915070559
 30
0.0
 11
667.6211561618726
 21
582.226291507056
 31
0.0
  0
LINE
  5
1262
330
2
100
AcDbEntity
  8
0
100
AcDbLine
 10
667.6211561618726
 20
582.226291507056
 30
0.0
 11
666.6211561618727
 21
582.226291507056
 31
0.0
  0
LINE
  5
1263
330
2
100
AcDbEntity
  8
0
100
AcDbLine
 10
666.6211561618727
 20
582.226291507056
 30
0.0
 11
666.6211561618727
 21
592.2262915070559
 31
0.0
  0
LINE
  5
1264
330
2
100
AcDbEntity
  8
0
100
AcDbLine
 10
666.6211561618727
 20
592.2262915070559
 30
0.0
 11
667.6211561618726
 21
592.2262915070559
 31
0.0
  0
LINE
  5
1265
330
2
100
AcDbEntity
  8
0
100
AcDbLine
 10
667.6211561618726
 20
592.2262915070559
 30
0.0
 11
667.6211561618726
 21
582.226291507056
 31
0.0
  0
LINE
  5
1266
330
2
100
AcDbEntity
  8
0
100
AcDbLine
 10
673.221156161873
 20
592.2262915070559
 30
0.0
 11
667.6211561618726
 21
592.2262915070559
 31
0.0
  0
LINE
  5
1267
330
2
100
AcDbEntity
  8
0
100
AcDbLine
 10
667.6211561618726
 20
582.226291507056
 30
0.0
 11
673.221156161873
 21
582.226291507056
 31
0.0
  0
LINE
  5
1268
330
2
100
AcDbEntity
  8
0
100
AcDbLine
 10
673.221156161873
 20
582.226291507056
 30
0.0
 11
673.6211561618727
 21
582.9191118300834
 31
0.0
  0
LINE
  5
1269
330
2
100
AcDbEntity
  8
0
100
AcDbLine
 10
673.221156161873
 20
592.2262915070562
 30
0.0
 11
673.6211561618727
 21
591.5334711840285
 31
0.0
  0
LINE
  5
126A
330
2
100
AcDbEntity
  8
CENTER
  6
CENS
100
AcDbLine
 10
651.5338808372414
 20
656.5262915070562
 30
0.0
 11
678.5338808372414
 21
656.5262915070562
 31
0.0
  0
LINE
  5
126B
330
2
100
AcDbEntity
  8
0
100
AcDbLine
 10
673.221156161873
 20
651.5262915070561
 30
0.0
 11
673.221156161873
 21
661.5262915070561
 31
0.0
  0
LINE
  5
126C
330
2
100
AcDbEntity
  8
0
100
AcDbLine
 10
673.6211561618727
 20
660.8334711840286
 30
0.0
 11
673.6211561618727
 21
652.2191118300838
 31
0.0
  0
LINE
  5
126D
330
2
100
AcDbEntity
  8
0
100
AcDbLine
 10
667.6211561618726
 20
651.5262915070561
 30
0.0
 11
667.6211561618726
 21
661.5262915070561
 31
0.0
  0
LINE
  5
126E
330
2
100
AcDbEntity
  8
0
100
AcDbLine
 10
667.6211561618726
 20
661.5262915070561
 30
0.0
 11
666.6211561618727
 21
661.5262915070561
 31
0.0
  0
LINE
  5
126F
330
2
100
AcDbEntity
  8
0
100
AcDbLine
 10
666.6211561618727
 20
661.5262915070561
 30
0.0
 11
666.6211561618727
 21
651.5262915070561
 31
0.0
  0
LINE
  5
1270
330
2
100
AcDbEntity
  8
0
100
AcDbLine
 10
666.6211561618727
 20
651.5262915070561
 30
0.0
 11
667.6211561618726
 21
651.5262915070561
 31
0.0
  0
LINE
  5
1271
330
2
100
AcDbEntity
  8
0
100
AcDbLine
 10
667.6211561618726
 20
651.5262915070561
 30
0.0
 11
667.6211561618726
 21
661.5262915070561
 31
0.0
  0
LINE
  5
1272
330
2
100
AcDbEntity
  8
0
100
AcDbLine
 10
673.221156161873
 20
651.5262915070561
 30
0.0
 11
667.6211561618726
 21
651.5262915070561
 31
0.0
  0
LINE
  5
1273
330
2
100
AcDbEntity
  8
0
100
AcDbLine
 10
667.6211561618726
 20
661.5262915070561
 30
0.0
 11
673.221156161873
 21
661.5262915070561
 31
0.0
  0
LINE
  5
1274
330
2
100
AcDbEntity
  8
0
100
AcDbLine
 10
673.221156161873
 20
661.5262915070561
 30
0.0
 11
673.6211561618727
 21
660.8334711840286
 31
0.0
  0
LINE
  5
1275
330
2
100
AcDbEntity
  8
0
100
AcDbLine
 10
673.221156161873
 20
651.5262915070559
 30
0.0
 11
673.6211561618727
 21
652.2191118300836
 31
0.0
  0
LINE
  5
1277
330
2
100
AcDbEntity
  8
HIDS
100
AcDbLine
 10
919.8369358578627
 20
364.0102453111643
 30
0.0
 11
919.8369358578627
 21
351.9790239809131
 31
0.0
  0
LINE
  5
1278
330
2
100
AcDbEntity
  8
CENTER
  6
CENS
100
AcDbLine
 10
914.8369358578626
 20
396.1027084036159
 30
0.0
 11
914.8369358578626
 21
331.1313588233834
 31
0.0
  0
LINE
  5
1279
330
2
100
AcDbEntity
  8
0
100
AcDbLine
 10
910.1011815018726
 20
346.2290239809131
 30
0.0
 11
920.3665873954248
 21
346.2290239809131
 31
0.0
  0
LINE
  5
127A
330
2
100
AcDbEntity
  8
0
100
AcDbLine
 10
910.1011815018726
 20
347.7290239809131
 30
0.0
 11
920.3665873954248
 21
347.7290239809131
 31
0.0
  0
LINE
  5
127B
330
2
100
AcDbEntity
  8
0
100
AcDbLine
 10
947.0369358578617
 20
346.2290239809131
 30
0.0
 11
947.0369358578617
 21
347.7290239809131
 31
0.0
  0
LINE
  5
127C
330
2
100
AcDbEntity
  8
0
100
AcDbLine
 10
939.3072843203006
 20
346.2290239809131
 30
0.0
 11
947.0369358578617
 21
346.2290239809131
 31
0.0
  0
LINE
  5
127D
330
2
100
AcDbEntity
  8
0
100
AcDbLine
 10
939.3072843203006
 20
347.7290239809131
 30
0.0
 11
947.0369358578617
 21
347.7290239809131
 31
0.0
  0
LINE
  5
127E
330
2
100
AcDbEntity
  8
HIDS
100
AcDbLine
 10
917.3369358578627
 20
346.2290239809131
 30
0.0
 11
917.3369358578627
 21
331.6880952975401
 31
0.0
  0
LINE
  5
127F
330
2
100
AcDbEntity
  8
HIDS
100
AcDbLine
 10
916.9202691911966
 20
346.2290239809131
 30
0.0
 11
916.9202691911966
 21
332.0384007602366
 31
0.0
  0
LINE
  5
1280
330
2
100
AcDbEntity
  8
HIDS
100
AcDbLine
 10
912.7536025245287
 20
346.2290239809131
 30
0.0
 11
912.7536025245287
 21
337.0683114827007
 31
0.0
  0
LINE
  5
1281
330
2
100
AcDbEntity
  8
HIDS
100
AcDbLine
 10
912.3369358578626
 20
346.2290239809131
 30
0.0
 11
912.3369358578626
 21
337.8241072691128
 31
0.0
  0
LINE
  5
1282
330
2
100
AcDbEntity
  8
HIDS
100
AcDbLine
 10
917.8369358578628
 20
351.9790239809131
 30
0.0
 11
917.8369358578628
 21
347.7290239809131
 31
0.0
  0
LINE
  5
1283
330
2
100
AcDbEntity
  8
HIDS
100
AcDbLine
 10
911.8369358578627
 20
351.9790239809131
 30
0.0
 11
911.8369358578627
 21
347.7290239809131
 31
0.0
  0
LINE
  5
1284
330
2
100
AcDbEntity
  8
HIDS
100
AcDbLine
 10
910.7303270535783
 20
351.9790239809131
 30
0.0
 11
919.8369358578627
 21
351.9790239809131
 31
0.0
  0
LINE
  5
1285
330
2
100
AcDbEntity
  8
HIDS
100
AcDbLine
 10
919.0869358578627
 20
351.9790239809131
 30
0.0
 11
919.0869358578627
 21
356.6790239809132
 31
0.0
  0
LINE
  5
1286
330
2
100
AcDbEntity
  8
0
100
AcDbLine
 10
910.5869358578628
 20
356.6790239809132
 30
0.0
 11
910.5869358578628
 21
351.9790239809131
 31
0.0
  0
LINE
  5
1287
330
2
100
AcDbEntity
  8
HIDS
100
AcDbLine
 10
917.3369358578627
 20
337.9790239809131
 30
0.0
 11
916.3369358578627
 21
336.9790239809131
 31
0.0
  0
LINE
  5
1288
330
2
100
AcDbEntity
  8
HIDS
100
AcDbLine
 10
912.3369358578626
 20
337.9790239809131
 30
0.0
 11
913.3369358578628
 21
336.9790239809131
 31
0.0
  0
LINE
  5
1289
330
2
100
AcDbEntity
  8
HIDS
100
AcDbLine
 10
916.3369358578627
 20
336.9790239809131
 30
0.0
 11
914.8369358578626
 21
336.9790239809131
 31
0.0
  0
LINE
  5
128A
330
2
100
AcDbEntity
  8
HIDS
100
AcDbLine
 10
913.3369358578628
 20
336.9790239809131
 30
0.0
 11
914.8369358578626
 21
336.9790239809131
 31
0.0
  0
LINE
  5
128B
330
2
100
AcDbEntity
  8
HIDS
100
AcDbLine
 10
917.3369358578627
 20
351.9790239809131
 30
0.0
 11
917.3369358578627
 21
347.7290239809131
 31
0.0
  0
LINE
  5
128C
330
2
100
AcDbEntity
  8
HIDS
100
AcDbLine
 10
916.9202691911966
 20
349.8956906475796
 30
0.0
 11
916.9202691911966
 21
347.7290239809131
 31
0.0
  0
LINE
  5
128D
330
2
100
AcDbEntity
  8
HIDS
100
AcDbLine
 10
912.7536025245287
 20
349.8956906475796
 30
0.0
 11
912.7536025245287
 21
347.7290239809131
 31
0.0
  0
LINE
  5
128E
330
2
100
AcDbEntity
  8
HIDS
100
AcDbLine
 10
912.3369358578626
 20
351.9790239809131
 30
0.0
 11
912.3369358578626
 21
347.7290239809131
 31
0.0
  0
LINE
  5
128F
330
2
100
AcDbEntity
  8
HIDS
100
AcDbLine
 10
917.3369358578627
 20
337.9790239809131
 30
0.0
 11
914.8369358578626
 21
337.9790239809131
 31
0.0
  0
LINE
  5
1290
330
2
100
AcDbEntity
  8
HIDS
100
AcDbLine
 10
912.3369358578626
 20
337.9790239809131
 30
0.0
 11
914.8369358578626
 21
337.9790239809131
 31
0.0
  0
LINE
  5
1291
330
2
100
AcDbEntity
  8
HIDS
100
AcDbLine
 10
917.3369358578627
 20
349.8956906475796
 30
0.0
 11
912.3369358578626
 21
349.8956906475796
 31
0.0
  0
LINE
  5
1292
330
2
100
AcDbEntity
  8
0
100
AcDbLine
 10
910.5869358578628
 20
351.9790239809131
 30
0.0
 11
910.7303270535783
 21
351.9790239809131
 31
0.0
  0
LINE
  5
1293
330
2
100
AcDbEntity
  8
HIDS
100
AcDbLine
 10
912.3369358578626
 20
351.9790239809131
 30
0.0
 11
912.7536025245287
 21
349.8956906475796
 31
0.0
  0
LINE
  5
1294
330
2
100
AcDbEntity
  8
HIDS
100
AcDbLine
 10
917.3369358578627
 20
351.9790239809131
 30
0.0
 11
916.9202691911966
 21
349.8956906475796
 31
0.0
  0
LINE
  5
1295
330
2
100
AcDbEntity
  8
0
100
AcDbLine
 10
910.5869358578628
 20
356.6790239809132
 30
0.0
 11
912.6330845448581
 21
356.679023980913
 31
0.0
  0
LINE
  5
1296
330
2
100
AcDbEntity
  8
HIDS
100
AcDbLine
 10
918.5673206155923
 20
356.9790239809131
 30
0.0
 11
912.8057145276114
 21
356.9790239809131
 31
0.0
  0
LINE
  5
1297
330
2
100
AcDbEntity
  8
0
100
AcDbLine
 10
910.5869358578628
 20
356.6790239809132
 30
0.0
 11
911.1065511001331
 21
356.9790239809131
 31
0.0
  0
LINE
  5
1298
330
2
100
AcDbEntity
  8
HIDS
100
AcDbLine
 10
918.5673206155923
 20
356.9790239809131
 30
0.0
 11
919.0869358578627
 21
356.6790239809132
 31
0.0
  0
LINE
  5
1299
330
2
100
AcDbEntity
  8
HIDS
100
AcDbLine
 10
910.7303270535783
 20
351.9790239809131
 30
0.0
 11
919.0869358578627
 21
351.9790239809131
 31
0.0
  0
LINE
  5
129A
330
2
100
AcDbEntity
  8
0
100
AcDbLine
 10
912.8057145276114
 20
356.9790239809131
 30
0.0
 11
911.1065511001331
 21
356.9790239809131
 31
0.0
  0
LINE
  5
129B
330
2
100
AcDbEntity
  8
HIDS
100
AcDbLine
 10
912.6330845448581
 20
356.6790239809132
 30
0.0
 11
919.0869358578627
 21
356.6790239809132
 31
0.0
  0
LINE
  5
129C
330
2
100
AcDbEntity
  8
0
100
AcDbLine
 10
917.3369358578627
 20
347.7290239809131
 30
0.0
 11
917.3369358578627
 21
346.2290239809131
 31
0.0
  0
LINE
  5
129D
330
2
100
AcDbEntity
  8
HOJO
100
AcDbLine
 10
916.9202691911966
 20
347.7290239809131
 30
0.0
 11
916.9202691911966
 21
346.2290239809131
 31
0.0
  0
LINE
  5
129E
330
2
100
AcDbEntity
  8
HOJO
100
AcDbLine
 10
912.7536025245287
 20
347.7290239809131
 30
0.0
 11
912.7536025245287
 21
346.2290239809131
 31
0.0
  0
LINE
  5
129F
330
2
100
AcDbEntity
  8
0
100
AcDbLine
 10
912.3369358578626
 20
347.7290239809131
 30
0.0
 11
912.3369358578626
 21
346.2290239809131
 31
0.0
  0
LINE
  5
12A0
330
2
100
AcDbEntity
  8
HIDS
100
AcDbLine
 10
912.3369358578626
 20
346.2290239809131
 30
0.0
 11
912.3369358578626
 21
337.9790239809131
 31
0.0
  0
LINE
  5
12A1
330
2
100
AcDbEntity
  8
HIDS
100
AcDbLine
 10
916.9202691911966
 20
346.2290239809131
 30
0.0
 11
916.9202691911966
 21
337.5623573142464
 31
0.0
  0
LINE
  5
12A2
330
2
100
AcDbEntity
  8
HIDS
100
AcDbLine
 10
917.3369358578627
 20
346.2290239809131
 30
0.0
 11
917.3369358578627
 21
337.9790239809131
 31
0.0
  0
LINE
  5
12A3
330
2
100
AcDbEntity
  8
HIDS
100
AcDbLine
 10
912.7536025245287
 20
346.2290239809131
 30
0.0
 11
912.7536025245287
 21
337.5623573142464
 31
0.0
  0
CIRCLE
  5
12A4
330
2
100
AcDbEntity
  8
0
100
AcDbCircle
 10
929.8369358578627
 20
346.9790239809131
 30
0.0
 40
19.75
  0
LINE
  5
12A5
330
2
100
AcDbEntity
  8
0
100
AcDbLine
 10
909.8369358578628
 20
390.9790239809129
 30
0.0
 11
919.8369358578627
 21
390.9790239809129
 31
0.0
  0
ARC
  5
12A6
330
2
100
AcDbEntity
  8
0
100
AcDbCircle
 10
919.8369358578627
 20
386.9790239809129
 30
0.0
 40
4.0
100
AcDbArc
 50
0.0
 51
90.0
  0
ARC
  5
12A7
330
2
100
AcDbEntity
  8
0
100
AcDbCircle
 10
909.8369358578628
 20
386.9790239809129
 30
0.0
 40
4.0
100
AcDbArc
 50
90.0
 51
180.0
  0
CIRCLE
  5
12A8
330
2
100
AcDbEntity
  8
0
100
AcDbCircle
 10
699.1386988370138
 20
606.8762915070561
 30
0.0
 40
9.0
  0
LINE
  5
12A9
330
2
100
AcDbEntity
  8
CENTER
  6
CENS
100
AcDbLine
 10
699.1386988370138
 20
592.9417243193667
 30
0.0
 11
699.1386988370138
 21
620.8108586947449
 31
0.0
  0
LINE
  5
12AA
330
2
100
AcDbEntity
  8
CENTER
  6
CENS
100
AcDbLine
 10
713.0732660247028
 20
606.8762915070558
 30
0.0
 11
685.2041316493248
 21
606.8762915070558
 31
0.0
  0
CIRCLE
  5
12AB
330
2
100
AcDbEntity
  8
CENTER
100
AcDbCircle
 10
929.8369358578627
 20
346.9790239809131
 30
0.0
 40
45.0002755547118
  0
LINE
  5
12AC
330
2
100
AcDbEntity
  8
0
100
AcDbLine
 10
889.8369358577554
 20
346.9790239809131
 30
0.0
 11
888.3369358578718
 21
346.9790239809131
 31
0.0
  0
LINE
  5
12AD
330
2
100
AcDbEntity
  8
0
100
AcDbLine
 10
969.8369358578627
 20
346.9790239807274
 30
0.0
 11
971.3369358578535
 21
346.979023980882
 31
0.0
  0
LINE
  5
12AE
330
2
100
AcDbEntity
  8
0
100
AcDbLine
 10
95.41773335234916
 20
346.9790239809268
 30
0.0
 11
96.09909015024982
 21
386.0139287937978
 31
0.0
  0
LINE
  5
12AF
330
2
100
AcDbEntity
  8
0
100
AcDbLine
 10
58.80528291534915
 20
382.0662860131129
 30
0.0
 11
59.4177333522864
 21
346.9790239809268
 31
0.0
  0
ARC
  5
12B0
330
2
100
AcDbEntity
  8
0
100
AcDbCircle
 10
98.09878554056172
 20
307.9790239809263
 30
0.0
 40
2.0
100
AcDbArc
 50
181.0000000000017
 51
270.0
  0
LINE
  5
12B2
330
2
100
AcDbEntity
  8
0
100
AcDbLine
 10
95.41773335227459
 20
346.9790239809268
 30
0.0
 11
96.099090150248
 21
307.9441191680519
 31
0.0
  0
LINE
  5
12B3
330
2
100
AcDbEntity
  8
0
100
AcDbLine
 10
58.80528291534915
 20
311.8917619487402
 30
0.0
 11
59.41773335227276
 21
346.9790239809268
 31
0.0
  0
LINE
  5
12B4
330
2
100
AcDbEntity
  8
0
100
AcDbLine
 10
49.41773335227458
 20
306.9790239809268
 30
0.0
 11
94.9365078803928
 21
306.9790239809265
 31
0.0
  0
ARC
  5
12B5
330
2
100
AcDbEntity
  8
0
100
AcDbCircle
 10
76.5211756856022
 20
312.8790506849673
 30
0.0
 40
3.0
100
AcDbArc
 50
90.0
 51
178.9999999999982
  0
LINE
  5
12B6
330
2
100
AcDbEntity
  8
0
100
AcDbLine
 10
76.5211756856022
 20
315.8790506849673
 30
0.0
 11
63.87488129912686
 21
315.8790506849677
 31
0.0
  0
ARC
  5
12B7
330
2
100
AcDbEntity
  8
0
100
AcDbCircle
 10
53.80604443956667
 20
311.9790239809265
 30
0.0
 40
5.0
100
AcDbArc
 50
270.0
 51
358.9999999999982
  0
ARC
  5
12B8
330
2
100
AcDbEntity
  8
0
100
AcDbCircle
 10
71.45233882604202
 20
308.9790239809265
 30
0.0
 40
2.0
100
AcDbArc
 50
270.0
 51
358.9999999999982
  0
LINE
  5
12B9
330
2
100
AcDbEntity
  8
0
100
AcDbLine
 10
73.52073831353095
 20
312.8801742591391
 30
0.0
 11
73.45203421635574
 21
308.9441191680519
 31
0.0
  0
LINE
  5
12BA
330
2
100
AcDbEntity
  8
0
100
AcDbLine
 10
104.4177333522745
 20
305.9790239809265
 30
0.0
 11
98.09878554056172
 21
305.9790239809265
 31
0.0
  0
ARC
  5
12BB
330
2
100
AcDbEntity
  8
0
100
AcDbCircle
 10
98.09878554056172
 20
385.979023980927
 30
0.0
 40
2.0
100
AcDbArc
 50
90.0
 51
179.0000000001154
  0
LINE
  5
12BC
330
2
100
AcDbEntity
  8
0
100
AcDbLine
 10
49.41773335227458
 20
386.9790239809265
 30
0.0
 11
94.9365078803928
 21
386.9790239809267
 31
0.0
  0
ARC
  5
12BD
330
2
100
AcDbEntity
  8
0
100
AcDbCircle
 10
53.80604443956667
 20
381.9790239809265
 30
0.0
 40
5.0
100
AcDbArc
 50
1.000000000001775
 51
90.0
  0
LINE
  5
12BE
330
2
100
AcDbEntity
  8
0
100
AcDbLine
 10
104.4177333522727
 20
387.9790239809267
 30
0.0
 11
98.09878554056172
 21
387.979023980927
 31
0.0
  0
LINE
  5
12BF
330
2
100
AcDbEntity
  8
0
100
AcDbLine
 10
49.41773335227458
 20
386.9790239809265
 30
0.0
 11
49.41773335227458
 21
306.9790239809268
 31
0.0
  0
ARC
  5
12C0
330
2
100
AcDbEntity
  8
0
100
AcDbCircle
 10
94.9365078803928
 20
390.4790239809268
 30
0.0
 40
3.5
100
AcDbArc
 50
270.0
 51
305.0968012276141
  0
ARC
  5
12C1
330
2
100
AcDbEntity
  8
0
100
AcDbCircle
 10
94.9365078803928
 20
303.4790239809265
 30
0.0
 40
3.5
100
AcDbArc
 50
54.9031987723857
 51
90.0
  0
LINE
  5
12C2
330
2
100
AcDbEntity
  8
CENTER
  6
CENS
100
AcDbLine
 10
111.0225513520451
 20
381.6290239809268
 30
0.0
 11
84.02255135204518
 21
381.6290239809268
 31
0.0
  0
LINE
  5
12C3
330
2
100
AcDbEntity
  8
0
100
AcDbLine
 10
89.33527602741355
 20
376.6290239809269
 30
0.0
 11
89.33527602741355
 21
386.6290239809269
 31
0.0
  0
LINE
  5
12C4
330
2
100
AcDbEntity
  8
0
100
AcDbLine
 10
88.93527602741391
 20
385.9362036578994
 30
0.0
 11
88.93527602741391
 21
377.3218443039546
 31
0.0
  0
LINE
  5
12C5
330
2
100
AcDbEntity
  8
0
100
AcDbLine
 10
94.93527602741393
 20
376.6290239809269
 30
0.0
 11
94.93527602741393
 21
386.6290239809269
 31
0.0
  0
LINE
  5
12C6
330
2
100
AcDbEntity
  8
0
100
AcDbLine
 10
94.93527602741393
 20
386.6290239809269
 30
0.0
 11
95.93527602741392
 21
386.6290239809269
 31
0.0
  0
LINE
  5
12C7
330
2
100
AcDbEntity
  8
0
100
AcDbLine
 10
95.93527602741392
 20
386.6290239809269
 30
0.0
 11
95.93527602741392
 21
376.6290239809269
 31
0.0
  0
LINE
  5
12C8
330
2
100
AcDbEntity
  8
0
100
AcDbLine
 10
95.93527602741392
 20
376.6290239809269
 30
0.0
 11
94.93527602741393
 21
376.6290239809269
 31
0.0
  0
LINE
  5
12C9
330
2
100
AcDbEntity
  8
0
100
AcDbLine
 10
94.93527602741393
 20
376.6290239809269
 30
0.0
 11
94.93527602741393
 21
386.6290239809269
 31
0.0
  0
LINE
  5
12CA
330
2
100
AcDbEntity
  8
0
100
AcDbLine
 10
89.33527602741355
 20
376.6290239809269
 30
0.0
 11
94.93527602741393
 21
376.6290239809269
 31
0.0
  0
LINE
  5
12CB
330
2
100
AcDbEntity
  8
0
100
AcDbLine
 10
94.93527602741393
 20
386.6290239809269
 30
0.0
 11
89.33527602741355
 21
386.6290239809269
 31
0.0
  0
LINE
  5
12CC
330
2
100
AcDbEntity
  8
0
100
AcDbLine
 10
89.33527602741355
 20
386.6290239809269
 30
0.0
 11
88.93527602741391
 21
385.9362036578994
 31
0.0
  0
LINE
  5
12CD
330
2
100
AcDbEntity
  8
0
100
AcDbLine
 10
89.33527602741355
 20
376.6290239809266
 30
0.0
 11
88.93527602741391
 21
377.3218443039543
 31
0.0
  0
LINE
  5
12CE
330
2
100
AcDbEntity
  8
CENTER
  6
CENS
100
AcDbLine
 10
111.0225513520451
 20
312.3290239809267
 30
0.0
 11
84.02255135204518
 21
312.3290239809267
 31
0.0
  0
LINE
  5
12CF
330
2
100
AcDbEntity
  8
0
100
AcDbLine
 10
89.33527602741355
 20
317.3290239809267
 30
0.0
 11
89.33527602741355
 21
307.3290239809267
 31
0.0
  0
LINE
  5
12D0
330
2
100
AcDbEntity
  8
0
100
AcDbLine
 10
88.93527602741391
 20
308.0218443039541
 30
0.0
 11
88.93527602741391
 21
316.6362036578989
 31
0.0
  0
LINE
  5
12D1
330
2
100
AcDbEntity
  8
0
100
AcDbLine
 10
94.93527602741393
 20
317.3290239809267
 30
0.0
 11
94.93527602741393
 21
307.3290239809267
 31
0.0
  0
LINE
  5
12D2
330
2
100
AcDbEntity
  8
0
100
AcDbLine
 10
94.93527602741393
 20
307.3290239809267
 30
0.0
 11
95.93527602741392
 21
307.3290239809267
 31
0.0
  0
LINE
  5
12D3
330
2
100
AcDbEntity
  8
0
100
AcDbLine
 10
95.93527602741392
 20
307.3290239809267
 30
0.0
 11
95.93527602741392
 21
317.3290239809267
 31
0.0
  0
LINE
  5
12D4
330
2
100
AcDbEntity
  8
0
100
AcDbLine
 10
95.93527602741392
 20
317.3290239809267
 30
0.0
 11
94.93527602741393
 21
317.3290239809267
 31
0.0
  0
LINE
  5
12D5
330
2
100
AcDbEntity
  8
0
100
AcDbLine
 10
94.93527602741393
 20
317.3290239809267
 30
0.0
 11
94.93527602741393
 21
307.3290239809267
 31
0.0
  0
LINE
  5
12D6
330
2
100
AcDbEntity
  8
0
100
AcDbLine
 10
89.33527602741355
 20
317.3290239809267
 30
0.0
 11
94.93527602741393
 21
317.3290239809267
 31
0.0
  0
LINE
  5
12D7
330
2
100
AcDbEntity
  8
0
100
AcDbLine
 10
94.93527602741393
 20
307.3290239809267
 30
0.0
 11
89.33527602741355
 21
307.3290239809267
 31
0.0
  0
LINE
  5
12D8
330
2
100
AcDbEntity
  8
0
100
AcDbLine
 10
89.33527602741355
 20
307.3290239809267
 30
0.0
 11
88.93527602741391
 21
308.0218443039541
 31
0.0
  0
LINE
  5
12D9
330
2
100
AcDbEntity
  8
0
100
AcDbLine
 10
89.33527602741355
 20
317.3290239809269
 30
0.0
 11
88.93527602741391
 21
316.6362036578992
 31
0.0
  0
LINE
  5
12DA
330
2
100
AcDbEntity
  8
0
100
AcDbLine
 10
58.41773335231096
 20
390.9790239809265
 30
0.0
 11
68.41773335231096
 21
390.9790239809265
 31
0.0
  0
ARC
  5
12DB
330
2
100
AcDbEntity
  8
0
100
AcDbCircle
 10
68.41773335231096
 20
386.9790239809265
 30
0.0
 40
4.0
100
AcDbArc
 50
0.0
 51
90.0
  0
ARC
  5
12DC
330
2
100
AcDbEntity
  8
0
100
AcDbCircle
 10
58.41773335231096
 20
386.9790239809265
 30
0.0
 40
4.0
100
AcDbArc
 50
90.0
 51
180.0
  0
LINE
  5
12DD
330
2
100
AcDbEntity
  8
CENTER
  6
CENS
100
AcDbLine
 10
63.41773335231096
 20
396.1027084036318
 30
0.0
 11
63.41773335231096
 21
372.742782401265
 31
0.0
  0
CIRCLE
  5
12DE
330
2
100
AcDbEntity
  8
0
100
AcDbCircle
 10
929.8369358578627
 20
346.9790239809131
 30
0.0
 40
9.5
  0
ARC
  5
12DF
330
2
100
AcDbEntity
  8
0
100
AcDbCircle
 10
929.8369358578627
 20
346.9790239809131
 30
0.0
 40
10.6547005383793
100
AcDbArc
 50
4.036472082737907
 51
175.9635279172621
  0
ARC
  5
12E0
330
2
100
AcDbEntity
  8
0
100
AcDbCircle
 10
929.8369358578627
 20
346.9790239809131
 30
0.0
 40
10.6547005383793
100
AcDbArc
 50
184.0364720827509
 51
355.963527917249
  0
CIRCLE
  5
12E1
330
2
100
AcDbEntity
  8
0
100
AcDbCircle
 10
929.8369358578627
 20
346.9790239809131
 30
0.0
 40
29.0
  0
LINE
  5
12E2
330
2
100
AcDbEntity
  8
0
100
AcDbLine
 10
666.9490754470914
 20
357.8425409611109
 30
0.0
 11
666.4573420434078
 21
386.0139287937939
 31
0.0
  0
LINE
  5
12E3
330
2
100
AcDbEntity
  8
0
100
AcDbLine
 10
703.7511492783084
 20
382.066286013109
 30
0.0
 11
703.6891155755036
 21
378.5123775596701
 31
0.0
  0
ARC
  5
12E4
330
2
100
AcDbEntity
  8
0
100
AcDbCircle
 10
664.4576466530959
 20
307.9790239809224
 30
0.0
 40
2.0
100
AcDbArc
 50
270.0
 51
358.9999999999982
  0
LINE
  5
12E6
330
2
100
AcDbEntity
  8
0
100
AcDbLine
 10
667.138698841383
 20
346.9790239809229
 30
0.0
 11
666.4573420434096
 21
307.944119168048
 31
0.0
  0
LINE
  5
12E7
330
2
100
AcDbEntity
  8
0
100
AcDbLine
 10
703.7511492783084
 20
311.8917619487363
 30
0.0
 11
703.1386988413848
 21
346.9790239809229
 31
0.0
  0
LINE
  5
12E8
330
2
100
AcDbEntity
  8
0
100
AcDbLine
 10
713.138698841383
 20
306.9790239809229
 30
0.0
 11
667.6199243132648
 21
306.9790239809226
 31
0.0
  0
ARC
  5
12E9
330
2
100
AcDbEntity
  8
0
100
AcDbCircle
 10
708.750387754091
 20
311.9790239809227
 30
0.0
 40
5.0
100
AcDbArc
 50
181.0000000000017
 51
270.0
  0
LINE
  5
12EA
330
2
100
AcDbEntity
  8
0
100
AcDbLine
 10
658.138698841383
 20
305.9790239809227
 30
0.0
 11
664.4576466530959
 21
305.9790239809227
 31
0.0
  0
ARC
  5
12EB
330
2
100
AcDbEntity
  8
0
100
AcDbCircle
 10
664.4576466530959
 20
385.9790239809231
 30
0.0
 40
2.0
100
AcDbArc
 50
0.9999999998975358
 51
90.0
  0
LINE
  5
12EC
330
2
100
AcDbEntity
  8
0
100
AcDbLine
 10
713.138698841383
 20
386.9790239809227
 30
0.0
 11
667.6199243132648
 21
386.9790239809229
 31
0.0
  0
ARC
  5
12ED
330
2
100
AcDbEntity
  8
0
100
AcDbCircle
 10
708.750387754091
 20
381.9790239809226
 30
0.0
 40
5.0
100
AcDbArc
 50
90.0
 51
178.9999999999982
  0
LINE
  5
12EE
330
2
100
AcDbEntity
  8
0
100
AcDbLine
 10
658.1386988413848
 20
387.9790239809229
 30
0.0
 11
664.4576466530959
 21
387.9790239809231
 31
0.0
  0
LINE
  5
12EF
330
2
100
AcDbEntity
  8
0
100
AcDbLine
 10
713.138698841383
 20
386.9790239809227
 30
0.0
 11
713.138698841383
 21
306.9790239809229
 31
0.0
  0
ARC
  5
12F0
330
2
100
AcDbEntity
  8
0
100
AcDbCircle
 10
667.6199243132648
 20
390.4790239809229
 30
0.0
 40
3.5
100
AcDbArc
 50
234.9031987723859
 51
270.0
  0
ARC
  5
12F1
330
2
100
AcDbEntity
  8
0
100
AcDbCircle
 10
667.6199243132648
 20
303.4790239809227
 30
0.0
 40
3.5
100
AcDbArc
 50
90.0
 51
125.0968012276142
  0
LINE
  5
12F2
330
2
100
AcDbEntity
  8
CENTER
  6
CENS
100
AcDbLine
 10
651.5338808416125
 20
381.629023980923
 30
0.0
 11
678.5338808416124
 21
381.629023980923
 31
0.0
  0
LINE
  5
12F3
330
2
100
AcDbEntity
  8
0
100
AcDbLine
 10
673.2211561662441
 20
376.629023980923
 30
0.0
 11
673.2211561662441
 21
386.629023980923
 31
0.0
  0
LINE
  5
12F4
330
2
100
AcDbEntity
  8
0
100
AcDbLine
 10
673.6211561662437
 20
385.9362036578955
 30
0.0
 11
673.6211561662437
 21
377.3218443039507
 31
0.0
  0
LINE
  5
12F5
330
2
100
AcDbEntity
  8
0
100
AcDbLine
 10
667.6211561662437
 20
376.629023980923
 30
0.0
 11
667.6211561662437
 21
386.629023980923
 31
0.0
  0
LINE
  5
12F6
330
2
100
AcDbEntity
  8
0
100
AcDbLine
 10
667.6211561662437
 20
386.629023980923
 30
0.0
 11
666.6211561662437
 21
386.629023980923
 31
0.0
  0
LINE
  5
12F7
330
2
100
AcDbEntity
  8
0
100
AcDbLine
 10
666.6211561662437
 20
386.629023980923
 30
0.0
 11
666.6211561662437
 21
376.629023980923
 31
0.0
  0
LINE
  5
12F8
330
2
100
AcDbEntity
  8
0
100
AcDbLine
 10
666.6211561662437
 20
376.629023980923
 30
0.0
 11
667.6211561662437
 21
376.629023980923
 31
0.0
  0
LINE
  5
12F9
330
2
100
AcDbEntity
  8
0
100
AcDbLine
 10
667.6211561662437
 20
376.629023980923
 30
0.0
 11
667.6211561662437
 21
386.629023980923
 31
0.0
  0
LINE
  5
12FA
330
2
100
AcDbEntity
  8
0
100
AcDbLine
 10
673.2211561662441
 20
376.629023980923
 30
0.0
 11
667.6211561662437
 21
376.629023980923
 31
0.0
  0
LINE
  5
12FB
330
2
100
AcDbEntity
  8
0
100
AcDbLine
 10
667.6211561662437
 20
386.629023980923
 30
0.0
 11
673.2211561662441
 21
386.629023980923
 31
0.0
  0
LINE
  5
12FC
330
2
100
AcDbEntity
  8
0
100
AcDbLine
 10
673.2211561662441
 20
386.629023980923
 30
0.0
 11
673.6211561662437
 21
385.9362036578955
 31
0.0
  0
LINE
  5
12FD
330
2
100
AcDbEntity
  8
0
100
AcDbLine
 10
673.2211561662441
 20
376.6290239809228
 30
0.0
 11
673.6211561662437
 21
377.3218443039505
 31
0.0
  0
LINE
  5
12FE
330
2
100
AcDbEntity
  8
CENTER
  6
CENS
100
AcDbLine
 10
651.5338808416125
 20
312.3290239809228
 30
0.0
 11
678.5338808416124
 21
312.3290239809228
 31
0.0
  0
LINE
  5
12FF
330
2
100
AcDbEntity
  8
0
100
AcDbLine
 10
673.2211561662441
 20
317.3290239809228
 30
0.0
 11
673.2211561662441
 21
307.3290239809228
 31
0.0
  0
LINE
  5
1300
330
2
100
AcDbEntity
  8
0
100
AcDbLine
 10
673.6211561662437
 20
308.0218443039503
 30
0.0
 11
673.6211561662437
 21
316.6362036578951
 31
0.0
  0
LINE
  5
1301
330
2
100
AcDbEntity
  8
0
100
AcDbLine
 10
667.6211561662437
 20
317.3290239809228
 30
0.0
 11
667.6211561662437
 21
307.3290239809228
 31
0.0
  0
LINE
  5
1302
330
2
100
AcDbEntity
  8
0
100
AcDbLine
 10
667.6211561662437
 20
307.3290239809228
 30
0.0
 11
666.6211561662437
 21
307.3290239809228
 31
0.0
  0
LINE
  5
1303
330
2
100
AcDbEntity
  8
0
100
AcDbLine
 10
666.6211561662437
 20
307.3290239809228
 30
0.0
 11
666.6211561662437
 21
317.3290239809228
 31
0.0
  0
LINE
  5
1304
330
2
100
AcDbEntity
  8
0
100
AcDbLine
 10
666.6211561662437
 20
317.3290239809228
 30
0.0
 11
667.6211561662437
 21
317.3290239809228
 31
0.0
  0
LINE
  5
1305
330
2
100
AcDbEntity
  8
0
100
AcDbLine
 10
667.6211561662437
 20
317.3290239809228
 30
0.0
 11
667.6211561662437
 21
307.3290239809228
 31
0.0
  0
LINE
  5
1306
330
2
100
AcDbEntity
  8
0
100
AcDbLine
 10
673.2211561662441
 20
317.3290239809228
 30
0.0
 11
667.6211561662437
 21
317.3290239809228
 31
0.0
  0
LINE
  5
1307
330
2
100
AcDbEntity
  8
0
100
AcDbLine
 10
667.6211561662437
 20
307.3290239809228
 30
0.0
 11
673.2211561662441
 21
307.3290239809228
 31
0.0
  0
LINE
  5
1308
330
2
100
AcDbEntity
  8
0
100
AcDbLine
 10
673.2211561662441
 20
307.3290239809228
 30
0.0
 11
673.6211561662437
 21
308.0218443039503
 31
0.0
  0
LINE
  5
1309
330
2
100
AcDbEntity
  8
0
100
AcDbLine
 10
673.2211561662441
 20
317.329023980923
 30
0.0
 11
673.6211561662437
 21
316.6362036578953
 31
0.0
  0
LINE
  5
130A
330
2
100
AcDbEntity
  8
0
100
AcDbLine
 10
713.138698841383
 20
381.9790239809229
 30
0.0
 11
706.138698841383
 21
381.9790239809229
 31
0.0
  0
LINE
  5
130B
330
2
100
AcDbEntity
  8
0
100
AcDbLine
 10
706.138698841383
 20
381.9790239809229
 30
0.0
 11
706.138698841383
 21
346.9790239809229
 31
0.0
  0
LINE
  5
130C
330
2
100
AcDbEntity
  8
0
100
AcDbLine
 10
706.138698841383
 20
366.7290239809229
 30
0.0
 11
706.1386988413849
 21
346.9790239809229
 31
0.0
  0
SPLINE
  5
130D
330
2
100
AcDbEntity
  8
HOJO
100
AcDbSpline
210
0.0
220
0.0
230
1.0
 70
     8
 71
     3
 72
    20
 73
    16
 74
     0
 42
0.0000000001
 43
0.0000000001
 40
1.102548511336045
 40
1.102548511336045
 40
1.102548511336045
 40
1.102548511336045
 40
5.647385924430076
 40
9.759277458584113
 40
14.59638394258456
 40
18.6386056126129
 40
22.25598020257161
 40
26.57819511411361
 40
31.00332353479096
 40
40.39337194914635
 40
45.49899296170218
 40
52.02718752358933
 40
57.17041693382338
 40
65.63449353306062
 40
69.3611614947018
 40
69.3611614947018
 40
69.3611614947018
 40
69.3611614947018
 10
709.549450763692
 20
386.9790239809227
 30
0.0
 10
708.1406632432988
 20
386.2505965312346
 30
0.0
 10
705.6279772815393
 20
384.7198839090763
 30
0.0
 10
704.3070510354116
 20
380.1553612517221
 30
0.0
 10
703.1571417098636
 20
376.7637917572035
 30
0.0
 10
699.6693852978749
 20
373.0900265459593
 30
0.0
 10
697.9975501215119
 20
369.5646664159801
 30
0.0
 10
696.0203035610573
 20
366.0139497184853
 30
0.0
 10
692.6325222484936
 20
360.424905130031
 30
0.0
 10
685.1081632041784
 20
360.6004815776226
 30
0.0
 10
678.3798238475299
 20
359.4541110441249
 30
0.0
 10
673.0365573021224
 20
358.7174959606516
 30
0.0
 10
666.037776787736
 20
358.9874750002371
 30
0.0
 10
662.3230439885117
 20
351.9133333229656
 30
0.0
 10
661.001202549716
 20
348.1434268297896
 30
0.0
 10
660.5885297766069
 20
346.9790239809229
 30
0.0
  0
LINE
  5
130E
330
2
100
AcDbEntity
  8
0
100
AcDbLine
 10
704.1386988413466
 20
390.9790239809227
 30
0.0
 11
694.1386988413467
 21
390.9790239809227
 31
0.0
  0
ARC
  5
130F
330
2
100
AcDbEntity
  8
0
100
AcDbCircle
 10
694.1386988413467
 20
386.9790239809227
 30
0.0
 40
4.0
100
AcDbArc
 50
90.0
 51
180.0
  0
ARC
  5
1310
330
2
100
AcDbEntity
  8
0
100
AcDbCircle
 10
704.1386988413466
 20
386.9790239809227
 30
0.0
 40
4.0
100
AcDbArc
 50
0.0
 51
90.0
  0
LINE
  5
1311
330
2
100
AcDbEntity
  8
CENTER
  6
CENS
100
AcDbLine
 10
699.1386988413466
 20
396.102708403628
 30
0.0
 11
699.1386988413466
 21
372.7427824012611
 31
0.0
  0
ARC
  5
1312
330
2
100
AcDbEntity
  8
0
100
AcDbCircle
 10
686.0352565080554
 20
381.0789972768823
 30
0.0
 40
3.0
100
AcDbArc
 50
270.0
 51
358.9999999999982
  0
LINE
  5
1313
330
2
100
AcDbEntity
  8
0
100
AcDbLine
 10
686.0352565080554
 20
378.0789972768823
 30
0.0
 11
698.6815508945308
 21
378.0789972768819
 31
0.0
  0
ARC
  5
1314
330
2
100
AcDbEntity
  8
0
100
AcDbCircle
 10
691.1040933676156
 20
384.9790239809231
 30
0.0
 40
2.0
100
AcDbArc
 50
90.0
 51
178.9999999999982
  0
LINE
  5
1315
330
2
100
AcDbEntity
  8
0
100
AcDbLine
 10
689.0356938801267
 20
381.0778737027106
 30
0.0
 11
689.1043979773018
 21
385.0139287937977
 31
0.0
  0
LINE
  5
1316
330
2
100
AcDbEntity
  8
0
100
AcDbLine
 10
706.138698841383
 20
381.9790239809229
 30
0.0
 11
706.138698841383
 21
346.9790239809229
 31
0.0
  0
LINE
  5
1317
330
2
100
AcDbEntity
  8
0
100
AcDbLine
 10
706.138698841383
 20
366.7290239809229
 30
0.0
 11
706.1386988413849
 21
346.9790239809229
 31
0.0
  0
LINE
  5
1318
330
2
100
AcDbEntity
  8
0
100
AcDbLine
 10
706.138698841383
 20
366.7290239809229
 30
0.0
 11
696.4008942708658
 21
366.7290239809229
 31
0.0
  0
LINE
  5
1319
330
2
100
AcDbEntity
  8
0
100
AcDbLine
 10
704.138698841383
 20
356.4790239809229
 30
0.0
 11
693.138698841383
 21
356.4790239809229
 31
0.0
  0
LINE
  5
131A
330
2
100
AcDbEntity
  8
0
100
AcDbLine
 10
674.638698841383
 20
356.7290239809229
 30
0.0
 11
674.638698841383
 21
346.9790239809229
 31
0.0
  0
LINE
  5
131B
330
2
100
AcDbEntity
  8
0
100
AcDbLine
 10
674.638698841383
 20
356.7290239809229
 30
0.0
 11
668.638698841383
 21
356.7290239809229
 31
0.0
  0
LINE
  5
131C
330
2
100
AcDbEntity
  8
0
100
AcDbLine
 10
668.638698841383
 20
356.7290239809229
 30
0.0
 11
668.638698841383
 21
346.9790239809229
 31
0.0
  0
LINE
  5
131D
330
2
100
AcDbEntity
  8
0
100
AcDbLine
 10
691.1386988413831
 20
361.2544342016179
 30
0.0
 11
691.1386988413831
 21
346.9790239809229
 31
0.0
  0
LINE
  5
131E
330
2
100
AcDbEntity
  8
0
100
AcDbLine
 10
693.138698841383
 20
362.3081675419996
 30
0.0
 11
693.138698841383
 21
346.9790239809229
 31
0.0
  0
LINE
  5
131F
330
2
100
AcDbEntity
  8
0
100
AcDbLine
 10
691.1386988413831
 20
356.4790239809229
 30
0.0
 11
674.638698841383
 21
356.4790239809229
 31
0.0
  0
LINE
  5
1320
330
2
100
AcDbEntity
  8
0
100
AcDbLine
 10
706.138698841383
 20
357.6337245193022
 30
0.0
 11
704.138698841383
 21
356.4790239809229
 31
0.0
  0
LINE
  5
1321
330
2
100
AcDbEntity
  8
0
100
AcDbLine
 10
704.138698841383
 20
356.4790239809229
 30
0.0
 11
704.138698841383
 21
346.9790239809229
 31
0.0
  0
LINE
  5
1322
330
2
100
AcDbEntity
  8
0
100
AcDbLine
 10
668.638698841383
 20
355.9790239809229
 30
0.0
 11
663.4425464186768
 21
346.9790239809227
 31
0.0
  0
LINE
  5
1323
330
2
100
AcDbEntity
  8
0
100
AcDbLine
 10
706.138698841383
 20
375.9790239809229
 30
0.0
 11
702.2290454926057
 21
375.9790239809229
 31
0.0
  0
LINE
  5
1324
330
2
100
AcDbEntity
  8
0
100
AcDbLine
 10
923.5750186475604
 20
388.4026591369004
 30
0.0
 11
929.8369358578609
 21
388.4790239809286
 31
0.0
  0
TEXT
  5
1325
330
2
100
AcDbEntity
  8
TITLE
100
AcDbText
 10
281.6793496655668
 20
615.8863740330177
 30
0.0
 40
7.5
  1
AFCZ18S-3~5M750S2
100
AcDbText
  0
TEXT
  5
1326
330
2
100
AcDbEntity
  8
TITLE
100
AcDbText
 10
281.6793496655668
 20
604.3863740330177
 30
0.0
 40
7.5
  1
AFCZ18S-3~5L750S2
100
AcDbText
  0
LINE
  5
196E
330
2
100
AcDbEntity
  8
PHAS
  6
SEKKEI_P_S
100
AcDbLine
 10
315.665625979693
 20
318.4790239809082
 30
0.0
 11
315.665625979693
 21
375.4790239809082
 31
0.0
  0
LINE
  5
196F
330
2
100
AcDbEntity
  8
PHAS
  6
SEKKEI_P_S
100
AcDbLine
 10
290.165625979693
 20
333.9429219809082
 30
0.0
 11
290.165625979693
 21
360.0151017389972
 31
0.0
  0
LINE
  5
1970
330
2
100
AcDbEntity
  8
PHAS
  6
SEKKEI_P_S
100
AcDbLine
 10
305.8656259796932
 20
321.5981754065525
 30
0.0
 11
305.8656259796932
 21
372.3598725552648
 31
0.0
  0
LINE
  5
1971
330
2
100
AcDbEntity
  8
PHAS
  6
SEKKEI_P_S
100
AcDbLine
 10
315.665625979693
 20
318.4790239809082
 30
0.0
 11
308.8132687603813
 21
318.5986323210828
 31
0.0
  0
ARC
  5
1972
330
2
100
AcDbEntity
  8
PHAS
  6
SEKKEI_P_S
100
AcDbCircle
 10
304.8656259796932
 20
326.139930813567
 30
0.0
 40
1.0
100
AcDbArc
 50
0.0
 51
79.99956533742561
  0
ARC
  5
1973
330
2
100
AcDbEntity
  8
PHAS
  6
SEKKEI_P_S
100
AcDbCircle
 10
308.8656259796932
 20
321.5981754065525
 30
0.0
 40
3.0
100
AcDbArc
 50
180.0
 51
268.9999999999982
  0
LINE
  5
1974
330
2
100
AcDbEntity
  8
PHAS
  6
SEKKEI_P_S
100
AcDbLine
 10
294.2973477361809
 20
329.0189140446301
 30
0.0
 11
305.0392816283954
 21
327.1247372492053
 31
0.0
  0
ARC
  5
1975
330
2
100
AcDbEntity
  8
PHAS
  6
SEKKEI_P_S
100
AcDbCircle
 10
295.165625979693
 20
333.94294622282
 30
0.0
 40
5.0
100
AcDbArc
 50
180.0
 51
259.9995653374256
  0
LINE
  5
1976
330
2
100
AcDbEntity
  8
PHAS
  6
SEKKEI_P_S
100
AcDbLine
 10
305.039267979693
 20
327.1247149809079
 30
0.0
 11
305.0456277911555
 21
327.1235937106413
 31
0.0
  0
LINE
  5
1977
330
2
100
AcDbEntity
  8
PHAS
  6
SEKKEI_P_S
100
AcDbLine
 10
315.665625979693
 20
375.4790239809082
 30
0.0
 11
308.8132687603813
 21
375.3594156407344
 31
0.0
  0
LINE
  5
1978
330
2
100
AcDbEntity
  8
PHAS
  6
SEKKEI_P_S
100
AcDbLine
 10
294.2973477361809
 20
364.9391339171862
 30
0.0
 11
305.0392816283954
 21
366.8333107126119
 31
0.0
  0
ARC
  5
1979
330
2
100
AcDbEntity
  8
PHAS
  6
SEKKEI_P_S
100
AcDbCircle
 10
295.165625979693
 20
360.0151017389972
 30
0.0
 40
5.0
100
AcDbArc
 50
100.0004346625743
 51
180.0
  0
ARC
  5
197A
330
2
100
AcDbEntity
  8
PHAS
  6
SEKKEI_P_S
100
AcDbCircle
 10
304.8592798169327
 20
367.8169736096862
 30
0.0
 40
1.0
100
AcDbArc
 50
280.0004346625744
 51
0.0
  0
ARC
  5
197B
330
2
100
AcDbEntity
  8
PHAS
  6
SEKKEI_P_S
100
AcDbCircle
 10
308.8656259796946
 20
372.3598725552639
 30
0.0
 40
3.0
100
AcDbArc
 50
91.00000000000177
 51
180.0
  0
CIRCLE
  5
1E47
330
2
100
AcDbEntity
  8
0
100
AcDbCircle
 10
573.1386988413958
 20
346.9790239809236
 30
0.0
 40
23.5774
  0
ENDSEC
  0
SECTION
  2
OBJECTS
  0
DICTIONARY
  5
7
330
0
100
AcDbDictionary
  3
ACAD_COLOR
350
1D99
  3
ACAD_GROUP
350
75
  3
ACAD_LAYOUT
350
61
  3
ACAD_MATERIAL
350
1D6F
  3
ACAD_MLEADERSTYLE
350
1DBE
  3
ACAD_MLINESTYLE
350
76
  3
ACAD_PLOTSETTINGS
350
77
  3
ACAD_PLOTSTYLENAME
350
6
  3
ACAD_SCALELIST
350
1D9C
  3
ACAD_TABLESTYLE
350
1D9A
  3
ACAD_VISUALSTYLE
350
1D88
  3
ACADDIM
350
480
  3
ACDB_RECOMPOSE_DATA
350
1DFB
  3
ACDBHEADERROUNDTRIPXREC
350
1E8B
  3
ACDBVARIABLEDICTIONARY
350
102
  3
DWGPROPS
350
1E57
  0
DICTIONARY
  5
1E04
330
6E
100
AcDbDictionary
280
     1
  3
ACAD_XREC_ROUNDTRIP
360
1E5E
  0
DICTIONARY
  5
ADB
330
66
100
AcDbDictionary
280
     1
  3
ACAD_LAYERSTATES
360
ADC
  0
DICTIONARY
  5
1DC3
330
5E
100
AcDbDictionary
280
     1
  3
ACAD_XREC_ROUNDTRIP
360
1E5A
  3
ADSK_XREC_LAYER_RECONCILED
360
1DC4
  0
DICTIONARY
  5
1DC5
330
3E
100
AcDbDictionary
280
     1
  3
ACAD_XREC_ROUNDTRIP
360
1E59
  3
ADSK_XREC_LAYER_RECONCILED
360
1DC6
  0
DICTIONARY
  5
1DCB
330
2B5
100
AcDbDictionary
280
     1
  3
ACAD_XREC_ROUNDTRIP
360
1E64
  3
ADSK_XREC_LAYER_RECONCILED
360
1DCC
  0
DICTIONARY
  5
1DCD
330
2BA
100
AcDbDictionary
280
     1
  3
ACAD_XREC_ROUNDTRIP
360
1E65
  3
ADSK_XREC_LAYER_RECONCILED
360
1DCE
  0
DICTIONARY
  5
1DD1
330
3FA
100
AcDbDictionary
280
     1
  3
ACAD_XREC_ROUNDTRIP
360
1E67
  3
ADSK_XREC_LAYER_RECONCILED
360
1DD2
  0
DICTIONARY
  5
1957
330
1956
100
AcDbDictionary
280
     1
  3
ACAD_XREC_ROUNDTRIP
360
1E6A
  3
ADSK_XREC_LAYER_RECONCILED
360
1959
  0
DICTIONARY
  5
1EAC
330
2
100
AcDbDictionary
280
     1
  3
ACAD_LAYOUTSELFREF
360
1EAD
  0
DICTIONARY
  5
1EAE
330
1E85
100
AcDbDictionary
280
     1
  3
ACAD_LAYOUTSELFREF
360
1EAF
  0
DICTIONARY
  5
1D99
102
{ACAD_REACTORS
330
7
102
}
330
7
100
AcDbDictionary
  0
DICTIONARY
  5
75
102
{ACAD_REACTORS
330
7
102
}
330
7
100
AcDbDictionary
  0
DICTIONARY
  5
61
102
{ACAD_REACTORS
330
7
102
}
330
7
100
AcDbDictionary
  0
DICTIONARY
  5
1D6F
102
{ACAD_REACTORS
330
7
102
}
330
7
100
AcDbDictionary
  3
BYBLOCK
350
1D78
  3
BYLAYER
350
1D70
  3
GLOBAL
350
1D80
  0
DICTIONARY
  5
1DBE
102
{ACAD_REACTORS
330
7
102
}
330
7
100
AcDbDictionary
  3
STANDARD
350
1DBF
  0
DICTIONARY
  5
76
102
{ACAD_REACTORS
330
7
102
}
330
7
100
AcDbDictionary
  3
STANDARD
350
78
  0
DICTIONARY
  5
77
102
{ACAD_REACTORS
330
7
102
}
330
7
100
AcDbDictionary
  0
ACDBDICTIONARYWDFLT
  5
6
102
{ACAD_REACTORS
330
7
102
}
330
7
100
AcDbDictionary
281
     1
  3
Normal
350
5
100
AcDbDictionaryWithDefault
340
5
  0
DICTIONARY
  5
1D9C
102
{ACAD_REACTORS
330
7
102
}
330
7
100
AcDbDictionary
  3
A0
350
1D9D
  3
A1
350
1D9E
  3
A2
350
1D9F
  3
A3
350
1DA0
  3
A4
350
1DA1
  3
A5
350
1DA2
  3
A6
350
1DA3
  3
A7
350
1DA4
  3
A8
350
1DA5
  3
A9
350
1DA6
  3
B0
350
1DA7
  3
B1
350
1DA8
  3
B2
350
1DA9
  3
B3
350
1DAA
  3
B4
350
1DAB
  3
B5
350
1DAC
  3
B6
350
1DAD
  3
B7
350
1DAE
  3
B8
350
1DAF
  3
B9
350
1DB0
  3
C0
350
1DB1
  3
C1
350
1DB2
  3
C2
350
1DB3
  3
C3
350
1DB4
  3
C4
350
1DB5
  3
C5
350
1DB6
  3
C6
350
1DB7
  3
C7
350
1DB8
  3
C8
350
1DB9
  3
C9
350
1DBA
  3
D0
350
1DBB
  3
D1
350
1DBC
  3
D2
350
1DBD
  0
DICTIONARY
  5
1D9A
102
{ACAD_REACTORS
330
7
102
}
330
7
100
AcDbDictionary
  3
STANDARD
350
1D9B
  0
DICTIONARY
  5
1D88
102
{ACAD_REACTORS
330
7
102
}
330
7
100
AcDbDictionary
  3
2DWIREFRAME
350
1D8E
  3
3D_HIDDEN
350
1D90
  3
3DWIREFRAME
350
1D8F
  3
BASIC
350
1D8D
  3
BRIGHTEN
350
1D94
  3
COLORCHANGE
350
1D98
  3
CONCEPTUAL
350
1D91
  3
DIM
350
1D93
  3
FACEPATTERN
350
1D97
  3
FLAT
350
1D89
  3
FLATWITHEDGES
350
1D8A
  3
GOURAUD
350
1D8B
  3
GOURAUDWITHEDGES
350
1D8C
  3
LINEPATTERN
350
1D96
  3
REALISTIC
350
1D92
  3
THICKEN
350
1D95
  0
XRECORD
  5
480
102
{ACAD_REACTORS
330
7
102
}
330
7
100
AcDbXrecord
 90
   990106
  3

 60
     0
 61
     0
 62
     1
 63
     3
 64
     1
 65
     0
 66
     0
 67
     3
 68
     1
 69
     0
 70
     0
 71
     0
 72
     0
 40
0.0
170
     2
340
0
  0
XRECORD
  5
1DFB
102
{ACAD_REACTORS
330
7
102
}
330
7
100
AcDbXrecord
 90
        1
330
1D9B
  0
DICTIONARY
  5
1E8B
102
{ACAD_REACTORS
330
7
102
}
330
7
100
AcDbDictionary
  3
CEPSNTYPE
350
1E95
  3
DIMSTYLEDATA
350
1E99
  3
FINGERPRINTGUID
350
1E96
  3
HYPERLINKBASE
350
1E8E
  3
INSUNITS
350
1E94
  3
LAYOUTDICT
350
1E90
  3
LWETCUNION
350
1E93
  3
PLOTSETDICT
350
1E91
  3
PLOTSTYLNAMDICT
350
1E92
  3
PSVPSCALE
350
1E98
  3
PUCSBASE
350
1E9C
  3
PUCSORGBACK
350
1EA2
  3
PUCSORGBOTTOM
350
1E9E
  3
PUCSORGFRONT
350
1EA1
  3
PUCSORGLEFT
350
1E9F
  3
PUCSORGRIGHT
350
1EA0
  3
PUCSORGTOP
350
1E9D
  3
PUCSORTHOREF
350
1E9A
  3
PUCSORTHOVIEW
350
1E9B
  3
STYLESHEET
350
1E8F
  3
TSTACKALIGN
350
1E8C
  3
TSTACKSIZE
350
1E8D
  3
UCSBASE
350
1EA5
  3
UCSORGBACK
350
1EAB
  3
UCSORGBOTTOM
350
1EA7
  3
UCSORGFRONT
350
1EAA
  3
UCSORGLEFT
350
1EA8
  3
UCSORGRIGHT
350
1EA9
  3
UCSORGTOP
350
1EA6
  3
UCSORTHOREF
350
1EA3
  3
UCSORTHOVIEW
350
1EA4
  3
VERSIONGUID
350
1E97
  0
DICTIONARY
  5
102
102
{ACAD_REACTORS
330
7
102
}
330
7
100
AcDbDictionary
  3
CANNOSCALE
350
1E1C
  3
CMLEADERSTYLE
350
1E1B
  3
CTABLESTYLE
350
1E1A
  3
DIMASSOC
350
103
  3
INDEXCTL
350
1E1D
  3
SORTENTS
350
549
  0
XRECORD
  5
1E57
102
{ACAD_REACTORS
330
7
102
}
330
7
100
AcDbXrecord
  1
DWGPROPS COOKIE
  2

  3

  4

  6

  7

  8
ymorima
  9

300
=
301
=
302
=
303
=
304
=
305
=
306
=
307
=
308
=
309
=
 40
0.0131519444444445
 41
2454410.729626366
 42
2454425.679157257
  1

 90
        0
  0
XRECORD
  5
1E5E
102
{ACAD_REACTORS
330
1E04
102
}
330
1E04
100
AcDbXrecord
102
VTR_0.000_0.000_1.000_1.000_VISUALSTYLE
340
1D8E
102
VTR_0.000_0.000_1.000_1.000_GRIDDISPLAY
 70
     3
102
VTR_0.000_0.000_1.000_1.000_GRIDMAJOR
 70
     5
102
VTR_0.000_0.000_1.000_1.000_DEFAULTLIGHTING
280
     1
102
VTR_0.000_0.000_1.000_1.000_DEFAULTLIGHTINGTYPE
 70
     1
102
VTR_0.000_0.000_1.000_1.000_BRIGHTNESS
141
0.0
102
VTR_0.000_0.000_1.000_1.000_CONTRAST
142
0.0
  0
DICTIONARY
  5
ADC
102
{ACAD_REACTORS
330
ADB
102
}
330
ADB
100
AcDbDictionary
  0
XRECORD
  5
1E5A
102
{ACAD_REACTORS
330
1DC3
102
}
330
1DC3
100
AcDbXrecord
102
MATERIAL
340
1D80
  0
XRECORD
  5
1DC4
102
{ACAD_REACTORS
330
1DC3
102
}
330
1DC3
100
AcDbXrecord
290
     1
  0
XRECORD
  5
1E59
102
{ACAD_REACTORS
330
1DC5
102
}
330
1DC5
100
AcDbXrecord
102
MATERIAL
340
1D80
  0
XRECORD
  5
1DC6
102
{ACAD_REACTORS
330
1DC5
102
}
330
1DC5
100
AcDbXrecord
290
     1
  0
XRECORD
  5
1E64
102
{ACAD_REACTORS
330
1DCB
102
}
330
1DCB
100
AcDbXrecord
102
MATERIAL
340
1D80
  0
XRECORD
  5
1DCC
102
{ACAD_REACTORS
330
1DCB
102
}
330
1DCB
100
AcDbXrecord
290
     1
  0
XRECORD
  5
1E65
102
{ACAD_REACTORS
330
1DCD
102
}
330
1DCD
100
AcDbXrecord
102
MATERIAL
340
1D80
  0
XRECORD
  5
1DCE
102
{ACAD_REACTORS
330
1DCD
102
}
330
1DCD
100
AcDbXrecord
290
     1
  0
XRECORD
  5
1E67
102
{ACAD_REACTORS
330
1DD1
102
}
330
1DD1
100
AcDbXrecord
102
MATERIAL
340
1D80
  0
XRECORD
  5
1DD2
102
{ACAD_REACTORS
330
1DD1
102
}
330
1DD1
100
AcDbXrecord
290
     1
  0
XRECORD
  5
1E6A
102
{ACAD_REACTORS
330
1957
102
}
330
1957
100
AcDbXrecord
102
MATERIAL
340
1D80
  0
XRECORD
  5
1959
102
{ACAD_REACTORS
330
1957
102
}
330
1957
100
AcDbXrecord
290
     1
  0
XRECORD
  5
1EAD
102
{ACAD_REACTORS
330
1EAC
102
}
330
1EAC
100
AcDbXrecord
340
2
  0
XRECORD
  5
1EAF
102
{ACAD_REACTORS
330
1EAE
102
}
330
1EAE
100
AcDbXrecord
340
1E85
  0
ACAD_PROXY_OBJECT
  5
1D78
102
{ACAD_XDICTIONARY
360
1D79
102
}
102
{ACAD_REACTORS
330
1D6F
102
}
330
1D6F
100
AcDbProxyObject
 90
      499
 91
      510
 93
     1340
310
42109E509B1BD8DAC02004014080404555555555555953FAA155555555555654FEA9AA400014080404555555555555953FAA155555555555654FEA9AA400000000000000E03F4080404555555555555953FAA155555555555654FEA9AA4014080404555555555555953FAA155555555555654FEA9AA4010201011555555555
310
55654FEA8555555555555953FAA6A9005020101155555555555654FEA8555555555555953FAA6A9000
 94
        0
1001
ACAD
1000
AcadProxyRoundTripData
1071
      504
1071
   655383
1070
     0
  0
ACAD_PROXY_OBJECT
  5
1D70
102
{ACAD_XDICTIONARY
360
1D71
102
}
102
{ACAD_REACTORS
330
1D6F
102
}
330
1D6F
100
AcDbProxyObject
 90
      499
 91
      510
 93
     1340
310
42109E53185E595C802004014080404555555555555953FAA155555555555654FEA9AA400014080404555555555555953FAA155555555555654FEA9AA400000000000000E03F4080404555555555555953FAA155555555555654FEA9AA4014080404555555555555953FAA155555555555654FEA9AA4010201011555555555
310
55654FEA8555555555555953FAA6A9005020101155555555555654FEA8555555555555953FAA6A9000
 94
        0
1001
ACAD
1000
AcadProxyRoundTripData
1071
      504
1071
   655383
1070
     0
  0
ACAD_PROXY_OBJECT
  5
1D80
102
{ACAD_XDICTIONARY
360
1D81
102
}
102
{ACAD_REACTORS
330
1D6F
102
}
330
1D6F
100
AcDbProxyObject
 90
      499
 91
      510
 93
     1332
310
41D1DB1BD8985B002004014080404555555555555953FAA155555555555654FEA9AA400014080404555555555555953FAA155555555555654FEA9AA400000000000000E03F4080404555555555555953FAA155555555555654FEA9AA4014080404555555555555953FAA155555555555654FEA9AA401020101155555555555
310
654FEA8555555555555953FAA6A9005020101155555555555654FEA8555555555555953FAA6A9000
 94
        0
1001
ACAD
1000
AcadProxyRoundTripData
1071
      504
1071
   655383
1070
     0
  0
ACAD_PROXY_OBJECT
  5
1DBF
102
{ACAD_REACTORS
330
1DBE
102
}
330
1DBE
100
AcDbProxyObject
 90
      499
 91
      510
 93
      618
310
40901902A4063FBFFFFFE056BD1B81E855B9FC0AD7A3703D0AD73F4254DD185B99185C990000AD7A3703D0AC73F90141901A02B5E8DC0F42B1CFC02B5E8DC0F42B1CFE5764000000000000300FC6
340
6A
340
0
340
16
340
0
 94
        0
1001
ACAD_MLEADERVER
1070
     2
1001
ACAD
1000
AcadProxyRoundTripData
1071
      508
1071
   655383
1070
     0
  0
MLINESTYLE
  5
78
102
{ACAD_REACTORS
330
76
102
}
330
76
100
AcDbMlineStyle
  2
STANDARD
 70
     0
  3

 62
     0
 51
90.0
 52
90.0
 71
     2
 49
0.5
 62
   256
  6
BYLAYER
 49
-0.5
 62
   256
  6
BYLAYER
  0
ACDBPLACEHOLDER
  5
5
102
{ACAD_REACTORS
330
6
102
}
330
6
100
AcDbPlaceHolder
280
     0
  0
ACAD_PROXY_OBJECT
  5
1D9D
102
{ACAD_REACTORS
330
1D9C
102
}
330
1D9C
100
AcDbProxyObject
 90
      499
 91
      510
 93
       49
310
904313A3100598
 94
        0
1001
ACAD
1000
AcadProxyRoundTripData
1071
      507
1071
   655383
1070
     0
  0
ACAD_PROXY_OBJECT
  5
1D9E
102
{ACAD_REACTORS
330
1D9C
102
}
330
1D9C
100
AcDbProxyObject
 90
      499
 91
      510
 93
      113
310
904313A3200400000000000000406B
 94
        0
1001
ACAD
1000
AcadProxyRoundTripData
1071
      507
1071
   655383
1070
     0
  0
ACAD_PROXY_OBJECT
  5
1D9F
102
{ACAD_REACTORS
330
1D9C
102
}
330
1D9C
100
AcDbProxyObject
 90
      499
 91
      510
 93
      113
310
904313A3400400000000000010406B
 94
        0
1001
ACAD
1000
AcadProxyRoundTripData
1071
      507
1071
   655383
1070
     0
  0
ACAD_PROXY_OBJECT
  5
1DA0
102
{ACAD_REACTORS
330
1D9C
102
}
330
1D9C
100
AcDbProxyObject
 90
      499
 91
      510
 93
      113
310
904313A3500400000000000014406B
 94
        0
1001
ACAD
1000
AcadProxyRoundTripData
1071
      507
1071
   655383
1070
     0
  0
ACAD_PROXY_OBJECT
  5
1DA1
102
{ACAD_REACTORS
330
1D9C
102
}
330
1D9C
100
AcDbProxyObject
 90
      499
 91
      510
 93
      113
310
904313A3800400000000000020406B
 94
        0
1001
ACAD
1000
AcadProxyRoundTripData
1071
      507
1071
   655383
1070
     0
  0
ACAD_PROXY_OBJECT
  5
1DA2
102
{ACAD_REACTORS
330
1D9C
102
}
330
1D9C
100
AcDbProxyObject
 90
      499
 91
      510
 93
      121
310
905313A3130004000000000000244051
 94
        0
1001
ACAD
1000
AcadProxyRoundTripData
1071
      507
1071
   655383
1070
     0
  0
ACAD_PROXY_OBJECT
  5
1DA3
102
{ACAD_REACTORS
330
1D9C
102
}
330
1D9C
100
AcDbProxyObject
 90
      499
 91
      510
 93
      121
310
905313A3136004000000000000304051
 94
        0
1001
ACAD
1000
AcadProxyRoundTripData
1071
      507
1071
   655383
1070
     0
  0
ACAD_PROXY_OBJECT
  5
1DA4
102
{ACAD_REACTORS
330
1D9C
102
}
330
1D9C
100
AcDbProxyObject
 90
      499
 91
      510
 93
      121
310
905313A3230004000000000000344051
 94
        0
1001
ACAD
1000
AcadProxyRoundTripData
1071
      507
1071
   655383
1070
     0
  0
ACAD_PROXY_OBJECT
  5
1DA5
102
{ACAD_REACTORS
330
1D9C
102
}
330
1D9C
100
AcDbProxyObject
 90
      499
 91
      510
 93
      121
310
905313A33300040000000000003E4051
 94
        0
1001
ACAD
1000
AcadProxyRoundTripData
1071
      507
1071
   655383
1070
     0
  0
ACAD_PROXY_OBJECT
  5
1DA6
102
{ACAD_REACTORS
330
1D9C
102
}
330
1D9C
100
AcDbProxyObject
 90
      499
 91
      510
 93
      121
310
905313A3430004000000000000444051
 94
        0
1001
ACAD
1000
AcadProxyRoundTripData
1071
      507
1071
   655383
1070
     0
  0
ACAD_PROXY_OBJECT
  5
1DA7
102
{ACAD_REACTORS
330
1D9C
102
}
330
1D9C
100
AcDbProxyObject
 90
      499
 91
      510
 93
      121
310
905313A3530004000000000000494051
 94
        0
1001
ACAD
1000
AcadProxyRoundTripData
1071
      507
1071
   655383
1070
     0
  0
ACAD_PROXY_OBJECT
  5
1DA8
102
{ACAD_REACTORS
330
1D9C
102
}
330
1D9C
100
AcDbProxyObject
 90
      499
 91
      510
 93
      129
310
906313A313030004000000000000594038
 94
        0
1001
ACAD
1000
AcadProxyRoundTripData
1071
      507
1071
   655383
1070
     0
  0
ACAD_PROXY_OBJECT
  5
1DA9
102
{ACAD_REACTORS
330
1D9C
102
}
330
1D9C
100
AcDbProxyObject
 90
      499
 91
      510
 93
      113
310
904323A31000000000000000010159
 94
        0
1001
ACAD
1000
AcadProxyRoundTripData
1071
      507
1071
   655383
1070
     0
  0
ACAD_PROXY_OBJECT
  5
1DAA
102
{ACAD_REACTORS
330
1D9C
102
}
330
1D9C
100
AcDbProxyObject
 90
      499
 91
      510
 93
      113
310
904343A31000000000000000410159
 94
        0
1001
ACAD
1000
AcadProxyRoundTripData
1071
      507
1071
   655383
1070
     0
  0
ACAD_PROXY_OBJECT
  5
1DAB
102
{ACAD_REACTORS
330
1D9C
102
}
330
1D9C
100
AcDbProxyObject
 90
      499
 91
      510
 93
      113
310
904383A31000000000000000810159
 94
        0
1001
ACAD
1000
AcadProxyRoundTripData
1071
      507
1071
   655383
1070
     0
  0
ACAD_PROXY_OBJECT
  5
1DAC
102
{ACAD_REACTORS
330
1D9C
102
}
330
1D9C
100
AcDbProxyObject
 90
      499
 91
      510
 93
      121
310
90531303A31000000000000000910140
 94
        0
1001
ACAD
1000
AcadProxyRoundTripData
1071
      507
1071
   655383
1070
     0
  0
ACAD_PROXY_OBJECT
  5
1DAD
102
{ACAD_REACTORS
330
1D9C
102
}
330
1D9C
100
AcDbProxyObject
 90
      499
 91
      510
 93
      129
310
9063130303A31000000000000001650138
 94
        0
1001
ACAD
1000
AcadProxyRoundTripData
1071
      507
1071
   655383
1070
     0
  0
ACAD_PROXY_OBJECT
  5
1DAE
102
{ACAD_REACTORS
330
1D9C
102
}
330
1D9C
100
AcDbProxyObject
 90
      499
 91
      510
 93
      265
310
90F312F31323822203D2031272D302200000000000000200FC00000000000028402B
 94
        0
1001
ACAD
1000
AcadProxyRoundTripData
1071
      507
1071
   655383
1070
     0
  0
ACAD_PROXY_OBJECT
  5
1DAF
102
{ACAD_REACTORS
330
1D9C
102
}
330
1D9C
100
AcDbProxyObject
 90
      499
 91
      510
 93
      257
310
90E312F363422203D2031272D302200000000000000240FC000000000000284040
 94
        0
1001
ACAD
1000
AcadProxyRoundTripData
1071
      507
1071
   655383
1070
     0
  0
ACAD_PROXY_OBJECT
  5
1DB0
102
{ACAD_REACTORS
330
1D9C
102
}
330
1D9C
100
AcDbProxyObject
 90
      499
 91
      510
 93
      257
310
90E312F333222203D2031272D302200000000000000280FC000000000000284040
 94
        0
1001
ACAD
1000
AcadProxyRoundTripData
1071
      507
1071
   655383
1070
     0
  0
ACAD_PROXY_OBJECT
  5
1DB1
102
{ACAD_REACTORS
330
1D9C
102
}
330
1D9C
100
AcDbProxyObject
 90
      499
 91
      510
 93
      257
310
90E312F313622203D2031272D3022000000000000002C0FC000000000000284040
 94
        0
1001
ACAD
1000
AcadProxyRoundTripData
1071
      507
1071
   655383
1070
     0
  0
ACAD_PROXY_OBJECT
  5
1DB2
102
{ACAD_REACTORS
330
1D9C
102
}
330
1D9C
100
AcDbProxyObject
 90
      499
 91
      510
 93
      257
310
90E332F333222203D2031272D3022000000000000002E0FC000000000000284040
 94
        0
1001
ACAD
1000
AcadProxyRoundTripData
1071
      507
1071
   655383
1070
     0
  0
ACAD_PROXY_OBJECT
  5
1DB3
102
{ACAD_REACTORS
330
1D9C
102
}
330
1D9C
100
AcDbProxyObject
 90
      499
 91
      510
 93
      249
310
90D312F3822203D2031272D302200000000000000300FC000000000000284040
 94
        0
1001
ACAD
1000
AcadProxyRoundTripData
1071
      507
1071
   655383
1070
     0
  0
ACAD_PROXY_OBJECT
  5
1DB4
102
{ACAD_REACTORS
330
1D9C
102
}
330
1D9C
100
AcDbProxyObject
 90
      499
 91
      510
 93
      257
310
90E332F313622203D2031272D302200000000000000320FC000000000000284040
 94
        0
1001
ACAD
1000
AcadProxyRoundTripData
1071
      507
1071
   655383
1070
     0
  0
ACAD_PROXY_OBJECT
  5
1DB5
102
{ACAD_REACTORS
330
1D9C
102
}
330
1D9C
100
AcDbProxyObject
 90
      499
 91
      510
 93
      249
310
90D312F3422203D2031272D302200000000000000340FC000000000000284040
 94
        0
1001
ACAD
1000
AcadProxyRoundTripData
1071
      507
1071
   655383
1070
     0
  0
ACAD_PROXY_OBJECT
  5
1DB6
102
{ACAD_REACTORS
330
1D9C
102
}
330
1D9C
100
AcDbProxyObject
 90
      499
 91
      510
 93
      249
310
90D332F3822203D2031272D302200000000000000360FC000000000000284040
 94
        0
1001
ACAD
1000
AcadProxyRoundTripData
1071
      507
1071
   655383
1070
     0
  0
ACAD_PROXY_OBJECT
  5
1DB7
102
{ACAD_REACTORS
330
1D9C
102
}
330
1D9C
100
AcDbProxyObject
 90
      499
 91
      510
 93
      249
310
90D312F3222203D2031272D302200000000000000380FC000000000000284040
 94
        0
1001
ACAD
1000
AcadProxyRoundTripData
1071
      507
1071
   655383
1070
     0
  0
ACAD_PROXY_OBJECT
  5
1DB8
102
{ACAD_REACTORS
330
1D9C
102
}
330
1D9C
100
AcDbProxyObject
 90
      499
 91
      510
 93
      249
310
90D332F3422203D2031272D3022000000000000003A0FC000000000000284040
 94
        0
1001
ACAD
1000
AcadProxyRoundTripData
1071
      507
1071
   655383
1070
     0
  0
ACAD_PROXY_OBJECT
  5
1DB9
102
{ACAD_REACTORS
330
1D9C
102
}
330
1D9C
100
AcDbProxyObject
 90
      499
 91
      510
 93
      169
310
90B3122203D2031272D3022004000000000000284020
 94
        0
1001
ACAD
1000
AcadProxyRoundTripData
1071
      507
1071
   655383
1070
     0
  0
ACAD_PROXY_OBJECT
  5
1DBA
102
{ACAD_REACTORS
330
1D9C
102
}
330
1D9C
100
AcDbProxyObject
 90
      499
 91
      510
 93
      265
310
90F312D312F3222203D2031272D3022000000000000003E0FC00000000000028402B
 94
        0
1001
ACAD
1000
AcadProxyRoundTripData
1071
      507
1071
   655383
1070
     0
  0
ACAD_PROXY_OBJECT
  5
1DBB
102
{ACAD_REACTORS
330
1D9C
102
}
330
1D9C
100
AcDbProxyObject
 90
      499
 91
      510
 93
      233
310
90B3322203D2031272D30220000000000000002100000000000000284000
 94
        0
1001
ACAD
1000
AcadProxyRoundTripData
1071
      507
1071
   655383
1070
     0
  0
ACAD_PROXY_OBJECT
  5
1DBC
102
{ACAD_REACTORS
330
1D9C
102
}
330
1D9C
100
AcDbProxyObject
 90
      499
 91
      510
 93
      233
310
90B3622203D2031272D30220000000000000006100000000000000284000
 94
        0
1001
ACAD
1000
AcadProxyRoundTripData
1071
      507
1071
   655383
1070
     0
  0
ACAD_PROXY_OBJECT
  5
1DBD
102
{ACAD_REACTORS
330
1D9C
102
}
330
1D9C
100
AcDbProxyObject
 90
      499
 91
      510
 93
      257
310
90E31272D3022203D2031272D3022000000000000000A100000000000000284040
 94
        0
1001
ACAD
1000
AcadProxyRoundTripData
1071
      507
1071
   655383
1070
     0
  0
ACAD_PROXY_OBJECT
  5
1D9B
102
{ACAD_XDICTIONARY
360
1DF9
102
}
102
{ACAD_REACTORS
330
1D9A
102
}
330
1D9A
100
AcDbProxyObject
 90
      499
 91
      510
 93
     1849
310
4254DD185B99185C990028B81E85EB51B8AE3F2E07A17AD46E2B8FC02B5E8DC0F42B1CFD028000000C1008070000C3001FDFF8000000C1003FBFF000000182007F7FE00000030400FEFFC00000060801FDFF8000000C1003FBFF00000018200000000000000681FA0B0000001820100E000186003FBFF000000182007F7FE0
310
0000030400FEFFC00000060801FDFF8000000C1003FBFF000000182007F7FE000000304000AD7A3703D0AC73F4160000003040201C00030C007F7FE00000030400FEFFC00000060801FDFF8000000C1003FBFF000000182007F7FE00000030400FEFFC000000608000
340
16
340
16
340
16
 94
        0
1001
ACAD
1000
AcadProxyRoundTripData
1071
      506
1071
   655383
1070
     0
  0
ACAD_PROXY_OBJECT
  5
1D8E
102
{ACAD_REACTORS
330
1D88
102
}
330
1D88
100
AcDbProxyObject
 90
      499
 91
      510
 93
      444
310
430C9915DA5C99599C985B59401049028333333333333E3BF0000000000000FB0107901411070040501600405405064090741402480A0340
 94
        0
1001
ACAD
1000
AcDbSavedByObjectVersion
1070
     0
1000
AcadProxyRoundTripData
1071
      505
1071
   655383
1070
     0
  0
ACAD_PROXY_OBJECT
  5
1D90
102
{ACAD_REACTORS
330
1D88
102
}
330
1D88
100
AcDbProxyObject
 90
      499
 91
      510
 93
      508
310
428CD108121A5919195B8010640502408333333333333E3BF0000000000000FB01079024090700405020000000000001110200405405064090740C02480A0340
 94
        0
1001
ACAD
1000
AcDbSavedByObjectVersion
1070
     0
1000
AcadProxyRoundTripData
1071
      505
1071
   655383
1070
     0
  0
ACAD_PROXY_OBJECT
  5
1D8F
102
{ACAD_REACTORS
330
1D88
102
}
330
1D88
100
AcDbProxyObject
 90
      499
 91
      510
 93
      444
310
430CD915DA5C99599C985B59401059028333333333333E3BF0000000000000FB0107901411070040501600405405064090741402480A0340
 94
        0
1001
ACAD
1000
AcDbSavedByObjectVersion
1070
     0
1000
AcadProxyRoundTripData
1071
      505
1071
   655383
1070
     0
  0
ACAD_PROXY_OBJECT
  5
1D8D
102
{ACAD_REACTORS
330
1D88
102
}
330
1D88
100
AcDbProxyObject
 90
      499
 91
      510
 93
      396
310
4190985CDA58C0107406404333333333333E3BF0000000000000FB0107A41107004050150841D405064090741402480A0356
 94
        0
1001
ACAD
1000
AcDbSavedByObjectVersion
1070
     0
1000
AcadProxyRoundTripData
1071
      505
1071
   655383
1070
     0
  0
ACAD_PROXY_OBJECT
  5
1D94
102
{ACAD_REACTORS
330
1D88
102
}
330
1D88
100
AcDbProxyObject
 90
      499
 91
      510
 93
      436
310
42509C9A59DA1D195B8010C409028333333333333E3BF0000000000000FB010790141107004050150841D405064090741402480A029956
 94
        0
1001
ACAD
1000
AcDbSavedByObjectVersion
1070
     0
1000
AcadProxyRoundTripData
1071
      505
1071
   655383
1070
     0
  0
ACAD_PROXY_OBJECT
  5
1D98
102
{ACAD_REACTORS
330
1D88
102
}
330
1D88
100
AcDbProxyObject
 90
      499
 91
      510
 93
      460
310
4310DBDB1BDC90DA185B99D9401104090240C333333333333E3BF0000000000000FB0108901411070040501508421405064090741402480A0354
 94
        0
1001
ACAD
1000
AcDbSavedByObjectVersion
1070
     0
1000
AcadProxyRoundTripData
1071
      505
1071
   655383
1070
     0
  0
ACAD_PROXY_OBJECT
  5
1D91
102
{ACAD_REACTORS
330
1D88
102
}
330
1D88
100
AcDbProxyObject
 90
      499
 91
      510
 93
      508
310
42D0DBDB98D95C1D1D585B0010940D028333333333333E3BF0000000000000FB0107902409070040501000000000000111010841D405064090740C02480A0340
 94
        0
1001
ACAD
1000
AcDbSavedByObjectVersion
1070
     0
1000
AcadProxyRoundTripData
1071
      505
1071
   655383
1070
     0
  0
ACAD_PROXY_OBJECT
  5
1D93
102
{ACAD_REACTORS
330
1D88
102
}
330
1D88
100
AcDbProxyObject
 90
      499
 91
      510
 93
      420
310
41111A5B4010B409028333333333333E3BF0000000000000FB010790141107004050150841D405064090741402480A02677FFFFFDB
 94
        0
1001
ACAD
1000
AcDbSavedByObjectVersion
1070
     0
1000
AcadProxyRoundTripData
1071
      505
1071
   655383
1070
     0
  0
ACAD_PROXY_OBJECT
  5
1D97
102
{ACAD_REACTORS
330
1D88
102
}
330
1D88
100
AcDbProxyObject
 90
      499
 91
      510
 93
      452
310
43119858D95C185D1D195C9B8010F409028333333333333E3BF0000000000000FB010790141107004050150841D405064090741402480A0350
 94
        0
1001
ACAD
1000
AcDbSavedByObjectVersion
1070
     0
1000
AcadProxyRoundTripData
1071
      505
1071
   655383
1070
     0
  0
ACAD_PROXY_OBJECT
  5
1D89
102
{ACAD_REACTORS
330
1D88
102
}
330
1D88
100
AcDbProxyObject
 90
      499
 91
      510
 93
      396
310
41519B185D00240901404333333333333E3BF0000000000000F9010740A41107004050150841D405064090741402480A1B55
 94
        0
1001
ACAD
1000
AcDbSavedByObjectVersion
1070
     0
1000
AcadProxyRoundTripData
1071
      505
1071
   655383
1070
     0
  0
ACAD_PROXY_OBJECT
  5
1D8A
102
{ACAD_REACTORS
330
1D88
102
}
330
1D88
100
AcDbProxyObject
 90
      499
 91
      510
 93
      484
310
43919B185D15DA5D1A115919D95CC010140901404333333333333E3BF0000000000000F9010740901411070040501600405405064090741402480A1B50
 94
        0
1001
ACAD
1000
AcDbSavedByObjectVersion
1070
     0
1000
AcadProxyRoundTripData
1071
      505
1071
   655383
1070
     0
  0
ACAD_PROXY_OBJECT
  5
1D8B
102
{ACAD_REACTORS
330
1D88
102
}
330
1D88
100
AcDbProxyObject
 90
      499
 91
      510
 93
      420
310
4211DBDD5C985D590010240902404333333333333E3BF0000000000000F9010740A411070040501641D405064090741402480A1B50
 94
        0
1001
ACAD
1000
AcDbSavedByObjectVersion
1070
     0
1000
AcadProxyRoundTripData
1071
      505
1071
   655383
1070
     0
  0
ACAD_PROXY_OBJECT
  5
1D8C
102
{ACAD_REACTORS
330
1D88
102
}
330
1D88
100
AcDbProxyObject
 90
      499
 91
      510
 93
      508
310
4451DBDD5C985D5915DA5D1A115919D95CC010340902404333333333333E3BF0000000000000F9010740901411070040501600405405064090741402480A1B50
 94
        0
1001
ACAD
1000
AcDbSavedByObjectVersion
1070
     0
1000
AcadProxyRoundTripData
1071
      505
1071
   655383
1070
     0
  0
ACAD_PROXY_OBJECT
  5
1D96
102
{ACAD_REACTORS
330
1D88
102
}
330
1D88
100
AcDbProxyObject
 90
      499
 91
      510
 93
      452
310
43131A5B995C185D1D195C9B8010E409028333333333333E3BF0000000000000FB010790141107004050750841D405064090741402483A0350
 94
        0
1001
ACAD
1000
AcDbSavedByObjectVersion
1070
     0
1000
AcadProxyRoundTripData
1071
      505
1071
   655383
1070
     0
  0
ACAD_PROXY_OBJECT
  5
1D92
102
{ACAD_REACTORS
330
1D88
102
}
330
1D88
100
AcDbProxyObject
 90
      499
 91
      510
 93
      428
310
429499585B1A5CDD1A58C0108409028333333333333E3BF0000000000000FB01079019070040501508421405064090741402480A1B45
 94
        0
1001
ACAD
1000
AcDbSavedByObjectVersion
1070
     0
1000
AcadProxyRoundTripData
1071
      505
1071
   655383
1070
     0
  0
ACAD_PROXY_OBJECT
  5
1D95
102
{ACAD_REACTORS
330
1D88
102
}
330
1D88
100
AcDbProxyObject
 90
      499
 91
      510
 93
      420
310
42151A1A58DAD95B8010D409028333333333333E3BF0000000000000FB010790141107004050150C41D405064090741402480A0352
 94
        0
1001
ACAD
1000
AcDbSavedByObjectVersion
1070
     0
1000
AcadProxyRoundTripData
1071
      505
1071
   655383
1070
     0
  0
XRECORD
  5
1E95
102
{ACAD_REACTORS
330
1E8B
102
}
330
1E8B
100
AcDbXrecord
 90
        0
  0
XRECORD
  5
1E99
102
{ACAD_REACTORS
330
1E8B
102
}
330
1E8B
100
AcDbXrecord
1000
DSTYLE
1002
{
1070
   179
 70
     2
1070
   277
 70
     6
1002
}
  0
XRECORD
  5
1E96
102
{ACAD_REACTORS
330
1E8B
102
}
330
1E8B
100
AcDbXrecord
  1
{6385560B-F4B1-4644-A7C2-A3E32AC3D232}
  0
XRECORD
  5
1E8E
102
{ACAD_REACTORS
330
1E8B
102
}
330
1E8B
100
AcDbXrecord
  1

  0
XRECORD
  5
1E94
102
{ACAD_REACTORS
330
1E8B
102
}
330
1E8B
100
AcDbXrecord
 90
        0
  0
XRECORD
  5
1E90
102
{ACAD_REACTORS
330
1E8B
102
}
330
1E8B
100
AcDbXrecord
340
61
  0
XRECORD
  5
1E93
102
{ACAD_REACTORS
330
1E8B
102
}
330
1E8B
100
AcDbXrecord
 90
    10781
  0
XRECORD
  5
1E91
102
{ACAD_REACTORS
330
1E8B
102
}
330
1E8B
100
AcDbXrecord
340
77
  0
XRECORD
  5
1E92
102
{ACAD_REACTORS
330
1E8B
102
}
330
1E8B
100
AcDbXrecord
340
6
  0
XRECORD
  5
1E98
102
{ACAD_REACTORS
330
1E8B
102
}
330
1E8B
100
AcDbXrecord
 40
0.0
  0
XRECORD
  5
1E9C
102
{ACAD_REACTORS
330
1E8B
102
}
330
1E8B
100
AcDbXrecord
340
0
  0
XRECORD
  5
1EA2
102
{ACAD_REACTORS
330
1E8B
102
}
330
1E8B
100
AcDbXrecord
 10
0.0
 20
0.0
 30
0.0
  0
XRECORD
  5
1E9E
102
{ACAD_REACTORS
330
1E8B
102
}
330
1E8B
100
AcDbXrecord
 10
0.0
 20
0.0
 30
0.0
  0
XRECORD
  5
1EA1
102
{ACAD_REACTORS
330
1E8B
102
}
330
1E8B
100
AcDbXrecord
 10
0.0
 20
0.0
 30
0.0
  0
XRECORD
  5
1E9F
102
{ACAD_REACTORS
330
1E8B
102
}
330
1E8B
100
AcDbXrecord
 10
0.0
 20
0.0
 30
0.0
  0
XRECORD
  5
1EA0
102
{ACAD_REACTORS
330
1E8B
102
}
330
1E8B
100
AcDbXrecord
 10
0.0
 20
0.0
 30
0.0
  0
XRECORD
  5
1E9D
102
{ACAD_REACTORS
330
1E8B
102
}
330
1E8B
100
AcDbXrecord
 10
0.0
 20
0.0
 30
0.0
  0
XRECORD
  5
1E9A
102
{ACAD_REACTORS
330
1E8B
102
}
330
1E8B
100
AcDbXrecord
340
0
  0
XRECORD
  5
1E9B
102
{ACAD_REACTORS
330
1E8B
102
}
330
1E8B
100
AcDbXrecord
 70
     0
  0
XRECORD
  5
1E8F
102
{ACAD_REACTORS
330
1E8B
102
}
330
1E8B
100
AcDbXrecord
  1
Sekkei.ctb
  0
XRECORD
  5
1E8C
102
{ACAD_REACTORS
330
1E8B
102
}
330
1E8B
100
AcDbXrecord
 90
        1
  0
XRECORD
  5
1E8D
102
{ACAD_REACTORS
330
1E8B
102
}
330
1E8B
100
AcDbXrecord
 90
       70
  0
XRECORD
  5
1EA5
102
{ACAD_REACTORS
330
1E8B
102
}
330
1E8B
100
AcDbXrecord
340
0
  0
XRECORD
  5
1EAB
102
{ACAD_REACTORS
330
1E8B
102
}
330
1E8B
100
AcDbXrecord
 10
0.0
 20
0.0
 30
0.0
  0
XRECORD
  5
1EA7
102
{ACAD_REACTORS
330
1E8B
102
}
330
1E8B
100
AcDbXrecord
 10
0.0
 20
0.0
 30
0.0
  0
XRECORD
  5
1EAA
102
{ACAD_REACTORS
330
1E8B
102
}
330
1E8B
100
AcDbXrecord
 10
0.0
 20
0.0
 30
0.0
  0
XRECORD
  5
1EA8
102
{ACAD_REACTORS
330
1E8B
102
}
330
1E8B
100
AcDbXrecord
 10
0.0
 20
0.0
 30
0.0
  0
XRECORD
  5
1EA9
102
{ACAD_REACTORS
330
1E8B
102
}
330
1E8B
100
AcDbXrecord
 10
0.0
 20
0.0
 30
0.0
  0
XRECORD
  5
1EA6
102
{ACAD_REACTORS
330
1E8B
102
}
330
1E8B
100
AcDbXrecord
 10
0.0
 20
0.0
 30
0.0
  0
XRECORD
  5
1EA3
102
{ACAD_REACTORS
330
1E8B
102
}
330
1E8B
100
AcDbXrecord
340
0
  0
XRECORD
  5
1EA4
102
{ACAD_REACTORS
330
1E8B
102
}
330
1E8B
100
AcDbXrecord
 70
     0
  0
XRECORD
  5
1E97
102
{ACAD_REACTORS
330
1E8B
102
}
330
1E8B
100
AcDbXrecord
  1
{E03AD034-1EEB-436E-99CD-EE58B2DDFB49}
  0
DICTIONARYVAR
  5
1E1C
102
{ACAD_REACTORS
330
102
102
}
330
102
100
DictionaryVariables
280
     0
  1
1:1
  0
DICTIONARYVAR
  5
1E1B
102
{ACAD_REACTORS
330
102
102
}
330
102
100
DictionaryVariables
280
     0
  1
STANDARD
  0
DICTIONARYVAR
  5
1E1A
102
{ACAD_REACTORS
330
102
102
}
330
102
100
DictionaryVariables
280
     0
  1
STANDARD
  0
DICTIONARYVAR
  5
103
102
{ACAD_REACTORS
330
102
102
}
330
102
100
DictionaryVariables
280
     0
  1
1
  0
DICTIONARYVAR
  5
1E1D
102
{ACAD_REACTORS
330
102
102
}
330
102
100
DictionaryVariables
280
     0
  1
0
  0
DICTIONARYVAR
  5
549
102
{ACAD_REACTORS
330
102
102
}
330
102
100
DictionaryVariables
280
     0
  1
96
  0
DICTIONARY
  5
1D79
330
1D78
100
AcDbDictionary
280
     1
  3
ACAD_XREC_ROUNDTRIP
360
1E70
  3
BUMPTILE
360
1D7B
  3
DIFFUSETILE
360
1D7A
  3
OPACITYTILE
360
1D7E
  3
REFLECTIONTILE
360
1D7D
  3
REFRACTIONTILE
360
1D7F
  3
SPECULARTILE
360
1D7C
  0
DICTIONARY
  5
1D71
330
1D70
100
AcDbDictionary
280
     1
  3
ACAD_XREC_ROUNDTRIP
360
1E6F
  3
BUMPTILE
360
1D73
  3
DIFFUSETILE
360
1D72
  3
OPACITYTILE
360
1D76
  3
REFLECTIONTILE
360
1D75
  3
REFRACTIONTILE
360
1D77
  3
SPECULARTILE
360
1D74
  0
DICTIONARY
  5
1D81
330
1D80
100
AcDbDictionary
280
     1
  3
ACAD_XREC_ROUNDTRIP
360
1E71
  3
BUMPTILE
360
1D83
  3
DIFFUSETILE
360
1D82
  3
OPACITYTILE
360
1D86
  3
REFLECTIONTILE
360
1D85
  3
REFRACTIONTILE
360
1D87
  3
SPECULARTILE
360
1D84
  0
DICTIONARY
  5
1DF9
330
1D9B
100
AcDbDictionary
280
     1
  3
ACAD_ROUNDTRIP_2008_TABLES
360
1E56
  3
ACAD_XREC_ROUNDTRIP
360
1E72
  0
XRECORD
  5
1E70
102
{ACAD_REACTORS
330
1D79
102
}
330
1D79
100
AcDbXrecord
102
MATERIAL
148
0.0
149
0.0
149
0.0
 93
        0
 94
      127
282
     0
 72
     0
 77
     0
171
     0
175
     0
179
     0
273
     0
  0
XRECORD
  5
1D7B
102
{ACAD_REACTORS
330
1D79
102
}
330
1D79
100
AcDbXrecord
270
     1
271
     1
  0
XRECORD
  5
1D7A
102
{ACAD_REACTORS
330
1D79
102
}
330
1D79
100
AcDbXrecord
270
     1
271
     1
  0
XRECORD
  5
1D7E
102
{ACAD_REACTORS
330
1D79
102
}
330
1D79
100
AcDbXrecord
270
     1
271
     1
  0
XRECORD
  5
1D7D
102
{ACAD_REACTORS
330
1D79
102
}
330
1D79
100
AcDbXrecord
270
     1
271
     1
  0
XRECORD
  5
1D7F
102
{ACAD_REACTORS
330
1D79
102
}
330
1D79
100
AcDbXrecord
270
     1
271
     1
  0
XRECORD
  5
1D7C
102
{ACAD_REACTORS
330
1D79
102
}
330
1D79
100
AcDbXrecord
270
     1
271
     1
  0
XRECORD
  5
1E6F
102
{ACAD_REACTORS
330
1D71
102
}
330
1D71
100
AcDbXrecord
102
MATERIAL
148
0.0
149
0.0
149
0.0
 93
        0
 94
      127
282
     0
 72
     0
 77
     0
171
     0
175
     0
179
     0
273
     0
  0
XRECORD
  5
1D73
102
{ACAD_REACTORS
330
1D71
102
}
330
1D71
100
AcDbXrecord
270
     1
271
     1
  0
XRECORD
  5
1D72
102
{ACAD_REACTORS
330
1D71
102
}
330
1D71
100
AcDbXrecord
270
     1
271
     1
  0
XRECORD
  5
1D76
102
{ACAD_REACTORS
330
1D71
102
}
330
1D71
100
AcDbXrecord
270
     1
271
     1
  0
XRECORD
  5
1D75
102
{ACAD_REACTORS
330
1D71
102
}
330
1D71
100
AcDbXrecord
270
     1
271
     1
  0
XRECORD
  5
1D77
102
{ACAD_REACTORS
330
1D71
102
}
330
1D71
100
AcDbXrecord
270
     1
271
     1
  0
XRECORD
  5
1D74
102
{ACAD_REACTORS
330
1D71
102
}
330
1D71
100
AcDbXrecord
270
     1
271
     1
  0
XRECORD
  5
1E71
102
{ACAD_REACTORS
330
1D81
102
}
330
1D81
100
AcDbXrecord
102
MATERIAL
148
0.0
149
0.0
149
0.0
 93
        0
 94
      127
282
     0
 72
     0
 77
     0
171
     0
175
     0
179
     0
273
     0
  0
XRECORD
  5
1D83
102
{ACAD_REACTORS
330
1D81
102
}
330
1D81
100
AcDbXrecord
270
     1
271
     1
  0
XRECORD
  5
1D82
102
{ACAD_REACTORS
330
1D81
102
}
330
1D81
100
AcDbXrecord
270
     1
271
     1
  0
XRECORD
  5
1D86
102
{ACAD_REACTORS
330
1D81
102
}
330
1D81
100
AcDbXrecord
270
     1
271
     1
  0
XRECORD
  5
1D85
102
{ACAD_REACTORS
330
1D81
102
}
330
1D81
100
AcDbXrecord
270
     1
271
     1
  0
XRECORD
  5
1D87
102
{ACAD_REACTORS
330
1D81
102
}
330
1D81
100
AcDbXrecord
270
     1
271
     1
  0
XRECORD
  5
1D84
102
{ACAD_REACTORS
330
1D81
102
}
330
1D81
100
AcDbXrecord
270
     1
271
     1
  0
ACAD_PROXY_OBJECT
  5
1E56
102
{ACAD_REACTORS
330
1DF9
102
}
330
1DF9
100
AcDbProxyObject
 90
      499
 91
      510
 93
     5304
310
40D054060020000020000003200101A000080002A5058000000C100000000000000340FD012E07A17AD46E2B8FCB81E85EB51B8AE3F2E07A17AD46E2B8FCB81E85EB51B8AE3F02B5E8DC0F42B1CFC0AD7A3703D0AC73F419019018000000C1003FBFFFFFE02B5E8DC0F42A9CFD029018000000C1003FBFFFFFE02B5E8DC0F4
310
2A9CFD049018000000C1003FBFFFFFE02B5E8DC0F42A9CFD089018000000C1003FBFFFFFE02B5E8DC0F42A9CFD109018000000C1003FBFFFFFE02B5E8DC0F42A9CFD209018000000C1003FBFFFFFE02B5E8DC0F42A9CFD01405075F5449544C450041501A8000000C800406800020000A9416000000304000AD7A3703D0AC7
310
3F404B81E85EB51B8AE3F2E07A17AD46E2B8FCB81E85EB51B8AE3F2E07A17AD46E2B8FC0AD7A3703D0AC73F02B5E8DC0F42B1CFD0640640600000030400FEFFFFFF80AD7A3703D0AA73F40A40600000030400FEFFFFFF80AD7A3703D0AA73F41240600000030400FEFFFFFF80AD7A3703D0AA73F42240600000030400FEFFF
310
FFF80AD7A3703D0AA73F44240600000030400FEFFFFFF80AD7A3703D0AA73F48240600000030400FEFFFFFF80AD7A3703D0AA73F409014217D2115051115480105406A0000003200101A000080002A5028000000C10002B5E8DC0F42B1CFD012E07A17AD46E2B8FCB81E85EB51B8AE3F2E07A17AD46E2B8FCB81E85EB51B8A
310
E3F02B5E8DC0F42B1CFC0AD7A3703D0AC73F419019018000000C1003FBFFFFFE02B5E8DC0F42A9CFD029018000000C1003FBFFFFFE02B5E8DC0F42A9CFD049018000000C1003FBFFFFFE02B5E8DC0F42A9CFD089018000000C1003FBFFFFFE02B5E8DC0F42A9CFD109018000000C1003FBFFFFFE02B5E8DC0F42A9CFD20901
310
8000000C1003FBFFFFFE02B5E8DC0F42A9CFD03409065F444154410000
340
16
340
0
340
0
340
0
340
0
340
0
340
0
340
16
340
0
340
0
340
0
340
0
340
0
340
0
340
16
340
0
340
0
340
0
340
0
340
0
340
0
 94
        0
1001
ACAD
1000
AcadProxyRoundTripData
1071
      509
1071
   655383
1070
     0
  0
XRECORD
  5
1E72
102
{ACAD_REACTORS
330
1DF9
102
}
330
1DF9
100
AcDbXrecord
102
ACAD_ROUNDTRIP_PRE2007_TABLESTYLE
 90
      512
 91
        0
  1

 92
      512
 93
        0
  2

 94
      512
 95
        0
  3

  0
ENDSEC
  0
EOF
