  0
SECTION
  2
HEADER
  9
$ACADVER
  1
AC1014
  9
$ACADMAINTVER
 70
     9
  9
$DWGCODEPAGE
  3
ANSI_932
  9
$INSBASE
 10
0.0
 20
0.0
 30
0.0
  9
$EXTMIN
 10
39.41773806534161
 20
96.13817864379194
 30
0.0
  9
$EXTMAX
 10
984.8369321168863
 20
706.8762830530122
 30
0.0
  9
$LIMMIN
 10
0.0
 20
0.0
  9
$LIMMAX
 10
297.0
 20
210.0
  9
$ORTHOMODE
 70
     1
  9
$REGENMODE
 70
     1
  9
$FILLMODE
 70
     1
  9
$QTEXTMODE
 70
     0
  9
$MIRRTEXT
 70
     0
  9
$DRAGMODE
 70
     2
  9
$LTSCALE
 40
3.0
  9
$OSMODE
 70
    37
  9
$ATTMODE
 70
     1
  9
$TEXTSIZE
 40
2.0
  9
$TRACEWID
 40
1.0
  9
$TEXTSTYLE
  7
STANDARD
  9
$CLAYER
  8
0
  9
$CELTYPE
  6
BYLAYER
  9
$CECOLOR
 62
   256
  9
$CELTSCALE
 40
1.0
  9
$DELOBJ
 70
     1
  9
$DISPSILH
 70
     0
  9
$DIMSCALE
 40
3.0
  9
$DIMASZ
 40
1.8
  9
$DIMEXO
 40
0.625
  9
$DIMDLI
 40
3.75
  9
$DIMRND
 40
0.0
  9
$DIMDLE
 40
0.0
  9
$DIMEXE
 40
0.8
  9
$DIMTP
 40
0.0
  9
$DIMTM
 40
0.0
  9
$DIMTXT
 40
1.8
  9
$DIMCEN
 40
2.5
  9
$DIMTSZ
 40
0.0
  9
$DIMTOL
 70
     0
  9
$DIMLIM
 70
     0
  9
$DIMTIH
 70
     0
  9
$DIMTOH
 70
     0
  9
$DIMSE1
 70
     0
  9
$DIMSE2
 70
     0
  9
$DIMTAD
 70
     1
  9
$DIMZIN
 70
     8
  9
$DIMBLK
  1

  9
$DIMASO
 70
     1
  9
$DIMSHO
 70
     1
  9
$DIMPOST
  1

  9
$DIMAPOST
  1

  9
$DIMALT
 70
     0
  9
$DIMALTD
 70
     4
  9
$DIMALTF
 40
0.0394
  9
$DIMLFAC
 40
1.0
  9
$DIMTOFL
 70
     1
  9
$DIMTVP
 40
0.0
  9
$DIMTIX
 70
     0
  9
$DIMSOXD
 70
     0
  9
$DIMSAH
 70
     0
  9
$DIMBLK1
  1

  9
$DIMBLK2
  1

  9
$DIMSTYLE
  2
STANDARD
  9
$DIMCLRD
 70
     0
  9
$DIMCLRE
 70
     0
  9
$DIMCLRT
 70
     0
  9
$DIMTFAC
 40
1.0
  9
$DIMGAP
 40
0.75
  9
$DIMJUST
 70
     0
  9
$DIMSD1
 70
     0
  9
$DIMSD2
 70
     0
  9
$DIMTOLJ
 70
     1
  9
$DIMTZIN
 70
     0
  9
$DIMALTZ
 70
     0
  9
$DIMALTTZ
 70
     0
  9
$DIMFIT
 70
     3
  9
$DIMUPT
 70
     0
  9
$DIMUNIT
 70
     8
  9
$DIMDEC
 70
     2
  9
$DIMTDEC
 70
     2
  9
$DIMALTU
 70
     8
  9
$DIMALTTD
 70
     4
  9
$DIMTXSTY
  7
STANDARD
  9
$DIMAUNIT
 70
     0
  9
$LUNITS
 70
     2
  9
$LUPREC
 70
     3
  9
$SKETCHINC
 40
1.0
  9
$FILLETRAD
 40
10.0
  9
$AUNITS
 70
     0
  9
$AUPREC
 70
     2
  9
$MENU
  1
.
  9
$ELEVATION
 40
0.0
  9
$PELEVATION
 40
0.0
  9
$THICKNESS
 40
0.0
  9
$LIMCHECK
 70
     0
  9
$BLIPMODE
 70
     0
  9
$CHAMFERA
 40
0.0
  9
$CHAMFERB
 40
0.0
  9
$CHAMFERC
 40
20.0
  9
$CHAMFERD
 40
0.0
  9
$SKPOLY
 70
     0
  9
$TDCREATE
 40
2454410.731539351
  9
$TDUPDATE
 40
2454425.685950335
  9
$TDINDWG
 40
0.0121534954
  9
$TDUSRTIMER
 40
0.0121534954
  9
$USRTIMER
 70
     1
  9
$ANGBASE
 50
0.0
  9
$ANGDIR
 70
     0
  9
$PDMODE
 70
     0
  9
$PDSIZE
 40
-10.0
  9
$PLINEWID
 40
0.0
  9
$COORDS
 70
     0
  9
$SPLFRAME
 70
     0
  9
$SPLINETYPE
 70
     6
  9
$SPLINESEGS
 70
     8
  9
$ATTDIA
 70
     0
  9
$ATTREQ
 70
     1
  9
$HANDLING
 70
-16383
  9
$HANDSEED
  5
1D2D
  9
$SURFTAB1
 70
     6
  9
$SURFTAB2
 70
     6
  9
$SURFTYPE
 70
     6
  9
$SURFU
 70
     6
  9
$SURFV
 70
     6
  9
$UCSNAME
  2

  9
$UCSORG
 10
0.0
 20
0.0
 30
0.0
  9
$UCSXDIR
 10
1.0
 20
0.0
 30
0.0
  9
$UCSYDIR
 10
0.0
 20
1.0
 30
0.0
  9
$PUCSNAME
  2

  9
$PUCSORG
 10
0.0
 20
0.0
 30
0.0
  9
$PUCSXDIR
 10
1.0
 20
0.0
 30
0.0
  9
$PUCSYDIR
 10
0.0
 20
1.0
 30
0.0
  9
$USERI1
 70
     0
  9
$USERI2
 70
     0
  9
$USERI3
 70
     0
  9
$USERI4
 70
     0
  9
$USERI5
 70
     0
  9
$USERR1
 40
0.0
  9
$USERR2
 40
0.0
  9
$USERR3
 40
0.0
  9
$USERR4
 40
0.0
  9
$USERR5
 40
0.0
  9
$WORLDVIEW
 70
     1
  9
$SHADEDGE
 70
     3
  9
$SHADEDIF
 70
    70
  9
$TILEMODE
 70
     1
  9
$MAXACTVP
 70
    48
  9
$PINSBASE
 10
0.0
 20
0.0
 30
0.0
  9
$PLIMCHECK
 70
     0
  9
$PEXTMIN
 10
0.0
 20
0.0
 30
0.0
  9
$PEXTMAX
 10
0.0
 20
0.0
 30
0.0
  9
$PLIMMIN
 10
0.0
 20
0.0
  9
$PLIMMAX
 10
12.0
 20
9.0
  9
$UNITMODE
 70
     0
  9
$VISRETAIN
 70
     1
  9
$PLINEGEN
 70
     0
  9
$PSLTSCALE
 70
     1
  9
$TREEDEPTH
 70
  3020
  9
$PICKSTYLE
 70
     1
  9
$CMLSTYLE
  2
STANDARD
  9
$CMLJUST
 70
     0
  9
$CMLSCALE
 40
1.0
  9
$PROXYGRAPHICS
 70
     1
  9
$MEASUREMENT
 70
     0
  0
ENDSEC
  0
SECTION
  2
CLASSES
  0
CLASS
  1
DICTIONARYVAR
  2
AcDbDictionaryVar
  3
AutoCAD 2000
 90
        0
280
     0
281
     0
  0
CLASS
  1
ACDBDICTIONARYWDFLT
  2
AcDbDictionaryWithDefault
  3
AutoCAD 2000
 90
        0
280
     0
281
     0
  0
CLASS
  1
ACDBPLACEHOLDER
  2
AcDbPlaceHolder
  3
AutoCAD 2000
 90
        0
280
     0
281
     0
  0
CLASS
  1
LAYOUT
  2
AcDbLayout
  3
AutoCAD 2000
 90
        0
280
     0
281
     0
  0
CLASS
  1
MATERIAL
  2
AcDbMaterial
  3
ObjectDBX Classes
 90
     1153
280
     0
281
     0
  0
CLASS
  1
VISUALSTYLE
  2
AcDbVisualStyle
  3
ObjectDBX Classes
 90
     4095
280
     0
281
     0
  0
CLASS
  1
TABLESTYLE
  2
AcDbTableStyle
  3
ObjectDBX Classes
 90
     4095
280
     0
281
     0
  0
CLASS
  1
SCALE
  2
AcDbScale
  3
ObjectDBX Classes
 90
     1153
280
     0
281
     0
  0
CLASS
  1
MLEADERSTYLE
  2
AcDbMLeaderStyle
  3
ACDB_MLEADERSTYLE_CLASS
 90
     4095
280
     0
281
     0
  0
CLASS
  1
CELLSTYLEMAP
  2
AcDbCellStyleMap
  3
ObjectDBX Classes
 90
     1152
280
     0
281
     0
  0
CLASS
  1
ACAD_PROXY_OBJECT_WRAPPER
  2
AcDbProxyObjectWrapper
  3
AutoCAD 2000
 90
        0
280
     0
281
     0
  0
CLASS
  1
LONG_TRANSACTION
  2
AcDbLongTransaction
  3
AutoCAD 2000
 90
        0
280
     0
281
     0
  0
CLASS
  1
LWPOLYLINE
  2
AcDbPolyline
  3
AutoCAD 2000
 90
        0
280
     0
281
     1
  0
CLASS
  1
HATCH
  2
AcDbHatch
  3
AutoCAD 2000
 90
        0
280
     0
281
     1
  0
CLASS
  1
XRECORD
  2
AcDbXrecord
  3
AutoCAD 2000
 90
        0
280
     0
281
     0
  0
ENDSEC
  0
SECTION
  2
TABLES
  0
TABLE
  2
VPORT
  5
6E
102
{ACAD_XDICTIONARY
360
1841
102
}
330
0
100
AcDbSymbolTable
 70
     2
  0
VPORT
  5
1D07
330
6E
100
AcDbSymbolTableRecord
100
AcDbViewportTableRecord
  2
*ACTIVE
 70
     0
 10
0.0
 20
0.0
 11
1.0
 21
1.0
 12
582.5122869430311
 22
385.8022602607972
 13
0.0
 23
0.0
 14
10.0
 24
10.0
 15
10.0
 25
10.0
 16
0.0
 26
0.0
 36
1.0
 17
0.0
 27
0.0
 37
0.0
 40
647.3398293043859
 41
1.753504672897196
 42
50.0
 43
0.0
 44
0.0
 50
0.0
 51
0.0
 71
     0
 72
   100
 73
     1
 74
     3
 75
     0
 76
     0
 77
     0
 78
     0
  0
ENDTAB
  0
TABLE
  2
LTYPE
  5
69
330
0
100
AcDbSymbolTable
 70
     8
  0
LTYPE
  5
6A
330
69
100
AcDbSymbolTableRecord
100
AcDbLinetypeTableRecord
  2
BYBLOCK
 70
     0
  3

 72
    65
 73
     0
 40
0.0
  0
LTYPE
  5
6B
330
69
100
AcDbSymbolTableRecord
100
AcDbLinetypeTableRecord
  2
BYLAYER
 70
     0
  3

 72
    65
 73
     0
 40
0.0
  0
LTYPE
  5
8
330
69
100
AcDbSymbolTableRecord
100
AcDbLinetypeTableRecord
  2
CONTINUOUS
 70
     0
  3
Solid line
 72
    65
 73
     0
 40
0.0
  0
LTYPE
  5
27C
330
69
100
AcDbSymbolTableRecord
100
AcDbLinetypeTableRecord
  2
SEKKEI_A2_
 70
     0
  3
center(A2)  ____ _ ____ _ ____ _ ____ _ ____ _ 
 72
    65
 73
     4
 40
14.28749999999999
 49
9.525
 74
     0
 49
-1.587499999999999
 74
     0
 49
1.587499999999999
 74
     0
 49
-1.587499999999999
 74
     0
  0
LTYPE
  5
48F
330
69
100
AcDbSymbolTableRecord
100
AcDbLinetypeTableRecord
  2
SEKKEI_H
 70
     0
  3
Hidden-S _ _ _ _ _ _ _ _ _ _ _ _ _ _ _ _ _
 72
    65
 73
     2
 40
2.381249999999999
 49
1.587499999999999
 74
     0
 49
-0.79375
 74
     0
  0
LTYPE
  5
7F0
330
69
100
AcDbSymbolTableRecord
100
AcDbLinetypeTableRecord
  2
HIDDEN3
 70
     0
  3
Hidden (.3x) _ _ _ _ _ _ _ _ _ _ _ _ _ _ _ _ _
 72
    65
 73
     2
 40
2.857499999999999
 49
1.905
 74
     0
 49
-0.9525
 74
     0
  0
LTYPE
  5
ADA
330
69
100
AcDbSymbolTableRecord
100
AcDbLinetypeTableRecord
  2
CENS
 70
     0
  3
(一点鎖線１)---- - ---- - ---- - ---- - ---- - 
 72
    65
 73
     4
 40
7.0
 49
4.0
 74
     0
 49
-1.0
 74
     0
 49
1.0
 74
     0
 49
-1.0
 74
     0
  0
LTYPE
  5
185D
330
69
100
AcDbSymbolTableRecord
100
AcDbLinetypeTableRecord
  2
SEKKEI-P_A4_
 70
     0
  3
Phantom(A4)  ____ _ _ ____ _ _ ____ _ _ _____
 72
    65
 73
     6
 40
15.0
 49
7.5
 74
     0
 49
-1.5
 74
     0
 49
1.5
 74
     0
 49
-1.5
 74
     0
 49
1.5
 74
     0
 49
-1.5
 74
     0
  0
LTYPE
  5
185E
330
69
100
AcDbSymbolTableRecord
100
AcDbLinetypeTableRecord
  2
SEKKEI_P_S
 70
     0
  3
Phantom_S   __ _ _ __ _ _ __ _ _ ___
 72
    65
 73
     6
 40
7.5
 49
3.75
 74
     0
 49
-0.75
 74
     0
 49
0.75
 74
     0
 49
-0.75
 74
     0
 49
0.75
 74
     0
 49
-0.75
 74
     0
  0
ENDTAB
  0
TABLE
  2
LAYER
  5
66
102
{ACAD_XDICTIONARY
360
ADB
102
}
330
0
100
AcDbSymbolTable
 70
    10
  0
LAYER
  5
5E
102
{ACAD_XDICTIONARY
360
1826
102
}
330
66
100
AcDbSymbolTableRecord
100
AcDbLayerTableRecord
  2
0
 70
     0
 62
     7
  6
CONTINUOUS
  0
LAYER
  5
3E
102
{ACAD_XDICTIONARY
360
1828
102
}
330
66
100
AcDbSymbolTableRecord
100
AcDbLayerTableRecord
  2
CENTER
 70
     0
 62
     3
  6
SEKKEI_A2_
  0
LAYER
  5
2B5
102
{ACAD_XDICTIONARY
360
182E
102
}
330
66
100
AcDbSymbolTableRecord
100
AcDbLayerTableRecord
  2
HIDS
 70
     0
 62
     1
  6
HIDDEN3
  0
LAYER
  5
2BA
102
{ACAD_XDICTIONARY
360
1830
102
}
330
66
100
AcDbSymbolTableRecord
100
AcDbLayerTableRecord
  2
HOJO
 70
     0
 62
     4
  6
CONTINUOUS
  0
LAYER
  5
3FA
102
{ACAD_XDICTIONARY
360
1834
102
}
330
66
100
AcDbSymbolTableRecord
100
AcDbLayerTableRecord
  2
TITLE
 70
     0
 62
     4
  6
CONTINUOUS
  0
LAYER
  5
185F
102
{ACAD_XDICTIONARY
360
1860
102
}
330
66
100
AcDbSymbolTableRecord
100
AcDbLayerTableRecord
  2
PHAS
 70
     0
 62
     2
  6
SEKKEI-P_A4_
  0
ENDTAB
  0
TABLE
  2
STYLE
  5
67
330
0
100
AcDbSymbolTable
 70
     2
  0
STYLE
  5
16
330
67
100
AcDbSymbolTableRecord
100
AcDbTextStyleTableRecord
  2
STANDARD
 70
     0
 40
0.0
 41
1.0
 50
0.0
 71
     0
 42
2.0
  3
simplex.shx
  4
extfont.shx
  0
ENDTAB
  0
TABLE
  2
VIEW
  5
6C
330
0
100
AcDbSymbolTable
 70
     0
  0
ENDTAB
  0
TABLE
  2
UCS
  5
6D
330
0
100
AcDbSymbolTable
 70
     0
  0
ENDTAB
  0
TABLE
  2
APPID
  5
70
330
0
100
AcDbSymbolTable
 70
     3
  0
APPID
  5
71
330
70
100
AcDbSymbolTableRecord
100
AcDbRegAppTableRecord
  2
ACAD
 70
     0
  0
APPID
  5
1823
330
70
100
AcDbSymbolTableRecord
100
AcDbRegAppTableRecord
  2
ACAD_MLEADERVER
 70
     0
  0
APPID
  5
1C7C
330
70
100
AcDbSymbolTableRecord
100
AcDbRegAppTableRecord
  2
ACAD_DSTYLE_DIMRADIAL_EXTENSION
 70
     0
  0
ENDTAB
  0
TABLE
  2
DIMSTYLE
  5
72
330
0
100
AcDbSymbolTable
 70
     1
  0
DIMSTYLE
105
73
330
72
100
AcDbSymbolTableRecord
100
AcDbDimStyleTableRecord
  2
STANDARD
 70
     0
  3

  4

  5

  6

  7

 40
3.0
 41
1.8
 42
0.625
 43
3.75
 44
0.8
 45
0.0
 46
0.0
 47
0.0
 48
0.0
140
1.8
141
2.5
142
0.0
143
0.0394
144
1.0
145
0.0
146
1.0
147
0.75
 71
     0
 72
     0
 73
     0
 74
     0
 75
     0
 76
     0
 77
     1
 78
     8
170
     0
171
     4
172
     1
173
     0
174
     0
175
     0
176
     0
177
     0
178
     0
270
     8
271
     2
272
     2
273
     8
274
     4
340
16
275
     0
280
     0
281
     0
282
     0
283
     1
284
     0
285
     0
286
     0
287
     3
288
     0
  0
ENDTAB
  0
TABLE
  2
BLOCK_RECORD
  5
1
330
0
100
AcDbSymbolTable
 70
    55
  0
BLOCK_RECORD
  5
2
102
{ACAD_XDICTIONARY
360
1D29
102
}
330
1
100
AcDbSymbolTableRecord
100
AcDbBlockTableRecord
  2
*MODEL_SPACE
  0
BLOCK_RECORD
  5
1D02
102
{ACAD_XDICTIONARY
360
1D2B
102
}
330
1
100
AcDbSymbolTableRecord
100
AcDbBlockTableRecord
  2
*PAPER_SPACE
  0
ENDTAB
  0
ENDSEC
  0
SECTION
  2
BLOCKS
  0
BLOCK
  5
5D
330
2
100
AcDbEntity
  8
0
100
AcDbBlockBegin
  2
*MODEL_SPACE
 70
     0
 10
0.0
 20
0.0
 30
0.0
  3
*MODEL_SPACE
  1

  0
ENDBLK
  5
5F
330
2
100
AcDbEntity
  8
0
100
AcDbBlockEnd
  0
BLOCK
  5
1D04
330
1D02
100
AcDbEntity
 67
     1
  8
0
100
AcDbBlockBegin
  2
*PAPER_SPACE
 70
     0
 10
0.0
 20
0.0
 30
0.0
  3
*PAPER_SPACE
  1

  0
ENDBLK
  5
1D05
330
1D02
100
AcDbEntity
 67
     1
  8
0
100
AcDbBlockEnd
  0
ENDSEC
  0
SECTION
  2
ENTITIES
  0
LINE
  5
F05
330
2
100
AcDbEntity
  8
0
100
AcDbLine
 10
667.1387035500808
 20
681.5262915070562
 30
0.0
 11
667.1387035500827
 21
622.2262915070559
 31
0.0
  0
LINE
  5
F06
330
2
100
AcDbEntity
  8
0
100
AcDbLine
 10
689.1387035500809
 20
648.8762915070561
 30
0.0
 11
689.1387035500809
 21
629.876291507056
 31
0.0
  0
LINE
  5
F07
330
2
100
AcDbEntity
  8
0
100
AcDbLine
 10
692.1387035500808
 20
651.876291507056
 30
0.0
 11
700.1387035500791
 21
651.876291507056
 31
0.0
  0
LINE
  5
F08
330
2
100
AcDbEntity
  8
0
100
AcDbLine
 10
668.7442548255456
 20
691.876291507056
 30
0.0
 11
713.138703550079
 21
691.876291507056
 31
0.0
  0
LINE
  5
F09
330
2
100
AcDbEntity
  8
0
100
AcDbLine
 10
703.1387035500791
 20
686.876291507056
 30
0.0
 11
703.1387035500791
 21
654.876291507056
 31
0.0
  0
ARC
  5
F0A
330
2
100
AcDbEntity
  8
0
100
AcDbCircle
 10
708.1387035500791
 20
686.876291507056
 30
0.0
 40
5.0
100
AcDbArc
 50
90.0
 51
180.0
  0
ARC
  5
F0B
330
2
100
AcDbEntity
  8
0
100
AcDbCircle
 10
700.1387035500791
 20
654.876291507056
 30
0.0
 40
3.0
100
AcDbArc
 50
270.0
 51
0.0
  0
LINE
  5
F0C
330
2
100
AcDbEntity
  8
0
100
AcDbLine
 10
658.1387035500808
 20
692.876291507056
 30
0.0
 11
665.1387035500826
 21
692.876291507056
 31
0.0
  0
ARC
  5
F0D
330
2
100
AcDbEntity
  8
0
100
AcDbCircle
 10
668.7442548255456
 20
696.876291507056
 30
0.0
 40
5.0
100
AcDbArc
 50
238.9972808660705
 51
270.0
  0
ARC
  5
F0E
330
2
100
AcDbEntity
  8
0
100
AcDbCircle
 10
665.1387035500826
 20
690.876291507056
 30
0.0
 40
2.0
100
AcDbArc
 50
18.96557498887199
 51
90.0
  0
ARC
  5
F0F
330
2
100
AcDbEntity
  8
0
100
AcDbCircle
 10
692.1387035500808
 20
648.8762915070561
 30
0.0
 40
3.0
100
AcDbArc
 50
90.0
 51
180.0
  0
LINE
  5
F10
330
2
100
AcDbEntity
  8
0
100
AcDbLine
 10
668.7442548255456
 20
611.876291507056
 30
0.0
 11
713.138703550079
 21
611.8762915070556
 31
0.0
  0
LINE
  5
F11
330
2
100
AcDbEntity
  8
0
100
AcDbLine
 10
692.1387035500808
 20
626.876291507056
 30
0.0
 11
700.1387035500791
 21
626.876291507056
 31
0.0
  0
LINE
  5
F12
330
2
100
AcDbEntity
  8
0
100
AcDbLine
 10
703.1387035500791
 20
623.8762915070561
 30
0.0
 11
703.1387035500791
 21
616.8762915070556
 31
0.0
  0
ARC
  5
F13
330
2
100
AcDbEntity
  8
0
100
AcDbCircle
 10
700.1387035500791
 20
623.8762915070561
 30
0.0
 40
3.0
100
AcDbArc
 50
0.0
 51
90.0
  0
ARC
  5
F14
330
2
100
AcDbEntity
  8
0
100
AcDbCircle
 10
708.1387035500791
 20
616.876291507056
 30
0.0
 40
5.0
100
AcDbArc
 50
180.0
 51
270.0
  0
ARC
  5
F15
330
2
100
AcDbEntity
  8
0
100
AcDbCircle
 10
692.1387035500808
 20
629.876291507056
 30
0.0
 40
3.0
100
AcDbArc
 50
180.0
 51
270.0
  0
LINE
  5
F16
330
2
100
AcDbEntity
  8
0
100
AcDbLine
 10
658.1387035500808
 20
610.8762915070556
 30
0.0
 11
665.1387035500826
 21
610.8762915070561
 31
0.0
  0
ARC
  5
F17
330
2
100
AcDbEntity
  8
0
100
AcDbCircle
 10
668.7442548255456
 20
606.8762915070561
 30
0.0
 40
5.0
100
AcDbArc
 50
90.0
 51
121.0027191339292
  0
ARC
  5
F18
330
2
100
AcDbEntity
  8
0
100
AcDbCircle
 10
665.1387035500826
 20
612.876291507056
 30
0.0
 40
2.0
100
AcDbArc
 50
270.0
 51
341.0344250111151
  0
LINE
  5
F19
330
2
100
AcDbEntity
  8
0
100
AcDbLine
 10
713.138703550079
 20
691.876291507056
 30
0.0
 11
713.138703550079
 21
611.8762915070556
 31
0.0
  0
LINE
  5
F1A
330
2
100
AcDbEntity
  8
0
100
AcDbLine
 10
893.7763367498488
 20
417.9790239809134
 30
0.0
 11
905.9639572247222
 21
417.9790239809142
 31
0.0
  0
LINE
  5
F1B
330
2
100
AcDbEntity
  8
0
100
AcDbLine
 10
923.7099239171364
 20
417.9790239809151
 30
0.0
 11
965.8975443920105
 21
417.9790239809188
 31
0.0
  0
CIRCLE
  5
F1C
330
2
100
AcDbEntity
  8
HIDS
100
AcDbCircle
 10
929.8369405709298
 20
376.9790239809133
 30
0.0
 40
40.0
  0
CIRCLE
  5
F1D
330
2
100
AcDbEntity
  8
0
100
AcDbCircle
 10
929.8369405709298
 20
376.9790239809133
 30
0.0
 40
34.99999999543831
  0
LINE
  5
F1E
330
2
100
AcDbEntity
  8
0
100
AcDbLine
 10
897.8369405709297
 20
416.9790239809134
 30
0.0
 11
961.8369405709298
 21
416.9790239809134
 31
0.0
  0
LINE
  5
F1F
330
2
100
AcDbEntity
  8
0
100
AcDbLine
 10
897.8369405709297
 20
336.9790239809133
 30
0.0
 11
961.7438222723691
 21
336.9790239809138
 31
0.0
  0
LINE
  5
F20
330
2
100
AcDbEntity
  8
0
100
AcDbLine
 10
888.7767085108814
 20
340.9180529048288
 30
0.0
 11
888.3369405709387
 21
376.9790239809133
 31
0.0
  0
LINE
  5
F21
330
2
100
AcDbEntity
  8
0
100
AcDbLine
 10
889.930092715819
 20
344.9557529663469
 30
0.0
 11
889.8369405709297
 21
376.9790239809133
 31
0.0
  0
ARC
  5
F22
330
2
100
AcDbEntity
  8
0
100
AcDbCircle
 10
893.7763367498488
 20
340.9790239809138
 30
0.0
 40
5.0
100
AcDbArc
 50
180.6986943829866
 51
270.0
  0
ARC
  5
F23
330
2
100
AcDbEntity
  8
0
100
AcDbCircle
 10
897.9300588694902
 20
344.9790239809134
 30
0.0
 40
7.999999999999998
100
AcDbArc
 50
180.1666665999998
 51
270.0
  0
LINE
  5
F24
330
2
100
AcDbEntity
  8
CENTER
100
AcDbLine
 10
898.01694057093
 20
350.6590239809136
 30
0.0
 11
898.01694057093
 21
339.6590239809136
 31
0.0
  0
LINE
  5
F25
330
2
100
AcDbEntity
  8
CENTER
100
AcDbLine
 10
892.5169405709301
 20
345.1590239809136
 30
0.0
 11
903.51694057093
 21
345.1590239809136
 31
0.0
  0
LINE
  5
F26
330
2
100
AcDbEntity
  8
0
100
AcDbLine
 10
888.7767085108814
 20
413.0399950569984
 30
0.0
 11
888.3369405709387
 21
376.9790239809133
 31
0.0
  0
LINE
  5
F27
330
2
100
AcDbEntity
  8
HIDS
100
AcDbLine
 10
909.0869405709279
 20
416.9790239809134
 30
0.0
 11
909.4255622072886
 21
397.5794034263579
 31
0.0
  0
LINE
  5
F28
330
2
100
AcDbEntity
  8
HIDS
100
AcDbLine
 10
920.5869405709279
 20
416.9790239809134
 30
0.0
 11
920.367186287736
 21
404.3893095287865
 31
0.0
  0
LINE
  5
F29
330
2
100
AcDbEntity
  8
0
100
AcDbLine
 10
889.930092715819
 20
409.0022949954803
 30
0.0
 11
889.8369405709297
 21
376.9790239809133
 31
0.0
  0
LINE
  5
F2A
330
2
100
AcDbEntity
  8
CENTER
100
AcDbLine
 10
898.01694057093
 20
414.2990239809139
 30
0.0
 11
898.01694057093
 21
403.299023980914
 31
0.0
  0
ARC
  5
F2B
330
2
100
AcDbEntity
  8
HIDS
100
AcDbCircle
 10
906.8023350971605
 20
414.9790239809133
 30
0.0
 40
2.0
100
AcDbArc
 50
90.0
 51
178.9999999999974
  0
ARC
  5
F2C
330
2
100
AcDbEntity
  8
0
100
AcDbCircle
 10
893.7763367498488
 20
412.9790239809134
 30
0.0
 40
5.0
100
AcDbArc
 50
90.0
 51
179.3013056170132
  0
ARC
  5
F2D
330
2
100
AcDbEntity
  8
0
100
AcDbCircle
 10
897.9300588694902
 20
408.9790239809134
 30
0.0
 40
7.999999999999998
100
AcDbArc
 50
90.0
 51
179.8333334000001
  0
LINE
  5
F2E
330
2
100
AcDbEntity
  8
CENTER
100
AcDbLine
 10
892.5169405709301
 20
408.799023980914
 30
0.0
 11
903.51694057093
 21
408.799023980914
 31
0.0
  0
LINE
  5
F2F
330
2
100
AcDbEntity
  8
HIDS
100
AcDbLine
 10
904.8026397068486
 20
415.013928793788
 30
0.0
 11
904.705488744589
 21
409.4481538935213
 31
0.0
  0
ARC
  5
F30
330
2
100
AcDbEntity
  8
HIDS
100
AcDbCircle
 10
901.7059456591184
 20
409.5005111128337
 30
0.0
 40
3.0
100
AcDbArc
 50
310.8597132650929
 51
358.9999999999843
  0
LINE
  5
F31
330
2
100
AcDbEntity
  8
0
100
AcDbLine
 10
970.897172630978
 20
340.9180529048288
 30
0.0
 11
971.3369405709206
 21
376.9790239808824
 31
0.0
  0
LINE
  5
F32
330
2
100
AcDbEntity
  8
0
100
AcDbLine
 10
969.7437884260406
 20
344.9557529663469
 30
0.0
 11
969.8369405709298
 21
376.9790239809133
 31
0.0
  0
ARC
  5
F33
330
2
100
AcDbEntity
  8
0
100
AcDbCircle
 10
965.8975443920105
 20
340.9790239809133
 30
0.0
 40
5.0
100
AcDbArc
 50
270.0
 51
359.3013056170132
  0
ARC
  5
F34
330
2
100
AcDbEntity
  8
0
100
AcDbCircle
 10
961.7438222723691
 20
344.9790239809134
 30
0.0
 40
8.0
100
AcDbArc
 50
270.0
 51
359.8333334000002
  0
LINE
  5
F35
330
2
100
AcDbEntity
  8
HIDS
100
AcDbLine
 10
954.8712414350109
 20
338.9441191680387
 30
0.0
 11
954.9683923972704
 21
344.5098940683054
 31
0.0
  0
LINE
  5
F36
330
2
100
AcDbEntity
  8
CENTER
100
AcDbLine
 10
961.6569405709295
 20
350.6590239809136
 30
0.0
 11
961.6569405709295
 21
339.6590239809136
 31
0.0
  0
ARC
  5
F37
330
2
100
AcDbEntity
  8
HIDS
100
AcDbCircle
 10
952.8715460446973
 20
338.9790239809138
 30
0.0
 40
2.0
100
AcDbArc
 50
270.0
 51
358.9999999999843
  0
LINE
  5
F38
330
2
100
AcDbEntity
  8
CENTER
100
AcDbLine
 10
956.1569405709294
 20
345.1590239809136
 30
0.0
 11
967.1569405709295
 21
345.1590239809136
 31
0.0
  0
ARC
  5
F39
330
2
100
AcDbEntity
  8
HIDS
100
AcDbCircle
 10
957.9679354827392
 20
344.457536848993
 30
0.0
 40
3.0
100
AcDbArc
 50
130.8597132650931
 51
178.9999999999843
  0
LINE
  5
F3A
330
2
100
AcDbEntity
  8
0
100
AcDbLine
 10
970.897172630978
 20
413.0399950569988
 30
0.0
 11
971.3369405709206
 21
376.9790239808824
 31
0.0
  0
LINE
  5
F3B
330
2
100
AcDbEntity
  8
0
100
AcDbLine
 10
969.7437884260406
 20
409.0022949954803
 30
0.0
 11
969.8369405709298
 21
376.9790239809133
 31
0.0
  0
LINE
  5
F3C
330
2
100
AcDbEntity
  8
CENTER
100
AcDbLine
 10
961.6569405709295
 20
414.2990239809139
 30
0.0
 11
961.6569405709295
 21
403.299023980914
 31
0.0
  0
ARC
  5
F3D
330
2
100
AcDbEntity
  8
0
100
AcDbCircle
 10
961.7438222723691
 20
408.9790239809134
 30
0.0
 40
8.0
100
AcDbArc
 50
0.1666665999998381
 51
90.0
  0
LINE
  5
F3E
330
2
100
AcDbEntity
  8
CENTER
100
AcDbLine
 10
956.1569405709294
 20
408.799023980914
 30
0.0
 11
967.1569405709295
 21
408.799023980914
 31
0.0
  0
ARC
  5
F3F
330
2
100
AcDbEntity
  8
0
100
AcDbCircle
 10
965.8975443920105
 20
412.9790239809134
 30
0.0
 40
5.0
100
AcDbArc
 50
0.6986943829867131
 51
90.0
  0
LINE
  5
F40
330
2
100
AcDbEntity
  8
0
100
AcDbLine
 10
666.9490801601584
 20
387.8425409611111
 30
0.0
 11
666.4573467564748
 21
416.0139287937939
 31
0.0
  0
LINE
  5
F41
330
2
100
AcDbEntity
  8
0
100
AcDbLine
 10
703.7511539913755
 20
412.066286013109
 30
0.0
 11
703.6891202885706
 21
408.5123775596706
 31
0.0
  0
ARC
  5
F42
330
2
100
AcDbEntity
  8
0
100
AcDbCircle
 10
664.4576513661629
 20
337.9790239809229
 30
0.0
 40
2.0
100
AcDbArc
 50
270.0
 51
358.9999999999974
  0
LINE
  5
F44
330
2
100
AcDbEntity
  8
0
100
AcDbLine
 10
667.13870355445
 20
376.9790239809229
 30
0.0
 11
666.4573467564767
 21
337.9441191680482
 31
0.0
  0
LINE
  5
F45
330
2
100
AcDbEntity
  8
0
100
AcDbLine
 10
703.7511539913755
 20
341.8917619487368
 30
0.0
 11
703.1387035544518
 21
376.9790239809229
 31
0.0
  0
LINE
  5
F46
330
2
100
AcDbEntity
  8
0
100
AcDbLine
 10
713.13870355445
 20
336.9790239809229
 30
0.0
 11
667.6199290263318
 21
336.9790239809229
 31
0.0
  0
ARC
  5
F47
330
2
100
AcDbEntity
  8
0
100
AcDbCircle
 10
708.750392467158
 20
341.9790239809229
 30
0.0
 40
5.0
100
AcDbArc
 50
181.0000000000025
 51
270.0
  0
LINE
  5
F48
330
2
100
AcDbEntity
  8
0
100
AcDbLine
 10
658.13870355445
 20
335.9790239809229
 30
0.0
 11
664.4576513661629
 21
335.9790239809229
 31
0.0
  0
ARC
  5
F49
330
2
100
AcDbEntity
  8
0
100
AcDbCircle
 10
664.4576513661629
 20
415.9790239809233
 30
0.0
 40
2.0
100
AcDbArc
 50
0.9999999998967215
 51
90.0
  0
LINE
  5
F4A
330
2
100
AcDbEntity
  8
0
100
AcDbLine
 10
713.13870355445
 20
416.9790239809229
 30
0.0
 11
667.6199290263318
 21
416.9790239809229
 31
0.0
  0
ARC
  5
F4B
330
2
100
AcDbEntity
  8
0
100
AcDbCircle
 10
708.750392467158
 20
411.9790239809229
 30
0.0
 40
5.0
100
AcDbArc
 50
90.0
 51
178.9999999999974
  0
LINE
  5
F4C
330
2
100
AcDbEntity
  8
0
100
AcDbLine
 10
658.1387035544519
 20
417.9790239809229
 30
0.0
 11
664.4576513661629
 21
417.9790239809234
 31
0.0
  0
LINE
  5
F4D
330
2
100
AcDbEntity
  8
0
100
AcDbLine
 10
713.13870355445
 20
416.9790239809229
 30
0.0
 11
713.13870355445
 21
336.9790239809229
 31
0.0
  0
ARC
  5
F4E
330
2
100
AcDbEntity
  8
0
100
AcDbCircle
 10
667.6199290263318
 20
420.4790239809229
 30
0.0
 40
3.5
100
AcDbArc
 50
234.9031987723859
 51
270.0
  0
ARC
  5
F4F
330
2
100
AcDbEntity
  8
0
100
AcDbCircle
 10
667.6199290263318
 20
333.4790239809229
 30
0.0
 40
3.5
100
AcDbArc
 50
90.0
 51
125.0968012276142
  0
ARC
  5
F50
330
2
100
AcDbEntity
  8
0
100
AcDbCircle
 10
952.4329840111157
 20
456.7598152928765
 30
0.0
 40
40.0
100
AcDbArc
 50
263.8230035951095
 51
263.9988421367181
  0
ARC
  5
F51
330
2
100
AcDbEntity
  8
0
100
AcDbCircle
 10
907.2408971307439
 20
297.1982326689502
 30
0.0
 40
40.0
100
AcDbArc
 50
83.82300359510955
 51
83.99884213682334
  0
LINE
  5
F52
330
2
100
AcDbEntity
  8
0
100
AcDbLine
 10
893.7763367498488
 20
335.9790239809133
 30
0.0
 11
965.8975443920105
 21
335.9790239809133
 31
0.0
  0
ARC
  5
F53
330
2
100
AcDbEntity
  8
0
100
AcDbCircle
 10
952.4329840111157
 20
297.1982326689506
 30
0.0
 40
40.0
100
AcDbArc
 50
96.00115786317665
 51
96.17699640489044
  0
LINE
  5
F54
330
2
100
AcDbEntity
  8
CENTER
  6
CENS
100
AcDbLine
 10
651.5338855546795
 20
411.6290239809234
 30
0.0
 11
678.5338855546795
 21
411.6290239809234
 31
0.0
  0
LINE
  5
F55
330
2
100
AcDbEntity
  8
0
100
AcDbLine
 10
673.2211608793111
 20
406.6290239809235
 30
0.0
 11
673.2211608793111
 21
416.6290239809234
 31
0.0
  0
LINE
  5
F56
330
2
100
AcDbEntity
  8
0
100
AcDbLine
 10
673.6211608793107
 20
415.9362036578957
 30
0.0
 11
673.6211608793107
 21
407.3218443039507
 31
0.0
  0
LINE
  5
F57
330
2
100
AcDbEntity
  8
0
100
AcDbLine
 10
667.6211608793107
 20
406.6290239809235
 30
0.0
 11
667.6211608793107
 21
416.6290239809234
 31
0.0
  0
LINE
  5
F58
330
2
100
AcDbEntity
  8
0
100
AcDbLine
 10
667.6211608793107
 20
416.6290239809234
 30
0.0
 11
666.6211608793108
 21
416.6290239809234
 31
0.0
  0
LINE
  5
F59
330
2
100
AcDbEntity
  8
0
100
AcDbLine
 10
666.6211608793108
 20
416.6290239809234
 30
0.0
 11
666.6211608793108
 21
406.6290239809235
 31
0.0
  0
LINE
  5
F5A
330
2
100
AcDbEntity
  8
0
100
AcDbLine
 10
666.6211608793108
 20
406.6290239809235
 30
0.0
 11
667.6211608793107
 21
406.6290239809235
 31
0.0
  0
LINE
  5
F5B
330
2
100
AcDbEntity
  8
0
100
AcDbLine
 10
667.6211608793107
 20
406.6290239809235
 30
0.0
 11
667.6211608793107
 21
416.6290239809234
 31
0.0
  0
LINE
  5
F5C
330
2
100
AcDbEntity
  8
0
100
AcDbLine
 10
673.2211608793111
 20
406.6290239809235
 30
0.0
 11
667.6211608793107
 21
406.6290239809235
 31
0.0
  0
LINE
  5
F5D
330
2
100
AcDbEntity
  8
0
100
AcDbLine
 10
667.6211608793107
 20
416.6290239809234
 30
0.0
 11
673.2211608793111
 21
416.6290239809234
 31
0.0
  0
LINE
  5
F5E
330
2
100
AcDbEntity
  8
0
100
AcDbLine
 10
673.2211608793111
 20
416.6290239809234
 30
0.0
 11
673.6211608793107
 21
415.9362036578957
 31
0.0
  0
LINE
  5
F5F
330
2
100
AcDbEntity
  8
0
100
AcDbLine
 10
673.2211608793111
 20
406.629023980923
 30
0.0
 11
673.6211608793107
 21
407.3218443039507
 31
0.0
  0
LINE
  5
F60
330
2
100
AcDbEntity
  8
CENTER
  6
CENS
100
AcDbLine
 10
651.5338855546795
 20
342.3290239809233
 30
0.0
 11
678.5338855546795
 21
342.3290239809233
 31
0.0
  0
LINE
  5
F61
330
2
100
AcDbEntity
  8
0
100
AcDbLine
 10
673.2211608793111
 20
347.3290239809232
 30
0.0
 11
673.2211608793111
 21
337.3290239809232
 31
0.0
  0
LINE
  5
F62
330
2
100
AcDbEntity
  8
0
100
AcDbLine
 10
673.6211608793107
 20
338.0218443039505
 30
0.0
 11
673.6211608793107
 21
346.6362036578951
 31
0.0
  0
LINE
  5
F63
330
2
100
AcDbEntity
  8
0
100
AcDbLine
 10
667.6211608793107
 20
347.3290239809232
 30
0.0
 11
667.6211608793107
 21
337.3290239809232
 31
0.0
  0
LINE
  5
F64
330
2
100
AcDbEntity
  8
0
100
AcDbLine
 10
667.6211608793107
 20
337.3290239809232
 30
0.0
 11
666.6211608793108
 21
337.3290239809232
 31
0.0
  0
LINE
  5
F65
330
2
100
AcDbEntity
  8
0
100
AcDbLine
 10
666.6211608793108
 20
337.3290239809232
 30
0.0
 11
666.6211608793108
 21
347.3290239809232
 31
0.0
  0
LINE
  5
F66
330
2
100
AcDbEntity
  8
0
100
AcDbLine
 10
666.6211608793108
 20
347.3290239809232
 30
0.0
 11
667.6211608793107
 21
347.3290239809232
 31
0.0
  0
LINE
  5
F67
330
2
100
AcDbEntity
  8
0
100
AcDbLine
 10
667.6211608793107
 20
347.3290239809232
 30
0.0
 11
667.6211608793107
 21
337.3290239809232
 31
0.0
  0
LINE
  5
F68
330
2
100
AcDbEntity
  8
0
100
AcDbLine
 10
673.2211608793111
 20
347.3290239809232
 30
0.0
 11
667.6211608793107
 21
347.3290239809232
 31
0.0
  0
LINE
  5
F69
330
2
100
AcDbEntity
  8
0
100
AcDbLine
 10
667.6211608793107
 20
337.3290239809232
 30
0.0
 11
673.2211608793111
 21
337.3290239809232
 31
0.0
  0
LINE
  5
F6A
330
2
100
AcDbEntity
  8
0
100
AcDbLine
 10
673.2211608793111
 20
337.3290239809232
 30
0.0
 11
673.6211608793107
 21
338.0218443039505
 31
0.0
  0
LINE
  5
F6B
330
2
100
AcDbEntity
  8
0
100
AcDbLine
 10
673.2211608793111
 20
347.3290239809232
 30
0.0
 11
673.6211608793107
 21
346.6362036578956
 31
0.0
  0
LINE
  5
F6C
330
2
100
AcDbEntity
  8
CENTER
  6
CENS
100
AcDbLine
 10
651.5338855503085
 20
617.2262915070559
 30
0.0
 11
678.5338855503084
 21
617.2262915070559
 31
0.0
  0
LINE
  5
F6D
330
2
100
AcDbEntity
  8
0
100
AcDbLine
 10
673.2211608749401
 20
622.2262915070559
 30
0.0
 11
673.2211608749401
 21
612.2262915070559
 31
0.0
  0
LINE
  5
F6E
330
2
100
AcDbEntity
  8
0
100
AcDbLine
 10
673.6211608749397
 20
612.9191118300832
 30
0.0
 11
673.6211608749397
 21
621.5334711840283
 31
0.0
  0
LINE
  5
F6F
330
2
100
AcDbEntity
  8
0
100
AcDbLine
 10
667.6211608749397
 20
622.2262915070559
 30
0.0
 11
667.6211608749397
 21
612.2262915070559
 31
0.0
  0
LINE
  5
F70
330
2
100
AcDbEntity
  8
0
100
AcDbLine
 10
667.6211608749397
 20
612.2262915070559
 30
0.0
 11
666.6211608749397
 21
612.2262915070559
 31
0.0
  0
LINE
  5
F71
330
2
100
AcDbEntity
  8
0
100
AcDbLine
 10
666.6211608749397
 20
612.2262915070559
 30
0.0
 11
666.6211608749397
 21
622.2262915070559
 31
0.0
  0
LINE
  5
F72
330
2
100
AcDbEntity
  8
0
100
AcDbLine
 10
666.6211608749397
 20
622.2262915070559
 30
0.0
 11
667.6211608749397
 21
622.2262915070559
 31
0.0
  0
LINE
  5
F73
330
2
100
AcDbEntity
  8
0
100
AcDbLine
 10
667.6211608749397
 20
622.2262915070559
 30
0.0
 11
667.6211608749397
 21
612.2262915070559
 31
0.0
  0
LINE
  5
F74
330
2
100
AcDbEntity
  8
0
100
AcDbLine
 10
673.2211608749401
 20
622.2262915070559
 30
0.0
 11
667.6211608749397
 21
622.2262915070559
 31
0.0
  0
LINE
  5
F75
330
2
100
AcDbEntity
  8
0
100
AcDbLine
 10
667.6211608749397
 20
612.2262915070559
 30
0.0
 11
673.2211608749401
 21
612.2262915070559
 31
0.0
  0
LINE
  5
F76
330
2
100
AcDbEntity
  8
0
100
AcDbLine
 10
673.2211608749401
 20
612.2262915070559
 30
0.0
 11
673.6211608749397
 21
612.9191118300832
 31
0.0
  0
LINE
  5
F77
330
2
100
AcDbEntity
  8
0
100
AcDbLine
 10
673.2211608749401
 20
622.2262915070559
 30
0.0
 11
673.6211608749397
 21
621.5334711840287
 31
0.0
  0
LINE
  5
F78
330
2
100
AcDbEntity
  8
CENTER
  6
CENS
100
AcDbLine
 10
651.5338855503085
 20
686.5262915070561
 30
0.0
 11
678.5338855503084
 21
686.5262915070561
 31
0.0
  0
LINE
  5
F79
330
2
100
AcDbEntity
  8
0
100
AcDbLine
 10
673.2211608749401
 20
681.5262915070562
 30
0.0
 11
673.2211608749401
 21
691.5262915070561
 31
0.0
  0
LINE
  5
F7A
330
2
100
AcDbEntity
  8
0
100
AcDbLine
 10
673.6211608749397
 20
690.8334711840288
 30
0.0
 11
673.6211608749397
 21
682.2191118300838
 31
0.0
  0
LINE
  5
F7B
330
2
100
AcDbEntity
  8
0
100
AcDbLine
 10
667.6211608749397
 20
681.5262915070562
 30
0.0
 11
667.6211608749397
 21
691.5262915070561
 31
0.0
  0
LINE
  5
F7C
330
2
100
AcDbEntity
  8
0
100
AcDbLine
 10
667.6211608749397
 20
691.5262915070561
 30
0.0
 11
666.6211608749397
 21
691.5262915070561
 31
0.0
  0
LINE
  5
F7D
330
2
100
AcDbEntity
  8
0
100
AcDbLine
 10
666.6211608749397
 20
691.5262915070561
 30
0.0
 11
666.6211608749397
 21
681.5262915070562
 31
0.0
  0
LINE
  5
F7E
330
2
100
AcDbEntity
  8
0
100
AcDbLine
 10
666.6211608749397
 20
681.5262915070562
 30
0.0
 11
667.6211608749397
 21
681.5262915070562
 31
0.0
  0
LINE
  5
F7F
330
2
100
AcDbEntity
  8
0
100
AcDbLine
 10
667.6211608749397
 20
681.5262915070562
 30
0.0
 11
667.6211608749397
 21
691.5262915070561
 31
0.0
  0
LINE
  5
F80
330
2
100
AcDbEntity
  8
0
100
AcDbLine
 10
673.2211608749401
 20
681.5262915070562
 30
0.0
 11
667.6211608749397
 21
681.5262915070562
 31
0.0
  0
LINE
  5
F81
330
2
100
AcDbEntity
  8
0
100
AcDbLine
 10
667.6211608749397
 20
691.5262915070561
 30
0.0
 11
673.2211608749401
 21
691.5262915070561
 31
0.0
  0
LINE
  5
F82
330
2
100
AcDbEntity
  8
0
100
AcDbLine
 10
673.2211608749401
 20
691.5262915070561
 30
0.0
 11
673.6211608749397
 21
690.8334711840288
 31
0.0
  0
LINE
  5
F83
330
2
100
AcDbEntity
  8
0
100
AcDbLine
 10
673.2211608749401
 20
681.5262915070562
 30
0.0
 11
673.6211608749397
 21
682.2191118300834
 31
0.0
  0
LINE
  5
F84
330
2
100
AcDbEntity
  8
0
100
AcDbLine
 10
713.13870355445
 20
411.9790239809229
 30
0.0
 11
706.1387035544501
 21
411.9790239809229
 31
0.0
  0
LINE
  5
F85
330
2
100
AcDbEntity
  8
0
100
AcDbLine
 10
706.1387035544501
 20
411.9790239809229
 30
0.0
 11
706.1387035544501
 21
376.9790239809229
 31
0.0
  0
LINE
  5
F87
330
2
100
AcDbEntity
  8
0
100
AcDbLine
 10
706.1387035544501
 20
396.7290239809229
 30
0.0
 11
706.1387035544519
 21
376.9790239809229
 31
0.0
  0
SPLINE
  5
F88
330
2
100
AcDbEntity
  8
HOJO
100
AcDbSpline
210
0.0
220
0.0
230
1.0
 70
     8
 71
     3
 72
    20
 73
    16
 74
     0
 42
0.0000000001
 43
0.0000000001
 40
1.102548511336045
 40
1.102548511336045
 40
1.102548511336045
 40
1.102548511336045
 40
5.647385924430076
 40
9.759277458584113
 40
14.59638394258456
 40
18.6386056126129
 40
22.25598020257161
 40
26.57819511411361
 40
31.00332353479096
 40
40.39337194914635
 40
45.49899296170218
 40
52.02718752358933
 40
57.17041693382338
 40
65.63449353306062
 40
69.3611614947018
 40
69.3611614947018
 40
69.3611614947018
 40
69.3611614947018
 10
709.549455476759
 20
416.9790239809229
 30
0.0
 10
708.1406679563658
 20
416.2505965312351
 30
0.0
 10
705.6279819946064
 20
414.7198839090763
 30
0.0
 10
704.3070557484786
 20
410.155361251722
 30
0.0
 10
703.1571464229307
 20
406.763791757204
 30
0.0
 10
699.6693900109419
 20
403.0900265459598
 30
0.0
 10
697.9975548345789
 20
399.5646664159806
 30
0.0
 10
696.0203082741243
 20
396.0139497184858
 30
0.0
 10
692.6325269615606
 20
390.4249051300315
 30
0.0
 10
685.1081679172454
 20
390.6004815776226
 30
0.0
 10
678.3798285605969
 20
389.4541110441253
 30
0.0
 10
673.0365620151895
 20
388.7174959606521
 30
0.0
 10
666.037781500803
 20
388.9874750002375
 30
0.0
 10
662.3230487015787
 20
381.9133333229659
 30
0.0
 10
661.0012072627831
 20
378.1434268297901
 30
0.0
 10
660.588534489674
 20
376.9790239809229
 30
0.0
  0
LINE
  5
F89
330
2
100
AcDbEntity
  8
HIDS
100
AcDbLine
 10
919.8369405709298
 20
394.0102453111647
 30
0.0
 11
919.8369405709298
 21
381.9790239809133
 31
0.0
  0
LINE
  5
F8A
330
2
100
AcDbEntity
  8
CENTER
  6
CENS
100
AcDbLine
 10
914.8369405709297
 20
426.1027084036166
 30
0.0
 11
914.8369405709297
 21
361.1313588233841
 31
0.0
  0
LINE
  5
F8B
330
2
100
AcDbEntity
  8
0
100
AcDbLine
 10
910.1011862149396
 20
376.2290239809134
 30
0.0
 11
920.3665921084919
 21
376.2290239809134
 31
0.0
  0
LINE
  5
F8C
330
2
100
AcDbEntity
  8
0
100
AcDbLine
 10
910.1011862149396
 20
377.7290239809133
 30
0.0
 11
920.3665921084919
 21
377.7290239809133
 31
0.0
  0
LINE
  5
F8D
330
2
100
AcDbEntity
  8
0
100
AcDbLine
 10
947.0369405709286
 20
376.2290239809134
 30
0.0
 11
947.0369405709286
 21
377.7290239809133
 31
0.0
  0
LINE
  5
F8E
330
2
100
AcDbEntity
  8
0
100
AcDbLine
 10
939.3072890333677
 20
376.2290239809134
 30
0.0
 11
947.0369405709286
 21
376.2290239809134
 31
0.0
  0
LINE
  5
F8F
330
2
100
AcDbEntity
  8
0
100
AcDbLine
 10
939.3072890333677
 20
377.7290239809133
 30
0.0
 11
947.0369405709286
 21
377.7290239809133
 31
0.0
  0
LINE
  5
F90
330
2
100
AcDbEntity
  8
HIDS
100
AcDbLine
 10
917.3369405709298
 20
376.2290239809134
 30
0.0
 11
917.3369405709298
 21
361.6880952975405
 31
0.0
  0
LINE
  5
F91
330
2
100
AcDbEntity
  8
HIDS
100
AcDbLine
 10
916.9202739042637
 20
376.2290239809134
 30
0.0
 11
916.9202739042637
 21
362.0384007602368
 31
0.0
  0
LINE
  5
F92
330
2
100
AcDbEntity
  8
HIDS
100
AcDbLine
 10
912.7536072375958
 20
376.2290239809134
 30
0.0
 11
912.7536072375958
 21
367.0683114827014
 31
0.0
  0
LINE
  5
F93
330
2
100
AcDbEntity
  8
HIDS
100
AcDbLine
 10
912.3369405709297
 20
376.2290239809134
 30
0.0
 11
912.3369405709297
 21
367.8241072691132
 31
0.0
  0
LINE
  5
F94
330
2
100
AcDbEntity
  8
HIDS
100
AcDbLine
 10
917.8369405709297
 20
381.9790239809133
 30
0.0
 11
917.8369405709297
 21
377.7290239809133
 31
0.0
  0
LINE
  5
F95
330
2
100
AcDbEntity
  8
HIDS
100
AcDbLine
 10
911.8369405709298
 20
381.9790239809133
 30
0.0
 11
911.8369405709298
 21
377.7290239809133
 31
0.0
  0
LINE
  5
F96
330
2
100
AcDbEntity
  8
HIDS
100
AcDbLine
 10
910.7303317666453
 20
381.9790239809133
 30
0.0
 11
919.8369405709298
 21
381.9790239809133
 31
0.0
  0
LINE
  5
F97
330
2
100
AcDbEntity
  8
HIDS
100
AcDbLine
 10
919.0869405709298
 20
381.9790239809133
 30
0.0
 11
919.0869405709298
 21
386.6790239809136
 31
0.0
  0
LINE
  5
F98
330
2
100
AcDbEntity
  8
0
100
AcDbLine
 10
910.5869405709297
 20
386.6790239809136
 30
0.0
 11
910.5869405709297
 21
381.9790239809133
 31
0.0
  0
LINE
  5
F99
330
2
100
AcDbEntity
  8
HIDS
100
AcDbLine
 10
917.3369405709298
 20
367.9790239809134
 30
0.0
 11
916.3369405709298
 21
366.9790239809133
 31
0.0
  0
LINE
  5
F9A
330
2
100
AcDbEntity
  8
HIDS
100
AcDbLine
 10
912.3369405709297
 20
367.9790239809134
 30
0.0
 11
913.3369405709297
 21
366.9790239809133
 31
0.0
  0
LINE
  5
F9B
330
2
100
AcDbEntity
  8
HIDS
100
AcDbLine
 10
916.3369405709298
 20
366.9790239809133
 30
0.0
 11
914.8369405709297
 21
366.9790239809133
 31
0.0
  0
LINE
  5
F9C
330
2
100
AcDbEntity
  8
HIDS
100
AcDbLine
 10
913.3369405709297
 20
366.9790239809133
 30
0.0
 11
914.8369405709297
 21
366.9790239809133
 31
0.0
  0
LINE
  5
F9D
330
2
100
AcDbEntity
  8
HIDS
100
AcDbLine
 10
917.3369405709298
 20
381.9790239809133
 30
0.0
 11
917.3369405709298
 21
377.7290239809133
 31
0.0
  0
LINE
  5
F9E
330
2
100
AcDbEntity
  8
HIDS
100
AcDbLine
 10
916.9202739042637
 20
379.8956906475803
 30
0.0
 11
916.9202739042637
 21
377.7290239809133
 31
0.0
  0
LINE
  5
F9F
330
2
100
AcDbEntity
  8
HIDS
100
AcDbLine
 10
912.7536072375958
 20
379.8956906475803
 30
0.0
 11
912.7536072375958
 21
377.7290239809133
 31
0.0
  0
LINE
  5
FA0
330
2
100
AcDbEntity
  8
HIDS
100
AcDbLine
 10
912.3369405709297
 20
381.9790239809133
 30
0.0
 11
912.3369405709297
 21
377.7290239809133
 31
0.0
  0
LINE
  5
FA1
330
2
100
AcDbEntity
  8
HIDS
100
AcDbLine
 10
917.3369405709298
 20
367.9790239809134
 30
0.0
 11
914.8369405709297
 21
367.9790239809134
 31
0.0
  0
LINE
  5
FA2
330
2
100
AcDbEntity
  8
HIDS
100
AcDbLine
 10
912.3369405709297
 20
367.9790239809134
 30
0.0
 11
914.8369405709297
 21
367.9790239809134
 31
0.0
  0
LINE
  5
FA3
330
2
100
AcDbEntity
  8
HIDS
100
AcDbLine
 10
917.3369405709298
 20
379.8956906475803
 30
0.0
 11
912.3369405709297
 21
379.8956906475803
 31
0.0
  0
LINE
  5
FA4
330
2
100
AcDbEntity
  8
0
100
AcDbLine
 10
910.5869405709297
 20
381.9790239809133
 30
0.0
 11
910.7303317666453
 21
381.9790239809133
 31
0.0
  0
LINE
  5
FA5
330
2
100
AcDbEntity
  8
HIDS
100
AcDbLine
 10
912.3369405709297
 20
381.9790239809133
 30
0.0
 11
912.7536072375958
 21
379.8956906475803
 31
0.0
  0
LINE
  5
FA6
330
2
100
AcDbEntity
  8
HIDS
100
AcDbLine
 10
917.3369405709298
 20
381.9790239809133
 30
0.0
 11
916.9202739042637
 21
379.8956906475803
 31
0.0
  0
LINE
  5
FA7
330
2
100
AcDbEntity
  8
0
100
AcDbLine
 10
910.5869405709297
 20
386.6790239809136
 30
0.0
 11
912.633089257925
 21
386.6790239809132
 31
0.0
  0
LINE
  5
FA8
330
2
100
AcDbEntity
  8
HIDS
100
AcDbLine
 10
918.5673253286593
 20
386.9790239809134
 30
0.0
 11
912.8057192406783
 21
386.9790239809134
 31
0.0
  0
LINE
  5
FA9
330
2
100
AcDbEntity
  8
0
100
AcDbLine
 10
910.5869405709297
 20
386.6790239809136
 30
0.0
 11
911.1065558132002
 21
386.9790239809134
 31
0.0
  0
LINE
  5
FAA
330
2
100
AcDbEntity
  8
HIDS
100
AcDbLine
 10
918.5673253286593
 20
386.9790239809134
 30
0.0
 11
919.0869405709298
 21
386.6790239809136
 31
0.0
  0
LINE
  5
FAB
330
2
100
AcDbEntity
  8
HIDS
100
AcDbLine
 10
910.7303317666453
 20
381.9790239809133
 30
0.0
 11
919.0869405709298
 21
381.9790239809133
 31
0.0
  0
LINE
  5
FAC
330
2
100
AcDbEntity
  8
0
100
AcDbLine
 10
912.8057192406783
 20
386.9790239809134
 30
0.0
 11
911.1065558132002
 21
386.9790239809134
 31
0.0
  0
LINE
  5
FAD
330
2
100
AcDbEntity
  8
HIDS
100
AcDbLine
 10
912.633089257925
 20
386.6790239809136
 30
0.0
 11
919.0869405709298
 21
386.6790239809136
 31
0.0
  0
LINE
  5
FAE
330
2
100
AcDbEntity
  8
0
100
AcDbLine
 10
917.3369405709298
 20
377.7290239809133
 30
0.0
 11
917.3369405709298
 21
376.2290239809134
 31
0.0
  0
LINE
  5
FAF
330
2
100
AcDbEntity
  8
HOJO
100
AcDbLine
 10
916.9202739042637
 20
377.7290239809133
 30
0.0
 11
916.9202739042637
 21
376.2290239809134
 31
0.0
  0
LINE
  5
FB0
330
2
100
AcDbEntity
  8
HOJO
100
AcDbLine
 10
912.7536072375958
 20
377.7290239809133
 30
0.0
 11
912.7536072375958
 21
376.2290239809134
 31
0.0
  0
LINE
  5
FB1
330
2
100
AcDbEntity
  8
0
100
AcDbLine
 10
912.3369405709297
 20
377.7290239809133
 30
0.0
 11
912.3369405709297
 21
376.2290239809134
 31
0.0
  0
LINE
  5
FB2
330
2
100
AcDbEntity
  8
HIDS
100
AcDbLine
 10
912.3369405709297
 20
376.2290239809134
 30
0.0
 11
912.3369405709297
 21
367.9790239809134
 31
0.0
  0
LINE
  5
FB3
330
2
100
AcDbEntity
  8
HIDS
100
AcDbLine
 10
916.9202739042637
 20
376.2290239809134
 30
0.0
 11
916.9202739042637
 21
367.5623573142468
 31
0.0
  0
LINE
  5
FB4
330
2
100
AcDbEntity
  8
HIDS
100
AcDbLine
 10
917.3369405709298
 20
376.2290239809134
 30
0.0
 11
917.3369405709298
 21
367.9790239809134
 31
0.0
  0
LINE
  5
FB5
330
2
100
AcDbEntity
  8
HIDS
100
AcDbLine
 10
912.7536072375958
 20
376.2290239809134
 30
0.0
 11
912.7536072375958
 21
367.5623573142468
 31
0.0
  0
CIRCLE
  5
FB6
330
2
100
AcDbEntity
  8
0
100
AcDbCircle
 10
929.8369405709298
 20
376.9790239809133
 30
0.0
 40
19.75
  0
LINE
  5
FB7
330
2
100
AcDbEntity
  8
0
100
AcDbLine
 10
909.8369405709297
 20
420.9790239809134
 30
0.0
 11
919.8369405709298
 21
420.9790239809134
 31
0.0
  0
ARC
  5
FB8
330
2
100
AcDbEntity
  8
0
100
AcDbCircle
 10
919.8369405709298
 20
416.9790239809134
 30
0.0
 40
4.0
100
AcDbArc
 50
0.0
 51
90.0
  0
ARC
  5
FB9
330
2
100
AcDbEntity
  8
0
100
AcDbCircle
 10
909.8369405709297
 20
416.9790239809134
 30
0.0
 40
4.0
100
AcDbArc
 50
90.0
 51
180.0
  0
LINE
  5
FBA
330
2
100
AcDbEntity
  8
0
100
AcDbLine
 10
704.1387035544137
 20
420.9790239809229
 30
0.0
 11
694.1387035544137
 21
420.9790239809229
 31
0.0
  0
ARC
  5
FBB
330
2
100
AcDbEntity
  8
0
100
AcDbCircle
 10
694.1387035544137
 20
416.9790239809229
 30
0.0
 40
4.0
100
AcDbArc
 50
90.0
 51
180.0
  0
ARC
  5
FBC
330
2
100
AcDbEntity
  8
0
100
AcDbCircle
 10
704.1387035544137
 20
416.9790239809229
 30
0.0
 40
4.0
100
AcDbArc
 50
0.0
 51
90.0
  0
LINE
  5
FBD
330
2
100
AcDbEntity
  8
CENTER
  6
CENS
100
AcDbLine
 10
699.1387035544136
 20
426.1027084036257
 30
0.0
 11
699.1387035544136
 21
402.7427824012614
 31
0.0
  0
CIRCLE
  5
FBE
330
2
100
AcDbEntity
  8
0
100
AcDbCircle
 10
699.1387035500808
 20
636.876291507056
 30
0.0
 40
9.0
  0
LINE
  5
FBF
330
2
100
AcDbEntity
  8
CENTER
  6
CENS
100
AcDbLine
 10
699.1387035500808
 20
622.9417243193665
 30
0.0
 11
699.1387035500808
 21
650.8108586947446
 31
0.0
  0
LINE
  5
FC0
330
2
100
AcDbEntity
  8
CENTER
  6
CENS
100
AcDbLine
 10
713.0732707377699
 20
636.8762915070556
 30
0.0
 11
685.2041363623918
 21
636.8762915070556
 31
0.0
  0
CIRCLE
  5
FC1
330
2
100
AcDbEntity
  8
CENTER
100
AcDbCircle
 10
929.8369405709298
 20
376.9790239809133
 30
0.0
 40
45.0002755547118
  0
LINE
  5
FC2
330
2
100
AcDbEntity
  8
0
100
AcDbLine
 10
889.8369405708224
 20
376.9790239809133
 30
0.0
 11
888.3369405709387
 21
376.9790239809133
 31
0.0
  0
LINE
  5
FC3
330
2
100
AcDbEntity
  8
0
100
AcDbLine
 10
969.8369405709298
 20
376.9790239807278
 30
0.0
 11
971.3369405709206
 21
376.9790239808824
 31
0.0
  0
LINE
  5
FC4
330
2
100
AcDbEntity
  8
0
100
AcDbLine
 10
95.41773806541618
 20
376.9790239809267
 30
0.0
 11
96.09909486331686
 21
416.0139287937978
 31
0.0
  0
LINE
  5
FC5
330
2
100
AcDbEntity
  8
0
100
AcDbLine
 10
58.80528762841618
 20
412.0662860131129
 30
0.0
 11
59.41773806535343
 21
376.9790239809267
 31
0.0
  0
ARC
  5
FC6
330
2
100
AcDbEntity
  8
0
100
AcDbCircle
 10
98.09879025362874
 20
337.9790239809267
 30
0.0
 40
2.0
100
AcDbArc
 50
181.0000000000025
 51
270.0
  0
LINE
  5
FC8
330
2
100
AcDbEntity
  8
0
100
AcDbLine
 10
95.41773806534161
 20
376.9790239809267
 30
0.0
 11
96.09909486331503
 21
337.9441191680521
 31
0.0
  0
LINE
  5
FC9
330
2
100
AcDbEntity
  8
0
100
AcDbLine
 10
58.80528762841618
 20
341.8917619487406
 30
0.0
 11
59.41773806533979
 21
376.9790239809267
 31
0.0
  0
LINE
  5
FCA
330
2
100
AcDbEntity
  8
0
100
AcDbLine
 10
49.41773806534161
 20
336.9790239809268
 30
0.0
 11
94.93651259345984
 21
336.9790239809268
 31
0.0
  0
ARC
  5
FCB
330
2
100
AcDbEntity
  8
0
100
AcDbCircle
 10
76.52118039866923
 20
342.8790506849678
 30
0.0
 40
3.0
100
AcDbArc
 50
90.0
 51
178.9999999999974
  0
LINE
  5
FCC
330
2
100
AcDbEntity
  8
0
100
AcDbLine
 10
76.52118039866923
 20
345.8790506849678
 30
0.0
 11
63.87488601219388
 21
345.8790506849678
 31
0.0
  0
ARC
  5
FCD
330
2
100
AcDbEntity
  8
0
100
AcDbCircle
 10
53.8060491526337
 20
341.9790239809267
 30
0.0
 40
5.0
100
AcDbArc
 50
270.0
 51
358.9999999999974
  0
ARC
  5
FCE
330
2
100
AcDbEntity
  8
0
100
AcDbCircle
 10
71.45234353910905
 20
338.9790239809268
 30
0.0
 40
2.0
100
AcDbArc
 50
270.0
 51
358.9999999999974
  0
LINE
  5
FCF
330
2
100
AcDbEntity
  8
0
100
AcDbLine
 10
73.52074302659798
 20
342.8801742591391
 30
0.0
 11
73.45203892942277
 21
338.9441191680521
 31
0.0
  0
LINE
  5
FD0
330
2
100
AcDbEntity
  8
0
100
AcDbLine
 10
104.4177380653416
 20
335.9790239809267
 30
0.0
 11
98.09879025362874
 21
335.9790239809267
 31
0.0
  0
ARC
  5
FD1
330
2
100
AcDbEntity
  8
0
100
AcDbCircle
 10
98.09879025362874
 20
415.9790239809272
 30
0.0
 40
2.0
100
AcDbArc
 50
90.0
 51
179.0000000001163
  0
LINE
  5
FD2
330
2
100
AcDbEntity
  8
0
100
AcDbLine
 10
49.41773806534161
 20
416.9790239809268
 30
0.0
 11
94.93651259345984
 21
416.9790239809268
 31
0.0
  0
ARC
  5
FD3
330
2
100
AcDbEntity
  8
0
100
AcDbCircle
 10
53.8060491526337
 20
411.9790239809267
 30
0.0
 40
5.0
100
AcDbArc
 50
1.000000000002589
 51
90.0
  0
LINE
  5
FD4
330
2
100
AcDbEntity
  8
0
100
AcDbLine
 10
104.4177380653397
 20
417.9790239809268
 30
0.0
 11
98.09879025362874
 21
417.9790239809272
 31
0.0
  0
LINE
  5
FD5
330
2
100
AcDbEntity
  8
0
100
AcDbLine
 10
49.41773806534161
 20
416.9790239809268
 30
0.0
 11
49.41773806534161
 21
336.9790239809268
 31
0.0
  0
ARC
  5
FD6
330
2
100
AcDbEntity
  8
0
100
AcDbCircle
 10
94.93651259345984
 20
420.4790239809268
 30
0.0
 40
3.5
100
AcDbArc
 50
270.0
 51
305.0968012276141
  0
ARC
  5
FD7
330
2
100
AcDbEntity
  8
0
100
AcDbCircle
 10
94.93651259345984
 20
333.4790239809267
 30
0.0
 40
3.5
100
AcDbArc
 50
54.9031987723857
 51
90.0
  0
LINE
  5
FD8
330
2
100
AcDbEntity
  8
CENTER
  6
CENS
100
AcDbLine
 10
111.0225560651122
 20
411.6290239809273
 30
0.0
 11
84.02255606511221
 21
411.6290239809273
 31
0.0
  0
LINE
  5
FD9
330
2
100
AcDbEntity
  8
0
100
AcDbLine
 10
89.33528074048059
 20
406.6290239809273
 30
0.0
 11
89.33528074048059
 21
416.6290239809273
 31
0.0
  0
LINE
  5
FDA
330
2
100
AcDbEntity
  8
0
100
AcDbLine
 10
88.93528074048095
 20
415.9362036578996
 30
0.0
 11
88.93528074048095
 21
407.3218443039546
 31
0.0
  0
LINE
  5
FDB
330
2
100
AcDbEntity
  8
0
100
AcDbLine
 10
94.93528074048095
 20
406.6290239809273
 30
0.0
 11
94.93528074048095
 21
416.6290239809273
 31
0.0
  0
LINE
  5
FDC
330
2
100
AcDbEntity
  8
0
100
AcDbLine
 10
94.93528074048095
 20
416.6290239809273
 30
0.0
 11
95.93528074048094
 21
416.6290239809273
 31
0.0
  0
LINE
  5
FDD
330
2
100
AcDbEntity
  8
0
100
AcDbLine
 10
95.93528074048094
 20
416.6290239809273
 30
0.0
 11
95.93528074048094
 21
406.6290239809273
 31
0.0
  0
LINE
  5
FDE
330
2
100
AcDbEntity
  8
0
100
AcDbLine
 10
95.93528074048094
 20
406.6290239809273
 30
0.0
 11
94.93528074048095
 21
406.6290239809273
 31
0.0
  0
LINE
  5
FDF
330
2
100
AcDbEntity
  8
0
100
AcDbLine
 10
94.93528074048095
 20
406.6290239809273
 30
0.0
 11
94.93528074048095
 21
416.6290239809273
 31
0.0
  0
LINE
  5
FE0
330
2
100
AcDbEntity
  8
0
100
AcDbLine
 10
89.33528074048059
 20
406.6290239809273
 30
0.0
 11
94.93528074048095
 21
406.6290239809273
 31
0.0
  0
LINE
  5
FE1
330
2
100
AcDbEntity
  8
0
100
AcDbLine
 10
94.93528074048095
 20
416.6290239809273
 30
0.0
 11
89.33528074048059
 21
416.6290239809273
 31
0.0
  0
LINE
  5
FE2
330
2
100
AcDbEntity
  8
0
100
AcDbLine
 10
89.33528074048059
 20
416.6290239809273
 30
0.0
 11
88.93528074048095
 21
415.9362036578996
 31
0.0
  0
LINE
  5
FE3
330
2
100
AcDbEntity
  8
0
100
AcDbLine
 10
89.33528074048059
 20
406.6290239809268
 30
0.0
 11
88.93528074048095
 21
407.3218443039546
 31
0.0
  0
LINE
  5
FE4
330
2
100
AcDbEntity
  8
CENTER
  6
CENS
100
AcDbLine
 10
111.0225560651122
 20
342.3290239809271
 30
0.0
 11
84.02255606511221
 21
342.3290239809271
 31
0.0
  0
LINE
  5
FE5
330
2
100
AcDbEntity
  8
0
100
AcDbLine
 10
89.33528074048059
 20
347.3290239809271
 30
0.0
 11
89.33528074048059
 21
337.3290239809271
 31
0.0
  0
LINE
  5
FE6
330
2
100
AcDbEntity
  8
0
100
AcDbLine
 10
88.93528074048095
 20
338.0218443039544
 30
0.0
 11
88.93528074048095
 21
346.6362036578989
 31
0.0
  0
LINE
  5
FE7
330
2
100
AcDbEntity
  8
0
100
AcDbLine
 10
94.93528074048095
 20
347.3290239809271
 30
0.0
 11
94.93528074048095
 21
337.3290239809271
 31
0.0
  0
LINE
  5
FE8
330
2
100
AcDbEntity
  8
0
100
AcDbLine
 10
94.93528074048095
 20
337.3290239809271
 30
0.0
 11
95.93528074048094
 21
337.3290239809271
 31
0.0
  0
LINE
  5
FE9
330
2
100
AcDbEntity
  8
0
100
AcDbLine
 10
95.93528074048094
 20
337.3290239809271
 30
0.0
 11
95.93528074048094
 21
347.3290239809271
 31
0.0
  0
LINE
  5
FEA
330
2
100
AcDbEntity
  8
0
100
AcDbLine
 10
95.93528074048094
 20
347.3290239809271
 30
0.0
 11
94.93528074048095
 21
347.3290239809271
 31
0.0
  0
LINE
  5
FEB
330
2
100
AcDbEntity
  8
0
100
AcDbLine
 10
94.93528074048095
 20
347.3290239809271
 30
0.0
 11
94.93528074048095
 21
337.3290239809271
 31
0.0
  0
LINE
  5
FEC
330
2
100
AcDbEntity
  8
0
100
AcDbLine
 10
89.33528074048059
 20
347.3290239809271
 30
0.0
 11
94.93528074048095
 21
347.3290239809271
 31
0.0
  0
LINE
  5
FED
330
2
100
AcDbEntity
  8
0
100
AcDbLine
 10
94.93528074048095
 20
337.3290239809271
 30
0.0
 11
89.33528074048059
 21
337.3290239809271
 31
0.0
  0
LINE
  5
FEE
330
2
100
AcDbEntity
  8
0
100
AcDbLine
 10
89.33528074048059
 20
337.3290239809271
 30
0.0
 11
88.93528074048095
 21
338.0218443039544
 31
0.0
  0
LINE
  5
FEF
330
2
100
AcDbEntity
  8
0
100
AcDbLine
 10
89.33528074048059
 20
347.3290239809271
 30
0.0
 11
88.93528074048095
 21
346.6362036578994
 31
0.0
  0
LINE
  5
FF0
330
2
100
AcDbEntity
  8
0
100
AcDbLine
 10
58.41773806537799
 20
420.9790239809268
 30
0.0
 11
68.41773806537799
 21
420.9790239809268
 31
0.0
  0
ARC
  5
FF1
330
2
100
AcDbEntity
  8
0
100
AcDbCircle
 10
68.41773806537799
 20
416.9790239809268
 30
0.0
 40
4.0
100
AcDbArc
 50
0.0
 51
90.0
  0
ARC
  5
FF2
330
2
100
AcDbEntity
  8
0
100
AcDbCircle
 10
58.41773806537799
 20
416.9790239809268
 30
0.0
 40
4.0
100
AcDbArc
 50
90.0
 51
180.0
  0
LINE
  5
FF3
330
2
100
AcDbEntity
  8
CENTER
  6
CENS
100
AcDbLine
 10
63.41773806537799
 20
426.1027084036296
 30
0.0
 11
63.41773806537799
 21
402.7427824012653
 31
0.0
  0
ARC
  5
FF4
330
2
100
AcDbEntity
  8
0
100
AcDbCircle
 10
686.0352612211224
 20
411.0789972768828
 30
0.0
 40
3.0
100
AcDbArc
 50
270.0
 51
358.9999999999974
  0
LINE
  5
FF5
330
2
100
AcDbEntity
  8
0
100
AcDbLine
 10
686.0352612211224
 20
408.0789972768828
 30
0.0
 11
698.6815556075978
 21
408.0789972768819
 31
0.0
  0
ARC
  5
FF6
330
2
100
AcDbEntity
  8
0
100
AcDbCircle
 10
691.1040980806826
 20
414.9790239809234
 30
0.0
 40
2.0
100
AcDbArc
 50
90.0
 51
178.9999999999974
  0
LINE
  5
FF7
330
2
100
AcDbEntity
  8
0
100
AcDbLine
 10
689.0356985931937
 20
411.0778737027106
 30
0.0
 11
689.1044026903689
 21
415.013928793798
 31
0.0
  0
LINE
  5
FF8
330
2
100
AcDbEntity
  8
0
100
AcDbLine
 10
706.1387035544501
 20
411.9790239809229
 30
0.0
 11
706.1387035544501
 21
376.9790239809229
 31
0.0
  0
LINE
  5
FF9
330
2
100
AcDbEntity
  8
0
100
AcDbLine
 10
706.1387035544501
 20
396.7290239809229
 30
0.0
 11
706.1387035544519
 21
376.9790239809229
 31
0.0
  0
LINE
  5
FFA
330
2
100
AcDbEntity
  8
0
100
AcDbLine
 10
706.1387035544501
 20
396.7290239809229
 30
0.0
 11
696.4008989839328
 21
396.7290239809229
 31
0.0
  0
LINE
  5
FFB
330
2
100
AcDbEntity
  8
0
100
AcDbLine
 10
704.13870355445
 20
386.4790239809229
 30
0.0
 11
693.1387035544501
 21
386.4790239809229
 31
0.0
  0
LINE
  5
FFC
330
2
100
AcDbEntity
  8
0
100
AcDbLine
 10
674.6387035544501
 20
386.7290239809229
 30
0.0
 11
674.6387035544501
 21
376.9790239809229
 31
0.0
  0
LINE
  5
FFD
330
2
100
AcDbEntity
  8
0
100
AcDbLine
 10
674.6387035544501
 20
386.7290239809229
 30
0.0
 11
668.6387035544501
 21
386.7290239809229
 31
0.0
  0
LINE
  5
FFE
330
2
100
AcDbEntity
  8
0
100
AcDbLine
 10
668.6387035544501
 20
386.7290239809229
 30
0.0
 11
668.6387035544501
 21
376.9790239809229
 31
0.0
  0
LINE
  5
FFF
330
2
100
AcDbEntity
  8
0
100
AcDbLine
 10
691.1387035544501
 20
391.2544342016183
 30
0.0
 11
691.1387035544501
 21
376.9790239809229
 31
0.0
  0
LINE
  5
1000
330
2
100
AcDbEntity
  8
0
100
AcDbLine
 10
693.1387035544501
 20
392.3081675420001
 30
0.0
 11
693.1387035544501
 21
376.9790239809229
 31
0.0
  0
LINE
  5
1001
330
2
100
AcDbEntity
  8
0
100
AcDbLine
 10
691.1387035544501
 20
386.4790239809229
 30
0.0
 11
674.6387035544501
 21
386.4790239809229
 31
0.0
  0
LINE
  5
1002
330
2
100
AcDbEntity
  8
0
100
AcDbLine
 10
706.1387035544501
 20
387.6337245193024
 30
0.0
 11
704.13870355445
 21
386.4790239809229
 31
0.0
  0
LINE
  5
1003
330
2
100
AcDbEntity
  8
0
100
AcDbLine
 10
704.13870355445
 20
386.4790239809229
 30
0.0
 11
704.13870355445
 21
376.9790239809229
 31
0.0
  0
LINE
  5
1004
330
2
100
AcDbEntity
  8
0
100
AcDbLine
 10
668.6387035544501
 20
385.9790239809229
 30
0.0
 11
663.4425511317438
 21
376.9790239809229
 31
0.0
  0
CIRCLE
  5
1005
330
2
100
AcDbEntity
  8
0
100
AcDbCircle
 10
929.8369405709298
 20
376.9790239809133
 30
0.0
 40
9.5
  0
ARC
  5
1006
330
2
100
AcDbEntity
  8
0
100
AcDbCircle
 10
929.8369405709298
 20
376.9790239809133
 30
0.0
 40
10.6547005383793
100
AcDbArc
 50
4.036472082737907
 51
175.9635279172621
  0
ARC
  5
1007
330
2
100
AcDbEntity
  8
0
100
AcDbCircle
 10
929.8369405709298
 20
376.9790239809133
 30
0.0
 40
10.6547005383793
100
AcDbArc
 50
184.0364720827509
 51
355.963527917249
  0
CIRCLE
  5
1008
330
2
100
AcDbEntity
  8
0
100
AcDbCircle
 10
961.6569405709295
 20
408.7990239809131
 30
0.0
 40
2.0
  0
CIRCLE
  5
1009
330
2
100
AcDbEntity
  8
HOJO
100
AcDbCircle
 10
961.6569405709295
 20
408.7990239809131
 30
0.0
 40
2.5
  0
CIRCLE
  5
100A
330
2
100
AcDbEntity
  8
0
100
AcDbCircle
 10
898.01694057093
 20
408.7990239809131
 30
0.0
 40
2.0
  0
CIRCLE
  5
100B
330
2
100
AcDbEntity
  8
HOJO
100
AcDbCircle
 10
898.01694057093
 20
408.7990239809131
 30
0.0
 40
2.5
  0
CIRCLE
  5
100C
330
2
100
AcDbEntity
  8
0
100
AcDbCircle
 10
961.6569405709295
 20
345.1590239809136
 30
0.0
 40
2.0
  0
CIRCLE
  5
100D
330
2
100
AcDbEntity
  8
HOJO
100
AcDbCircle
 10
961.6569405709295
 20
345.1590239809136
 30
0.0
 40
2.5
  0
CIRCLE
  5
100E
330
2
100
AcDbEntity
  8
0
100
AcDbCircle
 10
898.01694057093
 20
345.1590239809136
 30
0.0
 40
2.0
  0
CIRCLE
  5
100F
330
2
100
AcDbEntity
  8
HOJO
100
AcDbCircle
 10
898.01694057093
 20
345.1590239809136
 30
0.0
 40
2.5
  0
CIRCLE
  5
1010
330
2
100
AcDbEntity
  8
0
100
AcDbCircle
 10
929.8369405709298
 20
376.9790239809133
 30
0.0
 40
29.0
  0
LINE
  5
1011
330
2
100
AcDbEntity
  8
0
100
AcDbLine
 10
706.1387035544501
 20
405.9790239809229
 30
0.0
 11
702.2290502056728
 21
405.9790239809229
 31
0.0
  0
TEXT
  5
1012
330
2
100
AcDbEntity
  8
TITLE
100
AcDbText
 10
289.5508556146875
 20
636.2817553839526
 30
0.0
 40
7.5
  1
AFCZ18S-3~5M750S3
100
AcDbText
  0
TEXT
  5
1013
330
2
100
AcDbEntity
  8
TITLE
100
AcDbText
 10
289.5508556146875
 20
624.7817553839527
 30
0.0
 40
7.5
  1
AFCZ18S-3~5L750S3
100
AcDbText
  0
LINE
  5
1015
330
2
100
AcDbEntity
  8
CENTER
100
AcDbLine
 10
984.8369321168863
 20
376.9790239809136
 30
0.0
 11
845.8369405709261
 21
376.9790239809136
 31
0.0
  0
LINE
  5
1016
330
2
100
AcDbEntity
  8
CENTER
100
AcDbLine
 10
929.8369405709298
 20
428.4790239809286
 30
0.0
 11
929.8369405709298
 21
325.4790239809295
 31
0.0
  0
LINE
  5
1018
330
2
100
AcDbEntity
  8
0
100
AcDbLine
 10
886.8369405709261
 20
417.3943238389474
 30
0.0
 11
886.8369405709243
 21
336.5637241228828
 31
0.0
  0
LINE
  5
1019
330
2
100
AcDbEntity
  8
0
100
AcDbLine
 10
881.8369405709271
 20
411.9790239809086
 30
0.0
 11
881.8369405709271
 21
341.9790239809086
 31
0.0
  0
LINE
  5
101A
330
2
100
AcDbEntity
  8
0
100
AcDbLine
 10
879.9067395643321
 20
405.3655898798766
 30
0.0
 11
870.7671415775228
 21
405.0464280853326
 31
0.0
  0
ARC
  5
101B
330
2
100
AcDbEntity
  8
0
100
AcDbCircle
 10
879.8369405709269
 20
407.3643715339144
 30
0.0
 40
2.0
100
AcDbArc
 50
272.0000000000036
 51
0.0
  0
LINE
  5
101C
330
2
100
AcDbEntity
  8
0
100
AcDbLine
 10
868.8369405709288
 20
403.0476464312938
 30
0.0
 11
868.836940570927
 21
350.9104015305234
 31
0.0
  0
ARC
  5
101D
330
2
100
AcDbEntity
  8
0
100
AcDbCircle
 10
870.8369405709269
 20
403.0476464312938
 30
0.0
 40
2.0
100
AcDbArc
 50
92.00000000000365
 51
180.0
  0
ARC
  5
101E
330
2
100
AcDbEntity
  8
0
100
AcDbCircle
 10
870.8369405709269
 20
350.9104015305234
 30
0.0
 40
2.0
100
AcDbArc
 50
180.0
 51
267.9999999999963
  0
LINE
  5
101F
330
2
100
AcDbEntity
  8
0
100
AcDbLine
 10
879.9067395643321
 20
348.5924580819396
 30
0.0
 11
870.7671415775219
 21
348.9116198764846
 31
0.0
  0
ARC
  5
1020
330
2
100
AcDbEntity
  8
0
100
AcDbCircle
 10
879.8369405709269
 20
346.5936764279009
 30
0.0
 40
2.0
100
AcDbArc
 50
0.0
 51
87.99999999999636
  0
LINE
  5
1021
330
2
100
AcDbEntity
  8
0
100
AcDbLine
 10
965.8979116470133
 20
335.9187919208821
 30
0.0
 11
929.8369405709289
 21
335.4790239809295
 31
0.0
  0
LINE
  5
1022
330
2
100
AcDbEntity
  8
0
100
AcDbLine
 10
893.7759694948434
 20
335.9187919208839
 30
0.0
 11
929.8369405709278
 21
335.4790239809295
 31
0.0
  0
LINE
  5
1023
330
2
100
AcDbEntity
  8
0
100
AcDbLine
 10
893.7759694948434
 20
418.039256040975
 30
0.0
 11
906.0242164001017
 21
418.1886249056738
 31
0.0
  0
ARC
  5
1024
330
2
100
AcDbEntity
  8
0
100
AcDbCircle
 10
965.8369405709288
 20
413.0396278020094
 30
0.0
 40
5.0
100
AcDbArc
 50
44.50893050053468
 51
89.30130561700025
  0
ARC
  5
1025
330
2
100
AcDbEntity
  8
0
100
AcDbCircle
 10
893.8369405709288
 20
413.0396278020076
 30
0.0
 40
5.0
100
AcDbArc
 50
90.69869438299972
 51
135.4910694994552
  0
ARC
  5
1026
330
2
100
AcDbEntity
  8
0
100
AcDbCircle
 10
893.8369405709288
 20
340.9184201598514
 30
0.0
 40
5.0
100
AcDbArc
 50
224.5089305157074
 51
269.3013056170002
  0
ARC
  5
1027
330
2
100
AcDbEntity
  8
0
100
AcDbCircle
 10
965.8369405709288
 20
340.9184201598496
 30
0.0
 40
5.0
100
AcDbArc
 50
270.6986943829997
 51
315.4910694840806
  0
LINE
  5
1028
330
2
100
AcDbEntity
  8
0
100
AcDbLine
 10
965.8979116470133
 20
418.0392560409769
 30
0.0
 11
929.8369405709289
 21
418.4790239809286
 31
0.0
  0
LINE
  5
1029
330
2
100
AcDbEntity
  8
0
100
AcDbLine
 10
891.4527910825816
 20
336.5234422057297
 30
0.0
 11
886.8369405709243
 21
336.5637241228828
 31
0.0
  0
LINE
  5
102A
330
2
100
AcDbEntity
  8
0
100
AcDbLine
 10
891.4527910825361
 20
417.4346057561038
 30
0.0
 11
886.8369405709261
 21
417.3943238389474
 31
0.0
  0
LINE
  5
102B
330
2
100
AcDbEntity
  8
0
100
AcDbLine
 10
886.836940570927
 20
411.9790239809086
 30
0.0
 11
881.8369405709271
 21
411.9790239809086
 31
0.0
  0
LINE
  5
102C
330
2
100
AcDbEntity
  8
0
100
AcDbLine
 10
886.836940570927
 20
341.9790239809086
 30
0.0
 11
881.8369405709271
 21
341.9790239809086
 31
0.0
  0
LINE
  5
102D
330
2
100
AcDbEntity
  8
0
100
AcDbLine
 10
971.8369405709216
 20
403.4790239809117
 30
0.0
 11
971.0137698392198
 21
403.4790239809117
 31
0.0
  0
LINE
  5
102E
330
2
100
AcDbEntity
  8
0
100
AcDbLine
 10
971.8369405709207
 20
403.4790239809117
 30
0.0
 11
972.8369405709216
 21
402.9016737117222
 31
0.0
  0
LINE
  5
102F
330
2
100
AcDbEntity
  8
0
100
AcDbLine
 10
972.8369405709251
 20
351.0563742501017
 30
0.0
 11
972.8369405709251
 21
402.9016737117195
 31
0.0
  0
LINE
  5
1030
330
2
100
AcDbEntity
  8
0
100
AcDbLine
 10
971.8369405709207
 20
350.4790239809099
 30
0.0
 11
972.8369405709216
 21
351.0563742500999
 31
0.0
  0
LINE
  5
1031
330
2
100
AcDbEntity
  8
0
100
AcDbLine
 10
971.8369405709216
 20
350.4790239809099
 30
0.0
 11
971.0137698392207
 21
350.4790239809104
 31
0.0
  0
LINE
  5
1032
330
2
100
AcDbEntity
  8
0
100
AcDbLine
 10
971.8369405709216
 20
350.4790239809099
 30
0.0
 11
971.8369405709207
 21
403.4790239809117
 31
0.0
  0
LINE
  5
1033
330
2
100
AcDbEntity
  8
0
100
AcDbLine
 10
974.8369321168864
 20
391.4760704099208
 30
0.0
 11
974.8369321168864
 21
362.4760704099208
 31
0.0
  0
LINE
  5
1034
330
2
100
AcDbEntity
  8
0
100
AcDbLine
 10
855.836940570926
 20
391.4789779809139
 30
0.0
 11
855.836940570926
 21
362.4789779809134
 31
0.0
  0
LINE
  5
1035
330
2
100
AcDbEntity
  8
0
100
AcDbLine
 10
868.836940570927
 20
362.4789779809134
 30
0.0
 11
855.836940570926
 21
362.4789779809134
 31
0.0
  0
LINE
  5
1036
330
2
100
AcDbEntity
  8
0
100
AcDbLine
 10
972.8369405709289
 20
362.4760704099208
 30
0.0
 11
974.8369321168864
 21
362.4760704099208
 31
0.0
  0
LINE
  5
1037
330
2
100
AcDbEntity
  8
0
100
AcDbLine
 10
868.8369405709252
 20
391.4789779809139
 30
0.0
 11
855.836940570926
 21
391.4789779809139
 31
0.0
  0
LINE
  5
1038
330
2
100
AcDbEntity
  8
0
100
AcDbLine
 10
972.8369405709289
 20
391.4760704099208
 30
0.0
 11
974.8369321168864
 21
391.4760704099208
 31
0.0
  0
LINE
  5
1040
330
2
100
AcDbEntity
  8
CENTER
100
AcDbLine
 10
189.4177380653416
 20
325.9790239809299
 30
0.0
 11
189.4177380653416
 21
427.9790239809299
 31
0.0
  0
LINE
  5
1041
330
2
100
AcDbEntity
  8
CENTER
100
AcDbLine
 10
240.4177380653416
 20
376.9790239809267
 30
0.0
 11
39.41773806534161
 21
376.9790239809267
 31
0.0
  0
LINE
  5
1042
330
2
100
AcDbEntity
  8
CENTER
100
AcDbLine
 10
617.6239849286892
 20
421.4643053551658
 30
0.0
 11
528.6534221802119
 21
332.493742606689
 31
0.0
  0
LINE
  5
1043
330
2
100
AcDbEntity
  8
CENTER
100
AcDbLine
 10
528.6534221802128
 20
421.4643053551645
 30
0.0
 11
617.6239849286901
 21
332.4937426066867
 31
0.0
  0
LINE
  5
1044
330
2
100
AcDbEntity
  8
CENTER
100
AcDbLine
 10
573.1387035544501
 20
706.8762830530122
 30
0.0
 11
573.1387035544501
 21
567.8762915070524
 31
0.0
  0
LINE
  5
1045
330
2
100
AcDbEntity
  8
CENTER
100
AcDbLine
 10
522.3437849475092
 20
651.8762915070555
 30
0.0
 11
723.13870355008
 21
651.8762915070567
 31
0.0
  0
CIRCLE
  5
1046
330
2
100
AcDbEntity
  8
CENTER
100
AcDbCircle
 10
573.1387035544519
 20
376.9790239809267
 30
0.0
 40
48.99999999999932
  0
LINE
  5
1047
330
2
100
AcDbEntity
  8
CENTER
100
AcDbLine
 10
545.4904712763116
 20
411.6272562590666
 30
0.0
 11
531.4904712763116
 21
411.6272562590666
 31
0.0
  0
LINE
  5
1048
330
2
100
AcDbEntity
  8
CENTER
100
AcDbLine
 10
538.4904712763106
 20
418.6272562590671
 30
0.0
 11
538.4904712763106
 21
404.6272562590671
 31
0.0
  0
LINE
  5
1049
330
2
100
AcDbEntity
  8
CENTER
100
AcDbLine
 10
545.4904712763116
 20
342.3307917027869
 30
0.0
 11
531.4904712763116
 21
342.3307917027869
 31
0.0
  0
LINE
  5
104A
330
2
100
AcDbEntity
  8
CENTER
100
AcDbLine
 10
538.4904712763106
 20
349.3307917027856
 30
0.0
 11
538.4904712763106
 21
335.3307917027855
 31
0.0
  0
LINE
  5
104B
330
2
100
AcDbEntity
  8
CENTER
100
AcDbLine
 10
614.7869358325931
 20
342.3307917027905
 30
0.0
 11
600.7869358325931
 21
342.3307917027905
 31
0.0
  0
LINE
  5
104C
330
2
100
AcDbEntity
  8
CENTER
100
AcDbLine
 10
607.7869358325931
 20
349.3307917027856
 30
0.0
 11
607.7869358325931
 21
335.3307917027855
 31
0.0
  0
LINE
  5
104D
330
2
100
AcDbEntity
  8
CENTER
100
AcDbLine
 10
614.7869358325931
 20
411.627256259068
 30
0.0
 11
600.7869358325931
 21
411.627256259068
 31
0.0
  0
LINE
  5
104E
330
2
100
AcDbEntity
  8
CENTER
100
AcDbLine
 10
607.7869358325913
 20
418.6272562590671
 30
0.0
 11
607.7869358325913
 21
404.6272562590671
 31
0.0
  0
LINE
  5
104F
330
2
100
AcDbEntity
  8
0
100
AcDbLine
 10
641.1387035544501
 20
343.9790239810436
 30
0.0
 11
635.6387035544555
 21
343.9790239810436
 31
0.0
  0
LINE
  5
1050
330
2
100
AcDbEntity
  8
0
100
AcDbLine
 10
641.1387035544501
 20
409.979023980809
 30
0.0
 11
635.6387035544555
 21
409.979023980809
 31
0.0
  0
CIRCLE
  5
1051
330
2
100
AcDbEntity
  8
0
100
AcDbCircle
 10
573.1387035544519
 20
376.9790239809263
 30
0.0
 40
23.0
  0
CIRCLE
  5
1052
330
2
100
AcDbEntity
  8
0
100
AcDbCircle
 10
573.1387035544519
 20
376.9790239809263
 30
0.0
 40
27.99999999999875
  0
CIRCLE
  5
1053
330
2
100
AcDbEntity
  8
0
100
AcDbCircle
 10
573.1387035544519
 20
376.9790239809263
 30
0.0
 40
35.00000000000011
  0
LINE
  5
1054
330
2
100
AcDbEntity
  8
0
100
AcDbLine
 10
614.1387035544519
 20
412.9790239809263
 30
0.0
 11
614.1387035544519
 21
340.9790239809263
 31
0.0
  0
CIRCLE
  5
1055
330
2
100
AcDbEntity
  8
HOJO
100
AcDbCircle
 10
538.4904712763115
 20
342.3307917027855
 30
0.0
 40
3.0
  0
CIRCLE
  5
1056
330
2
100
AcDbEntity
  8
0
100
AcDbCircle
 10
538.4904712763115
 20
342.3307917027855
 30
0.0
 40
2.399999999999999
  0
CIRCLE
  5
1057
330
2
100
AcDbEntity
  8
HOJO
100
AcDbCircle
 10
607.7869358325931
 20
342.3307917027855
 30
0.0
 40
3.0
  0
CIRCLE
  5
1058
330
2
100
AcDbEntity
  8
0
100
AcDbCircle
 10
607.7869358325931
 20
342.3307917027855
 30
0.0
 40
2.399999999999999
  0
CIRCLE
  5
1059
330
2
100
AcDbEntity
  8
0
100
AcDbCircle
 10
538.4904712763115
 20
411.6272562590671
 30
0.0
 40
2.399999999999999
  0
CIRCLE
  5
105A
330
2
100
AcDbEntity
  8
HOJO
100
AcDbCircle
 10
538.4904712763115
 20
411.6272562590671
 30
0.0
 40
3.0
  0
ARC
  5
105B
330
2
100
AcDbEntity
  8
0
100
AcDbCircle
 10
537.1387035544519
 20
412.9790239809263
 30
0.0
 40
5.0
100
AcDbArc
 50
90.0
 51
180.0
  0
CIRCLE
  5
105C
330
2
100
AcDbEntity
  8
HOJO
100
AcDbCircle
 10
607.7869358325931
 20
411.6272562590671
 30
0.0
 40
3.0
  0
CIRCLE
  5
105D
330
2
100
AcDbEntity
  8
0
100
AcDbCircle
 10
607.7869358325931
 20
411.6272562590671
 30
0.0
 40
2.399999999999999
  0
LINE
  5
105E
330
2
100
AcDbEntity
  8
0
100
AcDbLine
 10
658.13870355445
 20
418.4790239809263
 30
0.0
 11
658.13870355445
 21
335.4790239809263
 31
0.0
  0
LINE
  5
105F
330
2
100
AcDbEntity
  8
0
100
AcDbLine
 10
646.13870355445
 20
416.4790239809263
 30
0.0
 11
646.1387035544528
 21
337.4790239809263
 31
0.0
  0
ARC
  5
1060
330
2
100
AcDbEntity
  8
0
100
AcDbCircle
 10
641.1387035544501
 20
338.9790239810436
 30
0.0
 40
5.0
100
AcDbArc
 50
0.0
 51
90.0
  0
LINE
  5
1061
330
2
100
AcDbEntity
  8
0
100
AcDbLine
 10
658.13870355445
 20
335.9790239809263
 30
0.0
 11
648.1387035544528
 21
335.9790239809263
 31
0.0
  0
ARC
  5
1062
330
2
100
AcDbEntity
  8
0
100
AcDbCircle
 10
648.1387035544528
 20
337.9790239809263
 30
0.0
 40
2.0
100
AcDbArc
 50
180.0
 51
270.0
  0
ARC
  5
1063
330
2
100
AcDbEntity
  8
0
100
AcDbCircle
 10
641.1387035544501
 20
414.979023980809
 30
0.0
 40
5.0
100
AcDbArc
 50
270.0
 51
0.0
  0
LINE
  5
1064
330
2
100
AcDbEntity
  8
0
100
AcDbLine
 10
648.1387035544501
 20
417.9790239809263
 30
0.0
 11
658.13870355445
 21
417.9790239809263
 31
0.0
  0
ARC
  5
1065
330
2
100
AcDbEntity
  8
0
100
AcDbCircle
 10
648.1387035544501
 20
415.9790239809263
 30
0.0
 40
2.0
100
AcDbArc
 50
90.0
 51
180.0
  0
LINE
  5
1066
330
2
100
AcDbEntity
  8
0
100
AcDbLine
 10
148.4177380653416
 20
340.9790239809263
 30
0.0
 11
148.4177380653416
 21
412.9790239809263
 31
0.0
  0
LINE
  5
1067
330
2
100
AcDbEntity
  8
0
100
AcDbLine
 10
116.4177380653461
 20
337.4790239809263
 30
0.0
 11
116.4177380653461
 21
416.4790239809263
 31
0.0
  0
LINE
  5
1068
330
2
100
AcDbEntity
  8
0
100
AcDbLine
 10
128.9177380653352
 20
345.9790239810432
 30
0.0
 11
128.9177380653397
 21
407.9790239808089
 31
0.0
  0
LINE
  5
1069
330
2
100
AcDbEntity
  8
0
100
AcDbLine
 10
104.4177380653416
 20
335.4790239809263
 30
0.0
 11
104.4177380653416
 21
418.4790239809263
 31
0.0
  0
LINE
  5
106A
330
2
100
AcDbEntity
  8
0
100
AcDbLine
 10
121.4177380653416
 20
409.979023980809
 30
0.0
 11
126.9177380653416
 21
409.979023980809
 31
0.0
  0
ARC
  5
106B
330
2
100
AcDbEntity
  8
0
100
AcDbCircle
 10
121.4177380653416
 20
414.979023980809
 30
0.0
 40
5.0
100
AcDbArc
 50
180.0
 51
270.0
  0
LINE
  5
106C
330
2
100
AcDbEntity
  8
0
100
AcDbLine
 10
104.4177380653416
 20
417.9790239809263
 30
0.0
 11
114.4177380653416
 21
417.9790239809263
 31
0.0
  0
ARC
  5
106D
330
2
100
AcDbEntity
  8
0
100
AcDbCircle
 10
114.4177380653416
 20
415.9790239809263
 30
0.0
 40
2.0
100
AcDbArc
 50
0.0
 51
90.0
  0
LINE
  5
106E
330
2
100
AcDbEntity
  8
0
100
AcDbLine
 10
121.4177380653461
 20
343.9790239810432
 30
0.0
 11
126.9177380653416
 21
343.9790239810432
 31
0.0
  0
LINE
  5
106F
330
2
100
AcDbEntity
  8
0
100
AcDbLine
 10
114.4177380653434
 20
335.9790239809263
 30
0.0
 11
104.4177380653416
 21
335.9790239809263
 31
0.0
  0
ARC
  5
1070
330
2
100
AcDbEntity
  8
0
100
AcDbCircle
 10
121.4177380653461
 20
338.9790239810432
 30
0.0
 40
5.0
100
AcDbArc
 50
90.0
 51
180.0
  0
ARC
  5
1071
330
2
100
AcDbEntity
  8
0
100
AcDbCircle
 10
114.4177380653434
 20
337.9790239809263
 30
0.0
 40
2.0
100
AcDbArc
 50
270.0
 51
0.0
  0
ARC
  5
1072
330
2
100
AcDbEntity
  8
0
100
AcDbCircle
 10
225.4177380653416
 20
340.9790239809263
 30
0.0
 40
5.0
100
AcDbArc
 50
270.0
 51
0.0
  0
ARC
  5
1073
330
2
100
AcDbEntity
  8
0
100
AcDbCircle
 10
153.4177380653416
 20
340.9790239809263
 30
0.0
 40
5.0
100
AcDbArc
 50
180.0
 51
270.0
  0
ARC
  5
1074
330
2
100
AcDbEntity
  8
0
100
AcDbCircle
 10
153.4177380653416
 20
412.9790239809263
 30
0.0
 40
5.0
100
AcDbArc
 50
90.0
 51
180.0
  0
ARC
  5
1075
330
2
100
AcDbEntity
  8
0
100
AcDbCircle
 10
225.4177380653416
 20
412.9790239809263
 30
0.0
 40
5.0
100
AcDbArc
 50
0.0
 51
90.0
  0
LINE
  5
1076
330
2
100
AcDbEntity
  8
0
100
AcDbLine
 10
628.5060599797068
 20
674.8762915043889
 30
0.0
 11
614.2236221613918
 21
674.8762915043889
 31
0.0
  0
LINE
  5
1077
330
2
100
AcDbEntity
  8
0
100
AcDbLine
 10
532.1387035544501
 20
675.3762915043894
 30
0.0
 11
613.72362216139
 21
675.3762915043917
 31
0.0
  0
LINE
  5
1078
330
2
100
AcDbEntity
  8
0
100
AcDbLine
 10
538.13870355445
 20
603.8762915070565
 30
0.0
 11
608.13870355445
 21
603.8762915070565
 31
0.0
  0
LINE
  5
1079
330
2
100
AcDbEntity
  8
0
100
AcDbLine
 10
532.1387035544501
 20
675.3762915043894
 30
0.0
 11
532.7190402625126
 21
608.876291507056
 31
0.0
  0
LINE
  5
107A
330
2
100
AcDbEntity
  8
0
100
AcDbLine
 10
532.7190402625126
 20
608.876291507056
 30
0.0
 11
613.5534482394466
 21
608.8762915070547
 31
0.0
  0
ARC
  5
107B
330
2
100
AcDbEntity
  8
0
100
AcDbCircle
 10
609.1387035544519
 20
412.9790239809263
 30
0.0
 40
5.0
100
AcDbArc
 50
0.0
 51
90.0
  0
ARC
  5
107C
330
2
100
AcDbEntity
  8
0
100
AcDbCircle
 10
609.1387035544528
 20
340.9790239809263
 30
0.0
 40
5.0
100
AcDbArc
 50
270.0
 51
0.0
  0
ARC
  5
107D
330
2
100
AcDbEntity
  8
0
100
AcDbCircle
 10
537.1387035544519
 20
340.9790239809263
 30
0.0
 40
5.0
100
AcDbArc
 50
180.0
 51
270.0
  0
LINE
  5
107E
330
2
100
AcDbEntity
  8
0
100
AcDbLine
 10
658.1387035500808
 20
692.876291507056
 30
0.0
 11
658.1387035500808
 21
610.8762915070561
 31
0.0
  0
ARC
  5
107F
330
2
100
AcDbEntity
  8
0
100
AcDbCircle
 10
189.4177380653416
 20
505.9790239809299
 30
0.0
 40
170.0
100
AcDbArc
 50
263.8230035951095
 51
276.1769964048904
  0
ARC
  5
1080
330
2
100
AcDbEntity
  8
0
100
AcDbCircle
 10
166.8216946251511
 20
297.1982326689686
 30
0.0
 40
40.0
100
AcDbArc
 50
83.82300359510955
 51
103.36767420263
  0
ARC
  5
1081
330
2
100
AcDbEntity
  8
0
100
AcDbCircle
 10
212.0137815055311
 20
297.1982326689681
 30
0.0
 40
40.0
100
AcDbArc
 50
76.63232579736996
 51
96.17699640483891
  0
ARC
  5
1082
330
2
100
AcDbEntity
  8
0
100
AcDbCircle
 10
222.4177380653415
 20
340.97902398093
 30
0.0
 40
5.0
100
AcDbArc
 50
256.63232579737
 51
270.0
  0
LINE
  5
1083
330
2
100
AcDbEntity
  8
0
100
AcDbLine
 10
225.4177380653416
 20
335.9790239809299
 30
0.0
 11
222.4177380653415
 21
335.9790239809299
 31
0.0
  0
LINE
  5
1084
330
2
100
AcDbEntity
  8
0
100
AcDbLine
 10
230.4177380653416
 20
340.97902398093
 30
0.0
 11
230.4177380653416
 21
343.9790239809299
 31
0.0
  0
ARC
  5
1085
330
2
100
AcDbEntity
  8
0
100
AcDbCircle
 10
225.4177380653406
 20
343.9790239809299
 30
0.0
 40
5.0
100
AcDbArc
 50
0.0
 51
13.36767420262659
  0
ARC
  5
1086
330
2
100
AcDbEntity
  8
0
100
AcDbCircle
 10
269.1985293773029
 20
354.3829805407395
 30
0.0
 40
40.0
100
AcDbArc
 50
173.8230035951369
 51
193.3676742026266
  0
ARC
  5
1087
330
2
100
AcDbEntity
  8
0
100
AcDbCircle
 10
60.41773806534161
 20
376.9790239809299
 30
0.0
 40
170.0
100
AcDbArc
 50
353.8230035951369
 51
6.176996404863066
  0
ARC
  5
1088
330
2
100
AcDbEntity
  8
0
100
AcDbCircle
 10
269.1985293773039
 20
399.5750674211194
 30
0.0
 40
40.0
100
AcDbArc
 50
166.6323257973733
 51
186.176996404863
  0
LINE
  5
1089
330
2
100
AcDbEntity
  8
0
100
AcDbLine
 10
230.4177380653416
 20
409.97902398093
 30
0.0
 11
230.4177380653416
 21
412.97902398093
 31
0.0
  0
ARC
  5
108A
330
2
100
AcDbEntity
  8
0
100
AcDbCircle
 10
225.4177380653416
 20
409.97902398093
 30
0.0
 40
5.0
100
AcDbArc
 50
346.6323257973734
 51
0.0
  0
LINE
  5
108B
330
2
100
AcDbEntity
  8
0
100
AcDbLine
 10
225.4177380653416
 20
417.97902398093
 30
0.0
 11
222.4177380653415
 21
417.97902398093
 31
0.0
  0
ARC
  5
108C
330
2
100
AcDbEntity
  8
0
100
AcDbCircle
 10
212.013781505532
 20
456.7598152928913
 30
0.0
 40
40.0
100
AcDbArc
 50
263.8230035951095
 51
283.3676742026299
  0
ARC
  5
108D
330
2
100
AcDbEntity
  8
0
100
AcDbCircle
 10
222.4177380653415
 20
412.979023980929
 30
0.0
 40
5.0
100
AcDbArc
 50
90.0
 51
103.36767420263
  0
ARC
  5
108E
330
2
100
AcDbEntity
  8
0
100
AcDbCircle
 10
189.4177380653416
 20
247.9790239809299
 30
0.0
 40
170.0
100
AcDbArc
 50
83.82300359510955
 51
96.17699640483891
  0
ARC
  5
108F
330
2
100
AcDbEntity
  8
0
100
AcDbCircle
 10
166.821694625152
 20
456.7598152928917
 30
0.0
 40
40.0
100
AcDbArc
 50
256.63232579737
 51
276.1769964048904
  0
ARC
  5
1090
330
2
100
AcDbEntity
  8
0
100
AcDbCircle
 10
156.4177380653416
 20
412.97902398093
 30
0.0
 40
5.0
100
AcDbArc
 50
76.63232579736996
 51
90.0
  0
LINE
  5
1091
330
2
100
AcDbEntity
  8
0
100
AcDbLine
 10
156.4177380653416
 20
417.97902398093
 30
0.0
 11
153.4177380653416
 21
417.97902398093
 31
0.0
  0
ARC
  5
1092
330
2
100
AcDbEntity
  8
0
100
AcDbCircle
 10
156.4177380653416
 20
340.9790239809308
 30
0.0
 40
5.0
100
AcDbArc
 50
270.0
 51
283.3676742026299
  0
LINE
  5
1093
330
2
100
AcDbEntity
  8
0
100
AcDbLine
 10
156.4177380653416
 20
335.9790239809299
 30
0.0
 11
153.4177380653416
 21
335.9790239809299
 31
0.0
  0
ARC
  5
1094
330
2
100
AcDbEntity
  8
0
100
AcDbCircle
 10
573.1387035544482
 20
247.9790239809281
 30
0.0
 40
170.0
100
AcDbArc
 50
83.82300359510955
 51
96.17699640483891
  0
ARC
  5
1095
330
2
100
AcDbEntity
  8
0
100
AcDbCircle
 10
595.7347469946396
 20
456.75981529289
 30
0.0
 40
40.0
100
AcDbArc
 50
263.8230035951095
 51
283.3676742026299
  0
ARC
  5
1096
330
2
100
AcDbEntity
  8
0
100
AcDbCircle
 10
550.5426601142587
 20
456.7598152928904
 30
0.0
 40
40.0
100
AcDbArc
 50
256.63232579737
 51
276.1769964048904
  0
ARC
  5
1097
330
2
100
AcDbEntity
  8
0
100
AcDbCircle
 10
540.1387035544482
 20
412.9790239809281
 30
0.0
 40
5.0
100
AcDbArc
 50
76.63232579736996
 51
90.0
  0
LINE
  5
1098
330
2
100
AcDbEntity
  8
0
100
AcDbLine
 10
537.1387035544483
 20
417.9790239809281
 30
0.0
 11
540.1387035544482
 21
417.9790239809281
 31
0.0
  0
LINE
  5
1099
330
2
100
AcDbEntity
  8
0
100
AcDbLine
 10
532.1387035544482
 20
412.9790239809281
 30
0.0
 11
532.1387035544482
 21
409.9790239809281
 31
0.0
  0
ARC
  5
109A
330
2
100
AcDbEntity
  8
0
100
AcDbCircle
 10
537.1387035544492
 20
409.9790239809281
 30
0.0
 40
5.0
100
AcDbArc
 50
180.0
 51
193.3676742026266
  0
ARC
  5
109B
330
2
100
AcDbEntity
  8
0
100
AcDbCircle
 10
493.3579122424869
 20
399.5750674211186
 30
0.0
 40
40.0
100
AcDbArc
 50
353.8230035951369
 51
13.36767420262659
  0
ARC
  5
109C
330
2
100
AcDbEntity
  8
0
100
AcDbCircle
 10
702.1387035544492
 20
376.9790239809281
 30
0.0
 40
170.0
100
AcDbArc
 50
173.8230035951369
 51
186.176996404863
  0
ARC
  5
109D
330
2
100
AcDbEntity
  8
0
100
AcDbCircle
 10
493.3579122424869
 20
354.3829805407391
 30
0.0
 40
40.0
100
AcDbArc
 50
346.6323257973734
 51
6.176996404863066
  0
LINE
  5
109E
330
2
100
AcDbEntity
  8
0
100
AcDbLine
 10
532.1387035544482
 20
343.9790239809281
 30
0.0
 11
532.1387035544482
 21
340.9790239809281
 31
0.0
  0
ARC
  5
109F
330
2
100
AcDbEntity
  8
0
100
AcDbCircle
 10
537.1387035544492
 20
343.9790239809281
 30
0.0
 40
5.0
100
AcDbArc
 50
166.6323257973733
 51
180.0
  0
LINE
  5
10A0
330
2
100
AcDbEntity
  8
0
100
AcDbLine
 10
537.1387035544483
 20
335.9790239809281
 30
0.0
 11
540.1387035544482
 21
335.9790239809281
 31
0.0
  0
ARC
  5
10A1
330
2
100
AcDbEntity
  8
0
100
AcDbCircle
 10
550.5426601142587
 20
297.1982326689667
 30
0.0
 40
40.0
100
AcDbArc
 50
83.82300359510955
 51
103.36767420263
  0
ARC
  5
10A2
330
2
100
AcDbEntity
  8
0
100
AcDbCircle
 10
540.1387035544482
 20
340.979023980929
 30
0.0
 40
5.0
100
AcDbArc
 50
270.0
 51
283.3676742026299
  0
ARC
  5
10A3
330
2
100
AcDbEntity
  8
0
100
AcDbCircle
 10
573.1387035544482
 20
505.9790239809285
 30
0.0
 40
170.0
100
AcDbArc
 50
263.8230035951095
 51
276.1769964048904
  0
ARC
  5
10A4
330
2
100
AcDbEntity
  8
0
100
AcDbCircle
 10
595.7347469946378
 20
297.1982326689667
 30
0.0
 40
40.0
100
AcDbArc
 50
76.63232579736996
 51
96.17699640483891
  0
ARC
  5
10A5
330
2
100
AcDbEntity
  8
0
100
AcDbCircle
 10
606.1387035544482
 20
340.9790239809286
 30
0.0
 40
5.0
100
AcDbArc
 50
256.63232579737
 51
270.0
  0
LINE
  5
10A6
330
2
100
AcDbEntity
  8
0
100
AcDbLine
 10
606.1387035544482
 20
335.9790239809281
 30
0.0
 11
609.1387035544491
 21
335.9790239809281
 31
0.0
  0
ARC
  5
10A7
330
2
100
AcDbEntity
  8
0
100
AcDbCircle
 10
606.1387035544482
 20
412.9790239809277
 30
0.0
 40
5.0
100
AcDbArc
 50
90.0
 51
103.36767420263
  0
LINE
  5
10A8
330
2
100
AcDbEntity
  8
0
100
AcDbLine
 10
606.1387035544482
 20
417.9790239809281
 30
0.0
 11
609.1387035544483
 21
417.9790239809281
 31
0.0
  0
LINE
  5
10A9
330
2
100
AcDbEntity
  8
0
100
AcDbLine
 10
613.5534482394466
 20
608.8762915070547
 30
0.0
 11
613.9287035544501
 21
651.876291507056
 31
0.0
  0
ARC
  5
10AA
330
2
100
AcDbEntity
  8
0
100
AcDbCircle
 10
616.8808200167584
 20
646.376291507056
 30
0.0
 40
3.0
100
AcDbArc
 50
90.0
 51
179.4999999999954
  0
ARC
  5
10AB
330
2
100
AcDbEntity
  8
0
100
AcDbCircle
 10
616.6757386236747
 20
622.8762915070561
 30
0.0
 40
3.0
100
AcDbArc
 50
90.0
 51
179.4999999999954
  0
ARC
  5
10AC
330
2
100
AcDbEntity
  8
0
100
AcDbCircle
 10
616.6233774169302
 20
616.876291507056
 30
0.0
 40
3.0
100
AcDbArc
 50
90.0
 51
179.4999999999954
  0
LINE
  5
10AD
330
2
100
AcDbEntity
  8
0
100
AcDbLine
 10
613.72362216139
 20
675.3762915043917
 30
0.0
 11
614.22362216139
 21
674.8762915043917
 31
0.0
  0
LINE
  5
10AE
330
2
100
AcDbEntity
  8
0
100
AcDbLine
 10
133.9177380653397
 20
402.979023980809
 30
0.0
 11
143.4177380653416
 21
402.979023980809
 31
0.0
  0
ARC
  5
10AF
330
2
100
AcDbEntity
  8
0
100
AcDbCircle
 10
126.9177380653416
 20
407.9790239808089
 30
0.0
 40
2.0
100
AcDbArc
 50
359.9999999999869
 51
90.0
  0
ARC
  5
10B0
330
2
100
AcDbEntity
  8
0
100
AcDbCircle
 10
126.9177380653416
 20
345.9790239810432
 30
0.0
 40
2.0
100
AcDbArc
 50
270.0
 51
359.9999999999869
  0
LINE
  5
10B1
330
2
100
AcDbEntity
  8
0
100
AcDbLine
 10
133.9177380653361
 20
350.9790239810436
 30
0.0
 11
143.4177380653416
 21
350.9790239810436
 31
0.0
  0
LINE
  5
10B2
330
2
100
AcDbEntity
  8
0
100
AcDbLine
 10
147.9177380653425
 20
364.8546683279446
 30
0.0
 11
147.9177380653416
 21
389.1033796339089
 31
0.0
  0
LINE
  5
10B3
330
2
100
AcDbEntity
  8
0
100
AcDbLine
 10
128.917738065337
 20
364.8546683279446
 30
0.0
 11
148.4177380653425
 21
364.8546683279446
 31
0.0
  0
LINE
  5
10B4
330
2
100
AcDbEntity
  8
0
100
AcDbLine
 10
128.9177380653397
 20
389.1033796339089
 30
0.0
 11
148.4177380653416
 21
389.1033796339089
 31
0.0
  0
LINE
  5
10B5
330
2
100
AcDbEntity
  8
0
100
AcDbLine
 10
628.6387035544619
 20
402.9790239808094
 30
0.0
 11
619.1387035544519
 21
402.9790239808098
 31
0.0
  0
ARC
  5
10B6
330
2
100
AcDbEntity
  8
0
100
AcDbCircle
 10
635.6387035544555
 20
407.9790239808099
 30
0.0
 40
2.0
100
AcDbArc
 50
90.0
 51
180.0
  0
LINE
  5
10B7
330
2
100
AcDbEntity
  8
0
100
AcDbLine
 10
633.6387035544601
 20
407.9790239808104
 30
0.0
 11
633.6387035544592
 21
345.9790239810445
 31
0.0
  0
LINE
  5
10B8
330
2
100
AcDbEntity
  8
0
100
AcDbLine
 10
628.6387035544601
 20
350.9790239810445
 30
0.0
 11
619.1387035544519
 21
350.9790239810445
 31
0.0
  0
ARC
  5
10B9
330
2
100
AcDbEntity
  8
0
100
AcDbCircle
 10
635.6387035544555
 20
345.9790239810445
 30
0.0
 40
2.0
100
AcDbArc
 50
180.0
 51
270.0
  0
LINE
  5
10BA
330
2
100
AcDbEntity
  8
0
100
AcDbLine
 10
617.1387035544519
 20
379.4790239809267
 30
0.0
 11
630.6387035544601
 21
379.4790239809267
 31
0.0
  0
LINE
  5
10BB
330
2
100
AcDbEntity
  8
0
100
AcDbLine
 10
617.1387035544519
 20
374.4790239809272
 30
0.0
 11
630.6387035544592
 21
374.4790239809268
 31
0.0
  0
ARC
  5
10BC
330
2
100
AcDbEntity
  8
0
100
AcDbCircle
 10
133.9177380653361
 20
345.9790239810436
 30
0.0
 40
5.0
100
AcDbArc
 50
90.0
 51
179.9999999999869
  0
ARC
  5
10BD
330
2
100
AcDbEntity
  8
0
100
AcDbCircle
 10
133.9177380653397
 20
407.9790239808089
 30
0.0
 40
5.0
100
AcDbArc
 50
179.9999999999869
 51
270.0
  0
ARC
  5
10BE
330
2
100
AcDbEntity
  8
0
100
AcDbCircle
 10
143.4177380653416
 20
407.9790239808089
 30
0.0
 40
5.0
100
AcDbArc
 50
270.0
 51
0.0
  0
ARC
  5
10BF
330
2
100
AcDbEntity
  8
0
100
AcDbCircle
 10
143.4177380653416
 20
345.9790239810436
 30
0.0
 40
5.0
100
AcDbArc
 50
0.0
 51
90.0
  0
ARC
  5
10C0
330
2
100
AcDbEntity
  8
0
100
AcDbCircle
 10
628.6387035544619
 20
407.9790239808095
 30
0.0
 40
5.0
100
AcDbArc
 50
270.0
 51
359.9999999999869
  0
ARC
  5
10C1
330
2
100
AcDbEntity
  8
0
100
AcDbCircle
 10
619.1387035544519
 20
407.9790239808099
 30
0.0
 40
5.0
100
AcDbArc
 50
180.0
 51
270.0
  0
ARC
  5
10C2
330
2
100
AcDbEntity
  8
0
100
AcDbCircle
 10
628.6387035544601
 20
345.9790239810445
 30
0.0
 40
5.0
100
AcDbArc
 50
0.0
 51
90.0
  0
ARC
  5
10C3
330
2
100
AcDbEntity
  8
0
100
AcDbCircle
 10
619.1387035544519
 20
345.9790239810445
 30
0.0
 40
5.0
100
AcDbArc
 50
90.0
 51
180.0
  0
ARC
  5
10C4
330
2
100
AcDbEntity
  8
0
100
AcDbCircle
 10
630.6387035544601
 20
382.4790239809268
 30
0.0
 40
3.0
100
AcDbArc
 50
270.0
 51
0.0
  0
ARC
  5
10C5
330
2
100
AcDbEntity
  8
0
100
AcDbCircle
 10
617.1387035544519
 20
382.4790239809268
 30
0.0
 40
3.0
100
AcDbArc
 50
180.0
 51
270.0
  0
ARC
  5
10C6
330
2
100
AcDbEntity
  8
0
100
AcDbCircle
 10
630.6387035544592
 20
371.4790239809268
 30
0.0
 40
3.0
100
AcDbArc
 50
0.0
 51
90.0
  0
ARC
  5
10C7
330
2
100
AcDbEntity
  8
0
100
AcDbCircle
 10
617.1387035544519
 20
371.4790239809272
 30
0.0
 40
3.0
100
AcDbArc
 50
90.0
 51
180.0
  0
LINE
  5
10C8
330
2
100
AcDbEntity
  8
0
100
AcDbLine
 10
544.7521376554821
 20
601.9460905004607
 30
0.0
 11
545.0712994500261
 21
592.8064925136514
 31
0.0
  0
ARC
  5
10C9
330
2
100
AcDbEntity
  8
0
100
AcDbCircle
 10
542.7533560014442
 20
601.8762915070555
 30
0.0
 40
2.0
100
AcDbArc
 50
2.000000000003654
 51
90.0
  0
LINE
  5
10CA
330
2
100
AcDbEntity
  8
0
100
AcDbLine
 10
547.0700811040649
 20
590.8762915070583
 30
0.0
 11
599.2073260048353
 21
590.8762915070556
 31
0.0
  0
ARC
  5
10CB
330
2
100
AcDbEntity
  8
0
100
AcDbCircle
 10
547.0700811040649
 20
592.876291507056
 30
0.0
 40
2.0
100
AcDbArc
 50
182.0000000000036
 51
270.0
  0
ARC
  5
10CC
330
2
100
AcDbEntity
  8
0
100
AcDbCircle
 10
599.2073260048353
 20
592.8762915070556
 30
0.0
 40
2.0
100
AcDbArc
 50
270.0
 51
357.9999999999963
  0
LINE
  5
10CD
330
2
100
AcDbEntity
  8
0
100
AcDbLine
 10
601.525269453419
 20
601.9460905004607
 30
0.0
 11
601.206107658874
 21
592.8064925136509
 31
0.0
  0
ARC
  5
10CE
330
2
100
AcDbEntity
  8
0
100
AcDbCircle
 10
603.5240511074578
 20
601.8762915070555
 30
0.0
 40
2.0
100
AcDbArc
 50
90.0
 51
177.9999999999963
  0
LINE
  5
10CF
330
2
100
AcDbEntity
  8
0
100
AcDbLine
 10
648.087017296292
 20
692.876291507056
 30
0.0
 11
658.1387035500808
 21
692.876291507056
 31
0.0
  0
LINE
  5
10D0
330
2
100
AcDbEntity
  8
0
100
AcDbLine
 10
648.087017296292
 20
610.8762915070561
 30
0.0
 11
658.1387035500808
 21
610.8762915070561
 31
0.0
  0
ARC
  5
10D1
330
2
100
AcDbEntity
  8
0
100
AcDbCircle
 10
648.087017296292
 20
690.876291507056
 30
0.0
 40
2.0
100
AcDbArc
 50
90.0
 51
178.5000000000102
  0
LINE
  5
10D2
330
2
100
AcDbEntity
  8
0
100
AcDbLine
 10
646.0877026463419
 20
690.9286454036714
 30
0.0
 11
645.0650807701475
 21
651.876291507056
 31
0.0
  0
ARC
  5
10D3
330
2
100
AcDbEntity
  8
0
100
AcDbCircle
 10
648.087017296292
 20
612.876291507056
 30
0.0
 40
2.0
100
AcDbArc
 50
181.4999999999897
 51
270.0
  0
LINE
  5
10D4
330
2
100
AcDbEntity
  8
0
100
AcDbLine
 10
646.0877026463419
 20
612.8239376104406
 30
0.0
 11
645.0650807701465
 21
651.876291507056
 31
0.0
  0
LINE
  5
10D5
330
2
100
AcDbEntity
  8
0
100
AcDbLine
 10
635.587017296292
 20
618.8762915070561
 30
0.0
 11
641.0584318272892
 21
618.8762915070561
 31
0.0
  0
ARC
  5
10D6
330
2
100
AcDbEntity
  8
0
100
AcDbCircle
 10
641.0584318272883
 20
689.8762915070561
 30
0.0
 40
5.0
100
AcDbArc
 50
270.0
 51
358.5000000000103
  0
ARC
  5
10D7
330
2
100
AcDbEntity
  8
0
100
AcDbCircle
 10
641.0584318272892
 20
613.876291507056
 30
0.0
 40
5.0
100
AcDbArc
 50
1.499999999989693
 51
90.0
  0
ARC
  5
10D8
330
2
100
AcDbEntity
  8
0
100
AcDbCircle
 10
635.587017296292
 20
682.876291507056
 30
0.0
 40
2.0
100
AcDbArc
 50
90.0
 51
178.4999999999973
  0
LINE
  5
10D9
330
2
100
AcDbEntity
  8
0
100
AcDbLine
 10
633.587702646341
 20
620.8239376104402
 30
0.0
 11
632.7745681427939
 21
651.876291507056
 31
0.0
  0
ARC
  5
10DA
330
2
100
AcDbEntity
  8
0
100
AcDbCircle
 10
635.587017296292
 20
620.876291507056
 30
0.0
 40
2.0
100
AcDbArc
 50
181.5000000000548
 51
270.0
  0
LINE
  5
10DB
330
2
100
AcDbEntity
  8
0
100
AcDbLine
 10
635.587017296292
 20
684.876291507056
 30
0.0
 11
641.0584318272883
 21
684.876291507056
 31
0.0
  0
LINE
  5
10DC
330
2
100
AcDbEntity
  8
0
100
AcDbLine
 10
633.587702646341
 20
682.9286454036719
 30
0.0
 11
632.7745681426729
 21
651.876291507056
 31
0.0
  0
LINE
  5
10DD
330
2
100
AcDbEntity
  8
0
100
AcDbLine
 10
616.6757386236747
 20
625.876291507056
 30
0.0
 11
628.5846177488563
 21
625.876291507056
 31
0.0
  0
ARC
  5
10DE
330
2
100
AcDbEntity
  8
0
100
AcDbCircle
 10
628.5060599841488
 20
679.876291507056
 30
0.0
 40
5.0
100
AcDbArc
 50
270.0
 51
358.4999999999972
  0
ARC
  5
10DF
330
2
100
AcDbEntity
  8
0
100
AcDbCircle
 10
628.5846177488563
 20
620.876291507056
 30
0.0
 40
5.0
100
AcDbArc
 50
1.500000000002716
 51
90.0
  0
LINE
  5
10E0
330
2
100
AcDbEntity
  8
0
100
AcDbLine
 10
616.6233774169302
 20
619.876291507056
 30
0.0
 11
632.587017296292
 21
619.876291507056
 31
0.0
  0
ARC
  5
10E1
330
2
100
AcDbEntity
  8
0
100
AcDbCircle
 10
632.587017296292
 20
616.876291507056
 30
0.0
 40
3.0
100
AcDbArc
 50
53.13010235412992
 51
90.0
  0
LINE
  5
10E2
330
2
100
AcDbEntity
  8
0
100
AcDbLine
 10
606.1517965153041
 20
675.3762915043917
 30
0.0
 11
606.7416652180552
 21
652.8501145587483
 31
0.0
  0
ARC
  5
10E3
330
2
100
AcDbEntity
  8
0
100
AcDbCircle
 10
607.7413225430307
 20
652.8762915070561
 30
0.0
 40
1.0
100
AcDbArc
 50
181.4999999999897
 51
270.0
  0
LINE
  5
10E4
330
2
100
AcDbEntity
  8
0
100
AcDbLine
 10
616.8808200167584
 20
654.3762915070556
 30
0.0
 11
629.9175623338294
 21
654.376291507056
 31
0.0
  0
LINE
  5
10E5
330
2
100
AcDbEntity
  8
0
100
AcDbLine
 10
616.8808200167584
 20
649.376291507056
 30
0.0
 11
629.9175623339285
 21
649.376291507056
 31
0.0
  0
ARC
  5
10E6
330
2
100
AcDbEntity
  8
0
100
AcDbCircle
 10
629.9175623338294
 20
657.376291507056
 30
0.0
 40
3.0
100
AcDbArc
 50
270.0
 51
358.5000000000103
  0
ARC
  5
10E7
330
2
100
AcDbEntity
  8
0
100
AcDbCircle
 10
629.9175623339285
 20
646.376291507056
 30
0.0
 40
3.0
100
AcDbArc
 50
1.499999999768141
 51
90.0
  0
LINE
  5
10E8
330
2
100
AcDbEntity
  8
0
100
AcDbLine
 10
554.8466683885096
 20
674.876291507056
 30
0.0
 11
554.8466683885096
 21
610.3762724685879
 31
0.0
  0
LINE
  5
10E9
330
2
100
AcDbEntity
  8
0
100
AcDbLine
 10
540.138703554451
 20
674.876291507056
 30
0.0
 11
540.138703554451
 21
610.3762724685879
 31
0.0
  0
LINE
  5
10EA
330
2
100
AcDbEntity
  8
0
100
AcDbLine
 10
537.1387035544492
 20
674.876291507056
 30
0.0
 11
537.1387035544492
 21
610.3762724685879
 31
0.0
  0
LINE
  5
10EB
330
2
100
AcDbEntity
  8
0
100
AcDbLine
 10
591.4307387203905
 20
674.876291507056
 30
0.0
 11
591.4307387203905
 21
610.3762724685879
 31
0.0
  0
LINE
  5
10EC
330
2
100
AcDbEntity
  8
0
100
AcDbLine
 10
606.1387035544491
 20
651.876291507056
 30
0.0
 11
606.1387035544491
 21
610.3762724685879
 31
0.0
  0
LINE
  5
10ED
330
2
100
AcDbEntity
  8
0
100
AcDbLine
 10
608.9292588936238
 20
675.376291507056
 30
0.0
 11
608.9292588936238
 21
610.3762724685879
 31
0.0
  0
LINE
  5
10EE
330
2
100
AcDbEntity
  8
0
100
AcDbLine
 10
607.7413225430307
 20
651.876291507056
 30
0.0
 11
613.9287035544501
 21
651.876291507056
 31
0.0
  0
LINE
  5
10EF
330
2
100
AcDbEntity
  8
0
100
AcDbLine
 10
645.0650807701475
 20
651.876291507056
 30
0.0
 11
658.1387035500808
 21
651.876291507056
 31
0.0
  0
LINE
  5
10F0
330
2
100
AcDbEntity
  8
0
100
AcDbLine
 10
145.4177380653416
 20
344.9790239809217
 30
0.0
 11
129.9177380653425
 21
344.9790239809217
 31
0.0
  0
ARC
  5
10F1
330
2
100
AcDbEntity
  8
0
100
AcDbCircle
 10
129.9177380653425
 20
341.9790239809218
 30
0.0
 40
3.0
100
AcDbArc
 50
90.0
 51
126.86989764587
  0
ARC
  5
10F2
330
2
100
AcDbEntity
  8
0
100
AcDbCircle
 10
145.4177380653416
 20
341.9790239809218
 30
0.0
 40
3.0
100
AcDbArc
 50
0.0
 51
90.0
  0
LINE
  5
10F3
330
2
100
AcDbEntity
  8
0
100
AcDbLine
 10
145.4177380653416
 20
408.9790239809317
 30
0.0
 11
129.9177380653425
 21
408.9790239809317
 31
0.0
  0
ARC
  5
10F4
330
2
100
AcDbEntity
  8
0
100
AcDbCircle
 10
145.4177380653416
 20
411.9790239809318
 30
0.0
 40
3.0
100
AcDbArc
 50
270.0
 51
0.0
  0
ARC
  5
10F5
330
2
100
AcDbEntity
  8
0
100
AcDbCircle
 10
129.9177380653425
 20
411.9790239809318
 30
0.0
 40
3.0
100
AcDbArc
 50
233.1301023541299
 51
270.0
  0
LINE
  5
10F6
330
2
100
AcDbEntity
  8
0
100
AcDbLine
 10
617.1387035544519
 20
344.9790239809249
 30
0.0
 11
632.6387035544509
 21
344.9790239809249
 31
0.0
  0
ARC
  5
10F7
330
2
100
AcDbEntity
  8
0
100
AcDbCircle
 10
617.1387035544519
 20
341.9790239809249
 30
0.0
 40
3.0
100
AcDbArc
 50
90.0
 51
180.0
  0
ARC
  5
10F8
330
2
100
AcDbEntity
  8
0
100
AcDbCircle
 10
632.6387035544509
 20
341.9790239809249
 30
0.0
 40
3.0
100
AcDbArc
 50
53.13010235412992
 51
90.0
  0
LINE
  5
10F9
330
2
100
AcDbEntity
  8
0
100
AcDbLine
 10
617.1387035544519
 20
408.9790239809345
 30
0.0
 11
632.6387035544509
 21
408.9790239809345
 31
0.0
  0
ARC
  5
10FA
330
2
100
AcDbEntity
  8
0
100
AcDbCircle
 10
617.1387035544519
 20
411.979023980935
 30
0.0
 40
3.0
100
AcDbArc
 50
180.0
 51
270.0
  0
ARC
  5
10FB
330
2
100
AcDbEntity
  8
0
100
AcDbCircle
 10
632.6387035544509
 20
411.979023980935
 30
0.0
 40
3.0
100
AcDbArc
 50
270.0
 51
306.86989764587
  0
LINE
  5
10FC
330
2
100
AcDbEntity
  8
0
100
AcDbLine
 10
569.9362194699349
 20
342.8058976033263
 30
0.0
 11
571.1962200130108
 21
342.8058976033263
 31
0.0
  0
LINE
  5
10FD
330
2
100
AcDbEntity
  8
0
100
AcDbLine
 10
571.6862194699285
 20
346.305897603314
 30
0.0
 11
569.9362194699349
 21
342.8058976033263
 31
0.0
  0
ARC
  5
10FE
330
2
100
AcDbEntity
  8
0
100
AcDbCircle
 10
574.5911876374182
 20
345.1158976033184
 30
0.0
 40
1.189999999995825
100
AcDbArc
 50
307.5189678667999
 51
90.0
  0
LINE
  5
10FF
330
2
100
AcDbEntity
  8
0
100
AcDbLine
 10
575.3159262410161
 20
344.1720470026162
 30
0.0
 11
576.1852688759479
 21
342.8058976033263
 31
0.0
  0
LINE
  5
1100
330
2
100
AcDbEntity
  8
0
100
AcDbLine
 10
574.925268332872
 20
342.8058976033263
 30
0.0
 11
576.1852688759479
 21
342.8058976033263
 31
0.0
  0
LINE
  5
1101
330
2
100
AcDbEntity
  8
0
100
AcDbLine
 10
572.3512194699257
 20
342.8058976033263
 30
0.0
 11
573.4011876374222
 21
342.8058976033263
 31
0.0
  0
LINE
  5
1102
330
2
100
AcDbEntity
  8
0
100
AcDbLine
 10
571.4587200130097
 20
343.3308976033245
 30
0.0
 11
571.1962200130108
 21
342.8058976033263
 31
0.0
  0
LINE
  5
1103
330
2
100
AcDbEntity
  8
0
100
AcDbLine
 10
571.4587200130097
 20
343.3308976033245
 30
0.0
 11
572.3512194699257
 21
343.3308976033245
 31
0.0
  0
LINE
  5
1104
330
2
100
AcDbEntity
  8
0
100
AcDbLine
 10
572.3512194699257
 20
343.3308976033245
 30
0.0
 11
572.3512194699257
 21
342.8058976033263
 31
0.0
  0
LINE
  5
1105
330
2
100
AcDbEntity
  8
0
100
AcDbLine
 10
572.0187200130083
 20
344.4508976033203
 30
0.0
 11
572.3512194699257
 21
344.4508976033203
 31
0.0
  0
LINE
  5
1106
330
2
100
AcDbEntity
  8
0
100
AcDbLine
 10
572.3512194699257
 20
345.1158965171562
 30
0.0
 11
572.3512194699257
 21
344.4508976033203
 31
0.0
  0
LINE
  5
1107
330
2
100
AcDbEntity
  8
0
100
AcDbLine
 10
572.3512194699257
 20
345.1158965171562
 30
0.0
 11
572.0187200130083
 21
344.4508976033203
 31
0.0
  0
LINE
  5
1108
330
2
100
AcDbEntity
  8
0
100
AcDbLine
 10
573.5499694699217
 20
344.9671476033186
 30
0.0
 11
574.925268332872
 21
342.8058976033263
 31
0.0
  0
LINE
  5
1109
330
2
100
AcDbEntity
  8
0
100
AcDbLine
 10
573.4011876374222
 20
345.1158976033184
 30
0.0
 11
573.4011876374222
 21
342.8058976033263
 31
0.0
  0
LINE
  5
110A
330
2
100
AcDbEntity
  8
0
100
AcDbLine
 10
573.4011876374222
 20
345.1158976033184
 30
0.0
 11
574.5168444699181
 21
345.1158976033184
 31
0.0
  0
LINE
  5
110B
330
2
100
AcDbEntity
  8
0
100
AcDbLine
 10
573.5499694699217
 20
344.9671476033186
 30
0.0
 11
574.5168444699181
 21
344.9671476033186
 31
0.0
  0
ARC
  5
110C
330
2
100
AcDbEntity
  8
0
100
AcDbCircle
 10
574.5168444699181
 20
345.0415226033183
 30
0.0
 40
0.0743749999997391
100
AcDbArc
 50
270.0
 51
90.0
  0
LINE
  5
110D
330
2
100
AcDbEntity
  8
0
100
AcDbLine
 10
571.6862194699285
 20
346.305897603314
 30
0.0
 11
574.5911876374182
 21
346.305897603314
 31
0.0
  0
LINE
  5
110E
330
2
100
AcDbEntity
  8
0
100
AcDbLine
 10
538.13870355445
 20
608.876291507056
 30
0.0
 11
538.13870355445
 21
603.876291507056
 31
0.0
  0
LINE
  5
110F
330
2
100
AcDbEntity
  8
0
100
AcDbLine
 10
608.13870355445
 20
608.876291507056
 30
0.0
 11
608.13870355445
 21
603.876291507056
 31
0.0
  0
LINE
  5
1110
330
2
100
AcDbEntity
  8
0
100
AcDbLine
 10
114.4177380653434
 20
335.4790239809263
 30
0.0
 11
104.4177380653416
 21
335.4790239809263
 31
0.0
  0
ARC
  5
1111
330
2
100
AcDbEntity
  8
0
100
AcDbCircle
 10
114.4177380653434
 20
337.4790239809263
 30
0.0
 40
2.0
100
AcDbArc
 50
270.0
 51
0.0
  0
LINE
  5
1112
330
2
100
AcDbEntity
  8
0
100
AcDbLine
 10
104.4177380653416
 20
418.4790239809263
 30
0.0
 11
114.4177380653416
 21
418.4790239809263
 31
0.0
  0
ARC
  5
1113
330
2
100
AcDbEntity
  8
0
100
AcDbCircle
 10
114.4177380653416
 20
416.4790239809263
 30
0.0
 40
2.0
100
AcDbArc
 50
0.0
 51
90.0
  0
LINE
  5
1114
330
2
100
AcDbEntity
  8
0
100
AcDbLine
 10
648.1387035544501
 20
418.4790239809263
 30
0.0
 11
658.13870355445
 21
418.4790239809263
 31
0.0
  0
ARC
  5
1115
330
2
100
AcDbEntity
  8
0
100
AcDbCircle
 10
648.1387035544501
 20
416.4790239809263
 30
0.0
 40
2.0
100
AcDbArc
 50
90.0
 51
180.0
  0
LINE
  5
1116
330
2
100
AcDbEntity
  8
0
100
AcDbLine
 10
658.13870355445
 20
335.4790239809263
 30
0.0
 11
648.1387035544528
 21
335.4790239809263
 31
0.0
  0
ARC
  5
1117
330
2
100
AcDbEntity
  8
0
100
AcDbCircle
 10
648.1387035544528
 20
337.4790239809263
 30
0.0
 40
2.0
100
AcDbArc
 50
180.0
 51
270.0
  0
LINE
  5
1118
330
2
100
AcDbEntity
  8
CENTER
100
AcDbLine
 10
573.1387035544574
 20
435.9790239809263
 30
0.0
 11
573.1387035544574
 21
317.9790239809272
 31
0.0
  0
LINE
  5
1119
330
2
100
AcDbEntity
  8
CENTER
100
AcDbLine
 10
514.1387035544528
 20
376.9790239809227
 30
0.0
 11
723.138703550079
 21
376.9790239809229
 31
0.0
  0
LINE
  5
111A
330
2
100
AcDbEntity
  8
CENTER
100
AcDbLine
 10
232.6677380653416
 20
411.4790239809267
 30
0.0
 11
215.1677380653416
 21
411.4790239809267
 31
0.0
  0
LINE
  5
111B
330
2
100
AcDbEntity
  8
CENTER
100
AcDbLine
 10
223.9177380653416
 20
420.2290239809268
 30
0.0
 11
223.9177380653416
 21
402.7290239809268
 31
0.0
  0
LINE
  5
111C
330
2
100
AcDbEntity
  8
CENTER
100
AcDbLine
 10
146.1677380653416
 20
411.4790239809267
 30
0.0
 11
163.6677380653416
 21
411.4790239809267
 31
0.0
  0
LINE
  5
111D
330
2
100
AcDbEntity
  8
CENTER
100
AcDbLine
 10
148.2445329845875
 20
403.4790239809267
 30
0.0
 11
158.590943146102
 21
403.4790239809267
 31
0.0
  0
CIRCLE
  5
111E
330
2
100
AcDbEntity
  8
HOJO
100
AcDbCircle
 10
153.4177380653443
 20
403.4790239809267
 30
0.0
 40
2.0
  0
LINE
  5
111F
330
2
100
AcDbEntity
  8
CENTER
100
AcDbLine
 10
153.4177380653443
 20
408.652229061684
 30
0.0
 11
153.4177380653443
 21
398.3058189001699
 31
0.0
  0
LINE
  5
1120
330
2
100
AcDbEntity
  8
CENTER
100
AcDbLine
 10
232.6677380653416
 20
342.4790239809268
 30
0.0
 11
215.1677380653416
 21
342.4790239809268
 31
0.0
  0
LINE
  5
1121
330
2
100
AcDbEntity
  8
CENTER
100
AcDbLine
 10
225.4177380653388
 20
345.30581890017
 30
0.0
 11
225.4177380653388
 21
355.652229061684
 31
0.0
  0
LINE
  5
1122
330
2
100
AcDbEntity
  8
CENTER
100
AcDbLine
 10
230.5909431460966
 20
350.4790239809267
 30
0.0
 11
220.244532984582
 21
350.4790239809267
 31
0.0
  0
CIRCLE
  5
1123
330
2
100
AcDbEntity
  8
HOJO
100
AcDbCircle
 10
225.4177380653388
 20
350.4790239809267
 30
0.0
 40
2.0
  0
LINE
  5
1124
330
2
100
AcDbEntity
  8
CENTER
100
AcDbLine
 10
146.1677380653416
 20
342.4790239809272
 30
0.0
 11
163.6677380653416
 21
342.4790239809272
 31
0.0
  0
ARC
  5
1125
330
2
100
AcDbEntity
  8
0
100
AcDbCircle
 10
160.9177380653443
 20
394.4409647580556
 30
0.0
 40
5.0
100
AcDbArc
 50
135.0000000000089
 51
180.0
  0
ARC
  5
1126
330
2
100
AcDbEntity
  8
0
100
AcDbCircle
 10
217.9177380653388
 20
394.4409647580556
 30
0.0
 40
5.0
100
AcDbArc
 50
0.0
 51
44.99999999999107
  0
CIRCLE
  5
1127
330
2
100
AcDbEntity
  8
0
100
AcDbCircle
 10
189.4177380653416
 20
376.9790239809267
 30
0.0
 40
23.0
  0
LINE
  5
1128
330
2
100
AcDbEntity
  8
0
100
AcDbLine
 10
148.8277380653414
 20
340.9790239809272
 30
0.0
 11
148.8277380653414
 21
412.9790239809268
 31
0.0
  0
CIRCLE
  5
1129
330
2
100
AcDbEntity
  8
0
100
AcDbCircle
 10
189.4177380653416
 20
376.9790239809267
 30
0.0
 40
29.0
  0
CIRCLE
  5
112A
330
2
100
AcDbEntity
  8
0
100
AcDbCircle
 10
189.4177380653416
 20
376.9790239809267
 30
0.0
 40
26.5
  0
CIRCLE
  5
112B
330
2
100
AcDbEntity
  8
0
100
AcDbCircle
 10
189.4177380653416
 20
376.9790239809267
 30
0.0
 40
28.5
  0
ARC
  5
112C
330
2
100
AcDbEntity
  8
0
100
AcDbCircle
 10
217.9177380653388
 20
394.4409647580551
 30
0.0
 40
8.5
100
AcDbArc
 50
0.0
 51
44.99999999999107
  0
ARC
  5
112D
330
2
100
AcDbEntity
  8
0
100
AcDbCircle
 10
160.9177380653443
 20
394.4409647580556
 30
0.0
 40
8.5
100
AcDbArc
 50
135.0000000000089
 51
180.0
  0
CIRCLE
  5
112E
330
2
100
AcDbEntity
  8
0
100
AcDbCircle
 10
189.4177380653416
 20
376.9790239809267
 30
0.0
 40
23.5774
  0
CIRCLE
  5
112F
330
2
100
AcDbEntity
  8
0
100
AcDbCircle
 10
189.4177380653416
 20
376.9790239809267
 30
0.0
 40
25.9226
  0
LINE
  5
1130
330
2
100
AcDbEntity
  8
0
100
AcDbLine
 10
206.8796788424704
 20
413.979023980924
 30
0.0
 11
171.9557972882137
 21
413.979023980924
 31
0.0
  0
LINE
  5
1131
330
2
100
AcDbEntity
  8
0
100
AcDbLine
 10
206.8796788424704
 20
410.479023980924
 30
0.0
 11
171.9557972882137
 21
410.479023980924
 31
0.0
  0
LINE
  5
1132
330
2
100
AcDbEntity
  8
0
100
AcDbLine
 10
225.7707140916843
 20
397.6937739331584
 30
0.0
 11
222.5371357278961
 21
396.3543819198808
 31
0.0
  0
ARC
  5
1133
330
2
100
AcDbEntity
  8
0
100
AcDbCircle
 10
206.8796788424704
 20
405.479023980924
 30
0.0
 40
8.5
100
AcDbArc
 50
44.99999999999107
 51
90.0
  0
LINE
  5
1134
330
2
100
AcDbEntity
  8
0
100
AcDbLine
 10
210.1324880175741
 20
413.3320000072699
 30
0.0
 11
208.7930960042956
 21
410.0984216434804
 31
0.0
  0
LINE
  5
1135
330
2
100
AcDbEntity
  8
0
100
AcDbLine
 10
223.9281457054246
 20
400.4513723981409
 30
0.0
 11
212.8900864825561
 21
411.4894316210098
 31
0.0
  0
LINE
  5
1136
330
2
100
AcDbEntity
  8
0
100
AcDbLine
 10
221.4532719712713
 20
397.976498663988
 30
0.0
 11
210.4152127484028
 21
409.0145578868569
 31
0.0
  0
ARC
  5
1137
330
2
100
AcDbEntity
  8
0
100
AcDbCircle
 10
206.8796788424704
 20
405.479023980924
 30
0.0
 40
5.0
100
AcDbArc
 50
44.99999999999107
 51
90.0
  0
LINE
  5
1138
330
2
100
AcDbEntity
  8
0
100
AcDbLine
 10
153.0647620389988
 20
397.6937739331588
 30
0.0
 11
156.2983404027879
 21
396.3543819198808
 31
0.0
  0
LINE
  5
1139
330
2
100
AcDbEntity
  8
0
100
AcDbLine
 10
156.4177380653416
 20
417.9790239809268
 30
0.0
 11
153.8277380653414
 21
417.9790239809268
 31
0.0
  0
LINE
  5
113A
330
2
100
AcDbEntity
  8
0
100
AcDbLine
 10
154.9073304252585
 20
400.4513723981413
 30
0.0
 11
165.9453896481279
 21
411.4894316210098
 31
0.0
  0
ARC
  5
113B
330
2
100
AcDbEntity
  8
0
100
AcDbCircle
 10
171.9557972882137
 20
405.479023980924
 30
0.0
 40
8.5
100
AcDbArc
 50
90.0
 51
135.0000000000089
  0
LINE
  5
113C
330
2
100
AcDbEntity
  8
0
100
AcDbLine
 10
168.7029881131099
 20
413.3320000072699
 30
0.0
 11
170.0423801263875
 21
410.0984216434804
 31
0.0
  0
LINE
  5
113D
330
2
100
AcDbEntity
  8
0
100
AcDbLine
 10
157.3822041594119
 20
397.976498663988
 30
0.0
 11
168.4202633822803
 21
409.0145578868569
 31
0.0
  0
ARC
  5
113E
330
2
100
AcDbEntity
  8
0
100
AcDbCircle
 10
171.9557972882137
 20
405.479023980924
 30
0.0
 40
5.0
100
AcDbArc
 50
90.0
 51
135.0000000000089
  0
ARC
  5
113F
330
2
100
AcDbEntity
  8
0
100
AcDbCircle
 10
153.8277380653414
 20
412.9790239809268
 30
0.0
 40
5.0
100
AcDbArc
 50
90.0
 51
180.0
  0
CIRCLE
  5
1140
330
2
100
AcDbEntity
  8
0
100
AcDbCircle
 10
153.4177380653443
 20
403.4790239809267
 30
0.0
 40
1.6
  0
LINE
  5
1141
330
2
100
AcDbEntity
  8
0
100
AcDbLine
 10
171.9557972882137
 20
339.9790239809295
 30
0.0
 11
206.8796788424704
 21
339.9790239809295
 31
0.0
  0
LINE
  5
1142
330
2
100
AcDbEntity
  8
0
100
AcDbLine
 10
171.9557972882137
 20
343.4790239809295
 30
0.0
 11
206.8796788424704
 21
343.4790239809295
 31
0.0
  0
LINE
  5
1143
330
2
100
AcDbEntity
  8
0
100
AcDbLine
 10
226.4177380653388
 20
359.5170832037984
 30
0.0
 11
226.4177380653388
 21
394.4409647580551
 31
0.0
  0
LINE
  5
1144
330
2
100
AcDbEntity
  8
0
100
AcDbLine
 10
222.9177380653388
 20
359.5170832037984
 30
0.0
 11
222.9177380653388
 21
394.4409647580556
 31
0.0
  0
CIRCLE
  5
1145
330
2
100
AcDbEntity
  8
0
100
AcDbCircle
 10
225.4177380653388
 20
350.4790239809267
 30
0.0
 40
1.6
  0
ARC
  5
1146
330
2
100
AcDbEntity
  8
0
100
AcDbCircle
 10
217.9177380653388
 20
359.5170832037984
 30
0.0
 40
8.5
100
AcDbArc
 50
315.0000000000089
 51
0.0
  0
LINE
  5
1147
330
2
100
AcDbEntity
  8
0
100
AcDbLine
 10
225.7707140916843
 20
356.2642740286952
 30
0.0
 11
222.5371357278952
 21
357.6036660419727
 31
0.0
  0
LINE
  5
1148
330
2
100
AcDbEntity
  8
0
100
AcDbLine
 10
223.9281457054246
 20
353.5066755637127
 30
0.0
 11
212.8900864825561
 21
342.4686163408442
 31
0.0
  0
LINE
  5
1149
330
2
100
AcDbEntity
  8
0
100
AcDbLine
 10
221.4532719712713
 20
355.9815492978655
 30
0.0
 11
210.4152127484028
 21
344.9434900749966
 31
0.0
  0
ARC
  5
114A
330
2
100
AcDbEntity
  8
0
100
AcDbCircle
 10
217.9177380653388
 20
359.5170832037984
 30
0.0
 40
5.0
100
AcDbArc
 50
315.0000000000089
 51
0.0
  0
ARC
  5
114B
330
2
100
AcDbEntity
  8
0
100
AcDbCircle
 10
206.8796788424704
 20
348.4790239809295
 30
0.0
 40
5.0
100
AcDbArc
 50
270.0
 51
315.0000000000089
  0
ARC
  5
114C
330
2
100
AcDbEntity
  8
0
100
AcDbCircle
 10
206.8796788424704
 20
348.4790239809295
 30
0.0
 40
8.5
100
AcDbArc
 50
270.0
 51
315.0000000000089
  0
LINE
  5
114D
330
2
100
AcDbEntity
  8
0
100
AcDbLine
 10
210.1324880175741
 20
340.6260479545835
 30
0.0
 11
208.7930960042956
 21
343.8596263183731
 31
0.0
  0
LINE
  5
114E
330
2
100
AcDbEntity
  8
0
100
AcDbLine
 10
156.4177380653416
 20
335.9790239809272
 30
0.0
 11
153.8277380653414
 21
335.9790239809272
 31
0.0
  0
LINE
  5
114F
330
2
100
AcDbEntity
  8
0
100
AcDbLine
 10
153.0647620389988
 20
356.2642740286952
 30
0.0
 11
156.2983404027879
 21
357.6036660419732
 31
0.0
  0
LINE
  5
1150
330
2
100
AcDbEntity
  8
0
100
AcDbLine
 10
154.9073304252585
 20
353.5066755637131
 30
0.0
 11
165.9453896481279
 21
342.4686163408437
 31
0.0
  0
LINE
  5
1151
330
2
100
AcDbEntity
  8
0
100
AcDbLine
 10
155.9177380653443
 20
394.4409647580556
 30
0.0
 11
155.9177380653443
 21
359.5170832037984
 31
0.0
  0
LINE
  5
1152
330
2
100
AcDbEntity
  8
0
100
AcDbLine
 10
157.3822041594119
 20
355.981549297866
 30
0.0
 11
168.4202633822803
 21
344.9434900749971
 31
0.0
  0
ARC
  5
1153
330
2
100
AcDbEntity
  8
0
100
AcDbCircle
 10
160.9177380653443
 20
359.5170832037984
 30
0.0
 40
5.0
100
AcDbArc
 50
180.0
 51
224.999999999991
  0
ARC
  5
1154
330
2
100
AcDbEntity
  8
0
100
AcDbCircle
 10
171.9557972882137
 20
348.4790239809295
 30
0.0
 40
8.5
100
AcDbArc
 50
224.999999999991
 51
270.0
  0
ARC
  5
1155
330
2
100
AcDbEntity
  8
0
100
AcDbCircle
 10
171.9557972882137
 20
348.4790239809295
 30
0.0
 40
5.0
100
AcDbArc
 50
224.999999999991
 51
270.0
  0
LINE
  5
1156
330
2
100
AcDbEntity
  8
0
100
AcDbLine
 10
168.7029881131099
 20
340.6260479545835
 30
0.0
 11
170.0423801263875
 21
343.8596263183731
 31
0.0
  0
LINE
  5
1157
330
2
100
AcDbEntity
  8
0
100
AcDbLine
 10
152.4177380653443
 20
394.4409647580556
 30
0.0
 11
152.4177380653443
 21
359.5170832037984
 31
0.0
  0
ARC
  5
1158
330
2
100
AcDbEntity
  8
0
100
AcDbCircle
 10
160.9177380653443
 20
359.5170832037984
 30
0.0
 40
8.5
100
AcDbArc
 50
180.0
 51
224.999999999991
  0
ARC
  5
1159
330
2
100
AcDbEntity
  8
0
100
AcDbCircle
 10
153.8277380653414
 20
340.9790239809272
 30
0.0
 40
5.0
100
AcDbArc
 50
180.0
 51
270.0
  0
LINE
  5
115A
330
2
100
AcDbEntity
  8
CENTER
100
AcDbLine
 10
233.9030194395797
 20
421.4643053551649
 30
0.0
 11
144.9324566911025
 21
332.4937426066877
 31
0.0
  0
LINE
  5
115B
330
2
100
AcDbEntity
  8
CENTER
100
AcDbLine
 10
154.9177380653416
 20
338.2947812367602
 30
0.0
 11
154.9177380653416
 21
351.2290239809268
 31
0.0
  0
LINE
  5
115C
330
2
100
AcDbEntity
  8
CENTER
100
AcDbLine
 10
154.9177380653416
 20
420.2290239809268
 30
0.0
 11
154.9177380653416
 21
402.7290239809268
 31
0.0
  0
LINE
  5
115D
330
2
100
AcDbEntity
  8
CENTER
100
AcDbLine
 10
154.9177380653416
 20
337.269728446046
 30
0.0
 11
154.9177380653416
 21
333.873066303669
 31
0.0
  0
LINE
  5
115E
330
2
100
AcDbEntity
  8
CENTER
100
AcDbLine
 10
223.9177380653416
 20
337.269728446046
 30
0.0
 11
223.9177380653416
 21
333.873066303669
 31
0.0
  0
LINE
  5
115F
330
2
100
AcDbEntity
  8
CENTER
100
AcDbLine
 10
223.9177380653416
 20
338.2947812367602
 30
0.0
 11
223.9177380653416
 21
351.2290239809268
 31
0.0
  0
LINE
  5
1160
330
2
100
AcDbEntity
  8
CENTER
100
AcDbLine
 10
144.9324566911034
 20
421.4643053551649
 30
0.0
 11
233.9030194395797
 21
332.4937426066877
 31
0.0
  0
CIRCLE
  5
1161
330
2
100
AcDbEntity
  8
0
100
AcDbCircle
 10
223.9177380653416
 20
411.4790239809267
 30
0.0
 40
5.000000000000113
  0
LINE
  5
1162
330
2
100
AcDbEntity
  8
0
100
AcDbLine
 10
226.4177380653416
 20
410.0356483079527
 30
0.0
 11
226.4177380653416
 21
412.9223996539009
 31
0.0
  0
LINE
  5
1163
330
2
100
AcDbEntity
  8
0
100
AcDbLine
 10
221.4177380653416
 20
410.0356483079527
 30
0.0
 11
221.4177380653416
 21
412.9223996539009
 31
0.0
  0
CIRCLE
  5
1164
330
2
100
AcDbEntity
  8
0
100
AcDbCircle
 10
223.9177380653416
 20
411.4790239809267
 30
0.0
 40
4.307179676972509
  0
LINE
  5
1165
330
2
100
AcDbEntity
  8
0
100
AcDbLine
 10
221.4177380653416
 20
410.0356483079527
 30
0.0
 11
223.9177380653416
 21
408.5922726349786
 31
0.0
  0
LINE
  5
1166
330
2
100
AcDbEntity
  8
0
100
AcDbLine
 10
226.4177380653416
 20
410.0356483079527
 30
0.0
 11
223.9177380653416
 21
408.5922726349786
 31
0.0
  0
LINE
  5
1167
330
2
100
AcDbEntity
  8
0
100
AcDbLine
 10
223.9177380653416
 20
414.3657753268749
 30
0.0
 11
221.4177380653416
 21
412.9223996539009
 31
0.0
  0
LINE
  5
1168
330
2
100
AcDbEntity
  8
0
100
AcDbLine
 10
223.9177380653416
 20
414.3657753268749
 30
0.0
 11
226.4177380653416
 21
412.9223996539009
 31
0.0
  0
CIRCLE
  5
1169
330
2
100
AcDbEntity
  8
0
100
AcDbCircle
 10
223.9177380653416
 20
342.4790239809268
 30
0.0
 40
5.000000000000113
  0
LINE
  5
116A
330
2
100
AcDbEntity
  8
0
100
AcDbLine
 10
226.4177380653416
 20
341.0356483079527
 30
0.0
 11
226.4177380653416
 21
343.9223996539008
 31
0.0
  0
LINE
  5
116B
330
2
100
AcDbEntity
  8
0
100
AcDbLine
 10
221.4177380653416
 20
341.0356483079527
 30
0.0
 11
221.4177380653416
 21
343.9223996539008
 31
0.0
  0
CIRCLE
  5
116C
330
2
100
AcDbEntity
  8
0
100
AcDbCircle
 10
223.9177380653416
 20
342.4790239809268
 30
0.0
 40
4.307179676972509
  0
LINE
  5
116D
330
2
100
AcDbEntity
  8
0
100
AcDbLine
 10
221.4177380653416
 20
341.0356483079527
 30
0.0
 11
223.9177380653416
 21
339.5922726349786
 31
0.0
  0
LINE
  5
116E
330
2
100
AcDbEntity
  8
0
100
AcDbLine
 10
226.4177380653416
 20
341.0356483079527
 30
0.0
 11
223.9177380653416
 21
339.5922726349786
 31
0.0
  0
LINE
  5
116F
330
2
100
AcDbEntity
  8
0
100
AcDbLine
 10
223.9177380653416
 20
345.3657753268749
 30
0.0
 11
221.4177380653416
 21
343.9223996539008
 31
0.0
  0
LINE
  5
1170
330
2
100
AcDbEntity
  8
0
100
AcDbLine
 10
223.9177380653416
 20
345.3657753268749
 30
0.0
 11
226.4177380653416
 21
343.9223996539008
 31
0.0
  0
CIRCLE
  5
1171
330
2
100
AcDbEntity
  8
0
100
AcDbCircle
 10
154.9177380653416
 20
342.4790239809272
 30
0.0
 40
5.000000000000113
  0
LINE
  5
1172
330
2
100
AcDbEntity
  8
0
100
AcDbLine
 10
157.4177380653416
 20
341.0356483079532
 30
0.0
 11
157.4177380653416
 21
343.9223996539008
 31
0.0
  0
LINE
  5
1173
330
2
100
AcDbEntity
  8
0
100
AcDbLine
 10
152.4177380653425
 20
341.0356483079532
 30
0.0
 11
152.4177380653425
 21
343.9223996539013
 31
0.0
  0
CIRCLE
  5
1174
330
2
100
AcDbEntity
  8
0
100
AcDbCircle
 10
154.9177380653416
 20
342.4790239809272
 30
0.0
 40
4.307179676972509
  0
LINE
  5
1175
330
2
100
AcDbEntity
  8
0
100
AcDbLine
 10
152.4177380653425
 20
341.0356483079532
 30
0.0
 11
154.9177380653425
 21
339.5922726349791
 31
0.0
  0
LINE
  5
1176
330
2
100
AcDbEntity
  8
0
100
AcDbLine
 10
157.4177380653416
 20
341.0356483079532
 30
0.0
 11
154.9177380653425
 21
339.5922726349791
 31
0.0
  0
LINE
  5
1177
330
2
100
AcDbEntity
  8
0
100
AcDbLine
 10
154.9177380653416
 20
345.3657753268753
 30
0.0
 11
152.4177380653425
 21
343.9223996539013
 31
0.0
  0
LINE
  5
1178
330
2
100
AcDbEntity
  8
0
100
AcDbLine
 10
154.9177380653416
 20
345.3657753268753
 30
0.0
 11
157.4177380653416
 21
343.9223996539008
 31
0.0
  0
CIRCLE
  5
1179
330
2
100
AcDbEntity
  8
0
100
AcDbCircle
 10
154.9177380653416
 20
411.4790239809267
 30
0.0
 40
5.000000000000113
  0
LINE
  5
117A
330
2
100
AcDbEntity
  8
0
100
AcDbLine
 10
157.4177380653416
 20
410.0356483079527
 30
0.0
 11
157.4177380653416
 21
412.9223996539009
 31
0.0
  0
LINE
  5
117B
330
2
100
AcDbEntity
  8
0
100
AcDbLine
 10
152.4177380653416
 20
410.0356483079527
 30
0.0
 11
152.4177380653416
 21
412.9223996539009
 31
0.0
  0
CIRCLE
  5
117C
330
2
100
AcDbEntity
  8
0
100
AcDbCircle
 10
154.9177380653416
 20
411.4790239809267
 30
0.0
 40
4.307179676972509
  0
LINE
  5
117D
330
2
100
AcDbEntity
  8
0
100
AcDbLine
 10
152.4177380653416
 20
410.0356483079527
 30
0.0
 11
154.9177380653416
 21
408.5922726349786
 31
0.0
  0
LINE
  5
117E
330
2
100
AcDbEntity
  8
0
100
AcDbLine
 10
157.4177380653416
 20
410.0356483079527
 30
0.0
 11
154.9177380653416
 21
408.5922726349786
 31
0.0
  0
LINE
  5
117F
330
2
100
AcDbEntity
  8
0
100
AcDbLine
 10
154.9177380653416
 20
414.3657753268749
 30
0.0
 11
152.4177380653416
 21
412.9223996539009
 31
0.0
  0
LINE
  5
1180
330
2
100
AcDbEntity
  8
0
100
AcDbLine
 10
154.9177380653416
 20
414.3657753268749
 30
0.0
 11
157.4177380653416
 21
412.9223996539009
 31
0.0
  0
LINE
  5
1181
330
2
100
AcDbEntity
  8
0
100
AcDbLine
 10
394.1656306927623
 20
336.5637241228747
 30
0.0
 11
394.1656306927641
 21
417.3943238389388
 31
0.0
  0
LINE
  5
1182
330
2
100
AcDbEntity
  8
0
100
AcDbLine
 10
399.1656306927613
 20
341.9790239809131
 30
0.0
 11
399.1656306927613
 21
411.9790239809131
 31
0.0
  0
LINE
  5
1183
330
2
100
AcDbEntity
  8
0
100
AcDbLine
 10
401.0958316993562
 20
348.5924580819451
 30
0.0
 11
410.2354296861656
 21
348.9116198764891
 31
0.0
  0
ARC
  5
1184
330
2
100
AcDbEntity
  8
0
100
AcDbCircle
 10
401.1656306927614
 20
346.5936764279072
 30
0.0
 40
2.0
100
AcDbArc
 50
92.00000000000365
 51
180.0
  0
LINE
  5
1185
330
2
100
AcDbEntity
  8
0
100
AcDbLine
 10
412.1656306927595
 20
350.9104015305279
 30
0.0
 11
412.1656306927613
 21
403.0476464312983
 31
0.0
  0
ARC
  5
1186
330
2
100
AcDbEntity
  8
0
100
AcDbCircle
 10
410.1656306927614
 20
350.9104015305279
 30
0.0
 40
2.0
100
AcDbArc
 50
272.0000000000036
 51
0.0
  0
ARC
  5
1187
330
2
100
AcDbEntity
  8
0
100
AcDbCircle
 10
410.1656306927614
 20
403.0476464312983
 30
0.0
 40
2.0
100
AcDbArc
 50
0.0
 51
87.99999999999636
  0
LINE
  5
1188
330
2
100
AcDbEntity
  8
0
100
AcDbLine
 10
401.0958316993562
 20
405.3655898798821
 30
0.0
 11
410.2354296861665
 21
405.0464280853371
 31
0.0
  0
ARC
  5
1189
330
2
100
AcDbEntity
  8
0
100
AcDbCircle
 10
401.1656306927614
 20
407.3643715339208
 30
0.0
 40
2.0
100
AcDbArc
 50
180.0
 51
267.9999999999963
  0
LINE
  5
118A
330
2
100
AcDbEntity
  8
0
100
AcDbLine
 10
310.1656306927595
 20
340.9184201598123
 30
0.0
 11
310.1656306927595
 21
350.4790239809072
 31
0.0
  0
LINE
  5
118B
330
2
100
AcDbEntity
  8
0
100
AcDbLine
 10
310.1656306927595
 20
403.4790239809086
 30
0.0
 11
310.1656306927595
 21
413.0396278019721
 31
0.0
  0
LINE
  5
118C
330
2
100
AcDbEntity
  8
0
100
AcDbLine
 10
315.104659616675
 20
418.0392560409396
 30
0.0
 11
351.1656306927595
 21
418.4790239808922
 31
0.0
  0
LINE
  5
118D
330
2
100
AcDbEntity
  8
0
100
AcDbLine
 10
387.226601768845
 20
418.0392560409377
 30
0.0
 11
351.1656306927604
 21
418.4790239808922
 31
0.0
  0
LINE
  5
118E
330
2
100
AcDbEntity
  8
0
100
AcDbLine
 10
387.226601768845
 20
335.9187919208466
 30
0.0
 11
351.1656306927604
 21
335.4790239808931
 31
0.0
  0
ARC
  5
118F
330
2
100
AcDbEntity
  8
0
100
AcDbCircle
 10
315.1656306927595
 20
340.9184201598123
 30
0.0
 40
5.0
100
AcDbArc
 50
180.0
 51
269.3013056170002
  0
ARC
  5
1190
330
2
100
AcDbEntity
  8
0
100
AcDbCircle
 10
387.1656306927595
 20
340.9184201598141
 30
0.0
 40
5.0
100
AcDbArc
 50
270.6986943829997
 51
298.478561495585
  0
ARC
  5
1191
330
2
100
AcDbEntity
  8
0
100
AcDbCircle
 10
387.1656306927595
 20
413.0396278019703
 30
0.0
 40
5.0
100
AcDbArc
 50
61.52143850500972
 51
89.30130561700025
  0
ARC
  5
1192
330
2
100
AcDbEntity
  8
0
100
AcDbCircle
 10
315.1656306927595
 20
413.0396278019721
 30
0.0
 40
5.0
100
AcDbArc
 50
90.69869438299972
 51
180.0
  0
LINE
  5
1193
330
2
100
AcDbEntity
  8
0
100
AcDbLine
 10
315.104659616675
 20
335.9187919208448
 30
0.0
 11
351.1656306927595
 21
335.4790239808931
 31
0.0
  0
LINE
  5
1194
330
2
100
AcDbEntity
  8
0
100
AcDbLine
 10
327.6656306927577
 20
417.9746605469668
 30
0.0
 11
394.1656306927641
 21
417.3943238389388
 31
0.0
  0
LINE
  5
1195
330
2
100
AcDbEntity
  8
0
100
AcDbLine
 10
327.6656306927577
 20
335.9833874147917
 30
0.0
 11
394.1656306927623
 21
336.5637241228747
 31
0.0
  0
LINE
  5
1196
330
2
100
AcDbEntity
  8
0
100
AcDbLine
 10
327.6656306927577
 20
335.9833874147917
 30
0.0
 11
327.6656306927577
 21
417.9746605469668
 31
0.0
  0
LINE
  5
1197
330
2
100
AcDbEntity
  8
0
100
AcDbLine
 10
394.1656306927614
 20
341.9790239809131
 30
0.0
 11
399.1656306927613
 21
341.9790239809131
 31
0.0
  0
LINE
  5
1198
330
2
100
AcDbEntity
  8
0
100
AcDbLine
 10
394.1656306927614
 20
411.9790239809131
 30
0.0
 11
399.1656306927613
 21
411.9790239809131
 31
0.0
  0
LINE
  5
1199
330
2
100
AcDbEntity
  8
CENTER
100
AcDbLine
 10
351.1656306927541
 20
428.4790239808926
 30
0.0
 11
351.1656306927541
 21
325.4790239808931
 31
0.0
  0
LINE
  5
119A
330
2
100
AcDbEntity
  8
CENTER
100
AcDbLine
 10
280.16563069276
 20
376.9790239809081
 30
0.0
 11
435.1656306927605
 21
376.9790239809081
 31
0.0
  0
LINE
  5
119B
330
2
100
AcDbEntity
  8
0
100
AcDbLine
 10
316.6656306927577
 20
406.4790239809267
 30
0.0
 11
316.6656306927577
 21
347.4790239808895
 31
0.0
  0
LINE
  5
119C
330
2
100
AcDbEntity
  8
0
100
AcDbLine
 10
309.1656306927632
 20
350.4790239809072
 30
0.0
 11
310.4656306927624
 21
350.4790239809072
 31
0.0
  0
LINE
  5
119D
330
2
100
AcDbEntity
  8
0
100
AcDbLine
 10
312.6656306927632
 20
350.6790239809079
 30
0.0
 11
312.865630692763
 21
350.4790239809076
 31
0.0
  0
LINE
  5
119E
330
2
100
AcDbEntity
  8
0
100
AcDbLine
 10
310.865630692763
 20
351.179023980907
 30
0.0
 11
312.4656306927624
 21
351.1790239809079
 31
0.0
  0
LINE
  5
119F
330
2
100
AcDbEntity
  8
0
100
AcDbLine
 10
309.1656306927632
 20
350.4790239809072
 30
0.0
 11
308.1656306927632
 21
351.0563742500967
 31
0.0
  0
LINE
  5
11A0
330
2
100
AcDbEntity
  8
0
100
AcDbLine
 10
316.1656306927586
 20
348.4790239809136
 30
0.0
 11
316.6656306927632
 21
347.9790239809081
 31
0.0
  0
LINE
  5
11A1
330
2
100
AcDbEntity
  8
0
100
AcDbLine
 10
312.865630692763
 20
350.4790239809076
 30
0.0
 11
316.1656306927632
 21
350.4790239809081
 31
0.0
  0
LINE
  5
11A2
330
2
100
AcDbEntity
  8
0
100
AcDbLine
 10
308.1656306927577
 20
402.9016737117173
 30
0.0
 11
308.1656306927577
 21
351.0563742500995
 31
0.0
  0
LINE
  5
11A3
330
2
100
AcDbEntity
  8
HIDS
  6
SEKKEI_H
100
AcDbLine
 10
319.5798442551329
 20
413.3932375432805
 30
0.0
 11
317.2514171303853
 21
411.0648104185357
 31
0.0
  0
LINE
  5
11A4
330
2
100
AcDbEntity
  8
0
100
AcDbLine
 10
320.1656306927604
 20
336.9790239809081
 30
0.0
 11
320.1656306927604
 21
416.9790239809081
 31
0.0
  0
LINE
  5
11A5
330
2
100
AcDbEntity
  8
0
100
AcDbLine
 10
327.6656306927586
 20
417.9790239809081
 30
0.0
 11
321.1656306927604
 21
417.9790239809081
 31
0.0
  0
LINE
  5
11A6
330
2
100
AcDbEntity
  8
0
100
AcDbLine
 10
327.6656306927577
 20
417.979023980909
 30
0.0
 11
327.6656306927577
 21
335.9790239809081
 31
0.0
  0
LINE
  5
11A7
330
2
100
AcDbEntity
  8
0
100
AcDbLine
 10
309.1656306927632
 20
403.479023980909
 30
0.0
 11
308.1656306927632
 21
402.901673711719
 31
0.0
  0
LINE
  5
11A8
330
2
100
AcDbEntity
  8
0
100
AcDbLine
 10
312.6656306927632
 20
403.2790239809083
 30
0.0
 11
312.6656306927632
 21
350.6790239809079
 31
0.0
  0
LINE
  5
11A9
330
2
100
AcDbEntity
  8
0
100
AcDbLine
 10
310.865630692763
 20
402.7790239809087
 30
0.0
 11
312.4656306927624
 21
402.7790239809083
 31
0.0
  0
LINE
  5
11AA
330
2
100
AcDbEntity
  8
0
100
AcDbLine
 10
310.6656306927632
 20
403.2790239809092
 30
0.0
 11
310.6656306928423
 21
350.6790239809079
 31
0.0
  0
LINE
  5
11AB
330
2
100
AcDbEntity
  8
0
100
AcDbLine
 10
312.6656306927632
 20
403.2790239809083
 30
0.0
 11
312.865630692763
 21
403.4790239809082
 31
0.0
  0
LINE
  5
11AC
330
2
100
AcDbEntity
  8
0
100
AcDbLine
 10
309.1656306927632
 20
403.479023980909
 30
0.0
 11
310.4656306927624
 21
403.4790239809086
 31
0.0
  0
LINE
  5
11AD
330
2
100
AcDbEntity
  8
0
100
AcDbLine
 10
316.1656306927586
 20
348.4790239809136
 30
0.0
 11
316.1656306927577
 21
405.4790239809027
 31
0.0
  0
LINE
  5
11AE
330
2
100
AcDbEntity
  8
0
100
AcDbLine
 10
316.1656306927632
 20
405.4790239809081
 30
0.0
 11
316.1656306927632
 21
403.4790239809082
 31
0.0
  0
LINE
  5
11AF
330
2
100
AcDbEntity
  8
0
100
AcDbLine
 10
316.1656306927632
 20
405.4790239809081
 30
0.0
 11
316.6656306927632
 21
405.9790239809081
 31
0.0
  0
LINE
  5
11B0
330
2
100
AcDbEntity
  8
0
100
AcDbLine
 10
312.865630692763
 20
403.4790239809082
 30
0.0
 11
316.1656306927632
 21
403.4790239809082
 31
0.0
  0
ARC
  5
11B1
330
2
100
AcDbEntity
  8
0
100
AcDbCircle
 10
321.1656306927604
 20
416.9790239809081
 30
0.0
 40
1.0
100
AcDbArc
 50
90.0
 51
179.9999999999869
  0
ARC
  5
11B2
330
2
100
AcDbEntity
  8
HIDS
  6
SEKKEI_H
100
AcDbCircle
 10
318.1656306927604
 20
414.8074511056544
 30
0.0
 40
2.0
100
AcDbArc
 50
314.9999999999444
 51
359.9999999999869
  0
ARC
  5
11B3
330
2
100
AcDbEntity
  8
HIDS
  6
SEKKEI_H
100
AcDbCircle
 10
318.6656306927577
 20
409.6505968561614
 30
0.0
 40
2.0
100
AcDbArc
 50
134.9999999999444
 51
180.0
  0
LINE
  5
11B4
330
2
100
AcDbEntity
  8
HIDS
  6
SEKKEI_H
100
AcDbLine
 10
319.5798442551329
 20
340.5648104185357
 30
0.0
 11
317.2514171303862
 21
342.8932375432805
 31
0.0
  0
LINE
  5
11B5
330
2
100
AcDbEntity
  8
0
100
AcDbLine
 10
327.6656306927577
 20
335.9790239809081
 30
0.0
 11
321.1656306927614
 21
335.9790239809081
 31
0.0
  0
ARC
  5
11B6
330
2
100
AcDbEntity
  8
0
100
AcDbCircle
 10
321.1656306927614
 20
336.9790239809081
 30
0.0
 40
1.0
100
AcDbArc
 50
180.0
 51
270.0
  0
ARC
  5
11B7
330
2
100
AcDbEntity
  8
HIDS
  6
SEKKEI_H
100
AcDbCircle
 10
318.1656306927604
 20
339.1505968561619
 30
0.0
 40
2.0
100
AcDbArc
 50
0.0
 51
45.00000000005555
  0
ARC
  5
11B8
330
2
100
AcDbEntity
  8
HIDS
  6
SEKKEI_H
100
AcDbCircle
 10
318.6656306927577
 20
344.3074511056548
 30
0.0
 40
2.0
100
AcDbArc
 50
180.0
 51
225.0000000000555
  0
ARC
  5
11B9
330
2
100
AcDbEntity
  8
0
100
AcDbCircle
 10
310.4656306927624
 20
403.2790239809083
 30
0.0
 40
0.2
100
AcDbArc
 50
0.0000000001302755
 51
90.0
  0
ARC
  5
11BA
330
2
100
AcDbEntity
  8
0
100
AcDbCircle
 10
310.865630692763
 20
402.9790239809091
 30
0.0
 40
0.2
100
AcDbArc
 50
180.0000000001302
 51
270.0
  0
ARC
  5
11BB
330
2
100
AcDbEntity
  8
0
100
AcDbCircle
 10
312.4656306927624
 20
402.9790239809081
 30
0.0
 40
0.2
100
AcDbArc
 50
270.0
 51
0.0
  0
ARC
  5
11BC
330
2
100
AcDbEntity
  8
0
100
AcDbCircle
 10
310.4656306927624
 20
350.679023980907
 30
0.0
 40
0.2
100
AcDbArc
 50
270.0
 51
0.0000000001042204
  0
ARC
  5
11BD
330
2
100
AcDbEntity
  8
0
100
AcDbCircle
 10
310.8656306927639
 20
350.9790239809072
 30
0.0
 40
0.2
100
AcDbArc
 50
90.0
 51
179.9999999998697
  0
ARC
  5
11BE
330
2
100
AcDbEntity
  8
0
100
AcDbCircle
 10
312.4656306927624
 20
350.9790239809072
 30
0.0
 40
0.2
100
AcDbArc
 50
0.0
 51
90.0
  0
LINE
  5
11BF
330
2
100
AcDbEntity
  8
0
100
AcDbLine
 10
309.1656306927632
 20
403.479023980909
 30
0.0
 11
309.1656306927632
 21
350.4790239809072
 31
0.0
  0
LINE
  5
11C0
330
2
100
AcDbEntity
  8
0
100
AcDbLine
 10
312.865630692763
 20
350.4790239809076
 30
0.0
 11
312.865630692763
 21
403.4790239809082
 31
0.0
  0
LINE
  5
11C1
330
2
100
AcDbEntity
  8
0
100
AcDbLine
 10
394.1656306927641
 20
412.9790239809281
 30
0.0
 11
327.6656306927577
 21
412.9790239809281
 31
0.0
  0
LINE
  5
11C2
330
2
100
AcDbEntity
  8
0
100
AcDbLine
 10
394.1656306927641
 20
409.9790239809281
 30
0.0
 11
327.6656306927577
 21
409.9790239809281
 31
0.0
  0
LINE
  5
11C3
330
2
100
AcDbEntity
  8
0
100
AcDbLine
 10
394.1656306927632
 20
395.2710591467921
 30
0.0
 11
327.6656306927577
 21
395.2710591467921
 31
0.0
  0
LINE
  5
11C4
330
2
100
AcDbEntity
  8
0
100
AcDbLine
 10
327.6656306927577
 20
412.9790239809281
 30
0.0
 11
320.1656306927604
 21
412.9790239809281
 31
0.0
  0
LINE
  5
11C5
330
2
100
AcDbEntity
  8
0
100
AcDbLine
 10
327.6656306927577
 20
409.9790239809281
 30
0.0
 11
320.1656306927604
 21
409.9790239809281
 31
0.0
  0
LINE
  5
11C6
330
2
100
AcDbEntity
  8
0
100
AcDbLine
 10
327.6656306927577
 20
395.2710591467921
 30
0.0
 11
320.1656306927604
 21
395.2710591467921
 31
0.0
  0
LINE
  5
11C7
330
2
100
AcDbEntity
  8
0
100
AcDbLine
 10
394.1656306927641
 20
340.9790239808881
 30
0.0
 11
327.6656306927577
 21
340.9790239808881
 31
0.0
  0
LINE
  5
11C8
330
2
100
AcDbEntity
  8
0
100
AcDbLine
 10
394.1656306927641
 20
343.9790239808881
 30
0.0
 11
327.6656306927577
 21
343.9790239808881
 31
0.0
  0
LINE
  5
11C9
330
2
100
AcDbEntity
  8
0
100
AcDbLine
 10
394.1656306927632
 20
358.686988815024
 30
0.0
 11
327.6656306927577
 21
358.686988815024
 31
0.0
  0
LINE
  5
11CA
330
2
100
AcDbEntity
  8
0
100
AcDbLine
 10
327.6656306927577
 20
340.9790239808881
 30
0.0
 11
320.1656306927604
 21
340.9790239808881
 31
0.0
  0
LINE
  5
11CB
330
2
100
AcDbEntity
  8
0
100
AcDbLine
 10
327.6656306927577
 20
343.9790239808881
 30
0.0
 11
320.1656306927604
 21
343.9790239808881
 31
0.0
  0
LINE
  5
11CC
330
2
100
AcDbEntity
  8
0
100
AcDbLine
 10
327.6656306927577
 20
358.686988815024
 30
0.0
 11
320.1656306927604
 21
358.686988815024
 31
0.0
  0
LINE
  5
11CD
330
2
100
AcDbEntity
  8
CENTER
  6
CENS
100
AcDbLine
 10
307.6656306927604
 20
411.4790239809267
 30
0.0
 11
332.7283774369068
 21
411.4790239809267
 31
0.0
  0
LINE
  5
11CE
330
2
100
AcDbEntity
  8
0
100
AcDbLine
 10
318.6656306927614
 20
406.4790239809267
 30
0.0
 11
313.065630692761
 21
406.4790239809267
 31
0.0
  0
LINE
  5
11CF
330
2
100
AcDbEntity
  8
0
100
AcDbLine
 10
318.6656306927614
 20
416.4790239809268
 30
0.0
 11
313.065630692761
 21
416.4790239809268
 31
0.0
  0
LINE
  5
11D0
330
2
100
AcDbEntity
  8
0
100
AcDbLine
 10
318.6656306927614
 20
416.4790239809268
 30
0.0
 11
318.6656306927614
 21
406.4790239809272
 31
0.0
  0
LINE
  5
11D1
330
2
100
AcDbEntity
  8
0
100
AcDbLine
 10
312.6656306927614
 20
415.7862036578991
 30
0.0
 11
312.6656306927604
 21
407.1718443039545
 31
0.0
  0
LINE
  5
11D2
330
2
100
AcDbEntity
  8
0
100
AcDbLine
 10
313.065630692761
 20
416.4790239809268
 30
0.0
 11
313.065630692761
 21
406.4790239809267
 31
0.0
  0
LINE
  5
11D3
330
2
100
AcDbEntity
  8
0
100
AcDbLine
 10
313.065630692761
 20
416.4790239809268
 30
0.0
 11
312.6656306927614
 21
415.7862036578991
 31
0.0
  0
LINE
  5
11D4
330
2
100
AcDbEntity
  8
0
100
AcDbLine
 10
313.065630692761
 20
406.4790239809267
 30
0.0
 11
312.6656306927614
 21
407.1718443039545
 31
0.0
  0
LINE
  5
11D5
330
2
100
AcDbEntity
  8
0
100
AcDbLine
 10
318.6656306927604
 20
416.4790239809268
 30
0.0
 11
320.1656306927604
 21
416.4790239809268
 31
0.0
  0
LINE
  5
11D6
330
2
100
AcDbEntity
  8
0
100
AcDbLine
 10
318.6656306927604
 20
406.4790239809267
 30
0.0
 11
320.1656306927604
 21
406.4790239809267
 31
0.0
  0
LINE
  5
11D7
330
2
100
AcDbEntity
  8
HIDS
  6
SEKKEI_H
100
AcDbLine
 10
316.6656306927577
 20
406.4790239809267
 30
0.0
 11
316.6656306927577
 21
409.6505968561614
 31
0.0
  0
LINE
  5
11D8
330
2
100
AcDbEntity
  8
CENTER
  6
CENS
100
AcDbLine
 10
307.6656306927604
 20
342.4790239808895
 30
0.0
 11
332.7283774369068
 21
342.4790239808895
 31
0.0
  0
LINE
  5
11D9
330
2
100
AcDbEntity
  8
0
100
AcDbLine
 10
318.6656306927614
 20
347.4790239808895
 30
0.0
 11
313.065630692761
 21
347.4790239808895
 31
0.0
  0
LINE
  5
11DA
330
2
100
AcDbEntity
  8
0
100
AcDbLine
 10
318.6656306927614
 20
337.4790239808895
 30
0.0
 11
313.065630692761
 21
337.4790239808895
 31
0.0
  0
LINE
  5
11DB
330
2
100
AcDbEntity
  8
0
100
AcDbLine
 10
318.6656306927614
 20
337.4790239808895
 30
0.0
 11
318.6656306927614
 21
347.479023980889
 31
0.0
  0
LINE
  5
11DC
330
2
100
AcDbEntity
  8
0
100
AcDbLine
 10
312.6656306927614
 20
338.1718443039172
 30
0.0
 11
312.6656306927604
 21
346.7862036578618
 31
0.0
  0
LINE
  5
11DD
330
2
100
AcDbEntity
  8
0
100
AcDbLine
 10
313.065630692761
 20
337.4790239808895
 30
0.0
 11
313.065630692761
 21
347.4790239808895
 31
0.0
  0
LINE
  5
11DE
330
2
100
AcDbEntity
  8
0
100
AcDbLine
 10
313.065630692761
 20
337.4790239808895
 30
0.0
 11
312.6656306927614
 21
338.1718443039172
 31
0.0
  0
LINE
  5
11DF
330
2
100
AcDbEntity
  8
0
100
AcDbLine
 10
313.065630692761
 20
347.4790239808895
 30
0.0
 11
312.6656306927614
 21
346.7862036578618
 31
0.0
  0
LINE
  5
11E0
330
2
100
AcDbEntity
  8
0
100
AcDbLine
 10
318.6656306927604
 20
337.4790239808895
 30
0.0
 11
320.1656306927604
 21
337.4790239808895
 31
0.0
  0
LINE
  5
11E1
330
2
100
AcDbEntity
  8
0
100
AcDbLine
 10
318.6656306927604
 20
347.4790239808895
 30
0.0
 11
320.1656306927604
 21
347.4790239808895
 31
0.0
  0
LINE
  5
11E2
330
2
100
AcDbEntity
  8
HIDS
  6
SEKKEI_H
100
AcDbLine
 10
316.6656306927577
 20
347.4790239808895
 30
0.0
 11
316.6656306927577
 21
344.3074511056548
 31
0.0
  0
LINE
  5
11E3
330
2
100
AcDbEntity
  8
0
100
AcDbLine
 10
602.6387035544683
 20
686.3762915043907
 30
0.0
 11
543.6387035544319
 21
686.3762915043907
 31
0.0
  0
LINE
  5
11E4
330
2
100
AcDbEntity
  8
0
100
AcDbLine
 10
546.6387035544491
 20
693.8762915043862
 30
0.0
 11
546.63870355445
 21
692.576291504386
 31
0.0
  0
LINE
  5
11E5
330
2
100
AcDbEntity
  8
0
100
AcDbLine
 10
546.8387035544489
 20
690.3762915043862
 30
0.0
 11
546.63870355445
 21
690.1762915043855
 31
0.0
  0
LINE
  5
11E6
330
2
100
AcDbEntity
  8
0
100
AcDbLine
 10
547.3387035544489
 20
692.1762915043855
 30
0.0
 11
547.3387035544489
 21
690.576291504386
 31
0.0
  0
LINE
  5
11E7
330
2
100
AcDbEntity
  8
0
100
AcDbLine
 10
546.6387035544491
 20
693.8762915043853
 30
0.0
 11
547.2160538236383
 21
694.8762915043862
 31
0.0
  0
LINE
  5
11E8
330
2
100
AcDbEntity
  8
0
100
AcDbLine
 10
544.6387035544555
 20
686.8762915043898
 30
0.0
 11
544.1387035544501
 21
686.3762915043853
 31
0.0
  0
LINE
  5
11E9
330
2
100
AcDbEntity
  8
0
100
AcDbLine
 10
546.63870355445
 20
690.1762915043855
 30
0.0
 11
546.63870355445
 21
686.8762915043853
 31
0.0
  0
LINE
  5
11EA
330
2
100
AcDbEntity
  8
0
100
AcDbLine
 10
599.0613532852583
 20
694.8762915043907
 30
0.0
 11
547.2160538236419
 21
694.8762915043907
 31
0.0
  0
LINE
  5
11EB
330
2
100
AcDbEntity
  8
HIDS
  6
SEKKEI_H
100
AcDbLine
 10
609.5529171168225
 20
683.4620779420156
 30
0.0
 11
607.2244899920767
 21
685.7905050667632
 31
0.0
  0
LINE
  5
11EC
330
2
100
AcDbEntity
  8
0
100
AcDbLine
 10
533.1954662734768
 20
682.876291504388
 30
0.0
 11
612.6719408354253
 21
682.8762915043885
 31
0.0
  0
ARC
  5
11ED
330
2
100
AcDbEntity
  8
0
100
AcDbCircle
 10
533.1954662734768
 20
681.8762915043881
 30
0.0
 40
1.0
100
AcDbArc
 50
90.0
 51
179.4999999999954
  0
LINE
  5
11EE
330
2
100
AcDbEntity
  8
0
100
AcDbLine
 10
599.6387035544501
 20
693.8762915043853
 30
0.0
 11
599.0613532852619
 21
694.8762915043862
 31
0.0
  0
LINE
  5
11EF
330
2
100
AcDbEntity
  8
0
100
AcDbLine
 10
599.4387035544511
 20
690.3762915043862
 30
0.0
 11
546.8387035544489
 21
690.3762915043862
 31
0.0
  0
LINE
  5
11F0
330
2
100
AcDbEntity
  8
0
100
AcDbLine
 10
598.9387035544512
 20
692.1762915043855
 30
0.0
 11
598.9387035544512
 21
690.576291504386
 31
0.0
  0
LINE
  5
11F1
330
2
100
AcDbEntity
  8
0
100
AcDbLine
 10
599.4387035544511
 20
692.3762915043862
 30
0.0
 11
546.8387035544489
 21
692.3762915043062
 31
0.0
  0
LINE
  5
11F2
330
2
100
AcDbEntity
  8
0
100
AcDbLine
 10
599.4387035544511
 20
690.3762915043862
 30
0.0
 11
599.6387035544501
 21
690.1762915043855
 31
0.0
  0
LINE
  5
11F3
330
2
100
AcDbEntity
  8
0
100
AcDbLine
 10
599.6387035544501
 20
693.8762915043862
 30
0.0
 11
599.6387035544501
 21
692.576291504386
 31
0.0
  0
LINE
  5
11F4
330
2
100
AcDbEntity
  8
0
100
AcDbLine
 10
544.6387035544555
 20
686.8762915043898
 30
0.0
 11
601.6387035544446
 21
686.8762915043908
 31
0.0
  0
LINE
  5
11F5
330
2
100
AcDbEntity
  8
0
100
AcDbLine
 10
601.6387035544501
 20
686.8762915043853
 30
0.0
 11
599.6387035544501
 21
686.8762915043853
 31
0.0
  0
LINE
  5
11F6
330
2
100
AcDbEntity
  8
0
100
AcDbLine
 10
601.6387035544501
 20
686.8762915043853
 30
0.0
 11
602.1387035544501
 21
686.3762915043853
 31
0.0
  0
LINE
  5
11F7
330
2
100
AcDbEntity
  8
0
100
AcDbLine
 10
599.6387035544501
 20
690.1762915043855
 30
0.0
 11
599.6387035544501
 21
686.8762915043853
 31
0.0
  0
ARC
  5
11F8
330
2
100
AcDbEntity
  8
HIDS
  6
SEKKEI_H
100
AcDbCircle
 10
610.9671306791967
 20
684.876291504388
 30
0.0
 40
2.0
100
AcDbArc
 50
224.9999999999911
 51
270.0
  0
ARC
  5
11F9
330
2
100
AcDbEntity
  8
HIDS
  6
SEKKEI_H
100
AcDbCircle
 10
605.8102764297034
 20
684.3762915043908
 30
0.0
 40
2.0
100
AcDbArc
 50
44.99999999999107
 51
90.0
  0
LINE
  5
11FA
330
2
100
AcDbEntity
  8
HIDS
  6
SEKKEI_H
100
AcDbLine
 10
536.7244899920767
 20
683.4620779420156
 30
0.0
 11
539.0529171168234
 21
685.7905050667632
 31
0.0
  0
LINE
  5
11FB
330
2
100
AcDbEntity
  8
0
100
AcDbLine
 10
532.1387035544501
 20
675.3762915043908
 30
0.0
 11
532.1955043504119
 21
681.8850180398867
 31
0.0
  0
ARC
  5
11FC
330
2
100
AcDbEntity
  8
HIDS
  6
SEKKEI_H
100
AcDbCircle
 10
535.3102764297034
 20
684.876291504388
 30
0.0
 40
2.0
100
AcDbArc
 50
270.0
 51
315.0000000000089
  0
ARC
  5
11FD
330
2
100
AcDbEntity
  8
HIDS
  6
SEKKEI_H
100
AcDbCircle
 10
540.4671306791967
 20
684.3762915043908
 30
0.0
 40
2.0
100
AcDbArc
 50
90.0
 51
135.0000000000089
  0
ARC
  5
11FE
330
2
100
AcDbEntity
  8
0
100
AcDbCircle
 10
599.4387035544511
 20
692.576291504386
 30
0.0
 40
0.2
100
AcDbArc
 50
270.0000000001042
 51
359.9999999999739
  0
ARC
  5
11FF
330
2
100
AcDbEntity
  8
0
100
AcDbCircle
 10
599.1387035544501
 20
692.1762915043855
 30
0.0
 40
0.2
100
AcDbArc
 50
90.00000000010421
 51
179.9999999999739
  0
ARC
  5
1200
330
2
100
AcDbEntity
  8
0
100
AcDbCircle
 10
599.1387035544501
 20
690.576291504386
 30
0.0
 40
0.2
100
AcDbArc
 50
179.9999999999739
 51
270.0
  0
ARC
  5
1201
330
2
100
AcDbEntity
  8
0
100
AcDbCircle
 10
546.8387035544489
 20
692.576291504386
 30
0.0
 40
0.2
100
AcDbArc
 50
180.0
 51
270.0000000001042
  0
ARC
  5
1202
330
2
100
AcDbEntity
  8
0
100
AcDbCircle
 10
547.1387035544501
 20
692.1762915043855
 30
0.0
 40
0.2
100
AcDbArc
 50
0.0
 51
89.99999999984366
  0
ARC
  5
1203
330
2
100
AcDbEntity
  8
0
100
AcDbCircle
 10
547.1387035544501
 20
690.576291504386
 30
0.0
 40
0.2
100
AcDbArc
 50
270.0
 51
0.0
  0
LINE
  5
1204
330
2
100
AcDbEntity
  8
0
100
AcDbLine
 10
599.6387035544501
 20
693.8762915043862
 30
0.0
 11
546.6387035544491
 21
693.8762915043853
 31
0.0
  0
LINE
  5
1205
330
2
100
AcDbEntity
  8
0
100
AcDbLine
 10
546.63870355445
 20
690.1762915043855
 30
0.0
 11
599.6387035544501
 21
690.1762915043855
 31
0.0
  0
LINE
  5
1206
330
2
100
AcDbEntity
  8
0
100
AcDbLine
 10
609.1387035544701
 20
675.3762915043908
 30
0.0
 11
609.1387035544701
 21
682.876291504388
 31
0.0
  0
LINE
  5
1207
330
2
100
AcDbEntity
  8
0
100
AcDbLine
 10
606.1387035544701
 20
675.3762915043908
 30
0.0
 11
606.1387035544701
 21
682.876291504388
 31
0.0
  0
LINE
  5
1208
330
2
100
AcDbEntity
  8
0
100
AcDbLine
 10
591.430738720335
 20
675.3762915043908
 30
0.0
 11
591.430738720335
 21
682.876291504388
 31
0.0
  0
LINE
  5
1209
330
2
100
AcDbEntity
  8
0
100
AcDbLine
 10
537.1387035544301
 20
675.3762915043908
 30
0.0
 11
537.1387035544301
 21
682.876291504388
 31
0.0
  0
LINE
  5
120A
330
2
100
AcDbEntity
  8
0
100
AcDbLine
 10
540.1387035544301
 20
675.3762915043908
 30
0.0
 11
540.1387035544301
 21
682.876291504388
 31
0.0
  0
LINE
  5
120B
330
2
100
AcDbEntity
  8
0
100
AcDbLine
 10
554.8466683885651
 20
675.3762915043908
 30
0.0
 11
554.8466683885651
 21
682.876291504388
 31
0.0
  0
LINE
  5
120C
330
2
100
AcDbEntity
  8
CENTER
  6
CENS
100
AcDbLine
 10
607.6387035544683
 20
695.376291504388
 30
0.0
 11
607.6387035544683
 21
670.3135447602416
 31
0.0
  0
LINE
  5
120D
330
2
100
AcDbEntity
  8
0
100
AcDbLine
 10
602.6387035544683
 20
684.376291504388
 30
0.0
 11
602.6387035544683
 21
689.9762915043875
 31
0.0
  0
LINE
  5
120E
330
2
100
AcDbEntity
  8
0
100
AcDbLine
 10
612.6387035544683
 20
684.376291504388
 30
0.0
 11
612.6387035544683
 21
689.9762915043875
 31
0.0
  0
LINE
  5
120F
330
2
100
AcDbEntity
  8
0
100
AcDbLine
 10
612.6387035544683
 20
684.376291504388
 30
0.0
 11
602.6387035544683
 21
684.376291504388
 31
0.0
  0
LINE
  5
1210
330
2
100
AcDbEntity
  8
0
100
AcDbLine
 10
611.945883231441
 20
690.3762915043881
 30
0.0
 11
603.3315238774965
 21
690.3762915043881
 31
0.0
  0
LINE
  5
1211
330
2
100
AcDbEntity
  8
0
100
AcDbLine
 10
612.6387035544683
 20
689.9762915043884
 30
0.0
 11
602.6387035544683
 21
689.9762915043875
 31
0.0
  0
LINE
  5
1212
330
2
100
AcDbEntity
  8
0
100
AcDbLine
 10
612.6387035544683
 20
689.9762915043875
 30
0.0
 11
611.945883231441
 21
690.3762915043881
 31
0.0
  0
LINE
  5
1213
330
2
100
AcDbEntity
  8
0
100
AcDbLine
 10
602.6387035544683
 20
689.9762915043875
 30
0.0
 11
603.3315238774965
 21
690.3762915043881
 31
0.0
  0
LINE
  5
1214
330
2
100
AcDbEntity
  8
0
100
AcDbLine
 10
612.6387035544683
 20
684.376291504388
 30
0.0
 11
612.6387035544683
 21
682.876291504388
 31
0.0
  0
LINE
  5
1215
330
2
100
AcDbEntity
  8
0
100
AcDbLine
 10
602.6387035544683
 20
684.376291504388
 30
0.0
 11
602.6387035544683
 21
682.876291504388
 31
0.0
  0
LINE
  5
1216
330
2
100
AcDbEntity
  8
HIDS
  6
SEKKEI_H
100
AcDbLine
 10
602.6387035544683
 20
686.3762915043907
 30
0.0
 11
605.8102764297034
 21
686.3762915043907
 31
0.0
  0
LINE
  5
1217
330
2
100
AcDbEntity
  8
CENTER
  6
CENS
100
AcDbLine
 10
538.6387035544319
 20
695.376291504388
 30
0.0
 11
538.6387035544319
 21
670.3135447602416
 31
0.0
  0
LINE
  5
1218
330
2
100
AcDbEntity
  8
0
100
AcDbLine
 10
543.6387035544319
 20
684.376291504388
 30
0.0
 11
543.6387035544319
 21
689.9762915043875
 31
0.0
  0
LINE
  5
1219
330
2
100
AcDbEntity
  8
0
100
AcDbLine
 10
533.6387035544318
 20
684.376291504388
 30
0.0
 11
533.6387035544318
 21
689.9762915043875
 31
0.0
  0
LINE
  5
121A
330
2
100
AcDbEntity
  8
0
100
AcDbLine
 10
533.6387035544318
 20
684.376291504388
 30
0.0
 11
543.6387035544319
 21
684.376291504388
 31
0.0
  0
LINE
  5
121B
330
2
100
AcDbEntity
  8
0
100
AcDbLine
 10
534.3315238774591
 20
690.3762915043881
 30
0.0
 11
542.9458832314037
 21
690.3762915043881
 31
0.0
  0
LINE
  5
121C
330
2
100
AcDbEntity
  8
0
100
AcDbLine
 10
533.6387035544318
 20
689.9762915043884
 30
0.0
 11
543.6387035544319
 21
689.9762915043875
 31
0.0
  0
LINE
  5
121D
330
2
100
AcDbEntity
  8
0
100
AcDbLine
 10
533.6387035544318
 20
689.9762915043875
 30
0.0
 11
534.3315238774591
 21
690.3762915043881
 31
0.0
  0
LINE
  5
121E
330
2
100
AcDbEntity
  8
0
100
AcDbLine
 10
543.6387035544319
 20
689.9762915043875
 30
0.0
 11
542.9458832314037
 21
690.3762915043881
 31
0.0
  0
LINE
  5
121F
330
2
100
AcDbEntity
  8
0
100
AcDbLine
 10
533.6387035544318
 20
684.376291504388
 30
0.0
 11
533.6387035544318
 21
682.876291504388
 31
0.0
  0
LINE
  5
1220
330
2
100
AcDbEntity
  8
0
100
AcDbLine
 10
543.6387035544319
 20
684.376291504388
 30
0.0
 11
543.6387035544319
 21
682.876291504388
 31
0.0
  0
LINE
  5
1221
330
2
100
AcDbEntity
  8
HIDS
  6
SEKKEI_H
100
AcDbLine
 10
543.6387035544319
 20
686.3762915043907
 30
0.0
 11
540.4671306791967
 21
686.3762915043907
 31
0.0
  0
LINE
  5
1222
330
2
100
AcDbEntity
  8
0
100
AcDbLine
 10
613.6719027584892
 20
681.8850180398867
 30
0.0
 11
613.7287035544503
 21
675.3762915043917
 31
0.0
  0
ARC
  5
1223
330
2
100
AcDbEntity
  8
0
100
AcDbCircle
 10
612.6719408354253
 20
681.8762915043885
 30
0.0
 40
1.0
100
AcDbArc
 50
0.4999999999915503
 51
90.0
  0
LINE
  5
1224
330
2
100
AcDbEntity
  8
0
100
AcDbLine
 10
439.2509356860362
 20
106.513433958793
 30
0.0
 11
439.2509356860362
 21
133.1550656575123
 31
0.0
  0
LINE
  5
1225
330
2
100
AcDbEntity
  8
0
100
AcDbLine
 10
439.2509356860379
 20
160.7024019761407
 30
0.0
 11
439.2509356860379
 21
187.3440336748572
 31
0.0
  0
LINE
  5
1226
330
2
100
AcDbEntity
  8
0
100
AcDbLine
 10
444.2509356860361
 20
111.9287338168315
 30
0.0
 11
444.2509356860361
 21
134.0040331046848
 31
0.0
  0
LINE
  5
1227
330
2
100
AcDbEntity
  8
0
100
AcDbLine
 10
444.2509356860361
 20
159.8534345289682
 30
0.0
 11
444.2509356860361
 21
181.9287338168315
 31
0.0
  0
LINE
  5
1228
330
2
100
AcDbEntity
  8
0
100
AcDbLine
 10
446.181136692631
 20
118.5421679178635
 30
0.0
 11
455.3207346794395
 21
118.8613297124075
 31
0.0
  0
ARC
  5
1229
330
2
100
AcDbEntity
  8
0
100
AcDbCircle
 10
446.2509356860362
 20
116.5433862638256
 30
0.0
 40
2.0
100
AcDbArc
 50
92.00000000000365
 51
180.0
  0
LINE
  5
122A
330
2
100
AcDbEntity
  8
0
100
AcDbLine
 10
457.2509356860344
 20
120.8601113664463
 30
0.0
 11
457.2509356860344
 21
132.4286878168264
 31
0.0
  0
LINE
  5
122B
330
2
100
AcDbEntity
  8
0
100
AcDbLine
 10
457.2509356860361
 20
161.4286878168268
 30
0.0
 11
457.2509356860361
 21
172.9973562672167
 31
0.0
  0
ARC
  5
122C
330
2
100
AcDbEntity
  8
0
100
AcDbCircle
 10
455.2509356860362
 20
120.8601113664463
 30
0.0
 40
2.0
100
AcDbArc
 50
272.0000000000036
 51
0.0
  0
ARC
  5
122D
330
2
100
AcDbEntity
  8
0
100
AcDbCircle
 10
455.2509356860362
 20
172.9973562672167
 30
0.0
 40
2.0
100
AcDbArc
 50
0.0
 51
87.99999999999636
  0
LINE
  5
122E
330
2
100
AcDbEntity
  8
0
100
AcDbLine
 10
446.181136692631
 20
175.3152997158004
 30
0.0
 11
455.3207346794413
 21
174.9961379212555
 31
0.0
  0
ARC
  5
122F
330
2
100
AcDbEntity
  8
0
100
AcDbCircle
 10
446.2509356860362
 20
177.3140813698392
 30
0.0
 40
2.0
100
AcDbArc
 50
180.0
 51
267.9999999999963
  0
LINE
  5
1230
330
2
100
AcDbEntity
  8
0
100
AcDbLine
 10
372.7509356860325
 20
187.9243703828852
 30
0.0
 11
439.2509356860379
 21
187.3440336748572
 31
0.0
  0
LINE
  5
1231
330
2
100
AcDbEntity
  8
0
100
AcDbLine
 10
372.7509356860325
 20
105.93309725071
 30
0.0
 11
439.2509356860362
 21
106.513433958793
 31
0.0
  0
LINE
  5
1232
330
2
100
AcDbEntity
  8
0
100
AcDbLine
 10
372.7509356860325
 20
105.93309725071
 30
0.0
 11
372.7509356860325
 21
133.8055777727987
 31
0.0
  0
LINE
  5
1233
330
2
100
AcDbEntity
  8
0
100
AcDbLine
 10
372.7509356860325
 20
161.4257802458337
 30
0.0
 11
372.7509356860325
 21
187.9243703828852
 31
0.0
  0
LINE
  5
1234
330
2
100
AcDbEntity
  8
0
100
AcDbLine
 10
439.2509356860362
 20
111.9287338168315
 30
0.0
 11
444.2509356860361
 21
111.9287338168315
 31
0.0
  0
LINE
  5
1235
330
2
100
AcDbEntity
  8
0
100
AcDbLine
 10
439.2509356860362
 20
181.9287338168315
 30
0.0
 11
444.2509356860361
 21
181.9287338168315
 31
0.0
  0
LINE
  5
1236
330
2
100
AcDbEntity
  8
CENTER
100
AcDbLine
 10
396.2509356860289
 20
197.7192889898229
 30
0.0
 11
396.2509356860289
 21
96.13817864379194
 31
0.0
  0
LINE
  5
1237
330
2
100
AcDbEntity
  8
CENTER
100
AcDbLine
 10
341.250944140075
 20
146.9287338168265
 30
0.0
 11
480.2509356860343
 21
146.9287338168265
 31
0.0
  0
LINE
  5
1238
330
2
100
AcDbEntity
  8
0
100
AcDbLine
 10
362.2509356860325
 20
123.5465704638878
 30
0.0
 11
362.8995996394994
 21
123.5295846004779
 31
0.0
  0
LINE
  5
1239
330
2
100
AcDbEntity
  8
0
100
AcDbLine
 10
361.7509356860325
 20
176.4287338168451
 30
0.0
 11
361.7509356860325
 21
171.225887428262
 31
0.0
  0
LINE
  5
123A
330
2
100
AcDbEntity
  8
0
100
AcDbLine
 10
361.7509356860325
 20
122.6315802053909
 30
0.0
 11
361.7509356860325
 21
117.4287338168078
 31
0.0
  0
LINE
  5
123B
330
2
100
AcDbEntity
  8
0
100
AcDbLine
 10
354.2509356860325
 20
123.9287338168265
 30
0.0
 11
353.2509356860325
 21
123.3513835476374
 31
0.0
  0
LINE
  5
123C
330
2
100
AcDbEntity
  8
0
100
AcDbLine
 10
354.250935686038
 20
120.4287338168256
 30
0.0
 11
355.5509356860373
 21
120.4287338168256
 31
0.0
  0
LINE
  5
123D
330
2
100
AcDbEntity
  8
0
100
AcDbLine
 10
357.750935686038
 20
120.6287338168263
 30
0.0
 11
357.9509356860369
 21
120.428733816826
 31
0.0
  0
LINE
  5
123E
330
2
100
AcDbEntity
  8
0
100
AcDbLine
 10
355.9509356860369
 20
121.1287338168254
 30
0.0
 11
357.5509356860373
 21
121.1287338168263
 31
0.0
  0
LINE
  5
123F
330
2
100
AcDbEntity
  8
0
100
AcDbLine
 10
354.250935686038
 20
120.4287338168256
 30
0.0
 11
353.250935686038
 21
121.0060840860151
 31
0.0
  0
LINE
  5
1240
330
2
100
AcDbEntity
  8
0
100
AcDbLine
 10
361.2509356860325
 20
118.4287338168319
 30
0.0
 11
361.750935686038
 21
117.9287338168265
 31
0.0
  0
LINE
  5
1241
330
2
100
AcDbEntity
  8
0
100
AcDbLine
 10
357.9509356860369
 20
120.428733816826
 30
0.0
 11
361.250935686038
 21
120.4287338168265
 31
0.0
  0
LINE
  5
1242
330
2
100
AcDbEntity
  8
0
100
AcDbLine
 10
354.2509356860325
 20
123.9287338168265
 30
0.0
 11
362.2509356860325
 21
123.9287338168265
 31
0.0
  0
LINE
  5
1243
330
2
100
AcDbEntity
  8
0
100
AcDbLine
 10
353.2509356860325
 20
172.8513835476356
 30
0.0
 11
353.2509356860325
 21
161.4257802458337
 31
0.0
  0
LINE
  5
1244
330
2
100
AcDbEntity
  8
0
100
AcDbLine
 10
353.2509356860325
 20
132.4257802458337
 30
0.0
 11
353.2509356860325
 21
121.0060840860178
 31
0.0
  0
LINE
  5
1245
330
2
100
AcDbEntity
  8
0
100
AcDbLine
 10
354.2509356860325
 20
123.9287338168265
 30
0.0
 11
354.2509356860325
 21
132.4257802458337
 31
0.0
  0
LINE
  5
1246
330
2
100
AcDbEntity
  8
0
100
AcDbLine
 10
354.2509356860325
 20
161.4257802458337
 30
0.0
 11
354.2509356860325
 21
169.9287338168256
 31
0.0
  0
LINE
  5
1247
330
2
100
AcDbEntity
  8
0
100
AcDbLine
 10
362.2509356860325
 20
161.4257802458337
 30
0.0
 11
362.2509356860325
 21
170.3108971697652
 31
0.0
  0
LINE
  5
1248
330
2
100
AcDbEntity
  8
HIDS
  6
SEKKEI_H
100
AcDbLine
 10
364.6651492484077
 20
183.3429473791989
 30
0.0
 11
362.3367221236592
 21
181.0145202544541
 31
0.0
  0
LINE
  5
1249
330
2
100
AcDbEntity
  8
0
100
AcDbLine
 10
365.2509356860343
 20
106.9287338168265
 30
0.0
 11
365.2509356860343
 21
132.2557384486422
 31
0.0
  0
LINE
  5
124A
330
2
100
AcDbEntity
  8
0
100
AcDbLine
 10
365.2509356860343
 20
161.6017291850117
 30
0.0
 11
365.2509356860343
 21
186.9287338168265
 31
0.0
  0
LINE
  5
124B
330
2
100
AcDbEntity
  8
0
100
AcDbLine
 10
372.7509356860325
 20
187.9287338168265
 30
0.0
 11
366.2509356860343
 21
187.9287338168265
 31
0.0
  0
LINE
  5
124C
330
2
100
AcDbEntity
  8
0
100
AcDbLine
 10
372.7509356860325
 20
187.9287338168274
 30
0.0
 11
372.7509356860325
 21
160.0518898608548
 31
0.0
  0
LINE
  5
124D
330
2
100
AcDbEntity
  8
0
100
AcDbLine
 10
372.7509356860325
 20
132.4257802458337
 30
0.0
 11
372.7509356860325
 21
105.9287338168265
 31
0.0
  0
LINE
  5
124E
330
2
100
AcDbEntity
  8
0
100
AcDbLine
 10
354.250935686038
 20
173.4287338168274
 30
0.0
 11
353.250935686038
 21
172.8513835476374
 31
0.0
  0
LINE
  5
124F
330
2
100
AcDbEntity
  8
0
100
AcDbLine
 10
357.750935686038
 20
173.2287338168267
 30
0.0
 11
357.750935686038
 21
171.256092072746
 31
0.0
  0
LINE
  5
1250
330
2
100
AcDbEntity
  8
0
100
AcDbLine
 10
357.750935686038
 20
122.6013755609069
 30
0.0
 11
357.750935686038
 21
120.6287338168263
 31
0.0
  0
LINE
  5
1251
330
2
100
AcDbEntity
  8
0
100
AcDbLine
 10
355.9509356860369
 20
172.7287338168271
 30
0.0
 11
357.5509356860373
 21
172.7287338168267
 31
0.0
  0
LINE
  5
1252
330
2
100
AcDbEntity
  8
0
100
AcDbLine
 10
355.750935686038
 20
173.2287338168276
 30
0.0
 11
355.7509356860398
 21
171.3592436929575
 31
0.0
  0
LINE
  5
1253
330
2
100
AcDbEntity
  8
0
100
AcDbLine
 10
355.7509356861144
 20
122.4982239407086
 30
0.0
 11
355.7509356861162
 21
120.6287338168263
 31
0.0
  0
LINE
  5
1254
330
2
100
AcDbEntity
  8
0
100
AcDbLine
 10
354.2509356860325
 20
169.9287338168265
 30
0.0
 11
353.2509356860325
 21
170.5060840860156
 31
0.0
  0
LINE
  5
1255
330
2
100
AcDbEntity
  8
0
100
AcDbLine
 10
354.2509356860325
 20
169.9287338168256
 30
0.0
 11
362.2509356860325
 21
169.9287338168265
 31
0.0
  0
LINE
  5
1256
330
2
100
AcDbEntity
  8
0
100
AcDbLine
 10
357.750935686038
 20
173.2287338168267
 30
0.0
 11
357.9509356860369
 21
173.4287338168265
 31
0.0
  0
LINE
  5
1257
330
2
100
AcDbEntity
  8
0
100
AcDbLine
 10
354.250935686038
 20
173.4287338168274
 30
0.0
 11
355.5509356860373
 21
173.4287338168269
 31
0.0
  0
LINE
  5
1258
330
2
100
AcDbEntity
  8
0
100
AcDbLine
 10
361.2509356860325
 20
118.4287338168319
 30
0.0
 11
361.2509356860325
 21
122.5149288245757
 31
0.0
  0
LINE
  5
1259
330
2
100
AcDbEntity
  8
0
100
AcDbLine
 10
361.2509356860325
 20
171.3425388090773
 30
0.0
 11
361.2509356860325
 21
175.428733816821
 31
0.0
  0
LINE
  5
125A
330
2
100
AcDbEntity
  8
0
100
AcDbLine
 10
361.250935686038
 20
175.4287338168265
 30
0.0
 11
361.250935686038
 21
173.4287338168265
 31
0.0
  0
LINE
  5
125B
330
2
100
AcDbEntity
  8
0
100
AcDbLine
 10
361.250935686038
 20
175.4287338168265
 30
0.0
 11
361.750935686038
 21
175.9287338168265
 31
0.0
  0
LINE
  5
125C
330
2
100
AcDbEntity
  8
0
100
AcDbLine
 10
357.9509356860369
 20
173.4287338168265
 30
0.0
 11
361.250935686038
 21
173.4287338168265
 31
0.0
  0
ARC
  5
125D
330
2
100
AcDbEntity
  8
0
100
AcDbCircle
 10
366.2509356860343
 20
186.9287338168265
 30
0.0
 40
1.0
100
AcDbArc
 50
90.0
 51
179.9999999999869
  0
LINE
  5
125E
330
2
100
AcDbEntity
  8
0
100
AcDbLine
 10
362.2509356860325
 20
170.3108971697652
 30
0.0
 11
362.8995996394994
 21
170.3278830331751
 31
0.0
  0
ARC
  5
125F
330
2
100
AcDbEntity
  8
HIDS
  6
SEKKEI_H
100
AcDbCircle
 10
363.2509356860343
 20
184.7571609415727
 30
0.0
 40
2.0
100
AcDbArc
 50
314.9999999999444
 51
359.9999999999869
  0
ARC
  5
1260
330
2
100
AcDbEntity
  8
HIDS
  6
SEKKEI_H
100
AcDbCircle
 10
363.7509356860325
 20
179.6003066920798
 30
0.0
 40
2.0
100
AcDbArc
 50
134.9999999999444
 51
180.0
  0
LINE
  5
1261
330
2
100
AcDbEntity
  8
HIDS
  6
SEKKEI_H
100
AcDbLine
 10
364.6651492484077
 20
110.5145202544541
 30
0.0
 11
362.336722123661
 21
112.8429473791989
 31
0.0
  0
LINE
  5
1262
330
2
100
AcDbEntity
  8
0
100
AcDbLine
 10
372.7509356860325
 20
105.9287338168265
 30
0.0
 11
366.2509356860362
 21
105.9287338168265
 31
0.0
  0
ARC
  5
1263
330
2
100
AcDbEntity
  8
0
100
AcDbCircle
 10
366.2509356860362
 20
106.9287338168265
 30
0.0
 40
1.0
100
AcDbArc
 50
180.0
 51
270.0
  0
ARC
  5
1264
330
2
100
AcDbEntity
  8
HIDS
  6
SEKKEI_H
100
AcDbCircle
 10
363.2509356860343
 20
109.1003066920803
 30
0.0
 40
2.0
100
AcDbArc
 50
0.0
 51
45.00000000005555
  0
ARC
  5
1265
330
2
100
AcDbEntity
  8
HIDS
  6
SEKKEI_H
100
AcDbCircle
 10
363.7509356860325
 20
114.2571609415732
 30
0.0
 40
2.0
100
AcDbArc
 50
180.0
 51
225.0000000000555
  0
ARC
  5
1266
330
2
100
AcDbEntity
  8
0
100
AcDbCircle
 10
355.5509356860373
 20
173.2287338168267
 30
0.0
 40
0.2
100
AcDbArc
 50
0.0000000001302755
 51
90.0
  0
ARC
  5
1267
330
2
100
AcDbEntity
  8
0
100
AcDbCircle
 10
355.9509356860369
 20
172.9287338168274
 30
0.0
 40
0.2
100
AcDbArc
 50
180.0000000001302
 51
270.0
  0
ARC
  5
1268
330
2
100
AcDbEntity
  8
0
100
AcDbCircle
 10
357.5509356860373
 20
172.9287338168265
 30
0.0
 40
0.2
100
AcDbArc
 50
270.0
 51
0.0
  0
ARC
  5
1269
330
2
100
AcDbEntity
  8
0
100
AcDbCircle
 10
355.5509356860373
 20
120.6287338168254
 30
0.0
 40
0.2
100
AcDbArc
 50
270.0
 51
0.0000000001042204
  0
ARC
  5
126A
330
2
100
AcDbEntity
  8
0
100
AcDbCircle
 10
355.9509356860387
 20
120.9287338168256
 30
0.0
 40
0.2
100
AcDbArc
 50
90.0
 51
179.9999999998697
  0
ARC
  5
126B
330
2
100
AcDbEntity
  8
0
100
AcDbCircle
 10
357.5509356860373
 20
120.9287338168256
 30
0.0
 40
0.2
100
AcDbArc
 50
0.0
 51
90.0
  0
LINE
  5
126C
330
2
100
AcDbEntity
  8
0
100
AcDbLine
 10
354.250935686038
 20
173.4287338168274
 30
0.0
 11
354.250935686038
 21
171.8252479320804
 31
0.0
  0
LINE
  5
126D
330
2
100
AcDbEntity
  8
0
100
AcDbLine
 10
354.250935686038
 20
122.0322197015726
 30
0.0
 11
354.250935686038
 21
120.4287338168256
 31
0.0
  0
LINE
  5
126E
330
2
100
AcDbEntity
  8
0
100
AcDbLine
 10
357.9509356860369
 20
120.428733816826
 30
0.0
 11
357.9509356860369
 21
122.5928431529906
 31
0.0
  0
LINE
  5
126F
330
2
100
AcDbEntity
  8
0
100
AcDbLine
 10
357.9509356860369
 20
171.2646244806624
 30
0.0
 11
357.9509356860369
 21
173.4287338168265
 31
0.0
  0
LINE
  5
1270
330
2
100
AcDbEntity
  8
0
100
AcDbLine
 10
439.2509356860379
 20
182.9287338168465
 30
0.0
 11
372.7509356860325
 21
182.9287338168465
 31
0.0
  0
LINE
  5
1271
330
2
100
AcDbEntity
  8
0
100
AcDbLine
 10
439.2509356860379
 20
179.9287338168465
 30
0.0
 11
372.7509356860325
 21
179.9287338168465
 31
0.0
  0
LINE
  5
1272
330
2
100
AcDbEntity
  8
0
100
AcDbLine
 10
439.2509356860379
 20
165.2207689827105
 30
0.0
 11
372.7509356860325
 21
165.2207689827105
 31
0.0
  0
LINE
  5
1273
330
2
100
AcDbEntity
  8
0
100
AcDbLine
 10
372.7509356860325
 20
182.9287338168465
 30
0.0
 11
365.2509356860343
 21
182.9287338168465
 31
0.0
  0
LINE
  5
1274
330
2
100
AcDbEntity
  8
0
100
AcDbLine
 10
372.7509356860325
 20
179.9287338168465
 30
0.0
 11
365.2509356860343
 21
179.9287338168465
 31
0.0
  0
LINE
  5
1275
330
2
100
AcDbEntity
  8
0
100
AcDbLine
 10
372.7509356860325
 20
165.2207689827105
 30
0.0
 11
365.2509356860343
 21
165.2207689827105
 31
0.0
  0
LINE
  5
1276
330
2
100
AcDbEntity
  8
0
100
AcDbLine
 10
439.2509356860379
 20
110.9287338168065
 30
0.0
 11
372.7509356860325
 21
110.9287338168065
 31
0.0
  0
LINE
  5
1277
330
2
100
AcDbEntity
  8
0
100
AcDbLine
 10
439.2509356860379
 20
113.9287338168065
 30
0.0
 11
372.7509356860325
 21
113.9287338168065
 31
0.0
  0
LINE
  5
1278
330
2
100
AcDbEntity
  8
0
100
AcDbLine
 10
439.2509356860379
 20
128.6366986509424
 30
0.0
 11
372.7509356860325
 21
128.6366986509424
 31
0.0
  0
LINE
  5
1279
330
2
100
AcDbEntity
  8
0
100
AcDbLine
 10
372.7509356860325
 20
110.9287338168065
 30
0.0
 11
365.2509356860343
 21
110.9287338168065
 31
0.0
  0
LINE
  5
127A
330
2
100
AcDbEntity
  8
0
100
AcDbLine
 10
372.7509356860325
 20
113.9287338168065
 30
0.0
 11
365.2509356860343
 21
113.9287338168065
 31
0.0
  0
LINE
  5
127B
330
2
100
AcDbEntity
  8
0
100
AcDbLine
 10
372.7509356860325
 20
128.6366986509424
 30
0.0
 11
365.2509356860343
 21
128.6366986509424
 31
0.0
  0
LINE
  5
127C
330
2
100
AcDbEntity
  8
CENTER
  6
CENS
100
AcDbLine
 10
352.7509356860343
 20
181.4287338168451
 30
0.0
 11
377.8136824301807
 21
181.4287338168451
 31
0.0
  0
LINE
  5
127D
330
2
100
AcDbEntity
  8
0
100
AcDbLine
 10
363.7509356860362
 20
176.4287338168451
 30
0.0
 11
358.1509356860358
 21
176.4287338168451
 31
0.0
  0
LINE
  5
127E
330
2
100
AcDbEntity
  8
0
100
AcDbLine
 10
363.7509356860362
 20
186.4287338168452
 30
0.0
 11
358.1509356860358
 21
186.4287338168452
 31
0.0
  0
LINE
  5
127F
330
2
100
AcDbEntity
  8
0
100
AcDbLine
 10
363.7509356860362
 20
186.4287338168452
 30
0.0
 11
363.7509356860362
 21
176.4287338168456
 31
0.0
  0
LINE
  5
1280
330
2
100
AcDbEntity
  8
0
100
AcDbLine
 10
357.7509356860362
 20
185.7359134938174
 30
0.0
 11
357.7509356860343
 21
177.1215541398728
 31
0.0
  0
LINE
  5
1281
330
2
100
AcDbEntity
  8
0
100
AcDbLine
 10
358.1509356860358
 20
186.4287338168452
 30
0.0
 11
358.1509356860358
 21
176.4287338168451
 31
0.0
  0
LINE
  5
1282
330
2
100
AcDbEntity
  8
0
100
AcDbLine
 10
358.1509356860358
 20
186.4287338168452
 30
0.0
 11
357.7509356860362
 21
185.7359134938174
 31
0.0
  0
LINE
  5
1283
330
2
100
AcDbEntity
  8
0
100
AcDbLine
 10
358.1509356860358
 20
176.4287338168451
 30
0.0
 11
357.7509356860362
 21
177.1215541398728
 31
0.0
  0
LINE
  5
1284
330
2
100
AcDbEntity
  8
0
100
AcDbLine
 10
363.7509356860344
 20
186.4287338168452
 30
0.0
 11
365.2509356860343
 21
186.4287338168452
 31
0.0
  0
LINE
  5
1285
330
2
100
AcDbEntity
  8
0
100
AcDbLine
 10
363.7509356860344
 20
176.4287338168451
 30
0.0
 11
365.2509356860343
 21
176.4287338168451
 31
0.0
  0
LINE
  5
1286
330
2
100
AcDbEntity
  8
HIDS
  6
SEKKEI_H
100
AcDbLine
 10
361.7509356860325
 20
176.4287338168451
 30
0.0
 11
361.7509356860325
 21
179.6003066920798
 31
0.0
  0
LINE
  5
1287
330
2
100
AcDbEntity
  8
CENTER
  6
CENS
100
AcDbLine
 10
352.7509356860343
 20
112.4287338168078
 30
0.0
 11
377.8136824301807
 21
112.4287338168078
 31
0.0
  0
LINE
  5
1288
330
2
100
AcDbEntity
  8
0
100
AcDbLine
 10
363.7509356860362
 20
117.4287338168078
 30
0.0
 11
358.1509356860358
 21
117.4287338168078
 31
0.0
  0
LINE
  5
1289
330
2
100
AcDbEntity
  8
0
100
AcDbLine
 10
363.7509356860362
 20
107.4287338168078
 30
0.0
 11
358.1509356860358
 21
107.4287338168078
 31
0.0
  0
LINE
  5
128A
330
2
100
AcDbEntity
  8
0
100
AcDbLine
 10
363.7509356860362
 20
107.4287338168078
 30
0.0
 11
363.7509356860362
 21
117.4287338168074
 31
0.0
  0
LINE
  5
128B
330
2
100
AcDbEntity
  8
0
100
AcDbLine
 10
357.7509356860362
 20
108.1215541398356
 30
0.0
 11
357.7509356860343
 21
116.7359134937801
 31
0.0
  0
LINE
  5
128C
330
2
100
AcDbEntity
  8
0
100
AcDbLine
 10
358.1509356860358
 20
107.4287338168078
 30
0.0
 11
358.1509356860358
 21
117.4287338168078
 31
0.0
  0
LINE
  5
128D
330
2
100
AcDbEntity
  8
0
100
AcDbLine
 10
358.1509356860358
 20
107.4287338168078
 30
0.0
 11
357.7509356860362
 21
108.1215541398356
 31
0.0
  0
LINE
  5
128E
330
2
100
AcDbEntity
  8
0
100
AcDbLine
 10
358.1509356860358
 20
117.4287338168078
 30
0.0
 11
357.7509356860362
 21
116.7359134937801
 31
0.0
  0
LINE
  5
128F
330
2
100
AcDbEntity
  8
0
100
AcDbLine
 10
363.7509356860344
 20
107.4287338168078
 30
0.0
 11
365.2509356860343
 21
107.4287338168078
 31
0.0
  0
LINE
  5
1290
330
2
100
AcDbEntity
  8
0
100
AcDbLine
 10
363.7509356860344
 20
117.4287338168078
 30
0.0
 11
365.2509356860343
 21
117.4287338168078
 31
0.0
  0
LINE
  5
1291
330
2
100
AcDbEntity
  8
HIDS
  6
SEKKEI_H
100
AcDbLine
 10
361.7509356860325
 20
117.4287338168078
 30
0.0
 11
361.7509356860325
 21
114.2571609415732
 31
0.0
  0
LINE
  5
1292
330
2
100
AcDbEntity
  8
0
100
AcDbLine
 10
351.250944140075
 20
161.4257802458337
 30
0.0
 11
351.250944140075
 21
132.4257802458337
 31
0.0
  0
LINE
  5
1293
330
2
100
AcDbEntity
  8
0
100
AcDbLine
 10
470.2509356860343
 20
161.4286878168268
 30
0.0
 11
470.2509356860343
 21
132.4286878168264
 31
0.0
  0
LINE
  5
1294
330
2
100
AcDbEntity
  8
0
100
AcDbLine
 10
443.2509356860343
 20
156.4286878168264
 30
0.0
 11
443.2509356860343
 21
137.4286878168264
 31
0.0
  0
LINE
  5
1295
330
2
100
AcDbEntity
  8
CENTER
  6
CENS
100
AcDbLine
 10
462.2509356860343
 20
152.6926647751566
 30
0.0
 11
462.2509356860343
 21
166.1969854178851
 31
0.0
  0
LINE
  5
1296
330
2
100
AcDbEntity
  8
0
100
AcDbLine
 10
447.0804728071023
 20
132.4286878168264
 30
0.0
 11
470.2509356860343
 21
132.4286878168264
 31
0.0
  0
LINE
  5
1297
330
2
100
AcDbEntity
  8
0
100
AcDbLine
 10
365.3931781827129
 20
132.4257802458337
 30
0.0
 11
351.250944140075
 21
132.4257802458337
 31
0.0
  0
LINE
  5
1298
330
2
100
AcDbEntity
  8
0
100
AcDbLine
 10
351.250944140075
 20
158.7286878168266
 30
0.0
 11
470.2509356860343
 21
158.7286878168266
 31
0.0
  0
LINE
  5
1299
330
2
100
AcDbEntity
  8
0
100
AcDbLine
 10
443.2509356860343
 20
137.9286878168268
 30
0.0
 11
453.2509356860344
 21
137.9286878168268
 31
0.0
  0
LINE
  5
129A
330
2
100
AcDbEntity
  8
0
100
AcDbLine
 10
443.2509356860343
 20
155.9286878168264
 30
0.0
 11
453.2509356860344
 21
155.9286878168264
 31
0.0
  0
LINE
  5
129B
330
2
100
AcDbEntity
  8
0
100
AcDbLine
 10
447.0804443355598
 20
161.4286878168268
 30
0.0
 11
470.2509356860343
 21
161.4286878168268
 31
0.0
  0
LINE
  5
129C
330
2
100
AcDbEntity
  8
0
100
AcDbLine
 10
459.2509356860343
 20
156.4286878168264
 30
0.0
 11
465.2509356860344
 21
156.4286878168264
 31
0.0
  0
LINE
  5
129D
330
2
100
AcDbEntity
  8
0
100
AcDbLine
 10
459.2509356860343
 20
137.4286878168268
 30
0.0
 11
465.2509356860344
 21
137.4286878168268
 31
0.0
  0
LINE
  5
129E
330
2
100
AcDbEntity
  8
0
100
AcDbLine
 10
465.2509356860344
 20
137.4286878168268
 30
0.0
 11
465.2509356860344
 21
156.4286878168264
 31
0.0
  0
LINE
  5
129F
330
2
100
AcDbEntity
  8
0
100
AcDbLine
 10
468.2509356860343
 20
155.9286878168264
 30
0.0
 11
468.2509356860362
 21
137.9286878168273
 31
0.0
  0
LINE
  5
12A0
330
2
100
AcDbEntity
  8
0
100
AcDbLine
 10
470.2509356860361
 20
136.7739872784482
 30
0.0
 11
468.2509356860362
 21
137.9286878168273
 31
0.0
  0
LINE
  5
12A1
330
2
100
AcDbEntity
  8
0
100
AcDbLine
 10
465.2509356860344
 20
137.9286878168268
 30
0.0
 11
468.2509356860343
 21
137.9286878168268
 31
0.0
  0
LINE
  5
12A2
330
2
100
AcDbEntity
  8
0
100
AcDbLine
 10
470.2509356860343
 20
157.0833883552054
 30
0.0
 11
468.2509356860343
 21
155.9286878168264
 31
0.0
  0
LINE
  5
12A3
330
2
100
AcDbEntity
  8
0
100
AcDbLine
 10
465.2509356860344
 20
155.9286878168264
 30
0.0
 11
468.2509356860343
 21
155.9286878168264
 31
0.0
  0
LINE
  5
12A4
330
2
100
AcDbEntity
  8
0
100
AcDbLine
 10
459.2509356860343
 20
137.4286878168268
 30
0.0
 11
459.2509356860343
 21
156.4286878168264
 31
0.0
  0
LINE
  5
12A5
330
2
100
AcDbEntity
  8
0
100
AcDbLine
 10
454.4009356860358
 20
156.4286878168264
 30
0.0
 11
454.4009356860358
 21
137.4286878168264
 31
0.0
  0
LINE
  5
12A6
330
2
100
AcDbEntity
  8
0
100
AcDbLine
 10
453.2509356860344
 20
156.4286878168264
 30
0.0
 11
453.2509356860344
 21
137.4286878168264
 31
0.0
  0
LINE
  5
12A7
330
2
100
AcDbEntity
  8
0
100
AcDbLine
 10
454.4009356860358
 20
137.9286878168268
 30
0.0
 11
459.2509356860343
 21
137.9286878168264
 31
0.0
  0
LINE
  5
12A8
330
2
100
AcDbEntity
  8
0
100
AcDbLine
 10
454.4009356860358
 20
155.9286878168264
 30
0.0
 11
459.2509356860343
 21
155.9286878168264
 31
0.0
  0
LINE
  5
12A9
330
2
100
AcDbEntity
  8
0
100
AcDbLine
 10
439.2509356860343
 20
161.9286878168264
 30
0.0
 11
439.2509356860343
 21
161.4286878168264
 31
0.0
  0
LINE
  5
12AA
330
2
100
AcDbEntity
  8
0
100
AcDbLine
 10
439.2509356860343
 20
132.4286878168264
 30
0.0
 11
439.2509356860343
 21
131.9286878168264
 31
0.0
  0
LINE
  5
12AB
330
2
100
AcDbEntity
  8
0
100
AcDbLine
 10
365.3984536591258
 20
161.4257802458337
 30
0.0
 11
351.250944140075
 21
161.4257802458337
 31
0.0
  0
LINE
  5
12AC
330
2
100
AcDbEntity
  8
0
100
AcDbLine
 10
374.250944140075
 20
156.4286878168264
 30
0.0
 11
374.250944140075
 21
137.4286878168264
 31
0.0
  0
LINE
  5
12AD
330
2
100
AcDbEntity
  8
0
100
AcDbLine
 10
353.250944140075
 20
155.9287338168265
 30
0.0
 11
353.250944140075
 21
137.9287338168265
 31
0.0
  0
LINE
  5
12AE
330
2
100
AcDbEntity
  8
0
100
AcDbLine
 10
362.1009441400754
 20
156.4257802458337
 30
0.0
 11
362.1009441400754
 21
137.4257802458337
 31
0.0
  0
LINE
  5
12AF
330
2
100
AcDbEntity
  8
0
100
AcDbLine
 10
363.250944140075
 20
156.4257802458337
 30
0.0
 11
363.250944140075
 21
137.4257802458337
 31
0.0
  0
LINE
  5
12B0
330
2
100
AcDbEntity
  8
0
100
AcDbLine
 10
353.250944140075
 20
137.9287338168265
 30
0.0
 11
351.250944140075
 21
136.7740332784474
 31
0.0
  0
LINE
  5
12B1
330
2
100
AcDbEntity
  8
0
100
AcDbLine
 10
353.250944140075
 20
155.9287338168265
 30
0.0
 11
351.250944140075
 21
157.0834343552056
 31
0.0
  0
LINE
  5
12B2
330
2
100
AcDbEntity
  8
0
100
AcDbLine
 10
464.3009356855189
 20
158.7286878168266
 30
0.0
 11
464.3009356855189
 21
161.4286878168268
 31
0.0
  0
LINE
  5
12B3
330
2
100
AcDbEntity
  8
0
100
AcDbLine
 10
460.2009356865517
 20
158.7286878168266
 30
0.0
 11
460.2009356865517
 21
161.4286878168268
 31
0.0
  0
LINE
  5
12B4
330
2
100
AcDbEntity
  8
HOJO
100
AcDbLine
 10
464.7509356860344
 20
158.7286878168266
 30
0.0
 11
464.7509356860344
 21
161.4286878168268
 31
0.0
  0
LINE
  5
12B5
330
2
100
AcDbEntity
  8
HOJO
100
AcDbLine
 10
459.7509356860379
 20
158.7286878168266
 30
0.0
 11
459.7509356860379
 21
161.4286878168268
 31
0.0
  0
LINE
  5
12B6
330
2
100
AcDbEntity
  8
0
100
AcDbLine
 10
453.2509356860344
 20
156.4286878168264
 30
0.0
 11
454.4009356860358
 21
156.4286878168264
 31
0.0
  0
LINE
  5
12B7
330
2
100
AcDbEntity
  8
0
100
AcDbLine
 10
453.2509356860344
 20
137.4286878168264
 30
0.0
 11
454.4009356860358
 21
137.4286878168264
 31
0.0
  0
LINE
  5
12B8
330
2
100
AcDbEntity
  8
0
100
AcDbLine
 10
362.1009441400754
 20
156.4257802458337
 30
0.0
 11
363.250944140075
 21
156.4257802458337
 31
0.0
  0
LINE
  5
12B9
330
2
100
AcDbEntity
  8
0
100
AcDbLine
 10
362.1009441400754
 20
137.4257802458337
 30
0.0
 11
363.250944140075
 21
137.4257802458337
 31
0.0
  0
LINE
  5
12BA
330
2
100
AcDbEntity
  8
0
100
AcDbLine
 10
374.250944140075
 20
156.4286878168264
 30
0.0
 11
443.2509356860343
 21
156.4286878168264
 31
0.0
  0
LINE
  5
12BB
330
2
100
AcDbEntity
  8
0
100
AcDbLine
 10
443.2509356860343
 20
137.4286878168264
 30
0.0
 11
374.250944140075
 21
137.4286878168264
 31
0.0
  0
LINE
  5
12BC
330
2
100
AcDbEntity
  8
0
100
AcDbLine
 10
374.250944140075
 20
155.9287338168265
 30
0.0
 11
363.250944140075
 21
155.9287338168265
 31
0.0
  0
LINE
  5
12BD
330
2
100
AcDbEntity
  8
0
100
AcDbLine
 10
374.250944140075
 20
137.9287338168265
 30
0.0
 11
363.250944140075
 21
137.9287338168265
 31
0.0
  0
LINE
  5
12BE
330
2
100
AcDbEntity
  8
0
100
AcDbLine
 10
362.1009441400754
 20
155.9287338168265
 30
0.0
 11
353.250944140075
 21
155.9287338168265
 31
0.0
  0
LINE
  5
12BF
330
2
100
AcDbEntity
  8
0
100
AcDbLine
 10
362.1009441400754
 20
137.9287338168265
 30
0.0
 11
353.250944140075
 21
137.9287338168265
 31
0.0
  0
LINE
  5
12C0
330
2
100
AcDbEntity
  8
0
100
AcDbLine
 10
456.2509356860362
 20
123.9287338168265
 30
0.0
 11
456.2509356860362
 21
132.4286878168264
 31
0.0
  0
LINE
  5
12C1
330
2
100
AcDbEntity
  8
0
100
AcDbLine
 10
456.2509356860362
 20
161.4286878168268
 30
0.0
 11
456.2509356860362
 21
169.9287338168256
 31
0.0
  0
LINE
  5
12C2
330
2
100
AcDbEntity
  8
0
100
AcDbLine
 10
448.2509356860362
 20
123.6644071109499
 30
0.0
 11
448.2509356860362
 21
132.4286878168264
 31
0.0
  0
LINE
  5
12C3
330
2
100
AcDbEntity
  8
0
100
AcDbLine
 10
448.2509356860362
 20
161.4286878168268
 30
0.0
 11
448.2509356860362
 21
170.193060522703
 31
0.0
  0
LINE
  5
12C4
330
2
100
AcDbEntity
  8
0
100
AcDbLine
 10
456.2509356860362
 20
123.9287338168265
 30
0.0
 11
448.2509356860362
 21
123.9287338168265
 31
0.0
  0
LINE
  5
12C5
330
2
100
AcDbEntity
  8
0
100
AcDbLine
 10
456.2509356860362
 20
123.9287338168265
 30
0.0
 11
457.2509356860361
 21
123.3513835476369
 31
0.0
  0
LINE
  5
12C6
330
2
100
AcDbEntity
  8
0
100
AcDbLine
 10
448.2509356860362
 20
123.6644071109499
 30
0.0
 11
447.2600234697591
 21
123.6384591613723
 31
0.0
  0
LINE
  5
12C7
330
2
100
AcDbEntity
  8
0
100
AcDbLine
 10
456.2509356860362
 20
169.9287338168256
 30
0.0
 11
448.2509356860362
 21
169.9287338168256
 31
0.0
  0
LINE
  5
12C8
330
2
100
AcDbEntity
  8
0
100
AcDbLine
 10
456.2509356860362
 20
169.9287338168265
 30
0.0
 11
457.2509356860361
 21
170.5060840860156
 31
0.0
  0
LINE
  5
12C9
330
2
100
AcDbEntity
  8
0
100
AcDbLine
 10
448.2509356860362
 20
170.193060522703
 30
0.0
 11
447.260023469739
 21
170.2190084722811
 31
0.0
  0
SPLINE
  5
12CA
330
2
100
AcDbEntity
  8
HOJO
100
AcDbSpline
210
0.0
220
0.0
230
1.0
 70
     8
 71
     3
 72
    30
 73
    26
 74
     0
 42
0.0000000001
 43
0.0000000001
 40
0.5016654732119501
 40
0.5016654732119501
 40
0.5016654732119501
 40
0.5016654732119501
 40
2.680955593237801
 40
6.481103170843645
 40
9.861715666174537
 40
12.67866478189151
 40
16.05777144949662
 40
20.04695970870067
 40
22.66457515320929
 40
29.72623868189037
 40
37.99790621919433
 40
46.99071548625449
 40
54.49076198617444
 40
61.82498628838093
 40
69.45839622923616
 40
80.97138657320707
 40
88.08160211842633
 40
97.70908643514403
 40
100.9862254185234
 40
104.809996963859
 40
108.9004570007386
 40
112.9568108017827
 40
116.4247884416666
 40
119.9571556713895
 40
122.4205000303466
 40
122.4205000303466
 40
122.4205000303466
 40
122.4205000303466
 10
353.2509356860325
 20
172.3045290527975
 30
0.0
 10
353.9101481317327
 20
171.9656742455581
 30
0.0
 10
355.7281524336983
 20
171.1037007050004
 30
0.0
 10
358.7871712742187
 20
171.3097046050398
 30
0.0
 10
362.685614605464
 20
171.6113777908067
 30
0.0
 10
363.806576261634
 20
168.0592676915571
 30
0.0
 10
363.9472304884973
 20
164.8812377685877
 30
0.0
 10
364.8361153829562
 20
161.2638280190477
 30
0.0
 10
369.2963118031936
 20
159.2637009659525
 30
0.0
 10
375.3306809951725
 20
160.8781277677103
 30
0.0
 10
383.4229169584293
 20
159.255561688989
 30
0.0
 10
391.6314182990652
 20
161.6255914150393
 30
0.0
 10
399.5341449260438
 20
159.36742020864
 30
0.0
 10
406.9836910574074
 20
161.525318450565
 30
0.0
 10
415.7599234318556
 20
159.1624741026672
 30
0.0
 10
424.5083040748056
 20
161.6759948454514
 30
0.0
 10
433.9215221406782
 20
158.8325363612871
 30
0.0
 10
440.272509127132
 20
161.8894695152053
 30
0.0
 10
446.4185721628243
 20
158.6863106949158
 30
0.0
 10
447.9148433313355
 20
163.7271467480832
 30
0.0
 10
446.0132736758157
 20
167.0640431359398
 30
0.0
 10
447.3990886779691
 20
171.6344461064859
 30
0.0
 10
451.4467014143726
 20
172.1388057038858
 30
0.0
 10
454.5627965979481
 20
171.8133327728802
 30
0.0
 10
456.4708367139908
 20
172.4047967209285
 30
0.0
 10
457.2509356860361
 20
172.6938729326062
 30
0.0
  0
SPLINE
  5
12CB
330
2
100
AcDbEntity
  8
HOJO
100
AcDbSpline
210
0.0
220
0.0
230
1.0
 70
     8
 71
     3
 72
    30
 73
    26
 74
     0
 42
0.0000000001
 43
0.0000000001
 40
0.5016654732119501
 40
0.5016654732119501
 40
0.5016654732119501
 40
0.5016654732119501
 40
2.680955593237801
 40
6.481103170843645
 40
9.861715666174537
 40
12.67866478189151
 40
16.05777144949662
 40
20.04695970870067
 40
22.66457515320929
 40
29.72623868189037
 40
37.99790621919433
 40
46.99071548625449
 40
54.49076198617444
 40
61.82498628838093
 40
69.45839622923616
 40
80.97138657320707
 40
88.08160211842633
 40
97.70908643514403
 40
100.9862254185234
 40
104.809996963859
 40
108.9004570007386
 40
112.9568108017827
 40
116.4247884416666
 40
119.9571556713895
 40
122.4205000303466
 40
122.4205000303466
 40
122.4205000303466
 40
122.4205000303466
 10
353.2509356860325
 20
121.5529385808554
 30
0.0
 10
353.9101481317327
 20
121.8917933880948
 30
0.0
 10
355.7281524336983
 20
122.7537669286526
 30
0.0
 10
358.7871712742187
 20
122.5477630286132
 30
0.0
 10
362.685614605464
 20
122.2460898428462
 30
0.0
 10
363.806576261634
 20
125.7981999420958
 30
0.0
 10
363.9472304884973
 20
128.9762298650653
 30
0.0
 10
364.8361153829562
 20
132.5936396146053
 30
0.0
 10
369.2963118031936
 20
134.5937666677005
 30
0.0
 10
375.3306809951725
 20
132.9793398659426
 30
0.0
 10
383.4229169584293
 20
134.6019059446639
 30
0.0
 10
391.6314182990652
 20
132.2318762186137
 30
0.0
 10
399.5341449260438
 20
134.490047425013
 30
0.0
 10
406.9836910574074
 20
132.3321491830879
 30
0.0
 10
415.7599234318556
 20
134.6949935309858
 30
0.0
 10
424.5083040748056
 20
132.1814727882015
 30
0.0
 10
433.9215221406782
 20
135.0249312723659
 30
0.0
 10
440.272509127132
 20
131.9679981184477
 30
0.0
 10
446.4185721628243
 20
135.1711569387371
 30
0.0
 10
447.9148433313355
 20
130.1303208855697
 30
0.0
 10
446.0132736758157
 20
126.7934244977132
 30
0.0
 10
447.3990886779691
 20
122.223021527167
 30
0.0
 10
451.4467014143726
 20
121.7186619297672
 30
0.0
 10
454.5627965979481
 20
122.0441348607728
 30
0.0
 10
456.4708367139908
 20
121.4526709127244
 30
0.0
 10
457.2509356860361
 20
121.1635947010468
 30
0.0
  0
LINE
  5
12CC
330
2
100
AcDbEntity
  8
0
100
AcDbLine
 10
362.2509356860325
 20
132.4316873878192
 30
0.0
 11
362.2509356860325
 21
123.5465704638878
 31
0.0
  0
LINE
  5
12CD
330
2
100
AcDbEntity
  8
0
100
AcDbLine
 10
456.2509356860344
 20
169.9287338168256
 30
0.0
 11
448.2509356860362
 21
161.4286878168268
 31
0.0
  0
LINE
  5
12CE
330
2
100
AcDbEntity
  8
0
100
AcDbLine
 10
448.2509356860362
 20
169.9287338168256
 30
0.0
 11
456.2509356860362
 21
161.4286878168268
 31
0.0
  0
LINE
  5
12CF
330
2
100
AcDbEntity
  8
0
100
AcDbLine
 10
456.2509356860362
 20
132.4286878168264
 30
0.0
 11
448.2509356860362
 21
123.9287338168265
 31
0.0
  0
LINE
  5
12D0
330
2
100
AcDbEntity
  8
0
100
AcDbLine
 10
448.2509356860362
 20
132.4286878168264
 30
0.0
 11
456.2509356860362
 21
123.9287338168265
 31
0.0
  0
LINE
  5
12D1
330
2
100
AcDbEntity
  8
0
100
AcDbLine
 10
362.2509356860325
 20
132.4257802458337
 30
0.0
 11
354.2509356860325
 21
123.9287338168265
 31
0.0
  0
LINE
  5
12D2
330
2
100
AcDbEntity
  8
0
100
AcDbLine
 10
354.2509356860325
 20
132.4257802458337
 30
0.0
 11
362.2509356860325
 21
123.9287338168265
 31
0.0
  0
LINE
  5
12D3
330
2
100
AcDbEntity
  8
0
100
AcDbLine
 10
354.2509356860325
 20
169.9287338168256
 30
0.0
 11
362.2509356860325
 21
161.4257802458337
 31
0.0
  0
LINE
  5
12D4
330
2
100
AcDbEntity
  8
0
100
AcDbLine
 10
362.2509356860325
 20
169.9287338168265
 30
0.0
 11
354.2509356860325
 21
161.4257802458337
 31
0.0
  0
LINE
  5
12D5
330
2
100
AcDbEntity
  8
0
100
AcDbLine
 10
306.1656391468002
 20
391.4760704099153
 30
0.0
 11
306.1656391468002
 21
362.4760704099153
 31
0.0
  0
LINE
  5
12D6
330
2
100
AcDbEntity
  8
0
100
AcDbLine
 10
425.1656306927604
 20
391.4789779809085
 30
0.0
 11
425.1656306927604
 21
362.478977980908
 31
0.0
  0
LINE
  5
12D7
330
2
100
AcDbEntity
  8
0
100
AcDbLine
 10
412.1656306927595
 20
362.478977980908
 30
0.0
 11
425.1656306927604
 21
362.478977980908
 31
0.0
  0
LINE
  5
12D8
330
2
100
AcDbEntity
  8
0
100
AcDbLine
 10
308.1656306927577
 20
362.4760704099153
 30
0.0
 11
306.1656391468002
 21
362.4760704099153
 31
0.0
  0
LINE
  5
12D9
330
2
100
AcDbEntity
  8
0
100
AcDbLine
 10
412.1656306927613
 20
391.4789779809085
 30
0.0
 11
425.1656306927604
 21
391.4789779809085
 31
0.0
  0
LINE
  5
12DA
330
2
100
AcDbEntity
  8
0
100
AcDbLine
 10
308.1656306927577
 20
391.4760704099153
 30
0.0
 11
306.1656391468002
 21
391.4760704099153
 31
0.0
  0
CIRCLE
  5
12DB
330
2
100
AcDbEntity
  8
0
100
AcDbCircle
 10
417.1656306927604
 20
376.978977980908
 30
0.0
 40
2.049999999999999
  0
CIRCLE
  5
12DC
330
2
100
AcDbEntity
  8
HOJO
100
AcDbCircle
 10
417.1656306927604
 20
376.9790281955248
 30
0.0
 40
2.5
  0
LINE
  5
12DD
330
2
100
AcDbEntity
  8
CENTER
100
AcDbLine
 10
417.1656306927595
 20
382.0804963656506
 30
0.0
 11
417.1656306927595
 21
371.8775515961656
 31
0.0
  0
LINE
  5
12DE
330
2
100
AcDbEntity
  8
0
100
AcDbLine
 10
558.6416571254428
 20
696.8762830530122
 30
0.0
 11
587.6416571254428
 21
696.8762830530122
 31
0.0
  0
LINE
  5
12DF
330
2
100
AcDbEntity
  8
0
100
AcDbLine
 10
558.6387495544492
 20
577.8762915070524
 30
0.0
 11
587.6387495544502
 21
577.8762915070524
 31
0.0
  0
LINE
  5
12E0
330
2
100
AcDbEntity
  8
0
100
AcDbLine
 10
587.6387495544502
 20
590.8762915070533
 30
0.0
 11
587.6387495544502
 21
577.8762915070524
 31
0.0
  0
LINE
  5
12E1
330
2
100
AcDbEntity
  8
0
100
AcDbLine
 10
587.6416571254428
 20
694.8762915070546
 30
0.0
 11
587.6416571254428
 21
696.8762830530122
 31
0.0
  0
LINE
  5
12E2
330
2
100
AcDbEntity
  8
0
100
AcDbLine
 10
558.6387495544492
 20
590.876291507052
 30
0.0
 11
558.6387495544492
 21
577.8762915070524
 31
0.0
  0
LINE
  5
12E3
330
2
100
AcDbEntity
  8
0
100
AcDbLine
 10
558.6416571254428
 20
694.8762915070546
 30
0.0
 11
558.6416571254428
 21
696.8762830530122
 31
0.0
  0
CIRCLE
  5
12E4
330
2
100
AcDbEntity
  8
0
100
AcDbCircle
 10
573.1387495544502
 20
585.8762915070524
 30
0.0
 40
2.049999999999999
  0
CIRCLE
  5
12E5
330
2
100
AcDbEntity
  8
HOJO
100
AcDbCircle
 10
573.1386993398334
 20
585.8762915070524
 30
0.0
 40
2.5
  0
LINE
  5
12E6
330
2
100
AcDbEntity
  8
CENTER
100
AcDbLine
 10
568.037231169708
 20
585.8762915070533
 30
0.0
 11
578.2401759391921
 21
585.8762915070533
 31
0.0
  0
ARC
  5
12E7
330
2
100
AcDbEntity
  8
0
100
AcDbCircle
 10
573.1387035544464
 20
376.9790239809222
 30
0.0
 40
8.999999999999982
100
AcDbArc
 50
109.4712206344713
 51
70.52877936552867
  0
LINE
  5
12E8
330
2
100
AcDbEntity
  8
0
100
AcDbLine
 10
570.1387035544464
 20
388.7790239809224
 30
0.0
 11
576.1387035544465
 21
388.7790239809224
 31
0.0
  0
LINE
  5
12E9
330
2
100
AcDbEntity
  8
0
100
AcDbLine
 10
570.1387035544464
 20
388.7790239809224
 30
0.0
 11
570.1387035544464
 21
385.4643053551609
 31
0.0
  0
LINE
  5
12EA
330
2
100
AcDbEntity
  8
0
100
AcDbLine
 10
576.1387035544465
 20
388.7790239809224
 30
0.0
 11
576.1387035544474
 21
385.4643053551604
 31
0.0
  0
CIRCLE
  5
12EB
330
2
100
AcDbEntity
  8
0
100
AcDbCircle
 10
573.1387035544464
 20
376.9790239809227
 30
0.0
 40
14.4999539999859
  0
ARC
  5
12EC
330
2
100
AcDbEntity
  8
0
100
AcDbCircle
 10
573.1387035544574
 20
376.9790239809336
 30
0.0
 40
10.15465453835361
100
AcDbArc
 50
107.1833853173834
 51
72.81661468272726
  0
ARC
  5
12ED
330
2
100
AcDbEntity
  8
0
100
AcDbCircle
 10
189.4177380653307
 20
376.979023980929
 30
0.0
 40
8.999999999999982
100
AcDbArc
 50
109.4712206344713
 51
70.52877936552867
  0
LINE
  5
12EE
330
2
100
AcDbEntity
  8
0
100
AcDbLine
 10
186.4177380653307
 20
388.7790239809292
 30
0.0
 11
192.4177380653306
 21
388.7790239809292
 31
0.0
  0
LINE
  5
12EF
330
2
100
AcDbEntity
  8
0
100
AcDbLine
 10
186.4177380653307
 20
388.7790239809292
 30
0.0
 11
186.4177380653307
 21
385.4643053551677
 31
0.0
  0
LINE
  5
12F0
330
2
100
AcDbEntity
  8
0
100
AcDbLine
 10
192.4177380653306
 20
388.7790239809292
 30
0.0
 11
192.4177380653316
 21
385.4643053551672
 31
0.0
  0
ARC
  5
12F1
330
2
100
AcDbEntity
  8
0
100
AcDbCircle
 10
189.4177380653416
 20
376.9790239809404
 30
0.0
 40
10.15465453835361
100
AcDbArc
 50
107.1833853173834
 51
72.81661468272726
  0
CIRCLE
  5
12F2
330
2
100
AcDbEntity
  8
0
100
AcDbCircle
 10
189.4177380653307
 20
376.9790239809295
 30
0.0
 40
14.4999539999859
  0
LINE
  5
12F4
330
2
100
AcDbEntity
  8
0
100
AcDbLine
 10
613.72362216139
 20
675.3762915043917
 30
0.0
 11
613.9287035544501
 21
651.876291507056
 31
0.0
  0
ARC
  5
12F5
330
2
100
AcDbEntity
  8
0
100
AcDbCircle
 10
616.8808200167584
 20
657.3762915070556
 30
0.0
 40
3.0
100
AcDbArc
 50
180.5000000000045
 51
270.0
  0
LINE
  5
1324
330
2
100
AcDbEntity
  8
CENTER
  6
CENS
100
AcDbLine
 10
366.1656306927541
 20
426.1027084036109
 30
0.0
 11
366.1656306927541
 21
402.7427824012441
 31
0.0
  0
LINE
  5
1325
330
2
100
AcDbEntity
  8
0
100
AcDbLine
 10
371.1656306927541
 20
420.9790239809079
 30
0.0
 11
361.1656306927541
 21
420.9790239809079
 31
0.0
  0
ARC
  5
1326
330
2
100
AcDbEntity
  8
0
100
AcDbCircle
 10
361.1656306927541
 20
416.9790239809079
 30
0.0
 40
4.0
100
AcDbArc
 50
90.0
 51
159.1508477649675
  0
ARC
  5
1327
330
2
100
AcDbEntity
  8
0
100
AcDbCircle
 10
371.1656306927541
 20
416.9790239809079
 30
0.0
 40
4.0
100
AcDbArc
 50
17.60182375627703
 51
90.0
  0
LINE
  5
1328
330
2
100
AcDbEntity
  8
0
100
AcDbLine
 10
923.5750233606283
 20
418.4026591369004
 30
0.0
 11
929.8369405709278
 21
418.4790239809286
 31
0.0
  0
LINE
  5
1877
330
2
100
AcDbEntity
  8
PHAS
  6
SEKKEI_P_S
100
AcDbLine
 10
315.66563069276
 20
348.4790239809082
 30
0.0
 11
315.66563069276
 21
405.4790239809082
 31
0.0
  0
LINE
  5
1878
330
2
100
AcDbEntity
  8
PHAS
  6
SEKKEI_P_S
100
AcDbLine
 10
290.16563069276
 20
363.9429219809081
 30
0.0
 11
290.16563069276
 21
390.0151017389972
 31
0.0
  0
LINE
  5
1879
330
2
100
AcDbEntity
  8
PHAS
  6
SEKKEI_P_S
100
AcDbLine
 10
305.8656306927602
 20
351.5981754065525
 30
0.0
 11
305.8656306927602
 21
402.3598725552647
 31
0.0
  0
LINE
  5
187A
330
2
100
AcDbEntity
  8
PHAS
  6
SEKKEI_P_S
100
AcDbLine
 10
315.66563069276
 20
348.4790239809082
 30
0.0
 11
308.8132734734483
 21
348.5986323210828
 31
0.0
  0
ARC
  5
187B
330
2
100
AcDbEntity
  8
PHAS
  6
SEKKEI_P_S
100
AcDbCircle
 10
304.8656306927603
 20
356.139930813567
 30
0.0
 40
1.0
100
AcDbArc
 50
0.0
 51
79.99956533742561
  0
ARC
  5
187C
330
2
100
AcDbEntity
  8
PHAS
  6
SEKKEI_P_S
100
AcDbCircle
 10
308.8656306927603
 20
351.5981754065525
 30
0.0
 40
3.0
100
AcDbArc
 50
180.0
 51
268.9999999999982
  0
LINE
  5
187D
330
2
100
AcDbEntity
  8
PHAS
  6
SEKKEI_P_S
100
AcDbLine
 10
294.2973524492479
 20
359.0189140446301
 30
0.0
 11
305.0392863414624
 21
357.1247372492054
 31
0.0
  0
ARC
  5
187E
330
2
100
AcDbEntity
  8
PHAS
  6
SEKKEI_P_S
100
AcDbCircle
 10
295.16563069276
 20
363.94294622282
 30
0.0
 40
5.0
100
AcDbArc
 50
180.0
 51
259.9995653374256
  0
LINE
  5
187F
330
2
100
AcDbEntity
  8
PHAS
  6
SEKKEI_P_S
100
AcDbLine
 10
305.03927269276
 20
357.1247149809079
 30
0.0
 11
305.0456325042225
 21
357.1235937106413
 31
0.0
  0
LINE
  5
1880
330
2
100
AcDbEntity
  8
PHAS
  6
SEKKEI_P_S
100
AcDbLine
 10
315.66563069276
 20
405.4790239809082
 30
0.0
 11
308.8132734734483
 21
405.3594156407345
 31
0.0
  0
LINE
  5
1881
330
2
100
AcDbEntity
  8
PHAS
  6
SEKKEI_P_S
100
AcDbLine
 10
294.2973524492479
 20
394.9391339171862
 30
0.0
 11
305.0392863414624
 21
396.8333107126119
 31
0.0
  0
ARC
  5
1882
330
2
100
AcDbEntity
  8
PHAS
  6
SEKKEI_P_S
100
AcDbCircle
 10
295.16563069276
 20
390.0151017389972
 30
0.0
 40
5.0
100
AcDbArc
 50
100.0004346625743
 51
180.0
  0
ARC
  5
1883
330
2
100
AcDbEntity
  8
PHAS
  6
SEKKEI_P_S
100
AcDbCircle
 10
304.8592845299997
 20
397.8169736096862
 30
0.0
 40
1.0
100
AcDbArc
 50
280.0004346625744
 51
0.0
  0
ARC
  5
1884
330
2
100
AcDbEntity
  8
PHAS
  6
SEKKEI_P_S
100
AcDbCircle
 10
308.8656306927616
 20
402.3598725552639
 30
0.0
 40
3.0
100
AcDbArc
 50
91.00000000000177
 51
180.0
  0
CIRCLE
  5
1CC4
330
2
100
AcDbEntity
  8
0
100
AcDbCircle
 10
573.1387035544574
 20
376.97902398092
 30
0.0
 40
23.5774
  0
ENDSEC
  0
SECTION
  2
OBJECTS
  0
DICTIONARY
  5
7
330
0
100
AcDbDictionary
  3
ACAD_COLOR
350
17FC
  3
ACAD_GROUP
350
75
  3
ACAD_LAYOUT
350
61
  3
ACAD_MATERIAL
350
17D2
  3
ACAD_MLEADERSTYLE
350
1821
  3
ACAD_MLINESTYLE
350
76
  3
ACAD_PLOTSETTINGS
350
77
  3
ACAD_PLOTSTYLENAME
350
6
  3
ACAD_SCALELIST
350
17FF
  3
ACAD_TABLESTYLE
350
17FD
  3
ACAD_VISUALSTYLE
350
17EB
  3
ACADDIM
350
480
  3
ACDB_RECOMPOSE_DATA
350
1838
  3
ACDBHEADERROUNDTRIPXREC
350
1D08
  3
ACDBVARIABLEDICTIONARY
350
102
  3
DWGPROPS
350
1CD4
  0
DICTIONARY
  5
1841
330
6E
100
AcDbDictionary
280
     1
  3
ACAD_XREC_ROUNDTRIP
360
1CDB
  0
DICTIONARY
  5
ADB
330
66
100
AcDbDictionary
280
     1
  3
ACAD_LAYERSTATES
360
ADC
  0
DICTIONARY
  5
1826
330
5E
100
AcDbDictionary
280
     1
  3
ACAD_XREC_ROUNDTRIP
360
1CD7
  3
ADSK_XREC_LAYER_RECONCILED
360
1827
  0
DICTIONARY
  5
1828
330
3E
100
AcDbDictionary
280
     1
  3
ACAD_XREC_ROUNDTRIP
360
1CD6
  3
ADSK_XREC_LAYER_RECONCILED
360
1829
  0
DICTIONARY
  5
182E
330
2B5
100
AcDbDictionary
280
     1
  3
ACAD_XREC_ROUNDTRIP
360
1CE1
  3
ADSK_XREC_LAYER_RECONCILED
360
182F
  0
DICTIONARY
  5
1830
330
2BA
100
AcDbDictionary
280
     1
  3
ACAD_XREC_ROUNDTRIP
360
1CE2
  3
ADSK_XREC_LAYER_RECONCILED
360
1831
  0
DICTIONARY
  5
1834
330
3FA
100
AcDbDictionary
280
     1
  3
ACAD_XREC_ROUNDTRIP
360
1CE4
  3
ADSK_XREC_LAYER_RECONCILED
360
1835
  0
DICTIONARY
  5
1860
330
185F
100
AcDbDictionary
280
     1
  3
ACAD_XREC_ROUNDTRIP
360
1CEB
  3
ADSK_XREC_LAYER_RECONCILED
360
1862
  0
DICTIONARY
  5
1D29
330
2
100
AcDbDictionary
280
     1
  3
ACAD_LAYOUTSELFREF
360
1D2A
  0
DICTIONARY
  5
1D2B
330
1D02
100
AcDbDictionary
280
     1
  3
ACAD_LAYOUTSELFREF
360
1D2C
  0
DICTIONARY
  5
17FC
102
{ACAD_REACTORS
330
7
102
}
330
7
100
AcDbDictionary
  0
DICTIONARY
  5
75
102
{ACAD_REACTORS
330
7
102
}
330
7
100
AcDbDictionary
  0
DICTIONARY
  5
61
102
{ACAD_REACTORS
330
7
102
}
330
7
100
AcDbDictionary
  0
DICTIONARY
  5
17D2
102
{ACAD_REACTORS
330
7
102
}
330
7
100
AcDbDictionary
  3
BYBLOCK
350
17DB
  3
BYLAYER
350
17D3
  3
GLOBAL
350
17E3
  0
DICTIONARY
  5
1821
102
{ACAD_REACTORS
330
7
102
}
330
7
100
AcDbDictionary
  3
STANDARD
350
1822
  0
DICTIONARY
  5
76
102
{ACAD_REACTORS
330
7
102
}
330
7
100
AcDbDictionary
  3
STANDARD
350
78
  0
DICTIONARY
  5
77
102
{ACAD_REACTORS
330
7
102
}
330
7
100
AcDbDictionary
  0
ACDBDICTIONARYWDFLT
  5
6
102
{ACAD_REACTORS
330
7
102
}
330
7
100
AcDbDictionary
281
     1
  3
Normal
350
5
100
AcDbDictionaryWithDefault
340
5
  0
DICTIONARY
  5
17FF
102
{ACAD_REACTORS
330
7
102
}
330
7
100
AcDbDictionary
  3
A0
350
1800
  3
A1
350
1801
  3
A2
350
1802
  3
A3
350
1803
  3
A4
350
1804
  3
A5
350
1805
  3
A6
350
1806
  3
A7
350
1807
  3
A8
350
1808
  3
A9
350
1809
  3
B0
350
180A
  3
B1
350
180B
  3
B2
350
180C
  3
B3
350
180D
  3
B4
350
180E
  3
B5
350
180F
  3
B6
350
1810
  3
B7
350
1811
  3
B8
350
1812
  3
B9
350
1813
  3
C0
350
1814
  3
C1
350
1815
  3
C2
350
1816
  3
C3
350
1817
  3
C4
350
1818
  3
C5
350
1819
  3
C6
350
181A
  3
C7
350
181B
  3
C8
350
181C
  3
C9
350
181D
  3
D0
350
181E
  3
D1
350
181F
  3
D2
350
1820
  0
DICTIONARY
  5
17FD
102
{ACAD_REACTORS
330
7
102
}
330
7
100
AcDbDictionary
  3
STANDARD
350
17FE
  0
DICTIONARY
  5
17EB
102
{ACAD_REACTORS
330
7
102
}
330
7
100
AcDbDictionary
  3
2DWIREFRAME
350
17F1
  3
3D_HIDDEN
350
17F3
  3
3DWIREFRAME
350
17F2
  3
BASIC
350
17F0
  3
BRIGHTEN
350
17F7
  3
COLORCHANGE
350
17FB
  3
CONCEPTUAL
350
17F4
  3
DIM
350
17F6
  3
FACEPATTERN
350
17FA
  3
FLAT
350
17EC
  3
FLATWITHEDGES
350
17ED
  3
GOURAUD
350
17EE
  3
GOURAUDWITHEDGES
350
17EF
  3
LINEPATTERN
350
17F9
  3
REALISTIC
350
17F5
  3
THICKEN
350
17F8
  0
XRECORD
  5
480
102
{ACAD_REACTORS
330
7
102
}
330
7
100
AcDbXrecord
 90
   990106
  3

 60
     0
 61
     0
 62
     1
 63
     3
 64
     1
 65
     0
 66
     0
 67
     3
 68
     1
 69
     0
 70
     0
 71
     0
 72
     0
 40
0.0
170
     2
340
0
  0
XRECORD
  5
1838
102
{ACAD_REACTORS
330
7
102
}
330
7
100
AcDbXrecord
 90
        1
330
17FE
  0
DICTIONARY
  5
1D08
102
{ACAD_REACTORS
330
7
102
}
330
7
100
AcDbDictionary
  3
CEPSNTYPE
350
1D12
  3
DIMSTYLEDATA
350
1D16
  3
FINGERPRINTGUID
350
1D13
  3
HYPERLINKBASE
350
1D0B
  3
INSUNITS
350
1D11
  3
LAYOUTDICT
350
1D0D
  3
LWETCUNION
350
1D10
  3
PLOTSETDICT
350
1D0E
  3
PLOTSTYLNAMDICT
350
1D0F
  3
PSVPSCALE
350
1D15
  3
PUCSBASE
350
1D19
  3
PUCSORGBACK
350
1D1F
  3
PUCSORGBOTTOM
350
1D1B
  3
PUCSORGFRONT
350
1D1E
  3
PUCSORGLEFT
350
1D1C
  3
PUCSORGRIGHT
350
1D1D
  3
PUCSORGTOP
350
1D1A
  3
PUCSORTHOREF
350
1D17
  3
PUCSORTHOVIEW
350
1D18
  3
STYLESHEET
350
1D0C
  3
TSTACKALIGN
350
1D09
  3
TSTACKSIZE
350
1D0A
  3
UCSBASE
350
1D22
  3
UCSORGBACK
350
1D28
  3
UCSORGBOTTOM
350
1D24
  3
UCSORGFRONT
350
1D27
  3
UCSORGLEFT
350
1D25
  3
UCSORGRIGHT
350
1D26
  3
UCSORGTOP
350
1D23
  3
UCSORTHOREF
350
1D20
  3
UCSORTHOVIEW
350
1D21
  3
VERSIONGUID
350
1D14
  0
DICTIONARY
  5
102
102
{ACAD_REACTORS
330
7
102
}
330
7
100
AcDbDictionary
  3
CANNOSCALE
350
1858
  3
CMLEADERSTYLE
350
1857
  3
CTABLESTYLE
350
1856
  3
DIMASSOC
350
103
  3
INDEXCTL
350
1859
  3
SORTENTS
350
549
  0
XRECORD
  5
1CD4
102
{ACAD_REACTORS
330
7
102
}
330
7
100
AcDbXrecord
  1
DWGPROPS COOKIE
  2

  3

  4

  6

  7

  8
ymorima
  9

300
=
301
=
302
=
303
=
304
=
305
=
306
=
307
=
308
=
309
=
 40
0.0119688541666667
 41
2454410.731539351
 42
2454425.679686227
  1

 90
        0
  0
XRECORD
  5
1CDB
102
{ACAD_REACTORS
330
1841
102
}
330
1841
100
AcDbXrecord
102
VTR_0.000_0.000_1.000_1.000_VISUALSTYLE
340
17F1
102
VTR_0.000_0.000_1.000_1.000_GRIDDISPLAY
 70
     3
102
VTR_0.000_0.000_1.000_1.000_GRIDMAJOR
 70
     5
102
VTR_0.000_0.000_1.000_1.000_DEFAULTLIGHTING
280
     1
102
VTR_0.000_0.000_1.000_1.000_DEFAULTLIGHTINGTYPE
 70
     1
102
VTR_0.000_0.000_1.000_1.000_BRIGHTNESS
141
0.0
102
VTR_0.000_0.000_1.000_1.000_CONTRAST
142
0.0
  0
DICTIONARY
  5
ADC
102
{ACAD_REACTORS
330
ADB
102
}
330
ADB
100
AcDbDictionary
  0
XRECORD
  5
1CD7
102
{ACAD_REACTORS
330
1826
102
}
330
1826
100
AcDbXrecord
102
MATERIAL
340
17E3
  0
XRECORD
  5
1827
102
{ACAD_REACTORS
330
1826
102
}
330
1826
100
AcDbXrecord
290
     1
  0
XRECORD
  5
1CD6
102
{ACAD_REACTORS
330
1828
102
}
330
1828
100
AcDbXrecord
102
MATERIAL
340
17E3
  0
XRECORD
  5
1829
102
{ACAD_REACTORS
330
1828
102
}
330
1828
100
AcDbXrecord
290
     1
  0
XRECORD
  5
1CE1
102
{ACAD_REACTORS
330
182E
102
}
330
182E
100
AcDbXrecord
102
MATERIAL
340
17E3
  0
XRECORD
  5
182F
102
{ACAD_REACTORS
330
182E
102
}
330
182E
100
AcDbXrecord
290
     1
  0
XRECORD
  5
1CE2
102
{ACAD_REACTORS
330
1830
102
}
330
1830
100
AcDbXrecord
102
MATERIAL
340
17E3
  0
XRECORD
  5
1831
102
{ACAD_REACTORS
330
1830
102
}
330
1830
100
AcDbXrecord
290
     1
  0
XRECORD
  5
1CE4
102
{ACAD_REACTORS
330
1834
102
}
330
1834
100
AcDbXrecord
102
MATERIAL
340
17E3
  0
XRECORD
  5
1835
102
{ACAD_REACTORS
330
1834
102
}
330
1834
100
AcDbXrecord
290
     1
  0
XRECORD
  5
1CEB
102
{ACAD_REACTORS
330
1860
102
}
330
1860
100
AcDbXrecord
102
MATERIAL
340
17E3
  0
XRECORD
  5
1862
102
{ACAD_REACTORS
330
1860
102
}
330
1860
100
AcDbXrecord
290
     1
  0
XRECORD
  5
1D2A
102
{ACAD_REACTORS
330
1D29
102
}
330
1D29
100
AcDbXrecord
340
2
  0
XRECORD
  5
1D2C
102
{ACAD_REACTORS
330
1D2B
102
}
330
1D2B
100
AcDbXrecord
340
1D02
  0
ACAD_PROXY_OBJECT
  5
17DB
102
{ACAD_XDICTIONARY
360
17DC
102
}
102
{ACAD_REACTORS
330
17D2
102
}
330
17D2
100
AcDbProxyObject
 90
      499
 91
      510
 93
     1340
310
42109E509B1BD8DAC02004014080404555555555555953FAA155555555555654FEA9AA400014080404555555555555953FAA155555555555654FEA9AA400000000000000E03F4080404555555555555953FAA155555555555654FEA9AA4014080404555555555555953FAA155555555555654FEA9AA4010201011555555555
310
55654FEA8555555555555953FAA6A9005020101155555555555654FEA8555555555555953FAA6A9002
 94
        0
1001
ACAD
1000
AcadProxyRoundTripData
1071
      504
1071
   655383
1070
     0
  0
ACAD_PROXY_OBJECT
  5
17D3
102
{ACAD_XDICTIONARY
360
17D4
102
}
102
{ACAD_REACTORS
330
17D2
102
}
330
17D2
100
AcDbProxyObject
 90
      499
 91
      510
 93
     1340
310
42109E53185E595C802004014080404555555555555953FAA155555555555654FEA9AA400014080404555555555555953FAA155555555555654FEA9AA400000000000000E03F4080404555555555555953FAA155555555555654FEA9AA4014080404555555555555953FAA155555555555654FEA9AA4010201011555555555
310
55654FEA8555555555555953FAA6A9005020101155555555555654FEA8555555555555953FAA6A9002
 94
        0
1001
ACAD
1000
AcadProxyRoundTripData
1071
      504
1071
   655383
1070
     0
  0
ACAD_PROXY_OBJECT
  5
17E3
102
{ACAD_XDICTIONARY
360
17E4
102
}
102
{ACAD_REACTORS
330
17D2
102
}
330
17D2
100
AcDbProxyObject
 90
      499
 91
      510
 93
     1332
310
41D1DB1BD8985B002004014080404555555555555953FAA155555555555654FEA9AA400014080404555555555555953FAA155555555555654FEA9AA400000000000000E03F4080404555555555555953FAA155555555555654FEA9AA4014080404555555555555953FAA155555555555654FEA9AA401020101155555555555
310
654FEA8555555555555953FAA6A9005020101155555555555654FEA8555555555555953FAA6A9000
 94
        0
1001
ACAD
1000
AcadProxyRoundTripData
1071
      504
1071
   655383
1070
     0
  0
ACAD_PROXY_OBJECT
  5
1822
102
{ACAD_REACTORS
330
1821
102
}
330
1821
100
AcDbProxyObject
 90
      499
 91
      510
 93
      618
310
40901902A4063FBFFFFFE056BD1B81E855B9FC0AD7A3703D0AD73F4254DD185B99185C990000AD7A3703D0AC73F90141901A02B5E8DC0F42B1CFC02B5E8DC0F42B1CFE5764000000000000300FC6
340
6A
340
0
340
16
340
0
 94
        0
1001
ACAD_MLEADERVER
1070
     2
1001
ACAD
1000
AcadProxyRoundTripData
1071
      508
1071
   655383
1070
     0
  0
MLINESTYLE
  5
78
102
{ACAD_REACTORS
330
76
102
}
330
76
100
AcDbMlineStyle
  2
STANDARD
 70
     0
  3

 62
     0
 51
90.0
 52
90.0
 71
     2
 49
0.5
 62
   256
  6
BYLAYER
 49
-0.5
 62
   256
  6
BYLAYER
  0
ACDBPLACEHOLDER
  5
5
102
{ACAD_REACTORS
330
6
102
}
330
6
100
AcDbPlaceHolder
280
     0
  0
ACAD_PROXY_OBJECT
  5
1800
102
{ACAD_REACTORS
330
17FF
102
}
330
17FF
100
AcDbProxyObject
 90
      499
 91
      510
 93
       49
310
904313A3100598
 94
        0
1001
ACAD
1000
AcadProxyRoundTripData
1071
      507
1071
   655383
1070
     0
  0
ACAD_PROXY_OBJECT
  5
1801
102
{ACAD_REACTORS
330
17FF
102
}
330
17FF
100
AcDbProxyObject
 90
      499
 91
      510
 93
      113
310
904313A3200400000000000000406B
 94
        0
1001
ACAD
1000
AcadProxyRoundTripData
1071
      507
1071
   655383
1070
     0
  0
ACAD_PROXY_OBJECT
  5
1802
102
{ACAD_REACTORS
330
17FF
102
}
330
17FF
100
AcDbProxyObject
 90
      499
 91
      510
 93
      113
310
904313A3400400000000000010406B
 94
        0
1001
ACAD
1000
AcadProxyRoundTripData
1071
      507
1071
   655383
1070
     0
  0
ACAD_PROXY_OBJECT
  5
1803
102
{ACAD_REACTORS
330
17FF
102
}
330
17FF
100
AcDbProxyObject
 90
      499
 91
      510
 93
      113
310
904313A3500400000000000014406B
 94
        0
1001
ACAD
1000
AcadProxyRoundTripData
1071
      507
1071
   655383
1070
     0
  0
ACAD_PROXY_OBJECT
  5
1804
102
{ACAD_REACTORS
330
17FF
102
}
330
17FF
100
AcDbProxyObject
 90
      499
 91
      510
 93
      113
310
904313A3800400000000000020406B
 94
        0
1001
ACAD
1000
AcadProxyRoundTripData
1071
      507
1071
   655383
1070
     0
  0
ACAD_PROXY_OBJECT
  5
1805
102
{ACAD_REACTORS
330
17FF
102
}
330
17FF
100
AcDbProxyObject
 90
      499
 91
      510
 93
      121
310
905313A3130004000000000000244051
 94
        0
1001
ACAD
1000
AcadProxyRoundTripData
1071
      507
1071
   655383
1070
     0
  0
ACAD_PROXY_OBJECT
  5
1806
102
{ACAD_REACTORS
330
17FF
102
}
330
17FF
100
AcDbProxyObject
 90
      499
 91
      510
 93
      121
310
905313A3136004000000000000304051
 94
        0
1001
ACAD
1000
AcadProxyRoundTripData
1071
      507
1071
   655383
1070
     0
  0
ACAD_PROXY_OBJECT
  5
1807
102
{ACAD_REACTORS
330
17FF
102
}
330
17FF
100
AcDbProxyObject
 90
      499
 91
      510
 93
      121
310
905313A3230004000000000000344051
 94
        0
1001
ACAD
1000
AcadProxyRoundTripData
1071
      507
1071
   655383
1070
     0
  0
ACAD_PROXY_OBJECT
  5
1808
102
{ACAD_REACTORS
330
17FF
102
}
330
17FF
100
AcDbProxyObject
 90
      499
 91
      510
 93
      121
310
905313A33300040000000000003E4051
 94
        0
1001
ACAD
1000
AcadProxyRoundTripData
1071
      507
1071
   655383
1070
     0
  0
ACAD_PROXY_OBJECT
  5
1809
102
{ACAD_REACTORS
330
17FF
102
}
330
17FF
100
AcDbProxyObject
 90
      499
 91
      510
 93
      121
310
905313A3430004000000000000444051
 94
        0
1001
ACAD
1000
AcadProxyRoundTripData
1071
      507
1071
   655383
1070
     0
  0
ACAD_PROXY_OBJECT
  5
180A
102
{ACAD_REACTORS
330
17FF
102
}
330
17FF
100
AcDbProxyObject
 90
      499
 91
      510
 93
      121
310
905313A3530004000000000000494051
 94
        0
1001
ACAD
1000
AcadProxyRoundTripData
1071
      507
1071
   655383
1070
     0
  0
ACAD_PROXY_OBJECT
  5
180B
102
{ACAD_REACTORS
330
17FF
102
}
330
17FF
100
AcDbProxyObject
 90
      499
 91
      510
 93
      129
310
906313A313030004000000000000594038
 94
        0
1001
ACAD
1000
AcadProxyRoundTripData
1071
      507
1071
   655383
1070
     0
  0
ACAD_PROXY_OBJECT
  5
180C
102
{ACAD_REACTORS
330
17FF
102
}
330
17FF
100
AcDbProxyObject
 90
      499
 91
      510
 93
      113
310
904323A31000000000000000010159
 94
        0
1001
ACAD
1000
AcadProxyRoundTripData
1071
      507
1071
   655383
1070
     0
  0
ACAD_PROXY_OBJECT
  5
180D
102
{ACAD_REACTORS
330
17FF
102
}
330
17FF
100
AcDbProxyObject
 90
      499
 91
      510
 93
      113
310
904343A31000000000000000410159
 94
        0
1001
ACAD
1000
AcadProxyRoundTripData
1071
      507
1071
   655383
1070
     0
  0
ACAD_PROXY_OBJECT
  5
180E
102
{ACAD_REACTORS
330
17FF
102
}
330
17FF
100
AcDbProxyObject
 90
      499
 91
      510
 93
      113
310
904383A31000000000000000810159
 94
        0
1001
ACAD
1000
AcadProxyRoundTripData
1071
      507
1071
   655383
1070
     0
  0
ACAD_PROXY_OBJECT
  5
180F
102
{ACAD_REACTORS
330
17FF
102
}
330
17FF
100
AcDbProxyObject
 90
      499
 91
      510
 93
      121
310
90531303A31000000000000000910140
 94
        0
1001
ACAD
1000
AcadProxyRoundTripData
1071
      507
1071
   655383
1070
     0
  0
ACAD_PROXY_OBJECT
  5
1810
102
{ACAD_REACTORS
330
17FF
102
}
330
17FF
100
AcDbProxyObject
 90
      499
 91
      510
 93
      129
310
9063130303A31000000000000001650138
 94
        0
1001
ACAD
1000
AcadProxyRoundTripData
1071
      507
1071
   655383
1070
     0
  0
ACAD_PROXY_OBJECT
  5
1811
102
{ACAD_REACTORS
330
17FF
102
}
330
17FF
100
AcDbProxyObject
 90
      499
 91
      510
 93
      265
310
90F312F31323822203D2031272D302200000000000000200FC00000000000028402B
 94
        0
1001
ACAD
1000
AcadProxyRoundTripData
1071
      507
1071
   655383
1070
     0
  0
ACAD_PROXY_OBJECT
  5
1812
102
{ACAD_REACTORS
330
17FF
102
}
330
17FF
100
AcDbProxyObject
 90
      499
 91
      510
 93
      257
310
90E312F363422203D2031272D302200000000000000240FC000000000000284040
 94
        0
1001
ACAD
1000
AcadProxyRoundTripData
1071
      507
1071
   655383
1070
     0
  0
ACAD_PROXY_OBJECT
  5
1813
102
{ACAD_REACTORS
330
17FF
102
}
330
17FF
100
AcDbProxyObject
 90
      499
 91
      510
 93
      257
310
90E312F333222203D2031272D302200000000000000280FC000000000000284040
 94
        0
1001
ACAD
1000
AcadProxyRoundTripData
1071
      507
1071
   655383
1070
     0
  0
ACAD_PROXY_OBJECT
  5
1814
102
{ACAD_REACTORS
330
17FF
102
}
330
17FF
100
AcDbProxyObject
 90
      499
 91
      510
 93
      257
310
90E312F313622203D2031272D3022000000000000002C0FC000000000000284040
 94
        0
1001
ACAD
1000
AcadProxyRoundTripData
1071
      507
1071
   655383
1070
     0
  0
ACAD_PROXY_OBJECT
  5
1815
102
{ACAD_REACTORS
330
17FF
102
}
330
17FF
100
AcDbProxyObject
 90
      499
 91
      510
 93
      257
310
90E332F333222203D2031272D3022000000000000002E0FC000000000000284040
 94
        0
1001
ACAD
1000
AcadProxyRoundTripData
1071
      507
1071
   655383
1070
     0
  0
ACAD_PROXY_OBJECT
  5
1816
102
{ACAD_REACTORS
330
17FF
102
}
330
17FF
100
AcDbProxyObject
 90
      499
 91
      510
 93
      249
310
90D312F3822203D2031272D302200000000000000300FC000000000000284040
 94
        0
1001
ACAD
1000
AcadProxyRoundTripData
1071
      507
1071
   655383
1070
     0
  0
ACAD_PROXY_OBJECT
  5
1817
102
{ACAD_REACTORS
330
17FF
102
}
330
17FF
100
AcDbProxyObject
 90
      499
 91
      510
 93
      257
310
90E332F313622203D2031272D302200000000000000320FC000000000000284040
 94
        0
1001
ACAD
1000
AcadProxyRoundTripData
1071
      507
1071
   655383
1070
     0
  0
ACAD_PROXY_OBJECT
  5
1818
102
{ACAD_REACTORS
330
17FF
102
}
330
17FF
100
AcDbProxyObject
 90
      499
 91
      510
 93
      249
310
90D312F3422203D2031272D302200000000000000340FC000000000000284040
 94
        0
1001
ACAD
1000
AcadProxyRoundTripData
1071
      507
1071
   655383
1070
     0
  0
ACAD_PROXY_OBJECT
  5
1819
102
{ACAD_REACTORS
330
17FF
102
}
330
17FF
100
AcDbProxyObject
 90
      499
 91
      510
 93
      249
310
90D332F3822203D2031272D302200000000000000360FC000000000000284040
 94
        0
1001
ACAD
1000
AcadProxyRoundTripData
1071
      507
1071
   655383
1070
     0
  0
ACAD_PROXY_OBJECT
  5
181A
102
{ACAD_REACTORS
330
17FF
102
}
330
17FF
100
AcDbProxyObject
 90
      499
 91
      510
 93
      249
310
90D312F3222203D2031272D302200000000000000380FC000000000000284040
 94
        0
1001
ACAD
1000
AcadProxyRoundTripData
1071
      507
1071
   655383
1070
     0
  0
ACAD_PROXY_OBJECT
  5
181B
102
{ACAD_REACTORS
330
17FF
102
}
330
17FF
100
AcDbProxyObject
 90
      499
 91
      510
 93
      249
310
90D332F3422203D2031272D3022000000000000003A0FC000000000000284040
 94
        0
1001
ACAD
1000
AcadProxyRoundTripData
1071
      507
1071
   655383
1070
     0
  0
ACAD_PROXY_OBJECT
  5
181C
102
{ACAD_REACTORS
330
17FF
102
}
330
17FF
100
AcDbProxyObject
 90
      499
 91
      510
 93
      169
310
90B3122203D2031272D3022004000000000000284020
 94
        0
1001
ACAD
1000
AcadProxyRoundTripData
1071
      507
1071
   655383
1070
     0
  0
ACAD_PROXY_OBJECT
  5
181D
102
{ACAD_REACTORS
330
17FF
102
}
330
17FF
100
AcDbProxyObject
 90
      499
 91
      510
 93
      265
310
90F312D312F3222203D2031272D3022000000000000003E0FC00000000000028402B
 94
        0
1001
ACAD
1000
AcadProxyRoundTripData
1071
      507
1071
   655383
1070
     0
  0
ACAD_PROXY_OBJECT
  5
181E
102
{ACAD_REACTORS
330
17FF
102
}
330
17FF
100
AcDbProxyObject
 90
      499
 91
      510
 93
      233
310
90B3322203D2031272D30220000000000000002100000000000000284000
 94
        0
1001
ACAD
1000
AcadProxyRoundTripData
1071
      507
1071
   655383
1070
     0
  0
ACAD_PROXY_OBJECT
  5
181F
102
{ACAD_REACTORS
330
17FF
102
}
330
17FF
100
AcDbProxyObject
 90
      499
 91
      510
 93
      233
310
90B3622203D2031272D30220000000000000006100000000000000284000
 94
        0
1001
ACAD
1000
AcadProxyRoundTripData
1071
      507
1071
   655383
1070
     0
  0
ACAD_PROXY_OBJECT
  5
1820
102
{ACAD_REACTORS
330
17FF
102
}
330
17FF
100
AcDbProxyObject
 90
      499
 91
      510
 93
      257
310
90E31272D3022203D2031272D3022000000000000000A100000000000000284040
 94
        0
1001
ACAD
1000
AcadProxyRoundTripData
1071
      507
1071
   655383
1070
     0
  0
ACAD_PROXY_OBJECT
  5
17FE
102
{ACAD_XDICTIONARY
360
1836
102
}
102
{ACAD_REACTORS
330
17FD
102
}
330
17FD
100
AcDbProxyObject
 90
      499
 91
      510
 93
     1849
310
4254DD185B99185C990028B81E85EB51B8AE3F2E07A17AD46E2B8FC02B5E8DC0F42B1CFD028000000C1008070000C3001FDFF8000000C1003FBFF000000182007F7FE00000030400FEFFC00000060801FDFF8000000C1003FBFF00000018200000000000000681FA0B0000001820100E000186003FBFF000000182007F7FE0
310
0000030400FEFFC00000060801FDFF8000000C1003FBFF000000182007F7FE000000304000AD7A3703D0AC73F4160000003040201C00030C007F7FE00000030400FEFFC00000060801FDFF8000000C1003FBFF000000182007F7FE00000030400FEFFC000000608062
340
16
340
16
340
16
 94
        0
1001
ACAD
1000
AcadProxyRoundTripData
1071
      506
1071
   655383
1070
     0
  0
ACAD_PROXY_OBJECT
  5
17F1
102
{ACAD_REACTORS
330
17EB
102
}
330
17EB
100
AcDbProxyObject
 90
      499
 91
      510
 93
      444
310
430C9915DA5C99599C985B59401049028333333333333E3BF0000000000000FB0107901411070040501600405405064090741402480A0340
 94
        0
1001
ACAD
1000
AcDbSavedByObjectVersion
1070
     0
1000
AcadProxyRoundTripData
1071
      505
1071
   655383
1070
     0
  0
ACAD_PROXY_OBJECT
  5
17F3
102
{ACAD_REACTORS
330
17EB
102
}
330
17EB
100
AcDbProxyObject
 90
      499
 91
      510
 93
      508
310
428CD108121A5919195B8010640502408333333333333E3BF0000000000000FB01079024090700405020000000000001110200405405064090740C02480A0340
 94
        0
1001
ACAD
1000
AcDbSavedByObjectVersion
1070
     0
1000
AcadProxyRoundTripData
1071
      505
1071
   655383
1070
     0
  0
ACAD_PROXY_OBJECT
  5
17F2
102
{ACAD_REACTORS
330
17EB
102
}
330
17EB
100
AcDbProxyObject
 90
      499
 91
      510
 93
      444
310
430CD915DA5C99599C985B59401059028333333333333E3BF0000000000000FB0107901411070040501600405405064090741402480A0340
 94
        0
1001
ACAD
1000
AcDbSavedByObjectVersion
1070
     0
1000
AcadProxyRoundTripData
1071
      505
1071
   655383
1070
     0
  0
ACAD_PROXY_OBJECT
  5
17F0
102
{ACAD_REACTORS
330
17EB
102
}
330
17EB
100
AcDbProxyObject
 90
      499
 91
      510
 93
      396
310
4190985CDA58C0107406404333333333333E3BF0000000000000FB0107A41107004050150841D405064090741402480A0356
 94
        0
1001
ACAD
1000
AcDbSavedByObjectVersion
1070
     0
1000
AcadProxyRoundTripData
1071
      505
1071
   655383
1070
     0
  0
ACAD_PROXY_OBJECT
  5
17F7
102
{ACAD_REACTORS
330
17EB
102
}
330
17EB
100
AcDbProxyObject
 90
      499
 91
      510
 93
      436
310
42509C9A59DA1D195B8010C409028333333333333E3BF0000000000000FB010790141107004050150841D405064090741402480A029956
 94
        0
1001
ACAD
1000
AcDbSavedByObjectVersion
1070
     0
1000
AcadProxyRoundTripData
1071
      505
1071
   655383
1070
     0
  0
ACAD_PROXY_OBJECT
  5
17FB
102
{ACAD_REACTORS
330
17EB
102
}
330
17EB
100
AcDbProxyObject
 90
      499
 91
      510
 93
      460
310
4310DBDB1BDC90DA185B99D9401104090240C333333333333E3BF0000000000000FB0108901411070040501508421405064090741402480A0354
 94
        0
1001
ACAD
1000
AcDbSavedByObjectVersion
1070
     0
1000
AcadProxyRoundTripData
1071
      505
1071
   655383
1070
     0
  0
ACAD_PROXY_OBJECT
  5
17F4
102
{ACAD_REACTORS
330
17EB
102
}
330
17EB
100
AcDbProxyObject
 90
      499
 91
      510
 93
      508
310
42D0DBDB98D95C1D1D585B0010940D028333333333333E3BF0000000000000FB0107902409070040501000000000000111010841D405064090740C02480A0340
 94
        0
1001
ACAD
1000
AcDbSavedByObjectVersion
1070
     0
1000
AcadProxyRoundTripData
1071
      505
1071
   655383
1070
     0
  0
ACAD_PROXY_OBJECT
  5
17F6
102
{ACAD_REACTORS
330
17EB
102
}
330
17EB
100
AcDbProxyObject
 90
      499
 91
      510
 93
      420
310
41111A5B4010B409028333333333333E3BF0000000000000FB010790141107004050150841D405064090741402480A02677FFFFFDB
 94
        0
1001
ACAD
1000
AcDbSavedByObjectVersion
1070
     0
1000
AcadProxyRoundTripData
1071
      505
1071
   655383
1070
     0
  0
ACAD_PROXY_OBJECT
  5
17FA
102
{ACAD_REACTORS
330
17EB
102
}
330
17EB
100
AcDbProxyObject
 90
      499
 91
      510
 93
      452
310
43119858D95C185D1D195C9B8010F409028333333333333E3BF0000000000000FB010790141107004050150841D405064090741402480A0350
 94
        0
1001
ACAD
1000
AcDbSavedByObjectVersion
1070
     0
1000
AcadProxyRoundTripData
1071
      505
1071
   655383
1070
     0
  0
ACAD_PROXY_OBJECT
  5
17EC
102
{ACAD_REACTORS
330
17EB
102
}
330
17EB
100
AcDbProxyObject
 90
      499
 91
      510
 93
      396
310
41519B185D00240901404333333333333E3BF0000000000000F9010740A41107004050150841D405064090741402480A1B55
 94
        0
1001
ACAD
1000
AcDbSavedByObjectVersion
1070
     0
1000
AcadProxyRoundTripData
1071
      505
1071
   655383
1070
     0
  0
ACAD_PROXY_OBJECT
  5
17ED
102
{ACAD_REACTORS
330
17EB
102
}
330
17EB
100
AcDbProxyObject
 90
      499
 91
      510
 93
      484
310
43919B185D15DA5D1A115919D95CC010140901404333333333333E3BF0000000000000F9010740901411070040501600405405064090741402480A1B50
 94
        0
1001
ACAD
1000
AcDbSavedByObjectVersion
1070
     0
1000
AcadProxyRoundTripData
1071
      505
1071
   655383
1070
     0
  0
ACAD_PROXY_OBJECT
  5
17EE
102
{ACAD_REACTORS
330
17EB
102
}
330
17EB
100
AcDbProxyObject
 90
      499
 91
      510
 93
      420
310
4211DBDD5C985D590010240902404333333333333E3BF0000000000000F9010740A411070040501641D405064090741402480A1B50
 94
        0
1001
ACAD
1000
AcDbSavedByObjectVersion
1070
     0
1000
AcadProxyRoundTripData
1071
      505
1071
   655383
1070
     0
  0
ACAD_PROXY_OBJECT
  5
17EF
102
{ACAD_REACTORS
330
17EB
102
}
330
17EB
100
AcDbProxyObject
 90
      499
 91
      510
 93
      508
310
4451DBDD5C985D5915DA5D1A115919D95CC010340902404333333333333E3BF0000000000000F9010740901411070040501600405405064090741402480A1B50
 94
        0
1001
ACAD
1000
AcDbSavedByObjectVersion
1070
     0
1000
AcadProxyRoundTripData
1071
      505
1071
   655383
1070
     0
  0
ACAD_PROXY_OBJECT
  5
17F9
102
{ACAD_REACTORS
330
17EB
102
}
330
17EB
100
AcDbProxyObject
 90
      499
 91
      510
 93
      452
310
43131A5B995C185D1D195C9B8010E409028333333333333E3BF0000000000000FB010790141107004050750841D405064090741402483A0350
 94
        0
1001
ACAD
1000
AcDbSavedByObjectVersion
1070
     0
1000
AcadProxyRoundTripData
1071
      505
1071
   655383
1070
     0
  0
ACAD_PROXY_OBJECT
  5
17F5
102
{ACAD_REACTORS
330
17EB
102
}
330
17EB
100
AcDbProxyObject
 90
      499
 91
      510
 93
      428
310
429499585B1A5CDD1A58C0108409028333333333333E3BF0000000000000FB01079019070040501508421405064090741402480A1B45
 94
        0
1001
ACAD
1000
AcDbSavedByObjectVersion
1070
     0
1000
AcadProxyRoundTripData
1071
      505
1071
   655383
1070
     0
  0
ACAD_PROXY_OBJECT
  5
17F8
102
{ACAD_REACTORS
330
17EB
102
}
330
17EB
100
AcDbProxyObject
 90
      499
 91
      510
 93
      420
310
42151A1A58DAD95B8010D409028333333333333E3BF0000000000000FB010790141107004050150C41D405064090741402480A0352
 94
        0
1001
ACAD
1000
AcDbSavedByObjectVersion
1070
     0
1000
AcadProxyRoundTripData
1071
      505
1071
   655383
1070
     0
  0
XRECORD
  5
1D12
102
{ACAD_REACTORS
330
1D08
102
}
330
1D08
100
AcDbXrecord
 90
        0
  0
XRECORD
  5
1D16
102
{ACAD_REACTORS
330
1D08
102
}
330
1D08
100
AcDbXrecord
1000
DSTYLE
1002
{
1070
   179
 70
     2
1070
   277
 70
     6
1002
}
  0
XRECORD
  5
1D13
102
{ACAD_REACTORS
330
1D08
102
}
330
1D08
100
AcDbXrecord
  1
{6385560B-F4B1-4644-A7C2-A3E32AC3D232}
  0
XRECORD
  5
1D0B
102
{ACAD_REACTORS
330
1D08
102
}
330
1D08
100
AcDbXrecord
  1

  0
XRECORD
  5
1D11
102
{ACAD_REACTORS
330
1D08
102
}
330
1D08
100
AcDbXrecord
 90
        0
  0
XRECORD
  5
1D0D
102
{ACAD_REACTORS
330
1D08
102
}
330
1D08
100
AcDbXrecord
340
61
  0
XRECORD
  5
1D10
102
{ACAD_REACTORS
330
1D08
102
}
330
1D08
100
AcDbXrecord
 90
    10781
  0
XRECORD
  5
1D0E
102
{ACAD_REACTORS
330
1D08
102
}
330
1D08
100
AcDbXrecord
340
77
  0
XRECORD
  5
1D0F
102
{ACAD_REACTORS
330
1D08
102
}
330
1D08
100
AcDbXrecord
340
6
  0
XRECORD
  5
1D15
102
{ACAD_REACTORS
330
1D08
102
}
330
1D08
100
AcDbXrecord
 40
0.0
  0
XRECORD
  5
1D19
102
{ACAD_REACTORS
330
1D08
102
}
330
1D08
100
AcDbXrecord
340
0
  0
XRECORD
  5
1D1F
102
{ACAD_REACTORS
330
1D08
102
}
330
1D08
100
AcDbXrecord
 10
0.0
 20
0.0
 30
0.0
  0
XRECORD
  5
1D1B
102
{ACAD_REACTORS
330
1D08
102
}
330
1D08
100
AcDbXrecord
 10
0.0
 20
0.0
 30
0.0
  0
XRECORD
  5
1D1E
102
{ACAD_REACTORS
330
1D08
102
}
330
1D08
100
AcDbXrecord
 10
0.0
 20
0.0
 30
0.0
  0
XRECORD
  5
1D1C
102
{ACAD_REACTORS
330
1D08
102
}
330
1D08
100
AcDbXrecord
 10
0.0
 20
0.0
 30
0.0
  0
XRECORD
  5
1D1D
102
{ACAD_REACTORS
330
1D08
102
}
330
1D08
100
AcDbXrecord
 10
0.0
 20
0.0
 30
0.0
  0
XRECORD
  5
1D1A
102
{ACAD_REACTORS
330
1D08
102
}
330
1D08
100
AcDbXrecord
 10
0.0
 20
0.0
 30
0.0
  0
XRECORD
  5
1D17
102
{ACAD_REACTORS
330
1D08
102
}
330
1D08
100
AcDbXrecord
340
0
  0
XRECORD
  5
1D18
102
{ACAD_REACTORS
330
1D08
102
}
330
1D08
100
AcDbXrecord
 70
     0
  0
XRECORD
  5
1D0C
102
{ACAD_REACTORS
330
1D08
102
}
330
1D08
100
AcDbXrecord
  1
Sekkei.ctb
  0
XRECORD
  5
1D09
102
{ACAD_REACTORS
330
1D08
102
}
330
1D08
100
AcDbXrecord
 90
        1
  0
XRECORD
  5
1D0A
102
{ACAD_REACTORS
330
1D08
102
}
330
1D08
100
AcDbXrecord
 90
       70
  0
XRECORD
  5
1D22
102
{ACAD_REACTORS
330
1D08
102
}
330
1D08
100
AcDbXrecord
340
0
  0
XRECORD
  5
1D28
102
{ACAD_REACTORS
330
1D08
102
}
330
1D08
100
AcDbXrecord
 10
0.0
 20
0.0
 30
0.0
  0
XRECORD
  5
1D24
102
{ACAD_REACTORS
330
1D08
102
}
330
1D08
100
AcDbXrecord
 10
0.0
 20
0.0
 30
0.0
  0
XRECORD
  5
1D27
102
{ACAD_REACTORS
330
1D08
102
}
330
1D08
100
AcDbXrecord
 10
0.0
 20
0.0
 30
0.0
  0
XRECORD
  5
1D25
102
{ACAD_REACTORS
330
1D08
102
}
330
1D08
100
AcDbXrecord
 10
0.0
 20
0.0
 30
0.0
  0
XRECORD
  5
1D26
102
{ACAD_REACTORS
330
1D08
102
}
330
1D08
100
AcDbXrecord
 10
0.0
 20
0.0
 30
0.0
  0
XRECORD
  5
1D23
102
{ACAD_REACTORS
330
1D08
102
}
330
1D08
100
AcDbXrecord
 10
0.0
 20
0.0
 30
0.0
  0
XRECORD
  5
1D20
102
{ACAD_REACTORS
330
1D08
102
}
330
1D08
100
AcDbXrecord
340
0
  0
XRECORD
  5
1D21
102
{ACAD_REACTORS
330
1D08
102
}
330
1D08
100
AcDbXrecord
 70
     0
  0
XRECORD
  5
1D14
102
{ACAD_REACTORS
330
1D08
102
}
330
1D08
100
AcDbXrecord
  1
{43C97EA8-51C0-4FF6-B172-EF6D21BD8062}
  0
DICTIONARYVAR
  5
1858
102
{ACAD_REACTORS
330
102
102
}
330
102
100
DictionaryVariables
280
     0
  1
1:1
  0
DICTIONARYVAR
  5
1857
102
{ACAD_REACTORS
330
102
102
}
330
102
100
DictionaryVariables
280
     0
  1
STANDARD
  0
DICTIONARYVAR
  5
1856
102
{ACAD_REACTORS
330
102
102
}
330
102
100
DictionaryVariables
280
     0
  1
STANDARD
  0
DICTIONARYVAR
  5
103
102
{ACAD_REACTORS
330
102
102
}
330
102
100
DictionaryVariables
280
     0
  1
1
  0
DICTIONARYVAR
  5
1859
102
{ACAD_REACTORS
330
102
102
}
330
102
100
DictionaryVariables
280
     0
  1
0
  0
DICTIONARYVAR
  5
549
102
{ACAD_REACTORS
330
102
102
}
330
102
100
DictionaryVariables
280
     0
  1
96
  0
DICTIONARY
  5
17DC
330
17DB
100
AcDbDictionary
280
     1
  3
ACAD_XREC_ROUNDTRIP
360
1CE8
  3
BUMPTILE
360
17DE
  3
DIFFUSETILE
360
17DD
  3
OPACITYTILE
360
17E1
  3
REFLECTIONTILE
360
17E0
  3
REFRACTIONTILE
360
17E2
  3
SPECULARTILE
360
17DF
  0
DICTIONARY
  5
17D4
330
17D3
100
AcDbDictionary
280
     1
  3
ACAD_XREC_ROUNDTRIP
360
1CE7
  3
BUMPTILE
360
17D6
  3
DIFFUSETILE
360
17D5
  3
OPACITYTILE
360
17D9
  3
REFLECTIONTILE
360
17D8
  3
REFRACTIONTILE
360
17DA
  3
SPECULARTILE
360
17D7
  0
DICTIONARY
  5
17E4
330
17E3
100
AcDbDictionary
280
     1
  3
ACAD_XREC_ROUNDTRIP
360
1CE9
  3
BUMPTILE
360
17E6
  3
DIFFUSETILE
360
17E5
  3
OPACITYTILE
360
17E9
  3
REFLECTIONTILE
360
17E8
  3
REFRACTIONTILE
360
17EA
  3
SPECULARTILE
360
17E7
  0
DICTIONARY
  5
1836
330
17FE
100
AcDbDictionary
280
     1
  3
ACAD_ROUNDTRIP_2008_TABLES
360
1CD3
  3
ACAD_XREC_ROUNDTRIP
360
1CEA
  0
XRECORD
  5
1CE8
102
{ACAD_REACTORS
330
17DC
102
}
330
17DC
100
AcDbXrecord
102
MATERIAL
148
0.0
149
0.0
149
0.0
 93
        0
 94
      127
282
     0
 72
     0
 77
     0
171
     0
175
     0
179
     0
273
     0
  0
XRECORD
  5
17DE
102
{ACAD_REACTORS
330
17DC
102
}
330
17DC
100
AcDbXrecord
270
     1
271
     1
  0
XRECORD
  5
17DD
102
{ACAD_REACTORS
330
17DC
102
}
330
17DC
100
AcDbXrecord
270
     1
271
     1
  0
XRECORD
  5
17E1
102
{ACAD_REACTORS
330
17DC
102
}
330
17DC
100
AcDbXrecord
270
     1
271
     1
  0
XRECORD
  5
17E0
102
{ACAD_REACTORS
330
17DC
102
}
330
17DC
100
AcDbXrecord
270
     1
271
     1
  0
XRECORD
  5
17E2
102
{ACAD_REACTORS
330
17DC
102
}
330
17DC
100
AcDbXrecord
270
     1
271
     1
  0
XRECORD
  5
17DF
102
{ACAD_REACTORS
330
17DC
102
}
330
17DC
100
AcDbXrecord
270
     1
271
     1
  0
XRECORD
  5
1CE7
102
{ACAD_REACTORS
330
17D4
102
}
330
17D4
100
AcDbXrecord
102
MATERIAL
148
0.0
149
0.0
149
0.0
 93
        0
 94
      127
282
     0
 72
     0
 77
     0
171
     0
175
     0
179
     0
273
     0
  0
XRECORD
  5
17D6
102
{ACAD_REACTORS
330
17D4
102
}
330
17D4
100
AcDbXrecord
270
     1
271
     1
  0
XRECORD
  5
17D5
102
{ACAD_REACTORS
330
17D4
102
}
330
17D4
100
AcDbXrecord
270
     1
271
     1
  0
XRECORD
  5
17D9
102
{ACAD_REACTORS
330
17D4
102
}
330
17D4
100
AcDbXrecord
270
     1
271
     1
  0
XRECORD
  5
17D8
102
{ACAD_REACTORS
330
17D4
102
}
330
17D4
100
AcDbXrecord
270
     1
271
     1
  0
XRECORD
  5
17DA
102
{ACAD_REACTORS
330
17D4
102
}
330
17D4
100
AcDbXrecord
270
     1
271
     1
  0
XRECORD
  5
17D7
102
{ACAD_REACTORS
330
17D4
102
}
330
17D4
100
AcDbXrecord
270
     1
271
     1
  0
XRECORD
  5
1CE9
102
{ACAD_REACTORS
330
17E4
102
}
330
17E4
100
AcDbXrecord
102
MATERIAL
148
0.0
149
0.0
149
0.0
 93
        0
 94
      127
282
     0
 72
     0
 77
     0
171
     0
175
     0
179
     0
273
     0
  0
XRECORD
  5
17E6
102
{ACAD_REACTORS
330
17E4
102
}
330
17E4
100
AcDbXrecord
270
     1
271
     1
  0
XRECORD
  5
17E5
102
{ACAD_REACTORS
330
17E4
102
}
330
17E4
100
AcDbXrecord
270
     1
271
     1
  0
XRECORD
  5
17E9
102
{ACAD_REACTORS
330
17E4
102
}
330
17E4
100
AcDbXrecord
270
     1
271
     1
  0
XRECORD
  5
17E8
102
{ACAD_REACTORS
330
17E4
102
}
330
17E4
100
AcDbXrecord
270
     1
271
     1
  0
XRECORD
  5
17EA
102
{ACAD_REACTORS
330
17E4
102
}
330
17E4
100
AcDbXrecord
270
     1
271
     1
  0
XRECORD
  5
17E7
102
{ACAD_REACTORS
330
17E4
102
}
330
17E4
100
AcDbXrecord
270
     1
271
     1
  0
ACAD_PROXY_OBJECT
  5
1CD3
102
{ACAD_REACTORS
330
1836
102
}
330
1836
100
AcDbProxyObject
 90
      499
 91
      510
 93
     5304
310
40D054060020000020000003200101A000080002A5058000000C100000000000000340FD012E07A17AD46E2B8FCB81E85EB51B8AE3F2E07A17AD46E2B8FCB81E85EB51B8AE3F02B5E8DC0F42B1CFC0AD7A3703D0AC73F419019018000000C1003FBFFFFFE02B5E8DC0F42A9CFD029018000000C1003FBFFFFFE02B5E8DC0F4
310
2A9CFD049018000000C1003FBFFFFFE02B5E8DC0F42A9CFD089018000000C1003FBFFFFFE02B5E8DC0F42A9CFD109018000000C1003FBFFFFFE02B5E8DC0F42A9CFD209018000000C1003FBFFFFFE02B5E8DC0F42A9CFD01405075F5449544C450041501A8000000C800406800020000A9416000000304000AD7A3703D0AC7
310
3F404B81E85EB51B8AE3F2E07A17AD46E2B8FCB81E85EB51B8AE3F2E07A17AD46E2B8FC0AD7A3703D0AC73F02B5E8DC0F42B1CFD0640640600000030400FEFFFFFF80AD7A3703D0AA73F40A40600000030400FEFFFFFF80AD7A3703D0AA73F41240600000030400FEFFFFFF80AD7A3703D0AA73F42240600000030400FEFFF
310
FFF80AD7A3703D0AA73F44240600000030400FEFFFFFF80AD7A3703D0AA73F48240600000030400FEFFFFFF80AD7A3703D0AA73F409014217D2115051115480105406A0000003200101A000080002A5028000000C10002B5E8DC0F42B1CFD012E07A17AD46E2B8FCB81E85EB51B8AE3F2E07A17AD46E2B8FCB81E85EB51B8A
310
E3F02B5E8DC0F42B1CFC0AD7A3703D0AC73F419019018000000C1003FBFFFFFE02B5E8DC0F42A9CFD029018000000C1003FBFFFFFE02B5E8DC0F42A9CFD049018000000C1003FBFFFFFE02B5E8DC0F42A9CFD089018000000C1003FBFFFFFE02B5E8DC0F42A9CFD109018000000C1003FBFFFFFE02B5E8DC0F42A9CFD20901
310
8000000C1003FBFFFFFE02B5E8DC0F42A9CFD03409065F444154410096
340
16
340
0
340
0
340
0
340
0
340
0
340
0
340
16
340
0
340
0
340
0
340
0
340
0
340
0
340
16
340
0
340
0
340
0
340
0
340
0
340
0
 94
        0
1001
ACAD
1000
AcadProxyRoundTripData
1071
      509
1071
   655383
1070
     0
  0
XRECORD
  5
1CEA
102
{ACAD_REACTORS
330
1836
102
}
330
1836
100
AcDbXrecord
102
ACAD_ROUNDTRIP_PRE2007_TABLESTYLE
 90
      512
 91
        0
  1

 92
      512
 93
        0
  2

 94
      512
 95
        0
  3

  0
ENDSEC
  0
EOF
