  0
SECTION
  2
HEADER
  9
$ACADVER
  1
AC1014
  9
$ACADMAINTVER
 70
     9
  9
$DWGCODEPAGE
  3
ANSI_932
  9
$INSBASE
 10
0.0
 20
0.0
 30
0.0
  9
$EXTMIN
 10
39.86245855529102
 20
66.36044165221353
 30
0.0
  9
$EXTMAX
 10
983.2816526068357
 20
677.0985460614338
 30
0.0
  9
$LIMMIN
 10
0.0
 20
0.0
  9
$LIMMAX
 10
297.0
 20
210.0
  9
$ORTHOMODE
 70
     1
  9
$REGENMODE
 70
     1
  9
$FILLMODE
 70
     1
  9
$QTEXTMODE
 70
     0
  9
$MIRRTEXT
 70
     0
  9
$DRAGMODE
 70
     2
  9
$LTSCALE
 40
3.0
  9
$OSMODE
 70
    37
  9
$ATTMODE
 70
     1
  9
$TEXTSIZE
 40
2.0
  9
$TRACEWID
 40
1.0
  9
$TEXTSTYLE
  7
STANDARD
  9
$CLAYER
  8
0
  9
$CELTYPE
  6
BYLAYER
  9
$CECOLOR
 62
   256
  9
$CELTSCALE
 40
1.0
  9
$DELOBJ
 70
     1
  9
$DISPSILH
 70
     0
  9
$DIMSCALE
 40
3.0
  9
$DIMASZ
 40
1.8
  9
$DIMEXO
 40
0.625
  9
$DIMDLI
 40
3.75
  9
$DIMRND
 40
0.0
  9
$DIMDLE
 40
0.0
  9
$DIMEXE
 40
0.8
  9
$DIMTP
 40
0.0
  9
$DIMTM
 40
0.0
  9
$DIMTXT
 40
1.8
  9
$DIMCEN
 40
2.5
  9
$DIMTSZ
 40
0.0
  9
$DIMTOL
 70
     0
  9
$DIMLIM
 70
     0
  9
$DIMTIH
 70
     0
  9
$DIMTOH
 70
     0
  9
$DIMSE1
 70
     0
  9
$DIMSE2
 70
     0
  9
$DIMTAD
 70
     1
  9
$DIMZIN
 70
     8
  9
$DIMBLK
  1

  9
$DIMASO
 70
     1
  9
$DIMSHO
 70
     1
  9
$DIMPOST
  1

  9
$DIMAPOST
  1

  9
$DIMALT
 70
     0
  9
$DIMALTD
 70
     4
  9
$DIMALTF
 40
0.0394
  9
$DIMLFAC
 40
1.0
  9
$DIMTOFL
 70
     1
  9
$DIMTVP
 40
0.0
  9
$DIMTIX
 70
     0
  9
$DIMSOXD
 70
     0
  9
$DIMSAH
 70
     0
  9
$DIMBLK1
  1

  9
$DIMBLK2
  1

  9
$DIMSTYLE
  2
STANDARD
  9
$DIMCLRD
 70
     0
  9
$DIMCLRE
 70
     0
  9
$DIMCLRT
 70
     0
  9
$DIMTFAC
 40
1.0
  9
$DIMGAP
 40
0.75
  9
$DIMJUST
 70
     0
  9
$DIMSD1
 70
     0
  9
$DIMSD2
 70
     0
  9
$DIMTOLJ
 70
     1
  9
$DIMTZIN
 70
     0
  9
$DIMALTZ
 70
     0
  9
$DIMALTTZ
 70
     0
  9
$DIMFIT
 70
     3
  9
$DIMUPT
 70
     0
  9
$DIMUNIT
 70
     8
  9
$DIMDEC
 70
     2
  9
$DIMTDEC
 70
     2
  9
$DIMALTU
 70
     8
  9
$DIMALTTD
 70
     4
  9
$DIMTXSTY
  7
STANDARD
  9
$DIMAUNIT
 70
     0
  9
$LUNITS
 70
     2
  9
$LUPREC
 70
     3
  9
$SKETCHINC
 40
1.0
  9
$FILLETRAD
 40
10.0
  9
$AUNITS
 70
     0
  9
$AUPREC
 70
     2
  9
$MENU
  1
.
  9
$ELEVATION
 40
0.0
  9
$PELEVATION
 40
0.0
  9
$THICKNESS
 40
0.0
  9
$LIMCHECK
 70
     0
  9
$BLIPMODE
 70
     0
  9
$CHAMFERA
 40
0.0
  9
$CHAMFERB
 40
0.0
  9
$CHAMFERC
 40
20.0
  9
$CHAMFERD
 40
0.0
  9
$SKPOLY
 70
     0
  9
$TDCREATE
 40
2454410.733051747
  9
$TDUPDATE
 40
2454425.686150173
  9
$TDINDWG
 40
0.0175830093
  9
$TDUSRTIMER
 40
0.0175828356
  9
$USRTIMER
 70
     1
  9
$ANGBASE
 50
0.0
  9
$ANGDIR
 70
     0
  9
$PDMODE
 70
     0
  9
$PDSIZE
 40
-10.0
  9
$PLINEWID
 40
0.0
  9
$COORDS
 70
     0
  9
$SPLFRAME
 70
     0
  9
$SPLINETYPE
 70
     6
  9
$SPLINESEGS
 70
     8
  9
$ATTDIA
 70
     0
  9
$ATTREQ
 70
     1
  9
$HANDLING
 70
-16383
  9
$HANDSEED
  5
1EBF
  9
$SURFTAB1
 70
     6
  9
$SURFTAB2
 70
     6
  9
$SURFTYPE
 70
     6
  9
$SURFU
 70
     6
  9
$SURFV
 70
     6
  9
$UCSNAME
  2

  9
$UCSORG
 10
0.0
 20
0.0
 30
0.0
  9
$UCSXDIR
 10
1.0
 20
0.0
 30
0.0
  9
$UCSYDIR
 10
0.0
 20
1.0
 30
0.0
  9
$PUCSNAME
  2

  9
$PUCSORG
 10
0.0
 20
0.0
 30
0.0
  9
$PUCSXDIR
 10
1.0
 20
0.0
 30
0.0
  9
$PUCSYDIR
 10
0.0
 20
1.0
 30
0.0
  9
$USERI1
 70
     0
  9
$USERI2
 70
     0
  9
$USERI3
 70
     0
  9
$USERI4
 70
     0
  9
$USERI5
 70
     0
  9
$USERR1
 40
0.0
  9
$USERR2
 40
0.0
  9
$USERR3
 40
0.0
  9
$USERR4
 40
0.0
  9
$USERR5
 40
0.0
  9
$WORLDVIEW
 70
     1
  9
$SHADEDGE
 70
     3
  9
$SHADEDIF
 70
    70
  9
$TILEMODE
 70
     1
  9
$MAXACTVP
 70
    48
  9
$PINSBASE
 10
0.0
 20
0.0
 30
0.0
  9
$PLIMCHECK
 70
     0
  9
$PEXTMIN
 10
0.0
 20
0.0
 30
0.0
  9
$PEXTMAX
 10
0.0
 20
0.0
 30
0.0
  9
$PLIMMIN
 10
0.0
 20
0.0
  9
$PLIMMAX
 10
12.0
 20
9.0
  9
$UNITMODE
 70
     0
  9
$VISRETAIN
 70
     1
  9
$PLINEGEN
 70
     0
  9
$PSLTSCALE
 70
     1
  9
$TREEDEPTH
 70
  3020
  9
$PICKSTYLE
 70
     1
  9
$CMLSTYLE
  2
STANDARD
  9
$CMLJUST
 70
     0
  9
$CMLSCALE
 40
1.0
  9
$PROXYGRAPHICS
 70
     1
  9
$MEASUREMENT
 70
     0
  0
ENDSEC
  0
SECTION
  2
CLASSES
  0
CLASS
  1
DICTIONARYVAR
  2
AcDbDictionaryVar
  3
AutoCAD 2000
 90
        0
280
     0
281
     0
  0
CLASS
  1
ACDBDICTIONARYWDFLT
  2
AcDbDictionaryWithDefault
  3
AutoCAD 2000
 90
        0
280
     0
281
     0
  0
CLASS
  1
ACDBPLACEHOLDER
  2
AcDbPlaceHolder
  3
AutoCAD 2000
 90
        0
280
     0
281
     0
  0
CLASS
  1
LAYOUT
  2
AcDbLayout
  3
AutoCAD 2000
 90
        0
280
     0
281
     0
  0
CLASS
  1
MATERIAL
  2
AcDbMaterial
  3
ObjectDBX Classes
 90
     1153
280
     0
281
     0
  0
CLASS
  1
VISUALSTYLE
  2
AcDbVisualStyle
  3
ObjectDBX Classes
 90
     4095
280
     0
281
     0
  0
CLASS
  1
TABLESTYLE
  2
AcDbTableStyle
  3
ObjectDBX Classes
 90
     4095
280
     0
281
     0
  0
CLASS
  1
SCALE
  2
AcDbScale
  3
ObjectDBX Classes
 90
     1153
280
     0
281
     0
  0
CLASS
  1
MLEADERSTYLE
  2
AcDbMLeaderStyle
  3
ACDB_MLEADERSTYLE_CLASS
 90
     4095
280
     0
281
     0
  0
CLASS
  1
CELLSTYLEMAP
  2
AcDbCellStyleMap
  3
ObjectDBX Classes
 90
     1152
280
     0
281
     0
  0
CLASS
  1
ACAD_PROXY_OBJECT_WRAPPER
  2
AcDbProxyObjectWrapper
  3
AutoCAD 2000
 90
        0
280
     0
281
     0
  0
CLASS
  1
LONG_TRANSACTION
  2
AcDbLongTransaction
  3
AutoCAD 2000
 90
        0
280
     0
281
     0
  0
CLASS
  1
LWPOLYLINE
  2
AcDbPolyline
  3
AutoCAD 2000
 90
        0
280
     0
281
     1
  0
CLASS
  1
HATCH
  2
AcDbHatch
  3
AutoCAD 2000
 90
        0
280
     0
281
     1
  0
CLASS
  1
XRECORD
  2
AcDbXrecord
  3
AutoCAD 2000
 90
        0
280
     0
281
     0
  0
ENDSEC
  0
SECTION
  2
TABLES
  0
TABLE
  2
VPORT
  5
6E
102
{ACAD_XDICTIONARY
360
1E13
102
}
330
0
100
AcDbSymbolTable
 70
     2
  0
VPORT
  5
1E99
330
6E
100
AcDbSymbolTableRecord
100
AcDbViewportTableRecord
  2
*ACTIVE
 70
     0
 10
0.0
 20
0.0
 11
1.0
 21
1.0
 12
581.9417965759677
 22
356.0261538559044
 13
0.0
 23
0.0
 14
10.0
 24
10.0
 15
10.0
 25
10.0
 16
0.0
 26
0.0
 36
1.0
 17
0.0
 27
0.0
 37
0.0
 40
647.1485211252652
 41
1.753504672897196
 42
50.0
 43
0.0
 44
0.0
 50
0.0
 51
0.0
 71
     0
 72
   100
 73
     1
 74
     3
 75
     0
 76
     0
 77
     0
 78
     0
  0
ENDTAB
  0
TABLE
  2
LTYPE
  5
69
330
0
100
AcDbSymbolTable
 70
     8
  0
LTYPE
  5
6A
330
69
100
AcDbSymbolTableRecord
100
AcDbLinetypeTableRecord
  2
BYBLOCK
 70
     0
  3

 72
    65
 73
     0
 40
0.0
  0
LTYPE
  5
6B
330
69
100
AcDbSymbolTableRecord
100
AcDbLinetypeTableRecord
  2
BYLAYER
 70
     0
  3

 72
    65
 73
     0
 40
0.0
  0
LTYPE
  5
8
330
69
100
AcDbSymbolTableRecord
100
AcDbLinetypeTableRecord
  2
CONTINUOUS
 70
     0
  3
Solid line
 72
    65
 73
     0
 40
0.0
  0
LTYPE
  5
27C
330
69
100
AcDbSymbolTableRecord
100
AcDbLinetypeTableRecord
  2
SEKKEI_A2_
 70
     0
  3
center(A2)  ____ _ ____ _ ____ _ ____ _ ____ _ 
 72
    65
 73
     4
 40
14.28749999999999
 49
9.525
 74
     0
 49
-1.587499999999999
 74
     0
 49
1.587499999999999
 74
     0
 49
-1.587499999999999
 74
     0
  0
LTYPE
  5
48F
330
69
100
AcDbSymbolTableRecord
100
AcDbLinetypeTableRecord
  2
SEKKEI_H
 70
     0
  3
Hidden-S _ _ _ _ _ _ _ _ _ _ _ _ _ _ _ _ _
 72
    65
 73
     2
 40
2.381249999999999
 49
1.587499999999999
 74
     0
 49
-0.79375
 74
     0
  0
LTYPE
  5
7F0
330
69
100
AcDbSymbolTableRecord
100
AcDbLinetypeTableRecord
  2
HIDDEN3
 70
     0
  3
Hidden (.3x) _ _ _ _ _ _ _ _ _ _ _ _ _ _ _ _ _
 72
    65
 73
     2
 40
2.857499999999999
 49
1.905
 74
     0
 49
-0.9525
 74
     0
  0
LTYPE
  5
ADA
330
69
100
AcDbSymbolTableRecord
100
AcDbLinetypeTableRecord
  2
CENS
 70
     0
  3
(一点鎖線１)---- - ---- - ---- - ---- - ---- - 
 72
    65
 73
     4
 40
7.0
 49
4.0
 74
     0
 49
-1.0
 74
     0
 49
1.0
 74
     0
 49
-1.0
 74
     0
  0
LTYPE
  5
194D
330
69
100
AcDbSymbolTableRecord
100
AcDbLinetypeTableRecord
  2
SEKKEI-P_A4_
 70
     0
  3
Phantom(A4)  ____ _ _ ____ _ _ ____ _ _ _____
 72
    65
 73
     6
 40
15.0
 49
7.5
 74
     0
 49
-1.5
 74
     0
 49
1.5
 74
     0
 49
-1.5
 74
     0
 49
1.5
 74
     0
 49
-1.5
 74
     0
  0
LTYPE
  5
194E
330
69
100
AcDbSymbolTableRecord
100
AcDbLinetypeTableRecord
  2
SEKKEI_P_S
 70
     0
  3
Phantom_S   __ _ _ __ _ _ __ _ _ ___
 72
    65
 73
     6
 40
7.5
 49
3.75
 74
     0
 49
-0.75
 74
     0
 49
0.75
 74
     0
 49
-0.75
 74
     0
 49
0.75
 74
     0
 49
-0.75
 74
     0
  0
ENDTAB
  0
TABLE
  2
LAYER
  5
66
102
{ACAD_XDICTIONARY
360
ADB
102
}
330
0
100
AcDbSymbolTable
 70
    10
  0
LAYER
  5
5E
102
{ACAD_XDICTIONARY
360
1DAD
102
}
330
66
100
AcDbSymbolTableRecord
100
AcDbLayerTableRecord
  2
0
 70
     0
 62
     7
  6
CONTINUOUS
  0
LAYER
  5
3E
102
{ACAD_XDICTIONARY
360
1DAF
102
}
330
66
100
AcDbSymbolTableRecord
100
AcDbLayerTableRecord
  2
CENTER
 70
     0
 62
     3
  6
SEKKEI_A2_
  0
LAYER
  5
2B5
102
{ACAD_XDICTIONARY
360
1DB5
102
}
330
66
100
AcDbSymbolTableRecord
100
AcDbLayerTableRecord
  2
HIDS
 70
     0
 62
     1
  6
HIDDEN3
  0
LAYER
  5
2BA
102
{ACAD_XDICTIONARY
360
1DB7
102
}
330
66
100
AcDbSymbolTableRecord
100
AcDbLayerTableRecord
  2
HOJO
 70
     0
 62
     4
  6
CONTINUOUS
  0
LAYER
  5
3FA
102
{ACAD_XDICTIONARY
360
1DBB
102
}
330
66
100
AcDbSymbolTableRecord
100
AcDbLayerTableRecord
  2
TITLE
 70
     0
 62
     4
  6
CONTINUOUS
  0
LAYER
  5
194F
102
{ACAD_XDICTIONARY
360
1950
102
}
330
66
100
AcDbSymbolTableRecord
100
AcDbLayerTableRecord
  2
PHAS
 70
     0
 62
     2
  6
SEKKEI-P_A4_
  0
ENDTAB
  0
TABLE
  2
STYLE
  5
67
330
0
100
AcDbSymbolTable
 70
     2
  0
STYLE
  5
16
330
67
100
AcDbSymbolTableRecord
100
AcDbTextStyleTableRecord
  2
STANDARD
 70
     0
 40
0.0
 41
1.0
 50
0.0
 71
     0
 42
2.0
  3
simplex.shx
  4
extfont.shx
  0
ENDTAB
  0
TABLE
  2
VIEW
  5
6C
330
0
100
AcDbSymbolTable
 70
     0
  0
ENDTAB
  0
TABLE
  2
UCS
  5
6D
330
0
100
AcDbSymbolTable
 70
     0
  0
ENDTAB
  0
TABLE
  2
APPID
  5
70
330
0
100
AcDbSymbolTable
 70
     3
  0
APPID
  5
71
330
70
100
AcDbSymbolTableRecord
100
AcDbRegAppTableRecord
  2
ACAD
 70
     0
  0
APPID
  5
1DAA
330
70
100
AcDbSymbolTableRecord
100
AcDbRegAppTableRecord
  2
ACAD_MLEADERVER
 70
     0
  0
APPID
  5
1DE2
330
70
100
AcDbSymbolTableRecord
100
AcDbRegAppTableRecord
  2
ACAD_DSTYLE_DIMRADIAL_EXTENSION
 70
     0
  0
ENDTAB
  0
TABLE
  2
DIMSTYLE
  5
72
330
0
100
AcDbSymbolTable
 70
     1
  0
DIMSTYLE
105
73
330
72
100
AcDbSymbolTableRecord
100
AcDbDimStyleTableRecord
  2
STANDARD
 70
     0
  3

  4

  5

  6

  7

 40
3.0
 41
1.8
 42
0.625
 43
3.75
 44
0.8
 45
0.0
 46
0.0
 47
0.0
 48
0.0
140
1.8
141
2.5
142
0.0
143
0.0394
144
1.0
145
0.0
146
1.0
147
0.75
 71
     0
 72
     0
 73
     0
 74
     0
 75
     0
 76
     0
 77
     1
 78
     8
170
     0
171
     4
172
     1
173
     0
174
     0
175
     0
176
     0
177
     0
178
     0
270
     8
271
     2
272
     2
273
     8
274
     4
340
16
275
     0
280
     0
281
     0
282
     0
283
     1
284
     0
285
     0
286
     0
287
     3
288
     0
  0
ENDTAB
  0
TABLE
  2
BLOCK_RECORD
  5
1
330
0
100
AcDbSymbolTable
 70
    55
  0
BLOCK_RECORD
  5
2
102
{ACAD_XDICTIONARY
360
1EBB
102
}
330
1
100
AcDbSymbolTableRecord
100
AcDbBlockTableRecord
  2
*MODEL_SPACE
  0
BLOCK_RECORD
  5
1E94
102
{ACAD_XDICTIONARY
360
1EBD
102
}
330
1
100
AcDbSymbolTableRecord
100
AcDbBlockTableRecord
  2
*PAPER_SPACE
  0
ENDTAB
  0
ENDSEC
  0
SECTION
  2
BLOCKS
  0
BLOCK
  5
5D
330
2
100
AcDbEntity
  8
0
100
AcDbBlockBegin
  2
*MODEL_SPACE
 70
     0
 10
0.0
 20
0.0
 30
0.0
  3
*MODEL_SPACE
  1

  0
ENDBLK
  5
5F
330
2
100
AcDbEntity
  8
0
100
AcDbBlockEnd
  0
BLOCK
  5
1E96
330
1E94
100
AcDbEntity
 67
     1
  8
0
100
AcDbBlockBegin
  2
*PAPER_SPACE
 70
     0
 10
0.0
 20
0.0
 30
0.0
  3
*PAPER_SPACE
  1

  0
ENDBLK
  5
1E97
330
1E94
100
AcDbEntity
 67
     1
  8
0
100
AcDbBlockEnd
  0
ENDSEC
  0
SECTION
  2
ENTITIES
  0
TEXT
  5
F02
330
2
100
AcDbEntity
  8
TITLE
100
AcDbText
 10
283.570275656362
 20
623.0380733659716
 30
0.0
 40
7.5
  1
AFCZ18S-3~5M750S4
100
AcDbText
  0
TEXT
  5
F03
330
2
100
AcDbEntity
  8
TITLE
100
AcDbText
 10
283.570275656362
 20
611.5380733659716
 30
0.0
 40
7.5
  1
AFCZ18S-3~5L750S4
100
AcDbText
  0
LINE
  5
F05
330
2
100
AcDbEntity
  8
CENTER
100
AcDbLine
 10
983.2816526068357
 20
347.2012869893351
 30
0.0
 11
844.2816610608755
 21
347.2012869893351
 31
0.0
  0
LINE
  5
F06
330
2
100
AcDbEntity
  8
CENTER
100
AcDbLine
 10
928.2816610608792
 20
398.7012869893502
 30
0.0
 11
928.2816610608792
 21
295.7012869893511
 31
0.0
  0
LINE
  5
F07
330
2
100
AcDbEntity
  8
0
100
AcDbLine
 10
885.2816610608755
 20
387.6165868473691
 30
0.0
 11
885.2816610608737
 21
306.7859871313044
 31
0.0
  0
LINE
  5
F08
330
2
100
AcDbEntity
  8
0
100
AcDbLine
 10
880.2816610608765
 20
382.2012869893301
 30
0.0
 11
880.2816610608765
 21
312.2012869893302
 31
0.0
  0
LINE
  5
F09
330
2
100
AcDbEntity
  8
0
100
AcDbLine
 10
878.3514600542815
 20
375.5878528882981
 30
0.0
 11
869.2118620674722
 21
375.2686910937541
 31
0.0
  0
ARC
  5
F0A
330
2
100
AcDbEntity
  8
0
100
AcDbCircle
 10
878.2816610608763
 20
377.586634542336
 30
0.0
 40
2.0
100
AcDbArc
 50
272.0000000000036
 51
0.0
  0
LINE
  5
F0B
330
2
100
AcDbEntity
  8
0
100
AcDbLine
 10
867.2816610608782
 20
373.2699094397153
 30
0.0
 11
867.2816610608764
 21
321.132664538945
 31
0.0
  0
ARC
  5
F0C
330
2
100
AcDbEntity
  8
0
100
AcDbCircle
 10
869.2816610608764
 20
373.2699094397153
 30
0.0
 40
2.0
100
AcDbArc
 50
92.00000000000365
 51
180.0
  0
ARC
  5
F0D
330
2
100
AcDbEntity
  8
0
100
AcDbCircle
 10
869.2816610608764
 20
321.132664538945
 30
0.0
 40
2.0
100
AcDbArc
 50
180.0
 51
267.9999999999963
  0
LINE
  5
F0E
330
2
100
AcDbEntity
  8
0
100
AcDbLine
 10
878.3514600542815
 20
318.8147210903612
 30
0.0
 11
869.2118620674714
 21
319.1338828849062
 31
0.0
  0
ARC
  5
F0F
330
2
100
AcDbEntity
  8
0
100
AcDbCircle
 10
878.2816610608763
 20
316.8159394363224
 30
0.0
 40
2.0
100
AcDbArc
 50
0.0
 51
87.99999999999636
  0
LINE
  5
F10
330
2
100
AcDbEntity
  8
0
100
AcDbLine
 10
964.3426321369629
 20
306.1410549293037
 30
0.0
 11
928.2816610608783
 21
305.7012869893511
 31
0.0
  0
LINE
  5
F11
330
2
100
AcDbEntity
  8
0
100
AcDbLine
 10
892.2206899847928
 20
306.1410549293055
 30
0.0
 11
928.2816610608774
 21
305.7012869893511
 31
0.0
  0
LINE
  5
F12
330
2
100
AcDbEntity
  8
0
100
AcDbLine
 10
892.2206899847928
 20
388.2615190493966
 30
0.0
 11
904.4689368900511
 21
388.4108879140952
 31
0.0
  0
ARC
  5
F13
330
2
100
AcDbEntity
  8
0
100
AcDbCircle
 10
964.2816610608782
 20
383.261890810431
 30
0.0
 40
5.0
100
AcDbArc
 50
44.50893050066365
 51
89.30130561700025
  0
ARC
  5
F14
330
2
100
AcDbEntity
  8
0
100
AcDbCircle
 10
892.2816610608782
 20
383.2618908104291
 30
0.0
 40
5.0
100
AcDbArc
 50
90.69869438299972
 51
135.4910694995568
  0
ARC
  5
F15
330
2
100
AcDbEntity
  8
0
100
AcDbCircle
 10
892.2816610608782
 20
311.140683168273
 30
0.0
 40
5.0
100
AcDbArc
 50
224.5089305156156
 51
269.3013056170002
  0
ARC
  5
F16
330
2
100
AcDbEntity
  8
0
100
AcDbCircle
 10
964.2816610608782
 20
311.1406831682712
 30
0.0
 40
5.0
100
AcDbArc
 50
270.6986943829997
 51
315.4910694841727
  0
LINE
  5
F17
330
2
100
AcDbEntity
  8
0
100
AcDbLine
 10
964.3426321369629
 20
388.2615190493984
 30
0.0
 11
928.2816610608783
 21
388.7012869893501
 31
0.0
  0
LINE
  5
F18
330
2
100
AcDbEntity
  8
0
100
AcDbLine
 10
889.897511572531
 20
306.7457052141513
 30
0.0
 11
885.2816610608737
 21
306.7859871313044
 31
0.0
  0
LINE
  5
F19
330
2
100
AcDbEntity
  8
0
100
AcDbLine
 10
889.8975115724855
 20
387.6568687645254
 30
0.0
 11
885.2816610608755
 21
387.6165868473691
 31
0.0
  0
LINE
  5
F1A
330
2
100
AcDbEntity
  8
0
100
AcDbLine
 10
885.2816610608764
 20
382.2012869893301
 30
0.0
 11
880.2816610608765
 21
382.2012869893301
 31
0.0
  0
LINE
  5
F1B
330
2
100
AcDbEntity
  8
0
100
AcDbLine
 10
885.2816610608764
 20
312.2012869893302
 30
0.0
 11
880.2816610608765
 21
312.2012869893302
 31
0.0
  0
LINE
  5
F1C
330
2
100
AcDbEntity
  8
0
100
AcDbLine
 10
970.281661060871
 20
373.7012869893333
 30
0.0
 11
969.4584903291692
 21
373.7012869893333
 31
0.0
  0
LINE
  5
F1D
330
2
100
AcDbEntity
  8
0
100
AcDbLine
 10
970.2816610608701
 20
373.7012869893333
 30
0.0
 11
971.281661060871
 21
373.1239367201438
 31
0.0
  0
LINE
  5
F1E
330
2
100
AcDbEntity
  8
0
100
AcDbLine
 10
971.2816610608745
 20
321.2786372585233
 30
0.0
 11
971.2816610608745
 21
373.1239367201411
 31
0.0
  0
LINE
  5
F1F
330
2
100
AcDbEntity
  8
0
100
AcDbLine
 10
970.2816610608701
 20
320.7012869893315
 30
0.0
 11
971.281661060871
 21
321.2786372585215
 31
0.0
  0
LINE
  5
F20
330
2
100
AcDbEntity
  8
0
100
AcDbLine
 10
970.281661060871
 20
320.7012869893315
 30
0.0
 11
969.4584903291692
 21
320.7012869893318
 31
0.0
  0
LINE
  5
F21
330
2
100
AcDbEntity
  8
0
100
AcDbLine
 10
970.281661060871
 20
320.7012869893315
 30
0.0
 11
970.2816610608701
 21
373.7012869893333
 31
0.0
  0
LINE
  5
F22
330
2
100
AcDbEntity
  8
0
100
AcDbLine
 10
973.2816526068358
 20
361.6983334183424
 30
0.0
 11
973.2816526068358
 21
332.6983334183424
 31
0.0
  0
LINE
  5
F23
330
2
100
AcDbEntity
  8
0
100
AcDbLine
 10
854.2816610608754
 20
361.7012409893355
 30
0.0
 11
854.2816610608754
 21
332.701240989335
 31
0.0
  0
LINE
  5
F24
330
2
100
AcDbEntity
  8
0
100
AcDbLine
 10
867.2816610608764
 20
332.701240989335
 30
0.0
 11
854.2816610608754
 21
332.701240989335
 31
0.0
  0
LINE
  5
F25
330
2
100
AcDbEntity
  8
0
100
AcDbLine
 10
971.2816610608783
 20
332.6983334183424
 30
0.0
 11
973.2816526068358
 21
332.6983334183424
 31
0.0
  0
LINE
  5
F26
330
2
100
AcDbEntity
  8
0
100
AcDbLine
 10
867.2816610608746
 20
361.7012409893355
 30
0.0
 11
854.2816610608754
 21
361.7012409893355
 31
0.0
  0
LINE
  5
F27
330
2
100
AcDbEntity
  8
0
100
AcDbLine
 10
971.2816610608783
 20
361.6983334183424
 30
0.0
 11
973.2816526068358
 21
361.6983334183424
 31
0.0
  0
LINE
  5
F2F
330
2
100
AcDbEntity
  8
CENTER
100
AcDbLine
 10
189.862458555291
 20
296.2012869893515
 30
0.0
 11
189.862458555291
 21
398.2012869893515
 31
0.0
  0
LINE
  5
F30
330
2
100
AcDbEntity
  8
CENTER
100
AcDbLine
 10
240.862458555291
 20
347.2012869893483
 30
0.0
 11
39.86245855529102
 21
347.2012869893483
 31
0.0
  0
LINE
  5
F31
330
2
100
AcDbEntity
  8
CENTER
100
AcDbLine
 10
616.0687054186386
 20
391.6865683635874
 30
0.0
 11
527.0981426701613
 21
302.7160056151106
 31
0.0
  0
LINE
  5
F32
330
2
100
AcDbEntity
  8
CENTER
100
AcDbLine
 10
527.0981426701622
 20
391.6865683635861
 30
0.0
 11
616.0687054186395
 21
302.7160056151083
 31
0.0
  0
LINE
  5
F33
330
2
100
AcDbEntity
  8
CENTER
100
AcDbLine
 10
571.5834240443995
 20
677.0985460614338
 30
0.0
 11
571.5834240443995
 21
538.0985545154739
 31
0.0
  0
LINE
  5
F34
330
2
100
AcDbEntity
  8
CENTER
100
AcDbLine
 10
520.7885054374586
 20
622.0985545154771
 30
0.0
 11
721.5834240400294
 21
622.0985545154783
 31
0.0
  0
CIRCLE
  5
F35
330
2
100
AcDbEntity
  8
CENTER
100
AcDbCircle
 10
571.5834240444013
 20
347.2012869893483
 30
0.0
 40
48.99999999999932
  0
LINE
  5
F36
330
2
100
AcDbEntity
  8
CENTER
100
AcDbLine
 10
543.935191766261
 20
381.8495192674882
 30
0.0
 11
529.935191766261
 21
381.8495192674882
 31
0.0
  0
LINE
  5
F37
330
2
100
AcDbEntity
  8
CENTER
100
AcDbLine
 10
536.9351917662601
 20
388.8495192674886
 30
0.0
 11
536.9351917662601
 21
374.8495192674886
 31
0.0
  0
LINE
  5
F38
330
2
100
AcDbEntity
  8
CENTER
100
AcDbLine
 10
543.935191766261
 20
312.5530547112085
 30
0.0
 11
529.935191766261
 21
312.5530547112085
 31
0.0
  0
LINE
  5
F39
330
2
100
AcDbEntity
  8
CENTER
100
AcDbLine
 10
536.9351917662601
 20
319.5530547112071
 30
0.0
 11
536.9351917662601
 21
305.5530547112071
 31
0.0
  0
LINE
  5
F3A
330
2
100
AcDbEntity
  8
CENTER
100
AcDbLine
 10
613.2316563225425
 20
312.5530547112121
 30
0.0
 11
599.2316563225426
 21
312.5530547112121
 31
0.0
  0
LINE
  5
F3B
330
2
100
AcDbEntity
  8
CENTER
100
AcDbLine
 10
606.2316563225425
 20
319.5530547112071
 30
0.0
 11
606.2316563225425
 21
305.5530547112071
 31
0.0
  0
LINE
  5
F3C
330
2
100
AcDbEntity
  8
CENTER
100
AcDbLine
 10
613.2316563225425
 20
381.8495192674896
 30
0.0
 11
599.2316563225426
 21
381.8495192674896
 31
0.0
  0
LINE
  5
F3D
330
2
100
AcDbEntity
  8
CENTER
100
AcDbLine
 10
606.2316563225407
 20
388.8495192674886
 30
0.0
 11
606.2316563225407
 21
374.8495192674886
 31
0.0
  0
LINE
  5
F3E
330
2
100
AcDbEntity
  8
0
100
AcDbLine
 10
639.5834240443995
 20
314.2012869894652
 30
0.0
 11
634.0834240444049
 21
314.2012869894652
 31
0.0
  0
LINE
  5
F3F
330
2
100
AcDbEntity
  8
0
100
AcDbLine
 10
639.5834240443995
 20
380.2012869892306
 30
0.0
 11
634.0834240444049
 21
380.2012869892306
 31
0.0
  0
CIRCLE
  5
F40
330
2
100
AcDbEntity
  8
0
100
AcDbCircle
 10
571.5834240444013
 20
347.2012869893479
 30
0.0
 40
23.0
  0
CIRCLE
  5
F41
330
2
100
AcDbEntity
  8
0
100
AcDbCircle
 10
571.5834240444013
 20
347.2012869893479
 30
0.0
 40
27.99999999999875
  0
CIRCLE
  5
F42
330
2
100
AcDbEntity
  8
0
100
AcDbCircle
 10
571.5834240444013
 20
347.2012869893479
 30
0.0
 40
35.00000000000011
  0
LINE
  5
F43
330
2
100
AcDbEntity
  8
0
100
AcDbLine
 10
612.5834240444013
 20
383.2012869893479
 30
0.0
 11
612.5834240444013
 21
311.2012869893479
 31
0.0
  0
CIRCLE
  5
F44
330
2
100
AcDbEntity
  8
HOJO
100
AcDbCircle
 10
536.935191766261
 20
312.5530547112071
 30
0.0
 40
3.0
  0
CIRCLE
  5
F45
330
2
100
AcDbEntity
  8
0
100
AcDbCircle
 10
536.935191766261
 20
312.5530547112071
 30
0.0
 40
2.399999999999999
  0
CIRCLE
  5
F46
330
2
100
AcDbEntity
  8
HOJO
100
AcDbCircle
 10
606.2316563225425
 20
312.5530547112071
 30
0.0
 40
3.0
  0
CIRCLE
  5
F47
330
2
100
AcDbEntity
  8
0
100
AcDbCircle
 10
606.2316563225425
 20
312.5530547112071
 30
0.0
 40
2.399999999999999
  0
CIRCLE
  5
F48
330
2
100
AcDbEntity
  8
0
100
AcDbCircle
 10
536.935191766261
 20
381.8495192674887
 30
0.0
 40
2.399999999999999
  0
CIRCLE
  5
F49
330
2
100
AcDbEntity
  8
HOJO
100
AcDbCircle
 10
536.935191766261
 20
381.8495192674887
 30
0.0
 40
3.0
  0
ARC
  5
F4A
330
2
100
AcDbEntity
  8
0
100
AcDbCircle
 10
535.5834240444013
 20
383.2012869893479
 30
0.0
 40
5.0
100
AcDbArc
 50
90.0
 51
180.0
  0
CIRCLE
  5
F4B
330
2
100
AcDbEntity
  8
HOJO
100
AcDbCircle
 10
606.2316563225425
 20
381.8495192674887
 30
0.0
 40
3.0
  0
CIRCLE
  5
F4C
330
2
100
AcDbEntity
  8
0
100
AcDbCircle
 10
606.2316563225425
 20
381.8495192674887
 30
0.0
 40
2.399999999999999
  0
LINE
  5
F4D
330
2
100
AcDbEntity
  8
0
100
AcDbLine
 10
656.5834240443995
 20
388.7012869893479
 30
0.0
 11
656.5834240443995
 21
305.7012869893479
 31
0.0
  0
LINE
  5
F4E
330
2
100
AcDbEntity
  8
0
100
AcDbLine
 10
644.5834240443995
 20
386.7012869893479
 30
0.0
 11
644.5834240444022
 21
307.7012869893479
 31
0.0
  0
ARC
  5
F4F
330
2
100
AcDbEntity
  8
0
100
AcDbCircle
 10
639.5834240443995
 20
309.2012869894652
 30
0.0
 40
5.0
100
AcDbArc
 50
0.0
 51
90.0
  0
LINE
  5
F50
330
2
100
AcDbEntity
  8
0
100
AcDbLine
 10
656.5834240443995
 20
306.2012869893479
 30
0.0
 11
646.5834240444022
 21
306.2012869893479
 31
0.0
  0
ARC
  5
F51
330
2
100
AcDbEntity
  8
0
100
AcDbCircle
 10
646.5834240444022
 20
308.2012869893479
 30
0.0
 40
2.0
100
AcDbArc
 50
180.0
 51
270.0
  0
ARC
  5
F52
330
2
100
AcDbEntity
  8
0
100
AcDbCircle
 10
639.5834240443995
 20
385.2012869892305
 30
0.0
 40
5.0
100
AcDbArc
 50
270.0
 51
0.0
  0
LINE
  5
F53
330
2
100
AcDbEntity
  8
0
100
AcDbLine
 10
646.5834240443995
 20
388.2012869893479
 30
0.0
 11
656.5834240443995
 21
388.2012869893479
 31
0.0
  0
ARC
  5
F54
330
2
100
AcDbEntity
  8
0
100
AcDbCircle
 10
646.5834240443995
 20
386.2012869893479
 30
0.0
 40
2.0
100
AcDbArc
 50
90.0
 51
180.0
  0
LINE
  5
F55
330
2
100
AcDbEntity
  8
0
100
AcDbLine
 10
148.862458555291
 20
311.2012869893479
 30
0.0
 11
148.862458555291
 21
383.2012869893479
 31
0.0
  0
LINE
  5
F56
330
2
100
AcDbEntity
  8
0
100
AcDbLine
 10
116.8624585552955
 20
307.7012869893479
 30
0.0
 11
116.8624585552955
 21
386.7012869893479
 31
0.0
  0
LINE
  5
F57
330
2
100
AcDbEntity
  8
0
100
AcDbLine
 10
129.3624585552846
 20
316.2012869894648
 30
0.0
 11
129.3624585552892
 21
378.2012869892306
 31
0.0
  0
LINE
  5
F58
330
2
100
AcDbEntity
  8
0
100
AcDbLine
 10
104.862458555291
 20
305.7012869893479
 30
0.0
 11
104.862458555291
 21
388.7012869893479
 31
0.0
  0
LINE
  5
F59
330
2
100
AcDbEntity
  8
0
100
AcDbLine
 10
121.862458555291
 20
380.2012869892306
 30
0.0
 11
127.362458555291
 21
380.2012869892306
 31
0.0
  0
ARC
  5
F5A
330
2
100
AcDbEntity
  8
0
100
AcDbCircle
 10
121.862458555291
 20
385.2012869892305
 30
0.0
 40
5.0
100
AcDbArc
 50
180.0
 51
270.0
  0
LINE
  5
F5B
330
2
100
AcDbEntity
  8
0
100
AcDbLine
 10
104.862458555291
 20
388.2012869893479
 30
0.0
 11
114.862458555291
 21
388.2012869893479
 31
0.0
  0
ARC
  5
F5C
330
2
100
AcDbEntity
  8
0
100
AcDbCircle
 10
114.862458555291
 20
386.2012869893479
 30
0.0
 40
2.0
100
AcDbArc
 50
0.0
 51
90.0
  0
LINE
  5
F5D
330
2
100
AcDbEntity
  8
0
100
AcDbLine
 10
121.8624585552955
 20
314.2012869894648
 30
0.0
 11
127.362458555291
 21
314.2012869894648
 31
0.0
  0
LINE
  5
F5E
330
2
100
AcDbEntity
  8
0
100
AcDbLine
 10
114.8624585552928
 20
306.2012869893479
 30
0.0
 11
104.862458555291
 21
306.2012869893479
 31
0.0
  0
ARC
  5
F5F
330
2
100
AcDbEntity
  8
0
100
AcDbCircle
 10
121.8624585552955
 20
309.2012869894647
 30
0.0
 40
5.0
100
AcDbArc
 50
90.0
 51
180.0
  0
ARC
  5
F60
330
2
100
AcDbEntity
  8
0
100
AcDbCircle
 10
114.8624585552928
 20
308.2012869893479
 30
0.0
 40
2.0
100
AcDbArc
 50
270.0
 51
0.0
  0
ARC
  5
F61
330
2
100
AcDbEntity
  8
0
100
AcDbCircle
 10
225.862458555291
 20
311.2012869893479
 30
0.0
 40
5.0
100
AcDbArc
 50
270.0
 51
0.0
  0
ARC
  5
F62
330
2
100
AcDbEntity
  8
0
100
AcDbCircle
 10
153.862458555291
 20
311.2012869893479
 30
0.0
 40
5.0
100
AcDbArc
 50
180.0
 51
270.0
  0
ARC
  5
F63
330
2
100
AcDbEntity
  8
0
100
AcDbCircle
 10
153.862458555291
 20
383.2012869893479
 30
0.0
 40
5.0
100
AcDbArc
 50
90.0
 51
180.0
  0
ARC
  5
F64
330
2
100
AcDbEntity
  8
0
100
AcDbCircle
 10
225.862458555291
 20
383.2012869893479
 30
0.0
 40
5.0
100
AcDbArc
 50
0.0
 51
90.0
  0
LINE
  5
F65
330
2
100
AcDbEntity
  8
0
100
AcDbLine
 10
626.9507804696562
 20
645.0985545128105
 30
0.0
 11
612.6683426513412
 21
645.0985545128105
 31
0.0
  0
LINE
  5
F66
330
2
100
AcDbEntity
  8
0
100
AcDbLine
 10
530.5834240443995
 20
645.5985545128109
 30
0.0
 11
612.1683426513394
 21
645.5985545128132
 31
0.0
  0
LINE
  5
F67
330
2
100
AcDbEntity
  8
0
100
AcDbLine
 10
536.5834240443994
 20
574.0985545154781
 30
0.0
 11
606.5834240443995
 21
574.0985545154781
 31
0.0
  0
LINE
  5
F68
330
2
100
AcDbEntity
  8
0
100
AcDbLine
 10
530.5834240443995
 20
645.5985545128109
 30
0.0
 11
531.163760752462
 21
579.0985545154776
 31
0.0
  0
LINE
  5
F69
330
2
100
AcDbEntity
  8
0
100
AcDbLine
 10
531.163760752462
 20
579.0985545154776
 30
0.0
 11
611.998168729396
 21
579.0985545154763
 31
0.0
  0
ARC
  5
F6A
330
2
100
AcDbEntity
  8
0
100
AcDbCircle
 10
607.5834240444013
 20
383.2012869893479
 30
0.0
 40
5.0
100
AcDbArc
 50
0.0
 51
90.0
  0
ARC
  5
F6B
330
2
100
AcDbEntity
  8
0
100
AcDbCircle
 10
607.5834240444022
 20
311.2012869893479
 30
0.0
 40
5.0
100
AcDbArc
 50
270.0
 51
0.0
  0
ARC
  5
F6C
330
2
100
AcDbEntity
  8
0
100
AcDbCircle
 10
535.5834240444013
 20
311.2012869893479
 30
0.0
 40
5.0
100
AcDbArc
 50
180.0
 51
270.0
  0
LINE
  5
F6D
330
2
100
AcDbEntity
  8
0
100
AcDbLine
 10
656.5834240400302
 20
663.0985545154776
 30
0.0
 11
656.5834240400302
 21
581.0985545154776
 31
0.0
  0
ARC
  5
F6E
330
2
100
AcDbEntity
  8
0
100
AcDbCircle
 10
189.862458555291
 20
476.2012869893515
 30
0.0
 40
170.0
100
AcDbArc
 50
263.8230035951095
 51
276.1769964048904
  0
ARC
  5
F6F
330
2
100
AcDbEntity
  8
0
100
AcDbCircle
 10
167.2664151151005
 20
267.4204956773901
 30
0.0
 40
40.0
100
AcDbArc
 50
83.82300359510955
 51
103.36767420263
  0
ARC
  5
F70
330
2
100
AcDbEntity
  8
0
100
AcDbCircle
 10
212.4585019954805
 20
267.4204956773897
 30
0.0
 40
40.0
100
AcDbArc
 50
76.63232579736996
 51
96.17699640483891
  0
ARC
  5
F71
330
2
100
AcDbEntity
  8
0
100
AcDbCircle
 10
222.862458555291
 20
311.2012869893515
 30
0.0
 40
5.0
100
AcDbArc
 50
256.63232579737
 51
270.0
  0
LINE
  5
F72
330
2
100
AcDbEntity
  8
0
100
AcDbLine
 10
225.862458555291
 20
306.2012869893515
 30
0.0
 11
222.862458555291
 21
306.2012869893515
 31
0.0
  0
LINE
  5
F73
330
2
100
AcDbEntity
  8
0
100
AcDbLine
 10
230.862458555291
 20
311.2012869893515
 30
0.0
 11
230.862458555291
 21
314.2012869893515
 31
0.0
  0
ARC
  5
F74
330
2
100
AcDbEntity
  8
0
100
AcDbCircle
 10
225.8624585552901
 20
314.2012869893515
 30
0.0
 40
5.0
100
AcDbArc
 50
0.0
 51
13.36767420262659
  0
ARC
  5
F75
330
2
100
AcDbEntity
  8
0
100
AcDbCircle
 10
269.6432498672523
 20
324.6052435491611
 30
0.0
 40
40.0
100
AcDbArc
 50
173.8230035951369
 51
193.3676742026266
  0
ARC
  5
F76
330
2
100
AcDbEntity
  8
0
100
AcDbCircle
 10
60.86245855529103
 20
347.2012869893515
 30
0.0
 40
170.0
100
AcDbArc
 50
353.8230035951369
 51
6.176996404863066
  0
ARC
  5
F77
330
2
100
AcDbEntity
  8
0
100
AcDbCircle
 10
269.6432498672533
 20
369.797330429541
 30
0.0
 40
40.0
100
AcDbArc
 50
166.6323257973733
 51
186.176996404863
  0
LINE
  5
F78
330
2
100
AcDbEntity
  8
0
100
AcDbLine
 10
230.862458555291
 20
380.2012869893515
 30
0.0
 11
230.862458555291
 21
383.2012869893515
 31
0.0
  0
ARC
  5
F79
330
2
100
AcDbEntity
  8
0
100
AcDbCircle
 10
225.862458555291
 20
380.2012869893515
 30
0.0
 40
5.0
100
AcDbArc
 50
346.6323257973734
 51
0.0
  0
LINE
  5
F7A
330
2
100
AcDbEntity
  8
0
100
AcDbLine
 10
225.862458555291
 20
388.2012869893515
 30
0.0
 11
222.862458555291
 21
388.2012869893515
 31
0.0
  0
ARC
  5
F7B
330
2
100
AcDbEntity
  8
0
100
AcDbCircle
 10
212.4585019954814
 20
426.9820783013129
 30
0.0
 40
40.0
100
AcDbArc
 50
263.8230035951095
 51
283.3676742026299
  0
ARC
  5
F7C
330
2
100
AcDbEntity
  8
0
100
AcDbCircle
 10
222.862458555291
 20
383.2012869893506
 30
0.0
 40
5.0
100
AcDbArc
 50
90.0
 51
103.36767420263
  0
ARC
  5
F7D
330
2
100
AcDbEntity
  8
0
100
AcDbCircle
 10
189.862458555291
 20
218.2012869893515
 30
0.0
 40
170.0
100
AcDbArc
 50
83.82300359510955
 51
96.17699640483891
  0
ARC
  5
F7E
330
2
100
AcDbEntity
  8
0
100
AcDbCircle
 10
167.2664151151014
 20
426.9820783013133
 30
0.0
 40
40.0
100
AcDbArc
 50
256.63232579737
 51
276.1769964048904
  0
ARC
  5
F7F
330
2
100
AcDbEntity
  8
0
100
AcDbCircle
 10
156.862458555291
 20
383.2012869893515
 30
0.0
 40
5.0
100
AcDbArc
 50
76.63232579736996
 51
90.0
  0
LINE
  5
F80
330
2
100
AcDbEntity
  8
0
100
AcDbLine
 10
156.862458555291
 20
388.2012869893515
 30
0.0
 11
153.862458555291
 21
388.2012869893515
 31
0.0
  0
ARC
  5
F81
330
2
100
AcDbEntity
  8
0
100
AcDbCircle
 10
156.862458555291
 20
311.2012869893524
 30
0.0
 40
5.0
100
AcDbArc
 50
270.0
 51
283.3676742026299
  0
LINE
  5
F82
330
2
100
AcDbEntity
  8
0
100
AcDbLine
 10
156.862458555291
 20
306.2012869893515
 30
0.0
 11
153.862458555291
 21
306.2012869893515
 31
0.0
  0
ARC
  5
F83
330
2
100
AcDbEntity
  8
0
100
AcDbCircle
 10
571.5834240443976
 20
218.2012869893497
 30
0.0
 40
170.0
100
AcDbArc
 50
83.82300359510955
 51
96.17699640483891
  0
ARC
  5
F84
330
2
100
AcDbEntity
  8
0
100
AcDbCircle
 10
594.179467484589
 20
426.9820783013115
 30
0.0
 40
40.0
100
AcDbArc
 50
263.8230035951095
 51
283.3676742026299
  0
ARC
  5
F85
330
2
100
AcDbEntity
  8
0
100
AcDbCircle
 10
548.9873806042082
 20
426.982078301312
 30
0.0
 40
40.0
100
AcDbArc
 50
256.63232579737
 51
276.1769964048904
  0
ARC
  5
F86
330
2
100
AcDbEntity
  8
0
100
AcDbCircle
 10
538.5834240443976
 20
383.2012869893497
 30
0.0
 40
5.0
100
AcDbArc
 50
76.63232579736996
 51
90.0
  0
LINE
  5
F87
330
2
100
AcDbEntity
  8
0
100
AcDbLine
 10
535.5834240443977
 20
388.2012869893497
 30
0.0
 11
538.5834240443976
 21
388.2012869893497
 31
0.0
  0
LINE
  5
F88
330
2
100
AcDbEntity
  8
0
100
AcDbLine
 10
530.5834240443977
 20
383.2012869893497
 30
0.0
 11
530.5834240443977
 21
380.2012869893497
 31
0.0
  0
ARC
  5
F89
330
2
100
AcDbEntity
  8
0
100
AcDbCircle
 10
535.5834240443986
 20
380.2012869893497
 30
0.0
 40
5.0
100
AcDbArc
 50
180.0
 51
193.3676742026266
  0
ARC
  5
F8A
330
2
100
AcDbEntity
  8
0
100
AcDbCircle
 10
491.8026327324363
 20
369.7973304295401
 30
0.0
 40
40.0
100
AcDbArc
 50
353.8230035951369
 51
13.36767420262659
  0
ARC
  5
F8B
330
2
100
AcDbEntity
  8
0
100
AcDbCircle
 10
700.5834240443986
 20
347.2012869893497
 30
0.0
 40
170.0
100
AcDbArc
 50
173.8230035951369
 51
186.176996404863
  0
ARC
  5
F8C
330
2
100
AcDbEntity
  8
0
100
AcDbCircle
 10
491.8026327324363
 20
324.6052435491606
 30
0.0
 40
40.0
100
AcDbArc
 50
346.6323257973734
 51
6.176996404863066
  0
LINE
  5
F8D
330
2
100
AcDbEntity
  8
0
100
AcDbLine
 10
530.5834240443977
 20
314.2012869893497
 30
0.0
 11
530.5834240443977
 21
311.2012869893497
 31
0.0
  0
ARC
  5
F8E
330
2
100
AcDbEntity
  8
0
100
AcDbCircle
 10
535.5834240443986
 20
314.2012869893497
 30
0.0
 40
5.0
100
AcDbArc
 50
166.6323257973733
 51
180.0
  0
LINE
  5
F8F
330
2
100
AcDbEntity
  8
0
100
AcDbLine
 10
535.5834240443977
 20
306.2012869893497
 30
0.0
 11
538.5834240443976
 21
306.2012869893497
 31
0.0
  0
ARC
  5
F90
330
2
100
AcDbEntity
  8
0
100
AcDbCircle
 10
548.9873806042082
 20
267.4204956773883
 30
0.0
 40
40.0
100
AcDbArc
 50
83.82300359510955
 51
103.36767420263
  0
ARC
  5
F91
330
2
100
AcDbEntity
  8
0
100
AcDbCircle
 10
538.5834240443976
 20
311.2012869893506
 30
0.0
 40
5.0
100
AcDbArc
 50
270.0
 51
283.3676742026299
  0
ARC
  5
F92
330
2
100
AcDbEntity
  8
0
100
AcDbCircle
 10
571.5834240443976
 20
476.2012869893501
 30
0.0
 40
170.0
100
AcDbArc
 50
263.8230035951095
 51
276.1769964048904
  0
ARC
  5
F93
330
2
100
AcDbEntity
  8
0
100
AcDbCircle
 10
594.1794674845872
 20
267.4204956773883
 30
0.0
 40
40.0
100
AcDbArc
 50
76.63232579736996
 51
96.17699640483891
  0
ARC
  5
F94
330
2
100
AcDbEntity
  8
0
100
AcDbCircle
 10
604.5834240443976
 20
311.2012869893502
 30
0.0
 40
5.0
100
AcDbArc
 50
256.63232579737
 51
270.0
  0
LINE
  5
F95
330
2
100
AcDbEntity
  8
0
100
AcDbLine
 10
604.5834240443976
 20
306.2012869893497
 30
0.0
 11
607.5834240443986
 21
306.2012869893497
 31
0.0
  0
ARC
  5
F96
330
2
100
AcDbEntity
  8
0
100
AcDbCircle
 10
604.5834240443976
 20
383.2012869893492
 30
0.0
 40
5.0
100
AcDbArc
 50
90.0
 51
103.36767420263
  0
LINE
  5
F97
330
2
100
AcDbEntity
  8
0
100
AcDbLine
 10
604.5834240443976
 20
388.2012869893497
 30
0.0
 11
607.5834240443977
 21
388.2012869893497
 31
0.0
  0
LINE
  5
F98
330
2
100
AcDbEntity
  8
0
100
AcDbLine
 10
611.998168729396
 20
579.0985545154763
 30
0.0
 11
612.3734240443995
 21
622.0985545154776
 31
0.0
  0
ARC
  5
F99
330
2
100
AcDbEntity
  8
0
100
AcDbCircle
 10
615.3255405067078
 20
616.5985545154776
 30
0.0
 40
3.0
100
AcDbArc
 50
90.0
 51
179.4999999999954
  0
ARC
  5
F9A
330
2
100
AcDbEntity
  8
0
100
AcDbCircle
 10
615.1204591136242
 20
593.0985545154776
 30
0.0
 40
3.0
100
AcDbArc
 50
90.0
 51
179.4999999999954
  0
ARC
  5
F9B
330
2
100
AcDbEntity
  8
0
100
AcDbCircle
 10
615.0680979068796
 20
587.0985545154776
 30
0.0
 40
3.0
100
AcDbArc
 50
90.0
 51
179.4999999999954
  0
LINE
  5
F9C
330
2
100
AcDbEntity
  8
0
100
AcDbLine
 10
612.1683426513394
 20
645.5985545128132
 30
0.0
 11
612.6683426513395
 21
645.0985545128133
 31
0.0
  0
LINE
  5
F9D
330
2
100
AcDbEntity
  8
0
100
AcDbLine
 10
134.3624585552892
 20
373.2012869892305
 30
0.0
 11
143.862458555291
 21
373.2012869892305
 31
0.0
  0
ARC
  5
F9E
330
2
100
AcDbEntity
  8
0
100
AcDbCircle
 10
127.362458555291
 20
378.2012869892306
 30
0.0
 40
2.0
100
AcDbArc
 50
359.9999999999869
 51
90.0
  0
ARC
  5
F9F
330
2
100
AcDbEntity
  8
0
100
AcDbCircle
 10
127.362458555291
 20
316.2012869894648
 30
0.0
 40
2.0
100
AcDbArc
 50
270.0
 51
359.9999999999869
  0
LINE
  5
FA0
330
2
100
AcDbEntity
  8
0
100
AcDbLine
 10
134.3624585552855
 20
321.2012869894652
 30
0.0
 11
143.862458555291
 21
321.2012869894652
 31
0.0
  0
LINE
  5
FA1
330
2
100
AcDbEntity
  8
0
100
AcDbLine
 10
148.3624585552919
 20
335.0769313363662
 30
0.0
 11
148.362458555291
 21
359.3256426423304
 31
0.0
  0
LINE
  5
FA2
330
2
100
AcDbEntity
  8
0
100
AcDbLine
 10
129.3624585552864
 20
335.0769313363662
 30
0.0
 11
148.8624585552919
 21
335.0769313363662
 31
0.0
  0
LINE
  5
FA3
330
2
100
AcDbEntity
  8
0
100
AcDbLine
 10
129.3624585552892
 20
359.3256426423304
 30
0.0
 11
148.862458555291
 21
359.3256426423304
 31
0.0
  0
LINE
  5
FA4
330
2
100
AcDbEntity
  8
0
100
AcDbLine
 10
627.0834240444113
 20
373.201286989231
 30
0.0
 11
617.5834240444013
 21
373.2012869892315
 31
0.0
  0
ARC
  5
FA5
330
2
100
AcDbEntity
  8
0
100
AcDbCircle
 10
634.0834240444049
 20
378.2012869892314
 30
0.0
 40
2.0
100
AcDbArc
 50
90.0
 51
180.0
  0
LINE
  5
FA6
330
2
100
AcDbEntity
  8
0
100
AcDbLine
 10
632.0834240444095
 20
378.2012869892319
 30
0.0
 11
632.0834240444086
 21
316.2012869894661
 31
0.0
  0
LINE
  5
FA7
330
2
100
AcDbEntity
  8
0
100
AcDbLine
 10
627.0834240444095
 20
321.2012869894661
 30
0.0
 11
617.5834240444013
 21
321.2012869894661
 31
0.0
  0
ARC
  5
FA8
330
2
100
AcDbEntity
  8
0
100
AcDbCircle
 10
634.0834240444049
 20
316.2012869894661
 30
0.0
 40
2.0
100
AcDbArc
 50
180.0
 51
270.0
  0
LINE
  5
FA9
330
2
100
AcDbEntity
  8
0
100
AcDbLine
 10
615.5834240444013
 20
349.7012869893483
 30
0.0
 11
629.0834240444095
 21
349.7012869893483
 31
0.0
  0
LINE
  5
FAA
330
2
100
AcDbEntity
  8
0
100
AcDbLine
 10
615.5834240444013
 20
344.7012869893488
 30
0.0
 11
629.0834240444086
 21
344.7012869893483
 31
0.0
  0
ARC
  5
FAB
330
2
100
AcDbEntity
  8
0
100
AcDbCircle
 10
134.3624585552855
 20
316.2012869894652
 30
0.0
 40
5.0
100
AcDbArc
 50
90.0
 51
179.9999999999869
  0
ARC
  5
FAC
330
2
100
AcDbEntity
  8
0
100
AcDbCircle
 10
134.3624585552892
 20
378.2012869892306
 30
0.0
 40
5.0
100
AcDbArc
 50
179.9999999999869
 51
270.0
  0
ARC
  5
FAD
330
2
100
AcDbEntity
  8
0
100
AcDbCircle
 10
143.862458555291
 20
378.2012869892306
 30
0.0
 40
5.0
100
AcDbArc
 50
270.0
 51
0.0
  0
ARC
  5
FAE
330
2
100
AcDbEntity
  8
0
100
AcDbCircle
 10
143.862458555291
 20
316.2012869894652
 30
0.0
 40
5.0
100
AcDbArc
 50
0.0
 51
90.0
  0
ARC
  5
FAF
330
2
100
AcDbEntity
  8
0
100
AcDbCircle
 10
627.0834240444113
 20
378.201286989231
 30
0.0
 40
5.0
100
AcDbArc
 50
270.0
 51
359.9999999999869
  0
ARC
  5
FB0
330
2
100
AcDbEntity
  8
0
100
AcDbCircle
 10
617.5834240444013
 20
378.2012869892314
 30
0.0
 40
5.0
100
AcDbArc
 50
180.0
 51
270.0
  0
ARC
  5
FB1
330
2
100
AcDbEntity
  8
0
100
AcDbCircle
 10
627.0834240444095
 20
316.2012869894661
 30
0.0
 40
5.0
100
AcDbArc
 50
0.0
 51
90.0
  0
ARC
  5
FB2
330
2
100
AcDbEntity
  8
0
100
AcDbCircle
 10
617.5834240444013
 20
316.2012869894661
 30
0.0
 40
5.0
100
AcDbArc
 50
90.0
 51
180.0
  0
ARC
  5
FB3
330
2
100
AcDbEntity
  8
0
100
AcDbCircle
 10
629.0834240444095
 20
352.7012869893483
 30
0.0
 40
3.0
100
AcDbArc
 50
270.0
 51
0.0
  0
ARC
  5
FB4
330
2
100
AcDbEntity
  8
0
100
AcDbCircle
 10
615.5834240444013
 20
352.7012869893483
 30
0.0
 40
3.0
100
AcDbArc
 50
180.0
 51
270.0
  0
ARC
  5
FB5
330
2
100
AcDbEntity
  8
0
100
AcDbCircle
 10
629.0834240444086
 20
341.7012869893483
 30
0.0
 40
3.0
100
AcDbArc
 50
0.0
 51
90.0
  0
ARC
  5
FB6
330
2
100
AcDbEntity
  8
0
100
AcDbCircle
 10
615.5834240444013
 20
341.7012869893488
 30
0.0
 40
3.0
100
AcDbArc
 50
90.0
 51
180.0
  0
LINE
  5
FB7
330
2
100
AcDbEntity
  8
0
100
AcDbLine
 10
543.1968581454315
 20
572.1683535088823
 30
0.0
 11
543.5160199399755
 21
563.0287555220729
 31
0.0
  0
ARC
  5
FB8
330
2
100
AcDbEntity
  8
0
100
AcDbCircle
 10
541.1980764913936
 20
572.0985545154771
 30
0.0
 40
2.0
100
AcDbArc
 50
2.000000000003654
 51
90.0
  0
LINE
  5
FB9
330
2
100
AcDbEntity
  8
0
100
AcDbLine
 10
545.5148015940143
 20
561.0985545154798
 30
0.0
 11
597.6520464947847
 21
561.0985545154772
 31
0.0
  0
ARC
  5
FBA
330
2
100
AcDbEntity
  8
0
100
AcDbCircle
 10
545.5148015940143
 20
563.0985545154776
 30
0.0
 40
2.0
100
AcDbArc
 50
182.0000000000036
 51
270.0
  0
ARC
  5
FBB
330
2
100
AcDbEntity
  8
0
100
AcDbCircle
 10
597.6520464947847
 20
563.0985545154771
 30
0.0
 40
2.0
100
AcDbArc
 50
270.0
 51
357.9999999999963
  0
LINE
  5
FBC
330
2
100
AcDbEntity
  8
0
100
AcDbLine
 10
599.9699899433684
 20
572.1683535088823
 30
0.0
 11
599.6508281488234
 21
563.0287555220725
 31
0.0
  0
ARC
  5
FBD
330
2
100
AcDbEntity
  8
0
100
AcDbCircle
 10
601.9687715974072
 20
572.0985545154771
 30
0.0
 40
2.0
100
AcDbArc
 50
90.0
 51
177.9999999999963
  0
LINE
  5
FBE
330
2
100
AcDbEntity
  8
0
100
AcDbLine
 10
646.5317377862414
 20
663.0985545154776
 30
0.0
 11
656.5834240400302
 21
663.0985545154776
 31
0.0
  0
LINE
  5
FBF
330
2
100
AcDbEntity
  8
0
100
AcDbLine
 10
646.5317377862414
 20
581.0985545154776
 30
0.0
 11
656.5834240400302
 21
581.0985545154776
 31
0.0
  0
ARC
  5
FC0
330
2
100
AcDbEntity
  8
0
100
AcDbCircle
 10
646.5317377862414
 20
661.0985545154776
 30
0.0
 40
2.0
100
AcDbArc
 50
90.0
 51
178.5000000000102
  0
LINE
  5
FC1
330
2
100
AcDbEntity
  8
0
100
AcDbLine
 10
644.5324231362913
 20
661.150908412093
 30
0.0
 11
643.5098012600969
 21
622.0985545154776
 31
0.0
  0
ARC
  5
FC2
330
2
100
AcDbEntity
  8
0
100
AcDbCircle
 10
646.5317377862414
 20
583.0985545154776
 30
0.0
 40
2.0
100
AcDbArc
 50
181.4999999999897
 51
270.0
  0
LINE
  5
FC3
330
2
100
AcDbEntity
  8
0
100
AcDbLine
 10
644.5324231362913
 20
583.0462006188622
 30
0.0
 11
643.509801260096
 21
622.0985545154776
 31
0.0
  0
LINE
  5
FC4
330
2
100
AcDbEntity
  8
0
100
AcDbLine
 10
634.0317377862414
 20
589.0985545154776
 30
0.0
 11
639.5031523172386
 21
589.0985545154776
 31
0.0
  0
ARC
  5
FC5
330
2
100
AcDbEntity
  8
0
100
AcDbCircle
 10
639.5031523172377
 20
660.0985545154776
 30
0.0
 40
5.0
100
AcDbArc
 50
270.0
 51
358.5000000000103
  0
ARC
  5
FC6
330
2
100
AcDbEntity
  8
0
100
AcDbCircle
 10
639.5031523172386
 20
584.0985545154776
 30
0.0
 40
5.0
100
AcDbArc
 50
1.499999999989693
 51
90.0
  0
ARC
  5
FC7
330
2
100
AcDbEntity
  8
0
100
AcDbCircle
 10
634.0317377862414
 20
653.0985545154776
 30
0.0
 40
2.0
100
AcDbArc
 50
90.0
 51
178.4999999999973
  0
LINE
  5
FC8
330
2
100
AcDbEntity
  8
0
100
AcDbLine
 10
632.0324231362905
 20
591.0462006188618
 30
0.0
 11
631.2192886327433
 21
622.0985545154776
 31
0.0
  0
ARC
  5
FC9
330
2
100
AcDbEntity
  8
0
100
AcDbCircle
 10
634.0317377862414
 20
591.0985545154776
 30
0.0
 40
2.0
100
AcDbArc
 50
181.5000000000548
 51
270.0
  0
LINE
  5
FCA
330
2
100
AcDbEntity
  8
0
100
AcDbLine
 10
634.0317377862414
 20
655.0985545154776
 30
0.0
 11
639.5031523172377
 21
655.0985545154776
 31
0.0
  0
LINE
  5
FCB
330
2
100
AcDbEntity
  8
0
100
AcDbLine
 10
632.0324231362905
 20
653.1509084120934
 30
0.0
 11
631.2192886326223
 21
622.0985545154776
 31
0.0
  0
LINE
  5
FCC
330
2
100
AcDbEntity
  8
0
100
AcDbLine
 10
615.1204591136242
 20
596.0985545154776
 30
0.0
 11
627.0293382388057
 21
596.0985545154776
 31
0.0
  0
ARC
  5
FCD
330
2
100
AcDbEntity
  8
0
100
AcDbCircle
 10
626.9507804740982
 20
650.0985545154776
 30
0.0
 40
5.0
100
AcDbArc
 50
270.0
 51
358.4999999999972
  0
ARC
  5
FCE
330
2
100
AcDbEntity
  8
0
100
AcDbCircle
 10
627.0293382388057
 20
591.0985545154776
 30
0.0
 40
5.0
100
AcDbArc
 50
1.500000000002716
 51
90.0
  0
LINE
  5
FCF
330
2
100
AcDbEntity
  8
0
100
AcDbLine
 10
615.0680979068796
 20
590.0985545154776
 30
0.0
 11
631.0317377862414
 21
590.0985545154776
 31
0.0
  0
ARC
  5
FD0
330
2
100
AcDbEntity
  8
0
100
AcDbCircle
 10
631.0317377862414
 20
587.0985545154776
 30
0.0
 40
3.0
100
AcDbArc
 50
53.13010235412992
 51
90.0
  0
LINE
  5
FD1
330
2
100
AcDbEntity
  8
0
100
AcDbLine
 10
604.5965170052535
 20
645.5985545128132
 30
0.0
 11
605.1863857080046
 21
623.0723775671699
 31
0.0
  0
ARC
  5
FD2
330
2
100
AcDbEntity
  8
0
100
AcDbCircle
 10
606.1860430329801
 20
623.0985545154776
 30
0.0
 40
1.0
100
AcDbArc
 50
181.4999999999897
 51
270.0
  0
LINE
  5
FD3
330
2
100
AcDbEntity
  8
0
100
AcDbLine
 10
615.3255405067078
 20
624.5985545154772
 30
0.0
 11
628.3622828237788
 21
624.5985545154776
 31
0.0
  0
LINE
  5
FD4
330
2
100
AcDbEntity
  8
0
100
AcDbLine
 10
615.3255405067078
 20
619.5985545154776
 30
0.0
 11
628.362282823878
 21
619.5985545154776
 31
0.0
  0
ARC
  5
FD5
330
2
100
AcDbEntity
  8
0
100
AcDbCircle
 10
628.3622828237788
 20
627.5985545154776
 30
0.0
 40
3.0
100
AcDbArc
 50
270.0
 51
358.5000000000103
  0
ARC
  5
FD6
330
2
100
AcDbEntity
  8
0
100
AcDbCircle
 10
628.362282823878
 20
616.5985545154776
 30
0.0
 40
3.0
100
AcDbArc
 50
1.499999999768141
 51
90.0
  0
LINE
  5
FD7
330
2
100
AcDbEntity
  8
0
100
AcDbLine
 10
553.291388878459
 20
645.0985545154776
 30
0.0
 11
553.291388878459
 21
580.5985354770095
 31
0.0
  0
LINE
  5
FD8
330
2
100
AcDbEntity
  8
0
100
AcDbLine
 10
538.5834240444004
 20
645.0985545154776
 30
0.0
 11
538.5834240444004
 21
580.5985354770095
 31
0.0
  0
LINE
  5
FD9
330
2
100
AcDbEntity
  8
0
100
AcDbLine
 10
535.5834240443986
 20
645.0985545154776
 30
0.0
 11
535.5834240443986
 21
580.5985354770095
 31
0.0
  0
LINE
  5
FDA
330
2
100
AcDbEntity
  8
0
100
AcDbLine
 10
589.8754592103399
 20
645.0985545154776
 30
0.0
 11
589.8754592103399
 21
580.5985354770095
 31
0.0
  0
LINE
  5
FDB
330
2
100
AcDbEntity
  8
0
100
AcDbLine
 10
604.5834240443986
 20
622.0985545154776
 30
0.0
 11
604.5834240443986
 21
580.5985354770095
 31
0.0
  0
LINE
  5
FDC
330
2
100
AcDbEntity
  8
0
100
AcDbLine
 10
607.3739793835733
 20
645.5985545154776
 30
0.0
 11
607.3739793835733
 21
580.5985354770095
 31
0.0
  0
LINE
  5
FDD
330
2
100
AcDbEntity
  8
0
100
AcDbLine
 10
606.1860430329801
 20
622.0985545154776
 30
0.0
 11
612.3734240443995
 21
622.0985545154776
 31
0.0
  0
LINE
  5
FDE
330
2
100
AcDbEntity
  8
0
100
AcDbLine
 10
643.5098012600969
 20
622.0985545154776
 30
0.0
 11
656.5834240400302
 21
622.0985545154776
 31
0.0
  0
LINE
  5
FDF
330
2
100
AcDbEntity
  8
0
100
AcDbLine
 10
145.862458555291
 20
315.2012869893433
 30
0.0
 11
130.3624585552919
 21
315.2012869893433
 31
0.0
  0
ARC
  5
FE0
330
2
100
AcDbEntity
  8
0
100
AcDbCircle
 10
130.3624585552919
 20
312.2012869893433
 30
0.0
 40
3.0
100
AcDbArc
 50
90.0
 51
126.86989764587
  0
ARC
  5
FE1
330
2
100
AcDbEntity
  8
0
100
AcDbCircle
 10
145.862458555291
 20
312.2012869893433
 30
0.0
 40
3.0
100
AcDbArc
 50
0.0
 51
90.0
  0
LINE
  5
FE2
330
2
100
AcDbEntity
  8
0
100
AcDbLine
 10
145.862458555291
 20
379.2012869893533
 30
0.0
 11
130.3624585552919
 21
379.2012869893533
 31
0.0
  0
ARC
  5
FE3
330
2
100
AcDbEntity
  8
0
100
AcDbCircle
 10
145.862458555291
 20
382.2012869893534
 30
0.0
 40
3.0
100
AcDbArc
 50
270.0
 51
0.0
  0
ARC
  5
FE4
330
2
100
AcDbEntity
  8
0
100
AcDbCircle
 10
130.3624585552919
 20
382.2012869893534
 30
0.0
 40
3.0
100
AcDbArc
 50
233.1301023541299
 51
270.0
  0
LINE
  5
FE5
330
2
100
AcDbEntity
  8
0
100
AcDbLine
 10
615.5834240444013
 20
315.2012869893465
 30
0.0
 11
631.0834240444004
 21
315.2012869893465
 31
0.0
  0
ARC
  5
FE6
330
2
100
AcDbEntity
  8
0
100
AcDbCircle
 10
615.5834240444013
 20
312.2012869893465
 30
0.0
 40
3.0
100
AcDbArc
 50
90.0
 51
180.0
  0
ARC
  5
FE7
330
2
100
AcDbEntity
  8
0
100
AcDbCircle
 10
631.0834240444004
 20
312.2012869893465
 30
0.0
 40
3.0
100
AcDbArc
 50
53.13010235412992
 51
90.0
  0
LINE
  5
FE8
330
2
100
AcDbEntity
  8
0
100
AcDbLine
 10
615.5834240444013
 20
379.2012869893561
 30
0.0
 11
631.0834240444004
 21
379.2012869893561
 31
0.0
  0
ARC
  5
FE9
330
2
100
AcDbEntity
  8
0
100
AcDbCircle
 10
615.5834240444013
 20
382.2012869893565
 30
0.0
 40
3.0
100
AcDbArc
 50
180.0
 51
270.0
  0
ARC
  5
FEA
330
2
100
AcDbEntity
  8
0
100
AcDbCircle
 10
631.0834240444004
 20
382.2012869893565
 30
0.0
 40
3.0
100
AcDbArc
 50
270.0
 51
306.86989764587
  0
LINE
  5
FEB
330
2
100
AcDbEntity
  8
0
100
AcDbLine
 10
568.3809399598843
 20
313.0281606117478
 30
0.0
 11
569.6409405029602
 21
313.0281606117478
 31
0.0
  0
LINE
  5
FEC
330
2
100
AcDbEntity
  8
0
100
AcDbLine
 10
570.130939959878
 20
316.5281606117356
 30
0.0
 11
568.3809399598843
 21
313.0281606117478
 31
0.0
  0
ARC
  5
FED
330
2
100
AcDbEntity
  8
0
100
AcDbCircle
 10
573.0359081273676
 20
315.33816061174
 30
0.0
 40
1.189999999995825
100
AcDbArc
 50
307.5189678667997
 51
90.0
  0
LINE
  5
FEE
330
2
100
AcDbEntity
  8
0
100
AcDbLine
 10
573.7606467309655
 20
314.3943100110378
 30
0.0
 11
574.6299893658973
 21
313.0281606117478
 31
0.0
  0
LINE
  5
FEF
330
2
100
AcDbEntity
  8
0
100
AcDbLine
 10
573.3699888228215
 20
313.0281606117478
 30
0.0
 11
574.6299893658973
 21
313.0281606117478
 31
0.0
  0
LINE
  5
FF0
330
2
100
AcDbEntity
  8
0
100
AcDbLine
 10
570.7959399598752
 20
313.0281606117478
 30
0.0
 11
571.8459081273716
 21
313.0281606117478
 31
0.0
  0
LINE
  5
FF1
330
2
100
AcDbEntity
  8
0
100
AcDbLine
 10
569.9034405029591
 20
313.5531606117461
 30
0.0
 11
569.6409405029602
 21
313.0281606117478
 31
0.0
  0
LINE
  5
FF2
330
2
100
AcDbEntity
  8
0
100
AcDbLine
 10
569.9034405029591
 20
313.5531606117461
 30
0.0
 11
570.7959399598752
 21
313.5531606117461
 31
0.0
  0
LINE
  5
FF3
330
2
100
AcDbEntity
  8
0
100
AcDbLine
 10
570.7959399598752
 20
313.5531606117461
 30
0.0
 11
570.7959399598752
 21
313.0281606117478
 31
0.0
  0
LINE
  5
FF4
330
2
100
AcDbEntity
  8
0
100
AcDbLine
 10
570.4634405029577
 20
314.6731606117419
 30
0.0
 11
570.7959399598752
 21
314.6731606117419
 31
0.0
  0
LINE
  5
FF5
330
2
100
AcDbEntity
  8
0
100
AcDbLine
 10
570.7959399598752
 20
315.3381595255778
 30
0.0
 11
570.7959399598752
 21
314.6731606117419
 31
0.0
  0
LINE
  5
FF6
330
2
100
AcDbEntity
  8
0
100
AcDbLine
 10
570.7959399598752
 20
315.3381595255778
 30
0.0
 11
570.4634405029577
 21
314.6731606117419
 31
0.0
  0
LINE
  5
FF7
330
2
100
AcDbEntity
  8
0
100
AcDbLine
 10
571.9946899598711
 20
315.1894106117402
 30
0.0
 11
573.3699888228215
 21
313.0281606117478
 31
0.0
  0
LINE
  5
FF8
330
2
100
AcDbEntity
  8
0
100
AcDbLine
 10
571.8459081273716
 20
315.33816061174
 30
0.0
 11
571.8459081273716
 21
313.0281606117478
 31
0.0
  0
LINE
  5
FF9
330
2
100
AcDbEntity
  8
0
100
AcDbLine
 10
571.8459081273716
 20
315.33816061174
 30
0.0
 11
572.9615649598676
 21
315.33816061174
 31
0.0
  0
LINE
  5
FFA
330
2
100
AcDbEntity
  8
0
100
AcDbLine
 10
571.9946899598711
 20
315.1894106117402
 30
0.0
 11
572.9615649598676
 21
315.1894106117402
 31
0.0
  0
ARC
  5
FFB
330
2
100
AcDbEntity
  8
0
100
AcDbCircle
 10
572.9615649598676
 20
315.2637856117399
 30
0.0
 40
0.0743749999997391
100
AcDbArc
 50
270.0
 51
90.0
  0
LINE
  5
FFC
330
2
100
AcDbEntity
  8
0
100
AcDbLine
 10
570.130939959878
 20
316.5281606117356
 30
0.0
 11
573.0359081273676
 21
316.5281606117356
 31
0.0
  0
LINE
  5
FFD
330
2
100
AcDbEntity
  8
0
100
AcDbLine
 10
536.5834240443994
 20
579.0985545154776
 30
0.0
 11
536.5834240443994
 21
574.0985545154776
 31
0.0
  0
LINE
  5
FFE
330
2
100
AcDbEntity
  8
0
100
AcDbLine
 10
606.5834240443995
 20
579.0985545154776
 30
0.0
 11
606.5834240443995
 21
574.0985545154776
 31
0.0
  0
LINE
  5
FFF
330
2
100
AcDbEntity
  8
0
100
AcDbLine
 10
114.8624585552928
 20
305.7012869893479
 30
0.0
 11
104.862458555291
 21
305.7012869893479
 31
0.0
  0
ARC
  5
1000
330
2
100
AcDbEntity
  8
0
100
AcDbCircle
 10
114.8624585552928
 20
307.7012869893479
 30
0.0
 40
2.0
100
AcDbArc
 50
270.0
 51
0.0
  0
LINE
  5
1001
330
2
100
AcDbEntity
  8
0
100
AcDbLine
 10
104.862458555291
 20
388.7012869893479
 30
0.0
 11
114.862458555291
 21
388.7012869893479
 31
0.0
  0
ARC
  5
1002
330
2
100
AcDbEntity
  8
0
100
AcDbCircle
 10
114.862458555291
 20
386.7012869893479
 30
0.0
 40
2.0
100
AcDbArc
 50
0.0
 51
90.0
  0
LINE
  5
1003
330
2
100
AcDbEntity
  8
0
100
AcDbLine
 10
646.5834240443995
 20
388.7012869893479
 30
0.0
 11
656.5834240443995
 21
388.7012869893479
 31
0.0
  0
ARC
  5
1004
330
2
100
AcDbEntity
  8
0
100
AcDbCircle
 10
646.5834240443995
 20
386.7012869893479
 30
0.0
 40
2.0
100
AcDbArc
 50
90.0
 51
180.0
  0
LINE
  5
1005
330
2
100
AcDbEntity
  8
0
100
AcDbLine
 10
656.5834240443995
 20
305.7012869893479
 30
0.0
 11
646.5834240444022
 21
305.7012869893479
 31
0.0
  0
ARC
  5
1006
330
2
100
AcDbEntity
  8
0
100
AcDbCircle
 10
646.5834240444022
 20
307.7012869893479
 30
0.0
 40
2.0
100
AcDbArc
 50
180.0
 51
270.0
  0
LINE
  5
1007
330
2
100
AcDbEntity
  8
CENTER
100
AcDbLine
 10
571.5834240444068
 20
406.2012869893479
 30
0.0
 11
571.5834240444068
 21
288.2012869893488
 31
0.0
  0
LINE
  5
1008
330
2
100
AcDbEntity
  8
CENTER
100
AcDbLine
 10
512.5834240444022
 20
347.2012869893442
 30
0.0
 11
721.5834240400284
 21
347.2012869893445
 31
0.0
  0
LINE
  5
1009
330
2
100
AcDbEntity
  8
CENTER
100
AcDbLine
 10
233.112458555291
 20
381.7012869893483
 30
0.0
 11
215.612458555291
 21
381.7012869893483
 31
0.0
  0
LINE
  5
100A
330
2
100
AcDbEntity
  8
CENTER
100
AcDbLine
 10
224.362458555291
 20
390.4512869893483
 30
0.0
 11
224.362458555291
 21
372.9512869893483
 31
0.0
  0
LINE
  5
100B
330
2
100
AcDbEntity
  8
CENTER
100
AcDbLine
 10
146.612458555291
 20
381.7012869893483
 30
0.0
 11
164.112458555291
 21
381.7012869893483
 31
0.0
  0
LINE
  5
100C
330
2
100
AcDbEntity
  8
CENTER
100
AcDbLine
 10
148.6892534745369
 20
373.7012869893483
 30
0.0
 11
159.0356636360514
 21
373.7012869893483
 31
0.0
  0
CIRCLE
  5
100D
330
2
100
AcDbEntity
  8
HOJO
100
AcDbCircle
 10
153.8624585552937
 20
373.7012869893483
 30
0.0
 40
2.0
  0
LINE
  5
100E
330
2
100
AcDbEntity
  8
CENTER
100
AcDbLine
 10
153.8624585552937
 20
378.8744920701056
 30
0.0
 11
153.8624585552937
 21
368.5280819085915
 31
0.0
  0
LINE
  5
100F
330
2
100
AcDbEntity
  8
CENTER
100
AcDbLine
 10
233.112458555291
 20
312.7012869893484
 30
0.0
 11
215.612458555291
 21
312.7012869893484
 31
0.0
  0
LINE
  5
1010
330
2
100
AcDbEntity
  8
CENTER
100
AcDbLine
 10
225.8624585552883
 20
315.5280819085915
 30
0.0
 11
225.8624585552883
 21
325.8744920701056
 31
0.0
  0
LINE
  5
1011
330
2
100
AcDbEntity
  8
CENTER
100
AcDbLine
 10
231.035663636046
 20
320.7012869893483
 30
0.0
 11
220.6892534745314
 21
320.7012869893483
 31
0.0
  0
CIRCLE
  5
1012
330
2
100
AcDbEntity
  8
HOJO
100
AcDbCircle
 10
225.8624585552883
 20
320.7012869893483
 30
0.0
 40
2.0
  0
LINE
  5
1013
330
2
100
AcDbEntity
  8
CENTER
100
AcDbLine
 10
146.612458555291
 20
312.7012869893488
 30
0.0
 11
164.112458555291
 21
312.7012869893488
 31
0.0
  0
ARC
  5
1014
330
2
100
AcDbEntity
  8
0
100
AcDbCircle
 10
161.3624585552937
 20
364.6632277664771
 30
0.0
 40
5.0
100
AcDbArc
 50
135.0000000000089
 51
180.0
  0
ARC
  5
1015
330
2
100
AcDbEntity
  8
0
100
AcDbCircle
 10
218.3624585552883
 20
364.6632277664771
 30
0.0
 40
5.0
100
AcDbArc
 50
0.0
 51
44.99999999999107
  0
CIRCLE
  5
1016
330
2
100
AcDbEntity
  8
0
100
AcDbCircle
 10
189.862458555291
 20
347.2012869893483
 30
0.0
 40
23.0
  0
LINE
  5
1017
330
2
100
AcDbEntity
  8
0
100
AcDbLine
 10
149.2724585552908
 20
311.2012869893488
 30
0.0
 11
149.2724585552908
 21
383.2012869893483
 31
0.0
  0
CIRCLE
  5
1018
330
2
100
AcDbEntity
  8
0
100
AcDbCircle
 10
189.862458555291
 20
347.2012869893483
 30
0.0
 40
29.0
  0
CIRCLE
  5
1019
330
2
100
AcDbEntity
  8
0
100
AcDbCircle
 10
189.862458555291
 20
347.2012869893483
 30
0.0
 40
26.5
  0
CIRCLE
  5
101A
330
2
100
AcDbEntity
  8
0
100
AcDbCircle
 10
189.862458555291
 20
347.2012869893483
 30
0.0
 40
28.5
  0
ARC
  5
101B
330
2
100
AcDbEntity
  8
0
100
AcDbCircle
 10
218.3624585552883
 20
364.6632277664767
 30
0.0
 40
8.5
100
AcDbArc
 50
0.0
 51
44.99999999999107
  0
ARC
  5
101C
330
2
100
AcDbEntity
  8
0
100
AcDbCircle
 10
161.3624585552937
 20
364.6632277664771
 30
0.0
 40
8.5
100
AcDbArc
 50
135.0000000000089
 51
180.0
  0
CIRCLE
  5
101D
330
2
100
AcDbEntity
  8
0
100
AcDbCircle
 10
189.862458555291
 20
347.2012869893483
 30
0.0
 40
23.5774
  0
CIRCLE
  5
101E
330
2
100
AcDbEntity
  8
0
100
AcDbCircle
 10
189.862458555291
 20
347.2012869893483
 30
0.0
 40
25.9226
  0
LINE
  5
101F
330
2
100
AcDbEntity
  8
0
100
AcDbLine
 10
207.3243993324198
 20
384.2012869893456
 30
0.0
 11
172.4005177781631
 21
384.2012869893456
 31
0.0
  0
LINE
  5
1020
330
2
100
AcDbEntity
  8
0
100
AcDbLine
 10
207.3243993324198
 20
380.7012869893456
 30
0.0
 11
172.4005177781631
 21
380.7012869893456
 31
0.0
  0
LINE
  5
1021
330
2
100
AcDbEntity
  8
0
100
AcDbLine
 10
226.2154345816337
 20
367.91603694158
 30
0.0
 11
222.9818562178455
 21
366.5766449283024
 31
0.0
  0
ARC
  5
1022
330
2
100
AcDbEntity
  8
0
100
AcDbCircle
 10
207.3243993324198
 20
375.7012869893456
 30
0.0
 40
8.5
100
AcDbArc
 50
44.99999999999107
 51
90.0
  0
LINE
  5
1023
330
2
100
AcDbEntity
  8
0
100
AcDbLine
 10
210.5772085075235
 20
383.5542630156915
 30
0.0
 11
209.237816494245
 21
380.3206846519019
 31
0.0
  0
LINE
  5
1024
330
2
100
AcDbEntity
  8
0
100
AcDbLine
 10
224.372866195374
 20
370.6736354065625
 30
0.0
 11
213.3348069725055
 21
381.7116946294314
 31
0.0
  0
LINE
  5
1025
330
2
100
AcDbEntity
  8
0
100
AcDbLine
 10
221.8979924612207
 20
368.1987616724096
 30
0.0
 11
210.8599332383522
 21
379.2368208952785
 31
0.0
  0
ARC
  5
1026
330
2
100
AcDbEntity
  8
0
100
AcDbCircle
 10
207.3243993324198
 20
375.7012869893456
 30
0.0
 40
5.0
100
AcDbArc
 50
44.99999999999107
 51
90.0
  0
LINE
  5
1027
330
2
100
AcDbEntity
  8
0
100
AcDbLine
 10
153.5094825289482
 20
367.9160369415804
 30
0.0
 11
156.7430608927374
 21
366.5766449283024
 31
0.0
  0
LINE
  5
1028
330
2
100
AcDbEntity
  8
0
100
AcDbLine
 10
156.862458555291
 20
388.2012869893483
 30
0.0
 11
154.2724585552908
 21
388.2012869893483
 31
0.0
  0
LINE
  5
1029
330
2
100
AcDbEntity
  8
0
100
AcDbLine
 10
155.352050915208
 20
370.6736354065629
 30
0.0
 11
166.3901101380773
 21
381.7116946294314
 31
0.0
  0
ARC
  5
102A
330
2
100
AcDbEntity
  8
0
100
AcDbCircle
 10
172.4005177781631
 20
375.7012869893456
 30
0.0
 40
8.5
100
AcDbArc
 50
90.0
 51
135.0000000000089
  0
LINE
  5
102B
330
2
100
AcDbEntity
  8
0
100
AcDbLine
 10
169.1477086030594
 20
383.5542630156915
 30
0.0
 11
170.4871006163369
 21
380.3206846519019
 31
0.0
  0
LINE
  5
102C
330
2
100
AcDbEntity
  8
0
100
AcDbLine
 10
157.8269246493613
 20
368.1987616724096
 30
0.0
 11
168.8649838722298
 21
379.2368208952785
 31
0.0
  0
ARC
  5
102D
330
2
100
AcDbEntity
  8
0
100
AcDbCircle
 10
172.4005177781631
 20
375.7012869893456
 30
0.0
 40
5.0
100
AcDbArc
 50
90.0
 51
135.0000000000089
  0
ARC
  5
102E
330
2
100
AcDbEntity
  8
0
100
AcDbCircle
 10
154.2724585552908
 20
383.2012869893483
 30
0.0
 40
5.0
100
AcDbArc
 50
90.0
 51
180.0
  0
CIRCLE
  5
102F
330
2
100
AcDbEntity
  8
0
100
AcDbCircle
 10
153.8624585552937
 20
373.7012869893483
 30
0.0
 40
1.6
  0
LINE
  5
1030
330
2
100
AcDbEntity
  8
0
100
AcDbLine
 10
172.4005177781631
 20
310.2012869893511
 30
0.0
 11
207.3243993324198
 21
310.2012869893511
 31
0.0
  0
LINE
  5
1031
330
2
100
AcDbEntity
  8
0
100
AcDbLine
 10
172.4005177781631
 20
313.701286989351
 30
0.0
 11
207.3243993324198
 21
313.701286989351
 31
0.0
  0
LINE
  5
1032
330
2
100
AcDbEntity
  8
0
100
AcDbLine
 10
226.8624585552883
 20
329.73934621222
 30
0.0
 11
226.8624585552883
 21
364.6632277664767
 31
0.0
  0
LINE
  5
1033
330
2
100
AcDbEntity
  8
0
100
AcDbLine
 10
223.3624585552882
 20
329.73934621222
 30
0.0
 11
223.3624585552882
 21
364.6632277664771
 31
0.0
  0
CIRCLE
  5
1034
330
2
100
AcDbEntity
  8
0
100
AcDbCircle
 10
225.8624585552883
 20
320.7012869893483
 30
0.0
 40
1.6
  0
ARC
  5
1035
330
2
100
AcDbEntity
  8
0
100
AcDbCircle
 10
218.3624585552883
 20
329.73934621222
 30
0.0
 40
8.5
100
AcDbArc
 50
315.0000000000089
 51
0.0
  0
LINE
  5
1036
330
2
100
AcDbEntity
  8
0
100
AcDbLine
 10
226.2154345816337
 20
326.4865370371167
 30
0.0
 11
222.9818562178446
 21
327.8259290503943
 31
0.0
  0
LINE
  5
1037
330
2
100
AcDbEntity
  8
0
100
AcDbLine
 10
224.372866195374
 20
323.7289385721342
 30
0.0
 11
213.3348069725055
 21
312.6908793492658
 31
0.0
  0
LINE
  5
1038
330
2
100
AcDbEntity
  8
0
100
AcDbLine
 10
221.8979924612207
 20
326.2038123062871
 30
0.0
 11
210.8599332383522
 21
315.1657530834182
 31
0.0
  0
ARC
  5
1039
330
2
100
AcDbEntity
  8
0
100
AcDbCircle
 10
218.3624585552883
 20
329.73934621222
 30
0.0
 40
5.0
100
AcDbArc
 50
315.0000000000089
 51
0.0
  0
ARC
  5
103A
330
2
100
AcDbEntity
  8
0
100
AcDbCircle
 10
207.3243993324198
 20
318.7012869893511
 30
0.0
 40
5.0
100
AcDbArc
 50
270.0
 51
315.0000000000089
  0
ARC
  5
103B
330
2
100
AcDbEntity
  8
0
100
AcDbCircle
 10
207.3243993324198
 20
318.7012869893511
 30
0.0
 40
8.5
100
AcDbArc
 50
270.0
 51
315.0000000000089
  0
LINE
  5
103C
330
2
100
AcDbEntity
  8
0
100
AcDbLine
 10
210.5772085075235
 20
310.8483109630051
 30
0.0
 11
209.237816494245
 21
314.0818893267947
 31
0.0
  0
LINE
  5
103D
330
2
100
AcDbEntity
  8
0
100
AcDbLine
 10
156.862458555291
 20
306.2012869893488
 30
0.0
 11
154.2724585552908
 21
306.2012869893488
 31
0.0
  0
LINE
  5
103E
330
2
100
AcDbEntity
  8
0
100
AcDbLine
 10
153.5094825289482
 20
326.4865370371167
 30
0.0
 11
156.7430608927374
 21
327.8259290503947
 31
0.0
  0
LINE
  5
103F
330
2
100
AcDbEntity
  8
0
100
AcDbLine
 10
155.352050915208
 20
323.7289385721347
 30
0.0
 11
166.3901101380773
 21
312.6908793492653
 31
0.0
  0
LINE
  5
1040
330
2
100
AcDbEntity
  8
0
100
AcDbLine
 10
156.3624585552937
 20
364.6632277664771
 30
0.0
 11
156.3624585552937
 21
329.73934621222
 31
0.0
  0
LINE
  5
1041
330
2
100
AcDbEntity
  8
0
100
AcDbLine
 10
157.8269246493613
 20
326.2038123062875
 30
0.0
 11
168.8649838722298
 21
315.1657530834186
 31
0.0
  0
ARC
  5
1042
330
2
100
AcDbEntity
  8
0
100
AcDbCircle
 10
161.3624585552937
 20
329.73934621222
 30
0.0
 40
5.0
100
AcDbArc
 50
180.0
 51
224.9999999999911
  0
ARC
  5
1043
330
2
100
AcDbEntity
  8
0
100
AcDbCircle
 10
172.4005177781631
 20
318.7012869893511
 30
0.0
 40
8.5
100
AcDbArc
 50
224.9999999999911
 51
270.0
  0
ARC
  5
1044
330
2
100
AcDbEntity
  8
0
100
AcDbCircle
 10
172.4005177781631
 20
318.7012869893511
 30
0.0
 40
5.0
100
AcDbArc
 50
224.9999999999911
 51
270.0
  0
LINE
  5
1045
330
2
100
AcDbEntity
  8
0
100
AcDbLine
 10
169.1477086030594
 20
310.8483109630051
 30
0.0
 11
170.4871006163369
 21
314.0818893267947
 31
0.0
  0
LINE
  5
1046
330
2
100
AcDbEntity
  8
0
100
AcDbLine
 10
152.8624585552937
 20
364.6632277664771
 30
0.0
 11
152.8624585552937
 21
329.73934621222
 31
0.0
  0
ARC
  5
1047
330
2
100
AcDbEntity
  8
0
100
AcDbCircle
 10
161.3624585552937
 20
329.73934621222
 30
0.0
 40
8.5
100
AcDbArc
 50
180.0
 51
224.9999999999911
  0
ARC
  5
1048
330
2
100
AcDbEntity
  8
0
100
AcDbCircle
 10
154.2724585552908
 20
311.2012869893488
 30
0.0
 40
5.0
100
AcDbArc
 50
180.0
 51
270.0
  0
LINE
  5
1049
330
2
100
AcDbEntity
  8
CENTER
100
AcDbLine
 10
234.3477399295291
 20
391.6865683635865
 30
0.0
 11
145.3771771810519
 21
302.7160056151092
 31
0.0
  0
LINE
  5
104A
330
2
100
AcDbEntity
  8
CENTER
100
AcDbLine
 10
155.362458555291
 20
308.5170442451818
 30
0.0
 11
155.362458555291
 21
321.4512869893483
 31
0.0
  0
LINE
  5
104B
330
2
100
AcDbEntity
  8
CENTER
100
AcDbLine
 10
155.362458555291
 20
390.4512869893483
 30
0.0
 11
155.362458555291
 21
372.9512869893483
 31
0.0
  0
LINE
  5
104C
330
2
100
AcDbEntity
  8
CENTER
100
AcDbLine
 10
155.362458555291
 20
307.4919914544675
 30
0.0
 11
155.362458555291
 21
304.0953293120906
 31
0.0
  0
LINE
  5
104D
330
2
100
AcDbEntity
  8
CENTER
100
AcDbLine
 10
224.362458555291
 20
307.4919914544675
 30
0.0
 11
224.362458555291
 21
304.0953293120906
 31
0.0
  0
LINE
  5
104E
330
2
100
AcDbEntity
  8
CENTER
100
AcDbLine
 10
224.362458555291
 20
308.5170442451818
 30
0.0
 11
224.362458555291
 21
321.4512869893483
 31
0.0
  0
LINE
  5
104F
330
2
100
AcDbEntity
  8
CENTER
100
AcDbLine
 10
145.3771771810528
 20
391.6865683635865
 30
0.0
 11
234.3477399295291
 21
302.7160056151092
 31
0.0
  0
CIRCLE
  5
1050
330
2
100
AcDbEntity
  8
0
100
AcDbCircle
 10
224.362458555291
 20
381.7012869893483
 30
0.0
 40
5.000000000000113
  0
LINE
  5
1051
330
2
100
AcDbEntity
  8
0
100
AcDbLine
 10
226.862458555291
 20
380.2579113163742
 30
0.0
 11
226.862458555291
 21
383.1446626623224
 31
0.0
  0
LINE
  5
1052
330
2
100
AcDbEntity
  8
0
100
AcDbLine
 10
221.862458555291
 20
380.2579113163742
 30
0.0
 11
221.862458555291
 21
383.1446626623224
 31
0.0
  0
CIRCLE
  5
1053
330
2
100
AcDbEntity
  8
0
100
AcDbCircle
 10
224.362458555291
 20
381.7012869893483
 30
0.0
 40
4.307179676972509
  0
LINE
  5
1054
330
2
100
AcDbEntity
  8
0
100
AcDbLine
 10
221.862458555291
 20
380.2579113163742
 30
0.0
 11
224.362458555291
 21
378.8145356434002
 31
0.0
  0
LINE
  5
1055
330
2
100
AcDbEntity
  8
0
100
AcDbLine
 10
226.862458555291
 20
380.2579113163742
 30
0.0
 11
224.362458555291
 21
378.8145356434002
 31
0.0
  0
LINE
  5
1056
330
2
100
AcDbEntity
  8
0
100
AcDbLine
 10
224.362458555291
 20
384.5880383352965
 30
0.0
 11
221.862458555291
 21
383.1446626623224
 31
0.0
  0
LINE
  5
1057
330
2
100
AcDbEntity
  8
0
100
AcDbLine
 10
224.362458555291
 20
384.5880383352965
 30
0.0
 11
226.862458555291
 21
383.1446626623224
 31
0.0
  0
CIRCLE
  5
1058
330
2
100
AcDbEntity
  8
0
100
AcDbCircle
 10
224.362458555291
 20
312.7012869893484
 30
0.0
 40
5.000000000000113
  0
LINE
  5
1059
330
2
100
AcDbEntity
  8
0
100
AcDbLine
 10
226.862458555291
 20
311.2579113163743
 30
0.0
 11
226.862458555291
 21
314.1446626623224
 31
0.0
  0
LINE
  5
105A
330
2
100
AcDbEntity
  8
0
100
AcDbLine
 10
221.862458555291
 20
311.2579113163743
 30
0.0
 11
221.862458555291
 21
314.1446626623224
 31
0.0
  0
CIRCLE
  5
105B
330
2
100
AcDbEntity
  8
0
100
AcDbCircle
 10
224.362458555291
 20
312.7012869893484
 30
0.0
 40
4.307179676972509
  0
LINE
  5
105C
330
2
100
AcDbEntity
  8
0
100
AcDbLine
 10
221.862458555291
 20
311.2579113163743
 30
0.0
 11
224.362458555291
 21
309.8145356434002
 31
0.0
  0
LINE
  5
105D
330
2
100
AcDbEntity
  8
0
100
AcDbLine
 10
226.862458555291
 20
311.2579113163743
 30
0.0
 11
224.362458555291
 21
309.8145356434002
 31
0.0
  0
LINE
  5
105E
330
2
100
AcDbEntity
  8
0
100
AcDbLine
 10
224.362458555291
 20
315.5880383352965
 30
0.0
 11
221.862458555291
 21
314.1446626623224
 31
0.0
  0
LINE
  5
105F
330
2
100
AcDbEntity
  8
0
100
AcDbLine
 10
224.362458555291
 20
315.5880383352965
 30
0.0
 11
226.862458555291
 21
314.1446626623224
 31
0.0
  0
CIRCLE
  5
1060
330
2
100
AcDbEntity
  8
0
100
AcDbCircle
 10
155.362458555291
 20
312.7012869893488
 30
0.0
 40
5.000000000000113
  0
LINE
  5
1061
330
2
100
AcDbEntity
  8
0
100
AcDbLine
 10
157.862458555291
 20
311.2579113163747
 30
0.0
 11
157.862458555291
 21
314.1446626623224
 31
0.0
  0
LINE
  5
1062
330
2
100
AcDbEntity
  8
0
100
AcDbLine
 10
152.8624585552919
 20
311.2579113163747
 30
0.0
 11
152.8624585552919
 21
314.1446626623229
 31
0.0
  0
CIRCLE
  5
1063
330
2
100
AcDbEntity
  8
0
100
AcDbCircle
 10
155.362458555291
 20
312.7012869893488
 30
0.0
 40
4.307179676972509
  0
LINE
  5
1064
330
2
100
AcDbEntity
  8
0
100
AcDbLine
 10
152.8624585552919
 20
311.2579113163747
 30
0.0
 11
155.3624585552919
 21
309.8145356434006
 31
0.0
  0
LINE
  5
1065
330
2
100
AcDbEntity
  8
0
100
AcDbLine
 10
157.862458555291
 20
311.2579113163747
 30
0.0
 11
155.3624585552919
 21
309.8145356434006
 31
0.0
  0
LINE
  5
1066
330
2
100
AcDbEntity
  8
0
100
AcDbLine
 10
155.362458555291
 20
315.5880383352969
 30
0.0
 11
152.8624585552919
 21
314.1446626623229
 31
0.0
  0
LINE
  5
1067
330
2
100
AcDbEntity
  8
0
100
AcDbLine
 10
155.362458555291
 20
315.5880383352969
 30
0.0
 11
157.862458555291
 21
314.1446626623224
 31
0.0
  0
CIRCLE
  5
1068
330
2
100
AcDbEntity
  8
0
100
AcDbCircle
 10
155.362458555291
 20
381.7012869893483
 30
0.0
 40
5.000000000000113
  0
LINE
  5
1069
330
2
100
AcDbEntity
  8
0
100
AcDbLine
 10
157.862458555291
 20
380.2579113163742
 30
0.0
 11
157.862458555291
 21
383.1446626623224
 31
0.0
  0
LINE
  5
106A
330
2
100
AcDbEntity
  8
0
100
AcDbLine
 10
152.862458555291
 20
380.2579113163742
 30
0.0
 11
152.862458555291
 21
383.1446626623224
 31
0.0
  0
CIRCLE
  5
106B
330
2
100
AcDbEntity
  8
0
100
AcDbCircle
 10
155.362458555291
 20
381.7012869893483
 30
0.0
 40
4.307179676972509
  0
LINE
  5
106C
330
2
100
AcDbEntity
  8
0
100
AcDbLine
 10
152.862458555291
 20
380.2579113163742
 30
0.0
 11
155.362458555291
 21
378.8145356434002
 31
0.0
  0
LINE
  5
106D
330
2
100
AcDbEntity
  8
0
100
AcDbLine
 10
157.862458555291
 20
380.2579113163742
 30
0.0
 11
155.362458555291
 21
378.8145356434002
 31
0.0
  0
LINE
  5
106E
330
2
100
AcDbEntity
  8
0
100
AcDbLine
 10
155.362458555291
 20
384.5880383352965
 30
0.0
 11
152.862458555291
 21
383.1446626623224
 31
0.0
  0
LINE
  5
106F
330
2
100
AcDbEntity
  8
0
100
AcDbLine
 10
155.362458555291
 20
384.5880383352965
 30
0.0
 11
157.862458555291
 21
383.1446626623224
 31
0.0
  0
LINE
  5
1070
330
2
100
AcDbEntity
  8
0
100
AcDbLine
 10
392.6103511827117
 20
306.7859871312963
 30
0.0
 11
392.6103511827135
 21
387.6165868473604
 31
0.0
  0
LINE
  5
1071
330
2
100
AcDbEntity
  8
0
100
AcDbLine
 10
397.6103511827108
 20
312.2012869893347
 30
0.0
 11
397.6103511827108
 21
382.2012869893347
 31
0.0
  0
LINE
  5
1072
330
2
100
AcDbEntity
  8
0
100
AcDbLine
 10
399.5405521893056
 20
318.8147210903667
 30
0.0
 11
408.680150176115
 21
319.1338828849107
 31
0.0
  0
ARC
  5
1073
330
2
100
AcDbEntity
  8
0
100
AcDbCircle
 10
399.6103511827108
 20
316.8159394363288
 30
0.0
 40
2.0
100
AcDbArc
 50
92.00000000000365
 51
180.0
  0
LINE
  5
1074
330
2
100
AcDbEntity
  8
0
100
AcDbLine
 10
410.610351182709
 20
321.1326645389495
 30
0.0
 11
410.6103511827107
 21
373.2699094397199
 31
0.0
  0
ARC
  5
1075
330
2
100
AcDbEntity
  8
0
100
AcDbCircle
 10
408.6103511827108
 20
321.1326645389495
 30
0.0
 40
2.0
100
AcDbArc
 50
272.0000000000036
 51
0.0
  0
ARC
  5
1076
330
2
100
AcDbEntity
  8
0
100
AcDbCircle
 10
408.6103511827108
 20
373.2699094397199
 30
0.0
 40
2.0
100
AcDbArc
 50
0.0
 51
87.99999999999636
  0
LINE
  5
1077
330
2
100
AcDbEntity
  8
0
100
AcDbLine
 10
399.5405521893056
 20
375.5878528883036
 30
0.0
 11
408.6801501761159
 21
375.2686910937587
 31
0.0
  0
ARC
  5
1078
330
2
100
AcDbEntity
  8
0
100
AcDbCircle
 10
399.6103511827108
 20
377.5866345423424
 30
0.0
 40
2.0
100
AcDbArc
 50
180.0
 51
267.9999999999963
  0
LINE
  5
1079
330
2
100
AcDbEntity
  8
0
100
AcDbLine
 10
308.610351182709
 20
311.1406831682339
 30
0.0
 11
308.610351182709
 21
320.7012869893288
 31
0.0
  0
LINE
  5
107A
330
2
100
AcDbEntity
  8
0
100
AcDbLine
 10
308.610351182709
 20
373.7012869893301
 30
0.0
 11
308.610351182709
 21
383.2618908103937
 31
0.0
  0
LINE
  5
107B
330
2
100
AcDbEntity
  8
0
100
AcDbLine
 10
313.5493801066244
 20
388.2615190493611
 30
0.0
 11
349.610351182709
 21
388.7012869893138
 31
0.0
  0
LINE
  5
107C
330
2
100
AcDbEntity
  8
0
100
AcDbLine
 10
385.6713222587945
 20
388.2615190493593
 30
0.0
 11
349.6103511827099
 21
388.7012869893138
 31
0.0
  0
LINE
  5
107D
330
2
100
AcDbEntity
  8
0
100
AcDbLine
 10
385.6713222587945
 20
306.1410549292682
 30
0.0
 11
349.6103511827099
 21
305.7012869893147
 31
0.0
  0
ARC
  5
107E
330
2
100
AcDbEntity
  8
0
100
AcDbCircle
 10
313.6103511827089
 20
311.1406831682339
 30
0.0
 40
5.0
100
AcDbArc
 50
180.0
 51
269.3013056170002
  0
ARC
  5
107F
330
2
100
AcDbEntity
  8
0
100
AcDbCircle
 10
385.610351182709
 20
311.1406831682357
 30
0.0
 40
5.0
100
AcDbArc
 50
270.6986943829997
 51
298.4785614955852
  0
ARC
  5
1080
330
2
100
AcDbEntity
  8
0
100
AcDbCircle
 10
385.610351182709
 20
383.2618908103918
 30
0.0
 40
5.0
100
AcDbArc
 50
61.52143850500972
 51
89.30130561700025
  0
ARC
  5
1081
330
2
100
AcDbEntity
  8
0
100
AcDbCircle
 10
313.6103511827089
 20
383.2618908103937
 30
0.0
 40
5.0
100
AcDbArc
 50
90.69869438299972
 51
180.0
  0
LINE
  5
1082
330
2
100
AcDbEntity
  8
0
100
AcDbLine
 10
313.5493801066244
 20
306.1410549292664
 30
0.0
 11
349.610351182709
 21
305.7012869893147
 31
0.0
  0
LINE
  5
1083
330
2
100
AcDbEntity
  8
0
100
AcDbLine
 10
326.1103511827071
 20
388.1969235553884
 30
0.0
 11
392.6103511827135
 21
387.6165868473604
 31
0.0
  0
LINE
  5
1084
330
2
100
AcDbEntity
  8
0
100
AcDbLine
 10
326.1103511827071
 20
306.2056504232133
 30
0.0
 11
392.6103511827117
 21
306.7859871312963
 31
0.0
  0
LINE
  5
1085
330
2
100
AcDbEntity
  8
0
100
AcDbLine
 10
326.1103511827071
 20
306.2056504232133
 30
0.0
 11
326.1103511827071
 21
388.1969235553884
 31
0.0
  0
LINE
  5
1086
330
2
100
AcDbEntity
  8
0
100
AcDbLine
 10
392.6103511827108
 20
312.2012869893347
 30
0.0
 11
397.6103511827108
 21
312.2012869893347
 31
0.0
  0
LINE
  5
1087
330
2
100
AcDbEntity
  8
0
100
AcDbLine
 10
392.6103511827108
 20
382.2012869893347
 30
0.0
 11
397.6103511827108
 21
382.2012869893347
 31
0.0
  0
LINE
  5
1088
330
2
100
AcDbEntity
  8
CENTER
100
AcDbLine
 10
349.6103511827035
 20
398.7012869893142
 30
0.0
 11
349.6103511827035
 21
295.7012869893147
 31
0.0
  0
LINE
  5
1089
330
2
100
AcDbEntity
  8
CENTER
100
AcDbLine
 10
278.6103511827094
 20
347.2012869893297
 30
0.0
 11
433.6103511827099
 21
347.2012869893297
 31
0.0
  0
LINE
  5
108A
330
2
100
AcDbEntity
  8
0
100
AcDbLine
 10
315.1103511827071
 20
376.7012869893483
 30
0.0
 11
315.1103511827071
 21
317.701286989311
 31
0.0
  0
LINE
  5
108B
330
2
100
AcDbEntity
  8
0
100
AcDbLine
 10
307.6103511827126
 20
320.7012869893288
 30
0.0
 11
308.9103511827119
 21
320.7012869893288
 31
0.0
  0
LINE
  5
108C
330
2
100
AcDbEntity
  8
0
100
AcDbLine
 10
311.1103511827126
 20
320.9012869893295
 30
0.0
 11
311.3103511827124
 21
320.7012869893292
 31
0.0
  0
LINE
  5
108D
330
2
100
AcDbEntity
  8
0
100
AcDbLine
 10
309.3103511827124
 20
321.4012869893286
 30
0.0
 11
310.9103511827119
 21
321.4012869893295
 31
0.0
  0
LINE
  5
108E
330
2
100
AcDbEntity
  8
0
100
AcDbLine
 10
307.6103511827126
 20
320.7012869893288
 30
0.0
 11
306.6103511827126
 21
321.2786372585183
 31
0.0
  0
LINE
  5
108F
330
2
100
AcDbEntity
  8
0
100
AcDbLine
 10
314.610351182708
 20
318.7012869893351
 30
0.0
 11
315.1103511827126
 21
318.2012869893297
 31
0.0
  0
LINE
  5
1090
330
2
100
AcDbEntity
  8
0
100
AcDbLine
 10
311.3103511827124
 20
320.7012869893292
 30
0.0
 11
314.6103511827126
 21
320.7012869893297
 31
0.0
  0
LINE
  5
1091
330
2
100
AcDbEntity
  8
0
100
AcDbLine
 10
306.6103511827071
 20
373.1239367201388
 30
0.0
 11
306.6103511827071
 21
321.2786372585211
 31
0.0
  0
LINE
  5
1092
330
2
100
AcDbEntity
  8
HIDS
  6
SEKKEI_H
100
AcDbLine
 10
318.0245647450823
 20
383.6155005517021
 30
0.0
 11
315.6961376203347
 21
381.2870734269573
 31
0.0
  0
LINE
  5
1093
330
2
100
AcDbEntity
  8
0
100
AcDbLine
 10
318.6103511827099
 20
307.2012869893297
 30
0.0
 11
318.6103511827099
 21
387.2012869893297
 31
0.0
  0
LINE
  5
1094
330
2
100
AcDbEntity
  8
0
100
AcDbLine
 10
326.1103511827081
 20
388.2012869893297
 30
0.0
 11
319.6103511827099
 21
388.2012869893297
 31
0.0
  0
LINE
  5
1095
330
2
100
AcDbEntity
  8
0
100
AcDbLine
 10
326.1103511827071
 20
388.2012869893306
 30
0.0
 11
326.1103511827071
 21
306.2012869893297
 31
0.0
  0
LINE
  5
1096
330
2
100
AcDbEntity
  8
0
100
AcDbLine
 10
307.6103511827126
 20
373.7012869893306
 30
0.0
 11
306.6103511827126
 21
373.1239367201406
 31
0.0
  0
LINE
  5
1097
330
2
100
AcDbEntity
  8
0
100
AcDbLine
 10
311.1103511827126
 20
373.5012869893299
 30
0.0
 11
311.1103511827126
 21
320.9012869893295
 31
0.0
  0
LINE
  5
1098
330
2
100
AcDbEntity
  8
0
100
AcDbLine
 10
309.3103511827124
 20
373.0012869893303
 30
0.0
 11
310.9103511827119
 21
373.0012869893299
 31
0.0
  0
LINE
  5
1099
330
2
100
AcDbEntity
  8
0
100
AcDbLine
 10
309.1103511827126
 20
373.5012869893308
 30
0.0
 11
309.1103511827917
 21
320.9012869893295
 31
0.0
  0
LINE
  5
109A
330
2
100
AcDbEntity
  8
0
100
AcDbLine
 10
311.1103511827126
 20
373.5012869893299
 30
0.0
 11
311.3103511827124
 21
373.7012869893297
 31
0.0
  0
LINE
  5
109B
330
2
100
AcDbEntity
  8
0
100
AcDbLine
 10
307.6103511827126
 20
373.7012869893306
 30
0.0
 11
308.9103511827119
 21
373.7012869893301
 31
0.0
  0
LINE
  5
109C
330
2
100
AcDbEntity
  8
0
100
AcDbLine
 10
314.610351182708
 20
318.7012869893351
 30
0.0
 11
314.6103511827071
 21
375.7012869893242
 31
0.0
  0
LINE
  5
109D
330
2
100
AcDbEntity
  8
0
100
AcDbLine
 10
314.6103511827126
 20
375.7012869893297
 30
0.0
 11
314.6103511827126
 21
373.7012869893297
 31
0.0
  0
LINE
  5
109E
330
2
100
AcDbEntity
  8
0
100
AcDbLine
 10
314.6103511827126
 20
375.7012869893297
 30
0.0
 11
315.1103511827126
 21
376.2012869893297
 31
0.0
  0
LINE
  5
109F
330
2
100
AcDbEntity
  8
0
100
AcDbLine
 10
311.3103511827124
 20
373.7012869893297
 30
0.0
 11
314.6103511827126
 21
373.7012869893297
 31
0.0
  0
ARC
  5
10A0
330
2
100
AcDbEntity
  8
0
100
AcDbCircle
 10
319.6103511827099
 20
387.2012869893297
 30
0.0
 40
1.0
100
AcDbArc
 50
90.0
 51
179.9999999999869
  0
ARC
  5
10A1
330
2
100
AcDbEntity
  8
HIDS
  6
SEKKEI_H
100
AcDbCircle
 10
316.6103511827099
 20
385.0297141140759
 30
0.0
 40
2.0
100
AcDbArc
 50
314.9999999999444
 51
359.9999999999869
  0
ARC
  5
10A2
330
2
100
AcDbEntity
  8
HIDS
  6
SEKKEI_H
100
AcDbCircle
 10
317.1103511827071
 20
379.872859864583
 30
0.0
 40
2.0
100
AcDbArc
 50
134.9999999999444
 51
180.0
  0
LINE
  5
10A3
330
2
100
AcDbEntity
  8
HIDS
  6
SEKKEI_H
100
AcDbLine
 10
318.0245647450823
 20
310.7870734269573
 30
0.0
 11
315.6961376203356
 21
313.1155005517021
 31
0.0
  0
LINE
  5
10A4
330
2
100
AcDbEntity
  8
0
100
AcDbLine
 10
326.1103511827071
 20
306.2012869893297
 30
0.0
 11
319.6103511827108
 21
306.2012869893297
 31
0.0
  0
ARC
  5
10A5
330
2
100
AcDbEntity
  8
0
100
AcDbCircle
 10
319.6103511827108
 20
307.2012869893297
 30
0.0
 40
1.0
100
AcDbArc
 50
180.0
 51
270.0
  0
ARC
  5
10A6
330
2
100
AcDbEntity
  8
HIDS
  6
SEKKEI_H
100
AcDbCircle
 10
316.6103511827099
 20
309.3728598645835
 30
0.0
 40
2.0
100
AcDbArc
 50
0.0
 51
45.00000000005555
  0
ARC
  5
10A7
330
2
100
AcDbEntity
  8
HIDS
  6
SEKKEI_H
100
AcDbCircle
 10
317.1103511827071
 20
314.5297141140764
 30
0.0
 40
2.0
100
AcDbArc
 50
180.0
 51
225.0000000000555
  0
ARC
  5
10A8
330
2
100
AcDbEntity
  8
0
100
AcDbCircle
 10
308.9103511827119
 20
373.5012869893299
 30
0.0
 40
0.2
100
AcDbArc
 50
0.0000000001302755
 51
90.0
  0
ARC
  5
10A9
330
2
100
AcDbEntity
  8
0
100
AcDbCircle
 10
309.3103511827124
 20
373.2012869893306
 30
0.0
 40
0.2
100
AcDbArc
 50
180.0000000001302
 51
270.0
  0
ARC
  5
10AA
330
2
100
AcDbEntity
  8
0
100
AcDbCircle
 10
310.9103511827119
 20
373.2012869893297
 30
0.0
 40
0.2
100
AcDbArc
 50
270.0
 51
0.0
  0
ARC
  5
10AB
330
2
100
AcDbEntity
  8
0
100
AcDbCircle
 10
308.9103511827119
 20
320.9012869893286
 30
0.0
 40
0.2
100
AcDbArc
 50
270.0
 51
0.0000000001042204
  0
ARC
  5
10AC
330
2
100
AcDbEntity
  8
0
100
AcDbCircle
 10
309.3103511827133
 20
321.2012869893288
 30
0.0
 40
0.2
100
AcDbArc
 50
90.0
 51
179.9999999998697
  0
ARC
  5
10AD
330
2
100
AcDbEntity
  8
0
100
AcDbCircle
 10
310.9103511827119
 20
321.2012869893288
 30
0.0
 40
0.2
100
AcDbArc
 50
0.0
 51
90.0
  0
LINE
  5
10AE
330
2
100
AcDbEntity
  8
0
100
AcDbLine
 10
307.6103511827126
 20
373.7012869893306
 30
0.0
 11
307.6103511827126
 21
320.7012869893288
 31
0.0
  0
LINE
  5
10AF
330
2
100
AcDbEntity
  8
0
100
AcDbLine
 10
311.3103511827124
 20
320.7012869893292
 30
0.0
 11
311.3103511827124
 21
373.7012869893297
 31
0.0
  0
LINE
  5
10B0
330
2
100
AcDbEntity
  8
0
100
AcDbLine
 10
392.6103511827135
 20
383.2012869893497
 30
0.0
 11
326.1103511827071
 21
383.2012869893497
 31
0.0
  0
LINE
  5
10B1
330
2
100
AcDbEntity
  8
0
100
AcDbLine
 10
392.6103511827135
 20
380.2012869893497
 30
0.0
 11
326.1103511827071
 21
380.2012869893497
 31
0.0
  0
LINE
  5
10B2
330
2
100
AcDbEntity
  8
0
100
AcDbLine
 10
392.6103511827126
 20
365.4933221552137
 30
0.0
 11
326.1103511827071
 21
365.4933221552137
 31
0.0
  0
LINE
  5
10B3
330
2
100
AcDbEntity
  8
0
100
AcDbLine
 10
326.1103511827071
 20
383.2012869893497
 30
0.0
 11
318.6103511827099
 21
383.2012869893497
 31
0.0
  0
LINE
  5
10B4
330
2
100
AcDbEntity
  8
0
100
AcDbLine
 10
326.1103511827071
 20
380.2012869893497
 30
0.0
 11
318.6103511827099
 21
380.2012869893497
 31
0.0
  0
LINE
  5
10B5
330
2
100
AcDbEntity
  8
0
100
AcDbLine
 10
326.1103511827071
 20
365.4933221552137
 30
0.0
 11
318.6103511827099
 21
365.4933221552137
 31
0.0
  0
LINE
  5
10B6
330
2
100
AcDbEntity
  8
0
100
AcDbLine
 10
392.6103511827135
 20
311.2012869893097
 30
0.0
 11
326.1103511827071
 21
311.2012869893097
 31
0.0
  0
LINE
  5
10B7
330
2
100
AcDbEntity
  8
0
100
AcDbLine
 10
392.6103511827135
 20
314.2012869893097
 30
0.0
 11
326.1103511827071
 21
314.2012869893097
 31
0.0
  0
LINE
  5
10B8
330
2
100
AcDbEntity
  8
0
100
AcDbLine
 10
392.6103511827126
 20
328.9092518234456
 30
0.0
 11
326.1103511827071
 21
328.9092518234456
 31
0.0
  0
LINE
  5
10B9
330
2
100
AcDbEntity
  8
0
100
AcDbLine
 10
326.1103511827071
 20
311.2012869893097
 30
0.0
 11
318.6103511827099
 21
311.2012869893097
 31
0.0
  0
LINE
  5
10BA
330
2
100
AcDbEntity
  8
0
100
AcDbLine
 10
326.1103511827071
 20
314.2012869893097
 30
0.0
 11
318.6103511827099
 21
314.2012869893097
 31
0.0
  0
LINE
  5
10BB
330
2
100
AcDbEntity
  8
0
100
AcDbLine
 10
326.1103511827071
 20
328.9092518234456
 30
0.0
 11
318.6103511827099
 21
328.9092518234456
 31
0.0
  0
LINE
  5
10BC
330
2
100
AcDbEntity
  8
CENTER
  6
CENS
100
AcDbLine
 10
306.1103511827099
 20
381.7012869893483
 30
0.0
 11
331.1730979268562
 21
381.7012869893483
 31
0.0
  0
LINE
  5
10BD
330
2
100
AcDbEntity
  8
0
100
AcDbLine
 10
317.1103511827108
 20
376.7012869893483
 30
0.0
 11
311.5103511827104
 21
376.7012869893483
 31
0.0
  0
LINE
  5
10BE
330
2
100
AcDbEntity
  8
0
100
AcDbLine
 10
317.1103511827108
 20
386.7012869893483
 30
0.0
 11
311.5103511827104
 21
386.7012869893483
 31
0.0
  0
LINE
  5
10BF
330
2
100
AcDbEntity
  8
0
100
AcDbLine
 10
317.1103511827108
 20
386.7012869893483
 30
0.0
 11
317.1103511827108
 21
376.7012869893488
 31
0.0
  0
LINE
  5
10C0
330
2
100
AcDbEntity
  8
0
100
AcDbLine
 10
311.1103511827108
 20
386.0084666663206
 30
0.0
 11
311.1103511827099
 21
377.3941073123761
 31
0.0
  0
LINE
  5
10C1
330
2
100
AcDbEntity
  8
0
100
AcDbLine
 10
311.5103511827104
 20
386.7012869893483
 30
0.0
 11
311.5103511827104
 21
376.7012869893483
 31
0.0
  0
LINE
  5
10C2
330
2
100
AcDbEntity
  8
0
100
AcDbLine
 10
311.5103511827104
 20
386.7012869893483
 30
0.0
 11
311.1103511827108
 21
386.0084666663206
 31
0.0
  0
LINE
  5
10C3
330
2
100
AcDbEntity
  8
0
100
AcDbLine
 10
311.5103511827104
 20
376.7012869893483
 30
0.0
 11
311.1103511827108
 21
377.3941073123761
 31
0.0
  0
LINE
  5
10C4
330
2
100
AcDbEntity
  8
0
100
AcDbLine
 10
317.1103511827098
 20
386.7012869893483
 30
0.0
 11
318.6103511827099
 21
386.7012869893483
 31
0.0
  0
LINE
  5
10C5
330
2
100
AcDbEntity
  8
0
100
AcDbLine
 10
317.1103511827098
 20
376.7012869893483
 30
0.0
 11
318.6103511827099
 21
376.7012869893483
 31
0.0
  0
LINE
  5
10C6
330
2
100
AcDbEntity
  8
HIDS
  6
SEKKEI_H
100
AcDbLine
 10
315.1103511827071
 20
376.7012869893483
 30
0.0
 11
315.1103511827071
 21
379.872859864583
 31
0.0
  0
LINE
  5
10C7
330
2
100
AcDbEntity
  8
CENTER
  6
CENS
100
AcDbLine
 10
306.1103511827099
 20
312.7012869893111
 30
0.0
 11
331.1730979268562
 21
312.7012869893111
 31
0.0
  0
LINE
  5
10C8
330
2
100
AcDbEntity
  8
0
100
AcDbLine
 10
317.1103511827108
 20
317.701286989311
 30
0.0
 11
311.5103511827104
 21
317.701286989311
 31
0.0
  0
LINE
  5
10C9
330
2
100
AcDbEntity
  8
0
100
AcDbLine
 10
317.1103511827108
 20
307.701286989311
 30
0.0
 11
311.5103511827104
 21
307.701286989311
 31
0.0
  0
LINE
  5
10CA
330
2
100
AcDbEntity
  8
0
100
AcDbLine
 10
317.1103511827108
 20
307.701286989311
 30
0.0
 11
317.1103511827108
 21
317.7012869893106
 31
0.0
  0
LINE
  5
10CB
330
2
100
AcDbEntity
  8
0
100
AcDbLine
 10
311.1103511827108
 20
308.3941073123388
 30
0.0
 11
311.1103511827099
 21
317.0084666662833
 31
0.0
  0
LINE
  5
10CC
330
2
100
AcDbEntity
  8
0
100
AcDbLine
 10
311.5103511827104
 20
307.701286989311
 30
0.0
 11
311.5103511827104
 21
317.701286989311
 31
0.0
  0
LINE
  5
10CD
330
2
100
AcDbEntity
  8
0
100
AcDbLine
 10
311.5103511827104
 20
307.701286989311
 30
0.0
 11
311.1103511827108
 21
308.3941073123388
 31
0.0
  0
LINE
  5
10CE
330
2
100
AcDbEntity
  8
0
100
AcDbLine
 10
311.5103511827104
 20
317.701286989311
 30
0.0
 11
311.1103511827108
 21
317.0084666662833
 31
0.0
  0
LINE
  5
10CF
330
2
100
AcDbEntity
  8
0
100
AcDbLine
 10
317.1103511827098
 20
307.701286989311
 30
0.0
 11
318.6103511827099
 21
307.701286989311
 31
0.0
  0
LINE
  5
10D0
330
2
100
AcDbEntity
  8
0
100
AcDbLine
 10
317.1103511827098
 20
317.701286989311
 30
0.0
 11
318.6103511827099
 21
317.701286989311
 31
0.0
  0
LINE
  5
10D1
330
2
100
AcDbEntity
  8
HIDS
  6
SEKKEI_H
100
AcDbLine
 10
315.1103511827071
 20
317.701286989311
 30
0.0
 11
315.1103511827071
 21
314.5297141140764
 31
0.0
  0
LINE
  5
10D2
330
2
100
AcDbEntity
  8
0
100
AcDbLine
 10
601.0834240444177
 20
656.5985545128123
 30
0.0
 11
542.0834240443813
 21
656.5985545128123
 31
0.0
  0
LINE
  5
10D3
330
2
100
AcDbEntity
  8
0
100
AcDbLine
 10
545.0834240443986
 20
664.0985545128078
 30
0.0
 11
545.0834240443994
 21
662.7985545128076
 31
0.0
  0
LINE
  5
10D4
330
2
100
AcDbEntity
  8
0
100
AcDbLine
 10
545.2834240443984
 20
660.5985545128078
 30
0.0
 11
545.0834240443994
 21
660.3985545128071
 31
0.0
  0
LINE
  5
10D5
330
2
100
AcDbEntity
  8
0
100
AcDbLine
 10
545.7834240443984
 20
662.398554512807
 30
0.0
 11
545.7834240443984
 21
660.7985545128076
 31
0.0
  0
LINE
  5
10D6
330
2
100
AcDbEntity
  8
0
100
AcDbLine
 10
545.0834240443986
 20
664.0985545128069
 30
0.0
 11
545.6607743135877
 21
665.0985545128078
 31
0.0
  0
LINE
  5
10D7
330
2
100
AcDbEntity
  8
0
100
AcDbLine
 10
543.0834240444049
 20
657.0985545128114
 30
0.0
 11
542.5834240443995
 21
656.5985545128069
 31
0.0
  0
LINE
  5
10D8
330
2
100
AcDbEntity
  8
0
100
AcDbLine
 10
545.0834240443994
 20
660.3985545128071
 30
0.0
 11
545.0834240443994
 21
657.0985545128069
 31
0.0
  0
LINE
  5
10D9
330
2
100
AcDbEntity
  8
0
100
AcDbLine
 10
597.5060737752077
 20
665.0985545128123
 30
0.0
 11
545.6607743135913
 21
665.0985545128123
 31
0.0
  0
LINE
  5
10DA
330
2
100
AcDbEntity
  8
HIDS
  6
SEKKEI_H
100
AcDbLine
 10
607.9976376067719
 20
653.6843409504371
 30
0.0
 11
605.6692104820261
 21
656.0127680751848
 31
0.0
  0
LINE
  5
10DB
330
2
100
AcDbEntity
  8
0
100
AcDbLine
 10
531.6401867634262
 20
653.0985545128096
 30
0.0
 11
611.1166613253748
 21
653.0985545128101
 31
0.0
  0
ARC
  5
10DC
330
2
100
AcDbEntity
  8
0
100
AcDbCircle
 10
531.6401867634262
 20
652.0985545128096
 30
0.0
 40
1.0
100
AcDbArc
 50
90.0
 51
179.4999999999954
  0
LINE
  5
10DD
330
2
100
AcDbEntity
  8
0
100
AcDbLine
 10
598.0834240443995
 20
664.0985545128069
 30
0.0
 11
597.5060737752113
 21
665.0985545128078
 31
0.0
  0
LINE
  5
10DE
330
2
100
AcDbEntity
  8
0
100
AcDbLine
 10
597.8834240444006
 20
660.5985545128078
 30
0.0
 11
545.2834240443984
 21
660.5985545128078
 31
0.0
  0
LINE
  5
10DF
330
2
100
AcDbEntity
  8
0
100
AcDbLine
 10
597.3834240444006
 20
662.398554512807
 30
0.0
 11
597.3834240444006
 21
660.7985545128076
 31
0.0
  0
LINE
  5
10E0
330
2
100
AcDbEntity
  8
0
100
AcDbLine
 10
597.8834240444006
 20
662.5985545128078
 30
0.0
 11
545.2834240443984
 21
662.5985545127278
 31
0.0
  0
LINE
  5
10E1
330
2
100
AcDbEntity
  8
0
100
AcDbLine
 10
597.8834240444006
 20
660.5985545128078
 30
0.0
 11
598.0834240443995
 21
660.3985545128071
 31
0.0
  0
LINE
  5
10E2
330
2
100
AcDbEntity
  8
0
100
AcDbLine
 10
598.0834240443995
 20
664.0985545128078
 30
0.0
 11
598.0834240443995
 21
662.7985545128076
 31
0.0
  0
LINE
  5
10E3
330
2
100
AcDbEntity
  8
0
100
AcDbLine
 10
543.0834240444049
 20
657.0985545128114
 30
0.0
 11
600.083424044394
 21
657.0985545128124
 31
0.0
  0
LINE
  5
10E4
330
2
100
AcDbEntity
  8
0
100
AcDbLine
 10
600.0834240443995
 20
657.0985545128069
 30
0.0
 11
598.0834240443995
 21
657.0985545128069
 31
0.0
  0
LINE
  5
10E5
330
2
100
AcDbEntity
  8
0
100
AcDbLine
 10
600.0834240443995
 20
657.0985545128069
 30
0.0
 11
600.5834240443995
 21
656.5985545128069
 31
0.0
  0
LINE
  5
10E6
330
2
100
AcDbEntity
  8
0
100
AcDbLine
 10
598.0834240443995
 20
660.3985545128071
 30
0.0
 11
598.0834240443995
 21
657.0985545128069
 31
0.0
  0
ARC
  5
10E7
330
2
100
AcDbEntity
  8
HIDS
  6
SEKKEI_H
100
AcDbCircle
 10
609.4118511691462
 20
655.0985545128096
 30
0.0
 40
2.0
100
AcDbArc
 50
224.9999999999911
 51
270.0
  0
ARC
  5
10E8
330
2
100
AcDbEntity
  8
HIDS
  6
SEKKEI_H
100
AcDbCircle
 10
604.2549969196528
 20
654.5985545128123
 30
0.0
 40
2.0
100
AcDbArc
 50
44.99999999999107
 51
90.0
  0
LINE
  5
10E9
330
2
100
AcDbEntity
  8
HIDS
  6
SEKKEI_H
100
AcDbLine
 10
535.1692104820261
 20
653.6843409504371
 30
0.0
 11
537.4976376067728
 21
656.0127680751848
 31
0.0
  0
LINE
  5
10EA
330
2
100
AcDbEntity
  8
0
100
AcDbLine
 10
530.5834240443995
 20
645.5985545128124
 30
0.0
 11
530.6402248403613
 21
652.1072810483083
 31
0.0
  0
ARC
  5
10EB
330
2
100
AcDbEntity
  8
HIDS
  6
SEKKEI_H
100
AcDbCircle
 10
533.7549969196528
 20
655.0985545128096
 30
0.0
 40
2.0
100
AcDbArc
 50
270.0
 51
315.0000000000089
  0
ARC
  5
10EC
330
2
100
AcDbEntity
  8
HIDS
  6
SEKKEI_H
100
AcDbCircle
 10
538.9118511691462
 20
654.5985545128123
 30
0.0
 40
2.0
100
AcDbArc
 50
90.0
 51
135.0000000000089
  0
ARC
  5
10ED
330
2
100
AcDbEntity
  8
0
100
AcDbCircle
 10
597.8834240444006
 20
662.7985545128076
 30
0.0
 40
0.2
100
AcDbArc
 50
270.0000000001042
 51
359.9999999999739
  0
ARC
  5
10EE
330
2
100
AcDbEntity
  8
0
100
AcDbCircle
 10
597.5834240443995
 20
662.398554512807
 30
0.0
 40
0.2
100
AcDbArc
 50
90.00000000010421
 51
179.9999999999739
  0
ARC
  5
10EF
330
2
100
AcDbEntity
  8
0
100
AcDbCircle
 10
597.5834240443995
 20
660.7985545128076
 30
0.0
 40
0.2
100
AcDbArc
 50
179.9999999999739
 51
270.0
  0
ARC
  5
10F0
330
2
100
AcDbEntity
  8
0
100
AcDbCircle
 10
545.2834240443984
 20
662.7985545128076
 30
0.0
 40
0.2
100
AcDbArc
 50
180.0
 51
270.0000000001042
  0
ARC
  5
10F1
330
2
100
AcDbEntity
  8
0
100
AcDbCircle
 10
545.5834240443995
 20
662.398554512807
 30
0.0
 40
0.2
100
AcDbArc
 50
0.0
 51
89.99999999984366
  0
ARC
  5
10F2
330
2
100
AcDbEntity
  8
0
100
AcDbCircle
 10
545.5834240443995
 20
660.7985545128076
 30
0.0
 40
0.2
100
AcDbArc
 50
270.0
 51
0.0
  0
LINE
  5
10F3
330
2
100
AcDbEntity
  8
0
100
AcDbLine
 10
598.0834240443995
 20
664.0985545128078
 30
0.0
 11
545.0834240443986
 21
664.0985545128069
 31
0.0
  0
LINE
  5
10F4
330
2
100
AcDbEntity
  8
0
100
AcDbLine
 10
545.0834240443994
 20
660.3985545128071
 30
0.0
 11
598.0834240443995
 21
660.3985545128071
 31
0.0
  0
LINE
  5
10F5
330
2
100
AcDbEntity
  8
0
100
AcDbLine
 10
607.5834240444195
 20
645.5985545128124
 30
0.0
 11
607.5834240444195
 21
653.0985545128096
 31
0.0
  0
LINE
  5
10F6
330
2
100
AcDbEntity
  8
0
100
AcDbLine
 10
604.5834240444195
 20
645.5985545128124
 30
0.0
 11
604.5834240444195
 21
653.0985545128096
 31
0.0
  0
LINE
  5
10F7
330
2
100
AcDbEntity
  8
0
100
AcDbLine
 10
589.8754592102845
 20
645.5985545128124
 30
0.0
 11
589.8754592102845
 21
653.0985545128096
 31
0.0
  0
LINE
  5
10F8
330
2
100
AcDbEntity
  8
0
100
AcDbLine
 10
535.5834240443795
 20
645.5985545128124
 30
0.0
 11
535.5834240443795
 21
653.0985545128096
 31
0.0
  0
LINE
  5
10F9
330
2
100
AcDbEntity
  8
0
100
AcDbLine
 10
538.5834240443795
 20
645.5985545128124
 30
0.0
 11
538.5834240443795
 21
653.0985545128096
 31
0.0
  0
LINE
  5
10FA
330
2
100
AcDbEntity
  8
0
100
AcDbLine
 10
553.2913888785145
 20
645.5985545128124
 30
0.0
 11
553.2913888785145
 21
653.0985545128096
 31
0.0
  0
LINE
  5
10FB
330
2
100
AcDbEntity
  8
CENTER
  6
CENS
100
AcDbLine
 10
606.0834240444177
 20
665.5985545128096
 30
0.0
 11
606.0834240444177
 21
640.5358077686632
 31
0.0
  0
LINE
  5
10FC
330
2
100
AcDbEntity
  8
0
100
AcDbLine
 10
601.0834240444177
 20
654.5985545128096
 30
0.0
 11
601.0834240444177
 21
660.1985545128091
 31
0.0
  0
LINE
  5
10FD
330
2
100
AcDbEntity
  8
0
100
AcDbLine
 10
611.0834240444177
 20
654.5985545128096
 30
0.0
 11
611.0834240444177
 21
660.1985545128091
 31
0.0
  0
LINE
  5
10FE
330
2
100
AcDbEntity
  8
0
100
AcDbLine
 10
611.0834240444177
 20
654.5985545128096
 30
0.0
 11
601.0834240444177
 21
654.5985545128096
 31
0.0
  0
LINE
  5
10FF
330
2
100
AcDbEntity
  8
0
100
AcDbLine
 10
610.3906037213904
 20
660.5985545128096
 30
0.0
 11
601.7762443674459
 21
660.5985545128096
 31
0.0
  0
LINE
  5
1100
330
2
100
AcDbEntity
  8
0
100
AcDbLine
 10
611.0834240444177
 20
660.1985545128099
 30
0.0
 11
601.0834240444177
 21
660.1985545128091
 31
0.0
  0
LINE
  5
1101
330
2
100
AcDbEntity
  8
0
100
AcDbLine
 10
611.0834240444177
 20
660.1985545128091
 30
0.0
 11
610.3906037213904
 21
660.5985545128096
 31
0.0
  0
LINE
  5
1102
330
2
100
AcDbEntity
  8
0
100
AcDbLine
 10
601.0834240444177
 20
660.1985545128091
 30
0.0
 11
601.7762443674459
 21
660.5985545128096
 31
0.0
  0
LINE
  5
1103
330
2
100
AcDbEntity
  8
0
100
AcDbLine
 10
611.0834240444177
 20
654.5985545128096
 30
0.0
 11
611.0834240444177
 21
653.0985545128096
 31
0.0
  0
LINE
  5
1104
330
2
100
AcDbEntity
  8
0
100
AcDbLine
 10
601.0834240444177
 20
654.5985545128096
 30
0.0
 11
601.0834240444177
 21
653.0985545128096
 31
0.0
  0
LINE
  5
1105
330
2
100
AcDbEntity
  8
HIDS
  6
SEKKEI_H
100
AcDbLine
 10
601.0834240444177
 20
656.5985545128123
 30
0.0
 11
604.2549969196528
 21
656.5985545128123
 31
0.0
  0
LINE
  5
1106
330
2
100
AcDbEntity
  8
CENTER
  6
CENS
100
AcDbLine
 10
537.0834240443813
 20
665.5985545128096
 30
0.0
 11
537.0834240443813
 21
640.5358077686632
 31
0.0
  0
LINE
  5
1107
330
2
100
AcDbEntity
  8
0
100
AcDbLine
 10
542.0834240443813
 20
654.5985545128096
 30
0.0
 11
542.0834240443813
 21
660.1985545128091
 31
0.0
  0
LINE
  5
1108
330
2
100
AcDbEntity
  8
0
100
AcDbLine
 10
532.0834240443813
 20
654.5985545128096
 30
0.0
 11
532.0834240443813
 21
660.1985545128091
 31
0.0
  0
LINE
  5
1109
330
2
100
AcDbEntity
  8
0
100
AcDbLine
 10
532.0834240443813
 20
654.5985545128096
 30
0.0
 11
542.0834240443813
 21
654.5985545128096
 31
0.0
  0
LINE
  5
110A
330
2
100
AcDbEntity
  8
0
100
AcDbLine
 10
532.7762443674085
 20
660.5985545128096
 30
0.0
 11
541.3906037213531
 21
660.5985545128096
 31
0.0
  0
LINE
  5
110B
330
2
100
AcDbEntity
  8
0
100
AcDbLine
 10
532.0834240443813
 20
660.1985545128099
 30
0.0
 11
542.0834240443813
 21
660.1985545128091
 31
0.0
  0
LINE
  5
110C
330
2
100
AcDbEntity
  8
0
100
AcDbLine
 10
532.0834240443813
 20
660.1985545128091
 30
0.0
 11
532.7762443674085
 21
660.5985545128096
 31
0.0
  0
LINE
  5
110D
330
2
100
AcDbEntity
  8
0
100
AcDbLine
 10
542.0834240443813
 20
660.1985545128091
 30
0.0
 11
541.3906037213531
 21
660.5985545128096
 31
0.0
  0
LINE
  5
110E
330
2
100
AcDbEntity
  8
0
100
AcDbLine
 10
532.0834240443813
 20
654.5985545128096
 30
0.0
 11
532.0834240443813
 21
653.0985545128096
 31
0.0
  0
LINE
  5
110F
330
2
100
AcDbEntity
  8
0
100
AcDbLine
 10
542.0834240443813
 20
654.5985545128096
 30
0.0
 11
542.0834240443813
 21
653.0985545128096
 31
0.0
  0
LINE
  5
1110
330
2
100
AcDbEntity
  8
HIDS
  6
SEKKEI_H
100
AcDbLine
 10
542.0834240443813
 20
656.5985545128123
 30
0.0
 11
538.9118511691462
 21
656.5985545128123
 31
0.0
  0
LINE
  5
1111
330
2
100
AcDbEntity
  8
0
100
AcDbLine
 10
612.1166232484386
 20
652.1072810483083
 30
0.0
 11
612.1734240443997
 21
645.5985545128132
 31
0.0
  0
ARC
  5
1112
330
2
100
AcDbEntity
  8
0
100
AcDbCircle
 10
611.1166613253748
 20
652.0985545128101
 30
0.0
 40
1.0
100
AcDbArc
 50
0.4999999999915503
 51
90.0
  0
LINE
  5
1113
330
2
100
AcDbEntity
  8
0
100
AcDbLine
 10
437.6956561759856
 20
76.73569696721466
 30
0.0
 11
437.6956561759856
 21
103.3773286659339
 31
0.0
  0
LINE
  5
1114
330
2
100
AcDbEntity
  8
0
100
AcDbLine
 10
437.6956561759874
 20
130.9246649845623
 30
0.0
 11
437.6956561759874
 21
157.5662966832788
 31
0.0
  0
LINE
  5
1115
330
2
100
AcDbEntity
  8
0
100
AcDbLine
 10
442.6956561759856
 20
82.15099682525311
 30
0.0
 11
442.6956561759856
 21
104.2262961131064
 31
0.0
  0
LINE
  5
1116
330
2
100
AcDbEntity
  8
0
100
AcDbLine
 10
442.6956561759856
 20
130.0756975373897
 30
0.0
 11
442.6956561759856
 21
152.1509968252531
 31
0.0
  0
LINE
  5
1117
330
2
100
AcDbEntity
  8
0
100
AcDbLine
 10
444.6258571825804
 20
88.76443092628511
 30
0.0
 11
453.7654551693889
 21
89.08359272082913
 31
0.0
  0
ARC
  5
1118
330
2
100
AcDbEntity
  8
0
100
AcDbCircle
 10
444.6956561759856
 20
86.76564927224722
 30
0.0
 40
2.0
100
AcDbArc
 50
92.00000000000365
 51
180.0
  0
LINE
  5
1119
330
2
100
AcDbEntity
  8
0
100
AcDbLine
 10
455.6956561759838
 20
91.08237437486792
 30
0.0
 11
455.6956561759838
 21
102.6509508252479
 31
0.0
  0
LINE
  5
111A
330
2
100
AcDbEntity
  8
0
100
AcDbLine
 10
455.6956561759855
 20
131.6509508252484
 30
0.0
 11
455.6956561759855
 21
143.2196192756383
 31
0.0
  0
ARC
  5
111B
330
2
100
AcDbEntity
  8
0
100
AcDbCircle
 10
453.6956561759856
 20
91.08237437486792
 30
0.0
 40
2.0
100
AcDbArc
 50
272.0000000000036
 51
0.0
  0
ARC
  5
111C
330
2
100
AcDbEntity
  8
0
100
AcDbCircle
 10
453.6956561759856
 20
143.2196192756383
 30
0.0
 40
2.0
100
AcDbArc
 50
0.0
 51
87.99999999999636
  0
LINE
  5
111D
330
2
100
AcDbEntity
  8
0
100
AcDbLine
 10
444.6258571825804
 20
145.537562724222
 30
0.0
 11
453.7654551693907
 21
145.2184009296771
 31
0.0
  0
ARC
  5
111E
330
2
100
AcDbEntity
  8
0
100
AcDbCircle
 10
444.6956561759856
 20
147.5363443782608
 30
0.0
 40
2.0
100
AcDbArc
 50
180.0
 51
267.9999999999963
  0
LINE
  5
111F
330
2
100
AcDbEntity
  8
0
100
AcDbLine
 10
371.1956561759819
 20
158.1466333913068
 30
0.0
 11
437.6956561759874
 21
157.5662966832788
 31
0.0
  0
LINE
  5
1120
330
2
100
AcDbEntity
  8
0
100
AcDbLine
 10
371.1956561759819
 20
76.15536025913167
 30
0.0
 11
437.6956561759856
 21
76.73569696721466
 31
0.0
  0
LINE
  5
1121
330
2
100
AcDbEntity
  8
0
100
AcDbLine
 10
371.1956561759819
 20
76.15536025913167
 30
0.0
 11
371.1956561759819
 21
104.0278407812202
 31
0.0
  0
LINE
  5
1122
330
2
100
AcDbEntity
  8
0
100
AcDbLine
 10
371.1956561759819
 20
131.6480432542553
 30
0.0
 11
371.1956561759819
 21
158.1466333913068
 31
0.0
  0
LINE
  5
1123
330
2
100
AcDbEntity
  8
0
100
AcDbLine
 10
437.6956561759856
 20
82.15099682525311
 30
0.0
 11
442.6956561759856
 21
82.15099682525311
 31
0.0
  0
LINE
  5
1124
330
2
100
AcDbEntity
  8
0
100
AcDbLine
 10
437.6956561759856
 20
152.1509968252531
 30
0.0
 11
442.6956561759856
 21
152.1509968252531
 31
0.0
  0
LINE
  5
1125
330
2
100
AcDbEntity
  8
CENTER
100
AcDbLine
 10
394.6956561759783
 20
167.9415519982445
 30
0.0
 11
394.6956561759783
 21
66.36044165221353
 31
0.0
  0
LINE
  5
1126
330
2
100
AcDbEntity
  8
CENTER
100
AcDbLine
 10
339.6956646300244
 20
117.1509968252481
 30
0.0
 11
478.6956561759837
 21
117.1509968252481
 31
0.0
  0
LINE
  5
1127
330
2
100
AcDbEntity
  8
0
100
AcDbLine
 10
360.6956561759819
 20
93.76883347230938
 30
0.0
 11
361.3443201294488
 21
93.75184760889949
 31
0.0
  0
LINE
  5
1128
330
2
100
AcDbEntity
  8
0
100
AcDbLine
 10
360.1956561759819
 20
146.6509968252667
 30
0.0
 11
360.1956561759819
 21
141.4481504366836
 31
0.0
  0
LINE
  5
1129
330
2
100
AcDbEntity
  8
0
100
AcDbLine
 10
360.1956561759819
 20
92.85384321381258
 30
0.0
 11
360.1956561759819
 21
87.65099682522947
 31
0.0
  0
LINE
  5
112A
330
2
100
AcDbEntity
  8
0
100
AcDbLine
 10
352.6956561759819
 20
94.15099682524811
 30
0.0
 11
351.6956561759819
 21
93.57364655605904
 31
0.0
  0
LINE
  5
112B
330
2
100
AcDbEntity
  8
0
100
AcDbLine
 10
352.6956561759874
 20
90.65099682524721
 30
0.0
 11
353.9956561759867
 21
90.65099682524721
 31
0.0
  0
LINE
  5
112C
330
2
100
AcDbEntity
  8
0
100
AcDbLine
 10
356.1956561759874
 20
90.85099682524793
 30
0.0
 11
356.3956561759863
 21
90.65099682524765
 31
0.0
  0
LINE
  5
112D
330
2
100
AcDbEntity
  8
0
100
AcDbLine
 10
354.3956561759863
 20
91.35099682524701
 30
0.0
 11
355.9956561759867
 21
91.35099682524794
 31
0.0
  0
LINE
  5
112E
330
2
100
AcDbEntity
  8
0
100
AcDbLine
 10
352.6956561759874
 20
90.65099682524721
 30
0.0
 11
351.6956561759874
 21
91.22834709443674
 31
0.0
  0
LINE
  5
112F
330
2
100
AcDbEntity
  8
0
100
AcDbLine
 10
359.695656175982
 20
88.65099682525357
 30
0.0
 11
360.1956561759874
 21
88.15099682524811
 31
0.0
  0
LINE
  5
1130
330
2
100
AcDbEntity
  8
0
100
AcDbLine
 10
356.3956561759863
 20
90.65099682524765
 30
0.0
 11
359.6956561759874
 21
90.65099682524811
 31
0.0
  0
LINE
  5
1131
330
2
100
AcDbEntity
  8
0
100
AcDbLine
 10
352.6956561759819
 20
94.15099682524811
 30
0.0
 11
360.6956561759819
 21
94.15099682524811
 31
0.0
  0
LINE
  5
1132
330
2
100
AcDbEntity
  8
0
100
AcDbLine
 10
351.6956561759819
 20
143.0736465560572
 30
0.0
 11
351.6956561759819
 21
131.6480432542553
 31
0.0
  0
LINE
  5
1133
330
2
100
AcDbEntity
  8
0
100
AcDbLine
 10
351.6956561759819
 20
102.6480432542553
 30
0.0
 11
351.6956561759819
 21
91.22834709443948
 31
0.0
  0
LINE
  5
1134
330
2
100
AcDbEntity
  8
0
100
AcDbLine
 10
352.6956561759819
 20
94.15099682524811
 30
0.0
 11
352.6956561759819
 21
102.6480432542553
 31
0.0
  0
LINE
  5
1135
330
2
100
AcDbEntity
  8
0
100
AcDbLine
 10
352.6956561759819
 20
131.6480432542553
 30
0.0
 11
352.6956561759819
 21
140.1509968252472
 31
0.0
  0
LINE
  5
1136
330
2
100
AcDbEntity
  8
0
100
AcDbLine
 10
360.6956561759819
 20
131.6480432542553
 30
0.0
 11
360.6956561759819
 21
140.5331601781868
 31
0.0
  0
LINE
  5
1137
330
2
100
AcDbEntity
  8
HIDS
  6
SEKKEI_H
100
AcDbLine
 10
363.1098697383571
 20
153.5652103876205
 30
0.0
 11
360.7814426136086
 21
151.2367832628756
 31
0.0
  0
LINE
  5
1138
330
2
100
AcDbEntity
  8
0
100
AcDbLine
 10
363.6956561759838
 20
77.15099682524812
 30
0.0
 11
363.6956561759838
 21
102.4780014570638
 31
0.0
  0
LINE
  5
1139
330
2
100
AcDbEntity
  8
0
100
AcDbLine
 10
363.6956561759838
 20
131.8239921934333
 30
0.0
 11
363.6956561759838
 21
157.1509968252481
 31
0.0
  0
LINE
  5
113A
330
2
100
AcDbEntity
  8
0
100
AcDbLine
 10
371.1956561759819
 20
158.1509968252481
 30
0.0
 11
364.6956561759838
 21
158.1509968252481
 31
0.0
  0
LINE
  5
113B
330
2
100
AcDbEntity
  8
0
100
AcDbLine
 10
371.1956561759819
 20
158.150996825249
 30
0.0
 11
371.1956561759819
 21
130.2741528692764
 31
0.0
  0
LINE
  5
113C
330
2
100
AcDbEntity
  8
0
100
AcDbLine
 10
371.1956561759819
 20
102.6480432542553
 30
0.0
 11
371.1956561759819
 21
76.15099682524811
 31
0.0
  0
LINE
  5
113D
330
2
100
AcDbEntity
  8
0
100
AcDbLine
 10
352.6956561759874
 20
143.650996825249
 30
0.0
 11
351.6956561759874
 21
143.073646556059
 31
0.0
  0
LINE
  5
113E
330
2
100
AcDbEntity
  8
0
100
AcDbLine
 10
356.1956561759874
 20
143.4509968252482
 30
0.0
 11
356.1956561759874
 21
141.4783550811676
 31
0.0
  0
LINE
  5
113F
330
2
100
AcDbEntity
  8
0
100
AcDbLine
 10
356.1956561759874
 20
92.82363856932859
 30
0.0
 11
356.1956561759874
 21
90.85099682524793
 31
0.0
  0
LINE
  5
1140
330
2
100
AcDbEntity
  8
0
100
AcDbLine
 10
354.3956561759863
 20
142.9509968252487
 30
0.0
 11
355.9956561759867
 21
142.9509968252482
 31
0.0
  0
LINE
  5
1141
330
2
100
AcDbEntity
  8
0
100
AcDbLine
 10
354.1956561759874
 20
143.4509968252491
 30
0.0
 11
354.1956561759892
 21
141.5815067013791
 31
0.0
  0
LINE
  5
1142
330
2
100
AcDbEntity
  8
0
100
AcDbLine
 10
354.1956561760638
 20
92.72048694913024
 30
0.0
 11
354.1956561760656
 21
90.85099682524793
 31
0.0
  0
LINE
  5
1143
330
2
100
AcDbEntity
  8
0
100
AcDbLine
 10
352.6956561759819
 20
140.1509968252481
 30
0.0
 11
351.6956561759819
 21
140.7283470944372
 31
0.0
  0
LINE
  5
1144
330
2
100
AcDbEntity
  8
0
100
AcDbLine
 10
352.6956561759819
 20
140.1509968252472
 30
0.0
 11
360.6956561759819
 21
140.1509968252481
 31
0.0
  0
LINE
  5
1145
330
2
100
AcDbEntity
  8
0
100
AcDbLine
 10
356.1956561759874
 20
143.4509968252482
 30
0.0
 11
356.3956561759863
 21
143.6509968252481
 31
0.0
  0
LINE
  5
1146
330
2
100
AcDbEntity
  8
0
100
AcDbLine
 10
352.6956561759874
 20
143.650996825249
 30
0.0
 11
353.9956561759867
 21
143.6509968252485
 31
0.0
  0
LINE
  5
1147
330
2
100
AcDbEntity
  8
0
100
AcDbLine
 10
359.695656175982
 20
88.65099682525357
 30
0.0
 11
359.695656175982
 21
92.73719183299732
 31
0.0
  0
LINE
  5
1148
330
2
100
AcDbEntity
  8
0
100
AcDbLine
 10
359.695656175982
 20
141.5648018174989
 30
0.0
 11
359.695656175982
 21
145.6509968252426
 31
0.0
  0
LINE
  5
1149
330
2
100
AcDbEntity
  8
0
100
AcDbLine
 10
359.6956561759874
 20
145.6509968252481
 30
0.0
 11
359.6956561759874
 21
143.6509968252481
 31
0.0
  0
LINE
  5
114A
330
2
100
AcDbEntity
  8
0
100
AcDbLine
 10
359.6956561759874
 20
145.6509968252481
 30
0.0
 11
360.1956561759874
 21
146.1509968252481
 31
0.0
  0
LINE
  5
114B
330
2
100
AcDbEntity
  8
0
100
AcDbLine
 10
356.3956561759863
 20
143.6509968252481
 30
0.0
 11
359.6956561759874
 21
143.6509968252481
 31
0.0
  0
ARC
  5
114C
330
2
100
AcDbEntity
  8
0
100
AcDbCircle
 10
364.6956561759838
 20
157.1509968252481
 30
0.0
 40
1.0
100
AcDbArc
 50
90.0
 51
179.9999999999869
  0
LINE
  5
114D
330
2
100
AcDbEntity
  8
0
100
AcDbLine
 10
360.6956561759819
 20
140.5331601781868
 30
0.0
 11
361.3443201294488
 21
140.5501460415967
 31
0.0
  0
ARC
  5
114E
330
2
100
AcDbEntity
  8
HIDS
  6
SEKKEI_H
100
AcDbCircle
 10
361.6956561759838
 20
154.9794239499943
 30
0.0
 40
2.0
100
AcDbArc
 50
314.9999999999444
 51
359.9999999999869
  0
ARC
  5
114F
330
2
100
AcDbEntity
  8
HIDS
  6
SEKKEI_H
100
AcDbCircle
 10
362.1956561759819
 20
149.8225697005014
 30
0.0
 40
2.0
100
AcDbArc
 50
134.9999999999444
 51
180.0
  0
LINE
  5
1150
330
2
100
AcDbEntity
  8
HIDS
  6
SEKKEI_H
100
AcDbLine
 10
363.1098697383571
 20
80.73678326287568
 30
0.0
 11
360.7814426136104
 21
83.06521038762054
 31
0.0
  0
LINE
  5
1151
330
2
100
AcDbEntity
  8
0
100
AcDbLine
 10
371.1956561759819
 20
76.15099682524811
 30
0.0
 11
364.6956561759856
 21
76.15099682524811
 31
0.0
  0
ARC
  5
1152
330
2
100
AcDbEntity
  8
0
100
AcDbCircle
 10
364.6956561759856
 20
77.15099682524812
 30
0.0
 40
1.0
100
AcDbArc
 50
180.0
 51
270.0
  0
ARC
  5
1153
330
2
100
AcDbEntity
  8
HIDS
  6
SEKKEI_H
100
AcDbCircle
 10
361.6956561759838
 20
79.3225697005019
 30
0.0
 40
2.0
100
AcDbArc
 50
0.0
 51
45.00000000005555
  0
ARC
  5
1154
330
2
100
AcDbEntity
  8
HIDS
  6
SEKKEI_H
100
AcDbCircle
 10
362.1956561759819
 20
84.47942394999477
 30
0.0
 40
2.0
100
AcDbArc
 50
180.0
 51
225.0000000000555
  0
ARC
  5
1155
330
2
100
AcDbEntity
  8
0
100
AcDbCircle
 10
353.9956561759867
 20
143.4509968252482
 30
0.0
 40
0.2
100
AcDbArc
 50
0.0000000001302755
 51
90.0
  0
ARC
  5
1156
330
2
100
AcDbEntity
  8
0
100
AcDbCircle
 10
354.3956561759863
 20
143.150996825249
 30
0.0
 40
0.2
100
AcDbArc
 50
180.0000000001302
 51
270.0
  0
ARC
  5
1157
330
2
100
AcDbEntity
  8
0
100
AcDbCircle
 10
355.9956561759867
 20
143.1509968252481
 30
0.0
 40
0.2
100
AcDbArc
 50
270.0
 51
0.0
  0
ARC
  5
1158
330
2
100
AcDbEntity
  8
0
100
AcDbCircle
 10
353.9956561759867
 20
90.85099682524703
 30
0.0
 40
0.2
100
AcDbArc
 50
270.0
 51
0.0000000001042204
  0
ARC
  5
1159
330
2
100
AcDbEntity
  8
0
100
AcDbCircle
 10
354.3956561759881
 20
91.1509968252472
 30
0.0
 40
0.2
100
AcDbArc
 50
90.0
 51
179.9999999998697
  0
ARC
  5
115A
330
2
100
AcDbEntity
  8
0
100
AcDbCircle
 10
355.9956561759867
 20
91.1509968252472
 30
0.0
 40
0.2
100
AcDbArc
 50
0.0
 51
90.0
  0
LINE
  5
115B
330
2
100
AcDbEntity
  8
0
100
AcDbLine
 10
352.6956561759874
 20
143.650996825249
 30
0.0
 11
352.6956561759874
 21
142.047510940502
 31
0.0
  0
LINE
  5
115C
330
2
100
AcDbEntity
  8
0
100
AcDbLine
 10
352.6956561759874
 20
92.2544827099942
 30
0.0
 11
352.6956561759874
 21
90.65099682524721
 31
0.0
  0
LINE
  5
115D
330
2
100
AcDbEntity
  8
0
100
AcDbLine
 10
356.3956561759863
 20
90.65099682524765
 30
0.0
 11
356.3956561759863
 21
92.81510616141218
 31
0.0
  0
LINE
  5
115E
330
2
100
AcDbEntity
  8
0
100
AcDbLine
 10
356.3956561759863
 20
141.486887489084
 30
0.0
 11
356.3956561759863
 21
143.6509968252481
 31
0.0
  0
LINE
  5
115F
330
2
100
AcDbEntity
  8
0
100
AcDbLine
 10
437.6956561759874
 20
153.1509968252681
 30
0.0
 11
371.1956561759819
 21
153.1509968252681
 31
0.0
  0
LINE
  5
1160
330
2
100
AcDbEntity
  8
0
100
AcDbLine
 10
437.6956561759874
 20
150.1509968252681
 30
0.0
 11
371.1956561759819
 21
150.1509968252681
 31
0.0
  0
LINE
  5
1161
330
2
100
AcDbEntity
  8
0
100
AcDbLine
 10
437.6956561759874
 20
135.4430319911321
 30
0.0
 11
371.1956561759819
 21
135.4430319911321
 31
0.0
  0
LINE
  5
1162
330
2
100
AcDbEntity
  8
0
100
AcDbLine
 10
371.1956561759819
 20
153.1509968252681
 30
0.0
 11
363.6956561759838
 21
153.1509968252681
 31
0.0
  0
LINE
  5
1163
330
2
100
AcDbEntity
  8
0
100
AcDbLine
 10
371.1956561759819
 20
150.1509968252681
 30
0.0
 11
363.6956561759838
 21
150.1509968252681
 31
0.0
  0
LINE
  5
1164
330
2
100
AcDbEntity
  8
0
100
AcDbLine
 10
371.1956561759819
 20
135.4430319911321
 30
0.0
 11
363.6956561759838
 21
135.4430319911321
 31
0.0
  0
LINE
  5
1165
330
2
100
AcDbEntity
  8
0
100
AcDbLine
 10
437.6956561759874
 20
81.1509968252281
 30
0.0
 11
371.1956561759819
 21
81.1509968252281
 31
0.0
  0
LINE
  5
1166
330
2
100
AcDbEntity
  8
0
100
AcDbLine
 10
437.6956561759874
 20
84.15099682522811
 30
0.0
 11
371.1956561759819
 21
84.15099682522811
 31
0.0
  0
LINE
  5
1167
330
2
100
AcDbEntity
  8
0
100
AcDbLine
 10
437.6956561759874
 20
98.85896165936408
 30
0.0
 11
371.1956561759819
 21
98.85896165936408
 31
0.0
  0
LINE
  5
1168
330
2
100
AcDbEntity
  8
0
100
AcDbLine
 10
371.1956561759819
 20
81.1509968252281
 30
0.0
 11
363.6956561759838
 21
81.1509968252281
 31
0.0
  0
LINE
  5
1169
330
2
100
AcDbEntity
  8
0
100
AcDbLine
 10
371.1956561759819
 20
84.15099682522811
 30
0.0
 11
363.6956561759838
 21
84.15099682522811
 31
0.0
  0
LINE
  5
116A
330
2
100
AcDbEntity
  8
0
100
AcDbLine
 10
371.1956561759819
 20
98.85896165936408
 30
0.0
 11
363.6956561759838
 21
98.85896165936408
 31
0.0
  0
LINE
  5
116B
330
2
100
AcDbEntity
  8
CENTER
  6
CENS
100
AcDbLine
 10
351.1956561759838
 20
151.6509968252667
 30
0.0
 11
376.2584029201301
 21
151.6509968252667
 31
0.0
  0
LINE
  5
116C
330
2
100
AcDbEntity
  8
0
100
AcDbLine
 10
362.1956561759856
 20
146.6509968252667
 30
0.0
 11
356.5956561759852
 21
146.6509968252667
 31
0.0
  0
LINE
  5
116D
330
2
100
AcDbEntity
  8
0
100
AcDbLine
 10
362.1956561759856
 20
156.6509968252667
 30
0.0
 11
356.5956561759852
 21
156.6509968252667
 31
0.0
  0
LINE
  5
116E
330
2
100
AcDbEntity
  8
0
100
AcDbLine
 10
362.1956561759856
 20
156.6509968252667
 30
0.0
 11
362.1956561759856
 21
146.6509968252672
 31
0.0
  0
LINE
  5
116F
330
2
100
AcDbEntity
  8
0
100
AcDbLine
 10
356.1956561759856
 20
155.958176502239
 30
0.0
 11
356.1956561759838
 21
147.3438171482944
 31
0.0
  0
LINE
  5
1170
330
2
100
AcDbEntity
  8
0
100
AcDbLine
 10
356.5956561759852
 20
156.6509968252667
 30
0.0
 11
356.5956561759852
 21
146.6509968252667
 31
0.0
  0
LINE
  5
1171
330
2
100
AcDbEntity
  8
0
100
AcDbLine
 10
356.5956561759852
 20
156.6509968252667
 30
0.0
 11
356.1956561759856
 21
155.958176502239
 31
0.0
  0
LINE
  5
1172
330
2
100
AcDbEntity
  8
0
100
AcDbLine
 10
356.5956561759852
 20
146.6509968252667
 30
0.0
 11
356.1956561759856
 21
147.3438171482944
 31
0.0
  0
LINE
  5
1173
330
2
100
AcDbEntity
  8
0
100
AcDbLine
 10
362.1956561759838
 20
156.6509968252667
 30
0.0
 11
363.6956561759838
 21
156.6509968252667
 31
0.0
  0
LINE
  5
1174
330
2
100
AcDbEntity
  8
0
100
AcDbLine
 10
362.1956561759838
 20
146.6509968252667
 30
0.0
 11
363.6956561759838
 21
146.6509968252667
 31
0.0
  0
LINE
  5
1175
330
2
100
AcDbEntity
  8
HIDS
  6
SEKKEI_H
100
AcDbLine
 10
360.1956561759819
 20
146.6509968252667
 30
0.0
 11
360.1956561759819
 21
149.8225697005014
 31
0.0
  0
LINE
  5
1176
330
2
100
AcDbEntity
  8
CENTER
  6
CENS
100
AcDbLine
 10
351.1956561759838
 20
82.65099682522947
 30
0.0
 11
376.2584029201301
 21
82.65099682522947
 31
0.0
  0
LINE
  5
1177
330
2
100
AcDbEntity
  8
0
100
AcDbLine
 10
362.1956561759856
 20
87.65099682522947
 30
0.0
 11
356.5956561759852
 21
87.65099682522947
 31
0.0
  0
LINE
  5
1178
330
2
100
AcDbEntity
  8
0
100
AcDbLine
 10
362.1956561759856
 20
77.65099682522947
 30
0.0
 11
356.5956561759852
 21
77.65099682522947
 31
0.0
  0
LINE
  5
1179
330
2
100
AcDbEntity
  8
0
100
AcDbLine
 10
362.1956561759856
 20
77.65099682522947
 30
0.0
 11
362.1956561759856
 21
87.65099682522901
 31
0.0
  0
LINE
  5
117A
330
2
100
AcDbEntity
  8
0
100
AcDbLine
 10
356.1956561759856
 20
78.34381714825719
 30
0.0
 11
356.1956561759838
 21
86.95817650220176
 31
0.0
  0
LINE
  5
117B
330
2
100
AcDbEntity
  8
0
100
AcDbLine
 10
356.5956561759852
 20
77.65099682522947
 30
0.0
 11
356.5956561759852
 21
87.65099682522947
 31
0.0
  0
LINE
  5
117C
330
2
100
AcDbEntity
  8
0
100
AcDbLine
 10
356.5956561759852
 20
77.65099682522947
 30
0.0
 11
356.1956561759856
 21
78.34381714825719
 31
0.0
  0
LINE
  5
117D
330
2
100
AcDbEntity
  8
0
100
AcDbLine
 10
356.5956561759852
 20
87.65099682522947
 30
0.0
 11
356.1956561759856
 21
86.95817650220176
 31
0.0
  0
LINE
  5
117E
330
2
100
AcDbEntity
  8
0
100
AcDbLine
 10
362.1956561759838
 20
77.65099682522947
 30
0.0
 11
363.6956561759838
 21
77.65099682522947
 31
0.0
  0
LINE
  5
117F
330
2
100
AcDbEntity
  8
0
100
AcDbLine
 10
362.1956561759838
 20
87.65099682522947
 30
0.0
 11
363.6956561759838
 21
87.65099682522947
 31
0.0
  0
LINE
  5
1180
330
2
100
AcDbEntity
  8
HIDS
  6
SEKKEI_H
100
AcDbLine
 10
360.1956561759819
 20
87.65099682522947
 30
0.0
 11
360.1956561759819
 21
84.47942394999477
 31
0.0
  0
LINE
  5
1181
330
2
100
AcDbEntity
  8
0
100
AcDbLine
 10
349.6956646300244
 20
131.6480432542553
 30
0.0
 11
349.6956646300244
 21
102.6480432542553
 31
0.0
  0
LINE
  5
1182
330
2
100
AcDbEntity
  8
0
100
AcDbLine
 10
468.6956561759838
 20
131.6509508252484
 30
0.0
 11
468.6956561759838
 21
102.6509508252479
 31
0.0
  0
LINE
  5
1183
330
2
100
AcDbEntity
  8
0
100
AcDbLine
 10
441.6956561759838
 20
126.6509508252479
 30
0.0
 11
441.6956561759838
 21
107.650950825248
 31
0.0
  0
LINE
  5
1184
330
2
100
AcDbEntity
  8
CENTER
  6
CENS
100
AcDbLine
 10
460.6956561759838
 20
122.9149277835782
 30
0.0
 11
460.6956561759838
 21
136.4192484263067
 31
0.0
  0
LINE
  5
1185
330
2
100
AcDbEntity
  8
0
100
AcDbLine
 10
445.5251932970517
 20
102.6509508252479
 30
0.0
 11
468.6956561759838
 21
102.6509508252479
 31
0.0
  0
LINE
  5
1186
330
2
100
AcDbEntity
  8
0
100
AcDbLine
 10
363.8378986726623
 20
102.6480432542553
 30
0.0
 11
349.6956646300244
 21
102.6480432542553
 31
0.0
  0
LINE
  5
1187
330
2
100
AcDbEntity
  8
0
100
AcDbLine
 10
349.6956646300244
 20
128.9509508252481
 30
0.0
 11
468.6956561759838
 21
128.9509508252481
 31
0.0
  0
LINE
  5
1188
330
2
100
AcDbEntity
  8
0
100
AcDbLine
 10
441.6956561759838
 20
108.1509508252484
 30
0.0
 11
451.6956561759838
 21
108.1509508252484
 31
0.0
  0
LINE
  5
1189
330
2
100
AcDbEntity
  8
0
100
AcDbLine
 10
441.6956561759838
 20
126.150950825248
 30
0.0
 11
451.6956561759838
 21
126.150950825248
 31
0.0
  0
LINE
  5
118A
330
2
100
AcDbEntity
  8
0
100
AcDbLine
 10
445.5251648255092
 20
131.6509508252484
 30
0.0
 11
468.6956561759838
 21
131.6509508252484
 31
0.0
  0
LINE
  5
118B
330
2
100
AcDbEntity
  8
0
100
AcDbLine
 10
457.6956561759837
 20
126.6509508252479
 30
0.0
 11
463.6956561759838
 21
126.6509508252479
 31
0.0
  0
LINE
  5
118C
330
2
100
AcDbEntity
  8
0
100
AcDbLine
 10
457.6956561759837
 20
107.6509508252484
 30
0.0
 11
463.6956561759838
 21
107.6509508252484
 31
0.0
  0
LINE
  5
118D
330
2
100
AcDbEntity
  8
0
100
AcDbLine
 10
463.6956561759838
 20
107.6509508252484
 30
0.0
 11
463.6956561759838
 21
126.6509508252479
 31
0.0
  0
LINE
  5
118E
330
2
100
AcDbEntity
  8
0
100
AcDbLine
 10
466.6956561759838
 20
126.150950825248
 30
0.0
 11
466.6956561759856
 21
108.1509508252489
 31
0.0
  0
LINE
  5
118F
330
2
100
AcDbEntity
  8
0
100
AcDbLine
 10
468.6956561759855
 20
106.9962502868698
 30
0.0
 11
466.6956561759856
 21
108.1509508252489
 31
0.0
  0
LINE
  5
1190
330
2
100
AcDbEntity
  8
0
100
AcDbLine
 10
463.6956561759838
 20
108.1509508252484
 30
0.0
 11
466.6956561759838
 21
108.1509508252484
 31
0.0
  0
LINE
  5
1191
330
2
100
AcDbEntity
  8
0
100
AcDbLine
 10
468.6956561759838
 20
127.305651363627
 30
0.0
 11
466.6956561759838
 21
126.150950825248
 31
0.0
  0
LINE
  5
1192
330
2
100
AcDbEntity
  8
0
100
AcDbLine
 10
463.6956561759838
 20
126.150950825248
 30
0.0
 11
466.6956561759838
 21
126.150950825248
 31
0.0
  0
LINE
  5
1193
330
2
100
AcDbEntity
  8
0
100
AcDbLine
 10
457.6956561759837
 20
107.6509508252484
 30
0.0
 11
457.6956561759837
 21
126.6509508252479
 31
0.0
  0
LINE
  5
1194
330
2
100
AcDbEntity
  8
0
100
AcDbLine
 10
452.8456561759852
 20
126.6509508252479
 30
0.0
 11
452.8456561759852
 21
107.650950825248
 31
0.0
  0
LINE
  5
1195
330
2
100
AcDbEntity
  8
0
100
AcDbLine
 10
451.6956561759838
 20
126.6509508252479
 30
0.0
 11
451.6956561759838
 21
107.650950825248
 31
0.0
  0
LINE
  5
1196
330
2
100
AcDbEntity
  8
0
100
AcDbLine
 10
452.8456561759852
 20
108.1509508252484
 30
0.0
 11
457.6956561759837
 21
108.150950825248
 31
0.0
  0
LINE
  5
1197
330
2
100
AcDbEntity
  8
0
100
AcDbLine
 10
452.8456561759852
 20
126.150950825248
 30
0.0
 11
457.6956561759837
 21
126.150950825248
 31
0.0
  0
LINE
  5
1198
330
2
100
AcDbEntity
  8
0
100
AcDbLine
 10
437.6956561759838
 20
132.150950825248
 30
0.0
 11
437.6956561759838
 21
131.650950825248
 31
0.0
  0
LINE
  5
1199
330
2
100
AcDbEntity
  8
0
100
AcDbLine
 10
437.6956561759838
 20
102.6509508252479
 30
0.0
 11
437.6956561759838
 21
102.150950825248
 31
0.0
  0
LINE
  5
119A
330
2
100
AcDbEntity
  8
0
100
AcDbLine
 10
363.8431741490752
 20
131.6480432542553
 30
0.0
 11
349.6956646300244
 21
131.6480432542553
 31
0.0
  0
LINE
  5
119B
330
2
100
AcDbEntity
  8
0
100
AcDbLine
 10
372.6956646300244
 20
126.6509508252479
 30
0.0
 11
372.6956646300244
 21
107.650950825248
 31
0.0
  0
LINE
  5
119C
330
2
100
AcDbEntity
  8
0
100
AcDbLine
 10
351.6956646300244
 20
126.1509968252481
 30
0.0
 11
351.6956646300244
 21
108.1509968252481
 31
0.0
  0
LINE
  5
119D
330
2
100
AcDbEntity
  8
0
100
AcDbLine
 10
360.5456646300248
 20
126.6480432542553
 30
0.0
 11
360.5456646300248
 21
107.6480432542553
 31
0.0
  0
LINE
  5
119E
330
2
100
AcDbEntity
  8
0
100
AcDbLine
 10
361.6956646300244
 20
126.6480432542553
 30
0.0
 11
361.6956646300244
 21
107.6480432542553
 31
0.0
  0
LINE
  5
119F
330
2
100
AcDbEntity
  8
0
100
AcDbLine
 10
351.6956646300244
 20
108.1509968252481
 30
0.0
 11
349.6956646300244
 21
106.996296286869
 31
0.0
  0
LINE
  5
11A0
330
2
100
AcDbEntity
  8
0
100
AcDbLine
 10
351.6956646300244
 20
126.1509968252481
 30
0.0
 11
349.6956646300244
 21
127.3056973636272
 31
0.0
  0
LINE
  5
11A1
330
2
100
AcDbEntity
  8
0
100
AcDbLine
 10
462.7456561754683
 20
128.9509508252481
 30
0.0
 11
462.7456561754683
 21
131.6509508252484
 31
0.0
  0
LINE
  5
11A2
330
2
100
AcDbEntity
  8
0
100
AcDbLine
 10
458.6456561765011
 20
128.9509508252481
 30
0.0
 11
458.6456561765011
 21
131.6509508252484
 31
0.0
  0
LINE
  5
11A3
330
2
100
AcDbEntity
  8
HOJO
100
AcDbLine
 10
463.1956561759838
 20
128.9509508252481
 30
0.0
 11
463.1956561759838
 21
131.6509508252484
 31
0.0
  0
LINE
  5
11A4
330
2
100
AcDbEntity
  8
HOJO
100
AcDbLine
 10
458.1956561759874
 20
128.9509508252481
 30
0.0
 11
458.1956561759874
 21
131.6509508252484
 31
0.0
  0
LINE
  5
11A5
330
2
100
AcDbEntity
  8
0
100
AcDbLine
 10
451.6956561759838
 20
126.6509508252479
 30
0.0
 11
452.8456561759852
 21
126.6509508252479
 31
0.0
  0
LINE
  5
11A6
330
2
100
AcDbEntity
  8
0
100
AcDbLine
 10
451.6956561759838
 20
107.650950825248
 30
0.0
 11
452.8456561759852
 21
107.650950825248
 31
0.0
  0
LINE
  5
11A7
330
2
100
AcDbEntity
  8
0
100
AcDbLine
 10
360.5456646300248
 20
126.6480432542553
 30
0.0
 11
361.6956646300244
 21
126.6480432542553
 31
0.0
  0
LINE
  5
11A8
330
2
100
AcDbEntity
  8
0
100
AcDbLine
 10
360.5456646300248
 20
107.6480432542553
 30
0.0
 11
361.6956646300244
 21
107.6480432542553
 31
0.0
  0
LINE
  5
11A9
330
2
100
AcDbEntity
  8
0
100
AcDbLine
 10
372.6956646300244
 20
126.6509508252479
 30
0.0
 11
441.6956561759838
 21
126.6509508252479
 31
0.0
  0
LINE
  5
11AA
330
2
100
AcDbEntity
  8
0
100
AcDbLine
 10
441.6956561759838
 20
107.650950825248
 30
0.0
 11
372.6956646300244
 21
107.650950825248
 31
0.0
  0
LINE
  5
11AB
330
2
100
AcDbEntity
  8
0
100
AcDbLine
 10
372.6956646300244
 20
126.1509968252481
 30
0.0
 11
361.6956646300244
 21
126.1509968252481
 31
0.0
  0
LINE
  5
11AC
330
2
100
AcDbEntity
  8
0
100
AcDbLine
 10
372.6956646300244
 20
108.1509968252481
 30
0.0
 11
361.6956646300244
 21
108.1509968252481
 31
0.0
  0
LINE
  5
11AD
330
2
100
AcDbEntity
  8
0
100
AcDbLine
 10
360.5456646300248
 20
126.1509968252481
 30
0.0
 11
351.6956646300244
 21
126.1509968252481
 31
0.0
  0
LINE
  5
11AE
330
2
100
AcDbEntity
  8
0
100
AcDbLine
 10
360.5456646300248
 20
108.1509968252481
 30
0.0
 11
351.6956646300244
 21
108.1509968252481
 31
0.0
  0
LINE
  5
11AF
330
2
100
AcDbEntity
  8
0
100
AcDbLine
 10
454.6956561759856
 20
94.15099682524811
 30
0.0
 11
454.6956561759856
 21
102.6509508252479
 31
0.0
  0
LINE
  5
11B0
330
2
100
AcDbEntity
  8
0
100
AcDbLine
 10
454.6956561759856
 20
131.6509508252484
 30
0.0
 11
454.6956561759856
 21
140.1509968252472
 31
0.0
  0
LINE
  5
11B1
330
2
100
AcDbEntity
  8
0
100
AcDbLine
 10
446.6956561759856
 20
93.88667011937156
 30
0.0
 11
446.6956561759856
 21
102.6509508252479
 31
0.0
  0
LINE
  5
11B2
330
2
100
AcDbEntity
  8
0
100
AcDbLine
 10
446.6956561759856
 20
131.6509508252484
 30
0.0
 11
446.6956561759856
 21
140.4153235311246
 31
0.0
  0
LINE
  5
11B3
330
2
100
AcDbEntity
  8
0
100
AcDbLine
 10
454.6956561759856
 20
94.15099682524811
 30
0.0
 11
446.6956561759856
 21
94.15099682524811
 31
0.0
  0
LINE
  5
11B4
330
2
100
AcDbEntity
  8
0
100
AcDbLine
 10
454.6956561759856
 20
94.15099682524811
 30
0.0
 11
455.6956561759855
 21
93.57364655605858
 31
0.0
  0
LINE
  5
11B5
330
2
100
AcDbEntity
  8
0
100
AcDbLine
 10
446.6956561759856
 20
93.88667011937156
 30
0.0
 11
445.7047439597085
 21
93.86072216979398
 31
0.0
  0
LINE
  5
11B6
330
2
100
AcDbEntity
  8
0
100
AcDbLine
 10
454.6956561759856
 20
140.1509968252472
 30
0.0
 11
446.6956561759856
 21
140.1509968252472
 31
0.0
  0
LINE
  5
11B7
330
2
100
AcDbEntity
  8
0
100
AcDbLine
 10
454.6956561759856
 20
140.1509968252481
 30
0.0
 11
455.6956561759855
 21
140.7283470944372
 31
0.0
  0
LINE
  5
11B8
330
2
100
AcDbEntity
  8
0
100
AcDbLine
 10
446.6956561759856
 20
140.4153235311246
 30
0.0
 11
445.7047439596884
 21
140.4412714807027
 31
0.0
  0
SPLINE
  5
11B9
330
2
100
AcDbEntity
  8
HOJO
100
AcDbSpline
210
0.0
220
0.0
230
1.0
 70
     8
 71
     3
 72
    30
 73
    26
 74
     0
 42
0.0000000001
 43
0.0000000001
 40
0.5016654732119501
 40
0.5016654732119501
 40
0.5016654732119501
 40
0.5016654732119501
 40
2.680955593237801
 40
6.481103170843645
 40
9.861715666174537
 40
12.67866478189151
 40
16.05777144949662
 40
20.04695970870067
 40
22.66457515320929
 40
29.72623868189037
 40
37.99790621919433
 40
46.99071548625449
 40
54.49076198617444
 40
61.82498628838093
 40
69.45839622923616
 40
80.97138657320707
 40
88.08160211842633
 40
97.70908643514403
 40
100.9862254185234
 40
104.809996963859
 40
108.9004570007386
 40
112.9568108017827
 40
116.4247884416666
 40
119.9571556713895
 40
122.4205000303466
 40
122.4205000303466
 40
122.4205000303466
 40
122.4205000303466
 10
351.6956561759819
 20
142.5267920612191
 30
0.0
 10
352.3548686216821
 20
142.1879372539797
 30
0.0
 10
354.1728729236477
 20
141.325963713422
 30
0.0
 10
357.2318917641681
 20
141.5319676134614
 30
0.0
 10
361.1303350954134
 20
141.8336407992283
 30
0.0
 10
362.2512967515834
 20
138.2815306999787
 30
0.0
 10
362.3919509784467
 20
135.1035007770092
 30
0.0
 10
363.2808358729056
 20
131.4860910274692
 30
0.0
 10
367.7410322931431
 20
129.4859639743741
 30
0.0
 10
373.7754014851219
 20
131.1003907761319
 30
0.0
 10
381.8676374483787
 20
129.4778246974106
 30
0.0
 10
390.0761387890146
 20
131.8478544234608
 30
0.0
 10
397.9788654159932
 20
129.5896832170615
 30
0.0
 10
405.4284115473568
 20
131.7475814589866
 30
0.0
 10
414.204643921805
 20
129.3847371110887
 30
0.0
 10
422.953024564755
 20
131.898257853873
 30
0.0
 10
432.3662426306277
 20
129.0547993697087
 30
0.0
 10
438.7172296170814
 20
132.1117325236269
 30
0.0
 10
444.8632926527738
 20
128.9085737033374
 30
0.0
 10
446.3595638212849
 20
133.9494097565048
 30
0.0
 10
444.4579941657651
 20
137.2863061443613
 30
0.0
 10
445.8438091679185
 20
141.8567091149075
 30
0.0
 10
449.891421904322
 20
142.3610687123073
 30
0.0
 10
453.0075170878975
 20
142.0355957813017
 30
0.0
 10
454.9155572039402
 20
142.6270597293501
 30
0.0
 10
455.6956561759855
 20
142.9161359410277
 30
0.0
  0
SPLINE
  5
11BA
330
2
100
AcDbEntity
  8
HOJO
100
AcDbSpline
210
0.0
220
0.0
230
1.0
 70
     8
 71
     3
 72
    30
 73
    26
 74
     0
 42
0.0000000001
 43
0.0000000001
 40
0.5016654732119501
 40
0.5016654732119501
 40
0.5016654732119501
 40
0.5016654732119501
 40
2.680955593237801
 40
6.481103170843645
 40
9.861715666174537
 40
12.67866478189151
 40
16.05777144949662
 40
20.04695970870067
 40
22.66457515320929
 40
29.72623868189037
 40
37.99790621919433
 40
46.99071548625449
 40
54.49076198617444
 40
61.82498628838093
 40
69.45839622923616
 40
80.97138657320707
 40
88.08160211842633
 40
97.70908643514403
 40
100.9862254185234
 40
104.809996963859
 40
108.9004570007386
 40
112.9568108017827
 40
116.4247884416666
 40
119.9571556713895
 40
122.4205000303466
 40
122.4205000303466
 40
122.4205000303466
 40
122.4205000303466
 10
351.6956561759819
 20
91.77520158927706
 30
0.0
 10
352.3548686216821
 20
92.11405639651644
 30
0.0
 10
354.1728729236477
 20
92.97602993707419
 30
0.0
 10
357.2318917641681
 20
92.77002603703483
 30
0.0
 10
361.1303350954134
 20
92.46835285126786
 30
0.0
 10
362.2512967515834
 20
96.02046295051748
 30
0.0
 10
362.3919509784467
 20
99.19849287348695
 30
0.0
 10
363.2808358729056
 20
102.8159026230269
 30
0.0
 10
367.7410322931431
 20
104.8160296761221
 30
0.0
 10
373.7754014851219
 20
103.2016028743642
 30
0.0
 10
381.8676374483787
 20
104.8241689530855
 30
0.0
 10
390.0761387890146
 20
102.4541392270353
 30
0.0
 10
397.9788654159932
 20
104.7123104334346
 30
0.0
 10
405.4284115473568
 20
102.5544121915095
 30
0.0
 10
414.204643921805
 20
104.9172565394074
 30
0.0
 10
422.953024564755
 20
102.4037357966231
 30
0.0
 10
432.3662426306277
 20
105.2471942807874
 30
0.0
 10
438.7172296170814
 20
102.1902611268693
 30
0.0
 10
444.8632926527738
 20
105.3934199471587
 30
0.0
 10
446.3595638212849
 20
100.3525838939913
 30
0.0
 10
444.4579941657651
 20
97.01568750613484
 30
0.0
 10
445.8438091679185
 20
92.44528453558865
 30
0.0
 10
449.891421904322
 20
91.94092493818885
 30
0.0
 10
453.0075170878975
 20
92.26639786919447
 30
0.0
 10
454.9155572039402
 20
91.67493392114607
 30
0.0
 10
455.6956561759855
 20
91.38585770946844
 30
0.0
  0
LINE
  5
11BB
330
2
100
AcDbEntity
  8
0
100
AcDbLine
 10
360.6956561759819
 20
102.6539503962408
 30
0.0
 11
360.6956561759819
 21
93.76883347230938
 31
0.0
  0
LINE
  5
11BC
330
2
100
AcDbEntity
  8
0
100
AcDbLine
 10
454.6956561759838
 20
140.1509968252472
 30
0.0
 11
446.6956561759856
 21
131.6509508252484
 31
0.0
  0
LINE
  5
11BD
330
2
100
AcDbEntity
  8
0
100
AcDbLine
 10
446.6956561759856
 20
140.1509968252472
 30
0.0
 11
454.6956561759856
 21
131.6509508252484
 31
0.0
  0
LINE
  5
11BE
330
2
100
AcDbEntity
  8
0
100
AcDbLine
 10
454.6956561759856
 20
102.6509508252479
 30
0.0
 11
446.6956561759856
 21
94.15099682524811
 31
0.0
  0
LINE
  5
11BF
330
2
100
AcDbEntity
  8
0
100
AcDbLine
 10
446.6956561759856
 20
102.6509508252479
 30
0.0
 11
454.6956561759856
 21
94.15099682524811
 31
0.0
  0
LINE
  5
11C0
330
2
100
AcDbEntity
  8
0
100
AcDbLine
 10
360.6956561759819
 20
102.6480432542553
 30
0.0
 11
352.6956561759819
 21
94.15099682524811
 31
0.0
  0
LINE
  5
11C1
330
2
100
AcDbEntity
  8
0
100
AcDbLine
 10
352.6956561759819
 20
102.6480432542553
 30
0.0
 11
360.6956561759819
 21
94.15099682524811
 31
0.0
  0
LINE
  5
11C2
330
2
100
AcDbEntity
  8
0
100
AcDbLine
 10
352.6956561759819
 20
140.1509968252472
 30
0.0
 11
360.6956561759819
 21
131.6480432542553
 31
0.0
  0
LINE
  5
11C3
330
2
100
AcDbEntity
  8
0
100
AcDbLine
 10
360.6956561759819
 20
140.1509968252481
 30
0.0
 11
352.6956561759819
 21
131.6480432542553
 31
0.0
  0
LINE
  5
11C4
330
2
100
AcDbEntity
  8
0
100
AcDbLine
 10
304.6103596367496
 20
361.6983334183369
 30
0.0
 11
304.6103596367496
 21
332.6983334183369
 31
0.0
  0
LINE
  5
11C5
330
2
100
AcDbEntity
  8
0
100
AcDbLine
 10
423.6103511827098
 20
361.70124098933
 30
0.0
 11
423.6103511827098
 21
332.7012409893296
 31
0.0
  0
LINE
  5
11C6
330
2
100
AcDbEntity
  8
0
100
AcDbLine
 10
410.610351182709
 20
332.7012409893296
 30
0.0
 11
423.6103511827098
 21
332.7012409893296
 31
0.0
  0
LINE
  5
11C7
330
2
100
AcDbEntity
  8
0
100
AcDbLine
 10
306.6103511827071
 20
332.6983334183369
 30
0.0
 11
304.6103596367496
 21
332.6983334183369
 31
0.0
  0
LINE
  5
11C8
330
2
100
AcDbEntity
  8
0
100
AcDbLine
 10
410.6103511827107
 20
361.70124098933
 30
0.0
 11
423.6103511827098
 21
361.70124098933
 31
0.0
  0
LINE
  5
11C9
330
2
100
AcDbEntity
  8
0
100
AcDbLine
 10
306.6103511827071
 20
361.6983334183369
 30
0.0
 11
304.6103596367496
 21
361.6983334183369
 31
0.0
  0
CIRCLE
  5
11CA
330
2
100
AcDbEntity
  8
0
100
AcDbCircle
 10
415.6103511827098
 20
347.2012409893296
 30
0.0
 40
2.049999999999999
  0
CIRCLE
  5
11CB
330
2
100
AcDbEntity
  8
HOJO
100
AcDbCircle
 10
415.6103511827098
 20
347.2012912039463
 30
0.0
 40
2.5
  0
LINE
  5
11CC
330
2
100
AcDbEntity
  8
CENTER
100
AcDbLine
 10
415.6103511827089
 20
352.3027593740721
 30
0.0
 11
415.6103511827089
 21
342.0998146045872
 31
0.0
  0
LINE
  5
11CD
330
2
100
AcDbEntity
  8
0
100
AcDbLine
 10
557.0863776153922
 20
667.0985460614338
 30
0.0
 11
586.0863776153922
 21
667.0985460614338
 31
0.0
  0
LINE
  5
11CE
330
2
100
AcDbEntity
  8
0
100
AcDbLine
 10
557.0834700443987
 20
548.098554515474
 30
0.0
 11
586.0834700443996
 21
548.098554515474
 31
0.0
  0
LINE
  5
11CF
330
2
100
AcDbEntity
  8
0
100
AcDbLine
 10
586.0834700443996
 20
561.0985545154749
 30
0.0
 11
586.0834700443996
 21
548.098554515474
 31
0.0
  0
LINE
  5
11D0
330
2
100
AcDbEntity
  8
0
100
AcDbLine
 10
586.0863776153922
 20
665.0985545154762
 30
0.0
 11
586.0863776153922
 21
667.0985460614338
 31
0.0
  0
LINE
  5
11D1
330
2
100
AcDbEntity
  8
0
100
AcDbLine
 10
557.0834700443987
 20
561.0985545154735
 30
0.0
 11
557.0834700443987
 21
548.098554515474
 31
0.0
  0
LINE
  5
11D2
330
2
100
AcDbEntity
  8
0
100
AcDbLine
 10
557.0863776153922
 20
665.0985545154762
 30
0.0
 11
557.0863776153922
 21
667.0985460614338
 31
0.0
  0
CIRCLE
  5
11D3
330
2
100
AcDbEntity
  8
0
100
AcDbCircle
 10
571.5834700443996
 20
556.098554515474
 30
0.0
 40
2.049999999999999
  0
CIRCLE
  5
11D4
330
2
100
AcDbEntity
  8
HOJO
100
AcDbCircle
 10
571.5834198297828
 20
556.098554515474
 30
0.0
 40
2.5
  0
LINE
  5
11D5
330
2
100
AcDbEntity
  8
CENTER
100
AcDbLine
 10
566.4819516596574
 20
556.0985545154749
 30
0.0
 11
576.6848964291415
 21
556.0985545154749
 31
0.0
  0
ARC
  5
11D6
330
2
100
AcDbEntity
  8
0
100
AcDbCircle
 10
571.5834240443959
 20
347.2012869893438
 30
0.0
 40
8.999999999999982
100
AcDbArc
 50
109.4712206344713
 51
70.52877936552867
  0
LINE
  5
11D7
330
2
100
AcDbEntity
  8
0
100
AcDbLine
 10
568.5834240443958
 20
359.001286989344
 30
0.0
 11
574.5834240443959
 21
359.001286989344
 31
0.0
  0
LINE
  5
11D8
330
2
100
AcDbEntity
  8
0
100
AcDbLine
 10
568.5834240443958
 20
359.001286989344
 30
0.0
 11
568.5834240443958
 21
355.6865683635824
 31
0.0
  0
LINE
  5
11D9
330
2
100
AcDbEntity
  8
0
100
AcDbLine
 10
574.5834240443959
 20
359.001286989344
 30
0.0
 11
574.5834240443968
 21
355.686568363582
 31
0.0
  0
CIRCLE
  5
11DA
330
2
100
AcDbEntity
  8
0
100
AcDbCircle
 10
571.5834240443959
 20
347.2012869893442
 30
0.0
 40
14.4999539999859
  0
ARC
  5
11DB
330
2
100
AcDbEntity
  8
0
100
AcDbCircle
 10
571.5834240444068
 20
347.2012869893552
 30
0.0
 40
10.15465453835361
100
AcDbArc
 50
107.1833853173834
 51
72.81661468272726
  0
ARC
  5
11DC
330
2
100
AcDbEntity
  8
0
100
AcDbCircle
 10
189.8624585552801
 20
347.2012869893506
 30
0.0
 40
8.999999999999982
100
AcDbArc
 50
109.4712206344713
 51
70.52877936552867
  0
LINE
  5
11DD
330
2
100
AcDbEntity
  8
0
100
AcDbLine
 10
186.8624585552801
 20
359.0012869893508
 30
0.0
 11
192.8624585552801
 21
359.0012869893508
 31
0.0
  0
LINE
  5
11DE
330
2
100
AcDbEntity
  8
0
100
AcDbLine
 10
186.8624585552801
 20
359.0012869893508
 30
0.0
 11
186.8624585552801
 21
355.6865683635892
 31
0.0
  0
LINE
  5
11DF
330
2
100
AcDbEntity
  8
0
100
AcDbLine
 10
192.8624585552801
 20
359.0012869893508
 30
0.0
 11
192.862458555281
 21
355.6865683635888
 31
0.0
  0
ARC
  5
11E0
330
2
100
AcDbEntity
  8
0
100
AcDbCircle
 10
189.862458555291
 20
347.201286989362
 30
0.0
 40
10.15465453835361
100
AcDbArc
 50
107.1833853173834
 51
72.81661468272726
  0
CIRCLE
  5
11E1
330
2
100
AcDbEntity
  8
0
100
AcDbCircle
 10
189.8624585552801
 20
347.2012869893511
 30
0.0
 40
14.4999539999859
  0
LINE
  5
11E3
330
2
100
AcDbEntity
  8
0
100
AcDbLine
 10
612.1683426513394
 20
645.5985545128132
 30
0.0
 11
612.3734240443995
 21
622.0985545154776
 31
0.0
  0
ARC
  5
11E4
330
2
100
AcDbEntity
  8
0
100
AcDbCircle
 10
615.3255405067078
 20
627.5985545154772
 30
0.0
 40
3.0
100
AcDbArc
 50
180.5000000000045
 51
270.0
  0
LINE
  5
1213
330
2
100
AcDbEntity
  8
CENTER
  6
CENS
100
AcDbLine
 10
364.6103511827035
 20
396.3249714120325
 30
0.0
 11
364.6103511827035
 21
372.9650454096657
 31
0.0
  0
LINE
  5
1214
330
2
100
AcDbEntity
  8
0
100
AcDbLine
 10
369.6103511827035
 20
391.2012869893294
 30
0.0
 11
359.6103511827035
 21
391.2012869893294
 31
0.0
  0
ARC
  5
1215
330
2
100
AcDbEntity
  8
0
100
AcDbCircle
 10
359.6103511827035
 20
387.2012869893294
 30
0.0
 40
4.0
100
AcDbArc
 50
90.0
 51
159.1508477649675
  0
ARC
  5
1216
330
2
100
AcDbEntity
  8
0
100
AcDbCircle
 10
369.6103511827035
 20
387.2012869893294
 30
0.0
 40
4.0
100
AcDbArc
 50
17.60182375627703
 51
90.0
  0
LINE
  5
1217
330
2
100
AcDbEntity
  8
0
100
AcDbLine
 10
665.5834240400302
 20
651.7485545154772
 30
0.0
 11
665.5834240400321
 21
592.448554515477
 31
0.0
  0
LINE
  5
1218
330
2
100
AcDbEntity
  8
0
100
AcDbLine
 10
687.5834240400303
 20
619.0985545154776
 30
0.0
 11
687.5834240400303
 21
600.0985545154776
 31
0.0
  0
LINE
  5
1219
330
2
100
AcDbEntity
  8
0
100
AcDbLine
 10
690.5834240400302
 20
622.0985545154776
 30
0.0
 11
698.5834240400285
 21
622.0985545154776
 31
0.0
  0
LINE
  5
121A
330
2
100
AcDbEntity
  8
0
100
AcDbLine
 10
667.188975315495
 20
662.0985545154776
 30
0.0
 11
711.5834240400285
 21
662.0985545154776
 31
0.0
  0
LINE
  5
121B
330
2
100
AcDbEntity
  8
0
100
AcDbLine
 10
701.5834240400285
 20
657.0985545154776
 30
0.0
 11
701.5834240400285
 21
625.0985545154776
 31
0.0
  0
ARC
  5
121C
330
2
100
AcDbEntity
  8
0
100
AcDbCircle
 10
706.5834240400285
 20
657.0985545154776
 30
0.0
 40
5.0
100
AcDbArc
 50
90.0
 51
180.0
  0
ARC
  5
121D
330
2
100
AcDbEntity
  8
0
100
AcDbCircle
 10
698.5834240400285
 20
625.0985545154776
 30
0.0
 40
3.0
100
AcDbArc
 50
270.0
 51
0.0
  0
LINE
  5
121E
330
2
100
AcDbEntity
  8
0
100
AcDbLine
 10
656.5834240400302
 20
663.0985545154776
 30
0.0
 11
663.583424040032
 21
663.0985545154776
 31
0.0
  0
ARC
  5
121F
330
2
100
AcDbEntity
  8
0
100
AcDbCircle
 10
667.188975315495
 20
667.0985545154776
 30
0.0
 40
5.0
100
AcDbArc
 50
238.9972808660634
 51
270.0
  0
ARC
  5
1220
330
2
100
AcDbEntity
  8
0
100
AcDbCircle
 10
663.583424040032
 20
661.0985545154776
 30
0.0
 40
2.0
100
AcDbArc
 50
18.96557498887199
 51
90.0
  0
ARC
  5
1221
330
2
100
AcDbEntity
  8
0
100
AcDbCircle
 10
690.5834240400302
 20
619.0985545154776
 30
0.0
 40
3.0
100
AcDbArc
 50
90.0
 51
180.0
  0
LINE
  5
1222
330
2
100
AcDbEntity
  8
0
100
AcDbLine
 10
667.188975315495
 20
582.0985545154776
 30
0.0
 11
711.5834240400285
 21
582.0985545154772
 31
0.0
  0
LINE
  5
1223
330
2
100
AcDbEntity
  8
0
100
AcDbLine
 10
690.5834240400302
 20
597.0985545154776
 30
0.0
 11
698.5834240400285
 21
597.0985545154776
 31
0.0
  0
LINE
  5
1224
330
2
100
AcDbEntity
  8
0
100
AcDbLine
 10
701.5834240400285
 20
594.0985545154776
 30
0.0
 11
701.5834240400285
 21
587.0985545154772
 31
0.0
  0
ARC
  5
1225
330
2
100
AcDbEntity
  8
0
100
AcDbCircle
 10
698.5834240400285
 20
594.0985545154776
 30
0.0
 40
3.0
100
AcDbArc
 50
0.0
 51
90.0
  0
ARC
  5
1226
330
2
100
AcDbEntity
  8
0
100
AcDbCircle
 10
706.5834240400285
 20
587.0985545154776
 30
0.0
 40
5.0
100
AcDbArc
 50
180.0
 51
270.0
  0
ARC
  5
1227
330
2
100
AcDbEntity
  8
0
100
AcDbCircle
 10
690.5834240400302
 20
600.0985545154776
 30
0.0
 40
3.0
100
AcDbArc
 50
180.0
 51
270.0
  0
LINE
  5
1228
330
2
100
AcDbEntity
  8
0
100
AcDbLine
 10
656.5834240400302
 20
581.0985545154771
 30
0.0
 11
663.583424040032
 21
581.0985545154776
 31
0.0
  0
ARC
  5
1229
330
2
100
AcDbEntity
  8
0
100
AcDbCircle
 10
667.188975315495
 20
577.0985545154776
 30
0.0
 40
5.0
100
AcDbArc
 50
90.0
 51
121.0027191339365
  0
ARC
  5
122A
330
2
100
AcDbEntity
  8
0
100
AcDbCircle
 10
663.583424040032
 20
583.0985545154776
 30
0.0
 40
2.0
100
AcDbArc
 50
270.0
 51
341.0344250111279
  0
LINE
  5
122B
330
2
100
AcDbEntity
  8
0
100
AcDbLine
 10
711.5834240400285
 20
662.0985545154776
 30
0.0
 11
711.5834240400285
 21
582.0985545154772
 31
0.0
  0
LINE
  5
122C
330
2
100
AcDbEntity
  8
0
100
AcDbLine
 10
892.2210572397984
 20
388.2012869893347
 30
0.0
 11
904.4086777146716
 21
388.2012869893356
 31
0.0
  0
LINE
  5
122D
330
2
100
AcDbEntity
  8
0
100
AcDbLine
 10
922.1546444070858
 20
388.201286989337
 30
0.0
 11
964.3422648819599
 21
388.2012869893401
 31
0.0
  0
CIRCLE
  5
122E
330
2
100
AcDbEntity
  8
HIDS
100
AcDbCircle
 10
928.2816610608792
 20
347.2012869893351
 30
0.0
 40
40.0
  0
CIRCLE
  5
122F
330
2
100
AcDbEntity
  8
0
100
AcDbCircle
 10
928.2816610608792
 20
347.2012869893351
 30
0.0
 40
34.99999999543831
  0
LINE
  5
1230
330
2
100
AcDbEntity
  8
0
100
AcDbLine
 10
896.2816610608792
 20
387.2012869893351
 30
0.0
 11
960.2816610608792
 21
387.2012869893351
 31
0.0
  0
LINE
  5
1231
330
2
100
AcDbEntity
  8
0
100
AcDbLine
 10
896.2816610608792
 20
307.2012869893351
 30
0.0
 11
960.1885427623185
 21
307.2012869893356
 31
0.0
  0
LINE
  5
1232
330
2
100
AcDbEntity
  8
0
100
AcDbLine
 10
887.2214290008308
 20
311.1403159132501
 30
0.0
 11
886.7816610608882
 21
347.2012869893351
 31
0.0
  0
LINE
  5
1233
330
2
100
AcDbEntity
  8
0
100
AcDbLine
 10
888.3748132057684
 20
315.1780159747687
 30
0.0
 11
888.2816610608792
 21
347.2012869893351
 31
0.0
  0
ARC
  5
1234
330
2
100
AcDbEntity
  8
0
100
AcDbCircle
 10
892.2210572397984
 20
311.2012869893356
 30
0.0
 40
5.0
100
AcDbArc
 50
180.6986943829866
 51
270.0
  0
ARC
  5
1235
330
2
100
AcDbEntity
  8
0
100
AcDbCircle
 10
896.3747793594396
 20
315.2012869893352
 30
0.0
 40
7.999999999999998
100
AcDbArc
 50
180.1666665999998
 51
270.0
  0
LINE
  5
1236
330
2
100
AcDbEntity
  8
CENTER
100
AcDbLine
 10
896.4616610608794
 20
320.881286989335
 30
0.0
 11
896.4616610608794
 21
309.881286989335
 31
0.0
  0
LINE
  5
1237
330
2
100
AcDbEntity
  8
CENTER
100
AcDbLine
 10
890.9616610608795
 20
315.381286989335
 30
0.0
 11
901.9616610608794
 21
315.381286989335
 31
0.0
  0
LINE
  5
1238
330
2
100
AcDbEntity
  8
0
100
AcDbLine
 10
887.2214290008308
 20
383.2622580654202
 30
0.0
 11
886.7816610608882
 21
347.2012869893351
 31
0.0
  0
LINE
  5
1239
330
2
100
AcDbEntity
  8
HIDS
100
AcDbLine
 10
907.5316610608773
 20
387.2012869893351
 30
0.0
 11
907.870282697238
 21
367.8016664347793
 31
0.0
  0
LINE
  5
123A
330
2
100
AcDbEntity
  8
HIDS
100
AcDbLine
 10
919.0316610608773
 20
387.2012869893351
 30
0.0
 11
918.8119067776854
 21
374.6115725372083
 31
0.0
  0
LINE
  5
123B
330
2
100
AcDbEntity
  8
0
100
AcDbLine
 10
888.3748132057684
 20
379.2245580039021
 30
0.0
 11
888.2816610608792
 21
347.2012869893351
 31
0.0
  0
LINE
  5
123C
330
2
100
AcDbEntity
  8
CENTER
100
AcDbLine
 10
896.4616610608794
 20
384.5212869893353
 30
0.0
 11
896.4616610608794
 21
373.5212869893353
 31
0.0
  0
ARC
  5
123D
330
2
100
AcDbEntity
  8
HIDS
100
AcDbCircle
 10
905.2470555871099
 20
385.2012869893351
 30
0.0
 40
2.0
100
AcDbArc
 50
90.0
 51
178.9999999999974
  0
ARC
  5
123E
330
2
100
AcDbEntity
  8
0
100
AcDbCircle
 10
892.2210572397984
 20
383.2012869893347
 30
0.0
 40
5.0
100
AcDbArc
 50
90.0
 51
179.3013056170132
  0
ARC
  5
123F
330
2
100
AcDbEntity
  8
0
100
AcDbCircle
 10
896.3747793594396
 20
379.2012869893351
 30
0.0
 40
7.999999999999998
100
AcDbArc
 50
90.0
 51
179.8333334000001
  0
LINE
  5
1240
330
2
100
AcDbEntity
  8
CENTER
100
AcDbLine
 10
890.9616610608795
 20
379.0212869893353
 30
0.0
 11
901.9616610608794
 21
379.0212869893353
 31
0.0
  0
LINE
  5
1241
330
2
100
AcDbEntity
  8
HIDS
100
AcDbLine
 10
903.247360196798
 20
385.2361918022093
 30
0.0
 11
903.1502092345384
 21
379.6704169019431
 31
0.0
  0
ARC
  5
1242
330
2
100
AcDbEntity
  8
HIDS
100
AcDbCircle
 10
900.1506661490678
 20
379.7227741212551
 30
0.0
 40
3.0
100
AcDbArc
 50
310.8597132650932
 51
358.9999999999843
  0
LINE
  5
1243
330
2
100
AcDbEntity
  8
0
100
AcDbLine
 10
969.3418931209274
 20
311.1403159132501
 30
0.0
 11
969.78166106087
 21
347.2012869893038
 31
0.0
  0
LINE
  5
1244
330
2
100
AcDbEntity
  8
0
100
AcDbLine
 10
968.18850891599
 20
315.1780159747687
 30
0.0
 11
968.2816610608792
 21
347.2012869893351
 31
0.0
  0
ARC
  5
1245
330
2
100
AcDbEntity
  8
0
100
AcDbCircle
 10
964.3422648819599
 20
311.2012869893352
 30
0.0
 40
5.0
100
AcDbArc
 50
270.0
 51
359.3013056170132
  0
ARC
  5
1246
330
2
100
AcDbEntity
  8
0
100
AcDbCircle
 10
960.1885427623185
 20
315.2012869893352
 30
0.0
 40
8.0
100
AcDbArc
 50
270.0
 51
359.8333334000002
  0
LINE
  5
1247
330
2
100
AcDbEntity
  8
HIDS
100
AcDbLine
 10
953.3159619249603
 20
309.1663821764601
 30
0.0
 11
953.4131128872198
 21
314.7321570767267
 31
0.0
  0
LINE
  5
1248
330
2
100
AcDbEntity
  8
CENTER
100
AcDbLine
 10
960.1016610608789
 20
320.881286989335
 30
0.0
 11
960.1016610608789
 21
309.881286989335
 31
0.0
  0
ARC
  5
1249
330
2
100
AcDbEntity
  8
HIDS
100
AcDbCircle
 10
951.3162665346467
 20
309.2012869893356
 30
0.0
 40
2.0
100
AcDbArc
 50
270.0
 51
358.9999999999843
  0
LINE
  5
124A
330
2
100
AcDbEntity
  8
CENTER
100
AcDbLine
 10
954.6016610608788
 20
315.381286989335
 30
0.0
 11
965.6016610608789
 21
315.381286989335
 31
0.0
  0
ARC
  5
124B
330
2
100
AcDbEntity
  8
HIDS
100
AcDbCircle
 10
956.4126559726886
 20
314.6797998574143
 30
0.0
 40
3.0
100
AcDbArc
 50
130.8597132650931
 51
178.9999999999843
  0
LINE
  5
124C
330
2
100
AcDbEntity
  8
0
100
AcDbLine
 10
969.3418931209274
 20
383.2622580654202
 30
0.0
 11
969.78166106087
 21
347.2012869893038
 31
0.0
  0
LINE
  5
124D
330
2
100
AcDbEntity
  8
0
100
AcDbLine
 10
968.18850891599
 20
379.2245580039021
 30
0.0
 11
968.2816610608792
 21
347.2012869893351
 31
0.0
  0
LINE
  5
124E
330
2
100
AcDbEntity
  8
CENTER
100
AcDbLine
 10
960.1016610608789
 20
384.5212869893353
 30
0.0
 11
960.1016610608789
 21
373.5212869893353
 31
0.0
  0
ARC
  5
124F
330
2
100
AcDbEntity
  8
0
100
AcDbCircle
 10
960.1885427623185
 20
379.2012869893351
 30
0.0
 40
8.0
100
AcDbArc
 50
0.1666665999998381
 51
90.0
  0
LINE
  5
1250
330
2
100
AcDbEntity
  8
CENTER
100
AcDbLine
 10
954.6016610608788
 20
379.0212869893353
 30
0.0
 11
965.6016610608789
 21
379.0212869893353
 31
0.0
  0
ARC
  5
1251
330
2
100
AcDbEntity
  8
0
100
AcDbCircle
 10
964.3422648819599
 20
383.2012869893351
 30
0.0
 40
5.0
100
AcDbArc
 50
0.6986943829867131
 51
90.0
  0
LINE
  5
1252
330
2
100
AcDbEntity
  8
0
100
AcDbLine
 10
665.4148232350738
 20
356.8604208833474
 30
0.0
 11
664.9020672464242
 21
386.2361918022155
 31
0.0
  0
LINE
  5
1253
330
2
100
AcDbEntity
  8
0
100
AcDbLine
 10
702.1958744813249
 20
382.2885490215306
 30
0.0
 11
702.13384077852
 21
378.7346405680917
 31
0.0
  0
ARC
  5
1254
330
2
100
AcDbEntity
  8
0
100
AcDbCircle
 10
662.9023718561123
 20
308.201286989344
 30
0.0
 40
2.0
100
AcDbArc
 50
270.0
 51
358.9999999999974
  0
LINE
  5
1256
330
2
100
AcDbEntity
  8
0
100
AcDbLine
 10
704.5834240443995
 20
376.2012869893445
 30
0.0
 11
700.6737706956222
 21
376.2012869893445
 31
0.0
  0
LINE
  5
1257
330
2
100
AcDbEntity
  8
0
100
AcDbLine
 10
665.5834240443994
 20
347.2012869893445
 30
0.0
 11
664.9020672464261
 21
308.1663821764694
 31
0.0
  0
LINE
  5
1258
330
2
100
AcDbEntity
  8
0
100
AcDbLine
 10
702.1958744813249
 20
312.1140249571579
 30
0.0
 11
701.5834240444013
 21
347.2012869893445
 31
0.0
  0
LINE
  5
1259
330
2
100
AcDbEntity
  8
0
100
AcDbLine
 10
711.5834240443994
 20
307.2012869893445
 30
0.0
 11
666.0646495162812
 21
307.201286989344
 31
0.0
  0
ARC
  5
125A
330
2
100
AcDbEntity
  8
0
100
AcDbCircle
 10
707.1951129571074
 20
312.201286989344
 30
0.0
 40
5.0
100
AcDbArc
 50
181.0000000000025
 51
270.0
  0
LINE
  5
125B
330
2
100
AcDbEntity
  8
0
100
AcDbLine
 10
656.5834240443995
 20
306.201286989344
 30
0.0
 11
662.9023718561123
 21
306.201286989344
 31
0.0
  0
ARC
  5
125C
330
2
100
AcDbEntity
  8
0
100
AcDbCircle
 10
662.9023718561123
 20
386.2012869893449
 30
0.0
 40
2.0
100
AcDbArc
 50
0.999999999883696
 51
90.0
  0
LINE
  5
125D
330
2
100
AcDbEntity
  8
0
100
AcDbLine
 10
711.5834240443994
 20
387.201286989344
 30
0.0
 11
666.0646495162812
 21
387.2012869893445
 31
0.0
  0
ARC
  5
125E
330
2
100
AcDbEntity
  8
0
100
AcDbCircle
 10
707.1951129571074
 20
382.201286989344
 30
0.0
 40
5.0
100
AcDbArc
 50
90.0
 51
178.9999999999974
  0
LINE
  5
125F
330
2
100
AcDbEntity
  8
0
100
AcDbLine
 10
656.5834240444013
 20
388.2012869893445
 30
0.0
 11
662.9023718561123
 21
388.2012869893449
 31
0.0
  0
LINE
  5
1260
330
2
100
AcDbEntity
  8
0
100
AcDbLine
 10
711.5834240443994
 20
387.201286989344
 30
0.0
 11
711.5834240443994
 21
307.2012869893445
 31
0.0
  0
ARC
  5
1261
330
2
100
AcDbEntity
  8
0
100
AcDbCircle
 10
666.0646495162812
 20
390.7012869893445
 30
0.0
 40
3.5
100
AcDbArc
 50
234.9031987723861
 51
270.0
  0
ARC
  5
1262
330
2
100
AcDbEntity
  8
0
100
AcDbCircle
 10
666.0646495162812
 20
303.701286989344
 30
0.0
 40
3.5
100
AcDbArc
 50
90.0
 51
125.0968012276142
  0
ARC
  5
1263
330
2
100
AcDbEntity
  8
0
100
AcDbCircle
 10
950.8777045010651
 20
426.9820783012979
 30
0.0
 40
40.0
100
AcDbArc
 50
263.8230035951095
 51
263.9988421367181
  0
ARC
  5
1264
330
2
100
AcDbEntity
  8
0
100
AcDbCircle
 10
905.6856176206933
 20
267.420495677372
 30
0.0
 40
40.0
100
AcDbArc
 50
83.82300359510955
 51
83.99884213682334
  0
LINE
  5
1265
330
2
100
AcDbEntity
  8
0
100
AcDbLine
 10
892.2210572397984
 20
306.2012869893351
 30
0.0
 11
964.3422648819599
 21
306.2012869893351
 31
0.0
  0
ARC
  5
1266
330
2
100
AcDbEntity
  8
0
100
AcDbCircle
 10
950.8777045010651
 20
267.4204956773724
 30
0.0
 40
40.0
100
AcDbArc
 50
96.00115786317665
 51
96.17699640489044
  0
LINE
  5
1267
330
2
100
AcDbEntity
  8
CENTER
  6
CENS
100
AcDbLine
 10
649.9786060446289
 20
381.8512869893446
 30
0.0
 11
676.9786060446289
 21
381.8512869893446
 31
0.0
  0
LINE
  5
1268
330
2
100
AcDbEntity
  8
0
100
AcDbLine
 10
671.6658813692605
 20
376.8512869893446
 30
0.0
 11
671.6658813692605
 21
386.8512869893446
 31
0.0
  0
LINE
  5
1269
330
2
100
AcDbEntity
  8
0
100
AcDbLine
 10
672.0658813692601
 20
386.1584666663173
 30
0.0
 11
672.0658813692601
 21
377.5441073123723
 31
0.0
  0
LINE
  5
126A
330
2
100
AcDbEntity
  8
0
100
AcDbLine
 10
666.0658813692601
 20
376.8512869893446
 30
0.0
 11
666.0658813692601
 21
386.8512869893446
 31
0.0
  0
LINE
  5
126B
330
2
100
AcDbEntity
  8
0
100
AcDbLine
 10
666.0658813692601
 20
386.8512869893446
 30
0.0
 11
665.0658813692602
 21
386.8512869893446
 31
0.0
  0
LINE
  5
126C
330
2
100
AcDbEntity
  8
0
100
AcDbLine
 10
665.0658813692602
 20
386.8512869893446
 30
0.0
 11
665.0658813692602
 21
376.8512869893446
 31
0.0
  0
LINE
  5
126D
330
2
100
AcDbEntity
  8
0
100
AcDbLine
 10
665.0658813692602
 20
376.8512869893446
 30
0.0
 11
666.0658813692601
 21
376.8512869893446
 31
0.0
  0
LINE
  5
126E
330
2
100
AcDbEntity
  8
0
100
AcDbLine
 10
666.0658813692601
 20
376.8512869893446
 30
0.0
 11
666.0658813692601
 21
386.8512869893446
 31
0.0
  0
LINE
  5
126F
330
2
100
AcDbEntity
  8
0
100
AcDbLine
 10
671.6658813692605
 20
376.8512869893446
 30
0.0
 11
666.0658813692601
 21
376.8512869893446
 31
0.0
  0
LINE
  5
1270
330
2
100
AcDbEntity
  8
0
100
AcDbLine
 10
666.0658813692601
 20
386.8512869893446
 30
0.0
 11
671.6658813692605
 21
386.8512869893446
 31
0.0
  0
LINE
  5
1271
330
2
100
AcDbEntity
  8
0
100
AcDbLine
 10
671.6658813692605
 20
386.8512869893446
 30
0.0
 11
672.0658813692601
 21
386.1584666663173
 31
0.0
  0
LINE
  5
1272
330
2
100
AcDbEntity
  8
0
100
AcDbLine
 10
671.6658813692605
 20
376.8512869893446
 30
0.0
 11
672.0658813692601
 21
377.5441073123718
 31
0.0
  0
LINE
  5
1273
330
2
100
AcDbEntity
  8
CENTER
  6
CENS
100
AcDbLine
 10
649.9786060446289
 20
312.5512869893444
 30
0.0
 11
676.9786060446289
 21
312.5512869893444
 31
0.0
  0
LINE
  5
1274
330
2
100
AcDbEntity
  8
0
100
AcDbLine
 10
671.6658813692605
 20
317.5512869893444
 30
0.0
 11
671.6658813692605
 21
307.5512869893444
 31
0.0
  0
LINE
  5
1275
330
2
100
AcDbEntity
  8
0
100
AcDbLine
 10
672.0658813692601
 20
308.2441073123717
 30
0.0
 11
672.0658813692601
 21
316.8584666663166
 31
0.0
  0
LINE
  5
1276
330
2
100
AcDbEntity
  8
0
100
AcDbLine
 10
666.0658813692601
 20
317.5512869893444
 30
0.0
 11
666.0658813692601
 21
307.5512869893444
 31
0.0
  0
LINE
  5
1277
330
2
100
AcDbEntity
  8
0
100
AcDbLine
 10
666.0658813692601
 20
307.5512869893444
 30
0.0
 11
665.0658813692602
 21
307.5512869893444
 31
0.0
  0
LINE
  5
1278
330
2
100
AcDbEntity
  8
0
100
AcDbLine
 10
665.0658813692602
 20
307.5512869893444
 30
0.0
 11
665.0658813692602
 21
317.5512869893444
 31
0.0
  0
LINE
  5
1279
330
2
100
AcDbEntity
  8
0
100
AcDbLine
 10
665.0658813692602
 20
317.5512869893444
 30
0.0
 11
666.0658813692601
 21
317.5512869893444
 31
0.0
  0
LINE
  5
127A
330
2
100
AcDbEntity
  8
0
100
AcDbLine
 10
666.0658813692601
 20
317.5512869893444
 30
0.0
 11
666.0658813692601
 21
307.5512869893444
 31
0.0
  0
LINE
  5
127B
330
2
100
AcDbEntity
  8
0
100
AcDbLine
 10
671.6658813692605
 20
317.5512869893444
 30
0.0
 11
666.0658813692601
 21
317.5512869893444
 31
0.0
  0
LINE
  5
127C
330
2
100
AcDbEntity
  8
0
100
AcDbLine
 10
666.0658813692601
 20
307.5512869893444
 30
0.0
 11
671.6658813692605
 21
307.5512869893444
 31
0.0
  0
LINE
  5
127D
330
2
100
AcDbEntity
  8
0
100
AcDbLine
 10
671.6658813692605
 20
307.5512869893444
 30
0.0
 11
672.0658813692601
 21
308.2441073123717
 31
0.0
  0
LINE
  5
127E
330
2
100
AcDbEntity
  8
0
100
AcDbLine
 10
671.6658813692605
 20
317.5512869893444
 30
0.0
 11
672.0658813692601
 21
316.8584666663171
 31
0.0
  0
LINE
  5
127F
330
2
100
AcDbEntity
  8
CENTER
  6
CENS
100
AcDbLine
 10
649.9786060402579
 20
587.4485545154771
 30
0.0
 11
676.9786060402578
 21
587.4485545154771
 31
0.0
  0
LINE
  5
1280
330
2
100
AcDbEntity
  8
0
100
AcDbLine
 10
671.6658813648895
 20
592.448554515477
 30
0.0
 11
671.6658813648895
 21
582.4485545154771
 31
0.0
  0
LINE
  5
1281
330
2
100
AcDbEntity
  8
0
100
AcDbLine
 10
672.0658813648891
 20
583.1413748385048
 30
0.0
 11
672.0658813648891
 21
591.7557341924498
 31
0.0
  0
LINE
  5
1282
330
2
100
AcDbEntity
  8
0
100
AcDbLine
 10
666.0658813648892
 20
592.448554515477
 30
0.0
 11
666.0658813648892
 21
582.4485545154771
 31
0.0
  0
LINE
  5
1283
330
2
100
AcDbEntity
  8
0
100
AcDbLine
 10
666.0658813648892
 20
582.4485545154771
 30
0.0
 11
665.0658813648891
 21
582.4485545154771
 31
0.0
  0
LINE
  5
1284
330
2
100
AcDbEntity
  8
0
100
AcDbLine
 10
665.0658813648891
 20
582.4485545154771
 30
0.0
 11
665.0658813648891
 21
592.448554515477
 31
0.0
  0
LINE
  5
1285
330
2
100
AcDbEntity
  8
0
100
AcDbLine
 10
665.0658813648891
 20
592.448554515477
 30
0.0
 11
666.0658813648892
 21
592.448554515477
 31
0.0
  0
LINE
  5
1286
330
2
100
AcDbEntity
  8
0
100
AcDbLine
 10
666.0658813648892
 20
592.448554515477
 30
0.0
 11
666.0658813648892
 21
582.4485545154771
 31
0.0
  0
LINE
  5
1287
330
2
100
AcDbEntity
  8
0
100
AcDbLine
 10
671.6658813648895
 20
592.448554515477
 30
0.0
 11
666.0658813648892
 21
592.448554515477
 31
0.0
  0
LINE
  5
1288
330
2
100
AcDbEntity
  8
0
100
AcDbLine
 10
666.0658813648892
 20
582.4485545154771
 30
0.0
 11
671.6658813648895
 21
582.4485545154771
 31
0.0
  0
LINE
  5
1289
330
2
100
AcDbEntity
  8
0
100
AcDbLine
 10
671.6658813648895
 20
582.4485545154771
 30
0.0
 11
672.0658813648891
 21
583.1413748385048
 31
0.0
  0
LINE
  5
128A
330
2
100
AcDbEntity
  8
0
100
AcDbLine
 10
671.6658813648895
 20
592.4485545154775
 30
0.0
 11
672.0658813648891
 21
591.7557341924498
 31
0.0
  0
LINE
  5
128B
330
2
100
AcDbEntity
  8
CENTER
  6
CENS
100
AcDbLine
 10
649.9786060402579
 20
656.7485545154773
 30
0.0
 11
676.9786060402578
 21
656.7485545154773
 31
0.0
  0
LINE
  5
128C
330
2
100
AcDbEntity
  8
0
100
AcDbLine
 10
671.6658813648895
 20
651.7485545154772
 30
0.0
 11
671.6658813648895
 21
661.7485545154773
 31
0.0
  0
LINE
  5
128D
330
2
100
AcDbEntity
  8
0
100
AcDbLine
 10
672.0658813648891
 20
661.05573419245
 30
0.0
 11
672.0658813648891
 21
652.4413748385054
 31
0.0
  0
LINE
  5
128E
330
2
100
AcDbEntity
  8
0
100
AcDbLine
 10
666.0658813648892
 20
651.7485545154772
 30
0.0
 11
666.0658813648892
 21
661.7485545154773
 31
0.0
  0
LINE
  5
128F
330
2
100
AcDbEntity
  8
0
100
AcDbLine
 10
666.0658813648892
 20
661.7485545154773
 30
0.0
 11
665.0658813648891
 21
661.7485545154773
 31
0.0
  0
LINE
  5
1290
330
2
100
AcDbEntity
  8
0
100
AcDbLine
 10
665.0658813648891
 20
661.7485545154773
 30
0.0
 11
665.0658813648891
 21
651.7485545154772
 31
0.0
  0
LINE
  5
1291
330
2
100
AcDbEntity
  8
0
100
AcDbLine
 10
665.0658813648891
 20
651.7485545154772
 30
0.0
 11
666.0658813648892
 21
651.7485545154772
 31
0.0
  0
LINE
  5
1292
330
2
100
AcDbEntity
  8
0
100
AcDbLine
 10
666.0658813648892
 20
651.7485545154772
 30
0.0
 11
666.0658813648892
 21
661.7485545154773
 31
0.0
  0
LINE
  5
1293
330
2
100
AcDbEntity
  8
0
100
AcDbLine
 10
671.6658813648895
 20
651.7485545154772
 30
0.0
 11
666.0658813648892
 21
651.7485545154772
 31
0.0
  0
LINE
  5
1294
330
2
100
AcDbEntity
  8
0
100
AcDbLine
 10
666.0658813648892
 20
661.7485545154773
 30
0.0
 11
671.6658813648895
 21
661.7485545154773
 31
0.0
  0
LINE
  5
1295
330
2
100
AcDbEntity
  8
0
100
AcDbLine
 10
671.6658813648895
 20
661.7485545154773
 30
0.0
 11
672.0658813648891
 21
661.05573419245
 31
0.0
  0
LINE
  5
1296
330
2
100
AcDbEntity
  8
0
100
AcDbLine
 10
671.6658813648895
 20
651.7485545154772
 30
0.0
 11
672.0658813648891
 21
652.4413748385049
 31
0.0
  0
LINE
  5
1297
330
2
100
AcDbEntity
  8
0
100
AcDbLine
 10
711.5834240443994
 20
382.2012869893445
 30
0.0
 11
704.5834240443995
 21
382.2012869893445
 31
0.0
  0
LINE
  5
1298
330
2
100
AcDbEntity
  8
0
100
AcDbLine
 10
704.5834240443995
 20
382.2012869893445
 30
0.0
 11
704.5834240443995
 21
347.2012869893445
 31
0.0
  0
LINE
  5
129A
330
2
100
AcDbEntity
  8
0
100
AcDbLine
 10
704.5834240443995
 20
366.9512869893445
 30
0.0
 11
704.5834240444013
 21
347.2012869893445
 31
0.0
  0
LINE
  5
129B
330
2
100
AcDbEntity
  8
0
100
AcDbLine
 10
704.5834240443995
 20
366.9512869893445
 30
0.0
 11
694.8456194738822
 21
366.9512869893445
 31
0.0
  0
LINE
  5
129C
330
2
100
AcDbEntity
  8
0
100
AcDbLine
 10
702.5834240443995
 20
355.2012869893445
 30
0.0
 11
691.5834240443995
 21
355.2012869893445
 31
0.0
  0
LINE
  5
129D
330
2
100
AcDbEntity
  8
0
100
AcDbLine
 10
673.0834240443995
 20
355.4512869893445
 30
0.0
 11
673.0834240443995
 21
347.2012869893445
 31
0.0
  0
LINE
  5
129E
330
2
100
AcDbEntity
  8
0
100
AcDbLine
 10
673.0834240443995
 20
355.4512869893445
 30
0.0
 11
667.0834240443995
 21
355.4512869893445
 31
0.0
  0
LINE
  5
129F
330
2
100
AcDbEntity
  8
0
100
AcDbLine
 10
667.0834240443995
 20
355.4512869893445
 30
0.0
 11
667.0834240443995
 21
347.2012869893445
 31
0.0
  0
LINE
  5
12A0
330
2
100
AcDbEntity
  8
0
100
AcDbLine
 10
689.5834240443995
 20
361.4766972100395
 30
0.0
 11
689.5834240443995
 21
347.2012869893445
 31
0.0
  0
LINE
  5
12A1
330
2
100
AcDbEntity
  8
0
100
AcDbLine
 10
691.5834240443995
 20
362.5304305504212
 30
0.0
 11
691.5834240443995
 21
347.2012869893445
 31
0.0
  0
LINE
  5
12A2
330
2
100
AcDbEntity
  8
0
100
AcDbLine
 10
689.5834240443995
 20
355.2012869893445
 30
0.0
 11
673.0834240443995
 21
355.2012869893445
 31
0.0
  0
LINE
  5
12A3
330
2
100
AcDbEntity
  8
0
100
AcDbLine
 10
704.5834240443995
 20
356.355987527724
 30
0.0
 11
702.5834240443995
 21
355.2012869893445
 31
0.0
  0
LINE
  5
12A4
330
2
100
AcDbEntity
  8
0
100
AcDbLine
 10
702.5834240443995
 20
355.2012869893445
 30
0.0
 11
702.5834240443995
 21
347.2012869893445
 31
0.0
  0
LINE
  5
12A5
330
2
100
AcDbEntity
  8
0
100
AcDbLine
 10
667.0834240443995
 20
354.7012869893445
 30
0.0
 11
662.7532970254772
 21
347.2012869893445
 31
0.0
  0
SPLINE
  5
12A6
330
2
100
AcDbEntity
  8
HOJO
100
AcDbSpline
210
0.0
220
0.0
230
1.0
 70
     8
 71
     3
 72
    20
 73
    16
 74
     0
 42
0.0000000001
 43
0.0000000001
 40
1.102548511336045
 40
1.102548511336045
 40
1.102548511336045
 40
1.102548511336045
 40
5.647385924430076
 40
9.759277458584113
 40
14.59638394258456
 40
18.6386056126129
 40
22.25598020257161
 40
26.57819511411361
 40
31.00332353479096
 40
40.39337194914635
 40
45.49899296170218
 40
52.02718752358933
 40
57.17041693382338
 40
65.63449353306062
 40
69.3611614947018
 40
69.3611614947018
 40
69.3611614947018
 40
69.3611614947018
 10
707.9941759667084
 20
387.201286989344
 30
0.0
 10
706.5853884463153
 20
386.4728595396562
 30
0.0
 10
704.0727024845558
 20
384.9421469174979
 30
0.0
 10
702.751776238428
 20
380.3776242601437
 30
0.0
 10
701.6018669128802
 20
376.9860547656251
 30
0.0
 10
698.1141105008913
 20
373.3122895543809
 30
0.0
 10
696.4422753245283
 20
369.7869294244017
 30
0.0
 10
694.4650287640737
 20
366.2362127269068
 30
0.0
 10
691.07724745151
 20
360.6471681384526
 30
0.0
 10
683.5528884071949
 20
360.8227445860441
 30
0.0
 10
676.8245490505464
 20
359.6763740525464
 30
0.0
 10
671.4812825051389
 20
357.9577619480658
 30
0.0
 10
664.4825019907524
 20
357.6215906633422
 30
0.0
 10
660.7677691915281
 20
352.135596331387
 30
0.0
 10
659.4459277527325
 20
348.3656898382112
 30
0.0
 10
659.0332549796234
 20
347.2012869893445
 30
0.0
  0
LINE
  5
12A7
330
2
100
AcDbEntity
  8
HIDS
100
AcDbLine
 10
918.2816610608792
 20
364.232508319586
 30
0.0
 11
918.2816610608792
 21
352.2012869893352
 31
0.0
  0
LINE
  5
12A8
330
2
100
AcDbEntity
  8
CENTER
  6
CENS
100
AcDbLine
 10
913.2816610608792
 20
396.3249714120379
 30
0.0
 11
913.2816610608792
 21
331.3536218318054
 31
0.0
  0
LINE
  5
12A9
330
2
100
AcDbEntity
  8
0
100
AcDbLine
 10
908.5459067048891
 20
346.4512869893352
 30
0.0
 11
920.3168948998412
 21
346.4512869893352
 31
0.0
  0
LINE
  5
12AA
330
2
100
AcDbEntity
  8
0
100
AcDbLine
 10
908.5459067048891
 20
347.9512869893351
 30
0.0
 11
920.3168948998412
 21
347.9512869893351
 31
0.0
  0
CIRCLE
  5
12AB
330
2
100
AcDbEntity
  8
0
100
AcDbCircle
 10
928.2816610608792
 20
347.2012869893351
 30
0.0
 40
8.0
  0
LINE
  5
12AC
330
2
100
AcDbEntity
  8
0
100
AcDbLine
 10
945.481661060878
 20
346.4512869893352
 30
0.0
 11
945.481661060878
 21
347.9512869893351
 31
0.0
  0
LINE
  5
12AD
330
2
100
AcDbEntity
  8
0
100
AcDbLine
 10
936.246427221917
 20
346.4512869893352
 30
0.0
 11
945.481661060878
 21
346.4512869893352
 31
0.0
  0
LINE
  5
12AE
330
2
100
AcDbEntity
  8
0
100
AcDbLine
 10
936.246427221917
 20
347.9512869893351
 30
0.0
 11
945.481661060878
 21
347.9512869893351
 31
0.0
  0
LINE
  5
12AF
330
2
100
AcDbEntity
  8
HIDS
100
AcDbLine
 10
915.7816610608792
 20
346.4512869893352
 30
0.0
 11
915.7816610608792
 21
331.9103583059618
 31
0.0
  0
LINE
  5
12B0
330
2
100
AcDbEntity
  8
HIDS
100
AcDbLine
 10
915.3649943942131
 20
346.4512869893352
 30
0.0
 11
915.3649943942131
 21
332.2606637686586
 31
0.0
  0
LINE
  5
12B1
330
2
100
AcDbEntity
  8
HIDS
100
AcDbLine
 10
911.1983277275452
 20
346.4512869893352
 30
0.0
 11
911.1983277275452
 21
337.2905744911227
 31
0.0
  0
LINE
  5
12B2
330
2
100
AcDbEntity
  8
HIDS
100
AcDbLine
 10
910.7816610608791
 20
346.4512869893352
 30
0.0
 11
910.7816610608791
 21
338.0463702775346
 31
0.0
  0
LINE
  5
12B3
330
2
100
AcDbEntity
  8
HIDS
100
AcDbLine
 10
916.2816610608791
 20
352.2012869893352
 30
0.0
 11
916.2816610608791
 21
347.9512869893351
 31
0.0
  0
LINE
  5
12B4
330
2
100
AcDbEntity
  8
HIDS
100
AcDbLine
 10
910.2816610608792
 20
352.2012869893352
 30
0.0
 11
910.2816610608792
 21
347.9512869893351
 31
0.0
  0
LINE
  5
12B5
330
2
100
AcDbEntity
  8
HIDS
100
AcDbLine
 10
909.1750522565947
 20
352.2012869893352
 30
0.0
 11
918.2816610608792
 21
352.2012869893352
 31
0.0
  0
LINE
  5
12B6
330
2
100
AcDbEntity
  8
HIDS
100
AcDbLine
 10
917.5316610608792
 20
352.2012869893352
 30
0.0
 11
917.5316610608792
 21
356.9012869893354
 31
0.0
  0
LINE
  5
12B7
330
2
100
AcDbEntity
  8
0
100
AcDbLine
 10
909.0316610608791
 20
356.9012869893354
 30
0.0
 11
909.0316610608791
 21
352.2012869893352
 31
0.0
  0
LINE
  5
12B8
330
2
100
AcDbEntity
  8
HIDS
100
AcDbLine
 10
915.7816610608792
 20
338.2012869893352
 30
0.0
 11
914.7816610608792
 21
337.2012869893351
 31
0.0
  0
LINE
  5
12B9
330
2
100
AcDbEntity
  8
HIDS
100
AcDbLine
 10
910.7816610608791
 20
338.2012869893352
 30
0.0
 11
911.7816610608791
 21
337.2012869893351
 31
0.0
  0
LINE
  5
12BA
330
2
100
AcDbEntity
  8
HIDS
100
AcDbLine
 10
914.7816610608792
 20
337.2012869893351
 30
0.0
 11
913.2816610608792
 21
337.2012869893351
 31
0.0
  0
LINE
  5
12BB
330
2
100
AcDbEntity
  8
HIDS
100
AcDbLine
 10
911.7816610608791
 20
337.2012869893351
 30
0.0
 11
913.2816610608792
 21
337.2012869893351
 31
0.0
  0
LINE
  5
12BC
330
2
100
AcDbEntity
  8
HIDS
100
AcDbLine
 10
915.7816610608792
 20
352.2012869893352
 30
0.0
 11
915.7816610608792
 21
347.9512869893351
 31
0.0
  0
LINE
  5
12BD
330
2
100
AcDbEntity
  8
HIDS
100
AcDbLine
 10
915.3649943942131
 20
350.1179536560016
 30
0.0
 11
915.3649943942131
 21
347.9512869893351
 31
0.0
  0
LINE
  5
12BE
330
2
100
AcDbEntity
  8
HIDS
100
AcDbLine
 10
911.1983277275452
 20
350.1179536560016
 30
0.0
 11
911.1983277275452
 21
347.9512869893351
 31
0.0
  0
LINE
  5
12BF
330
2
100
AcDbEntity
  8
HIDS
100
AcDbLine
 10
910.7816610608791
 20
352.2012869893352
 30
0.0
 11
910.7816610608791
 21
347.9512869893351
 31
0.0
  0
LINE
  5
12C0
330
2
100
AcDbEntity
  8
HIDS
100
AcDbLine
 10
915.7816610608792
 20
338.2012869893352
 30
0.0
 11
913.2816610608792
 21
338.2012869893352
 31
0.0
  0
LINE
  5
12C1
330
2
100
AcDbEntity
  8
HIDS
100
AcDbLine
 10
910.7816610608791
 20
338.2012869893352
 30
0.0
 11
913.2816610608792
 21
338.2012869893352
 31
0.0
  0
LINE
  5
12C2
330
2
100
AcDbEntity
  8
HIDS
100
AcDbLine
 10
915.7816610608792
 20
350.1179536560016
 30
0.0
 11
910.7816610608791
 21
350.1179536560016
 31
0.0
  0
LINE
  5
12C3
330
2
100
AcDbEntity
  8
0
100
AcDbLine
 10
909.0316610608791
 20
352.2012869893352
 30
0.0
 11
909.1750522565947
 21
352.2012869893352
 31
0.0
  0
LINE
  5
12C4
330
2
100
AcDbEntity
  8
HIDS
100
AcDbLine
 10
910.7816610608791
 20
352.2012869893352
 30
0.0
 11
911.1983277275452
 21
350.1179536560016
 31
0.0
  0
LINE
  5
12C5
330
2
100
AcDbEntity
  8
HIDS
100
AcDbLine
 10
915.7816610608792
 20
352.2012869893352
 30
0.0
 11
915.3649943942131
 21
350.1179536560016
 31
0.0
  0
LINE
  5
12C6
330
2
100
AcDbEntity
  8
0
100
AcDbLine
 10
909.0316610608791
 20
356.9012869893354
 30
0.0
 11
911.0778097478744
 21
356.901286989335
 31
0.0
  0
LINE
  5
12C7
330
2
100
AcDbEntity
  8
HIDS
100
AcDbLine
 10
917.0120458186087
 20
357.2012869893351
 30
0.0
 11
911.2504397306278
 21
357.2012869893351
 31
0.0
  0
LINE
  5
12C8
330
2
100
AcDbEntity
  8
0
100
AcDbLine
 10
909.0316610608791
 20
356.9012869893354
 30
0.0
 11
909.5512763031496
 21
357.2012869893351
 31
0.0
  0
LINE
  5
12C9
330
2
100
AcDbEntity
  8
HIDS
100
AcDbLine
 10
917.0120458186087
 20
357.2012869893351
 30
0.0
 11
917.5316610608792
 21
356.9012869893354
 31
0.0
  0
LINE
  5
12CA
330
2
100
AcDbEntity
  8
HIDS
100
AcDbLine
 10
909.1750522565947
 20
352.2012869893352
 30
0.0
 11
917.5316610608792
 21
352.2012869893352
 31
0.0
  0
LINE
  5
12CB
330
2
100
AcDbEntity
  8
0
100
AcDbLine
 10
911.2504397306278
 20
357.2012869893351
 30
0.0
 11
909.5512763031496
 21
357.2012869893351
 31
0.0
  0
LINE
  5
12CC
330
2
100
AcDbEntity
  8
HIDS
100
AcDbLine
 10
911.0778097478744
 20
356.9012869893354
 30
0.0
 11
917.5316610608792
 21
356.9012869893354
 31
0.0
  0
LINE
  5
12CD
330
2
100
AcDbEntity
  8
0
100
AcDbLine
 10
915.7816610608792
 20
347.9512869893351
 30
0.0
 11
915.7816610608792
 21
346.4512869893352
 31
0.0
  0
LINE
  5
12CE
330
2
100
AcDbEntity
  8
HOJO
100
AcDbLine
 10
915.3649943942131
 20
347.9512869893351
 30
0.0
 11
915.3649943942131
 21
346.4512869893352
 31
0.0
  0
LINE
  5
12CF
330
2
100
AcDbEntity
  8
HOJO
100
AcDbLine
 10
911.1983277275452
 20
347.9512869893351
 30
0.0
 11
911.1983277275452
 21
346.4512869893352
 31
0.0
  0
LINE
  5
12D0
330
2
100
AcDbEntity
  8
0
100
AcDbLine
 10
910.7816610608791
 20
347.9512869893351
 30
0.0
 11
910.7816610608791
 21
346.4512869893352
 31
0.0
  0
LINE
  5
12D1
330
2
100
AcDbEntity
  8
HIDS
100
AcDbLine
 10
910.7816610608791
 20
346.4512869893352
 30
0.0
 11
910.7816610608791
 21
338.2012869893352
 31
0.0
  0
LINE
  5
12D2
330
2
100
AcDbEntity
  8
HIDS
100
AcDbLine
 10
915.3649943942131
 20
346.4512869893352
 30
0.0
 11
915.3649943942131
 21
337.7846203226686
 31
0.0
  0
LINE
  5
12D3
330
2
100
AcDbEntity
  8
HIDS
100
AcDbLine
 10
915.7816610608792
 20
346.4512869893352
 30
0.0
 11
915.7816610608792
 21
338.2012869893352
 31
0.0
  0
LINE
  5
12D4
330
2
100
AcDbEntity
  8
HIDS
100
AcDbLine
 10
911.1983277275452
 20
346.4512869893352
 30
0.0
 11
911.1983277275452
 21
337.7846203226686
 31
0.0
  0
CIRCLE
  5
12D5
330
2
100
AcDbEntity
  8
0
100
AcDbCircle
 10
928.2816610608792
 20
347.2012869893351
 30
0.0
 40
19.75
  0
ARC
  5
12D6
330
2
100
AcDbEntity
  8
0
100
AcDbCircle
 10
928.2816610608792
 20
347.2012869893351
 30
0.0
 40
9.154700538379415
100
AcDbArc
 50
4.699230675930761
 51
175.3007693240692
  0
ARC
  5
12D7
330
2
100
AcDbEntity
  8
0
100
AcDbCircle
 10
928.2816610608792
 20
347.2012869893351
 30
0.0
 40
9.154700538379415
100
AcDbArc
 50
184.6992306759307
 51
355.3007693240692
  0
LINE
  5
12D8
330
2
100
AcDbEntity
  8
0
100
AcDbLine
 10
908.2816610608791
 20
391.2012869893347
 30
0.0
 11
918.2816610608792
 21
391.2012869893347
 31
0.0
  0
ARC
  5
12D9
330
2
100
AcDbEntity
  8
0
100
AcDbCircle
 10
918.2816610608792
 20
387.2012869893347
 30
0.0
 40
4.0
100
AcDbArc
 50
0.0
 51
90.0
  0
ARC
  5
12DA
330
2
100
AcDbEntity
  8
0
100
AcDbCircle
 10
908.2816610608791
 20
387.2012869893347
 30
0.0
 40
4.0
100
AcDbArc
 50
90.0
 51
180.0
  0
LINE
  5
12DB
330
2
100
AcDbEntity
  8
0
100
AcDbLine
 10
702.5834240443631
 20
391.201286989344
 30
0.0
 11
692.5834240443631
 21
391.201286989344
 31
0.0
  0
ARC
  5
12DC
330
2
100
AcDbEntity
  8
0
100
AcDbCircle
 10
692.5834240443631
 20
387.201286989344
 30
0.0
 40
4.0
100
AcDbArc
 50
90.0
 51
180.0
  0
ARC
  5
12DD
330
2
100
AcDbEntity
  8
0
100
AcDbCircle
 10
702.5834240443631
 20
387.201286989344
 30
0.0
 40
4.0
100
AcDbArc
 50
0.0
 51
90.0
  0
LINE
  5
12DE
330
2
100
AcDbEntity
  8
CENTER
  6
CENS
100
AcDbLine
 10
697.5834240443631
 20
396.3249714120473
 30
0.0
 11
697.5834240443631
 21
372.9650454096825
 31
0.0
  0
CIRCLE
  5
12DF
330
2
100
AcDbEntity
  8
0
100
AcDbCircle
 10
697.5834240400303
 20
607.0985545154776
 30
0.0
 40
9.0
  0
LINE
  5
12E0
330
2
100
AcDbEntity
  8
CENTER
  6
CENS
100
AcDbLine
 10
697.5834240400303
 20
593.1639873277881
 30
0.0
 11
697.5834240400303
 21
621.0331217031662
 31
0.0
  0
LINE
  5
12E1
330
2
100
AcDbEntity
  8
CENTER
  6
CENS
100
AcDbLine
 10
711.5179912277193
 20
607.0985545154772
 30
0.0
 11
683.6488568523413
 21
607.0985545154772
 31
0.0
  0
CIRCLE
  5
12E2
330
2
100
AcDbEntity
  8
CENTER
100
AcDbCircle
 10
928.2816610608792
 20
347.2012869893351
 30
0.0
 40
45.0002755547118
  0
LINE
  5
12E3
330
2
100
AcDbEntity
  8
0
100
AcDbLine
 10
888.2816610607719
 20
347.2012869893351
 30
0.0
 11
886.7816610608882
 21
347.2012869893351
 31
0.0
  0
LINE
  5
12E4
330
2
100
AcDbEntity
  8
0
100
AcDbLine
 10
968.2816610608792
 20
347.2012869891492
 30
0.0
 11
969.78166106087
 21
347.2012869893038
 31
0.0
  0
LINE
  5
12E5
330
2
100
AcDbEntity
  8
0
100
AcDbLine
 10
95.8624585553656
 20
347.2012869893483
 30
0.0
 11
96.54381535326628
 21
386.2361918022193
 31
0.0
  0
LINE
  5
12E6
330
2
100
AcDbEntity
  8
0
100
AcDbLine
 10
59.2500081183656
 20
382.2885490215345
 30
0.0
 11
59.86245855530285
 21
347.2012869893483
 31
0.0
  0
ARC
  5
12E7
330
2
100
AcDbEntity
  8
0
100
AcDbCircle
 10
98.54351074357817
 20
308.2012869893479
 30
0.0
 40
2.0
100
AcDbArc
 50
181.0000000000025
 51
270.0
  0
LINE
  5
12E9
330
2
100
AcDbEntity
  8
0
100
AcDbLine
 10
95.86245855529103
 20
347.2012869893483
 30
0.0
 11
96.54381535326445
 21
308.1663821764732
 31
0.0
  0
LINE
  5
12EA
330
2
100
AcDbEntity
  8
0
100
AcDbLine
 10
59.2500081183656
 20
312.1140249571618
 30
0.0
 11
59.8624585552892
 21
347.2012869893483
 31
0.0
  0
LINE
  5
12EB
330
2
100
AcDbEntity
  8
0
100
AcDbLine
 10
49.86245855529102
 20
307.2012869893483
 30
0.0
 11
95.38123308340926
 21
307.2012869893479
 31
0.0
  0
ARC
  5
12EC
330
2
100
AcDbEntity
  8
0
100
AcDbCircle
 10
76.96590088861865
 20
313.1013136933889
 30
0.0
 40
3.0
100
AcDbArc
 50
90.0
 51
178.9999999999974
  0
LINE
  5
12ED
330
2
100
AcDbEntity
  8
0
100
AcDbLine
 10
76.96590088861865
 20
316.1013136933889
 30
0.0
 11
64.3196065021433
 21
316.1013136933894
 31
0.0
  0
ARC
  5
12EE
330
2
100
AcDbEntity
  8
0
100
AcDbCircle
 10
54.25076964258312
 20
312.2012869893479
 30
0.0
 40
5.0
100
AcDbArc
 50
270.0
 51
358.9999999999974
  0
ARC
  5
12EF
330
2
100
AcDbEntity
  8
0
100
AcDbCircle
 10
71.89706402905847
 20
309.2012869893479
 30
0.0
 40
2.0
100
AcDbArc
 50
270.0
 51
358.9999999999974
  0
LINE
  5
12F0
330
2
100
AcDbEntity
  8
0
100
AcDbLine
 10
73.9654635165474
 20
313.1024372675606
 30
0.0
 11
73.89675941937219
 21
309.1663821764733
 31
0.0
  0
LINE
  5
12F1
330
2
100
AcDbEntity
  8
0
100
AcDbLine
 10
104.862458555291
 20
306.2012869893479
 30
0.0
 11
98.54351074357817
 21
306.2012869893479
 31
0.0
  0
ARC
  5
12F2
330
2
100
AcDbEntity
  8
0
100
AcDbCircle
 10
98.54351074357817
 20
386.2012869893488
 30
0.0
 40
2.0
100
AcDbArc
 50
90.0
 51
179.0000000001163
  0
LINE
  5
12F3
330
2
100
AcDbEntity
  8
0
100
AcDbLine
 10
49.86245855529102
 20
387.2012869893479
 30
0.0
 11
95.38123308340926
 21
387.2012869893483
 31
0.0
  0
ARC
  5
12F4
330
2
100
AcDbEntity
  8
0
100
AcDbCircle
 10
54.25076964258312
 20
382.2012869893479
 30
0.0
 40
5.0
100
AcDbArc
 50
1.000000000002589
 51
90.0
  0
LINE
  5
12F5
330
2
100
AcDbEntity
  8
0
100
AcDbLine
 10
104.8624585552892
 20
388.2012869893483
 30
0.0
 11
98.54351074357817
 21
388.2012869893488
 31
0.0
  0
LINE
  5
12F6
330
2
100
AcDbEntity
  8
0
100
AcDbLine
 10
49.86245855529102
 20
387.2012869893479
 30
0.0
 11
49.86245855529102
 21
307.2012869893483
 31
0.0
  0
ARC
  5
12F7
330
2
100
AcDbEntity
  8
0
100
AcDbCircle
 10
95.38123308340926
 20
390.7012869893483
 30
0.0
 40
3.5
100
AcDbArc
 50
270.0
 51
305.0968012276138
  0
ARC
  5
12F8
330
2
100
AcDbEntity
  8
0
100
AcDbCircle
 10
95.38123308340926
 20
303.7012869893479
 30
0.0
 40
3.5
100
AcDbArc
 50
54.9031987723857
 51
90.0
  0
LINE
  5
12F9
330
2
100
AcDbEntity
  8
CENTER
  6
CENS
100
AcDbLine
 10
111.4672765550616
 20
381.8512869893485
 30
0.0
 11
84.46727655506164
 21
381.8512869893485
 31
0.0
  0
LINE
  5
12FA
330
2
100
AcDbEntity
  8
0
100
AcDbLine
 10
89.78000123043001
 20
376.8512869893484
 30
0.0
 11
89.78000123043001
 21
386.8512869893484
 31
0.0
  0
LINE
  5
12FB
330
2
100
AcDbEntity
  8
0
100
AcDbLine
 10
89.38000123043037
 20
386.1584666663212
 30
0.0
 11
89.38000123043037
 21
377.5441073123761
 31
0.0
  0
LINE
  5
12FC
330
2
100
AcDbEntity
  8
0
100
AcDbLine
 10
95.38000123043037
 20
376.8512869893484
 30
0.0
 11
95.38000123043037
 21
386.8512869893484
 31
0.0
  0
LINE
  5
12FD
330
2
100
AcDbEntity
  8
0
100
AcDbLine
 10
95.38000123043037
 20
386.8512869893484
 30
0.0
 11
96.38000123043036
 21
386.8512869893484
 31
0.0
  0
LINE
  5
12FE
330
2
100
AcDbEntity
  8
0
100
AcDbLine
 10
96.38000123043036
 20
386.8512869893484
 30
0.0
 11
96.38000123043036
 21
376.8512869893484
 31
0.0
  0
LINE
  5
12FF
330
2
100
AcDbEntity
  8
0
100
AcDbLine
 10
96.38000123043036
 20
376.8512869893484
 30
0.0
 11
95.38000123043037
 21
376.8512869893484
 31
0.0
  0
LINE
  5
1300
330
2
100
AcDbEntity
  8
0
100
AcDbLine
 10
95.38000123043037
 20
376.8512869893484
 30
0.0
 11
95.38000123043037
 21
386.8512869893484
 31
0.0
  0
LINE
  5
1301
330
2
100
AcDbEntity
  8
0
100
AcDbLine
 10
89.78000123043001
 20
376.8512869893484
 30
0.0
 11
95.38000123043037
 21
376.8512869893484
 31
0.0
  0
LINE
  5
1302
330
2
100
AcDbEntity
  8
0
100
AcDbLine
 10
95.38000123043037
 20
386.8512869893484
 30
0.0
 11
89.78000123043001
 21
386.8512869893484
 31
0.0
  0
LINE
  5
1303
330
2
100
AcDbEntity
  8
0
100
AcDbLine
 10
89.78000123043001
 20
386.8512869893484
 30
0.0
 11
89.38000123043037
 21
386.1584666663212
 31
0.0
  0
LINE
  5
1304
330
2
100
AcDbEntity
  8
0
100
AcDbLine
 10
89.78000123043001
 20
376.8512869893484
 30
0.0
 11
89.38000123043037
 21
377.5441073123757
 31
0.0
  0
LINE
  5
1305
330
2
100
AcDbEntity
  8
CENTER
  6
CENS
100
AcDbLine
 10
111.4672765550616
 20
312.5512869893483
 30
0.0
 11
84.46727655506164
 21
312.5512869893483
 31
0.0
  0
LINE
  5
1306
330
2
100
AcDbEntity
  8
0
100
AcDbLine
 10
89.78000123043001
 20
317.5512869893482
 30
0.0
 11
89.78000123043001
 21
307.5512869893482
 31
0.0
  0
LINE
  5
1307
330
2
100
AcDbEntity
  8
0
100
AcDbLine
 10
89.38000123043037
 20
308.2441073123755
 30
0.0
 11
89.38000123043037
 21
316.8584666663205
 31
0.0
  0
LINE
  5
1308
330
2
100
AcDbEntity
  8
0
100
AcDbLine
 10
95.38000123043037
 20
317.5512869893482
 30
0.0
 11
95.38000123043037
 21
307.5512869893482
 31
0.0
  0
LINE
  5
1309
330
2
100
AcDbEntity
  8
0
100
AcDbLine
 10
95.38000123043037
 20
307.5512869893482
 30
0.0
 11
96.38000123043036
 21
307.5512869893482
 31
0.0
  0
LINE
  5
130A
330
2
100
AcDbEntity
  8
0
100
AcDbLine
 10
96.38000123043036
 20
307.5512869893482
 30
0.0
 11
96.38000123043036
 21
317.5512869893482
 31
0.0
  0
LINE
  5
130B
330
2
100
AcDbEntity
  8
0
100
AcDbLine
 10
96.38000123043036
 20
317.5512869893482
 30
0.0
 11
95.38000123043037
 21
317.5512869893482
 31
0.0
  0
LINE
  5
130C
330
2
100
AcDbEntity
  8
0
100
AcDbLine
 10
95.38000123043037
 20
317.5512869893482
 30
0.0
 11
95.38000123043037
 21
307.5512869893482
 31
0.0
  0
LINE
  5
130D
330
2
100
AcDbEntity
  8
0
100
AcDbLine
 10
89.78000123043001
 20
317.5512869893482
 30
0.0
 11
95.38000123043037
 21
317.5512869893482
 31
0.0
  0
LINE
  5
130E
330
2
100
AcDbEntity
  8
0
100
AcDbLine
 10
95.38000123043037
 20
307.5512869893482
 30
0.0
 11
89.78000123043001
 21
307.5512869893482
 31
0.0
  0
LINE
  5
130F
330
2
100
AcDbEntity
  8
0
100
AcDbLine
 10
89.78000123043001
 20
307.5512869893482
 30
0.0
 11
89.38000123043037
 21
308.2441073123755
 31
0.0
  0
LINE
  5
1310
330
2
100
AcDbEntity
  8
0
100
AcDbLine
 10
89.78000123043001
 20
317.5512869893482
 30
0.0
 11
89.38000123043037
 21
316.858466666321
 31
0.0
  0
LINE
  5
1311
330
2
100
AcDbEntity
  8
0
100
AcDbLine
 10
58.86245855532741
 20
391.2012869893479
 30
0.0
 11
68.86245855532741
 21
391.2012869893479
 31
0.0
  0
ARC
  5
1312
330
2
100
AcDbEntity
  8
0
100
AcDbCircle
 10
68.86245855532741
 20
387.2012869893479
 30
0.0
 40
4.0
100
AcDbArc
 50
0.0
 51
90.0
  0
ARC
  5
1313
330
2
100
AcDbEntity
  8
0
100
AcDbCircle
 10
58.86245855532741
 20
387.2012869893479
 30
0.0
 40
4.0
100
AcDbArc
 50
90.0
 51
180.0
  0
LINE
  5
1314
330
2
100
AcDbEntity
  8
CENTER
  6
CENS
100
AcDbLine
 10
63.86245855532741
 20
396.3249714120511
 30
0.0
 11
63.86245855532741
 21
372.9650454096864
 31
0.0
  0
ARC
  5
1315
330
2
100
AcDbEntity
  8
0
100
AcDbCircle
 10
684.4799817110718
 20
381.3012602853039
 30
0.0
 40
3.0
100
AcDbArc
 50
270.0
 51
358.9999999999974
  0
LINE
  5
1316
330
2
100
AcDbEntity
  8
0
100
AcDbLine
 10
684.4799817110718
 20
378.3012602853039
 30
0.0
 11
697.1262760975472
 21
378.3012602853034
 31
0.0
  0
ARC
  5
1317
330
2
100
AcDbEntity
  8
0
100
AcDbCircle
 10
689.548818570632
 20
385.2012869893449
 30
0.0
 40
2.0
100
AcDbArc
 50
90.0
 51
178.9999999999974
  0
LINE
  5
1318
330
2
100
AcDbEntity
  8
0
100
AcDbLine
 10
687.4804190831431
 20
381.3001367111322
 30
0.0
 11
687.5491231803184
 21
385.2361918022196
 31
0.0
  0
CIRCLE
  5
1319
330
2
100
AcDbEntity
  8
0
100
AcDbCircle
 10
960.1016610608789
 20
379.0212869893348
 30
0.0
 40
2.0
  0
CIRCLE
  5
131A
330
2
100
AcDbEntity
  8
HOJO
100
AcDbCircle
 10
960.1016610608789
 20
379.0212869893348
 30
0.0
 40
2.5
  0
CIRCLE
  5
131B
330
2
100
AcDbEntity
  8
0
100
AcDbCircle
 10
896.4616610608794
 20
379.0212869893348
 30
0.0
 40
2.0
  0
CIRCLE
  5
131C
330
2
100
AcDbEntity
  8
HOJO
100
AcDbCircle
 10
896.4616610608794
 20
379.0212869893348
 30
0.0
 40
2.5
  0
CIRCLE
  5
131D
330
2
100
AcDbEntity
  8
0
100
AcDbCircle
 10
960.1016610608789
 20
315.3812869893354
 30
0.0
 40
2.0
  0
CIRCLE
  5
131E
330
2
100
AcDbEntity
  8
HOJO
100
AcDbCircle
 10
960.1016610608789
 20
315.3812869893354
 30
0.0
 40
2.5
  0
CIRCLE
  5
131F
330
2
100
AcDbEntity
  8
0
100
AcDbCircle
 10
896.4616610608794
 20
315.3812869893354
 30
0.0
 40
2.0
  0
CIRCLE
  5
1320
330
2
100
AcDbEntity
  8
HOJO
100
AcDbCircle
 10
896.4616610608794
 20
315.3812869893354
 30
0.0
 40
2.5
  0
CIRCLE
  5
1321
330
2
100
AcDbEntity
  8
0
100
AcDbCircle
 10
928.2816610608792
 20
347.2012869893351
 30
0.0
 40
29.0
  0
LINE
  5
1322
330
2
100
AcDbEntity
  8
0
100
AcDbLine
 10
922.0197438505769
 20
388.624922145322
 30
0.0
 11
928.2816610608774
 21
388.7012869893501
 31
0.0
  0
LINE
  5
1967
330
2
100
AcDbEntity
  8
PHAS
  6
SEKKEI_P_S
100
AcDbLine
 10
314.1103511827094
 20
318.7012869893298
 30
0.0
 11
314.1103511827094
 21
375.7012869893297
 31
0.0
  0
LINE
  5
1968
330
2
100
AcDbEntity
  8
PHAS
  6
SEKKEI_P_S
100
AcDbLine
 10
288.6103511827094
 20
334.1651849893297
 30
0.0
 11
288.6103511827094
 21
360.2373647474188
 31
0.0
  0
LINE
  5
1969
330
2
100
AcDbEntity
  8
PHAS
  6
SEKKEI_P_S
100
AcDbLine
 10
304.3103511827097
 20
321.820438414974
 30
0.0
 11
304.3103511827097
 21
372.5821355636863
 31
0.0
  0
LINE
  5
196A
330
2
100
AcDbEntity
  8
PHAS
  6
SEKKEI_P_S
100
AcDbLine
 10
314.1103511827094
 20
318.7012869893298
 30
0.0
 11
307.2579939633977
 21
318.8208953295044
 31
0.0
  0
ARC
  5
196B
330
2
100
AcDbEntity
  8
PHAS
  6
SEKKEI_P_S
100
AcDbCircle
 10
303.3103511827097
 20
326.3621938219886
 30
0.0
 40
1.0
100
AcDbArc
 50
0.0
 51
79.99956533742561
  0
ARC
  5
196C
330
2
100
AcDbEntity
  8
PHAS
  6
SEKKEI_P_S
100
AcDbCircle
 10
307.3103511827097
 20
321.820438414974
 30
0.0
 40
3.0
100
AcDbArc
 50
180.0
 51
268.9999999999982
  0
LINE
  5
196D
330
2
100
AcDbEntity
  8
PHAS
  6
SEKKEI_P_S
100
AcDbLine
 10
292.7420729391973
 20
329.2411770530517
 30
0.0
 11
303.4840068314118
 21
327.3470002576269
 31
0.0
  0
ARC
  5
196E
330
2
100
AcDbEntity
  8
PHAS
  6
SEKKEI_P_S
100
AcDbCircle
 10
293.6103511827094
 20
334.1652092312416
 30
0.0
 40
5.0
100
AcDbArc
 50
180.0
 51
259.9995653374256
  0
LINE
  5
196F
330
2
100
AcDbEntity
  8
PHAS
  6
SEKKEI_P_S
100
AcDbLine
 10
303.4839931827094
 20
327.3469779893295
 30
0.0
 11
303.4903529941719
 21
327.3458567190629
 31
0.0
  0
LINE
  5
1970
330
2
100
AcDbEntity
  8
PHAS
  6
SEKKEI_P_S
100
AcDbLine
 10
314.1103511827094
 20
375.7012869893297
 30
0.0
 11
307.2579939633977
 21
375.581678649156
 31
0.0
  0
LINE
  5
1971
330
2
100
AcDbEntity
  8
PHAS
  6
SEKKEI_P_S
100
AcDbLine
 10
292.7420729391973
 20
365.1613969256078
 30
0.0
 11
303.4840068314118
 21
367.0555737210335
 31
0.0
  0
ARC
  5
1972
330
2
100
AcDbEntity
  8
PHAS
  6
SEKKEI_P_S
100
AcDbCircle
 10
293.6103511827094
 20
360.2373647474188
 30
0.0
 40
5.0
100
AcDbArc
 50
100.0004346625743
 51
180.0
  0
ARC
  5
1973
330
2
100
AcDbEntity
  8
PHAS
  6
SEKKEI_P_S
100
AcDbCircle
 10
303.3040050199491
 20
368.0392366181077
 30
0.0
 40
1.0
100
AcDbArc
 50
280.0004346625744
 51
0.0
  0
ARC
  5
1974
330
2
100
AcDbEntity
  8
PHAS
  6
SEKKEI_P_S
100
AcDbCircle
 10
307.3103511827111
 20
372.5821355636854
 30
0.0
 40
3.0
100
AcDbArc
 50
91.00000000000177
 51
180.0
  0
CIRCLE
  5
1E56
330
2
100
AcDbEntity
  8
0
100
AcDbCircle
 10
571.5834240444122
 20
347.2012869893451
 30
0.0
 40
23.5774
  0
ENDSEC
  0
SECTION
  2
OBJECTS
  0
DICTIONARY
  5
7
330
0
100
AcDbDictionary
  3
ACAD_COLOR
350
1D83
  3
ACAD_GROUP
350
75
  3
ACAD_LAYOUT
350
61
  3
ACAD_MATERIAL
350
1D59
  3
ACAD_MLEADERSTYLE
350
1DA8
  3
ACAD_MLINESTYLE
350
76
  3
ACAD_PLOTSETTINGS
350
77
  3
ACAD_PLOTSTYLENAME
350
6
  3
ACAD_SCALELIST
350
1D86
  3
ACAD_TABLESTYLE
350
1D84
  3
ACAD_VISUALSTYLE
350
1D72
  3
ACADDIM
350
480
  3
ACDB_RECOMPOSE_DATA
350
1E0A
  3
ACDBHEADERROUNDTRIPXREC
350
1E9A
  3
ACDBVARIABLEDICTIONARY
350
102
  3
DWGPROPS
350
1E66
  0
DICTIONARY
  5
1E13
330
6E
100
AcDbDictionary
280
     1
  3
ACAD_XREC_ROUNDTRIP
360
1E6D
  0
DICTIONARY
  5
ADB
330
66
100
AcDbDictionary
280
     1
  3
ACAD_LAYERSTATES
360
ADC
  0
DICTIONARY
  5
1DAD
330
5E
100
AcDbDictionary
280
     1
  3
ACAD_XREC_ROUNDTRIP
360
1E69
  3
ADSK_XREC_LAYER_RECONCILED
360
1DAE
  0
DICTIONARY
  5
1DAF
330
3E
100
AcDbDictionary
280
     1
  3
ACAD_XREC_ROUNDTRIP
360
1E68
  3
ADSK_XREC_LAYER_RECONCILED
360
1DB0
  0
DICTIONARY
  5
1DB5
330
2B5
100
AcDbDictionary
280
     1
  3
ACAD_XREC_ROUNDTRIP
360
1E73
  3
ADSK_XREC_LAYER_RECONCILED
360
1DB6
  0
DICTIONARY
  5
1DB7
330
2BA
100
AcDbDictionary
280
     1
  3
ACAD_XREC_ROUNDTRIP
360
1E74
  3
ADSK_XREC_LAYER_RECONCILED
360
1DB8
  0
DICTIONARY
  5
1DBB
330
3FA
100
AcDbDictionary
280
     1
  3
ACAD_XREC_ROUNDTRIP
360
1E76
  3
ADSK_XREC_LAYER_RECONCILED
360
1DBC
  0
DICTIONARY
  5
1950
330
194F
100
AcDbDictionary
280
     1
  3
ACAD_XREC_ROUNDTRIP
360
1E79
  3
ADSK_XREC_LAYER_RECONCILED
360
1952
  0
DICTIONARY
  5
1EBB
330
2
100
AcDbDictionary
280
     1
  3
ACAD_LAYOUTSELFREF
360
1EBC
  0
DICTIONARY
  5
1EBD
330
1E94
100
AcDbDictionary
280
     1
  3
ACAD_LAYOUTSELFREF
360
1EBE
  0
DICTIONARY
  5
1D83
102
{ACAD_REACTORS
330
7
102
}
330
7
100
AcDbDictionary
  0
DICTIONARY
  5
75
102
{ACAD_REACTORS
330
7
102
}
330
7
100
AcDbDictionary
  0
DICTIONARY
  5
61
102
{ACAD_REACTORS
330
7
102
}
330
7
100
AcDbDictionary
  0
DICTIONARY
  5
1D59
102
{ACAD_REACTORS
330
7
102
}
330
7
100
AcDbDictionary
  3
BYBLOCK
350
1D62
  3
BYLAYER
350
1D5A
  3
GLOBAL
350
1D6A
  0
DICTIONARY
  5
1DA8
102
{ACAD_REACTORS
330
7
102
}
330
7
100
AcDbDictionary
  3
STANDARD
350
1DA9
  0
DICTIONARY
  5
76
102
{ACAD_REACTORS
330
7
102
}
330
7
100
AcDbDictionary
  3
STANDARD
350
78
  0
DICTIONARY
  5
77
102
{ACAD_REACTORS
330
7
102
}
330
7
100
AcDbDictionary
  0
ACDBDICTIONARYWDFLT
  5
6
102
{ACAD_REACTORS
330
7
102
}
330
7
100
AcDbDictionary
281
     1
  3
Normal
350
5
100
AcDbDictionaryWithDefault
340
5
  0
DICTIONARY
  5
1D86
102
{ACAD_REACTORS
330
7
102
}
330
7
100
AcDbDictionary
  3
A0
350
1D87
  3
A1
350
1D88
  3
A2
350
1D89
  3
A3
350
1D8A
  3
A4
350
1D8B
  3
A5
350
1D8C
  3
A6
350
1D8D
  3
A7
350
1D8E
  3
A8
350
1D8F
  3
A9
350
1D90
  3
B0
350
1D91
  3
B1
350
1D92
  3
B2
350
1D93
  3
B3
350
1D94
  3
B4
350
1D95
  3
B5
350
1D96
  3
B6
350
1D97
  3
B7
350
1D98
  3
B8
350
1D99
  3
B9
350
1D9A
  3
C0
350
1D9B
  3
C1
350
1D9C
  3
C2
350
1D9D
  3
C3
350
1D9E
  3
C4
350
1D9F
  3
C5
350
1DA0
  3
C6
350
1DA1
  3
C7
350
1DA2
  3
C8
350
1DA3
  3
C9
350
1DA4
  3
D0
350
1DA5
  3
D1
350
1DA6
  3
D2
350
1DA7
  0
DICTIONARY
  5
1D84
102
{ACAD_REACTORS
330
7
102
}
330
7
100
AcDbDictionary
  3
STANDARD
350
1D85
  0
DICTIONARY
  5
1D72
102
{ACAD_REACTORS
330
7
102
}
330
7
100
AcDbDictionary
  3
2DWIREFRAME
350
1D78
  3
3D_HIDDEN
350
1D7A
  3
3DWIREFRAME
350
1D79
  3
BASIC
350
1D77
  3
BRIGHTEN
350
1D7E
  3
COLORCHANGE
350
1D82
  3
CONCEPTUAL
350
1D7B
  3
DIM
350
1D7D
  3
FACEPATTERN
350
1D81
  3
FLAT
350
1D73
  3
FLATWITHEDGES
350
1D74
  3
GOURAUD
350
1D75
  3
GOURAUDWITHEDGES
350
1D76
  3
LINEPATTERN
350
1D80
  3
REALISTIC
350
1D7C
  3
THICKEN
350
1D7F
  0
XRECORD
  5
480
102
{ACAD_REACTORS
330
7
102
}
330
7
100
AcDbXrecord
 90
   990106
  3

 60
     0
 61
     0
 62
     1
 63
     3
 64
     1
 65
     0
 66
     0
 67
     3
 68
     1
 69
     0
 70
     0
 71
     0
 72
     0
 40
0.0
170
     2
340
0
  0
XRECORD
  5
1E0A
102
{ACAD_REACTORS
330
7
102
}
330
7
100
AcDbXrecord
 90
        1
330
1D85
  0
DICTIONARY
  5
1E9A
102
{ACAD_REACTORS
330
7
102
}
330
7
100
AcDbDictionary
  3
CEPSNTYPE
350
1EA4
  3
DIMSTYLEDATA
350
1EA8
  3
FINGERPRINTGUID
350
1EA5
  3
HYPERLINKBASE
350
1E9D
  3
INSUNITS
350
1EA3
  3
LAYOUTDICT
350
1E9F
  3
LWETCUNION
350
1EA2
  3
PLOTSETDICT
350
1EA0
  3
PLOTSTYLNAMDICT
350
1EA1
  3
PSVPSCALE
350
1EA7
  3
PUCSBASE
350
1EAB
  3
PUCSORGBACK
350
1EB1
  3
PUCSORGBOTTOM
350
1EAD
  3
PUCSORGFRONT
350
1EB0
  3
PUCSORGLEFT
350
1EAE
  3
PUCSORGRIGHT
350
1EAF
  3
PUCSORGTOP
350
1EAC
  3
PUCSORTHOREF
350
1EA9
  3
PUCSORTHOVIEW
350
1EAA
  3
STYLESHEET
350
1E9E
  3
TSTACKALIGN
350
1E9B
  3
TSTACKSIZE
350
1E9C
  3
UCSBASE
350
1EB4
  3
UCSORGBACK
350
1EBA
  3
UCSORGBOTTOM
350
1EB6
  3
UCSORGFRONT
350
1EB9
  3
UCSORGLEFT
350
1EB7
  3
UCSORGRIGHT
350
1EB8
  3
UCSORGTOP
350
1EB5
  3
UCSORTHOREF
350
1EB2
  3
UCSORTHOVIEW
350
1EB3
  3
VERSIONGUID
350
1EA6
  0
DICTIONARY
  5
102
102
{ACAD_REACTORS
330
7
102
}
330
7
100
AcDbDictionary
  3
CANNOSCALE
350
1E2B
  3
CMLEADERSTYLE
350
1E2A
  3
CTABLESTYLE
350
1E29
  3
DIMASSOC
350
103
  3
INDEXCTL
350
1E2C
  3
SORTENTS
350
549
  0
XRECORD
  5
1E66
102
{ACAD_REACTORS
330
7
102
}
330
7
100
AcDbXrecord
  1
DWGPROPS COOKIE
  2

  3

  4

  6

  7

  8
ymorima
  9

300
=
301
=
302
=
303
=
304
=
305
=
306
=
307
=
308
=
309
=
 40
0.0173983680555556
 41
2454410.733051747
 42
2454425.67976905
  1

 90
        0
  0
XRECORD
  5
1E6D
102
{ACAD_REACTORS
330
1E13
102
}
330
1E13
100
AcDbXrecord
102
VTR_0.000_0.000_1.000_1.000_VISUALSTYLE
340
1D78
102
VTR_0.000_0.000_1.000_1.000_GRIDDISPLAY
 70
     3
102
VTR_0.000_0.000_1.000_1.000_GRIDMAJOR
 70
     5
102
VTR_0.000_0.000_1.000_1.000_DEFAULTLIGHTING
280
     1
102
VTR_0.000_0.000_1.000_1.000_DEFAULTLIGHTINGTYPE
 70
     1
102
VTR_0.000_0.000_1.000_1.000_BRIGHTNESS
141
0.0
102
VTR_0.000_0.000_1.000_1.000_CONTRAST
142
0.0
  0
DICTIONARY
  5
ADC
102
{ACAD_REACTORS
330
ADB
102
}
330
ADB
100
AcDbDictionary
  0
XRECORD
  5
1E69
102
{ACAD_REACTORS
330
1DAD
102
}
330
1DAD
100
AcDbXrecord
102
MATERIAL
340
1D6A
  0
XRECORD
  5
1DAE
102
{ACAD_REACTORS
330
1DAD
102
}
330
1DAD
100
AcDbXrecord
290
     1
  0
XRECORD
  5
1E68
102
{ACAD_REACTORS
330
1DAF
102
}
330
1DAF
100
AcDbXrecord
102
MATERIAL
340
1D6A
  0
XRECORD
  5
1DB0
102
{ACAD_REACTORS
330
1DAF
102
}
330
1DAF
100
AcDbXrecord
290
     1
  0
XRECORD
  5
1E73
102
{ACAD_REACTORS
330
1DB5
102
}
330
1DB5
100
AcDbXrecord
102
MATERIAL
340
1D6A
  0
XRECORD
  5
1DB6
102
{ACAD_REACTORS
330
1DB5
102
}
330
1DB5
100
AcDbXrecord
290
     1
  0
XRECORD
  5
1E74
102
{ACAD_REACTORS
330
1DB7
102
}
330
1DB7
100
AcDbXrecord
102
MATERIAL
340
1D6A
  0
XRECORD
  5
1DB8
102
{ACAD_REACTORS
330
1DB7
102
}
330
1DB7
100
AcDbXrecord
290
     1
  0
XRECORD
  5
1E76
102
{ACAD_REACTORS
330
1DBB
102
}
330
1DBB
100
AcDbXrecord
102
MATERIAL
340
1D6A
  0
XRECORD
  5
1DBC
102
{ACAD_REACTORS
330
1DBB
102
}
330
1DBB
100
AcDbXrecord
290
     1
  0
XRECORD
  5
1E79
102
{ACAD_REACTORS
330
1950
102
}
330
1950
100
AcDbXrecord
102
MATERIAL
340
1D6A
  0
XRECORD
  5
1952
102
{ACAD_REACTORS
330
1950
102
}
330
1950
100
AcDbXrecord
290
     1
  0
XRECORD
  5
1EBC
102
{ACAD_REACTORS
330
1EBB
102
}
330
1EBB
100
AcDbXrecord
340
2
  0
XRECORD
  5
1EBE
102
{ACAD_REACTORS
330
1EBD
102
}
330
1EBD
100
AcDbXrecord
340
1E94
  0
ACAD_PROXY_OBJECT
  5
1D62
102
{ACAD_XDICTIONARY
360
1D63
102
}
102
{ACAD_REACTORS
330
1D59
102
}
330
1D59
100
AcDbProxyObject
 90
      499
 91
      510
 93
     1340
310
42109E509B1BD8DAC02004014080404555555555555953FAA155555555555654FEA9AA400014080404555555555555953FAA155555555555654FEA9AA400000000000000E03F4080404555555555555953FAA155555555555654FEA9AA4014080404555555555555953FAA155555555555654FEA9AA4010201011555555555
310
55654FEA8555555555555953FAA6A9005020101155555555555654FEA8555555555555953FAA6A9000
 94
        0
1001
ACAD
1000
AcadProxyRoundTripData
1071
      504
1071
   655383
1070
     0
  0
ACAD_PROXY_OBJECT
  5
1D5A
102
{ACAD_XDICTIONARY
360
1D5B
102
}
102
{ACAD_REACTORS
330
1D59
102
}
330
1D59
100
AcDbProxyObject
 90
      499
 91
      510
 93
     1340
310
42109E53185E595C802004014080404555555555555953FAA155555555555654FEA9AA400014080404555555555555953FAA155555555555654FEA9AA400000000000000E03F4080404555555555555953FAA155555555555654FEA9AA4014080404555555555555953FAA155555555555654FEA9AA4010201011555555555
310
55654FEA8555555555555953FAA6A9005020101155555555555654FEA8555555555555953FAA6A9000
 94
        0
1001
ACAD
1000
AcadProxyRoundTripData
1071
      504
1071
   655383
1070
     0
  0
ACAD_PROXY_OBJECT
  5
1D6A
102
{ACAD_XDICTIONARY
360
1D6B
102
}
102
{ACAD_REACTORS
330
1D59
102
}
330
1D59
100
AcDbProxyObject
 90
      499
 91
      510
 93
     1332
310
41D1DB1BD8985B002004014080404555555555555953FAA155555555555654FEA9AA400014080404555555555555953FAA155555555555654FEA9AA400000000000000E03F4080404555555555555953FAA155555555555654FEA9AA4014080404555555555555953FAA155555555555654FEA9AA401020101155555555555
310
654FEA8555555555555953FAA6A9005020101155555555555654FEA8555555555555953FAA6A9000
 94
        0
1001
ACAD
1000
AcadProxyRoundTripData
1071
      504
1071
   655383
1070
     0
  0
ACAD_PROXY_OBJECT
  5
1DA9
102
{ACAD_REACTORS
330
1DA8
102
}
330
1DA8
100
AcDbProxyObject
 90
      499
 91
      510
 93
      618
310
40901902A4063FBFFFFFE056BD1B81E855B9FC0AD7A3703D0AD73F4254DD185B99185C990000AD7A3703D0AC73F90141901A02B5E8DC0F42B1CFC02B5E8DC0F42B1CFE5764000000000000300FC6
340
6A
340
0
340
16
340
0
 94
        0
1001
ACAD_MLEADERVER
1070
     2
1001
ACAD
1000
AcadProxyRoundTripData
1071
      508
1071
   655383
1070
     0
  0
MLINESTYLE
  5
78
102
{ACAD_REACTORS
330
76
102
}
330
76
100
AcDbMlineStyle
  2
STANDARD
 70
     0
  3

 62
     0
 51
90.0
 52
90.0
 71
     2
 49
0.5
 62
   256
  6
BYLAYER
 49
-0.5
 62
   256
  6
BYLAYER
  0
ACDBPLACEHOLDER
  5
5
102
{ACAD_REACTORS
330
6
102
}
330
6
100
AcDbPlaceHolder
280
     0
  0
ACAD_PROXY_OBJECT
  5
1D87
102
{ACAD_REACTORS
330
1D86
102
}
330
1D86
100
AcDbProxyObject
 90
      499
 91
      510
 93
       49
310
904313A3100598
 94
        0
1001
ACAD
1000
AcadProxyRoundTripData
1071
      507
1071
   655383
1070
     0
  0
ACAD_PROXY_OBJECT
  5
1D88
102
{ACAD_REACTORS
330
1D86
102
}
330
1D86
100
AcDbProxyObject
 90
      499
 91
      510
 93
      113
310
904313A3200400000000000000406B
 94
        0
1001
ACAD
1000
AcadProxyRoundTripData
1071
      507
1071
   655383
1070
     0
  0
ACAD_PROXY_OBJECT
  5
1D89
102
{ACAD_REACTORS
330
1D86
102
}
330
1D86
100
AcDbProxyObject
 90
      499
 91
      510
 93
      113
310
904313A3400400000000000010406B
 94
        0
1001
ACAD
1000
AcadProxyRoundTripData
1071
      507
1071
   655383
1070
     0
  0
ACAD_PROXY_OBJECT
  5
1D8A
102
{ACAD_REACTORS
330
1D86
102
}
330
1D86
100
AcDbProxyObject
 90
      499
 91
      510
 93
      113
310
904313A3500400000000000014406B
 94
        0
1001
ACAD
1000
AcadProxyRoundTripData
1071
      507
1071
   655383
1070
     0
  0
ACAD_PROXY_OBJECT
  5
1D8B
102
{ACAD_REACTORS
330
1D86
102
}
330
1D86
100
AcDbProxyObject
 90
      499
 91
      510
 93
      113
310
904313A3800400000000000020406B
 94
        0
1001
ACAD
1000
AcadProxyRoundTripData
1071
      507
1071
   655383
1070
     0
  0
ACAD_PROXY_OBJECT
  5
1D8C
102
{ACAD_REACTORS
330
1D86
102
}
330
1D86
100
AcDbProxyObject
 90
      499
 91
      510
 93
      121
310
905313A3130004000000000000244051
 94
        0
1001
ACAD
1000
AcadProxyRoundTripData
1071
      507
1071
   655383
1070
     0
  0
ACAD_PROXY_OBJECT
  5
1D8D
102
{ACAD_REACTORS
330
1D86
102
}
330
1D86
100
AcDbProxyObject
 90
      499
 91
      510
 93
      121
310
905313A3136004000000000000304051
 94
        0
1001
ACAD
1000
AcadProxyRoundTripData
1071
      507
1071
   655383
1070
     0
  0
ACAD_PROXY_OBJECT
  5
1D8E
102
{ACAD_REACTORS
330
1D86
102
}
330
1D86
100
AcDbProxyObject
 90
      499
 91
      510
 93
      121
310
905313A3230004000000000000344051
 94
        0
1001
ACAD
1000
AcadProxyRoundTripData
1071
      507
1071
   655383
1070
     0
  0
ACAD_PROXY_OBJECT
  5
1D8F
102
{ACAD_REACTORS
330
1D86
102
}
330
1D86
100
AcDbProxyObject
 90
      499
 91
      510
 93
      121
310
905313A33300040000000000003E4051
 94
        0
1001
ACAD
1000
AcadProxyRoundTripData
1071
      507
1071
   655383
1070
     0
  0
ACAD_PROXY_OBJECT
  5
1D90
102
{ACAD_REACTORS
330
1D86
102
}
330
1D86
100
AcDbProxyObject
 90
      499
 91
      510
 93
      121
310
905313A3430004000000000000444051
 94
        0
1001
ACAD
1000
AcadProxyRoundTripData
1071
      507
1071
   655383
1070
     0
  0
ACAD_PROXY_OBJECT
  5
1D91
102
{ACAD_REACTORS
330
1D86
102
}
330
1D86
100
AcDbProxyObject
 90
      499
 91
      510
 93
      121
310
905313A3530004000000000000494051
 94
        0
1001
ACAD
1000
AcadProxyRoundTripData
1071
      507
1071
   655383
1070
     0
  0
ACAD_PROXY_OBJECT
  5
1D92
102
{ACAD_REACTORS
330
1D86
102
}
330
1D86
100
AcDbProxyObject
 90
      499
 91
      510
 93
      129
310
906313A313030004000000000000594038
 94
        0
1001
ACAD
1000
AcadProxyRoundTripData
1071
      507
1071
   655383
1070
     0
  0
ACAD_PROXY_OBJECT
  5
1D93
102
{ACAD_REACTORS
330
1D86
102
}
330
1D86
100
AcDbProxyObject
 90
      499
 91
      510
 93
      113
310
904323A31000000000000000010159
 94
        0
1001
ACAD
1000
AcadProxyRoundTripData
1071
      507
1071
   655383
1070
     0
  0
ACAD_PROXY_OBJECT
  5
1D94
102
{ACAD_REACTORS
330
1D86
102
}
330
1D86
100
AcDbProxyObject
 90
      499
 91
      510
 93
      113
310
904343A31000000000000000410159
 94
        0
1001
ACAD
1000
AcadProxyRoundTripData
1071
      507
1071
   655383
1070
     0
  0
ACAD_PROXY_OBJECT
  5
1D95
102
{ACAD_REACTORS
330
1D86
102
}
330
1D86
100
AcDbProxyObject
 90
      499
 91
      510
 93
      113
310
904383A31000000000000000810159
 94
        0
1001
ACAD
1000
AcadProxyRoundTripData
1071
      507
1071
   655383
1070
     0
  0
ACAD_PROXY_OBJECT
  5
1D96
102
{ACAD_REACTORS
330
1D86
102
}
330
1D86
100
AcDbProxyObject
 90
      499
 91
      510
 93
      121
310
90531303A31000000000000000910140
 94
        0
1001
ACAD
1000
AcadProxyRoundTripData
1071
      507
1071
   655383
1070
     0
  0
ACAD_PROXY_OBJECT
  5
1D97
102
{ACAD_REACTORS
330
1D86
102
}
330
1D86
100
AcDbProxyObject
 90
      499
 91
      510
 93
      129
310
9063130303A31000000000000001650138
 94
        0
1001
ACAD
1000
AcadProxyRoundTripData
1071
      507
1071
   655383
1070
     0
  0
ACAD_PROXY_OBJECT
  5
1D98
102
{ACAD_REACTORS
330
1D86
102
}
330
1D86
100
AcDbProxyObject
 90
      499
 91
      510
 93
      265
310
90F312F31323822203D2031272D302200000000000000200FC00000000000028402B
 94
        0
1001
ACAD
1000
AcadProxyRoundTripData
1071
      507
1071
   655383
1070
     0
  0
ACAD_PROXY_OBJECT
  5
1D99
102
{ACAD_REACTORS
330
1D86
102
}
330
1D86
100
AcDbProxyObject
 90
      499
 91
      510
 93
      257
310
90E312F363422203D2031272D302200000000000000240FC000000000000284040
 94
        0
1001
ACAD
1000
AcadProxyRoundTripData
1071
      507
1071
   655383
1070
     0
  0
ACAD_PROXY_OBJECT
  5
1D9A
102
{ACAD_REACTORS
330
1D86
102
}
330
1D86
100
AcDbProxyObject
 90
      499
 91
      510
 93
      257
310
90E312F333222203D2031272D302200000000000000280FC000000000000284040
 94
        0
1001
ACAD
1000
AcadProxyRoundTripData
1071
      507
1071
   655383
1070
     0
  0
ACAD_PROXY_OBJECT
  5
1D9B
102
{ACAD_REACTORS
330
1D86
102
}
330
1D86
100
AcDbProxyObject
 90
      499
 91
      510
 93
      257
310
90E312F313622203D2031272D3022000000000000002C0FC000000000000284040
 94
        0
1001
ACAD
1000
AcadProxyRoundTripData
1071
      507
1071
   655383
1070
     0
  0
ACAD_PROXY_OBJECT
  5
1D9C
102
{ACAD_REACTORS
330
1D86
102
}
330
1D86
100
AcDbProxyObject
 90
      499
 91
      510
 93
      257
310
90E332F333222203D2031272D3022000000000000002E0FC000000000000284040
 94
        0
1001
ACAD
1000
AcadProxyRoundTripData
1071
      507
1071
   655383
1070
     0
  0
ACAD_PROXY_OBJECT
  5
1D9D
102
{ACAD_REACTORS
330
1D86
102
}
330
1D86
100
AcDbProxyObject
 90
      499
 91
      510
 93
      249
310
90D312F3822203D2031272D302200000000000000300FC000000000000284040
 94
        0
1001
ACAD
1000
AcadProxyRoundTripData
1071
      507
1071
   655383
1070
     0
  0
ACAD_PROXY_OBJECT
  5
1D9E
102
{ACAD_REACTORS
330
1D86
102
}
330
1D86
100
AcDbProxyObject
 90
      499
 91
      510
 93
      257
310
90E332F313622203D2031272D302200000000000000320FC000000000000284040
 94
        0
1001
ACAD
1000
AcadProxyRoundTripData
1071
      507
1071
   655383
1070
     0
  0
ACAD_PROXY_OBJECT
  5
1D9F
102
{ACAD_REACTORS
330
1D86
102
}
330
1D86
100
AcDbProxyObject
 90
      499
 91
      510
 93
      249
310
90D312F3422203D2031272D302200000000000000340FC000000000000284040
 94
        0
1001
ACAD
1000
AcadProxyRoundTripData
1071
      507
1071
   655383
1070
     0
  0
ACAD_PROXY_OBJECT
  5
1DA0
102
{ACAD_REACTORS
330
1D86
102
}
330
1D86
100
AcDbProxyObject
 90
      499
 91
      510
 93
      249
310
90D332F3822203D2031272D302200000000000000360FC000000000000284040
 94
        0
1001
ACAD
1000
AcadProxyRoundTripData
1071
      507
1071
   655383
1070
     0
  0
ACAD_PROXY_OBJECT
  5
1DA1
102
{ACAD_REACTORS
330
1D86
102
}
330
1D86
100
AcDbProxyObject
 90
      499
 91
      510
 93
      249
310
90D312F3222203D2031272D302200000000000000380FC000000000000284040
 94
        0
1001
ACAD
1000
AcadProxyRoundTripData
1071
      507
1071
   655383
1070
     0
  0
ACAD_PROXY_OBJECT
  5
1DA2
102
{ACAD_REACTORS
330
1D86
102
}
330
1D86
100
AcDbProxyObject
 90
      499
 91
      510
 93
      249
310
90D332F3422203D2031272D3022000000000000003A0FC000000000000284040
 94
        0
1001
ACAD
1000
AcadProxyRoundTripData
1071
      507
1071
   655383
1070
     0
  0
ACAD_PROXY_OBJECT
  5
1DA3
102
{ACAD_REACTORS
330
1D86
102
}
330
1D86
100
AcDbProxyObject
 90
      499
 91
      510
 93
      169
310
90B3122203D2031272D3022004000000000000284020
 94
        0
1001
ACAD
1000
AcadProxyRoundTripData
1071
      507
1071
   655383
1070
     0
  0
ACAD_PROXY_OBJECT
  5
1DA4
102
{ACAD_REACTORS
330
1D86
102
}
330
1D86
100
AcDbProxyObject
 90
      499
 91
      510
 93
      265
310
90F312D312F3222203D2031272D3022000000000000003E0FC00000000000028402B
 94
        0
1001
ACAD
1000
AcadProxyRoundTripData
1071
      507
1071
   655383
1070
     0
  0
ACAD_PROXY_OBJECT
  5
1DA5
102
{ACAD_REACTORS
330
1D86
102
}
330
1D86
100
AcDbProxyObject
 90
      499
 91
      510
 93
      233
310
90B3322203D2031272D30220000000000000002100000000000000284000
 94
        0
1001
ACAD
1000
AcadProxyRoundTripData
1071
      507
1071
   655383
1070
     0
  0
ACAD_PROXY_OBJECT
  5
1DA6
102
{ACAD_REACTORS
330
1D86
102
}
330
1D86
100
AcDbProxyObject
 90
      499
 91
      510
 93
      233
310
90B3622203D2031272D30220000000000000006100000000000000284000
 94
        0
1001
ACAD
1000
AcadProxyRoundTripData
1071
      507
1071
   655383
1070
     0
  0
ACAD_PROXY_OBJECT
  5
1DA7
102
{ACAD_REACTORS
330
1D86
102
}
330
1D86
100
AcDbProxyObject
 90
      499
 91
      510
 93
      257
310
90E31272D3022203D2031272D3022000000000000000A100000000000000284040
 94
        0
1001
ACAD
1000
AcadProxyRoundTripData
1071
      507
1071
   655383
1070
     0
  0
ACAD_PROXY_OBJECT
  5
1D85
102
{ACAD_XDICTIONARY
360
1E08
102
}
102
{ACAD_REACTORS
330
1D84
102
}
330
1D84
100
AcDbProxyObject
 90
      499
 91
      510
 93
     1849
310
4254DD185B99185C990028B81E85EB51B8AE3F2E07A17AD46E2B8FC02B5E8DC0F42B1CFD028000000C1008070000C3001FDFF8000000C1003FBFF000000182007F7FE00000030400FEFFC00000060801FDFF8000000C1003FBFF00000018200000000000000681FA0B0000001820100E000186003FBFF000000182007F7FE0
310
0000030400FEFFC00000060801FDFF8000000C1003FBFF000000182007F7FE000000304000AD7A3703D0AC73F4160000003040201C00030C007F7FE00000030400FEFFC00000060801FDFF8000000C1003FBFF000000182007F7FE00000030400FEFFC000000608000
340
16
340
16
340
16
 94
        0
1001
ACAD
1000
AcadProxyRoundTripData
1071
      506
1071
   655383
1070
     0
  0
ACAD_PROXY_OBJECT
  5
1D78
102
{ACAD_REACTORS
330
1D72
102
}
330
1D72
100
AcDbProxyObject
 90
      499
 91
      510
 93
      444
310
430C9915DA5C99599C985B59401049028333333333333E3BF0000000000000FB0107901411070040501600405405064090741402480A0340
 94
        0
1001
ACAD
1000
AcDbSavedByObjectVersion
1070
     0
1000
AcadProxyRoundTripData
1071
      505
1071
   655383
1070
     0
  0
ACAD_PROXY_OBJECT
  5
1D7A
102
{ACAD_REACTORS
330
1D72
102
}
330
1D72
100
AcDbProxyObject
 90
      499
 91
      510
 93
      508
310
428CD108121A5919195B8010640502408333333333333E3BF0000000000000FB01079024090700405020000000000001110200405405064090740C02480A0340
 94
        0
1001
ACAD
1000
AcDbSavedByObjectVersion
1070
     0
1000
AcadProxyRoundTripData
1071
      505
1071
   655383
1070
     0
  0
ACAD_PROXY_OBJECT
  5
1D79
102
{ACAD_REACTORS
330
1D72
102
}
330
1D72
100
AcDbProxyObject
 90
      499
 91
      510
 93
      444
310
430CD915DA5C99599C985B59401059028333333333333E3BF0000000000000FB0107901411070040501600405405064090741402480A0340
 94
        0
1001
ACAD
1000
AcDbSavedByObjectVersion
1070
     0
1000
AcadProxyRoundTripData
1071
      505
1071
   655383
1070
     0
  0
ACAD_PROXY_OBJECT
  5
1D77
102
{ACAD_REACTORS
330
1D72
102
}
330
1D72
100
AcDbProxyObject
 90
      499
 91
      510
 93
      396
310
4190985CDA58C0107406404333333333333E3BF0000000000000FB0107A41107004050150841D405064090741402480A0356
 94
        0
1001
ACAD
1000
AcDbSavedByObjectVersion
1070
     0
1000
AcadProxyRoundTripData
1071
      505
1071
   655383
1070
     0
  0
ACAD_PROXY_OBJECT
  5
1D7E
102
{ACAD_REACTORS
330
1D72
102
}
330
1D72
100
AcDbProxyObject
 90
      499
 91
      510
 93
      436
310
42509C9A59DA1D195B8010C409028333333333333E3BF0000000000000FB010790141107004050150841D405064090741402480A029956
 94
        0
1001
ACAD
1000
AcDbSavedByObjectVersion
1070
     0
1000
AcadProxyRoundTripData
1071
      505
1071
   655383
1070
     0
  0
ACAD_PROXY_OBJECT
  5
1D82
102
{ACAD_REACTORS
330
1D72
102
}
330
1D72
100
AcDbProxyObject
 90
      499
 91
      510
 93
      460
310
4310DBDB1BDC90DA185B99D9401104090240C333333333333E3BF0000000000000FB0108901411070040501508421405064090741402480A0354
 94
        0
1001
ACAD
1000
AcDbSavedByObjectVersion
1070
     0
1000
AcadProxyRoundTripData
1071
      505
1071
   655383
1070
     0
  0
ACAD_PROXY_OBJECT
  5
1D7B
102
{ACAD_REACTORS
330
1D72
102
}
330
1D72
100
AcDbProxyObject
 90
      499
 91
      510
 93
      508
310
42D0DBDB98D95C1D1D585B0010940D028333333333333E3BF0000000000000FB0107902409070040501000000000000111010841D405064090740C02480A0340
 94
        0
1001
ACAD
1000
AcDbSavedByObjectVersion
1070
     0
1000
AcadProxyRoundTripData
1071
      505
1071
   655383
1070
     0
  0
ACAD_PROXY_OBJECT
  5
1D7D
102
{ACAD_REACTORS
330
1D72
102
}
330
1D72
100
AcDbProxyObject
 90
      499
 91
      510
 93
      420
310
41111A5B4010B409028333333333333E3BF0000000000000FB010790141107004050150841D405064090741402480A02677FFFFFDB
 94
        0
1001
ACAD
1000
AcDbSavedByObjectVersion
1070
     0
1000
AcadProxyRoundTripData
1071
      505
1071
   655383
1070
     0
  0
ACAD_PROXY_OBJECT
  5
1D81
102
{ACAD_REACTORS
330
1D72
102
}
330
1D72
100
AcDbProxyObject
 90
      499
 91
      510
 93
      452
310
43119858D95C185D1D195C9B8010F409028333333333333E3BF0000000000000FB010790141107004050150841D405064090741402480A0350
 94
        0
1001
ACAD
1000
AcDbSavedByObjectVersion
1070
     0
1000
AcadProxyRoundTripData
1071
      505
1071
   655383
1070
     0
  0
ACAD_PROXY_OBJECT
  5
1D73
102
{ACAD_REACTORS
330
1D72
102
}
330
1D72
100
AcDbProxyObject
 90
      499
 91
      510
 93
      396
310
41519B185D00240901404333333333333E3BF0000000000000F9010740A41107004050150841D405064090741402480A1B55
 94
        0
1001
ACAD
1000
AcDbSavedByObjectVersion
1070
     0
1000
AcadProxyRoundTripData
1071
      505
1071
   655383
1070
     0
  0
ACAD_PROXY_OBJECT
  5
1D74
102
{ACAD_REACTORS
330
1D72
102
}
330
1D72
100
AcDbProxyObject
 90
      499
 91
      510
 93
      484
310
43919B185D15DA5D1A115919D95CC010140901404333333333333E3BF0000000000000F9010740901411070040501600405405064090741402480A1B50
 94
        0
1001
ACAD
1000
AcDbSavedByObjectVersion
1070
     0
1000
AcadProxyRoundTripData
1071
      505
1071
   655383
1070
     0
  0
ACAD_PROXY_OBJECT
  5
1D75
102
{ACAD_REACTORS
330
1D72
102
}
330
1D72
100
AcDbProxyObject
 90
      499
 91
      510
 93
      420
310
4211DBDD5C985D590010240902404333333333333E3BF0000000000000F9010740A411070040501641D405064090741402480A1B50
 94
        0
1001
ACAD
1000
AcDbSavedByObjectVersion
1070
     0
1000
AcadProxyRoundTripData
1071
      505
1071
   655383
1070
     0
  0
ACAD_PROXY_OBJECT
  5
1D76
102
{ACAD_REACTORS
330
1D72
102
}
330
1D72
100
AcDbProxyObject
 90
      499
 91
      510
 93
      508
310
4451DBDD5C985D5915DA5D1A115919D95CC010340902404333333333333E3BF0000000000000F9010740901411070040501600405405064090741402480A1B50
 94
        0
1001
ACAD
1000
AcDbSavedByObjectVersion
1070
     0
1000
AcadProxyRoundTripData
1071
      505
1071
   655383
1070
     0
  0
ACAD_PROXY_OBJECT
  5
1D80
102
{ACAD_REACTORS
330
1D72
102
}
330
1D72
100
AcDbProxyObject
 90
      499
 91
      510
 93
      452
310
43131A5B995C185D1D195C9B8010E409028333333333333E3BF0000000000000FB010790141107004050750841D405064090741402483A0350
 94
        0
1001
ACAD
1000
AcDbSavedByObjectVersion
1070
     0
1000
AcadProxyRoundTripData
1071
      505
1071
   655383
1070
     0
  0
ACAD_PROXY_OBJECT
  5
1D7C
102
{ACAD_REACTORS
330
1D72
102
}
330
1D72
100
AcDbProxyObject
 90
      499
 91
      510
 93
      428
310
429499585B1A5CDD1A58C0108409028333333333333E3BF0000000000000FB01079019070040501508421405064090741402480A1B45
 94
        0
1001
ACAD
1000
AcDbSavedByObjectVersion
1070
     0
1000
AcadProxyRoundTripData
1071
      505
1071
   655383
1070
     0
  0
ACAD_PROXY_OBJECT
  5
1D7F
102
{ACAD_REACTORS
330
1D72
102
}
330
1D72
100
AcDbProxyObject
 90
      499
 91
      510
 93
      420
310
42151A1A58DAD95B8010D409028333333333333E3BF0000000000000FB010790141107004050150C41D405064090741402480A0352
 94
        0
1001
ACAD
1000
AcDbSavedByObjectVersion
1070
     0
1000
AcadProxyRoundTripData
1071
      505
1071
   655383
1070
     0
  0
XRECORD
  5
1EA4
102
{ACAD_REACTORS
330
1E9A
102
}
330
1E9A
100
AcDbXrecord
 90
        0
  0
XRECORD
  5
1EA8
102
{ACAD_REACTORS
330
1E9A
102
}
330
1E9A
100
AcDbXrecord
1000
DSTYLE
1002
{
1070
   179
 70
     2
1070
   277
 70
     6
1002
}
  0
XRECORD
  5
1EA5
102
{ACAD_REACTORS
330
1E9A
102
}
330
1E9A
100
AcDbXrecord
  1
{6385560B-F4B1-4644-A7C2-A3E32AC3D232}
  0
XRECORD
  5
1E9D
102
{ACAD_REACTORS
330
1E9A
102
}
330
1E9A
100
AcDbXrecord
  1

  0
XRECORD
  5
1EA3
102
{ACAD_REACTORS
330
1E9A
102
}
330
1E9A
100
AcDbXrecord
 90
        0
  0
XRECORD
  5
1E9F
102
{ACAD_REACTORS
330
1E9A
102
}
330
1E9A
100
AcDbXrecord
340
61
  0
XRECORD
  5
1EA2
102
{ACAD_REACTORS
330
1E9A
102
}
330
1E9A
100
AcDbXrecord
 90
    10781
  0
XRECORD
  5
1EA0
102
{ACAD_REACTORS
330
1E9A
102
}
330
1E9A
100
AcDbXrecord
340
77
  0
XRECORD
  5
1EA1
102
{ACAD_REACTORS
330
1E9A
102
}
330
1E9A
100
AcDbXrecord
340
6
  0
XRECORD
  5
1EA7
102
{ACAD_REACTORS
330
1E9A
102
}
330
1E9A
100
AcDbXrecord
 40
0.0
  0
XRECORD
  5
1EAB
102
{ACAD_REACTORS
330
1E9A
102
}
330
1E9A
100
AcDbXrecord
340
0
  0
XRECORD
  5
1EB1
102
{ACAD_REACTORS
330
1E9A
102
}
330
1E9A
100
AcDbXrecord
 10
0.0
 20
0.0
 30
0.0
  0
XRECORD
  5
1EAD
102
{ACAD_REACTORS
330
1E9A
102
}
330
1E9A
100
AcDbXrecord
 10
0.0
 20
0.0
 30
0.0
  0
XRECORD
  5
1EB0
102
{ACAD_REACTORS
330
1E9A
102
}
330
1E9A
100
AcDbXrecord
 10
0.0
 20
0.0
 30
0.0
  0
XRECORD
  5
1EAE
102
{ACAD_REACTORS
330
1E9A
102
}
330
1E9A
100
AcDbXrecord
 10
0.0
 20
0.0
 30
0.0
  0
XRECORD
  5
1EAF
102
{ACAD_REACTORS
330
1E9A
102
}
330
1E9A
100
AcDbXrecord
 10
0.0
 20
0.0
 30
0.0
  0
XRECORD
  5
1EAC
102
{ACAD_REACTORS
330
1E9A
102
}
330
1E9A
100
AcDbXrecord
 10
0.0
 20
0.0
 30
0.0
  0
XRECORD
  5
1EA9
102
{ACAD_REACTORS
330
1E9A
102
}
330
1E9A
100
AcDbXrecord
340
0
  0
XRECORD
  5
1EAA
102
{ACAD_REACTORS
330
1E9A
102
}
330
1E9A
100
AcDbXrecord
 70
     0
  0
XRECORD
  5
1E9E
102
{ACAD_REACTORS
330
1E9A
102
}
330
1E9A
100
AcDbXrecord
  1
Sekkei.ctb
  0
XRECORD
  5
1E9B
102
{ACAD_REACTORS
330
1E9A
102
}
330
1E9A
100
AcDbXrecord
 90
        1
  0
XRECORD
  5
1E9C
102
{ACAD_REACTORS
330
1E9A
102
}
330
1E9A
100
AcDbXrecord
 90
       70
  0
XRECORD
  5
1EB4
102
{ACAD_REACTORS
330
1E9A
102
}
330
1E9A
100
AcDbXrecord
340
0
  0
XRECORD
  5
1EBA
102
{ACAD_REACTORS
330
1E9A
102
}
330
1E9A
100
AcDbXrecord
 10
0.0
 20
0.0
 30
0.0
  0
XRECORD
  5
1EB6
102
{ACAD_REACTORS
330
1E9A
102
}
330
1E9A
100
AcDbXrecord
 10
0.0
 20
0.0
 30
0.0
  0
XRECORD
  5
1EB9
102
{ACAD_REACTORS
330
1E9A
102
}
330
1E9A
100
AcDbXrecord
 10
0.0
 20
0.0
 30
0.0
  0
XRECORD
  5
1EB7
102
{ACAD_REACTORS
330
1E9A
102
}
330
1E9A
100
AcDbXrecord
 10
0.0
 20
0.0
 30
0.0
  0
XRECORD
  5
1EB8
102
{ACAD_REACTORS
330
1E9A
102
}
330
1E9A
100
AcDbXrecord
 10
0.0
 20
0.0
 30
0.0
  0
XRECORD
  5
1EB5
102
{ACAD_REACTORS
330
1E9A
102
}
330
1E9A
100
AcDbXrecord
 10
0.0
 20
0.0
 30
0.0
  0
XRECORD
  5
1EB2
102
{ACAD_REACTORS
330
1E9A
102
}
330
1E9A
100
AcDbXrecord
340
0
  0
XRECORD
  5
1EB3
102
{ACAD_REACTORS
330
1E9A
102
}
330
1E9A
100
AcDbXrecord
 70
     0
  0
XRECORD
  5
1EA6
102
{ACAD_REACTORS
330
1E9A
102
}
330
1E9A
100
AcDbXrecord
  1
{D31E39C2-2365-4B1A-8308-B608356F7206}
  0
DICTIONARYVAR
  5
1E2B
102
{ACAD_REACTORS
330
102
102
}
330
102
100
DictionaryVariables
280
     0
  1
1:1
  0
DICTIONARYVAR
  5
1E2A
102
{ACAD_REACTORS
330
102
102
}
330
102
100
DictionaryVariables
280
     0
  1
STANDARD
  0
DICTIONARYVAR
  5
1E29
102
{ACAD_REACTORS
330
102
102
}
330
102
100
DictionaryVariables
280
     0
  1
STANDARD
  0
DICTIONARYVAR
  5
103
102
{ACAD_REACTORS
330
102
102
}
330
102
100
DictionaryVariables
280
     0
  1
1
  0
DICTIONARYVAR
  5
1E2C
102
{ACAD_REACTORS
330
102
102
}
330
102
100
DictionaryVariables
280
     0
  1
0
  0
DICTIONARYVAR
  5
549
102
{ACAD_REACTORS
330
102
102
}
330
102
100
DictionaryVariables
280
     0
  1
96
  0
DICTIONARY
  5
1D63
330
1D62
100
AcDbDictionary
280
     1
  3
ACAD_XREC_ROUNDTRIP
360
1E7F
  3
BUMPTILE
360
1D65
  3
DIFFUSETILE
360
1D64
  3
OPACITYTILE
360
1D68
  3
REFLECTIONTILE
360
1D67
  3
REFRACTIONTILE
360
1D69
  3
SPECULARTILE
360
1D66
  0
DICTIONARY
  5
1D5B
330
1D5A
100
AcDbDictionary
280
     1
  3
ACAD_XREC_ROUNDTRIP
360
1E7E
  3
BUMPTILE
360
1D5D
  3
DIFFUSETILE
360
1D5C
  3
OPACITYTILE
360
1D60
  3
REFLECTIONTILE
360
1D5F
  3
REFRACTIONTILE
360
1D61
  3
SPECULARTILE
360
1D5E
  0
DICTIONARY
  5
1D6B
330
1D6A
100
AcDbDictionary
280
     1
  3
ACAD_XREC_ROUNDTRIP
360
1E80
  3
BUMPTILE
360
1D6D
  3
DIFFUSETILE
360
1D6C
  3
OPACITYTILE
360
1D70
  3
REFLECTIONTILE
360
1D6F
  3
REFRACTIONTILE
360
1D71
  3
SPECULARTILE
360
1D6E
  0
DICTIONARY
  5
1E08
330
1D85
100
AcDbDictionary
280
     1
  3
ACAD_ROUNDTRIP_2008_TABLES
360
1E65
  3
ACAD_XREC_ROUNDTRIP
360
1E81
  0
XRECORD
  5
1E7F
102
{ACAD_REACTORS
330
1D63
102
}
330
1D63
100
AcDbXrecord
102
MATERIAL
148
0.0
149
0.0
149
0.0
 93
        0
 94
      127
282
     0
 72
     0
 77
     0
171
     0
175
     0
179
     0
273
     0
  0
XRECORD
  5
1D65
102
{ACAD_REACTORS
330
1D63
102
}
330
1D63
100
AcDbXrecord
270
     1
271
     1
  0
XRECORD
  5
1D64
102
{ACAD_REACTORS
330
1D63
102
}
330
1D63
100
AcDbXrecord
270
     1
271
     1
  0
XRECORD
  5
1D68
102
{ACAD_REACTORS
330
1D63
102
}
330
1D63
100
AcDbXrecord
270
     1
271
     1
  0
XRECORD
  5
1D67
102
{ACAD_REACTORS
330
1D63
102
}
330
1D63
100
AcDbXrecord
270
     1
271
     1
  0
XRECORD
  5
1D69
102
{ACAD_REACTORS
330
1D63
102
}
330
1D63
100
AcDbXrecord
270
     1
271
     1
  0
XRECORD
  5
1D66
102
{ACAD_REACTORS
330
1D63
102
}
330
1D63
100
AcDbXrecord
270
     1
271
     1
  0
XRECORD
  5
1E7E
102
{ACAD_REACTORS
330
1D5B
102
}
330
1D5B
100
AcDbXrecord
102
MATERIAL
148
0.0
149
0.0
149
0.0
 93
        0
 94
      127
282
     0
 72
     0
 77
     0
171
     0
175
     0
179
     0
273
     0
  0
XRECORD
  5
1D5D
102
{ACAD_REACTORS
330
1D5B
102
}
330
1D5B
100
AcDbXrecord
270
     1
271
     1
  0
XRECORD
  5
1D5C
102
{ACAD_REACTORS
330
1D5B
102
}
330
1D5B
100
AcDbXrecord
270
     1
271
     1
  0
XRECORD
  5
1D60
102
{ACAD_REACTORS
330
1D5B
102
}
330
1D5B
100
AcDbXrecord
270
     1
271
     1
  0
XRECORD
  5
1D5F
102
{ACAD_REACTORS
330
1D5B
102
}
330
1D5B
100
AcDbXrecord
270
     1
271
     1
  0
XRECORD
  5
1D61
102
{ACAD_REACTORS
330
1D5B
102
}
330
1D5B
100
AcDbXrecord
270
     1
271
     1
  0
XRECORD
  5
1D5E
102
{ACAD_REACTORS
330
1D5B
102
}
330
1D5B
100
AcDbXrecord
270
     1
271
     1
  0
XRECORD
  5
1E80
102
{ACAD_REACTORS
330
1D6B
102
}
330
1D6B
100
AcDbXrecord
102
MATERIAL
148
0.0
149
0.0
149
0.0
 93
        0
 94
      127
282
     0
 72
     0
 77
     0
171
     0
175
     0
179
     0
273
     0
  0
XRECORD
  5
1D6D
102
{ACAD_REACTORS
330
1D6B
102
}
330
1D6B
100
AcDbXrecord
270
     1
271
     1
  0
XRECORD
  5
1D6C
102
{ACAD_REACTORS
330
1D6B
102
}
330
1D6B
100
AcDbXrecord
270
     1
271
     1
  0
XRECORD
  5
1D70
102
{ACAD_REACTORS
330
1D6B
102
}
330
1D6B
100
AcDbXrecord
270
     1
271
     1
  0
XRECORD
  5
1D6F
102
{ACAD_REACTORS
330
1D6B
102
}
330
1D6B
100
AcDbXrecord
270
     1
271
     1
  0
XRECORD
  5
1D71
102
{ACAD_REACTORS
330
1D6B
102
}
330
1D6B
100
AcDbXrecord
270
     1
271
     1
  0
XRECORD
  5
1D6E
102
{ACAD_REACTORS
330
1D6B
102
}
330
1D6B
100
AcDbXrecord
270
     1
271
     1
  0
ACAD_PROXY_OBJECT
  5
1E65
102
{ACAD_REACTORS
330
1E08
102
}
330
1E08
100
AcDbProxyObject
 90
      499
 91
      510
 93
     5304
310
40D054060020000020000003200101A000080002A5058000000C100000000000000340FD012E07A17AD46E2B8FCB81E85EB51B8AE3F2E07A17AD46E2B8FCB81E85EB51B8AE3F02B5E8DC0F42B1CFC0AD7A3703D0AC73F419019018000000C1003FBFFFFFE02B5E8DC0F42A9CFD029018000000C1003FBFFFFFE02B5E8DC0F4
310
2A9CFD049018000000C1003FBFFFFFE02B5E8DC0F42A9CFD089018000000C1003FBFFFFFE02B5E8DC0F42A9CFD109018000000C1003FBFFFFFE02B5E8DC0F42A9CFD209018000000C1003FBFFFFFE02B5E8DC0F42A9CFD01405075F5449544C450041501A8000000C800406800020000A9416000000304000AD7A3703D0AC7
310
3F404B81E85EB51B8AE3F2E07A17AD46E2B8FCB81E85EB51B8AE3F2E07A17AD46E2B8FC0AD7A3703D0AC73F02B5E8DC0F42B1CFD0640640600000030400FEFFFFFF80AD7A3703D0AA73F40A40600000030400FEFFFFFF80AD7A3703D0AA73F41240600000030400FEFFFFFF80AD7A3703D0AA73F42240600000030400FEFFF
310
FFF80AD7A3703D0AA73F44240600000030400FEFFFFFF80AD7A3703D0AA73F48240600000030400FEFFFFFF80AD7A3703D0AA73F409014217D2115051115480105406A0000003200101A000080002A5028000000C10002B5E8DC0F42B1CFD012E07A17AD46E2B8FCB81E85EB51B8AE3F2E07A17AD46E2B8FCB81E85EB51B8A
310
E3F02B5E8DC0F42B1CFC0AD7A3703D0AC73F419019018000000C1003FBFFFFFE02B5E8DC0F42A9CFD029018000000C1003FBFFFFFE02B5E8DC0F42A9CFD049018000000C1003FBFFFFFE02B5E8DC0F42A9CFD089018000000C1003FBFFFFFE02B5E8DC0F42A9CFD109018000000C1003FBFFFFFE02B5E8DC0F42A9CFD20901
310
8000000C1003FBFFFFFE02B5E8DC0F42A9CFD03409065F444154410000
340
16
340
0
340
0
340
0
340
0
340
0
340
0
340
16
340
0
340
0
340
0
340
0
340
0
340
0
340
16
340
0
340
0
340
0
340
0
340
0
340
0
 94
        0
1001
ACAD
1000
AcadProxyRoundTripData
1071
      509
1071
   655383
1070
     0
  0
XRECORD
  5
1E81
102
{ACAD_REACTORS
330
1E08
102
}
330
1E08
100
AcDbXrecord
102
ACAD_ROUNDTRIP_PRE2007_TABLESTYLE
 90
      512
 91
        0
  1

 92
      512
 93
        0
  2

 94
      512
 95
        0
  3

  0
ENDSEC
  0
EOF
