  0
SECTION
  2
HEADER
  9
$ACADVER
  1
AC1014
  9
$ACADMAINTVER
 70
     9
  9
$DWGCODEPAGE
  3
ANSI_932
  9
$INSBASE
 10
0.0
 20
0.0
 30
0.0
  9
$EXTMIN
 10
34.86246706497093
 20
79.82833714013418
 30
0.0
  9
$EXTMAX
 10
1256.579427399212
 20
585.1314265968869
 30
0.0
  9
$LIMMIN
 10
0.0
 20
0.0
  9
$LIMMAX
 10
297.0
 20
210.0
  9
$ORTHOMODE
 70
     0
  9
$REGENMODE
 70
     1
  9
$FILLMODE
 70
     1
  9
$QTEXTMODE
 70
     0
  9
$MIRRTEXT
 70
     0
  9
$DRAGMODE
 70
     2
  9
$LTSCALE
 40
4.0
  9
$OSMODE
 70
    37
  9
$ATTMODE
 70
     1
  9
$TEXTSIZE
 40
2.0
  9
$TRACEWID
 40
1.0
  9
$TEXTSTYLE
  7
STANDARD
  9
$CLAYER
  8
0
  9
$CELTYPE
  6
BYLAYER
  9
$CECOLOR
 62
   256
  9
$CELTSCALE
 40
1.0
  9
$DELOBJ
 70
     1
  9
$DISPSILH
 70
     0
  9
$DIMSCALE
 40
4.0
  9
$DIMASZ
 40
1.8
  9
$DIMEXO
 40
0.625
  9
$DIMDLI
 40
3.75
  9
$DIMRND
 40
0.0
  9
$DIMDLE
 40
0.0
  9
$DIMEXE
 40
0.8
  9
$DIMTP
 40
0.0
  9
$DIMTM
 40
0.0
  9
$DIMTXT
 40
1.8
  9
$DIMCEN
 40
2.5
  9
$DIMTSZ
 40
0.0
  9
$DIMTOL
 70
     0
  9
$DIMLIM
 70
     0
  9
$DIMTIH
 70
     0
  9
$DIMTOH
 70
     0
  9
$DIMSE1
 70
     0
  9
$DIMSE2
 70
     0
  9
$DIMTAD
 70
     1
  9
$DIMZIN
 70
     8
  9
$DIMBLK
  1

  9
$DIMASO
 70
     1
  9
$DIMSHO
 70
     1
  9
$DIMPOST
  1

  9
$DIMAPOST
  1

  9
$DIMALT
 70
     0
  9
$DIMALTD
 70
     4
  9
$DIMALTF
 40
0.0394
  9
$DIMLFAC
 40
1.0
  9
$DIMTOFL
 70
     1
  9
$DIMTVP
 40
0.0
  9
$DIMTIX
 70
     0
  9
$DIMSOXD
 70
     0
  9
$DIMSAH
 70
     0
  9
$DIMBLK1
  1

  9
$DIMBLK2
  1

  9
$DIMSTYLE
  2
STANDARD
  9
$DIMCLRD
 70
     0
  9
$DIMCLRE
 70
     0
  9
$DIMCLRT
 70
     0
  9
$DIMTFAC
 40
1.0
  9
$DIMGAP
 40
0.75
  9
$DIMJUST
 70
     0
  9
$DIMSD1
 70
     0
  9
$DIMSD2
 70
     0
  9
$DIMTOLJ
 70
     1
  9
$DIMTZIN
 70
     0
  9
$DIMALTZ
 70
     0
  9
$DIMALTTZ
 70
     0
  9
$DIMFIT
 70
     3
  9
$DIMUPT
 70
     0
  9
$DIMUNIT
 70
     8
  9
$DIMDEC
 70
     2
  9
$DIMTDEC
 70
     2
  9
$DIMALTU
 70
     8
  9
$DIMALTTD
 70
     4
  9
$DIMTXSTY
  7
STANDARD
  9
$DIMAUNIT
 70
     0
  9
$LUNITS
 70
     2
  9
$LUPREC
 70
     3
  9
$SKETCHINC
 40
1.0
  9
$FILLETRAD
 40
2.0
  9
$AUNITS
 70
     0
  9
$AUPREC
 70
     2
  9
$MENU
  1
.
  9
$ELEVATION
 40
0.0
  9
$PELEVATION
 40
0.0
  9
$THICKNESS
 40
0.0
  9
$LIMCHECK
 70
     0
  9
$BLIPMODE
 70
     0
  9
$CHAMFERA
 40
0.0
  9
$CHAMFERB
 40
0.0
  9
$CHAMFERC
 40
20.0
  9
$CHAMFERD
 40
0.0
  9
$SKPOLY
 70
     0
  9
$TDCREATE
 40
2454412.680298565
  9
$TDUPDATE
 40
2454424.571217256
  9
$TDINDWG
 40
0.0289002778
  9
$TDUSRTIMER
 40
0.0289001042
  9
$USRTIMER
 70
     1
  9
$ANGBASE
 50
0.0
  9
$ANGDIR
 70
     0
  9
$PDMODE
 70
     0
  9
$PDSIZE
 40
-10.0
  9
$PLINEWID
 40
0.0
  9
$COORDS
 70
     0
  9
$SPLFRAME
 70
     0
  9
$SPLINETYPE
 70
     6
  9
$SPLINESEGS
 70
     8
  9
$ATTDIA
 70
     0
  9
$ATTREQ
 70
     1
  9
$HANDLING
 70
-16383
  9
$HANDSEED
  5
28F4
  9
$SURFTAB1
 70
     6
  9
$SURFTAB2
 70
     6
  9
$SURFTYPE
 70
     6
  9
$SURFU
 70
     6
  9
$SURFV
 70
     6
  9
$UCSNAME
  2

  9
$UCSORG
 10
0.0
 20
0.0
 30
0.0
  9
$UCSXDIR
 10
1.0
 20
0.0
 30
0.0
  9
$UCSYDIR
 10
0.0
 20
1.0
 30
0.0
  9
$PUCSNAME
  2

  9
$PUCSORG
 10
0.0
 20
0.0
 30
0.0
  9
$PUCSXDIR
 10
1.0
 20
0.0
 30
0.0
  9
$PUCSYDIR
 10
0.0
 20
1.0
 30
0.0
  9
$USERI1
 70
     0
  9
$USERI2
 70
     0
  9
$USERI3
 70
     0
  9
$USERI4
 70
     0
  9
$USERI5
 70
     0
  9
$USERR1
 40
0.0
  9
$USERR2
 40
0.0
  9
$USERR3
 40
0.0
  9
$USERR4
 40
0.0
  9
$USERR5
 40
0.0
  9
$WORLDVIEW
 70
     1
  9
$SHADEDGE
 70
     3
  9
$SHADEDIF
 70
    70
  9
$TILEMODE
 70
     1
  9
$MAXACTVP
 70
    48
  9
$PINSBASE
 10
0.0
 20
0.0
 30
0.0
  9
$PLIMCHECK
 70
     0
  9
$PEXTMIN
 10
0.0
 20
0.0
 30
0.0
  9
$PEXTMAX
 10
0.0
 20
0.0
 30
0.0
  9
$PLIMMIN
 10
0.0
 20
0.0
  9
$PLIMMAX
 10
12.0
 20
9.0
  9
$UNITMODE
 70
     0
  9
$VISRETAIN
 70
     1
  9
$PLINEGEN
 70
     0
  9
$PSLTSCALE
 70
     1
  9
$TREEDEPTH
 70
  3020
  9
$PICKSTYLE
 70
     1
  9
$CMLSTYLE
  2
STANDARD
  9
$CMLJUST
 70
     0
  9
$CMLSCALE
 40
1.0
  9
$PROXYGRAPHICS
 70
     1
  9
$MEASUREMENT
 70
     0
  0
ENDSEC
  0
SECTION
  2
CLASSES
  0
CLASS
  1
DICTIONARYVAR
  2
AcDbDictionaryVar
  3
AutoCAD 2000
 90
        0
280
     0
281
     0
  0
CLASS
  1
ACDBDICTIONARYWDFLT
  2
AcDbDictionaryWithDefault
  3
AutoCAD 2000
 90
        0
280
     0
281
     0
  0
CLASS
  1
ACDBPLACEHOLDER
  2
AcDbPlaceHolder
  3
AutoCAD 2000
 90
        0
280
     0
281
     0
  0
CLASS
  1
LAYOUT
  2
AcDbLayout
  3
AutoCAD 2000
 90
        0
280
     0
281
     0
  0
CLASS
  1
MATERIAL
  2
AcDbMaterial
  3
ObjectDBX Classes
 90
     1153
280
     0
281
     0
  0
CLASS
  1
VISUALSTYLE
  2
AcDbVisualStyle
  3
ObjectDBX Classes
 90
     4095
280
     0
281
     0
  0
CLASS
  1
TABLESTYLE
  2
AcDbTableStyle
  3
ObjectDBX Classes
 90
     4095
280
     0
281
     0
  0
CLASS
  1
SCALE
  2
AcDbScale
  3
ObjectDBX Classes
 90
     1153
280
     0
281
     0
  0
CLASS
  1
MLEADERSTYLE
  2
AcDbMLeaderStyle
  3
ACDB_MLEADERSTYLE_CLASS
 90
     4095
280
     0
281
     0
  0
CLASS
  1
CELLSTYLEMAP
  2
AcDbCellStyleMap
  3
ObjectDBX Classes
 90
     1152
280
     0
281
     0
  0
CLASS
  1
ACAD_PROXY_OBJECT_WRAPPER
  2
AcDbProxyObjectWrapper
  3
AutoCAD 2000
 90
        0
280
     0
281
     0
  0
CLASS
  1
LONG_TRANSACTION
  2
AcDbLongTransaction
  3
AutoCAD 2000
 90
        0
280
     0
281
     0
  0
CLASS
  1
LWPOLYLINE
  2
AcDbPolyline
  3
AutoCAD 2000
 90
        0
280
     0
281
     1
  0
CLASS
  1
HATCH
  2
AcDbHatch
  3
AutoCAD 2000
 90
        0
280
     0
281
     1
  0
CLASS
  1
XRECORD
  2
AcDbXrecord
  3
AutoCAD 2000
 90
        0
280
     0
281
     0
  0
ENDSEC
  0
SECTION
  2
TABLES
  0
TABLE
  2
VPORT
  5
6E
102
{ACAD_XDICTIONARY
360
288F
102
}
330
0
100
AcDbSymbolTable
 70
     2
  0
VPORT
  5
28CE
330
6E
100
AcDbSymbolTableRecord
100
AcDbViewportTableRecord
  2
*ACTIVE
 70
     0
 10
0.0
 20
0.0
 11
1.0
 21
1.0
 12
732.1512802332575
 22
320.6874180936001
 13
0.0
 23
0.0
 14
10.0
 24
10.0
 15
10.0
 25
10.0
 16
0.0
 26
0.0
 36
1.0
 17
0.0
 27
0.0
 37
0.0
 40
798.8691062993662
 41
1.753504672897196
 42
50.0
 43
0.0
 44
0.0
 50
0.0
 51
0.0
 71
     0
 72
   100
 73
     1
 74
     3
 75
     0
 76
     0
 77
     0
 78
     0
  0
ENDTAB
  0
TABLE
  2
LTYPE
  5
69
330
0
100
AcDbSymbolTable
 70
     5
  0
LTYPE
  5
6A
330
69
100
AcDbSymbolTableRecord
100
AcDbLinetypeTableRecord
  2
BYBLOCK
 70
     0
  3

 72
    65
 73
     0
 40
0.0
  0
LTYPE
  5
6B
330
69
100
AcDbSymbolTableRecord
100
AcDbLinetypeTableRecord
  2
BYLAYER
 70
     0
  3

 72
    65
 73
     0
 40
0.0
  0
LTYPE
  5
8
330
69
100
AcDbSymbolTableRecord
100
AcDbLinetypeTableRecord
  2
CONTINUOUS
 70
     0
  3
Solid line
 72
    65
 73
     0
 40
0.0
  0
LTYPE
  5
27C
330
69
100
AcDbSymbolTableRecord
100
AcDbLinetypeTableRecord
  2
SEKKEI_A2_
 70
     0
  3
center(A2)  ____ _ ____ _ ____ _ ____ _ ____ _ 
 72
    65
 73
     4
 40
14.28749999999999
 49
9.525
 74
     0
 49
-1.587499999999999
 74
     0
 49
1.587499999999999
 74
     0
 49
-1.587499999999999
 74
     0
  0
LTYPE
  5
7F0
330
69
100
AcDbSymbolTableRecord
100
AcDbLinetypeTableRecord
  2
HIDDEN3
 70
     0
  3
Hidden (.3x) _ _ _ _ _ _ _ _ _ _ _ _ _ _ _ _ _
 72
    65
 73
     2
 40
2.857499999999999
 49
1.905
 74
     0
 49
-0.9525
 74
     0
  0
LTYPE
  5
B20
330
69
100
AcDbSymbolTableRecord
100
AcDbLinetypeTableRecord
  2
CENS
 70
     0
  3
(一点鎖線１)---- - ---- - ---- - ---- - ---- - 
 72
    65
 73
     4
 40
7.0
 49
4.0
 74
     0
 49
-1.0
 74
     0
 49
1.0
 74
     0
 49
-1.0
 74
     0
  0
ENDTAB
  0
TABLE
  2
LAYER
  5
66
102
{ACAD_XDICTIONARY
360
B21
102
}
330
0
100
AcDbSymbolTable
 70
     9
  0
LAYER
  5
5E
102
{ACAD_XDICTIONARY
360
2825
102
}
330
66
100
AcDbSymbolTableRecord
100
AcDbLayerTableRecord
  2
0
 70
     0
 62
     7
  6
CONTINUOUS
  0
LAYER
  5
3E
102
{ACAD_XDICTIONARY
360
2827
102
}
330
66
100
AcDbSymbolTableRecord
100
AcDbLayerTableRecord
  2
CENTER
 70
     0
 62
     3
  6
SEKKEI_A2_
  0
LAYER
  5
2B5
102
{ACAD_XDICTIONARY
360
282D
102
}
330
66
100
AcDbSymbolTableRecord
100
AcDbLayerTableRecord
  2
HIDS
 70
     0
 62
     1
  6
HIDDEN3
  0
LAYER
  5
2BA
102
{ACAD_XDICTIONARY
360
282F
102
}
330
66
100
AcDbSymbolTableRecord
100
AcDbLayerTableRecord
  2
HOJO
 70
     0
 62
     4
  6
CONTINUOUS
  0
LAYER
  5
3FA
102
{ACAD_XDICTIONARY
360
2833
102
}
330
66
100
AcDbSymbolTableRecord
100
AcDbLayerTableRecord
  2
TITLE
 70
     0
 62
     4
  6
CONTINUOUS
  0
ENDTAB
  0
TABLE
  2
STYLE
  5
67
330
0
100
AcDbSymbolTable
 70
     2
  0
STYLE
  5
16
330
67
100
AcDbSymbolTableRecord
100
AcDbTextStyleTableRecord
  2
STANDARD
 70
     0
 40
0.0
 41
1.0
 50
0.0
 71
     0
 42
2.0
  3
simplex.shx
  4
extfont.shx
  0
ENDTAB
  0
TABLE
  2
VIEW
  5
6C
330
0
100
AcDbSymbolTable
 70
     0
  0
ENDTAB
  0
TABLE
  2
UCS
  5
6D
330
0
100
AcDbSymbolTable
 70
     0
  0
ENDTAB
  0
TABLE
  2
APPID
  5
70
330
0
100
AcDbSymbolTable
 70
     3
  0
APPID
  5
71
330
70
100
AcDbSymbolTableRecord
100
AcDbRegAppTableRecord
  2
ACAD
 70
     0
  0
APPID
  5
2770
330
70
100
AcDbSymbolTableRecord
100
AcDbRegAppTableRecord
  2
ACAD_MLEADERVER
 70
     0
  0
APPID
  5
280C
330
70
100
AcDbSymbolTableRecord
100
AcDbRegAppTableRecord
  2
ACAD_EXEMPT_FROM_CAD_STANDARDS
 70
     0
  0
ENDTAB
  0
TABLE
  2
DIMSTYLE
  5
72
330
0
100
AcDbSymbolTable
 70
     1
  0
DIMSTYLE
105
73
330
72
100
AcDbSymbolTableRecord
100
AcDbDimStyleTableRecord
  2
STANDARD
 70
     0
  3

  4

  5

  6

  7

 40
4.0
 41
1.8
 42
0.625
 43
3.75
 44
0.8
 45
0.0
 46
0.0
 47
0.0
 48
0.0
140
1.8
141
2.5
142
0.0
143
0.0394
144
1.0
145
0.0
146
1.0
147
0.75
 71
     0
 72
     0
 73
     0
 74
     0
 75
     0
 76
     0
 77
     1
 78
     8
170
     0
171
     4
172
     1
173
     0
174
     0
175
     0
176
     0
177
     0
178
     0
270
     8
271
     2
272
     2
273
     8
274
     4
340
16
275
     0
280
     0
281
     0
282
     0
283
     1
284
     0
285
     0
286
     0
287
     3
288
     0
  0
ENDTAB
  0
TABLE
  2
BLOCK_RECORD
  5
1
330
0
100
AcDbSymbolTable
 70
    43
  0
BLOCK_RECORD
  5
2
102
{ACAD_XDICTIONARY
360
28F0
102
}
330
1
100
AcDbSymbolTableRecord
100
AcDbBlockTableRecord
  2
*MODEL_SPACE
  0
BLOCK_RECORD
  5
28C9
102
{ACAD_XDICTIONARY
360
28F2
102
}
330
1
100
AcDbSymbolTableRecord
100
AcDbBlockTableRecord
  2
*PAPER_SPACE
  0
ENDTAB
  0
ENDSEC
  0
SECTION
  2
BLOCKS
  0
BLOCK
  5
5D
330
2
100
AcDbEntity
  8
0
100
AcDbBlockBegin
  2
*MODEL_SPACE
 70
     0
 10
0.0
 20
0.0
 30
0.0
  3
*MODEL_SPACE
  1

  0
ENDBLK
  5
5F
330
2
100
AcDbEntity
  8
0
100
AcDbBlockEnd
  0
BLOCK
  5
28CB
330
28C9
100
AcDbEntity
 67
     1
  8
0
100
AcDbBlockBegin
  2
*PAPER_SPACE
 70
     0
 10
0.0
 20
0.0
 30
0.0
  3
*PAPER_SPACE
  1

  0
ENDBLK
  5
28CC
330
28C9
100
AcDbEntity
 67
     1
  8
0
100
AcDbBlockEnd
  0
ENDSEC
  0
SECTION
  2
ENTITIES
  0
TEXT
  5
FDD
330
2
100
AcDbEntity
  8
TITLE
100
AcDbText
 10
452.6590009315136
 20
514.8955924666664
 30
0.0
 40
10.0
  1
AFCZ22H-10~30M400S3
100
AcDbText
  0
TEXT
  5
FDE
330
2
100
AcDbEntity
  8
TITLE
100
AcDbText
 10
452.6590009315136
 20
499.5622591333329
 30
0.0
 40
10.0
  1
AFCZ22H-10~30L400S3
100
AcDbText
  0
LINE
  5
FE0
330
2
100
AcDbEntity
  8
CENTER
100
AcDbLine
 10
282.6524670649727
 20
154.8283371401341
 30
0.0
 11
34.86246706497093
 21
154.8283371401341
 31
0.0
  0
LINE
  5
FE7
330
2
100
AcDbEntity
  8
CENTER
100
AcDbLine
 10
679.6335898757773
 20
154.8283371401341
 30
0.0
 11
936.4235898775026
 21
154.8283371401341
 31
0.0
  0
LINE
  5
FEA
330
2
100
AcDbEntity
  8
CENTER
100
AcDbLine
 10
688.8779421739193
 20
516.1314265968824
 30
0.0
 11
936.4235898775024
 21
516.1314265968824
 31
0.0
  0
LINE
  5
FF9
330
2
100
AcDbEntity
  8
0
100
AcDbLine
 10
878.4235898775024
 20
552.1314265968824
 30
0.0
 11
878.4235898775024
 21
480.1314265968824
 31
0.0
  0
LINE
  5
FFF
330
2
100
AcDbEntity
  8
0
100
AcDbLine
 10
878.4235898775024
 20
552.1314265968824
 30
0.0
 11
878.4235898775024
 21
480.1314265968824
 31
0.0
  0
LINE
  5
1002
330
2
100
AcDbEntity
  8
0
100
AcDbLine
 10
878.4235898757772
 20
191.3283371401341
 30
0.0
 11
878.4235898757772
 21
118.3283371401341
 31
0.0
  0
LINE
  5
102D
330
2
100
AcDbEntity
  8
0
100
AcDbLine
 10
92.86246706497093
 20
118.3283371401341
 30
0.0
 11
92.86246706497093
 21
191.3283371401341
 31
0.0
  0
LINE
  5
1304
330
2
100
AcDbEntity
  8
0
100
AcDbLine
 10
1215.579427399207
 20
205.8283371401277
 30
0.0
 11
1215.579427399207
 21
190.939448251239
 31
0.0
  0
LINE
  5
1305
330
2
100
AcDbEntity
  8
CENTER
100
AcDbLine
 10
1187.579427399206
 20
220.5839848419866
 30
0.0
 11
1187.579427399206
 21
89.07268943826892
 31
0.0
  0
LINE
  5
1306
330
2
100
AcDbEntity
  8
0
100
AcDbLine
 10
1149.579427399207
 20
205.2523638659378
 30
0.0
 11
1149.579427399207
 21
104.4043104143176
 31
0.0
  0
LINE
  5
1307
330
2
100
AcDbEntity
  8
CENTER
100
AcDbLine
 10
1073.579427399208
 20
154.8283371401277
 30
0.0
 11
1256.579427399212
 21
154.8283371401277
 31
0.0
  0
LINE
  5
1308
330
2
100
AcDbEntity
  8
0
100
AcDbLine
 10
1144.579427399206
 20
199.8283371401277
 30
0.0
 11
1144.579427399213
 21
109.8283371401277
 31
0.0
  0
LINE
  5
1309
330
2
100
AcDbEntity
  8
0
100
AcDbLine
 10
1149.579427399207
 20
199.8283371401277
 30
0.0
 11
1144.579427399206
 21
199.8283371401277
 31
0.0
  0
LINE
  5
130A
330
2
100
AcDbEntity
  8
0
100
AcDbLine
 10
1149.579427399207
 20
109.8283371401277
 30
0.0
 11
1144.579427399206
 21
109.8283371401277
 31
0.0
  0
LINE
  5
130B
330
2
100
AcDbEntity
  8
0
100
AcDbLine
 10
1215.579427399207
 20
118.7172260290182
 30
0.0
 11
1215.579427399207
 21
103.8283371401277
 31
0.0
  0
LINE
  5
130C
330
2
100
AcDbEntity
  8
0
100
AcDbLine
 10
1215.579427399207
 20
103.8283371401277
 30
0.0
 11
1149.579427399207
 21
104.4043104143176
 31
0.0
  0
LINE
  5
130D
330
2
100
AcDbEntity
  8
0
100
AcDbLine
 10
1215.579427399207
 20
205.8283371401277
 30
0.0
 11
1149.579427399207
 21
205.2523638659378
 31
0.0
  0
LINE
  5
130E
330
2
100
AcDbEntity
  8
0
100
AcDbLine
 10
1130.579427399206
 20
122.7597146897416
 30
0.0
 11
1130.579427399205
 21
186.8969595905156
 31
0.0
  0
LINE
  5
130F
330
2
100
AcDbEntity
  8
0
100
AcDbLine
 10
1142.64922639261
 20
189.2498238085892
 30
0.0
 11
1132.5096284058
 21
188.8957412445535
 31
0.0
  0
LINE
  5
1310
330
2
100
AcDbEntity
  8
0
100
AcDbLine
 10
1142.64922639261
 20
120.406850471668
 30
0.0
 11
1132.509628405801
 21
120.7609330357037
 31
0.0
  0
ARC
  5
1311
330
2
100
AcDbEntity
  8
0
100
AcDbCircle
 10
1132.579427399207
 20
122.7597146897416
 30
0.0
 40
2.0
100
AcDbArc
 50
180.0
 51
267.9999999999963
  0
ARC
  5
1312
330
2
100
AcDbEntity
  8
0
100
AcDbCircle
 10
1142.579427399206
 20
118.4080688176301
 30
0.0
 40
2.0
100
AcDbArc
 50
0.0
 51
87.99999999999636
  0
ARC
  5
1313
330
2
100
AcDbEntity
  8
0
100
AcDbCircle
 10
1132.579427399205
 20
186.8969595905156
 30
0.0
 40
2.0
100
AcDbArc
 50
92.00000000000365
 51
180.0
  0
ARC
  5
1314
330
2
100
AcDbEntity
  8
0
100
AcDbCircle
 10
1142.579427399206
 20
191.2486054626289
 30
0.0
 40
2.0
100
AcDbArc
 50
271.9999999999775
 51
0.0
  0
LINE
  5
1315
330
2
100
AcDbEntity
  8
0
100
AcDbLine
 10
1187.579427399205
 20
191.3283371401295
 30
0.0
 11
1218.64886514666
 21
190.8968171714142
 31
0.0
  0
ARC
  5
1316
330
2
100
AcDbEntity
  8
0
100
AcDbCircle
 10
1218.579427399206
 20
185.8972993547405
 30
0.0
 40
5.0
100
AcDbArc
 50
44.44120088201017
 51
89.20427644725567
  0
ARC
  5
1317
330
2
100
AcDbEntity
  8
0
100
AcDbCircle
 10
1218.579427399206
 20
123.7593749255167
 30
0.0
 40
5.0
100
AcDbArc
 50
270.7957235527443
 51
315.5587991240926
  0
LINE
  5
1318
330
2
100
AcDbEntity
  8
0
100
AcDbLine
 10
1187.579427399205
 20
118.3283371401277
 30
0.0
 11
1218.64886514666
 21
118.759857108843
 31
0.0
  0
LINE
  5
1319
330
2
100
AcDbEntity
  8
0
100
AcDbLine
 10
1187.579427399205
 20
118.3283371401277
 30
0.0
 11
1156.509991396049
 21
118.7598570846159
 31
0.0
  0
ARC
  5
131A
330
2
100
AcDbEntity
  8
0
100
AcDbCircle
 10
1156.579429143503
 20
123.7593749012896
 30
0.0
 40
5.0
100
AcDbArc
 50
224.4419082422435
 51
269.2042764472556
  0
ARC
  5
131B
330
2
100
AcDbEntity
  8
0
100
AcDbCircle
 10
1156.579429143503
 20
185.8972993789677
 30
0.0
 40
5.0
100
AcDbArc
 50
90.79572355274434
 51
135.55809175165
  0
LINE
  5
131C
330
2
100
AcDbEntity
  8
0
100
AcDbLine
 10
1187.579427399205
 20
191.3283371401295
 30
0.0
 11
1156.509991396049
 21
190.8968171956414
 31
0.0
  0
LINE
  5
131D
330
2
100
AcDbEntity
  8
0
100
AcDbLine
 10
1215.579427399207
 20
197.8283371401259
 30
0.0
 11
1149.579427399207
 21
197.8283371401259
 31
0.0
  0
LINE
  5
131E
330
2
100
AcDbEntity
  8
0
100
AcDbLine
 10
1215.579427399207
 20
111.8283371401295
 30
0.0
 11
1149.579427399207
 21
111.8283371401295
 31
0.0
  0
LINE
  5
131F
330
2
100
AcDbEntity
  8
0
100
AcDbLine
 10
1241.579427399211
 20
122.4056874093195
 30
0.0
 11
1241.579427399212
 21
187.2509868709395
 31
0.0
  0
LINE
  5
1320
330
2
100
AcDbEntity
  8
0
100
AcDbLine
 10
1231.665213836839
 20
195.242550702501
 30
0.0
 11
1232.493640961584
 21
194.4141235777562
 31
0.0
  0
LINE
  5
1321
330
2
100
AcDbEntity
  8
0
100
AcDbLine
 10
1215.579427399208
 20
205.8283371401277
 30
0.0
 11
1215.579427399208
 21
190.939448251239
 31
0.0
  0
LINE
  5
1322
330
2
100
AcDbEntity
  8
0
100
AcDbLine
 10
1215.579427399205
 20
118.7172260290164
 30
0.0
 11
1215.579427399203
 21
103.8283371401295
 31
0.0
  0
LINE
  5
1323
330
2
100
AcDbEntity
  8
0
100
AcDbLine
 10
1223.079427399208
 20
188.780263210506
 30
0.0
 11
1223.079427399208
 21
188.1447792707433
 31
0.0
  0
LINE
  5
1324
330
2
100
AcDbEntity
  8
0
100
AcDbLine
 10
1228.079427399207
 20
179.3283371401277
 30
0.0
 11
1228.079427399205
 21
130.3283371401295
 31
0.0
  0
ARC
  5
1325
330
2
100
AcDbEntity
  8
0
100
AcDbCircle
 10
1226.079427399208
 20
188.736628871554
 30
0.0
 40
2.0
100
AcDbArc
 50
17.20876206250551
 51
89.50000000000846
  0
LINE
  5
1326
330
2
100
AcDbEntity
  8
0
100
AcDbLine
 10
1231.079427399214
 20
105.9462260120755
 30
0.0
 11
1231.079427399211
 21
203.7104482681799
 31
0.0
  0
ARC
  5
1327
330
2
100
AcDbEntity
  8
0
100
AcDbCircle
 10
1229.079427399214
 20
105.9462260120755
 30
0.0
 40
2.0
100
AcDbArc
 50
270.4999999999915
 51
0.0
  0
LINE
  5
1328
330
2
100
AcDbEntity
  8
0
100
AcDbLine
 10
1237.079427399211
 20
187.6283371401288
 30
0.0
 11
1236.879427399211
 21
187.8283371401277
 31
0.0
  0
LINE
  5
1329
330
2
100
AcDbEntity
  8
0
100
AcDbLine
 10
1233.579427399211
 20
189.8283371401277
 30
0.0
 11
1233.079427399211
 21
190.3283371401277
 31
0.0
  0
LINE
  5
132A
330
2
100
AcDbEntity
  8
0
100
AcDbLine
 10
1233.07942739921
 20
192.9999100153828
 30
0.0
 11
1233.079427399211
 21
190.3283371401277
 31
0.0
  0
LINE
  5
132B
330
2
100
AcDbEntity
  8
0
100
AcDbLine
 10
1236.879427399211
 20
187.8283371401277
 30
0.0
 11
1233.579427399211
 21
187.8283371401277
 31
0.0
  0
LINE
  5
132C
330
2
100
AcDbEntity
  8
0
100
AcDbLine
 10
1240.579427399211
 20
187.8283371401277
 30
0.0
 11
1241.579427399211
 21
187.2509868709395
 31
0.0
  0
LINE
  5
132D
330
2
100
AcDbEntity
  8
0
100
AcDbLine
 10
1240.579427399212
 20
187.8283371401277
 30
0.0
 11
1239.279427399211
 21
187.8283371401277
 31
0.0
  0
LINE
  5
132E
330
2
100
AcDbEntity
  8
0
100
AcDbLine
 10
1238.879427399211
 20
187.1283371401288
 30
0.0
 11
1237.279427399211
 21
187.1283371401288
 31
0.0
  0
LINE
  5
132F
330
2
100
AcDbEntity
  8
0
100
AcDbLine
 10
1215.579427399203
 20
103.8283371401295
 30
0.0
 11
1229.096880470211
 21
103.9463021659477
 31
0.0
  0
LINE
  5
1330
330
2
100
AcDbEntity
  8
0
100
AcDbLine
 10
1231.665213836839
 20
114.4141235777562
 30
0.0
 11
1232.493640961578
 21
115.2425507024956
 31
0.0
  0
LINE
  5
1331
330
2
100
AcDbEntity
  8
0
100
AcDbLine
 10
1233.579427399207
 20
119.8283371401295
 30
0.0
 11
1233.579427399214
 21
189.8283371401259
 31
0.0
  0
LINE
  5
1332
330
2
100
AcDbEntity
  8
0
100
AcDbLine
 10
1237.079427399207
 20
122.0283371401284
 30
0.0
 11
1237.079427399207
 21
187.6283371401324
 31
0.0
  0
LINE
  5
1333
330
2
100
AcDbEntity
  8
0
100
AcDbLine
 10
1237.079427399207
 20
122.0283371401284
 30
0.0
 11
1236.879427399206
 21
121.8283371401277
 31
0.0
  0
LINE
  5
1334
330
2
100
AcDbEntity
  8
0
100
AcDbLine
 10
1236.879427399206
 20
121.8283371401277
 30
0.0
 11
1233.579427399207
 21
121.8283371401295
 31
0.0
  0
LINE
  5
1335
330
2
100
AcDbEntity
  8
0
100
AcDbLine
 10
1233.579427399207
 20
119.8283371401295
 30
0.0
 11
1233.079427399206
 21
119.3283371401295
 31
0.0
  0
LINE
  5
1336
330
2
100
AcDbEntity
  8
0
100
AcDbLine
 10
1233.079427399205
 20
116.6567642648689
 30
0.0
 11
1233.079427399211
 21
190.3283371401277
 31
0.0
  0
LINE
  5
1337
330
2
100
AcDbEntity
  8
0
100
AcDbLine
 10
1240.579427399207
 20
121.8283371401277
 30
0.0
 11
1241.579427399207
 21
122.4056874093177
 31
0.0
  0
LINE
  5
1338
330
2
100
AcDbEntity
  8
0
100
AcDbLine
 10
1239.079427399206
 20
122.0283371401284
 30
0.0
 11
1239.079427399206
 21
187.6283371401288
 31
0.0
  0
LINE
  5
1339
330
2
100
AcDbEntity
  8
0
100
AcDbLine
 10
1240.579427399207
 20
121.8283371401277
 30
0.0
 11
1239.279427399206
 21
121.8283371401277
 31
0.0
  0
LINE
  5
133A
330
2
100
AcDbEntity
  8
0
100
AcDbLine
 10
1238.879427399206
 20
122.5283371401284
 30
0.0
 11
1237.279427399207
 21
122.5283371401284
 31
0.0
  0
ARC
  5
133B
330
2
100
AcDbEntity
  8
0
100
AcDbCircle
 10
1231.079427399205
 20
116.6567642648689
 30
0.0
 40
2.0
100
AcDbArc
 50
314.9999999999812
 51
0.0
  0
ARC
  5
133C
330
2
100
AcDbEntity
  8
0
100
AcDbCircle
 10
1233.079427399212
 20
112.9999100153829
 30
0.0
 40
2.0
100
AcDbArc
 50
134.9999999999812
 51
180.0
  0
ARC
  5
133D
330
2
100
AcDbEntity
  8
0
100
AcDbCircle
 10
1231.07942739921
 20
192.9999100153828
 30
0.0
 40
2.0
100
AcDbArc
 50
0.0
 51
45.00000000001871
  0
ARC
  5
133E
330
2
100
AcDbEntity
  8
0
100
AcDbCircle
 10
1233.079427399212
 20
196.6567642648744
 30
0.0
 40
2.0
100
AcDbArc
 50
180.0
 51
225.0000000000187
  0
ARC
  5
133F
330
2
100
AcDbEntity
  8
0
100
AcDbCircle
 10
1239.279427399207
 20
122.0283371401284
 30
0.0
 40
0.2
100
AcDbArc
 50
180.0
 51
269.9999999999739
  0
ARC
  5
1340
330
2
100
AcDbEntity
  8
0
100
AcDbCircle
 10
1238.879427399206
 20
122.3283371401277
 30
0.0
 40
0.2
100
AcDbArc
 50
0.0
 51
89.99999999997395
  0
ARC
  5
1341
330
2
100
AcDbEntity
  8
0
100
AcDbCircle
 10
1237.279427399207
 20
122.3283371401277
 30
0.0
 40
0.2
100
AcDbArc
 50
89.99999999997395
 51
180.0
  0
ARC
  5
1342
330
2
100
AcDbEntity
  8
0
100
AcDbCircle
 10
1239.279427399211
 20
187.6283371401288
 30
0.0
 40
0.2
100
AcDbArc
 50
90.0
 51
180.0
  0
ARC
  5
1343
330
2
100
AcDbEntity
  8
0
100
AcDbCircle
 10
1238.879427399211
 20
187.3283371401277
 30
0.0
 40
0.2
100
AcDbArc
 50
270.0
 51
0.0
  0
ARC
  5
1344
330
2
100
AcDbEntity
  8
0
100
AcDbCircle
 10
1237.279427399211
 20
187.3283371401277
 30
0.0
 40
0.2
100
AcDbArc
 50
180.0
 51
270.0
  0
LINE
  5
1345
330
2
100
AcDbEntity
  8
0
100
AcDbLine
 10
1240.579427399207
 20
121.8283371401277
 30
0.0
 11
1240.579427399211
 21
187.8283371401277
 31
0.0
  0
LINE
  5
1346
330
2
100
AcDbEntity
  8
0
100
AcDbLine
 10
1236.879427399206
 20
121.8283371401277
 30
0.0
 11
1236.879427399211
 21
187.8283371401277
 31
0.0
  0
ARC
  5
1347
330
2
100
AcDbEntity
  8
0
100
AcDbCircle
 10
1229.079427399214
 20
203.7104482681799
 30
0.0
 40
2.0
100
AcDbArc
 50
0.0
 51
89.50000000000846
  0
LINE
  5
1348
330
2
100
AcDbEntity
  8
0
100
AcDbLine
 10
1215.579427399203
 20
205.8283371401277
 30
0.0
 11
1229.096880470211
 21
205.7103721143095
 31
0.0
  0
LINE
  5
1349
330
2
100
AcDbEntity
  8
0
100
AcDbLine
 10
1226.096880470205
 20
190.7365527176818
 30
0.0
 11
1219.59389487497
 21
190.7933034132176
 31
0.0
  0
LINE
  5
134A
330
2
100
AcDbEntity
  8
0
100
AcDbLine
 10
1223.766404632826
 20
177.3659763195885
 30
0.0
 11
1226.096880470204
 21
177.3456385650653
 31
0.0
  0
ARC
  5
134B
330
2
100
AcDbEntity
  8
0
100
AcDbCircle
 10
1221.079427399208
 20
188.780263210506
 30
0.0
 40
2.0
100
AcDbArc
 50
0.0
 51
89.50000000000846
  0
ARC
  5
134C
330
2
100
AcDbEntity
  8
0
100
AcDbCircle
 10
1226.079427399207
 20
175.3457147189375
 30
0.0
 40
2.0
100
AcDbArc
 50
0.0
 51
89.49999999998238
  0
LINE
  5
134D
330
2
100
AcDbEntity
  8
0
100
AcDbLine
 10
1223.079427399208
 20
120.3283371401295
 30
0.0
 11
1223.079427399207
 21
121.5118950095264
 31
0.0
  0
ARC
  5
134E
330
2
100
AcDbEntity
  8
0
100
AcDbCircle
 10
1226.079427399208
 20
120.9200454087032
 30
0.0
 40
2.0
100
AcDbArc
 50
270.4999999999915
 51
342.7912379374944
  0
LINE
  5
134F
330
2
100
AcDbEntity
  8
0
100
AcDbLine
 10
1226.096880470205
 20
118.9201215625736
 30
0.0
 11
1219.59389487497
 21
118.8633708670396
 31
0.0
  0
LINE
  5
1350
330
2
100
AcDbEntity
  8
0
100
AcDbLine
 10
1223.766404632826
 20
132.2906979606685
 30
0.0
 11
1226.096880470204
 21
132.3110357151901
 31
0.0
  0
ARC
  5
1351
330
2
100
AcDbEntity
  8
0
100
AcDbCircle
 10
1221.079427399208
 20
120.8764110697513
 30
0.0
 40
2.0
100
AcDbArc
 50
270.4999999999915
 51
0.0
  0
ARC
  5
1352
330
2
100
AcDbEntity
  8
0
100
AcDbCircle
 10
1226.079427399207
 20
134.3109595613179
 30
0.0
 40
2.0
100
AcDbArc
 50
270.5000000000175
 51
0.0
  0
LINE
  5
1353
330
2
100
AcDbEntity
  8
CENTER
  6
CENS
100
AcDbLine
 10
1209.795639650124
 20
184.3283371401277
 30
0.0
 11
1233.579427399208
 21
184.3283371401277
 31
0.0
  0
LINE
  5
1354
330
2
100
AcDbEntity
  8
0
100
AcDbLine
 10
1230.179427399209
 20
189.3283371401277
 30
0.0
 11
1230.579427399209
 21
188.6355168171004
 31
0.0
  0
LINE
  5
1355
330
2
100
AcDbEntity
  8
0
100
AcDbLine
 10
1224.579427399208
 20
189.3283371401277
 30
0.0
 11
1224.579427399208
 21
179.3283371401277
 31
0.0
  0
LINE
  5
1356
330
2
100
AcDbEntity
  8
0
100
AcDbLine
 10
1230.179427399209
 20
189.3283371401277
 30
0.0
 11
1230.179427399209
 21
179.3283371401277
 31
0.0
  0
LINE
  5
1357
330
2
100
AcDbEntity
  8
0
100
AcDbLine
 10
1223.079427399208
 20
189.3283371401277
 30
0.0
 11
1230.179427399209
 21
189.3283371401277
 31
0.0
  0
LINE
  5
1358
330
2
100
AcDbEntity
  8
0
100
AcDbLine
 10
1223.739149621429
 20
179.3283371401277
 30
0.0
 11
1230.179427399209
 21
179.3283371401277
 31
0.0
  0
LINE
  5
1359
330
2
100
AcDbEntity
  8
0
100
AcDbLine
 10
1230.179427399209
 20
179.3283371401277
 30
0.0
 11
1230.579427399209
 21
180.021157463155
 31
0.0
  0
LINE
  5
135A
330
2
100
AcDbEntity
  8
0
100
AcDbLine
 10
1230.579427399209
 20
188.6355168171004
 30
0.0
 11
1230.579427399209
 21
180.021157463155
 31
0.0
  0
LINE
  5
135B
330
2
100
AcDbEntity
  8
0
100
AcDbLine
 10
1223.079427399208
 20
188.1447792707442
 30
0.0
 11
1223.079427399208
 21
189.3283371401277
 31
0.0
  0
LINE
  5
135C
330
2
100
AcDbEntity
  8
CENTER
  6
CENS
100
AcDbLine
 10
1209.795639650124
 20
125.3283371401295
 30
0.0
 11
1233.579427399208
 21
125.3283371401295
 31
0.0
  0
LINE
  5
135D
330
2
100
AcDbEntity
  8
0
100
AcDbLine
 10
1230.179427399209
 20
120.3283371401295
 30
0.0
 11
1230.579427399209
 21
121.0211574631568
 31
0.0
  0
LINE
  5
135E
330
2
100
AcDbEntity
  8
0
100
AcDbLine
 10
1224.579427399208
 20
120.3283371401295
 30
0.0
 11
1224.579427399208
 21
130.3283371401295
 31
0.0
  0
LINE
  5
135F
330
2
100
AcDbEntity
  8
0
100
AcDbLine
 10
1230.179427399209
 20
120.3283371401295
 30
0.0
 11
1230.179427399209
 21
130.3283371401295
 31
0.0
  0
LINE
  5
1360
330
2
100
AcDbEntity
  8
0
100
AcDbLine
 10
1223.079427399208
 20
120.3283371401295
 30
0.0
 11
1230.179427399209
 21
120.3283371401295
 31
0.0
  0
LINE
  5
1361
330
2
100
AcDbEntity
  8
0
100
AcDbLine
 10
1223.739149621429
 20
130.3283371401295
 30
0.0
 11
1230.179427399209
 21
130.3283371401295
 31
0.0
  0
LINE
  5
1362
330
2
100
AcDbEntity
  8
0
100
AcDbLine
 10
1230.179427399209
 20
130.3283371401295
 30
0.0
 11
1230.579427399209
 21
129.6355168171023
 31
0.0
  0
LINE
  5
1363
330
2
100
AcDbEntity
  8
0
100
AcDbLine
 10
1230.579427399209
 20
121.0211574631568
 30
0.0
 11
1230.579427399209
 21
129.6355168171023
 31
0.0
  0
ARC
  5
136A
330
2
100
AcDbEntity
  8
0
100
AcDbCircle
 10
888.4235898775026
 20
550.1314265968824
 30
0.0
 40
2.0
100
AcDbArc
 50
40.04151653423412
 51
90.0
  0
ARC
  5
136B
330
2
100
AcDbEntity
  8
0
100
AcDbCircle
 10
888.4235898775026
 20
482.1314265968823
 30
0.0
 40
2.0
100
AcDbArc
 50
270.0
 51
319.9584834657658
  0
LINE
  5
136C
330
2
100
AcDbEntity
  8
0
100
AcDbLine
 10
897.4235898775026
 20
513.1314265968824
 30
0.0
 11
897.4235898775026
 21
498.6314265968823
 31
0.0
  0
LINE
  5
136D
330
2
100
AcDbEntity
  8
0
100
AcDbLine
 10
890.4235898775008
 20
542.991426596883
 30
0.0
 11
890.4235898775025
 21
489.2714265968827
 31
0.0
  0
LINE
  5
136E
330
2
100
AcDbEntity
  8
CENTER
  6
CENS
100
AcDbLine
 10
907.4235898775025
 20
518.5314265968823
 30
0.0
 11
907.4235898775025
 21
492.7314265968824
 31
0.0
  0
LINE
  5
136F
330
2
100
AcDbEntity
  8
0
100
AcDbLine
 10
906.4235898775026
 20
543.1314265968824
 30
0.0
 11
906.4235898775026
 21
519.1314265968824
 31
0.0
  0
LINE
  5
1370
330
2
100
AcDbEntity
  8
0
100
AcDbLine
 10
895.9547468335298
 20
546.1314265968824
 30
0.0
 11
921.4235898775026
 21
546.1314265968824
 31
0.0
  0
ARC
  5
1371
330
2
100
AcDbEntity
  8
0
100
AcDbCircle
 10
909.4235898775025
 20
543.1314265968824
 30
0.0
 40
3.0
100
AcDbArc
 50
90.0
 51
180.0
  0
ARC
  5
1372
330
2
100
AcDbEntity
  8
0
100
AcDbCircle
 10
903.4235898775024
 20
519.1314265968824
 30
0.0
 40
3.0
100
AcDbArc
 50
270.0
 51
0.0
  0
ARC
  5
1373
330
2
100
AcDbEntity
  8
0
100
AcDbCircle
 10
900.4235898775025
 20
513.1314265968824
 30
0.0
 40
3.0
100
AcDbArc
 50
90.0
 51
180.0
  0
LINE
  5
1374
330
2
100
AcDbEntity
  8
0
100
AcDbLine
 10
900.4235898775025
 20
516.1314265968824
 30
0.0
 11
903.4235898775024
 21
516.1314265968824
 31
0.0
  0
LINE
  5
1375
330
2
100
AcDbEntity
  8
0
100
AcDbLine
 10
895.9547468335298
 20
486.1314265968823
 30
0.0
 11
921.4235898775026
 21
486.1314265968823
 31
0.0
  0
LINE
  5
1376
330
2
100
AcDbEntity
  8
CENTER
  6
CENS
100
AcDbLine
 10
894.5235898775026
 20
505.6314265968824
 30
0.0
 11
920.3235898775025
 21
505.6314265968824
 31
0.0
  0
ARC
  5
1377
330
2
100
AcDbEntity
  8
0
100
AcDbCircle
 10
900.4235898775025
 20
498.6314265968823
 30
0.0
 40
3.0
100
AcDbArc
 50
180.0
 51
270.0
  0
ARC
  5
1378
330
2
100
AcDbEntity
  8
0
100
AcDbCircle
 10
903.4235898775024
 20
492.6314265968824
 30
0.0
 40
3.0
100
AcDbArc
 50
0.0
 51
90.0
  0
LINE
  5
1379
330
2
100
AcDbEntity
  8
0
100
AcDbLine
 10
900.4235898775025
 20
495.6314265968824
 30
0.0
 11
903.4235898775024
 21
495.6314265968824
 31
0.0
  0
LINE
  5
137A
330
2
100
AcDbEntity
  8
0
100
AcDbLine
 10
906.4235898775026
 20
492.6314265968824
 30
0.0
 11
906.4235898775026
 21
489.1314265968824
 31
0.0
  0
ARC
  5
137B
330
2
100
AcDbEntity
  8
0
100
AcDbCircle
 10
909.4235898775025
 20
489.1314265968824
 30
0.0
 40
3.0
100
AcDbArc
 50
180.0
 51
270.0
  0
LINE
  5
137C
330
2
100
AcDbEntity
  8
0
100
AcDbLine
 10
878.4235898775024
 20
552.1314265968824
 30
0.0
 11
888.4235898775026
 21
552.1314265968824
 31
0.0
  0
LINE
  5
137D
330
2
100
AcDbEntity
  8
0
100
AcDbLine
 10
878.4235898775024
 20
480.1314265968824
 30
0.0
 11
888.4235898775026
 21
480.1314265968824
 31
0.0
  0
LINE
  5
137E
330
2
100
AcDbEntity
  8
0
100
AcDbLine
 10
921.4235898775026
 20
546.1314265968824
 30
0.0
 11
921.4235898775026
 21
486.1314265968823
 31
0.0
  0
LINE
  5
137F
330
2
100
AcDbEntity
  8
0
100
AcDbLine
 10
1156.510465184594
 20
118.8283371401359
 30
0.0
 11
1218.648389613819
 21
118.8283371401359
 31
0.0
  0
LINE
  5
1380
330
2
100
AcDbEntity
  8
0
100
AcDbLine
 10
1156.510465184594
 20
190.8283371401359
 30
0.0
 11
1218.648389613819
 21
190.8283371401359
 31
0.0
  0
CIRCLE
  5
1381
330
2
100
AcDbEntity
  8
HIDS
100
AcDbCircle
 10
1187.579427399206
 20
154.8283371401359
 30
0.0
 40
30.0
  0
ARC
  5
1382
330
2
100
AcDbEntity
  8
0
100
AcDbCircle
 10
1162.652170810548
 20
129.8283371401368
 30
0.0
 40
5.0
100
AcDbArc
 50
180.1666666666621
 51
270.0
  0
LINE
  5
1383
330
2
100
AcDbEntity
  8
CENTER
100
AcDbLine
 10
1167.829427399206
 20
179.5783371401359
 30
0.0
 11
1157.829427399206
 21
179.5783371401359
 31
0.0
  0
LINE
  5
1384
330
2
100
AcDbEntity
  8
CENTER
100
AcDbLine
 10
1167.829427399206
 20
130.0783371401359
 30
0.0
 11
1157.829427399206
 21
130.0783371401359
 31
0.0
  0
ARC
  5
1385
330
2
100
AcDbEntity
  8
0
100
AcDbCircle
 10
1162.652170810548
 20
179.8283371401359
 30
0.0
 40
5.0
100
AcDbArc
 50
90.0
 51
179.8333333333378
  0
LINE
  5
1386
330
2
100
AcDbEntity
  8
0
100
AcDbLine
 10
1151.510947367922
 20
123.7588993926821
 30
0.0
 11
1151.079427399208
 21
154.8283371401377
 31
0.0
  0
LINE
  5
1387
330
2
100
AcDbEntity
  8
0
100
AcDbLine
 10
1157.65219196452
 20
129.8137927502158
 30
0.0
 11
1157.579427399207
 21
154.8283371401359
 31
0.0
  0
ARC
  5
1388
330
2
100
AcDbEntity
  8
0
100
AcDbCircle
 10
1156.510465184594
 20
123.8283371401359
 30
0.0
 40
5.0
100
AcDbArc
 50
180.7957235527443
 51
270.0
  0
LINE
  5
1389
330
2
100
AcDbEntity
  8
0
100
AcDbLine
 10
1151.510947367922
 20
185.8977748875897
 30
0.0
 11
1151.079427399206
 21
154.8283371401377
 31
0.0
  0
LINE
  5
138A
330
2
100
AcDbEntity
  8
0
100
AcDbLine
 10
1157.65219196452
 20
179.8428815300578
 30
0.0
 11
1157.579427399207
 21
154.8283371401359
 31
0.0
  0
LINE
  5
138B
330
2
100
AcDbEntity
  8
0
100
AcDbLine
 10
1157.579427399207
 20
154.8283371401359
 30
0.0
 11
1151.079427399206
 21
154.8283371401359
 31
0.0
  0
ARC
  5
138C
330
2
100
AcDbEntity
  8
0
100
AcDbCircle
 10
1156.510465184594
 20
185.8283371401359
 30
0.0
 40
5.0
100
AcDbArc
 50
90.0
 51
179.2042764472556
  0
LINE
  5
138D
330
2
100
AcDbEntity
  8
0
100
AcDbLine
 10
1223.647907430493
 20
123.7588993926821
 30
0.0
 11
1224.079427399207
 21
154.8283371401377
 31
0.0
  0
LINE
  5
138E
330
2
100
AcDbEntity
  8
0
100
AcDbLine
 10
1217.506662833893
 20
129.8137927502158
 30
0.0
 11
1217.579427399207
 21
154.8283371401359
 31
0.0
  0
LINE
  5
138F
330
2
100
AcDbEntity
  8
0
100
AcDbLine
 10
1212.506683987865
 20
124.8283371401359
 30
0.0
 11
1162.652170810548
 21
124.8283371401359
 31
0.0
  0
LINE
  5
1390
330
2
100
AcDbEntity
  8
CENTER
100
AcDbLine
 10
1162.829427399206
 20
135.0783371401359
 30
0.0
 11
1162.829427399206
 21
125.0783371401359
 31
0.0
  0
LINE
  5
1391
330
2
100
AcDbEntity
  8
HIDS
100
AcDbLine
 10
1208.113728263288
 20
126.7934323272622
 30
0.0
 11
1208.201766013004
 21
131.8371116304999
 31
0.0
  0
ARC
  5
1392
330
2
100
AcDbEntity
  8
0
100
AcDbCircle
 10
1212.506683987865
 20
129.8283371401368
 30
0.0
 40
5.0
100
AcDbArc
 50
270.0
 51
359.8333333333378
  0
LINE
  5
1393
330
2
100
AcDbEntity
  8
CENTER
100
AcDbLine
 10
1212.329427399207
 20
135.0783371401359
 30
0.0
 11
1212.329427399207
 21
125.0783371401359
 31
0.0
  0
ARC
  5
1394
330
2
100
AcDbEntity
  8
0
100
AcDbCircle
 10
1218.648389613819
 20
123.8283371401359
 30
0.0
 40
4.999999999999999
100
AcDbArc
 50
270.0
 51
359.2042764472556
  0
ARC
  5
1395
330
2
100
AcDbEntity
  8
HIDS
100
AcDbCircle
 10
1206.114032872976
 20
126.8283371401359
 30
0.0
 40
2.0
100
AcDbArc
 50
270.0
 51
358.9999999999982
  0
LINE
  5
1396
330
2
100
AcDbEntity
  8
CENTER
100
AcDbLine
 10
1217.329427399207
 20
130.0783371401359
 30
0.0
 11
1207.329427399207
 21
130.0783371401359
 31
0.0
  0
ARC
  5
1397
330
2
100
AcDbEntity
  8
HIDS
100
AcDbCircle
 10
1211.201309098473
 20
131.7847544111875
 30
0.0
 40
3.0
100
AcDbArc
 50
135.7099981688279
 51
178.9999999999982
  0
LINE
  5
1398
330
2
100
AcDbEntity
  8
0
100
AcDbLine
 10
1212.506683987865
 20
184.8283371401359
 30
0.0
 11
1162.652170810548
 21
184.8283371401359
 31
0.0
  0
LINE
  5
1399
330
2
100
AcDbEntity
  8
HIDS
100
AcDbLine
 10
1171.329427399206
 20
184.8283371401359
 30
0.0
 11
1171.576995517882
 21
170.6451691201411
 31
0.0
  0
LINE
  5
139A
330
2
100
AcDbEntity
  8
CENTER
100
AcDbLine
 10
1162.829427399206
 20
184.5783371401359
 30
0.0
 11
1162.829427399206
 21
174.5783371401359
 31
0.0
  0
ARC
  5
139B
330
2
100
AcDbEntity
  8
HIDS
100
AcDbCircle
 10
1163.95754569994
 20
177.8719198690852
 30
0.0
 40
3.0
100
AcDbArc
 50
315.7099981688279
 51
358.9999999999982
  0
ARC
  5
139C
330
2
100
AcDbEntity
  8
HIDS
100
AcDbCircle
 10
1169.044821925437
 20
182.8283371401359
 30
0.0
 40
2.0
100
AcDbArc
 50
90.0
 51
178.9999999999982
  0
LINE
  5
139D
330
2
100
AcDbEntity
  8
HIDS
100
AcDbLine
 10
1167.045126535125
 20
182.8632419530105
 30
0.0
 11
1166.957088785411
 21
177.8195626497728
 31
0.0
  0
LINE
  5
139E
330
2
100
AcDbEntity
  8
HIDS
100
AcDbLine
 10
1182.829427399207
 20
184.8283371401359
 30
0.0
 11
1182.689125775361
 21
176.7904624932963
 31
0.0
  0
LINE
  5
139F
330
2
100
AcDbEntity
  8
0
100
AcDbLine
 10
1223.647907430493
 20
185.8977748875897
 30
0.0
 11
1224.079427399207
 21
154.8283371401377
 31
0.0
  0
LINE
  5
13A0
330
2
100
AcDbEntity
  8
0
100
AcDbLine
 10
1217.506662833893
 20
179.8428815300578
 30
0.0
 11
1217.579427399207
 21
154.8283371401359
 31
0.0
  0
LINE
  5
13A1
330
2
100
AcDbEntity
  8
CENTER
100
AcDbLine
 10
1212.329427399207
 20
184.5783371401359
 30
0.0
 11
1212.329427399207
 21
174.5783371401359
 31
0.0
  0
LINE
  5
13A2
330
2
100
AcDbEntity
  8
0
100
AcDbLine
 10
1217.579427399207
 20
154.8283371401359
 30
0.0
 11
1224.079427399207
 21
154.8283371401359
 31
0.0
  0
ARC
  5
13A3
330
2
100
AcDbEntity
  8
0
100
AcDbCircle
 10
1218.648389613819
 20
185.8283371401359
 30
0.0
 40
4.999999999999999
100
AcDbArc
 50
0.7957235527443399
 51
90.0
  0
ARC
  5
13A4
330
2
100
AcDbEntity
  8
0
100
AcDbCircle
 10
1212.506683987865
 20
179.8283371401359
 30
0.0
 40
5.0
100
AcDbArc
 50
0.1666666666621044
 51
90.0
  0
LINE
  5
13A5
330
2
100
AcDbEntity
  8
CENTER
100
AcDbLine
 10
1217.329427399207
 20
179.5783371401359
 30
0.0
 11
1207.329427399207
 21
179.5783371401359
 31
0.0
  0
CIRCLE
  5
13A6
330
2
100
AcDbEntity
  8
0
100
AcDbCircle
 10
1187.579427399206
 20
154.8283371401359
 30
0.0
 40
25.00000000022851
  0
CIRCLE
  5
13A7
330
2
100
AcDbEntity
  8
0
100
AcDbCircle
 10
1156.469427399208
 20
123.7183371401362
 30
0.0
 40
2.75
  0
CIRCLE
  5
13A8
330
2
100
AcDbEntity
  8
0
100
AcDbCircle
 10
1218.689427399207
 20
185.9383371401365
 30
0.0
 40
2.75
  0
CIRCLE
  5
13A9
330
2
100
AcDbEntity
  8
0
100
AcDbCircle
 10
1218.689427399207
 20
123.7183371401371
 30
0.0
 40
2.75
  0
LINE
  5
13AA
330
2
100
AcDbEntity
  8
0
100
AcDbLine
 10
895.6547468335305
 20
489.2714265968827
 30
0.0
 11
890.9547468335297
 21
489.2714265968827
 31
0.0
  0
LINE
  5
13AB
330
2
100
AcDbEntity
  8
0
100
AcDbLine
 10
890.9547468335297
 20
480.7714265968827
 30
0.0
 11
895.6547468335305
 21
480.7714265968827
 31
0.0
  0
LINE
  5
13AC
330
2
100
AcDbEntity
  8
CENTER
  6
CENS
100
AcDbLine
 10
873.4235898775025
 20
485.0214265968827
 30
0.0
 11
900.8805628075846
 21
485.0214265968827
 31
0.0
  0
LINE
  5
13AD
330
2
100
AcDbEntity
  8
0
100
AcDbLine
 10
895.9547468335298
 20
481.2910418391531
 30
0.0
 11
895.9547468335298
 21
488.7518113546122
 31
0.0
  0
LINE
  5
13AE
330
2
100
AcDbEntity
  8
0
100
AcDbLine
 10
895.6547468335305
 20
489.2714265968827
 30
0.0
 11
895.6547468335305
 21
480.7714265968827
 31
0.0
  0
LINE
  5
13AF
330
2
100
AcDbEntity
  8
0
100
AcDbLine
 10
895.6547468335305
 20
489.2714265968827
 30
0.0
 11
895.9547468335298
 21
488.7518113546122
 31
0.0
  0
LINE
  5
13B0
330
2
100
AcDbEntity
  8
0
100
AcDbLine
 10
895.9547468335298
 20
481.2910418391531
 30
0.0
 11
895.6547468335305
 21
480.7714265968827
 31
0.0
  0
LINE
  5
13B1
330
2
100
AcDbEntity
  8
0
100
AcDbLine
 10
890.9547468335297
 20
480.7714265968827
 30
0.0
 11
889.9547468335297
 21
480.7714265968827
 31
0.0
  0
LINE
  5
13B2
330
2
100
AcDbEntity
  8
0
100
AcDbLine
 10
889.9547468335297
 20
480.7714265968827
 30
0.0
 11
889.9547468335297
 21
489.2714265968827
 31
0.0
  0
LINE
  5
13B3
330
2
100
AcDbEntity
  8
0
100
AcDbLine
 10
889.9547468335297
 20
489.2714265968827
 30
0.0
 11
890.9547468335297
 21
489.2714265968827
 31
0.0
  0
LINE
  5
13B4
330
2
100
AcDbEntity
  8
0
100
AcDbLine
 10
890.9547468335297
 20
489.2714265968827
 30
0.0
 11
890.9547468335297
 21
480.7714265968827
 31
0.0
  0
LINE
  5
13B5
330
2
100
AcDbEntity
  8
0
100
AcDbLine
 10
890.9547468335297
 20
489.2714265968827
 30
0.0
 11
890.9547468335297
 21
480.7714265968827
 31
0.0
  0
LINE
  5
13B6
330
2
100
AcDbEntity
  8
0
100
AcDbLine
 10
895.6547468335305
 20
542.991426596883
 30
0.0
 11
890.9547468335297
 21
542.991426596883
 31
0.0
  0
LINE
  5
13B7
330
2
100
AcDbEntity
  8
0
100
AcDbLine
 10
890.9547468335297
 20
551.491426596883
 30
0.0
 11
895.6547468335305
 21
551.491426596883
 31
0.0
  0
LINE
  5
13B8
330
2
100
AcDbEntity
  8
CENTER
  6
CENS
100
AcDbLine
 10
873.4235898775025
 20
547.2414265968829
 30
0.0
 11
900.8805628075846
 21
547.2414265968829
 31
0.0
  0
LINE
  5
13B9
330
2
100
AcDbEntity
  8
0
100
AcDbLine
 10
895.9547468335298
 20
550.9718113546125
 30
0.0
 11
895.9547468335298
 21
543.5110418391534
 31
0.0
  0
LINE
  5
13BA
330
2
100
AcDbEntity
  8
0
100
AcDbLine
 10
895.6547468335305
 20
542.991426596883
 30
0.0
 11
895.6547468335305
 21
551.491426596883
 31
0.0
  0
LINE
  5
13BB
330
2
100
AcDbEntity
  8
0
100
AcDbLine
 10
895.6547468335305
 20
542.991426596883
 30
0.0
 11
895.9547468335298
 21
543.5110418391534
 31
0.0
  0
LINE
  5
13BC
330
2
100
AcDbEntity
  8
0
100
AcDbLine
 10
895.9547468335298
 20
550.9718113546125
 30
0.0
 11
895.6547468335305
 21
551.491426596883
 31
0.0
  0
LINE
  5
13BD
330
2
100
AcDbEntity
  8
0
100
AcDbLine
 10
890.9547468335297
 20
551.491426596883
 30
0.0
 11
889.9547468335297
 21
551.491426596883
 31
0.0
  0
LINE
  5
13BE
330
2
100
AcDbEntity
  8
0
100
AcDbLine
 10
889.9547468335297
 20
551.491426596883
 30
0.0
 11
889.9547468335297
 21
542.991426596883
 31
0.0
  0
LINE
  5
13BF
330
2
100
AcDbEntity
  8
0
100
AcDbLine
 10
889.9547468335297
 20
542.991426596883
 30
0.0
 11
890.9547468335297
 21
542.991426596883
 31
0.0
  0
LINE
  5
13C0
330
2
100
AcDbEntity
  8
0
100
AcDbLine
 10
890.9547468335297
 20
542.991426596883
 30
0.0
 11
890.9547468335297
 21
551.491426596883
 31
0.0
  0
LINE
  5
13C1
330
2
100
AcDbEntity
  8
0
100
AcDbLine
 10
890.9547468335297
 20
542.991426596883
 30
0.0
 11
890.9547468335297
 21
551.491426596883
 31
0.0
  0
ARC
  5
13C2
330
2
100
AcDbEntity
  8
0
100
AcDbCircle
 10
1156.469427399206
 20
185.9383371401365
 30
0.0
 40
4.25000000000019
100
AcDbArc
 50
337.0991355555407
 51
293.57896235452
  0
ARC
  5
13C3
330
2
100
AcDbEntity
  8
0
100
AcDbCircle
 10
1156.469427399206
 20
185.9383371401365
 30
0.0
 40
3.730384757729381
100
AcDbArc
 50
321.5287333511416
 51
309.1493645588698
  0
LWPOLYLINE
  5
13C4
330
2
100
AcDbEntity
  8
0
100
AcDbPolyline
 90
        6
 70
     1
 43
0.0
 10
1158.469427399206
 20
187.0930376785155
 10
1156.469427399206
 20
188.2477382168946
 10
1154.469427399206
 20
187.0930376785155
 10
1154.469427399206
 20
184.7836366017574
 10
1156.469427399206
 20
183.6289360633783
 10
1158.469427399206
 20
184.7836366017574
  0
CIRCLE
  5
13C5
330
2
100
AcDbEntity
  8
0
100
AcDbCircle
 10
1156.469427399206
 20
185.9383371401365
 30
0.0
 40
2.3094010767585
  0
LINE
  5
13C6
330
2
100
AcDbEntity
  8
CENTER
100
AcDbLine
 10
1156.469427399206
 20
191.8967673874305
 30
0.0
 11
1156.469427399206
 21
179.9799068928425
 31
0.0
  0
LINE
  5
13C7
330
2
100
AcDbEntity
  8
CENTER
100
AcDbLine
 10
1150.510997151912
 20
185.9383371401365
 30
0.0
 11
1162.4278576465
 21
185.9383371401365
 31
0.0
  0
ARC
  5
13C8
330
2
100
AcDbEntity
  8
0
100
AcDbCircle
 10
1218.689427399207
 20
185.9383371401365
 30
0.0
 40
4.25000000000019
100
AcDbArc
 50
246.4210376454799
 51
202.9008644444592
  0
ARC
  5
13C9
330
2
100
AcDbEntity
  8
0
100
AcDbCircle
 10
1218.689427399207
 20
185.9383371401365
 30
0.0
 40
3.730384757729381
100
AcDbArc
 50
230.8506354409909
 51
218.4712666488583
  0
LWPOLYLINE
  5
13CA
330
2
100
AcDbEntity
  8
0
100
AcDbPolyline
 90
        6
 70
     1
 43
0.0
 10
1220.689427399207
 20
187.0930376785155
 10
1218.689427399207
 20
188.2477382168946
 10
1216.689427399207
 20
187.0930376785155
 10
1216.689427399207
 20
184.7836366017574
 10
1218.689427399207
 20
183.6289360633783
 10
1220.689427399207
 20
184.7836366017574
  0
CIRCLE
  5
13CB
330
2
100
AcDbEntity
  8
0
100
AcDbCircle
 10
1218.689427399207
 20
185.9383371401365
 30
0.0
 40
2.3094010767585
  0
LINE
  5
13CC
330
2
100
AcDbEntity
  8
CENTER
100
AcDbLine
 10
1218.689427399207
 20
191.8967673874305
 30
0.0
 11
1218.689427399207
 21
179.9799068928425
 31
0.0
  0
LINE
  5
13CD
330
2
100
AcDbEntity
  8
CENTER
100
AcDbLine
 10
1212.730997151913
 20
185.9383371401365
 30
0.0
 11
1224.647857646501
 21
185.9383371401365
 31
0.0
  0
ARC
  5
13CE
330
2
100
AcDbEntity
  8
0
100
AcDbCircle
 10
1218.689427399207
 20
123.7183371401371
 30
0.0
 40
4.25000000000019
100
AcDbArc
 50
157.0991355555407
 51
113.57896235452
  0
ARC
  5
13CF
330
2
100
AcDbEntity
  8
0
100
AcDbCircle
 10
1218.689427399207
 20
123.7183371401371
 30
0.0
 40
3.730384757729381
100
AcDbArc
 50
141.5287333511416
 51
129.1493645588699
  0
LWPOLYLINE
  5
13D0
330
2
100
AcDbEntity
  8
0
100
AcDbPolyline
 90
        6
 70
     1
 43
0.0
 10
1220.689427399207
 20
124.8730376785153
 10
1218.689427399207
 20
126.0277382168953
 10
1216.689427399207
 20
124.8730376785153
 10
1216.689427399207
 20
122.5636366017571
 10
1218.689427399207
 20
121.4089360633781
 10
1220.689427399207
 20
122.5636366017571
  0
CIRCLE
  5
13D1
330
2
100
AcDbEntity
  8
0
100
AcDbCircle
 10
1218.689427399207
 20
123.7183371401371
 30
0.0
 40
2.3094010767585
  0
LINE
  5
13D2
330
2
100
AcDbEntity
  8
CENTER
100
AcDbLine
 10
1218.689427399207
 20
129.6767673874311
 30
0.0
 11
1218.689427399207
 21
117.7599068928431
 31
0.0
  0
LINE
  5
13D3
330
2
100
AcDbEntity
  8
CENTER
100
AcDbLine
 10
1212.730997151913
 20
123.7183371401371
 30
0.0
 11
1224.647857646501
 21
123.7183371401371
 31
0.0
  0
ARC
  5
13D4
330
2
100
AcDbEntity
  8
0
100
AcDbCircle
 10
1156.469427399208
 20
123.7183371401362
 30
0.0
 40
4.25000000000019
100
AcDbArc
 50
66.421037645593
 51
22.90086444442398
  0
ARC
  5
13D5
330
2
100
AcDbEntity
  8
0
100
AcDbCircle
 10
1156.469427399208
 20
123.7183371401362
 30
0.0
 40
3.730384757729381
100
AcDbArc
 50
50.8506354412629
 51
38.47126664870337
  0
LWPOLYLINE
  5
13D6
330
2
100
AcDbEntity
  8
0
100
AcDbPolyline
 90
        6
 70
     1
 43
0.0
 10
1158.469427399208
 20
124.8730376785153
 10
1156.469427399208
 20
126.0277382168953
 10
1154.469427399208
 20
124.8730376785153
 10
1154.469427399208
 20
122.5636366017571
 10
1156.469427399208
 20
121.4089360633781
 10
1158.469427399208
 20
122.5636366017571
  0
CIRCLE
  5
13D7
330
2
100
AcDbEntity
  8
0
100
AcDbCircle
 10
1156.469427399208
 20
123.7183371401362
 30
0.0
 40
2.3094010767585
  0
LINE
  5
13D8
330
2
100
AcDbEntity
  8
CENTER
100
AcDbLine
 10
1156.469427399208
 20
129.6767673874302
 30
0.0
 11
1156.469427399208
 21
117.7599068928422
 31
0.0
  0
LINE
  5
13D9
330
2
100
AcDbEntity
  8
CENTER
100
AcDbLine
 10
1150.510997151914
 20
123.7183371401362
 30
0.0
 11
1162.427857646502
 21
123.7183371401362
 31
0.0
  0
LINE
  5
13DA
330
2
100
AcDbEntity
  8
HIDS
100
AcDbLine
 10
1179.079427399207
 20
154.0783371401359
 30
0.0
 11
1179.079427399207
 21
145.6283371401361
 31
0.0
  0
LINE
  5
13DB
330
2
100
AcDbEntity
  8
HIDS
100
AcDbLine
 10
1178.746094065873
 20
154.0783371401359
 30
0.0
 11
1178.746094065873
 21
145.295003806803
 31
0.0
  0
LINE
  5
13DC
330
2
100
AcDbEntity
  8
HIDS
100
AcDbLine
 10
1175.41276073254
 20
154.0783371401359
 30
0.0
 11
1175.41276073254
 21
146.4895888994098
 31
0.0
  0
LINE
  5
13DD
330
2
100
AcDbEntity
  8
HIDS
100
AcDbLine
 10
1175.079427399206
 20
154.0783371401359
 30
0.0
 11
1175.079427399206
 21
146.9981072584534
 31
0.0
  0
ARC
  5
13DE
330
2
100
AcDbEntity
  8
0
100
AcDbCircle
 10
1187.579427399206
 20
154.8283371401359
 30
0.0
 40
14.75
100
AcDbArc
 50
218.5889464533588
 51
160.1850718515033
  0
LINE
  5
13DF
330
2
100
AcDbEntity
  8
CENTER
  6
CENS
100
AcDbLine
 10
1177.079427399206
 20
192.5731667041483
 30
0.0
 11
1177.079427399206
 21
143.376086795579
 31
0.0
  0
LINE
  5
13E0
330
2
100
AcDbEntity
  8
HIDS
100
AcDbLine
 10
1179.079427399207
 20
154.0783371401359
 30
0.0
 11
1179.079427399207
 21
142.773773688895
 31
0.0
  0
ARC
  5
13E1
330
2
100
AcDbEntity
  8
0
100
AcDbCircle
 10
1187.579427399206
 20
154.8283371401359
 30
0.0
 40
14.75
100
AcDbArc
 50
180.0
 51
218.5889464533588
  0
LINE
  5
13E2
330
2
100
AcDbEntity
  8
HIDS
100
AcDbLine
 10
1176.050225345292
 20
145.6283371401361
 30
0.0
 11
1177.079427399206
 21
145.6283371401361
 31
0.0
  0
LINE
  5
13E3
330
2
100
AcDbEntity
  8
0
100
AcDbLine
 10
1175.879427399208
 20
144.8283371401359
 30
0.0
 11
1176.736803178106
 21
144.8283371401359
 31
0.0
  0
LINE
  5
13E4
330
2
100
AcDbEntity
  8
0
100
AcDbLine
 10
1175.079427399206
 20
146.9981072584534
 30
0.0
 11
1175.079427399206
 21
145.6283371401361
 31
0.0
  0
LINE
  5
13E5
330
2
100
AcDbEntity
  8
HOJO
100
AcDbLine
 10
1175.41276073254
 20
146.4895888994098
 30
0.0
 11
1175.41276073254
 21
145.295003806803
 31
0.0
  0
LINE
  5
13E6
330
2
100
AcDbEntity
  8
0
100
AcDbLine
 10
1175.079427399206
 20
145.6283371401361
 30
0.0
 11
1176.050225345292
 21
145.6283371401361
 31
0.0
  0
LINE
  5
13E7
330
2
100
AcDbEntity
  8
0
100
AcDbLine
 10
1175.079427399206
 20
145.6283371401361
 30
0.0
 11
1175.879427399208
 21
144.8283371401359
 31
0.0
  0
LINE
  5
13E8
330
2
100
AcDbEntity
  8
HIDS
100
AcDbLine
 10
1176.736803178106
 20
144.8283371401359
 30
0.0
 11
1177.079427399206
 21
144.8283371401359
 31
0.0
  0
LINE
  5
13E9
330
2
100
AcDbEntity
  8
HIDS
100
AcDbLine
 10
1179.079427399207
 20
145.6283371401361
 30
0.0
 11
1178.279427399207
 21
144.8283371401359
 31
0.0
  0
LINE
  5
13EA
330
2
100
AcDbEntity
  8
HIDS
100
AcDbLine
 10
1178.279427399207
 20
144.8283371401359
 30
0.0
 11
1177.079427399206
 21
144.8283371401359
 31
0.0
  0
LINE
  5
13EB
330
2
100
AcDbEntity
  8
HIDS
100
AcDbLine
 10
1179.079427399207
 20
145.6283371401361
 30
0.0
 11
1177.079427399206
 21
145.6283371401361
 31
0.0
  0
LINE
  5
13EC
330
2
100
AcDbEntity
  8
HIDS
100
AcDbLine
 10
1178.746094065873
 20
145.295003806803
 30
0.0
 11
1178.746094065873
 21
143.0158555116969
 31
0.0
  0
LINE
  5
13ED
330
2
100
AcDbEntity
  8
HIDS
100
AcDbLine
 10
1173.702738312829
 20
159.8283371401359
 30
0.0
 11
1180.579427399206
 21
159.8283371401359
 31
0.0
  0
LINE
  5
13EE
330
2
100
AcDbEntity
  8
HIDS
100
AcDbLine
 10
1175.668403093966
 20
163.5283371401366
 30
0.0
 11
1180.579427399206
 21
163.5283371401366
 31
0.0
  0
LINE
  5
13EF
330
2
100
AcDbEntity
  8
HIDS
100
AcDbLine
 10
1180.059812156936
 20
163.8283371401359
 30
0.0
 11
1175.893431506687
 21
163.8283371401359
 31
0.0
  0
LINE
  5
13F0
330
2
100
AcDbEntity
  8
HIDS
100
AcDbLine
 10
1179.079427399207
 20
158.1616704734698
 30
0.0
 11
1175.079427399206
 21
158.1616704734698
 31
0.0
  0
LINE
  5
13F1
330
2
100
AcDbEntity
  8
HIDS
100
AcDbLine
 10
1173.702738312828
 20
159.8283371401359
 30
0.0
 11
1181.079427399206
 21
159.8283371401359
 31
0.0
  0
LINE
  5
13F2
330
2
100
AcDbEntity
  8
0
100
AcDbLine
 10
1172.848507536551
 20
155.5783371401359
 30
0.0
 11
1177.079427399206
 21
155.5783371401359
 31
0.0
  0
LINE
  5
13F3
330
2
100
AcDbEntity
  8
0
100
AcDbLine
 10
1172.848507536551
 20
154.0783371401359
 30
0.0
 11
1177.079427399206
 21
154.0783371401359
 31
0.0
  0
LINE
  5
13F4
330
2
100
AcDbEntity
  8
0
100
AcDbLine
 10
1173.579427399206
 20
163.5283371401366
 30
0.0
 11
1173.579427399206
 21
159.8283371401359
 31
0.0
  0
LINE
  5
13F5
330
2
100
AcDbEntity
  8
0
100
AcDbLine
 10
1175.079427399206
 20
155.5783371401359
 30
0.0
 11
1175.079427399206
 21
154.0783371401359
 31
0.0
  0
LINE
  5
13F6
330
2
100
AcDbEntity
  8
HOJO
100
AcDbLine
 10
1175.41276073254
 20
155.5783371401359
 30
0.0
 11
1175.41276073254
 21
154.0783371401359
 31
0.0
  0
ARC
  5
13F7
330
2
100
AcDbEntity
  8
0
100
AcDbCircle
 10
1187.579427399206
 20
154.8283371401359
 30
0.0
 40
14.75
100
AcDbArc
 50
160.1850718515033
 51
180.0
  0
LINE
  5
13F8
330
2
100
AcDbEntity
  8
HIDS
100
AcDbLine
 10
1175.079427399206
 20
159.8283371401359
 30
0.0
 11
1175.41276073254
 21
158.1616704734698
 31
0.0
  0
LINE
  5
13F9
330
2
100
AcDbEntity
  8
0
100
AcDbLine
 10
1173.579427399206
 20
159.8283371401359
 30
0.0
 11
1173.702738312829
 21
159.8283371401359
 31
0.0
  0
LINE
  5
13FA
330
2
100
AcDbEntity
  8
HIDS
100
AcDbLine
 10
1175.41276073254
 20
158.1616704734698
 30
0.0
 11
1175.41276073254
 21
155.5783371401359
 31
0.0
  0
LINE
  5
13FB
330
2
100
AcDbEntity
  8
HIDS
100
AcDbLine
 10
1175.079427399206
 20
159.8283371401359
 30
0.0
 11
1175.079427399206
 21
155.5783371401359
 31
0.0
  0
LINE
  5
13FC
330
2
100
AcDbEntity
  8
HIDS
100
AcDbLine
 10
1174.579427399206
 20
159.8283371401359
 30
0.0
 11
1174.579427399206
 21
155.5783371401359
 31
0.0
  0
LINE
  5
13FD
330
2
100
AcDbEntity
  8
0
100
AcDbLine
 10
1175.893431506687
 20
163.8283371401359
 30
0.0
 11
1174.099042641477
 21
163.8283371401359
 31
0.0
  0
LINE
  5
13FE
330
2
100
AcDbEntity
  8
0
100
AcDbLine
 10
1173.579427399206
 20
163.5283371401366
 30
0.0
 11
1174.099042641477
 21
163.8283371401359
 31
0.0
  0
LINE
  5
13FF
330
2
100
AcDbEntity
  8
0
100
AcDbLine
 10
1173.579427399206
 20
163.5283371401366
 30
0.0
 11
1175.668403093966
 21
163.5283371401366
 31
0.0
  0
LINE
  5
1400
330
2
100
AcDbEntity
  8
HIDS
100
AcDbLine
 10
1180.579427399206
 20
159.8283371401359
 30
0.0
 11
1180.579427399206
 21
163.5283371401366
 31
0.0
  0
LINE
  5
1401
330
2
100
AcDbEntity
  8
HIDS
100
AcDbLine
 10
1181.079427399206
 20
168.0688998170018
 30
0.0
 11
1181.079427399206
 21
159.8283371401359
 31
0.0
  0
LINE
  5
1402
330
2
100
AcDbEntity
  8
HOJO
100
AcDbLine
 10
1178.746094065873
 20
155.5783371401359
 30
0.0
 11
1178.746094065873
 21
154.0783371401359
 31
0.0
  0
LINE
  5
1403
330
2
100
AcDbEntity
  8
0
100
AcDbLine
 10
1179.079427399207
 20
155.5783371401359
 30
0.0
 11
1179.079427399207
 21
154.0783371401359
 31
0.0
  0
LINE
  5
1404
330
2
100
AcDbEntity
  8
0
100
AcDbLine
 10
1177.079427399206
 20
154.0783371401359
 30
0.0
 11
1180.619721945668
 21
154.0783371401359
 31
0.0
  0
LINE
  5
1405
330
2
100
AcDbEntity
  8
0
100
AcDbLine
 10
1177.079427399206
 20
155.5783371401359
 30
0.0
 11
1180.619721945668
 21
155.5783371401368
 31
0.0
  0
LINE
  5
1406
330
2
100
AcDbEntity
  8
HIDS
100
AcDbLine
 10
1179.079427399207
 20
159.8283371401359
 30
0.0
 11
1178.746094065873
 21
158.1616704734698
 31
0.0
  0
LINE
  5
1407
330
2
100
AcDbEntity
  8
HIDS
100
AcDbLine
 10
1179.079427399207
 20
159.8283371401359
 30
0.0
 11
1179.079427399207
 21
155.5783371401359
 31
0.0
  0
LINE
  5
1408
330
2
100
AcDbEntity
  8
HIDS
100
AcDbLine
 10
1178.746094065873
 20
158.1616704734698
 30
0.0
 11
1178.746094065873
 21
155.5783371401359
 31
0.0
  0
LINE
  5
1409
330
2
100
AcDbEntity
  8
HIDS
100
AcDbLine
 10
1179.579427399206
 20
159.8283371401359
 30
0.0
 11
1179.579427399206
 21
155.5783371401359
 31
0.0
  0
LINE
  5
140A
330
2
100
AcDbEntity
  8
HIDS
100
AcDbLine
 10
1180.059812156936
 20
163.8283371401359
 30
0.0
 11
1180.579427399206
 21
163.5283371401366
 31
0.0
  0
LINE
  5
140B
330
2
100
AcDbEntity
  8
0
100
AcDbLine
 10
1201.579427399207
 20
154.0783371401359
 30
0.0
 11
1194.539132852742
 21
154.0783371401359
 31
0.0
  0
LINE
  5
140C
330
2
100
AcDbEntity
  8
0
100
AcDbLine
 10
1194.539132852742
 20
155.5783371401359
 30
0.0
 11
1201.579427399207
 21
155.5783371401359
 31
0.0
  0
LINE
  5
140D
330
2
100
AcDbEntity
  8
0
100
AcDbLine
 10
1201.579427399207
 20
155.5783371401359
 30
0.0
 11
1201.579427399207
 21
154.0783371401359
 31
0.0
  0
LINE
  5
140E
330
2
100
AcDbEntity
  8
0
100
AcDbLine
 10
1172.079421228019
 20
188.8283350045623
 30
0.0
 11
1182.079421228019
 21
188.8283350045623
 31
0.0
  0
ARC
  5
140F
330
2
100
AcDbEntity
  8
0
100
AcDbCircle
 10
1182.079421228019
 20
184.8283350045623
 30
0.0
 40
4.0
100
AcDbArc
 50
0.0
 51
90.0
  0
LINE
  5
1410
330
2
100
AcDbEntity
  8
0
100
AcDbLine
 10
1186.079421228019
 20
184.8283350045623
 30
0.0
 11
1186.079421228019
 21
184.8283350045623
 31
0.0
  0
ARC
  5
1411
330
2
100
AcDbEntity
  8
0
100
AcDbCircle
 10
1172.079421228019
 20
184.8283350045623
 30
0.0
 40
4.0
100
AcDbArc
 50
90.0
 51
180.0
  0
CIRCLE
  5
1412
330
2
100
AcDbEntity
  8
0
100
AcDbCircle
 10
907.4235898775025
 20
505.6314265968824
 30
0.0
 40
9.000006171187123
  0
CIRCLE
  5
1413
330
2
100
AcDbEntity
  8
HOJO
100
AcDbCircle
 10
1212.329427399207
 20
179.5783371401359
 30
0.0
 40
2.0
  0
CIRCLE
  5
1414
330
2
100
AcDbEntity
  8
0
100
AcDbCircle
 10
1212.329427399207
 20
179.5783371401359
 30
0.0
 40
1.6
  0
CIRCLE
  5
1415
330
2
100
AcDbEntity
  8
HOJO
100
AcDbCircle
 10
1162.829427399206
 20
179.5783371401359
 30
0.0
 40
2.0
  0
CIRCLE
  5
1416
330
2
100
AcDbEntity
  8
0
100
AcDbCircle
 10
1162.829427399206
 20
179.5783371401359
 30
0.0
 40
1.6
  0
CIRCLE
  5
1417
330
2
100
AcDbEntity
  8
HOJO
100
AcDbCircle
 10
1162.829427399206
 20
130.0783371401359
 30
0.0
 40
2.0
  0
CIRCLE
  5
1418
330
2
100
AcDbEntity
  8
0
100
AcDbCircle
 10
1162.829427399206
 20
130.0783371401359
 30
0.0
 40
1.6
  0
CIRCLE
  5
1419
330
2
100
AcDbEntity
  8
HOJO
100
AcDbCircle
 10
1212.329427399207
 20
130.0783371401359
 30
0.0
 40
2.0
  0
CIRCLE
  5
141A
330
2
100
AcDbEntity
  8
0
100
AcDbCircle
 10
1212.329427399207
 20
130.0783371401359
 30
0.0
 40
1.6
  0
CIRCLE
  5
141C
330
2
100
AcDbEntity
  8
0
100
AcDbCircle
 10
1187.579427399205
 20
154.8283371401377
 30
0.0
 40
6.999999999998635
  0
ARC
  5
141D
330
2
100
AcDbEntity
  8
0
100
AcDbCircle
 10
1187.579427399206
 20
154.8283371401377
 30
0.0
 40
8.154700538378165
100
AcDbArc
 50
5.277035934804533
 51
174.7229640651954
  0
ARC
  5
141E
330
2
100
AcDbEntity
  8
0
100
AcDbCircle
 10
1187.579427399206
 20
154.8283371401377
 30
0.0
 40
8.154700538378165
100
AcDbArc
 50
185.2770359348045
 51
354.7229640651954
  0
CIRCLE
  5
141F
330
2
100
AcDbEntity
  8
CENTER
100
AcDbCircle
 10
1187.579427399206
 20
154.828337140135
 30
0.0
 40
35.0017856687341
  0
LINE
  5
1420
330
2
100
AcDbEntity
  8
0
100
AcDbLine
 10
75.63131010894301
 20
181.6883371401346
 30
0.0
 11
80.33131010894374
 21
181.6883371401346
 31
0.0
  0
LINE
  5
1421
330
2
100
AcDbEntity
  8
0
100
AcDbLine
 10
80.33131010894374
 20
190.1883371401346
 30
0.0
 11
75.63131010894301
 21
190.1883371401346
 31
0.0
  0
LINE
  5
1422
330
2
100
AcDbEntity
  8
CENTER
  6
CENS
100
AcDbLine
 10
97.86246706497093
 20
185.9383371401347
 30
0.0
 11
70.40549413488895
 21
185.9383371401347
 31
0.0
  0
LINE
  5
1423
330
2
100
AcDbEntity
  8
0
100
AcDbLine
 10
75.33131010894374
 20
189.6687218978642
 30
0.0
 11
75.33131010894374
 21
182.2079523824051
 31
0.0
  0
LINE
  5
1424
330
2
100
AcDbEntity
  8
0
100
AcDbLine
 10
75.63131010894301
 20
181.6883371401346
 30
0.0
 11
75.63131010894301
 21
190.1883371401346
 31
0.0
  0
LINE
  5
1425
330
2
100
AcDbEntity
  8
0
100
AcDbLine
 10
75.63131010894301
 20
181.6883371401346
 30
0.0
 11
75.33131010894374
 21
182.2079523824051
 31
0.0
  0
LINE
  5
1426
330
2
100
AcDbEntity
  8
0
100
AcDbLine
 10
75.33131010894374
 20
189.6687218978642
 30
0.0
 11
75.63131010894301
 21
190.1883371401346
 31
0.0
  0
LINE
  5
1427
330
2
100
AcDbEntity
  8
0
100
AcDbLine
 10
80.33131010894374
 20
190.1883371401346
 30
0.0
 11
81.33131010894373
 21
190.1883371401346
 31
0.0
  0
LINE
  5
1428
330
2
100
AcDbEntity
  8
0
100
AcDbLine
 10
81.33131010894373
 20
190.1883371401346
 30
0.0
 11
81.33131010894373
 21
181.6883371401346
 31
0.0
  0
LINE
  5
1429
330
2
100
AcDbEntity
  8
0
100
AcDbLine
 10
81.33131010894373
 20
181.6883371401346
 30
0.0
 11
80.33131010894374
 21
181.6883371401346
 31
0.0
  0
LINE
  5
142A
330
2
100
AcDbEntity
  8
0
100
AcDbLine
 10
80.33131010894374
 20
181.6883371401346
 30
0.0
 11
80.33131010894374
 21
190.1883371401346
 31
0.0
  0
LINE
  5
142B
330
2
100
AcDbEntity
  8
0
100
AcDbLine
 10
80.33131010894374
 20
181.6883371401346
 30
0.0
 11
80.33131010894374
 21
190.1883371401346
 31
0.0
  0
ARC
  5
142C
330
2
100
AcDbEntity
  8
0
100
AcDbCircle
 10
76.52804069834326
 20
119.8283371401341
 30
0.0
 40
5.0
100
AcDbArc
 50
8.213210701749492
 51
16.12586214361865
  0
LINE
  5
142D
330
2
100
AcDbEntity
  8
0
100
AcDbLine
 10
81.45654853830581
 20
120.7934323272604
 30
0.0
 11
80.86246706497092
 21
154.8283371401341
 31
0.0
  0
LINE
  5
142E
330
2
100
AcDbEntity
  8
0
100
AcDbLine
 10
92.86246706497093
 20
118.8283371401341
 30
0.0
 11
83.45624392861953
 21
118.8283371401341
 31
0.0
  0
ARC
  5
142F
330
2
100
AcDbEntity
  8
0
100
AcDbCircle
 10
83.45624392861953
 20
120.8283371401341
 30
0.0
 40
2.0
100
AcDbArc
 50
181.0000000000017
 51
270.0
  0
LINE
  5
1430
330
2
100
AcDbEntity
  8
CENTER
  6
CENS
100
AcDbLine
 10
63.86246706497093
 20
169.1609576610352
 30
0.0
 11
63.86246706497093
 21
192.5731667041465
 31
0.0
  0
LINE
  5
1431
330
2
100
AcDbEntity
  8
0
100
AcDbLine
 10
81.45654853830581
 20
188.8632419530087
 30
0.0
 11
80.86246706497092
 21
154.8283371401341
 31
0.0
  0
LINE
  5
1432
330
2
100
AcDbEntity
  8
0
100
AcDbLine
 10
64.3912520911648
 20
181.8242249093565
 30
0.0
 11
64.86246706496911
 21
154.8283371401341
 31
0.0
  0
LINE
  5
1433
330
2
100
AcDbEntity
  8
0
100
AcDbLine
 10
92.86246706497093
 20
154.8283371401341
 30
0.0
 11
49.86246706497093
 21
154.8283371401341
 31
0.0
  0
LINE
  5
1434
330
2
100
AcDbEntity
  8
0
100
AcDbLine
 10
75.33131010894374
 20
124.8283371401341
 30
0.0
 11
49.86246706497093
 21
124.8283371401341
 31
0.0
  0
LINE
  5
1435
330
2
100
AcDbEntity
  8
0
100
AcDbLine
 10
64.3912520911648
 20
127.8324493709116
 30
0.0
 11
64.86246706497093
 21
154.8283371401341
 31
0.0
  0
ARC
  5
1436
330
2
100
AcDbEntity
  8
0
100
AcDbCircle
 10
61.39072332777812
 20
127.8283371401341
 30
0.0
 40
3.0
100
AcDbArc
 50
270.0
 51
358.9999999999982
  0
ARC
  5
1437
330
2
100
AcDbEntity
  8
0
100
AcDbCircle
 10
76.95425211436248
 20
130.0605184945909
 30
0.0
 40
3.0
100
AcDbArc
 50
90.0
 51
178.9999999999721
  0
LINE
  5
1438
330
2
100
AcDbEntity
  8
0
100
AcDbLine
 10
67.48296536129908
 20
133.0605184945909
 30
0.0
 11
76.95425211436248
 21
133.0605184945909
 31
0.0
  0
LINE
  5
1439
330
2
100
AcDbEntity
  8
0
100
AcDbLine
 10
73.9547090288919
 20
130.1128757139032
 30
0.0
 11
73.8967679290539
 21
126.7934323272604
 31
0.0
  0
ARC
  5
143A
330
2
100
AcDbEntity
  8
0
100
AcDbCircle
 10
71.89707253874018
 20
126.8283371401341
 30
0.0
 40
2.0
100
AcDbArc
 50
270.0
 51
358.9999999999721
  0
LINE
  5
143B
330
2
100
AcDbEntity
  8
0
100
AcDbLine
 10
75.33131010894374
 20
184.828337140135
 30
0.0
 11
49.86246706497093
 21
184.8283371401341
 31
0.0
  0
ARC
  5
143C
330
2
100
AcDbEntity
  8
0
100
AcDbCircle
 10
61.39072332777812
 20
181.8283371401341
 30
0.0
 40
3.0
100
AcDbArc
 50
1.000000000001775
 51
90.0
  0
ARC
  5
143D
330
2
100
AcDbEntity
  8
0
100
AcDbCircle
 10
83.45624392861953
 20
188.8283371401341
 30
0.0
 40
2.0
100
AcDbArc
 50
90.0
 51
178.9999999999982
  0
LINE
  5
143E
330
2
100
AcDbEntity
  8
0
100
AcDbLine
 10
92.86246706497093
 20
190.8283371401341
 30
0.0
 11
83.45624392861953
 21
190.8283371401341
 31
0.0
  0
ARC
  5
143F
330
2
100
AcDbEntity
  8
0
100
AcDbCircle
 10
76.52804069834326
 20
189.828337140135
 30
0.0
 40
5.0
100
AcDbArc
 50
343.8741378563813
 51
351.7867892982504
  0
LINE
  5
1440
330
2
100
AcDbEntity
  8
0
100
AcDbLine
 10
49.86246706497093
 20
124.8283371401341
 30
0.0
 11
49.86246706497093
 21
184.8283371401341
 31
0.0
  0
LINE
  5
1441
330
2
100
AcDbEntity
  8
0
100
AcDbLine
 10
75.63131010894301
 20
127.9683371401344
 30
0.0
 11
80.33131010894374
 21
127.9683371401344
 31
0.0
  0
LINE
  5
1442
330
2
100
AcDbEntity
  8
0
100
AcDbLine
 10
80.33131010894374
 20
119.4683371401344
 30
0.0
 11
75.63131010894301
 21
119.4683371401344
 31
0.0
  0
LINE
  5
1443
330
2
100
AcDbEntity
  8
CENTER
  6
CENS
100
AcDbLine
 10
97.86246706497093
 20
123.7183371401344
 30
0.0
 11
70.40549413488895
 21
123.7183371401344
 31
0.0
  0
LINE
  5
1444
330
2
100
AcDbEntity
  8
0
100
AcDbLine
 10
75.33131010894374
 20
119.9879523824048
 30
0.0
 11
75.33131010894374
 21
127.448721897864
 31
0.0
  0
LINE
  5
1445
330
2
100
AcDbEntity
  8
0
100
AcDbLine
 10
75.63131010894301
 20
127.9683371401344
 30
0.0
 11
75.63131010894301
 21
119.4683371401344
 31
0.0
  0
LINE
  5
1446
330
2
100
AcDbEntity
  8
0
100
AcDbLine
 10
75.63131010894301
 20
127.9683371401344
 30
0.0
 11
75.33131010894374
 21
127.448721897864
 31
0.0
  0
LINE
  5
1447
330
2
100
AcDbEntity
  8
0
100
AcDbLine
 10
75.33131010894374
 20
119.9879523824048
 30
0.0
 11
75.63131010894301
 21
119.4683371401344
 31
0.0
  0
LINE
  5
1448
330
2
100
AcDbEntity
  8
0
100
AcDbLine
 10
80.33131010894374
 20
119.4683371401344
 30
0.0
 11
81.33131010894373
 21
119.4683371401344
 31
0.0
  0
LINE
  5
1449
330
2
100
AcDbEntity
  8
0
100
AcDbLine
 10
81.33131010894373
 20
119.4683371401344
 30
0.0
 11
81.33131010894373
 21
127.9683371401344
 31
0.0
  0
LINE
  5
144A
330
2
100
AcDbEntity
  8
0
100
AcDbLine
 10
81.33131010894373
 20
127.9683371401344
 30
0.0
 11
80.33131010894374
 21
127.9683371401344
 31
0.0
  0
LINE
  5
144B
330
2
100
AcDbEntity
  8
0
100
AcDbLine
 10
80.33131010894374
 20
127.9683371401344
 30
0.0
 11
80.33131010894374
 21
119.4683371401344
 31
0.0
  0
LINE
  5
144C
330
2
100
AcDbEntity
  8
0
100
AcDbLine
 10
80.33131010894374
 20
127.9683371401344
 30
0.0
 11
80.33131010894374
 21
119.4683371401344
 31
0.0
  0
LINE
  5
144D
330
2
100
AcDbEntity
  8
0
100
AcDbLine
 10
58.86246089378381
 20
188.8283371401341
 30
0.0
 11
68.86246089378381
 21
188.8283371401341
 31
0.0
  0
ARC
  5
144E
330
2
100
AcDbEntity
  8
0
100
AcDbCircle
 10
68.86246089378381
 20
184.8283371401341
 30
0.0
 40
4.0
100
AcDbArc
 50
0.0
 51
90.0
  0
ARC
  5
144F
330
2
100
AcDbEntity
  8
0
100
AcDbCircle
 10
58.86246089378381
 20
184.8283371401341
 30
0.0
 40
4.0
100
AcDbArc
 50
90.0
 51
180.0
  0
CIRCLE
  5
1450
330
2
100
AcDbEntity
  8
0
100
AcDbCircle
 10
1187.579427399205
 20
154.8283371401377
 30
0.0
 40
22.5
  0
LINE
  5
1451
330
2
100
AcDbEntity
  8
0
100
AcDbLine
 10
895.6547468318053
 20
181.6883371401347
 30
0.0
 11
890.9547468318045
 21
181.6883371401347
 31
0.0
  0
LINE
  5
1452
330
2
100
AcDbEntity
  8
0
100
AcDbLine
 10
890.9547468318045
 20
190.1883371401347
 30
0.0
 11
895.6547468318053
 21
190.1883371401347
 31
0.0
  0
LINE
  5
1453
330
2
100
AcDbEntity
  8
CENTER
  6
CENS
100
AcDbLine
 10
873.4235898757773
 20
185.9383371401347
 30
0.0
 11
900.8805628058594
 21
185.9383371401347
 31
0.0
  0
LINE
  5
1454
330
2
100
AcDbEntity
  8
0
100
AcDbLine
 10
895.9547468318046
 20
189.6687218978643
 30
0.0
 11
895.9547468318046
 21
182.2079523824052
 31
0.0
  0
LINE
  5
1455
330
2
100
AcDbEntity
  8
0
100
AcDbLine
 10
895.6547468318053
 20
181.6883371401347
 30
0.0
 11
895.6547468318053
 21
190.1883371401347
 31
0.0
  0
LINE
  5
1456
330
2
100
AcDbEntity
  8
0
100
AcDbLine
 10
895.6547468318053
 20
181.6883371401347
 30
0.0
 11
895.9547468318046
 21
182.2079523824052
 31
0.0
  0
LINE
  5
1457
330
2
100
AcDbEntity
  8
0
100
AcDbLine
 10
895.9547468318046
 20
189.6687218978643
 30
0.0
 11
895.6547468318053
 21
190.1883371401347
 31
0.0
  0
LINE
  5
1458
330
2
100
AcDbEntity
  8
0
100
AcDbLine
 10
890.9547468318045
 20
190.1883371401347
 30
0.0
 11
889.9547468318045
 21
190.1883371401347
 31
0.0
  0
LINE
  5
1459
330
2
100
AcDbEntity
  8
0
100
AcDbLine
 10
889.9547468318045
 20
190.1883371401347
 30
0.0
 11
889.9547468318045
 21
181.6883371401347
 31
0.0
  0
LINE
  5
145A
330
2
100
AcDbEntity
  8
0
100
AcDbLine
 10
889.9547468318045
 20
181.6883371401347
 30
0.0
 11
890.9547468318045
 21
181.6883371401347
 31
0.0
  0
LINE
  5
145B
330
2
100
AcDbEntity
  8
0
100
AcDbLine
 10
890.9547468318045
 20
181.6883371401347
 30
0.0
 11
890.9547468318045
 21
190.1883371401347
 31
0.0
  0
LINE
  5
145C
330
2
100
AcDbEntity
  8
0
100
AcDbLine
 10
890.9547468318045
 20
181.6883371401347
 30
0.0
 11
890.9547468318045
 21
190.1883371401347
 31
0.0
  0
ARC
  5
145D
330
2
100
AcDbEntity
  8
0
100
AcDbCircle
 10
894.7580162424049
 20
119.8283371401341
 30
0.0
 40
5.0
100
AcDbArc
 50
163.8741378563813
 51
171.7867892982505
  0
LINE
  5
145E
330
2
100
AcDbEntity
  8
0
100
AcDbLine
 10
889.8295084024423
 20
120.7934323272604
 30
0.0
 11
890.4235898757773
 21
154.8283371401341
 31
0.0
  0
LINE
  5
145F
330
2
100
AcDbEntity
  8
0
100
AcDbLine
 10
878.4235898757772
 20
118.8283371401341
 30
0.0
 11
887.8298130121287
 21
118.8283371401341
 31
0.0
  0
ARC
  5
1460
330
2
100
AcDbEntity
  8
0
100
AcDbCircle
 10
887.8298130121287
 20
120.8283371401341
 30
0.0
 40
2.0
100
AcDbArc
 50
270.0
 51
358.9999999999982
  0
LINE
  5
1461
330
2
100
AcDbEntity
  8
CENTER
  6
CENS
100
AcDbLine
 10
907.4235898757773
 20
169.1609576610353
 30
0.0
 11
907.4235898757773
 21
192.5731667041466
 31
0.0
  0
LINE
  5
1462
330
2
100
AcDbEntity
  8
0
100
AcDbLine
 10
889.8295084024423
 20
188.8632419530088
 30
0.0
 11
890.2452594523614
 21
165.0448802551766
 31
0.0
  0
LINE
  5
1463
330
2
100
AcDbEntity
  8
0
100
AcDbLine
 10
906.8948048495835
 20
181.8242249093566
 30
0.0
 11
906.6772618390508
 21
169.3611941828669
 31
0.0
  0
LINE
  5
1464
330
2
100
AcDbEntity
  8
0
100
AcDbLine
 10
878.4235898757772
 20
154.8283371401341
 30
0.0
 11
878.8836292289628
 21
154.8283371401341
 31
0.0
  0
LINE
  5
1465
330
2
100
AcDbEntity
  8
0
100
AcDbLine
 10
895.9547468318046
 20
124.8283371401341
 30
0.0
 11
921.4235898757774
 21
124.8283371401341
 31
0.0
  0
LINE
  5
1466
330
2
100
AcDbEntity
  8
0
100
AcDbLine
 10
906.8948048495835
 20
127.8324493709117
 30
0.0
 11
906.4235898757774
 21
154.8283371401341
 31
0.0
  0
ARC
  5
1467
330
2
100
AcDbEntity
  8
0
100
AcDbCircle
 10
909.8953336129701
 20
127.8283371401341
 30
0.0
 40
3.0
100
AcDbArc
 50
181.0000000000017
 51
270.0
  0
ARC
  5
1468
330
2
100
AcDbEntity
  8
0
100
AcDbCircle
 10
894.3318048263858
 20
179.5961557856774
 30
0.0
 40
3.0
100
AcDbArc
 50
270.0
 51
358.9999999999721
  0
LINE
  5
1469
330
2
100
AcDbEntity
  8
0
100
AcDbLine
 10
903.8030915794491
 20
176.5961557856774
 30
0.0
 11
894.3318048263858
 21
176.5961557856783
 31
0.0
  0
LINE
  5
146A
330
2
100
AcDbEntity
  8
0
100
AcDbLine
 10
897.3313479118564
 20
179.5437985663659
 30
0.0
 11
897.3892890116943
 21
182.8632419530097
 31
0.0
  0
ARC
  5
146B
330
2
100
AcDbEntity
  8
0
100
AcDbCircle
 10
899.3889844020081
 20
182.8283371401341
 30
0.0
 40
2.0
100
AcDbArc
 50
90.0
 51
178.9999999999721
  0
LINE
  5
146C
330
2
100
AcDbEntity
  8
0
100
AcDbLine
 10
895.9547468318046
 20
184.828337140135
 30
0.0
 11
921.4235898757774
 21
184.8283371401341
 31
0.0
  0
ARC
  5
146D
330
2
100
AcDbEntity
  8
0
100
AcDbCircle
 10
909.8953336129701
 20
181.8283371401341
 30
0.0
 40
3.0
100
AcDbArc
 50
90.0
 51
178.9999999999982
  0
ARC
  5
146E
330
2
100
AcDbEntity
  8
0
100
AcDbCircle
 10
887.8298130121287
 20
188.8283371401341
 30
0.0
 40
2.0
100
AcDbArc
 50
1.000000000001775
 51
90.0
  0
LINE
  5
146F
330
2
100
AcDbEntity
  8
0
100
AcDbLine
 10
878.4235898757772
 20
190.8283371401341
 30
0.0
 11
887.8298130121287
 21
190.8283371401341
 31
0.0
  0
ARC
  5
1470
330
2
100
AcDbEntity
  8
0
100
AcDbCircle
 10
894.7580162424049
 20
189.828337140135
 30
0.0
 40
5.0
100
AcDbArc
 50
188.2132107017494
 51
196.1258621436186
  0
LINE
  5
1471
330
2
100
AcDbEntity
  8
0
100
AcDbLine
 10
921.4235898757774
 20
124.8283371401341
 30
0.0
 11
921.4235898757774
 21
184.8283371401341
 31
0.0
  0
LINE
  5
1472
330
2
100
AcDbEntity
  8
0
100
AcDbLine
 10
895.6547468318053
 20
127.9683371401345
 30
0.0
 11
890.9547468318045
 21
127.9683371401345
 31
0.0
  0
LINE
  5
1473
330
2
100
AcDbEntity
  8
0
100
AcDbLine
 10
890.9547468318045
 20
119.4683371401345
 30
0.0
 11
895.6547468318053
 21
119.4683371401345
 31
0.0
  0
LINE
  5
1474
330
2
100
AcDbEntity
  8
CENTER
  6
CENS
100
AcDbLine
 10
873.4235898757773
 20
123.7183371401345
 30
0.0
 11
900.8805628058594
 21
123.7183371401345
 31
0.0
  0
LINE
  5
1475
330
2
100
AcDbEntity
  8
0
100
AcDbLine
 10
895.9547468318046
 20
119.9879523824049
 30
0.0
 11
895.9547468318046
 21
127.448721897864
 31
0.0
  0
LINE
  5
1476
330
2
100
AcDbEntity
  8
0
100
AcDbLine
 10
895.6547468318053
 20
127.9683371401345
 30
0.0
 11
895.6547468318053
 21
119.4683371401345
 31
0.0
  0
LINE
  5
1477
330
2
100
AcDbEntity
  8
0
100
AcDbLine
 10
895.6547468318053
 20
127.9683371401345
 30
0.0
 11
895.9547468318046
 21
127.448721897864
 31
0.0
  0
LINE
  5
1478
330
2
100
AcDbEntity
  8
0
100
AcDbLine
 10
895.9547468318046
 20
119.9879523824049
 30
0.0
 11
895.6547468318053
 21
119.4683371401345
 31
0.0
  0
LINE
  5
1479
330
2
100
AcDbEntity
  8
0
100
AcDbLine
 10
890.9547468318045
 20
119.4683371401345
 30
0.0
 11
889.9547468318045
 21
119.4683371401345
 31
0.0
  0
LINE
  5
147A
330
2
100
AcDbEntity
  8
0
100
AcDbLine
 10
889.9547468318045
 20
119.4683371401345
 30
0.0
 11
889.9547468318045
 21
127.9683371401345
 31
0.0
  0
LINE
  5
147B
330
2
100
AcDbEntity
  8
0
100
AcDbLine
 10
889.9547468318045
 20
127.9683371401345
 30
0.0
 11
890.9547468318045
 21
127.9683371401345
 31
0.0
  0
LINE
  5
147C
330
2
100
AcDbEntity
  8
0
100
AcDbLine
 10
890.9547468318045
 20
127.9683371401345
 30
0.0
 11
890.9547468318045
 21
119.4683371401345
 31
0.0
  0
LINE
  5
147D
330
2
100
AcDbEntity
  8
0
100
AcDbLine
 10
890.9547468318045
 20
127.9683371401345
 30
0.0
 11
890.9547468318045
 21
119.4683371401345
 31
0.0
  0
LINE
  5
147E
330
2
100
AcDbEntity
  8
0
100
AcDbLine
 10
911.9235792667272
 20
161.828337140135
 30
0.0
 11
901.9235792667254
 21
161.828337140135
 31
0.0
  0
LINE
  5
147F
330
2
100
AcDbEntity
  8
0
100
AcDbLine
 10
911.9235792667254
 20
161.828337140135
 30
0.0
 11
911.9235792667254
 21
154.8283371401341
 31
0.0
  0
LINE
  5
1480
330
2
100
AcDbEntity
  8
0
100
AcDbLine
 10
913.9235792667253
 20
162.9830376785141
 30
0.0
 11
911.9235792667254
 21
161.8283371401341
 31
0.0
  0
LINE
  5
1481
330
2
100
AcDbEntity
  8
0
100
AcDbLine
 10
884.9235792667272
 20
162.0783371401341
 30
0.0
 11
884.9235792667272
 21
154.8283371401341
 31
0.0
  0
LINE
  5
1482
330
2
100
AcDbEntity
  8
0
100
AcDbLine
 10
911.9235792667272
 20
161.828337140135
 30
0.0
 11
901.9235792667254
 21
161.828337140135
 31
0.0
  0
LINE
  5
1483
330
2
100
AcDbEntity
  8
0
100
AcDbLine
 10
906.8357934453992
 20
169.5783371401351
 30
0.0
 11
913.9235792667253
 21
169.5783371401351
 31
0.0
  0
LINE
  5
1484
330
2
100
AcDbEntity
  8
0
100
AcDbLine
 10
913.9235792667253
 20
169.5783371401351
 30
0.0
 11
913.9235792667253
 21
154.8283371401341
 31
0.0
  0
LINE
  5
1485
330
2
100
AcDbEntity
  8
0
100
AcDbLine
 10
899.9235792667253
 20
165.113018326858
 30
0.0
 11
899.9235792667253
 21
154.8283371401341
 31
0.0
  0
LINE
  5
1486
330
2
100
AcDbEntity
  8
0
100
AcDbLine
 10
901.9235792667254
 20
165.6384184742894
 30
0.0
 11
901.9235792667254
 21
154.8283371401341
 31
0.0
  0
LINE
  5
1487
330
2
100
AcDbEntity
  8
0
100
AcDbLine
 10
892.9235792667272
 20
162.0783371401341
 30
0.0
 11
884.9235792667272
 21
162.0783371401341
 31
0.0
  0
LINE
  5
1488
330
2
100
AcDbEntity
  8
0
100
AcDbLine
 10
892.9235792667272
 20
154.8283371401341
 30
0.0
 11
892.9235792667272
 21
162.0783371401341
 31
0.0
  0
LINE
  5
1489
330
2
100
AcDbEntity
  8
0
100
AcDbLine
 10
899.9235792667253
 20
161.8283371401341
 30
0.0
 11
892.9235792667272
 21
161.8283371401341
 31
0.0
  0
LINE
  5
148A
330
2
100
AcDbEntity
  8
0
100
AcDbLine
 10
881.1708025169931
 20
154.8283371401341
 30
0.0
 11
884.9235792667272
 21
161.3283371401341
 31
0.0
  0
SPLINE
  5
148B
330
2
100
AcDbEntity
  8
HOJO
100
AcDbSpline
210
0.0
220
0.0
230
1.0
 70
     8
 71
     3
 72
    20
 73
    16
 74
     0
 42
0.0000000001
 43
0.0000000001
 40
0.0
 40
0.0
 40
0.0
 40
0.0
 40
5.311626210389601
 40
7.954639692924123
 40
10.24579206730457
 40
14.18281221953265
 40
18.83794314114633
 40
26.54246833222011
 40
31.19712602527561
 40
34.95638115537181
 40
42.12378530287149
 40
45.78553747213095
 40
50.20353689726185
 40
53.26513166942802
 40
54.23175360515262
 40
54.23175360515262
 40
54.23175360515262
 40
54.23175360515262
 10
921.4235898757754
 20
181.5157858621507
 30
0.0
 10
919.7106107098873
 20
181.4077438119241
 30
0.0
 10
917.1452697904763
 20
181.2459410895201
 30
0.0
 10
913.3735159033998
 20
180.9938084173529
 30
0.0
 10
912.0543746872657
 20
178.0613669323859
 30
0.0
 10
909.6191653189757
 20
175.4068581090907
 30
0.0
 10
907.7811169758255
 20
170.255562675926
 30
0.0
 10
903.6562805663482
 20
165.5458153243009
 30
0.0
 10
898.1786330633417
 20
164.9084838898818
 30
0.0
 10
893.2652475537755
 20
164.5229122463408
 30
0.0
 10
888.4312482070175
 20
165.6864963557948
 30
0.0
 10
883.3935214423794
 20
162.9869661199302
 30
0.0
 10
880.3223708210092
 20
159.1127419907882
 30
0.0
 10
879.3223965262836
 20
156.4345014698976
 30
0.0
 10
878.9663570010519
 20
155.1394884398271
 30
0.0
 10
878.8836292289628
 20
154.8283371401341
 30
0.0
  0
LINE
  5
148C
330
2
100
AcDbEntity
  8
0
100
AcDbLine
 10
921.4235898757774
 20
179.828337140135
 30
0.0
 11
914.4235898757774
 21
179.828337140135
 31
0.0
  0
LINE
  5
148D
330
2
100
AcDbEntity
  8
0
100
AcDbLine
 10
914.4235898757774
 20
179.828337140135
 30
0.0
 11
914.4235898757774
 21
154.8283371401341
 31
0.0
  0
LINE
  5
148E
330
2
100
AcDbEntity
  8
0
100
AcDbLine
 10
912.4235960469645
 20
188.8283371401341
 30
0.0
 11
902.4235960469644
 21
188.8283371401341
 31
0.0
  0
ARC
  5
148F
330
2
100
AcDbEntity
  8
0
100
AcDbCircle
 10
902.4235960469644
 20
184.8283371401341
 30
0.0
 40
4.0
100
AcDbArc
 50
90.0
 51
180.0
  0
ARC
  5
1490
330
2
100
AcDbEntity
  8
0
100
AcDbCircle
 10
912.4235960469645
 20
184.8283371401341
 30
0.0
 40
4.0
100
AcDbArc
 50
0.0
 51
90.0
  0
LINE
  5
1491
330
2
100
AcDbEntity
  8
0
100
AcDbLine
 10
911.3229232041607
 20
177.3283371401341
 30
0.0
 11
914.4235898757774
 21
177.3283371401341
 31
0.0
  0
LINE
  5
1FD2
330
2
100
AcDbEntity
  8
CENTER
100
AcDbLine
 10
216.6524670649727
 20
88.82833714013418
 30
0.0
 11
216.6524670649727
 21
220.8283371401341
 31
0.0
  0
LINE
  5
1FD3
330
2
100
AcDbEntity
  8
CENTER
100
AcDbLine
 10
420.461117953846
 20
89.07268943827535
 30
0.0
 11
420.461117953846
 21
220.5839848419932
 31
0.0
  0
LINE
  5
1FDD
330
2
100
AcDbEntity
  8
0
100
AcDbLine
 10
123.6524670649727
 20
132.8283371401341
 30
0.0
 11
118.9618091434798
 21
132.8283371401341
 31
0.0
  0
LINE
  5
1FDE
330
2
100
AcDbEntity
  8
0
100
AcDbLine
 10
125.6524670649736
 20
152.3283371401341
 30
0.0
 11
117.3624670666944
 21
152.3283371401341
 31
0.0
  0
LINE
  5
1FDF
330
2
100
AcDbEntity
  8
0
100
AcDbLine
 10
126.6523909083947
 20
128.8283371401341
 30
0.0
 11
114.9331812809663
 21
128.8283371401341
 31
0.0
  0
LINE
  5
1FE0
330
2
100
AcDbEntity
  8
0
100
AcDbLine
 10
123.6524670649727
 20
176.8283371401341
 30
0.0
 11
118.9618091434798
 21
176.8283371401341
 31
0.0
  0
LINE
  5
1FE1
330
2
100
AcDbEntity
  8
0
100
AcDbLine
 10
126.6523909083947
 20
180.8283371401341
 30
0.0
 11
114.9331812809663
 21
180.8283371401341
 31
0.0
  0
LINE
  5
1FE2
330
2
100
AcDbEntity
  8
0
100
AcDbLine
 10
125.6524670649736
 20
157.3283371401341
 30
0.0
 11
117.3624670666944
 21
157.3283371401341
 31
0.0
  0
ARC
  5
1FE3
330
2
100
AcDbEntity
  8
0
100
AcDbCircle
 10
118.9618091434798
 20
127.8283371401341
 30
0.0
 40
5.0
100
AcDbArc
 50
90.0
 51
161.7900431357172
  0
ARC
  5
1FE4
330
2
100
AcDbEntity
  8
0
100
AcDbCircle
 10
111.3624670666944
 20
130.3283371401323
 30
0.0
 40
3.0
100
AcDbArc
 50
270.0
 51
0.0
  0
LINE
  5
1FE6
330
2
100
AcDbEntity
  8
0
100
AcDbLine
 10
104.8624670649709
 20
120.3283371401341
 30
0.0
 11
104.8624670649709
 21
189.3283371401341
 31
0.0
  0
LINE
  5
1FE7
330
2
100
AcDbEntity
  8
0
100
AcDbLine
 10
102.8624670649709
 20
118.8283371401341
 30
0.0
 11
92.86246706497093
 21
118.8283371401341
 31
0.0
  0
LINE
  5
1FE8
330
2
100
AcDbEntity
  8
0
100
AcDbLine
 10
102.8624670649709
 20
118.3283371401341
 30
0.0
 11
92.86246706497093
 21
118.3283371401341
 31
0.0
  0
ARC
  5
1FE9
330
2
100
AcDbEntity
  8
0
100
AcDbCircle
 10
114.9331812809663
 20
126.8283371401341
 30
0.0
 40
2.0
100
AcDbArc
 50
90.0
 51
135.57299599917
  0
ARC
  5
1FEA
330
2
100
AcDbEntity
  8
0
100
AcDbCircle
 10
102.8624670649709
 20
120.8283371401341
 30
0.0
 40
2.0
100
AcDbArc
 50
270.0
 51
0.0
  0
ARC
  5
1FEB
330
2
100
AcDbEntity
  8
0
100
AcDbCircle
 10
102.8624670649709
 20
120.3283371401341
 30
0.0
 40
2.0
100
AcDbArc
 50
270.0
 51
0.0
  0
ARC
  5
1FEC
330
2
100
AcDbEntity
  8
0
100
AcDbCircle
 10
109.8624670649709
 20
122.3283371401323
 30
0.0
 40
5.0
100
AcDbArc
 50
90.0
 51
180.0
  0
LINE
  5
1FED
330
2
100
AcDbEntity
  8
0
100
AcDbLine
 10
109.8624670649709
 20
127.3283371401323
 30
0.0
 11
111.3624670666953
 21
127.3283371401323
 31
0.0
  0
LINE
  5
1FEE
330
2
100
AcDbEntity
  8
0
100
AcDbLine
 10
114.3624670666944
 20
179.3283371401341
 30
0.0
 11
114.3624670666944
 21
130.3283371401323
 31
0.0
  0
ARC
  5
1FEF
330
2
100
AcDbEntity
  8
0
100
AcDbCircle
 10
117.3624670666944
 20
160.3283371401341
 30
0.0
 40
3.0
100
AcDbArc
 50
180.0
 51
270.0
  0
ARC
  5
1FF0
330
2
100
AcDbEntity
  8
0
100
AcDbCircle
 10
117.3624670666944
 20
149.3283371401341
 30
0.0
 40
3.0
100
AcDbArc
 50
90.0
 51
180.0
  0
LINE
  5
1FF1
330
2
100
AcDbEntity
  8
0
100
AcDbLine
 10
102.8624670649713
 20
190.8283371401341
 30
0.0
 11
92.86246706497093
 21
190.8283371401341
 31
0.0
  0
LINE
  5
1FF2
330
2
100
AcDbEntity
  8
0
100
AcDbLine
 10
102.8624670649713
 20
191.3283371401341
 30
0.0
 11
92.86246706497093
 21
191.3283371401341
 31
0.0
  0
ARC
  5
1FF3
330
2
100
AcDbEntity
  8
0
100
AcDbCircle
 10
118.9618091434798
 20
181.8283371401341
 30
0.0
 40
5.0
100
AcDbArc
 50
198.2099568642827
 51
270.0
  0
ARC
  5
1FF4
330
2
100
AcDbEntity
  8
0
100
AcDbCircle
 10
114.9331812809663
 20
182.8283371401341
 30
0.0
 40
2.0
100
AcDbArc
 50
224.4270040008299
 51
270.0
  0
ARC
  5
1FF5
330
2
100
AcDbEntity
  8
0
100
AcDbCircle
 10
111.3624670666944
 20
179.3283371401341
 30
0.0
 40
3.0
100
AcDbArc
 50
0.0
 51
90.0
  0
ARC
  5
1FF6
330
2
100
AcDbEntity
  8
0
100
AcDbCircle
 10
102.8624670649713
 20
188.8283371401341
 30
0.0
 40
2.0
100
AcDbArc
 50
0.0
 51
90.0
  0
ARC
  5
1FF7
330
2
100
AcDbEntity
  8
0
100
AcDbCircle
 10
109.8624670649709
 20
187.3283371401342
 30
0.0
 40
5.0
100
AcDbArc
 50
180.0
 51
270.0
  0
ARC
  5
1FF8
330
2
100
AcDbEntity
  8
0
100
AcDbCircle
 10
102.8624670649713
 20
189.3283371401341
 30
0.0
 40
2.0
100
AcDbArc
 50
0.0
 51
90.0
  0
LINE
  5
1FF9
330
2
100
AcDbEntity
  8
0
100
AcDbLine
 10
109.8624670649709
 20
182.3283371401341
 30
0.0
 11
111.3624670666953
 21
182.3283371401341
 31
0.0
  0
LINE
  5
1FFA
330
2
100
AcDbEntity
  8
0
100
AcDbLine
 10
384.961117953917
 20
202.8283371401341
 30
0.0
 11
377.8611179539166
 21
202.8283371401341
 31
0.0
  0
LINE
  5
1FFB
330
2
100
AcDbEntity
  8
0
100
AcDbLine
 10
392.4611179538487
 20
205.8283371401341
 30
0.0
 11
378.9436648828413
 21
205.7103721143141
 31
0.0
  0
LINE
  5
1FFC
330
2
100
AcDbEntity
  8
CENTER
100
AcDbLine
 10
534.4611179538451
 20
154.8283371401341
 30
0.0
 11
351.4611179538405
 21
154.8283371401341
 31
0.0
  0
LINE
  5
1FFD
330
2
100
AcDbEntity
  8
0
100
AcDbLine
 10
384.961117953917
 20
106.8283371401341
 30
0.0
 11
377.8611179539166
 21
106.8283371401341
 31
0.0
  0
LINE
  5
1FFE
330
2
100
AcDbEntity
  8
0
100
AcDbLine
 10
392.4611179538487
 20
103.8283371401359
 30
0.0
 11
378.9436648828413
 21
103.9463021659541
 31
0.0
  0
LINE
  5
1FFF
330
2
100
AcDbEntity
  8
CENTER
100
AcDbLine
 10
400.3695140655363
 20
111.8283371401341
 30
0.0
 11
374.461117953916
 21
111.8283371401341
 31
0.0
  0
LINE
  5
2000
330
2
100
AcDbEntity
  8
0
100
AcDbLine
 10
384.961117953917
 20
116.8283371401341
 30
0.0
 11
377.8611179539166
 21
116.8283371401341
 31
0.0
  0
LINE
  5
2001
330
2
100
AcDbEntity
  8
0
100
AcDbLine
 10
383.9698444894147
 20
118.8369878526048
 30
0.0
 11
378.9436648828413
 21
118.8808506575244
 31
0.0
  0
LINE
  5
2002
330
2
100
AcDbEntity
  8
0
100
AcDbLine
 10
378.9436648828413
 20
134.2882379629374
 30
0.0
 11
392.4611179538446
 21
134.2882379629374
 31
0.0
  0
LINE
  5
2003
330
2
100
AcDbEntity
  8
CENTER
100
AcDbLine
 10
400.3695140655363
 20
197.8283371401341
 30
0.0
 11
374.461117953916
 21
197.8283371401341
 31
0.0
  0
LINE
  5
2004
330
2
100
AcDbEntity
  8
0
100
AcDbLine
 10
384.961117953917
 20
192.8283371401341
 30
0.0
 11
377.8611179539166
 21
192.8283371401341
 31
0.0
  0
LINE
  5
2005
330
2
100
AcDbEntity
  8
0
100
AcDbLine
 10
383.9698444894147
 20
190.8196864276653
 30
0.0
 11
378.9436648828413
 21
190.7758236227457
 31
0.0
  0
LINE
  5
2006
330
2
100
AcDbEntity
  8
0
100
AcDbLine
 10
378.9436648828413
 20
175.3684363173308
 30
0.0
 11
392.4611179538446
 21
175.3684363173308
 31
0.0
  0
LINE
  5
2007
330
2
100
AcDbEntity
  8
0
100
AcDbLine
 10
262.1524670649727
 20
199.2717128131082
 30
0.0
 11
259.6524670649727
 21
200.7150884860823
 31
0.0
  0
CIRCLE
  5
2008
330
2
100
AcDbEntity
  8
0
100
AcDbCircle
 10
259.6524670649772
 20
111.8283371401341
 30
0.0
 40
5.000000000000113
  0
CIRCLE
  5
2009
330
2
100
AcDbEntity
  8
0
100
AcDbCircle
 10
259.6524670649772
 20
111.8283371401341
 30
0.0
 40
4.307179676972509
  0
ARC
  5
200A
330
2
100
AcDbEntity
  8
0
100
AcDbCircle
 10
259.6524670649727
 20
111.8283371401341
 30
0.0
 40
8.0
100
AcDbArc
 50
270.0
 51
0.0
  0
LINE
  5
200B
330
2
100
AcDbEntity
  8
0
100
AcDbLine
 10
259.6524670649768
 20
108.941585794186
 30
0.0
 11
262.1524670649772
 21
110.3849614671601
 31
0.0
  0
LINE
  5
200C
330
2
100
AcDbEntity
  8
0
100
AcDbLine
 10
262.1524670649772
 20
113.2717128131082
 30
0.0
 11
259.6524670649772
 21
114.7150884860823
 31
0.0
  0
CIRCLE
  5
200D
330
2
100
AcDbEntity
  8
HOJO
100
AcDbCircle
 10
261.6524670649736
 20
123.3283371401341
 30
0.0
 40
2.0
  0
CIRCLE
  5
200E
330
2
100
AcDbEntity
  8
0
100
AcDbCircle
 10
261.6524670649736
 20
123.3283371401341
 30
0.0
 40
2.5
  0
CIRCLE
  5
200F
330
2
100
AcDbEntity
  8
0
100
AcDbCircle
 10
261.6524670649736
 20
123.3283371401341
 30
0.0
 40
1.6
  0
LINE
  5
2010
330
2
100
AcDbEntity
  8
CENTER
100
AcDbLine
 10
257.2777246595818
 20
123.3283371401341
 30
0.0
 11
266.0272094703653
 21
123.3283371401341
 31
0.0
  0
CIRCLE
  5
2011
330
2
100
AcDbEntity
  8
0
100
AcDbCircle
 10
261.6524670649736
 20
123.3283371401341
 30
0.0
 40
3.0
  0
LINE
  5
2012
330
2
100
AcDbEntity
  8
CENTER
100
AcDbLine
 10
268.4024670649758
 20
111.8283371401341
 30
0.0
 11
250.9024670649758
 21
111.8283371401341
 31
0.0
  0
LINE
  5
2013
330
2
100
AcDbEntity
  8
0
100
AcDbLine
 10
259.6524670649745
 20
118.8283371401341
 30
0.0
 11
264.7086769347946
 21
118.8283371401341
 31
0.0
  0
LINE
  5
2014
330
2
100
AcDbEntity
  8
0
100
AcDbLine
 10
259.6524670649727
 20
194.941585794186
 30
0.0
 11
262.1524670649727
 21
196.3849614671601
 31
0.0
  0
CIRCLE
  5
2015
330
2
100
AcDbEntity
  8
HOJO
100
AcDbCircle
 10
261.6524670649727
 20
186.3283371401341
 30
0.0
 40
2.0
  0
CIRCLE
  5
2016
330
2
100
AcDbEntity
  8
0
100
AcDbCircle
 10
261.6524670649727
 20
186.3283371401341
 30
0.0
 40
2.5
  0
CIRCLE
  5
2017
330
2
100
AcDbEntity
  8
0
100
AcDbCircle
 10
261.6524670649727
 20
186.3283371401341
 30
0.0
 40
1.6
  0
LINE
  5
2018
330
2
100
AcDbEntity
  8
CENTER
100
AcDbLine
 10
268.4024670649758
 20
197.8283371401341
 30
0.0
 11
250.9024670649758
 21
197.8283371401341
 31
0.0
  0
CIRCLE
  5
2019
330
2
100
AcDbEntity
  8
0
100
AcDbCircle
 10
261.6524670649727
 20
186.3283371401341
 30
0.0
 40
3.0
  0
LINE
  5
201A
330
2
100
AcDbEntity
  8
CENTER
100
AcDbLine
 10
257.5565246774061
 20
186.3283371401341
 30
0.0
 11
265.7484094525392
 21
186.3283371401341
 31
0.0
  0
LINE
  5
201B
330
2
100
AcDbEntity
  8
0
100
AcDbLine
 10
259.6524670649754
 20
190.8283371401341
 30
0.0
 11
264.7086769347946
 21
190.8283371401341
 31
0.0
  0
ARC
  5
201C
330
2
100
AcDbEntity
  8
0
100
AcDbCircle
 10
259.6524670649727
 20
197.8283371401341
 30
0.0
 40
8.0
100
AcDbArc
 50
0.0
 51
90.0
  0
CIRCLE
  5
201D
330
2
100
AcDbEntity
  8
0
100
AcDbCircle
 10
259.6524670649727
 20
197.8283371401341
 30
0.0
 40
5.000000000000113
  0
CIRCLE
  5
201E
330
2
100
AcDbEntity
  8
0
100
AcDbCircle
 10
259.6524670649727
 20
197.8283371401341
 30
0.0
 40
4.307179676972509
  0
ARC
  5
201F
330
2
100
AcDbEntity
  8
0
100
AcDbCircle
 10
240.6524670649722
 20
130.8283371401341
 30
0.0
 40
15.0
100
AcDbArc
 50
270.0
 51
0.0
  0
CIRCLE
  5
2020
330
2
100
AcDbEntity
  8
0
100
AcDbCircle
 10
135.1524670649727
 20
125.3283371401341
 30
0.0
 40
5.000000000000113
  0
ARC
  5
2021
330
2
100
AcDbEntity
  8
0
100
AcDbCircle
 10
123.6524670649727
 20
127.8283371401341
 30
0.0
 40
5.0
100
AcDbArc
 50
0.0
 51
90.0
  0
LINE
  5
2022
330
2
100
AcDbEntity
  8
CENTER
100
AcDbLine
 10
146.6524670649763
 20
116.7255114953607
 30
0.0
 11
146.6524670649763
 21
130.4688357924699
 31
0.0
  0
ARC
  5
2023
330
2
100
AcDbEntity
  8
0
100
AcDbCircle
 10
135.1524670649736
 20
125.3283371401341
 30
0.0
 40
7.0
100
AcDbArc
 50
0.0
 51
90.0
  0
LINE
  5
2024
330
2
100
AcDbEntity
  8
CENTER
100
AcDbLine
 10
135.1524670649718
 20
116.5783371401341
 30
0.0
 11
135.1524670649727
 21
134.0783371401341
 31
0.0
  0
LINE
  5
2025
330
2
100
AcDbEntity
  8
0
100
AcDbLine
 10
128.6524670649736
 20
184.8283371401341
 30
0.0
 11
128.6524670649736
 21
124.8283371401341
 31
0.0
  0
LINE
  5
2026
330
2
100
AcDbEntity
  8
0
100
AcDbLine
 10
165.6524670649763
 20
111.8283371401341
 30
0.0
 11
165.6524670649763
 21
197.8283371401341
 31
0.0
  0
CIRCLE
  5
2027
330
2
100
AcDbEntity
  8
0
100
AcDbCircle
 10
216.6524670649727
 20
154.8283371401341
 30
0.0
 40
26.57735026918791
  0
CIRCLE
  5
2028
330
2
100
AcDbEntity
  8
0
100
AcDbCircle
 10
216.6524670649727
 20
154.8283371401341
 30
0.0
 40
32.42260000000154
  0
CIRCLE
  5
2029
330
2
100
AcDbEntity
  8
0
100
AcDbCircle
 10
216.6524670649727
 20
154.8283371401341
 30
0.0
 40
35.50000000000153
  0
CIRCLE
  5
202A
330
2
100
AcDbEntity
  8
0
100
AcDbCircle
 10
216.6524670649727
 20
154.8283371401341
 30
0.0
 40
35.00000000000153
  0
CIRCLE
  5
202B
330
2
100
AcDbEntity
  8
0
100
AcDbCircle
 10
216.6524670649727
 20
154.8283371401341
 30
0.0
 40
33.00000000000153
  0
CIRCLE
  5
202C
330
2
100
AcDbEntity
  8
0
100
AcDbCircle
 10
216.6524670649727
 20
154.8283371401341
 30
0.0
 40
26.0
  0
ARC
  5
202D
330
2
100
AcDbEntity
  8
0
100
AcDbCircle
 10
192.6524670649727
 20
130.8283371401341
 30
0.0
 40
15.0
100
AcDbArc
 50
180.0
 51
270.0
  0
ARC
  5
202E
330
2
100
AcDbEntity
  8
0
100
AcDbCircle
 10
192.6524670649727
 20
130.8283371401341
 30
0.0
 40
17.0
100
AcDbArc
 50
180.0
 51
270.0
  0
ARC
  5
202F
330
2
100
AcDbEntity
  8
0
100
AcDbCircle
 10
240.6524670649726
 20
130.8283371401341
 30
0.0
 40
17.0
100
AcDbArc
 50
270.0
 51
0.0
  0
ARC
  5
2030
330
2
100
AcDbEntity
  8
0
100
AcDbCircle
 10
189.950338134647
 20
45.20313281814947
 30
0.0
 40
60.0
100
AcDbArc
 50
84.10530161364862
 51
101.8050678104414
  0
LINE
  5
2031
330
2
100
AcDbEntity
  8
0
100
AcDbLine
 10
134.6524670649736
 20
118.8283371401341
 30
0.0
 11
159.6524670649763
 21
118.8283371401341
 31
0.0
  0
LINE
  5
2032
330
2
100
AcDbEntity
  8
CENTER
100
AcDbLine
 10
126.4024670649727
 20
125.328337140136
 30
0.0
 11
143.9024670649727
 21
125.3283371401341
 31
0.0
  0
ARC
  5
2033
330
2
100
AcDbEntity
  8
0
100
AcDbCircle
 10
134.6524670649736
 20
124.8283371401341
 30
0.0
 40
6.0
100
AcDbArc
 50
180.0
 51
270.0
  0
CIRCLE
  5
2034
330
2
100
AcDbEntity
  8
0
100
AcDbCircle
 10
135.1524670649727
 20
125.3283371401341
 30
0.0
 40
4.307179676972509
  0
ARC
  5
2035
330
2
100
AcDbEntity
  8
0
100
AcDbCircle
 10
126.6524670649727
 20
126.8283371401341
 30
0.0
 40
2.0
100
AcDbArc
 50
0.0
 51
90.0
  0
LINE
  5
2036
330
2
100
AcDbEntity
  8
0
100
AcDbLine
 10
137.6524670649727
 20
126.7717128131082
 30
0.0
 11
135.1524670649727
 21
128.2150884860823
 31
0.0
  0
LINE
  5
2037
330
2
100
AcDbEntity
  8
0
100
AcDbLine
 10
132.6524670649727
 20
126.7717128131082
 30
0.0
 11
132.6524670649727
 21
123.8849614671601
 31
0.0
  0
LINE
  5
2038
330
2
100
AcDbEntity
  8
0
100
AcDbLine
 10
132.6524670649727
 20
126.7717128131082
 30
0.0
 11
135.1524670649727
 21
128.2150884860823
 31
0.0
  0
LINE
  5
2039
330
2
100
AcDbEntity
  8
0
100
AcDbLine
 10
137.6524670649727
 20
126.7717128131082
 30
0.0
 11
137.6524670649727
 21
123.8849614671601
 31
0.0
  0
ARC
  5
203A
330
2
100
AcDbEntity
  8
0
100
AcDbCircle
 10
144.1524670649736
 20
120.8283371401341
 30
0.0
 40
2.0
100
AcDbArc
 50
180.0
 51
270.0
  0
LINE
  5
203B
330
2
100
AcDbEntity
  8
0
100
AcDbLine
 10
142.1524670649736
 20
125.3283371401341
 30
0.0
 11
142.1524670649736
 21
120.8283371401341
 31
0.0
  0
LINE
  5
203C
330
2
100
AcDbEntity
  8
0
100
AcDbLine
 10
135.1524670649722
 20
122.441585794186
 30
0.0
 11
137.6524670649727
 21
123.8849614671601
 31
0.0
  0
LINE
  5
203D
330
2
100
AcDbEntity
  8
0
100
AcDbLine
 10
135.1524670649722
 20
122.441585794186
 30
0.0
 11
132.6524670649727
 21
123.8849614671601
 31
0.0
  0
LINE
  5
203E
330
2
100
AcDbEntity
  8
CENTER
100
AcDbLine
 10
141.4792619842195
 20
123.3283371401341
 30
0.0
 11
153.0791790031602
 21
123.3283371401341
 31
0.0
  0
CIRCLE
  5
203F
330
2
100
AcDbEntity
  8
HOJO
100
AcDbCircle
 10
146.6524670649745
 20
123.3283371401323
 30
0.0
 40
2.0
  0
CIRCLE
  5
2040
330
2
100
AcDbEntity
  8
0
100
AcDbCircle
 10
146.6524670649763
 20
123.3283371401341
 30
0.0
 40
3.25
  0
CIRCLE
  5
2041
330
2
100
AcDbEntity
  8
0
100
AcDbCircle
 10
146.6524670649763
 20
123.3283371401341
 30
0.0
 40
2.75
  0
CIRCLE
  5
2042
330
2
100
AcDbEntity
  8
0
100
AcDbCircle
 10
146.6524670649763
 20
123.3283371401341
 30
0.0
 40
1.6
  0
ARC
  5
2043
330
2
100
AcDbEntity
  8
0
100
AcDbCircle
 10
159.6524670649763
 20
112.8283371401341
 30
0.0
 40
6.0
100
AcDbArc
 50
0.0
 51
90.0
  0
LINE
  5
2044
330
2
100
AcDbEntity
  8
0
100
AcDbLine
 10
182.0458653471745
 20
120.221735422336
 30
0.0
 11
180.6316517848012
 21
118.8075218599626
 31
0.0
  0
ARC
  5
2045
330
2
100
AcDbEntity
  8
0
100
AcDbCircle
 10
176.6524670649727
 20
108.8283371401341
 30
0.0
 40
5.0
100
AcDbArc
 50
269.9999999999478
 51
281.8050678104415
  0
LINE
  5
2046
330
2
100
AcDbEntity
  8
0
100
AcDbLine
 10
173.6524670649699
 20
103.8283371401341
 30
0.0
 11
176.6524670649727
 21
103.8283371401341
 31
0.0
  0
ARC
  5
2047
330
2
100
AcDbEntity
  8
0
100
AcDbCircle
 10
173.652467064969
 20
111.8283371401341
 30
0.0
 40
8.0
100
AcDbArc
 50
180.0
 51
270.0
  0
LINE
  5
2048
330
2
100
AcDbEntity
  8
0
100
AcDbLine
 10
240.6524670649722
 20
115.8283371401341
 30
0.0
 11
192.6524670649727
 21
115.8283371401341
 31
0.0
  0
LINE
  5
2049
330
2
100
AcDbEntity
  8
0
100
AcDbLine
 10
240.6524670649726
 20
113.8283371401341
 30
0.0
 11
192.6524670649727
 21
113.8283371401341
 31
0.0
  0
ARC
  5
204A
330
2
100
AcDbEntity
  8
0
100
AcDbCircle
 10
216.6524670649727
 20
303.8283371401341
 30
0.0
 40
200.0
100
AcDbArc
 50
264.1053016136486
 51
275.8946983863513
  0
ARC
  5
204B
330
2
100
AcDbEntity
  8
0
100
AcDbCircle
 10
259.6524670649718
 20
111.8283371401341
 30
0.0
 40
7.0
100
AcDbArc
 50
89.99999999994789
 51
180.0
  0
LINE
  5
204C
330
2
100
AcDbEntity
  8
0
100
AcDbLine
 10
257.1524670649772
 20
113.2717128131082
 30
0.0
 11
259.6524670649772
 21
114.7150884860823
 31
0.0
  0
LINE
  5
204D
330
2
100
AcDbEntity
  8
0
100
AcDbLine
 10
251.2590687827704
 20
120.221735422336
 30
0.0
 11
252.6732823451433
 21
118.8075218599626
 31
0.0
  0
LINE
  5
204E
330
2
100
AcDbEntity
  8
CENTER
100
AcDbLine
 10
261.6524670649736
 20
127.7030795455268
 30
0.0
 11
261.6524670649736
 21
118.9535947347433
 31
0.0
  0
ARC
  5
204F
330
2
100
AcDbEntity
  8
0
100
AcDbCircle
 10
243.3545959952974
 20
45.20313281814947
 30
0.0
 40
60.0
100
AcDbArc
 50
78.19493218955852
 51
95.89469838635137
  0
LINE
  5
2050
330
2
100
AcDbEntity
  8
0
100
AcDbLine
 10
259.6524670649768
 20
108.941585794186
 30
0.0
 11
257.1524670649772
 21
110.3849614671601
 31
0.0
  0
LINE
  5
2051
330
2
100
AcDbEntity
  8
0
100
AcDbLine
 10
259.6524670649727
 20
103.8283371401341
 30
0.0
 11
256.6524670649727
 21
103.8283371401341
 31
0.0
  0
ARC
  5
2052
330
2
100
AcDbEntity
  8
0
100
AcDbCircle
 10
256.6524670649727
 20
108.8283371401341
 30
0.0
 40
5.0
100
AcDbArc
 50
258.1949321895585
 51
270.0
  0
ARC
  5
2053
330
2
100
AcDbEntity
  8
0
100
AcDbCircle
 10
250.6524670649713
 20
106.7721272703131
 30
0.0
 40
2.0
100
AcDbArc
 50
263.2401800668832
 51
0.0
  0
LINE
  5
2054
330
2
100
AcDbEntity
  8
0
100
AcDbLine
 10
257.1524670649772
 20
113.2717128131082
 30
0.0
 11
257.1524670649772
 21
110.3849614671601
 31
0.0
  0
LINE
  5
2055
330
2
100
AcDbEntity
  8
0
100
AcDbLine
 10
252.6524670649713
 20
111.8283371401341
 30
0.0
 11
252.6524670649708
 21
106.7721272703131
 31
0.0
  0
LINE
  5
2056
330
2
100
AcDbEntity
  8
CENTER
100
AcDbLine
 10
259.6524670649777
 20
103.078337140136
 30
0.0
 11
259.6524670649763
 21
120.5783371401359
 31
0.0
  0
ARC
  5
2057
330
2
100
AcDbEntity
  8
0
100
AcDbCircle
 10
189.9503381346479
 20
264.4535414621188
 30
0.0
 40
60.0
100
AcDbArc
 50
258.1949321895585
 51
275.8946983863513
  0
ARC
  5
2058
330
2
100
AcDbEntity
  8
0
100
AcDbCircle
 10
192.6524670649727
 20
178.8283371401341
 30
0.0
 40
15.0
100
AcDbArc
 50
90.0
 51
180.0
  0
ARC
  5
2059
330
2
100
AcDbEntity
  8
0
100
AcDbCircle
 10
192.6524670649727
 20
178.8283371401341
 30
0.0
 40
17.0
100
AcDbArc
 50
90.0
 51
180.0
  0
LINE
  5
205A
330
2
100
AcDbEntity
  8
0
100
AcDbLine
 10
177.6524670649727
 20
130.8283371401341
 30
0.0
 11
177.6524670649727
 21
178.8283371401341
 31
0.0
  0
LINE
  5
205B
330
2
100
AcDbEntity
  8
0
100
AcDbLine
 10
175.6524670649727
 20
130.8283371401341
 30
0.0
 11
175.6524670649727
 21
178.8283371401341
 31
0.0
  0
ARC
  5
205C
330
2
100
AcDbEntity
  8
0
100
AcDbCircle
 10
125.6524670649736
 20
160.3283371401341
 30
0.0
 40
3.0
100
AcDbArc
 50
270.0
 51
0.0
  0
LINE
  5
205D
330
2
100
AcDbEntity
  8
0
100
AcDbLine
 10
135.1524670649736
 20
132.3283371401341
 30
0.0
 11
130.6524670649736
 21
132.3283371401341
 31
0.0
  0
ARC
  5
205E
330
2
100
AcDbEntity
  8
0
100
AcDbCircle
 10
130.6524670649736
 20
134.3283371401341
 30
0.0
 40
2.0
100
AcDbArc
 50
180.0
 51
270.0
  0
ARC
  5
205F
330
2
100
AcDbEntity
  8
0
100
AcDbCircle
 10
125.6524670649736
 20
149.3283371401341
 30
0.0
 40
3.0
100
AcDbArc
 50
0.0
 51
90.0
  0
LINE
  5
2060
330
2
100
AcDbEntity
  8
0
100
AcDbLine
 10
134.6524670649736
 20
190.8283371401341
 30
0.0
 11
159.6524670649763
 21
190.8283371401341
 31
0.0
  0
LINE
  5
2061
330
2
100
AcDbEntity
  8
CENTER
100
AcDbLine
 10
126.4024670649727
 20
184.3283371401341
 30
0.0
 11
143.9024670649727
 21
184.3283371401341
 31
0.0
  0
CIRCLE
  5
2062
330
2
100
AcDbEntity
  8
0
100
AcDbCircle
 10
135.1524670649727
 20
184.3283371401341
 30
0.0
 40
5.000000000000113
  0
CIRCLE
  5
2063
330
2
100
AcDbEntity
  8
0
100
AcDbCircle
 10
135.1524670649727
 20
184.3283371401341
 30
0.0
 40
4.307179676972509
  0
ARC
  5
2064
330
2
100
AcDbEntity
  8
0
100
AcDbCircle
 10
134.6524670649736
 20
184.8283371401341
 30
0.0
 40
6.0
100
AcDbArc
 50
90.0
 51
180.0
  0
LINE
  5
2065
330
2
100
AcDbEntity
  8
0
100
AcDbLine
 10
135.1524670649727
 20
177.3283371401341
 30
0.0
 11
130.6524670649731
 21
177.3283371401341
 31
0.0
  0
ARC
  5
2066
330
2
100
AcDbEntity
  8
0
100
AcDbCircle
 10
126.6524670649727
 20
182.8283371401341
 30
0.0
 40
2.0
100
AcDbArc
 50
270.0
 51
0.0
  0
ARC
  5
2067
330
2
100
AcDbEntity
  8
0
100
AcDbCircle
 10
130.6524670649736
 20
175.3283371401341
 30
0.0
 40
2.0
100
AcDbArc
 50
90.0
 51
180.0
  0
ARC
  5
2068
330
2
100
AcDbEntity
  8
0
100
AcDbCircle
 10
123.6524670649727
 20
181.8283371401341
 30
0.0
 40
5.0
100
AcDbArc
 50
270.0
 51
0.0
  0
LINE
  5
2069
330
2
100
AcDbEntity
  8
CENTER
100
AcDbLine
 10
146.6524670649727
 20
191.5015422208909
 30
0.0
 11
146.6524670649727
 21
181.1551320593773
 31
0.0
  0
ARC
  5
206A
330
2
100
AcDbEntity
  8
0
100
AcDbCircle
 10
135.1524670649727
 20
184.3283371401341
 30
0.0
 40
7.0
100
AcDbArc
 50
270.0
 51
0.0
  0
LINE
  5
206B
330
2
100
AcDbEntity
  8
0
100
AcDbLine
 10
135.1524670649722
 20
181.441585794186
 30
0.0
 11
137.6524670649727
 21
182.8849614671601
 31
0.0
  0
LINE
  5
206C
330
2
100
AcDbEntity
  8
0
100
AcDbLine
 10
137.6524670649727
 20
185.7717128131082
 30
0.0
 11
135.1524670649727
 21
187.2150884860823
 31
0.0
  0
LINE
  5
206D
330
2
100
AcDbEntity
  8
CENTER
100
AcDbLine
 10
135.1524670649718
 20
193.0783371401341
 30
0.0
 11
135.1524670649727
 21
175.5783371401341
 31
0.0
  0
LINE
  5
206E
330
2
100
AcDbEntity
  8
0
100
AcDbLine
 10
132.6524670649727
 20
185.7717128131082
 30
0.0
 11
132.6524670649727
 21
182.8849614671601
 31
0.0
  0
LINE
  5
206F
330
2
100
AcDbEntity
  8
0
100
AcDbLine
 10
135.1524670649722
 20
181.441585794186
 30
0.0
 11
132.6524670649727
 21
182.8849614671601
 31
0.0
  0
LINE
  5
2070
330
2
100
AcDbEntity
  8
0
100
AcDbLine
 10
132.6524670649727
 20
185.7717128131082
 30
0.0
 11
135.1524670649727
 21
187.2150884860823
 31
0.0
  0
LINE
  5
2071
330
2
100
AcDbEntity
  8
0
100
AcDbLine
 10
142.1524670649727
 20
184.3283371401341
 30
0.0
 11
142.1524670649717
 21
188.8283371401341
 31
0.0
  0
ARC
  5
2072
330
2
100
AcDbEntity
  8
0
100
AcDbCircle
 10
144.1524670649718
 20
188.8283371401341
 30
0.0
 40
2.0
100
AcDbArc
 50
90.0
 51
180.0
  0
LINE
  5
2073
330
2
100
AcDbEntity
  8
0
100
AcDbLine
 10
137.6524670649727
 20
185.7717128131082
 30
0.0
 11
137.6524670649727
 21
182.8849614671601
 31
0.0
  0
CIRCLE
  5
2074
330
2
100
AcDbEntity
  8
HOJO
100
AcDbCircle
 10
146.6524670649727
 20
186.3283371401341
 30
0.0
 40
2.0
  0
LINE
  5
2075
330
2
100
AcDbEntity
  8
CENTER
100
AcDbLine
 10
141.4792619842159
 20
186.3283371401341
 30
0.0
 11
151.8256721457295
 21
186.3283371401341
 31
0.0
  0
CIRCLE
  5
2076
330
2
100
AcDbEntity
  8
0
100
AcDbCircle
 10
146.6524670649727
 20
186.3283371401341
 30
0.0
 40
2.5
  0
CIRCLE
  5
2077
330
2
100
AcDbEntity
  8
0
100
AcDbCircle
 10
146.6524670649727
 20
186.3283371401341
 30
0.0
 40
1.6
  0
CIRCLE
  5
2078
330
2
100
AcDbEntity
  8
0
100
AcDbCircle
 10
146.6524670649727
 20
186.3283371401341
 30
0.0
 40
3.0
  0
ARC
  5
2079
330
2
100
AcDbEntity
  8
0
100
AcDbCircle
 10
176.6524670649727
 20
200.8283371401341
 30
0.0
 40
5.0
100
AcDbArc
 50
78.19493218955852
 51
90.0
  0
LINE
  5
207A
330
2
100
AcDbEntity
  8
0
100
AcDbLine
 10
176.6524670649727
 20
205.8283371401341
 30
0.0
 11
173.6524670649763
 21
205.8283371401341
 31
0.0
  0
ARC
  5
207B
330
2
100
AcDbEntity
  8
0
100
AcDbCircle
 10
159.6524670649763
 20
196.8283371401341
 30
0.0
 40
6.0
100
AcDbArc
 50
270.0
 51
0.0
  0
LINE
  5
207C
330
2
100
AcDbEntity
  8
0
100
AcDbLine
 10
182.0458653471745
 20
189.4349388579323
 30
0.0
 11
180.6316517848012
 21
190.8491524203057
 31
0.0
  0
ARC
  5
207D
330
2
100
AcDbEntity
  8
0
100
AcDbCircle
 10
173.6524670649763
 20
197.8283371401341
 30
0.0
 40
8.0
100
AcDbArc
 50
90.0
 51
180.0
  0
LINE
  5
207E
330
2
100
AcDbEntity
  8
0
100
AcDbLine
 10
255.6524670649722
 20
130.8283371401341
 30
0.0
 11
255.6524670649727
 21
178.8283371401341
 31
0.0
  0
LINE
  5
207F
330
2
100
AcDbEntity
  8
0
100
AcDbLine
 10
257.6524670649727
 20
130.8283371401341
 30
0.0
 11
257.6524670649727
 21
178.8283371401341
 31
0.0
  0
ARC
  5
2080
330
2
100
AcDbEntity
  8
0
100
AcDbCircle
 10
216.6524670649727
 20
5.828337140134181
 30
0.0
 40
200.0
100
AcDbArc
 50
84.10530161364862
 51
95.89469838635137
  0
LINE
  5
2081
330
2
100
AcDbEntity
  8
0
100
AcDbLine
 10
240.6524670649726
 20
193.8283371401341
 30
0.0
 11
192.6524670649727
 21
193.8283371401341
 31
0.0
  0
LINE
  5
2082
330
2
100
AcDbEntity
  8
0
100
AcDbLine
 10
240.6524670649726
 20
195.8283371401341
 30
0.0
 11
192.6524670649727
 21
195.8283371401341
 31
0.0
  0
ARC
  5
2083
330
2
100
AcDbEntity
  8
0
100
AcDbCircle
 10
243.3545959952983
 20
264.4535414621188
 30
0.0
 40
60.0
100
AcDbArc
 50
264.1053016136486
 51
281.8050678104415
  0
LINE
  5
2084
330
2
100
AcDbEntity
  8
0
100
AcDbLine
 10
259.6524670649722
 20
205.8283371401341
 30
0.0
 11
256.6524670649727
 21
205.8283371401341
 31
0.0
  0
LINE
  5
2085
330
2
100
AcDbEntity
  8
0
100
AcDbLine
 10
257.1524670649727
 20
199.2717128131082
 30
0.0
 11
259.6524670649727
 21
200.7150884860823
 31
0.0
  0
ARC
  5
2086
330
2
100
AcDbEntity
  8
0
100
AcDbCircle
 10
256.6524670649727
 20
200.8283371401341
 30
0.0
 40
5.0
100
AcDbArc
 50
89.99999999994789
 51
101.8050678104414
  0
ARC
  5
2087
330
2
100
AcDbEntity
  8
0
100
AcDbCircle
 10
250.6524670649727
 20
202.884547009957
 30
0.0
 40
2.0
100
AcDbArc
 50
0.0
 51
96.7598199331168
  0
LINE
  5
2088
330
2
100
AcDbEntity
  8
0
100
AcDbLine
 10
259.6524670649727
 20
194.941585794186
 30
0.0
 11
257.1524670649727
 21
196.3849614671601
 31
0.0
  0
ARC
  5
2089
330
2
100
AcDbEntity
  8
0
100
AcDbCircle
 10
259.6524670649727
 20
197.8283371401341
 30
0.0
 40
7.0
100
AcDbArc
 50
180.0
 51
270.0
  0
LINE
  5
208A
330
2
100
AcDbEntity
  8
0
100
AcDbLine
 10
252.6732823451433
 20
190.8491524203057
 30
0.0
 11
251.2590687827708
 21
189.4349388579323
 31
0.0
  0
ARC
  5
208B
330
2
100
AcDbEntity
  8
0
100
AcDbCircle
 10
240.6524670649726
 20
178.8283371401341
 30
0.0
 40
15.0
100
AcDbArc
 50
0.0
 51
90.0
  0
LINE
  5
208C
330
2
100
AcDbEntity
  8
CENTER
100
AcDbLine
 10
261.6524670649727
 20
190.4242795277007
 30
0.0
 11
261.6524670649727
 21
182.2323947525676
 31
0.0
  0
LINE
  5
208D
330
2
100
AcDbEntity
  8
0
100
AcDbLine
 10
252.6524670649727
 20
197.8283371401341
 30
0.0
 11
252.6524670649727
 21
202.884547009957
 31
0.0
  0
LINE
  5
208E
330
2
100
AcDbEntity
  8
0
100
AcDbLine
 10
257.1524670649727
 20
199.2717128131082
 30
0.0
 11
257.1524670649727
 21
196.3849614671601
 31
0.0
  0
ARC
  5
208F
330
2
100
AcDbEntity
  8
0
100
AcDbCircle
 10
240.6524670649726
 20
178.8283371401341
 30
0.0
 40
17.0
100
AcDbArc
 50
0.0
 51
90.0
  0
LINE
  5
2090
330
2
100
AcDbEntity
  8
CENTER
100
AcDbLine
 10
259.6524670649777
 20
206.5783371401341
 30
0.0
 11
259.6524670649763
 21
189.0783371401341
 31
0.0
  0
LINE
  5
2091
330
2
100
AcDbEntity
  8
0
100
AcDbLine
 10
371.1611179538458
 20
121.8283371401341
 30
0.0
 11
371.1611179538404
 21
187.8283371401341
 31
0.0
  0
LINE
  5
2092
330
2
100
AcDbEntity
  8
0
100
AcDbLine
 10
367.461117953846
 20
121.8283371401341
 30
0.0
 11
367.4611179538405
 21
187.8283371401341
 31
0.0
  0
LINE
  5
2093
330
2
100
AcDbEntity
  8
0
100
AcDbLine
 10
368.9611179538451
 20
122.0283371401349
 30
0.0
 11
368.9611179538451
 21
187.6283371401352
 31
0.0
  0
LINE
  5
2094
330
2
100
AcDbEntity
  8
0
100
AcDbLine
 10
374.9611179538469
 20
116.6567642648735
 30
0.0
 11
374.9611179538405
 21
190.3283371401341
 31
0.0
  0
LINE
  5
2095
330
2
100
AcDbEntity
  8
0
100
AcDbLine
 10
370.9611179538451
 20
122.0283371401349
 30
0.0
 11
370.9611179538451
 21
187.6283371401389
 31
0.0
  0
LINE
  5
2096
330
2
100
AcDbEntity
  8
0
100
AcDbLine
 10
374.461117953846
 20
119.8283371401341
 30
0.0
 11
374.4611179538378
 21
189.8283371401305
 31
0.0
  0
LINE
  5
2097
330
2
100
AcDbEntity
  8
0
100
AcDbLine
 10
366.4611179538405
 20
122.405687409326
 30
0.0
 11
366.4611179538405
 21
187.2509868709441
 31
0.0
  0
ARC
  5
2099
330
2
100
AcDbEntity
  8
0
100
AcDbCircle
 10
326.2776713869565
 20
128.1262082098094
 30
0.0
 40
60.0
100
AcDbArc
 50
174.1053016136486
 51
191.8050678104415
  0
LINE
  5
209A
330
2
100
AcDbEntity
  8
0
100
AcDbLine
 10
376.9611179538378
 20
105.9462260120819
 30
0.0
 11
376.9611179538405
 21
203.7104482681864
 31
0.0
  0
LINE
  5
209B
330
2
100
AcDbEntity
  8
0
100
AcDbLine
 10
267.6524670649726
 20
111.8283371401341
 30
0.0
 11
267.6524670649726
 21
114.8283371401323
 31
0.0
  0
ARC
  5
209C
330
2
100
AcDbEntity
  8
0
100
AcDbCircle
 10
262.6524670649718
 20
114.8283371401341
 30
0.0
 40
5.0
100
AcDbArc
 50
0.0
 51
11.80506781044149
  0
ARC
  5
209D
330
2
100
AcDbEntity
  8
0
100
AcDbCircle
 10
264.7086769347946
 20
120.8283371401341
 30
0.0
 40
2.0
100
AcDbArc
 50
269.9999999999478
 51
6.759819933116788
  0
LINE
  5
209E
330
2
100
AcDbEntity
  8
0
100
AcDbLine
 10
262.1524670649772
 20
113.2717128131082
 30
0.0
 11
262.1524670649772
 21
110.3849614671601
 31
0.0
  0
LINE
  5
209F
330
2
100
AcDbEntity
  8
0
100
AcDbLine
 10
377.8611179539166
 20
116.8283371401341
 30
0.0
 11
377.4611179539169
 21
116.1355168171069
 31
0.0
  0
ARC
  5
20A0
330
2
100
AcDbEntity
  8
0
100
AcDbCircle
 10
370.7611179538453
 20
122.3283371401341
 30
0.0
 40
0.2
100
AcDbArc
 50
0.0
 51
90.0
  0
ARC
  5
20A1
330
2
100
AcDbEntity
  8
0
100
AcDbCircle
 10
369.1611179538458
 20
122.3283371401341
 30
0.0
 40
0.2
100
AcDbArc
 50
90.0
 51
180.0
  0
ARC
  5
20A2
330
2
100
AcDbEntity
  8
0
100
AcDbCircle
 10
368.7611179538453
 20
122.0283371401349
 30
0.0
 40
0.2
100
AcDbArc
 50
270.0
 51
0.0
  0
ARC
  5
20A3
330
2
100
AcDbEntity
  8
0
100
AcDbCircle
 10
374.9611179538405
 20
112.9999100153875
 30
0.0
 40
2.0
100
AcDbArc
 50
0.0
 51
44.99999999999078
  0
ARC
  5
20A4
330
2
100
AcDbEntity
  8
0
100
AcDbCircle
 10
376.9611179538469
 20
116.6567642648753
 30
0.0
 40
2.0
100
AcDbArc
 50
180.0
 51
224.9999999999908
  0
LINE
  5
20A5
330
2
100
AcDbEntity
  8
0
100
AcDbLine
 10
369.1611179538458
 20
122.5283371401349
 30
0.0
 11
370.7611179538453
 21
122.5283371401349
 31
0.0
  0
LINE
  5
20A6
330
2
100
AcDbEntity
  8
0
100
AcDbLine
 10
367.4611179538451
 20
121.8283371401341
 30
0.0
 11
368.7611179538453
 21
121.8283371401341
 31
0.0
  0
LINE
  5
20A7
330
2
100
AcDbEntity
  8
0
100
AcDbLine
 10
367.461117953846
 20
121.8283371401341
 30
0.0
 11
366.4611179538451
 21
122.4056874093241
 31
0.0
  0
LINE
  5
20A8
330
2
100
AcDbEntity
  8
0
100
AcDbLine
 10
374.461117953846
 20
119.8283371401341
 30
0.0
 11
374.961117953846
 21
119.3283371401359
 31
0.0
  0
LINE
  5
20A9
330
2
100
AcDbEntity
  8
0
100
AcDbLine
 10
371.1611179538458
 20
121.8283371401341
 30
0.0
 11
374.461117953846
 21
121.8283371401341
 31
0.0
  0
LINE
  5
20AA
330
2
100
AcDbEntity
  8
0
100
AcDbLine
 10
370.9611179538451
 20
122.0283371401349
 30
0.0
 11
371.1611179538458
 21
121.8283371401341
 31
0.0
  0
LINE
  5
20AB
330
2
100
AcDbEntity
  8
0
100
AcDbLine
 10
376.3753315162139
 20
114.4141235777608
 30
0.0
 11
375.5469043914736
 21
115.242550702502
 31
0.0
  0
ARC
  5
20AC
330
2
100
AcDbEntity
  8
0
100
AcDbCircle
 10
378.9611179538378
 20
120.8807745036522
 30
0.0
 40
2.0
100
AcDbArc
 50
180.0
 51
269.4999999999823
  0
ARC
  5
20AD
330
2
100
AcDbEntity
  8
0
100
AcDbCircle
 10
378.9611179538378
 20
105.9462260120819
 30
0.0
 40
2.0
100
AcDbArc
 50
180.0
 51
269.4999999999823
  0
LINE
  5
20AE
330
2
100
AcDbEntity
  8
0
100
AcDbLine
 10
377.8611179539166
 20
106.8283371401341
 30
0.0
 11
377.4611179539169
 21
107.5211574631614
 31
0.0
  0
LINE
  5
20AF
330
2
100
AcDbEntity
  8
0
100
AcDbLine
 10
377.4611179539169
 20
107.5211574631614
 30
0.0
 11
377.4611179539169
 21
116.1355168171069
 31
0.0
  0
LINE
  5
20B0
330
2
100
AcDbEntity
  8
0
100
AcDbLine
 10
377.8611179539166
 20
106.8283371401341
 30
0.0
 11
377.8611179539166
 21
116.8283371401341
 31
0.0
  0
ARC
  5
20B1
330
2
100
AcDbEntity
  8
0
100
AcDbCircle
 10
67.65246706497271
 20
154.8283371401341
 30
0.0
 40
200.0
100
AcDbArc
 50
354.1053016136486
 51
5.894698386351389
  0
ARC
  5
20B2
330
2
100
AcDbEntity
  8
0
100
AcDbCircle
 10
262.6524670649718
 20
194.8283371401341
 30
0.0
 40
5.0
100
AcDbArc
 50
348.1949321895584
 51
0.0
  0
LINE
  5
20B3
330
2
100
AcDbEntity
  8
0
100
AcDbLine
 10
267.6524670649726
 20
194.8283371401323
 30
0.0
 11
267.6524670649726
 21
197.8283371401341
 31
0.0
  0
ARC
  5
20B4
330
2
100
AcDbEntity
  8
0
100
AcDbCircle
 10
264.7086769347946
 20
188.8283371401341
 30
0.0
 40
2.0
100
AcDbArc
 50
353.2401800668832
 51
90.0
  0
ARC
  5
20B5
330
2
100
AcDbEntity
  8
0
100
AcDbCircle
 10
326.2776713869574
 20
181.5304660704589
 30
0.0
 40
60.0
100
AcDbArc
 50
168.1949321895585
 51
185.8946983863513
  0
LINE
  5
20B6
330
2
100
AcDbEntity
  8
0
100
AcDbLine
 10
262.1524670649727
 20
199.2717128131082
 30
0.0
 11
262.1524670649727
 21
196.3849614671601
 31
0.0
  0
ARC
  5
20B7
330
2
100
AcDbEntity
  8
0
100
AcDbCircle
 10
378.9611179538378
 20
203.7104482681864
 30
0.0
 40
2.0
100
AcDbArc
 50
90.50000000001762
 51
180.0
  0
LINE
  5
20B8
330
2
100
AcDbEntity
  8
0
100
AcDbLine
 10
377.8611179539166
 20
202.8283371401341
 30
0.0
 11
377.4611179539169
 21
202.1355168171069
 31
0.0
  0
ARC
  5
20B9
330
2
100
AcDbEntity
  8
0
100
AcDbCircle
 10
376.9611179538415
 20
192.9999100153893
 30
0.0
 40
2.0
100
AcDbArc
 50
135.0000000000092
 51
180.0
  0
LINE
  5
20BA
330
2
100
AcDbEntity
  8
0
100
AcDbLine
 10
377.8611179539166
 20
192.8283371401341
 30
0.0
 11
377.4611179539169
 21
193.5211574631614
 31
0.0
  0
ARC
  5
20BB
330
2
100
AcDbEntity
  8
0
100
AcDbCircle
 10
378.9611179538378
 20
188.7758997766161
 30
0.0
 40
2.0
100
AcDbArc
 50
90.50000000001762
 51
180.0
  0
ARC
  5
20BC
330
2
100
AcDbEntity
  8
0
100
AcDbCircle
 10
370.7611179538407
 20
187.3283371401342
 30
0.0
 40
0.2
100
AcDbArc
 50
270.0
 51
0.0
  0
ARC
  5
20BD
330
2
100
AcDbEntity
  8
0
100
AcDbCircle
 10
369.1611179538404
 20
187.3283371401342
 30
0.0
 40
0.2
100
AcDbArc
 50
180.0
 51
270.0
  0
ARC
  5
20BE
330
2
100
AcDbEntity
  8
0
100
AcDbCircle
 10
368.7611179538407
 20
187.6283371401352
 30
0.0
 40
0.2
100
AcDbArc
 50
0.0
 51
90.0
  0
LINE
  5
20BF
330
2
100
AcDbEntity
  8
0
100
AcDbLine
 10
369.1611179538404
 20
187.1283371401352
 30
0.0
 11
370.7611179538407
 21
187.1283371401352
 31
0.0
  0
LINE
  5
20C0
330
2
100
AcDbEntity
  8
0
100
AcDbLine
 10
367.4611179538405
 20
187.8283371401341
 30
0.0
 11
368.7611179538407
 21
187.8283371401341
 31
0.0
  0
LINE
  5
20C1
330
2
100
AcDbEntity
  8
0
100
AcDbLine
 10
367.4611179538405
 20
187.8283371401341
 30
0.0
 11
366.4611179538405
 21
187.2509868709441
 31
0.0
  0
LINE
  5
20C2
330
2
100
AcDbEntity
  8
0
100
AcDbLine
 10
371.1611179538404
 20
187.8283371401341
 30
0.0
 11
374.4611179538405
 21
187.8283371401341
 31
0.0
  0
LINE
  5
20C3
330
2
100
AcDbEntity
  8
0
100
AcDbLine
 10
374.9611179538415
 20
192.9999100153893
 30
0.0
 11
374.9611179538405
 21
190.3283371401341
 31
0.0
  0
LINE
  5
20C4
330
2
100
AcDbEntity
  8
0
100
AcDbLine
 10
374.4611179538405
 20
189.8283371401341
 30
0.0
 11
374.9611179538405
 21
190.3283371401341
 31
0.0
  0
LINE
  5
20C5
330
2
100
AcDbEntity
  8
0
100
AcDbLine
 10
370.9611179538406
 20
187.6283371401352
 30
0.0
 11
371.1611179538404
 21
187.8283371401341
 31
0.0
  0
ARC
  5
20C6
330
2
100
AcDbEntity
  8
0
100
AcDbCircle
 10
374.9611179538405
 20
196.6567642648808
 30
0.0
 40
2.0
100
AcDbArc
 50
315.0000000000092
 51
0.0
  0
LINE
  5
20C7
330
2
100
AcDbEntity
  8
0
100
AcDbLine
 10
376.3753315162139
 20
195.2425507025075
 30
0.0
 11
375.5469043914681
 21
194.4141235777608
 31
0.0
  0
LINE
  5
20C8
330
2
100
AcDbEntity
  8
0
100
AcDbLine
 10
377.4611179539169
 20
202.1355168171069
 30
0.0
 11
377.4611179539169
 21
193.5211574631614
 31
0.0
  0
LINE
  5
20C9
330
2
100
AcDbEntity
  8
0
100
AcDbLine
 10
377.8611179539166
 20
202.8283371401341
 30
0.0
 11
377.8611179539166
 21
192.8283371401341
 31
0.0
  0
LINE
  5
20CC
330
2
100
AcDbEntity
  8
0
100
AcDbLine
 10
477.461117953846
 20
186.8969595905202
 30
0.0
 11
477.4611179538469
 21
122.7597146897462
 31
0.0
  0
LINE
  5
20CD
330
2
100
AcDbEntity
  8
0
100
AcDbLine
 10
463.4611179538451
 20
109.8283371401341
 30
0.0
 11
463.4611179538392
 21
199.8283371401342
 31
0.0
  0
LINE
  5
20CE
330
2
100
AcDbEntity
  8
0
100
AcDbLine
 10
458.4611179538451
 20
104.404310414324
 30
0.0
 11
458.4611179538451
 21
205.2523638659442
 31
0.0
  0
LINE
  5
20CF
330
2
100
AcDbEntity
  8
0
100
AcDbLine
 10
392.461117953846
 20
103.8283371401341
 30
0.0
 11
392.461117953846
 21
205.8283371401341
 31
0.0
  0
LINE
  5
20D0
330
2
100
AcDbEntity
  8
0
100
AcDbLine
 10
392.4611179538437
 20
114.8283371401341
 30
0.0
 11
457.4611179538428
 21
114.8283371401341
 31
0.0
  0
LINE
  5
20D1
330
2
100
AcDbEntity
  8
0
100
AcDbLine
 10
392.461117953846
 20
111.828337140136
 30
0.0
 11
457.4611179538451
 21
111.828337140136
 31
0.0
  0
LINE
  5
20D2
330
2
100
AcDbEntity
  8
0
100
AcDbLine
 10
392.4611179538437
 20
114.8283371401341
 30
0.0
 11
457.4611179538428
 21
114.8283371401341
 31
0.0
  0
LINE
  5
20D3
330
2
100
AcDbEntity
  8
0
100
AcDbLine
 10
392.461117953846
 20
103.8283371401341
 30
0.0
 11
458.4611179538451
 21
104.404310414324
 31
0.0
  0
ARC
  5
20D4
330
2
100
AcDbEntity
  8
0
100
AcDbCircle
 10
383.9611179539169
 20
117.8370259295409
 30
0.0
 40
1.0
100
AcDbArc
 50
0.0
 51
89.50000000003447
  0
LINE
  5
20D5
330
2
100
AcDbEntity
  8
0
100
AcDbLine
 10
385.9523914184183
 20
114.8283371401341
 30
0.0
 11
392.4611179538478
 21
114.8283371401341
 31
0.0
  0
LINE
  5
20D6
330
2
100
AcDbEntity
  8
0
100
AcDbLine
 10
385.9523914184183
 20
111.8283371401341
 30
0.0
 11
392.4611179538487
 21
111.8283371401341
 31
0.0
  0
ARC
  5
20D7
330
2
100
AcDbEntity
  8
0
100
AcDbCircle
 10
385.9611179539169
 20
104.8850998591608
 30
0.0
 40
1.0
100
AcDbArc
 50
180.0
 51
269.4999999999823
  0
LINE
  5
20D8
330
2
100
AcDbEntity
  8
0
100
AcDbLine
 10
384.961117953917
 20
104.8850998591608
 30
0.0
 11
384.961117953917
 21
117.8370259295409
 31
0.0
  0
LINE
  5
20D9
330
2
100
AcDbEntity
  8
0
100
AcDbLine
 10
384.961117953917
 20
116.8283371401341
 30
0.0
 11
384.961117953917
 21
106.8283371401341
 31
0.0
  0
LINE
  5
20DA
330
2
100
AcDbEntity
  8
0
100
AcDbLine
 10
383.4611179539165
 20
106.8283371401341
 30
0.0
 11
383.461117953916
 21
116.8283371401341
 31
0.0
  0
ARC
  5
20DB
330
2
100
AcDbEntity
  8
0
100
AcDbCircle
 10
465.4611179538465
 20
118.4080688176347
 30
0.0
 40
2.0
100
AcDbArc
 50
92.0000000000037
 51
180.0
  0
ARC
  5
20DC
330
2
100
AcDbEntity
  8
0
100
AcDbCircle
 10
475.461117953847
 20
122.7597146897462
 30
0.0
 40
2.0
100
AcDbArc
 50
272.0000000000037
 51
0.0
  0
LINE
  5
20DD
330
2
100
AcDbEntity
  8
0
100
AcDbLine
 10
465.3913189604418
 20
120.4068504716726
 30
0.0
 11
475.5309169472516
 21
120.7609330357083
 31
0.0
  0
LINE
  5
20DE
330
2
100
AcDbEntity
  8
0
100
AcDbLine
 10
458.4611179538451
 20
109.8283371401341
 30
0.0
 11
463.4611179538451
 21
109.8283371401341
 31
0.0
  0
LINE
  5
20DF
330
2
100
AcDbEntity
  8
0
100
AcDbLine
 10
392.461117953846
 20
205.8283371401341
 30
0.0
 11
458.4611179538451
 21
205.2523638659442
 31
0.0
  0
LINE
  5
20E0
330
2
100
AcDbEntity
  8
0
100
AcDbLine
 10
392.461117953846
 20
175.3684363173054
 30
0.0
 11
457.4611179538451
 21
175.3684363173054
 31
0.0
  0
LINE
  5
20E1
330
2
100
AcDbEntity
  8
0
100
AcDbLine
 10
392.461117953846
 20
194.8283371401323
 30
0.0
 11
457.4611179538451
 21
194.8283371401323
 31
0.0
  0
LINE
  5
20E2
330
2
100
AcDbEntity
  8
0
100
AcDbLine
 10
392.461117953846
 20
197.8283371401341
 30
0.0
 11
457.4611179538451
 21
197.8283371401341
 31
0.0
  0
LINE
  5
20E3
330
2
100
AcDbEntity
  8
0
100
AcDbLine
 10
392.461117953846
 20
134.2882379629647
 30
0.0
 11
457.4611179538451
 21
134.2882379629647
 31
0.0
  0
ARC
  5
20E4
330
2
100
AcDbEntity
  8
0
100
AcDbCircle
 10
385.9611179539169
 20
204.7715744211075
 30
0.0
 40
1.0
100
AcDbArc
 50
90.50000000001762
 51
180.0
  0
ARC
  5
20E5
330
2
100
AcDbEntity
  8
0
100
AcDbCircle
 10
383.9611179539169
 20
191.8196483507292
 30
0.0
 40
1.0
100
AcDbArc
 50
270.4999999999655
 51
0.0
  0
LINE
  5
20E6
330
2
100
AcDbEntity
  8
0
100
AcDbLine
 10
392.461117953846
 20
194.8283371401323
 30
0.0
 11
385.9523914184183
 21
194.8283371401323
 31
0.0
  0
LINE
  5
20E7
330
2
100
AcDbEntity
  8
0
100
AcDbLine
 10
392.461117953846
 20
197.8283371401341
 30
0.0
 11
385.9523914184183
 21
197.8283371401341
 31
0.0
  0
LINE
  5
20E8
330
2
100
AcDbEntity
  8
0
100
AcDbLine
 10
384.961117953917
 20
192.8283371401341
 30
0.0
 11
384.961117953917
 21
202.8283371401341
 31
0.0
  0
LINE
  5
20E9
330
2
100
AcDbEntity
  8
0
100
AcDbLine
 10
383.4611179539165
 20
202.8283371401341
 30
0.0
 11
383.461117953916
 21
192.8283371401341
 31
0.0
  0
LINE
  5
20EA
330
2
100
AcDbEntity
  8
0
100
AcDbLine
 10
384.961117953917
 20
204.7715744211075
 30
0.0
 11
384.961117953917
 21
191.8196483507292
 31
0.0
  0
LINE
  5
20EB
330
2
100
AcDbEntity
  8
0
100
AcDbLine
 10
479.4611179538451
 20
165.8283371401341
 30
0.0
 11
518.9611179538446
 21
165.8283371401341
 31
0.0
  0
LINE
  5
20EC
330
2
100
AcDbEntity
  8
0
100
AcDbLine
 10
518.9611179538456
 20
143.8283371401346
 30
0.0
 11
479.4611179538451
 21
143.8283371401341
 31
0.0
  0
LINE
  5
20ED
330
2
100
AcDbEntity
  8
0
100
AcDbLine
 10
478.0592738395357
 20
171.5603419477031
 30
0.0
 11
478.2111179538451
 21
171.4726747074316
 31
0.0
  0
LINE
  5
20EE
330
2
100
AcDbEntity
  8
0
100
AcDbLine
 10
479.4611179538451
 20
166.8283371401341
 30
0.0
 11
478.4611179538451
 21
167.4056874093237
 31
0.0
  0
ARC
  5
20EF
330
2
100
AcDbEntity
  8
0
100
AcDbCircle
 10
477.0592738395357
 20
169.828291140134
 30
0.0
 40
2.0
100
AcDbArc
 50
59.99999999999946
 51
78.40911640330533
  0
ARC
  5
20F0
330
2
100
AcDbEntity
  8
0
100
AcDbCircle
 10
477.9611179538451
 20
171.0396620055396
 30
0.0
 40
0.5
100
AcDbArc
 50
0.0
 51
59.99999999999946
  0
LINE
  5
20F1
330
2
100
AcDbEntity
  8
0
100
AcDbLine
 10
478.0592738395357
 20
138.0963323325652
 30
0.0
 11
478.2111179538451
 21
138.1839995728366
 31
0.0
  0
ARC
  5
20F2
330
2
100
AcDbEntity
  8
0
100
AcDbCircle
 10
477.0592738395357
 20
139.8283831401343
 30
0.0
 40
2.0
100
AcDbArc
 50
281.5908835966946
 51
300.0000000000005
  0
ARC
  5
20F3
330
2
100
AcDbEntity
  8
0
100
AcDbCircle
 10
477.9611179538451
 20
138.6170122747291
 30
0.0
 40
0.5
100
AcDbArc
 50
300.0000000000005
 51
0.0
  0
LINE
  5
20F4
330
2
100
AcDbEntity
  8
0
100
AcDbLine
 10
479.4611179538451
 20
142.8283371401341
 30
0.0
 11
478.4611179538451
 21
142.2509868709446
 31
0.0
  0
LINE
  5
20F5
330
2
100
AcDbEntity
  8
0
100
AcDbLine
 10
478.4611179538451
 20
171.0396620055396
 30
0.0
 11
478.4611179538451
 21
138.6170122747291
 31
0.0
  0
LINE
  5
20F6
330
2
100
AcDbEntity
  8
0
100
AcDbLine
 10
479.4611179538451
 20
166.8283371401341
 30
0.0
 11
479.4611179538451
 21
142.8283371401341
 31
0.0
  0
LINE
  5
20F7
330
2
100
AcDbEntity
  8
0
100
AcDbLine
 10
518.9611179538446
 20
165.8283371401341
 30
0.0
 11
519.4611179538447
 21
165.3283371401341
 31
0.0
  0
LINE
  5
20F8
330
2
100
AcDbEntity
  8
0
100
AcDbLine
 10
519.4611179538456
 20
144.3283371401346
 30
0.0
 11
518.9611179538456
 21
143.8283371401346
 31
0.0
  0
LINE
  5
20F9
330
2
100
AcDbEntity
  8
0
100
AcDbLine
 10
518.9611179538456
 20
143.8283371401346
 30
0.0
 11
518.9611179538446
 21
165.8283371401341
 31
0.0
  0
LINE
  5
20FA
330
2
100
AcDbEntity
  8
0
100
AcDbLine
 10
519.4611179538447
 20
165.3283371401341
 30
0.0
 11
519.4611179538456
 21
144.3283371401346
 31
0.0
  0
LINE
  5
20FB
330
2
100
AcDbEntity
  8
0
100
AcDbLine
 10
458.4611179538451
 20
199.8283371401342
 30
0.0
 11
463.4611179538451
 21
199.8283371401342
 31
0.0
  0
ARC
  5
20FC
330
2
100
AcDbEntity
  8
0
100
AcDbCircle
 10
465.4611179538465
 20
191.2486054626335
 30
0.0
 40
2.0
100
AcDbArc
 50
180.0
 51
267.9999999999963
  0
ARC
  5
20FD
330
2
100
AcDbEntity
  8
0
100
AcDbCircle
 10
475.461117953846
 20
186.8969595905202
 30
0.0
 40
2.0
100
AcDbArc
 50
0.0
 51
87.99999999999627
  0
LINE
  5
20FE
330
2
100
AcDbEntity
  8
0
100
AcDbLine
 10
465.3913189604418
 20
189.2498238085938
 30
0.0
 11
475.5309169472512
 21
188.8957412445581
 31
0.0
  0
LINE
  5
2100
330
2
100
AcDbEntity
  8
CENTER
100
AcDbLine
 10
754.6335898757787
 20
229.8283371401341
 30
0.0
 11
754.6335898757787
 21
79.82833714013418
 31
0.0
  0
LINE
  5
2102
330
2
100
AcDbEntity
  8
0
100
AcDbLine
 10
1089.079427399207
 20
143.8283371401282
 30
0.0
 11
1128.579427399208
 21
143.8283371401278
 31
0.0
  0
LINE
  5
2103
330
2
100
AcDbEntity
  8
0
100
AcDbLine
 10
1128.579427399208
 20
165.8283371401278
 30
0.0
 11
1089.079427399208
 21
165.8283371401278
 31
0.0
  0
LINE
  5
2104
330
2
100
AcDbEntity
  8
0
100
AcDbLine
 10
836.6335898757773
 20
118.8283371401341
 30
0.0
 11
811.6335898757769
 21
118.8283371401341
 31
0.0
  0
LINE
  5
2105
330
2
100
AcDbEntity
  8
0
100
AcDbLine
 10
836.6335898757773
 20
190.8283371401341
 30
0.0
 11
811.6335898757814
 21
190.8283371401341
 31
0.0
  0
LINE
  5
2106
330
2
100
AcDbEntity
  8
0
100
AcDbLine
 10
805.6335898757819
 20
197.8283371401323
 30
0.0
 11
805.6335898757769
 21
111.8283371401323
 31
0.0
  0
ARC
  5
2107
330
2
100
AcDbEntity
  8
0
100
AcDbCircle
 10
645.0083855537912
 20
128.1262082098076
 30
0.0
 40
60.0
100
AcDbArc
 50
348.1949321895584
 51
5.894698386351389
  0
CIRCLE
  5
2108
330
2
100
AcDbEntity
  8
0
100
AcDbCircle
 10
754.6335898757787
 20
154.8283371401341
 30
0.0
 40
34.0
  0
CIRCLE
  5
2109
330
2
100
AcDbEntity
  8
0
100
AcDbCircle
 10
754.6335898757787
 20
154.8283371401341
 30
0.0
 40
26.0
  0
CIRCLE
  5
210A
330
2
100
AcDbEntity
  8
0
100
AcDbCircle
 10
754.6335898757787
 20
154.8283371401341
 30
0.0
 40
45.0
  0
LINE
  5
210B
330
2
100
AcDbEntity
  8
CENTER
100
AcDbLine
 10
698.9056678144205
 20
210.5562592014912
 30
0.0
 11
810.3615119371355
 21
99.10041507877735
 31
0.0
  0
LINE
  5
210C
330
2
100
AcDbEntity
  8
CENTER
100
AcDbLine
 10
810.3615119371383
 20
210.5562592014933
 30
0.0
 11
698.9056678144205
 21
99.10041507877691
 31
0.0
  0
CIRCLE
  5
210D
330
2
100
AcDbEntity
  8
CENTER
100
AcDbCircle
 10
754.6335898757778
 20
154.8283371401341
 30
0.0
 40
60.0
  0
ARC
  5
210E
330
2
100
AcDbEntity
  8
0
100
AcDbCircle
 10
758.1317463660306
 20
116.3312567335744
 30
0.0
 40
2.720000000003957
100
AcDbArc
 50
307.5189678668038
 51
90.0
  0
ARC
  5
2110
330
2
100
AcDbEntity
  8
0
100
AcDbCircle
 10
754.6335898757755
 20
303.8283371401323
 30
0.0
 40
200.0
100
AcDbArc
 50
264.1053016135961
 51
275.8946983863513
  0
LINE
  5
2111
330
2
100
AcDbEntity
  8
0
100
AcDbLine
 10
755.7518191260259
 20
115.9912567335725
 30
0.0
 11
758.8953593842132
 21
111.0512567335665
 31
0.0
  0
ARC
  5
2112
330
2
100
AcDbEntity
  8
0
100
AcDbCircle
 10
727.9314609454503
 20
45.20313281814765
 30
0.0
 40
60.0
100
AcDbArc
 50
84.10530161364862
 51
101.8050678104414
  0
LINE
  5
2113
330
2
100
AcDbEntity
  8
CENTER
100
AcDbLine
 10
720.207183004585
 20
112.4019302689432
 30
0.0
 11
704.207183004585
 21
112.4019302689432
 31
0.0
  0
LINE
  5
2114
330
2
100
AcDbEntity
  8
0
100
AcDbLine
 10
703.6335898757787
 20
114.8283371401323
 30
0.0
 11
703.6335898757787
 21
111.8283371401341
 31
0.0
  0
ARC
  5
2115
330
2
100
AcDbEntity
  8
0
100
AcDbCircle
 10
708.6335898757759
 20
114.8283371401323
 30
0.0
 40
5.0
100
AcDbArc
 50
168.1949321895585
 51
180.0
  0
LINE
  5
2116
330
2
100
AcDbEntity
  8
0
100
AcDbLine
 10
711.6335898757787
 20
103.8283371401341
 30
0.0
 11
714.6335898757755
 21
103.8283371401341
 31
0.0
  0
ARC
  5
2117
330
2
100
AcDbEntity
  8
0
100
AcDbCircle
 10
714.6335898757755
 20
108.8283371401323
 30
0.0
 40
5.0
100
AcDbArc
 50
269.9999999999478
 51
281.8050678104415
  0
CIRCLE
  5
2118
330
2
100
AcDbEntity
  8
HOJO
100
AcDbCircle
 10
712.207183004585
 20
112.4019302689414
 30
0.0
 40
4.0
  0
CIRCLE
  5
2119
330
2
100
AcDbEntity
  8
0
100
AcDbCircle
 10
712.207183004585
 20
112.4019302689396
 30
0.0
 40
3.2
  0
LINE
  5
211A
330
2
100
AcDbEntity
  8
CENTER
100
AcDbLine
 10
712.207183004585
 20
120.4019302689432
 30
0.0
 11
712.207183004585
 21
104.4019302689432
 31
0.0
  0
ARC
  5
211B
330
2
100
AcDbEntity
  8
0
100
AcDbCircle
 10
711.6335898757787
 20
111.8283371401341
 30
0.0
 40
8.0
100
AcDbArc
 50
180.0
 51
270.0
  0
LINE
  5
211C
330
2
100
AcDbEntity
  8
0
100
AcDbLine
 10
750.9718203673473
 20
112.2512567335691
 30
0.0
 11
753.0118191260225
 21
112.2512567335672
 31
0.0
  0
LINE
  5
211D
330
2
100
AcDbEntity
  8
0
100
AcDbLine
 10
752.2518203673497
 20
114.8112567335704
 30
0.0
 11
753.0118191260225
 21
114.8112567335704
 31
0.0
  0
LINE
  5
211E
330
2
100
AcDbEntity
  8
0
100
AcDbLine
 10
753.0118191260225
 20
116.3312542509177
 30
0.0
 11
753.0118191260225
 21
114.8112567335704
 31
0.0
  0
LINE
  5
211F
330
2
100
AcDbEntity
  8
0
100
AcDbLine
 10
753.0118191260225
 20
116.3312542509177
 30
0.0
 11
752.2518203673497
 21
114.8112567335704
 31
0.0
  0
LINE
  5
2120
330
2
100
AcDbEntity
  8
0
100
AcDbLine
 10
755.4117463660258
 20
116.3312567335744
 30
0.0
 11
757.9618191260286
 21
116.3312567335744
 31
0.0
  0
LINE
  5
2121
330
2
100
AcDbEntity
  8
0
100
AcDbLine
 10
755.7518191260259
 20
115.9912567335725
 30
0.0
 11
757.9618191260305
 21
115.9912567335725
 31
0.0
  0
ARC
  5
2122
330
2
100
AcDbEntity
  8
0
100
AcDbCircle
 10
757.9618191260305
 20
116.1612567335726
 30
0.0
 40
0.1700000000002474
100
AcDbArc
 50
270.0
 51
90.0
  0
LINE
  5
2123
330
2
100
AcDbEntity
  8
0
100
AcDbLine
 10
751.4918191260202
 20
119.0512567335774
 30
0.0
 11
758.1317463660306
 21
119.0512567335774
 31
0.0
  0
LINE
  5
2124
330
2
100
AcDbEntity
  8
0
100
AcDbLine
 10
747.4918191260147
 20
111.0512567335665
 30
0.0
 11
750.3718203673469
 21
111.0512567335665
 31
0.0
  0
LINE
  5
2125
330
2
100
AcDbEntity
  8
0
100
AcDbLine
 10
753.0118191260225
 20
111.0512567335665
 30
0.0
 11
755.4117463660258
 21
111.0512567335647
 31
0.0
  0
LINE
  5
2126
330
2
100
AcDbEntity
  8
0
100
AcDbLine
 10
751.4918191260202
 20
119.0512567335774
 30
0.0
 11
747.4918191260147
 21
111.0512567335665
 31
0.0
  0
LINE
  5
2127
330
2
100
AcDbEntity
  8
0
100
AcDbLine
 10
755.4117463660258
 20
116.3312567335744
 30
0.0
 11
755.4117463660258
 21
111.0512567335647
 31
0.0
  0
LINE
  5
2128
330
2
100
AcDbEntity
  8
0
100
AcDbLine
 10
750.9718203673473
 20
112.2512567335691
 30
0.0
 11
750.3718203673469
 21
111.0512567335665
 31
0.0
  0
LINE
  5
2129
330
2
100
AcDbEntity
  8
0
100
AcDbLine
 10
753.0118191260225
 20
112.2512567335672
 30
0.0
 11
753.0118191260225
 21
111.0512567335665
 31
0.0
  0
LINE
  5
212A
330
2
100
AcDbEntity
  8
CENTER
100
AcDbLine
 10
789.0599967469697
 20
112.4019302689414
 30
0.0
 11
805.0599967469697
 21
112.4019302689414
 31
0.0
  0
ARC
  5
212B
330
2
100
AcDbEntity
  8
0
100
AcDbCircle
 10
781.3357188061003
 20
45.20313281814765
 30
0.0
 40
60.0
100
AcDbArc
 50
78.19493218955852
 51
95.89469838635137
  0
CIRCLE
  5
212C
330
2
100
AcDbEntity
  8
HOJO
100
AcDbCircle
 10
797.059996746971
 20
112.4019302689414
 30
0.0
 40
4.0
  0
LINE
  5
212D
330
2
100
AcDbEntity
  8
0
100
AcDbLine
 10
758.8953593842132
 20
111.0512567335665
 30
0.0
 11
761.7753606255445
 21
111.0512567335665
 31
0.0
  0
LINE
  5
212E
330
2
100
AcDbEntity
  8
0
100
AcDbLine
 10
759.7882917456899
 20
114.1738839319589
 30
0.0
 11
761.7753606255445
 21
111.0512567335665
 31
0.0
  0
ARC
  5
212F
330
2
100
AcDbEntity
  8
0
100
AcDbCircle
 10
811.6335898757769
 20
112.8283371401341
 30
0.0
 40
6.0
100
AcDbArc
 50
90.0
 51
180.0
  0
ARC
  5
2130
330
2
100
AcDbEntity
  8
0
100
AcDbCircle
 10
794.6335898757755
 20
108.8283371401323
 30
0.0
 40
5.0
100
AcDbArc
 50
258.1949321895585
 51
270.0
  0
LINE
  5
2131
330
2
100
AcDbEntity
  8
0
100
AcDbLine
 10
794.6335898757755
 20
103.8283371401341
 30
0.0
 11
797.6335898757769
 21
103.8283371401341
 31
0.0
  0
ARC
  5
2132
330
2
100
AcDbEntity
  8
0
100
AcDbCircle
 10
797.6335898757769
 20
111.8283371401341
 30
0.0
 40
8.0
100
AcDbArc
 50
270.0
 51
0.0
  0
LINE
  5
2133
330
2
100
AcDbEntity
  8
CENTER
100
AcDbLine
 10
797.0599967469696
 20
120.4019302689432
 30
0.0
 11
797.0599967469696
 21
104.4019302689432
 31
0.0
  0
CIRCLE
  5
2134
330
2
100
AcDbEntity
  8
0
100
AcDbCircle
 10
797.059996746971
 20
112.4019302689396
 30
0.0
 40
3.2
  0
ARC
  5
2135
330
2
100
AcDbEntity
  8
0
100
AcDbCircle
 10
754.633589875776
 20
5.828337140132362
 30
0.0
 40
200.0
100
AcDbArc
 50
84.10530161364862
 51
95.89469838635137
  0
CIRCLE
  5
2136
330
2
100
AcDbEntity
  8
0
100
AcDbCircle
 10
754.6335898757787
 20
154.8283371401341
 30
0.0
 40
11.0
  0
CIRCLE
  5
2137
330
2
100
AcDbEntity
  8
0
100
AcDbCircle
 10
754.6335898757787
 20
154.8283371401332
 30
0.0
 40
12.0000000000009
  0
CIRCLE
  5
2138
330
2
100
AcDbEntity
  8
0
100
AcDbCircle
 10
754.6335898757787
 20
154.8283371401341
 30
0.0
 40
12.57735026918953
  0
CIRCLE
  5
2139
330
2
100
AcDbEntity
  8
0
100
AcDbCircle
 10
754.6335898757787
 20
154.8283371401341
 30
0.0
 40
16.99995399999989
  0
ARC
  5
213A
330
2
100
AcDbEntity
  8
0
100
AcDbCircle
 10
903.6335898757755
 20
154.8283371401323
 30
0.0
 40
200.0
100
AcDbArc
 50
174.1053016136486
 51
185.8946983863513
  0
ARC
  5
213B
330
2
100
AcDbEntity
  8
0
100
AcDbCircle
 10
727.9314609454508
 20
264.453541462117
 30
0.0
 40
60.0
100
AcDbArc
 50
258.1949321895585
 51
275.8946983863513
  0
LINE
  5
213C
330
2
100
AcDbEntity
  8
0
100
AcDbLine
 10
711.6335898757787
 20
205.8283371401341
 30
0.0
 11
714.6335898757755
 21
205.8283371401341
 31
0.0
  0
ARC
  5
213D
330
2
100
AcDbEntity
  8
0
100
AcDbCircle
 10
714.6335898757755
 20
200.8283371401323
 30
0.0
 40
5.0
100
AcDbArc
 50
78.19493218955852
 51
90.0
  0
LINE
  5
213E
330
2
100
AcDbEntity
  8
CENTER
100
AcDbLine
 10
720.207183004585
 20
197.2547440113269
 30
0.0
 11
704.207183004585
 21
197.2547440113269
 31
0.0
  0
ARC
  5
213F
330
2
100
AcDbEntity
  8
0
100
AcDbCircle
 10
708.6335898757759
 20
194.8283371401323
 30
0.0
 40
5.0
100
AcDbArc
 50
180.0
 51
191.8050678104415
  0
LINE
  5
2140
330
2
100
AcDbEntity
  8
0
100
AcDbLine
 10
703.6335898757787
 20
197.8283371401341
 30
0.0
 11
703.6335898757787
 21
194.8283371401323
 31
0.0
  0
ARC
  5
2141
330
2
100
AcDbEntity
  8
0
100
AcDbCircle
 10
645.0083855537912
 20
181.5304660704571
 30
0.0
 40
60.0
100
AcDbArc
 50
354.1053016136486
 51
11.80506781044149
  0
CIRCLE
  5
2142
330
2
100
AcDbEntity
  8
0
100
AcDbCircle
 10
712.207183004585
 20
197.2547440113251
 30
0.0
 40
3.2
  0
CIRCLE
  5
2143
330
2
100
AcDbEntity
  8
HOJO
100
AcDbCircle
 10
712.207183004585
 20
197.2547440113269
 30
0.0
 40
4.0
  0
LINE
  5
2144
330
2
100
AcDbEntity
  8
CENTER
100
AcDbLine
 10
712.207183004585
 20
189.2547440113269
 30
0.0
 11
712.207183004585
 21
205.2547440113269
 31
0.0
  0
ARC
  5
2145
330
2
100
AcDbEntity
  8
0
100
AcDbCircle
 10
711.6335898757787
 20
197.8283371401341
 30
0.0
 40
8.0
100
AcDbArc
 50
90.0
 51
180.0
  0
ARC
  5
2146
330
2
100
AcDbEntity
  8
0
100
AcDbCircle
 10
781.3357188061012
 20
264.4535414621152
 30
0.0
 40
60.0
100
AcDbArc
 50
264.1053016135961
 51
281.8050678104415
  0
LINE
  5
2147
330
2
100
AcDbEntity
  8
CENTER
100
AcDbLine
 10
789.0599967469697
 20
197.2547440113269
 30
0.0
 11
805.0599967469697
 21
197.2547440113269
 31
0.0
  0
CIRCLE
  5
2148
330
2
100
AcDbEntity
  8
HOJO
100
AcDbCircle
 10
797.059996746971
 20
197.2547440113269
 30
0.0
 40
4.0
  0
ARC
  5
2149
330
2
100
AcDbEntity
  8
0
100
AcDbCircle
 10
794.6335898757755
 20
200.8283371401305
 30
0.0
 40
5.0
100
AcDbArc
 50
89.99999999994789
 51
101.8050678104414
  0
LINE
  5
214A
330
2
100
AcDbEntity
  8
0
100
AcDbLine
 10
794.6335898757755
 20
205.8283371401341
 30
0.0
 11
797.6335898757814
 21
205.8283371401341
 31
0.0
  0
ARC
  5
214B
330
2
100
AcDbEntity
  8
0
100
AcDbCircle
 10
811.6335898757814
 20
196.8283371401341
 30
0.0
 40
6.0
100
AcDbArc
 50
180.0
 51
270.0
  0
ARC
  5
214C
330
2
100
AcDbEntity
  8
0
100
AcDbCircle
 10
797.6335898757819
 20
197.8283371401341
 30
0.0
 40
8.0
100
AcDbArc
 50
0.0
 51
90.0
  0
LINE
  5
214D
330
2
100
AcDbEntity
  8
CENTER
100
AcDbLine
 10
797.0599967469696
 20
189.2547440113269
 30
0.0
 11
797.0599967469696
 21
205.2547440113269
 31
0.0
  0
CIRCLE
  5
214E
330
2
100
AcDbEntity
  8
0
100
AcDbCircle
 10
797.059996746971
 20
197.2547440113251
 30
0.0
 40
3.2
  0
ARC
  5
214F
330
2
100
AcDbEntity
  8
0
100
AcDbCircle
 10
859.9235898740557
 20
130.3283371401323
 30
0.0
 40
3.0
100
AcDbArc
 50
180.0
 51
270.0
  0
ARC
  5
2150
330
2
100
AcDbEntity
  8
0
100
AcDbCircle
 10
852.3242477972702
 20
127.8283371401359
 30
0.0
 40
5.0
100
AcDbArc
 50
18.20995686428278
 51
90.0
  0
ARC
  5
2151
330
2
100
AcDbEntity
  8
0
100
AcDbCircle
 10
847.6335898757774
 20
127.8283371401359
 30
0.0
 40
5.0
100
AcDbArc
 50
90.0
 51
180.0
  0
LINE
  5
2152
330
2
100
AcDbEntity
  8
0
100
AcDbLine
 10
866.4235898757773
 20
189.3283371401341
 30
0.0
 11
866.4235898757773
 21
120.3283371401341
 31
0.0
  0
LINE
  5
2153
330
2
100
AcDbEntity
  8
0
100
AcDbLine
 10
842.6335898757773
 20
124.8283371401341
 30
0.0
 11
842.6335898757773
 21
184.8283371401341
 31
0.0
  0
ARC
  5
2155
330
2
100
AcDbEntity
  8
0
100
AcDbCircle
 10
861.4235898757792
 20
122.3283371401323
 30
0.0
 40
5.0
100
AcDbArc
 50
0.0
 51
90.0
  0
ARC
  5
2156
330
2
100
AcDbEntity
  8
0
100
AcDbCircle
 10
836.6335898757773
 20
124.8283371401341
 30
0.0
 40
6.0
100
AcDbArc
 50
270.0
 51
0.0
  0
LINE
  5
2157
330
2
100
AcDbEntity
  8
0
100
AcDbLine
 10
844.6336660323552
 20
128.8283371401341
 30
0.0
 11
856.3528756597838
 21
128.8283371401341
 31
0.0
  0
ARC
  5
2158
330
2
100
AcDbEntity
  8
0
100
AcDbCircle
 10
856.3528756597838
 20
126.8283371401341
 30
0.0
 40
2.0
100
AcDbArc
 50
44.42700400082991
 51
90.0
  0
LINE
  5
2159
330
2
100
AcDbEntity
  8
0
100
AcDbLine
 10
861.4235898757792
 20
127.3283371401323
 30
0.0
 11
859.9235898740547
 21
127.3283371401323
 31
0.0
  0
ARC
  5
215A
330
2
100
AcDbEntity
  8
0
100
AcDbCircle
 10
844.6335898757773
 20
126.8283371401341
 30
0.0
 40
2.0
100
AcDbArc
 50
90.0
 51
180.0
  0
LINE
  5
215B
330
2
100
AcDbEntity
  8
0
100
AcDbLine
 10
868.4235898757773
 20
118.8283371401341
 30
0.0
 11
878.4235898757772
 21
118.8283371401341
 31
0.0
  0
LINE
  5
215C
330
2
100
AcDbEntity
  8
0
100
AcDbLine
 10
868.4235898757773
 20
118.3283371401341
 30
0.0
 11
878.4235898757772
 21
118.3283371401341
 31
0.0
  0
ARC
  5
215D
330
2
100
AcDbEntity
  8
0
100
AcDbCircle
 10
868.4235898757773
 20
120.8283371401341
 30
0.0
 40
2.0
100
AcDbArc
 50
180.0
 51
270.0
  0
ARC
  5
215E
330
2
100
AcDbEntity
  8
0
100
AcDbCircle
 10
868.4235898757773
 20
120.3283371401341
 30
0.0
 40
2.0
100
AcDbArc
 50
180.0
 51
270.0
  0
LINE
  5
215F
330
2
100
AcDbEntity
  8
0
100
AcDbLine
 10
856.9235898740556
 20
130.3283371401323
 30
0.0
 11
856.9235898740556
 21
179.3283371401341
 31
0.0
  0
ARC
  5
2160
330
2
100
AcDbEntity
  8
0
100
AcDbCircle
 10
853.9235898740557
 20
160.3283371401341
 30
0.0
 40
3.0
100
AcDbArc
 50
270.0
 51
0.0
  0
LINE
  5
2161
330
2
100
AcDbEntity
  8
0
100
AcDbLine
 10
845.6335898757764
 20
157.3283371401341
 30
0.0
 11
853.9235898740557
 21
157.3283371401341
 31
0.0
  0
ARC
  5
2162
330
2
100
AcDbEntity
  8
0
100
AcDbCircle
 10
845.6335898757764
 20
160.3283371401341
 30
0.0
 40
3.0
100
AcDbArc
 50
180.0
 51
270.0
  0
LINE
  5
2163
330
2
100
AcDbEntity
  8
0
100
AcDbLine
 10
845.6335898757764
 20
152.3283371401341
 30
0.0
 11
853.9235898740557
 21
152.3283371401341
 31
0.0
  0
LINE
  5
2164
330
2
100
AcDbEntity
  8
0
100
AcDbLine
 10
847.6335898757774
 20
132.8283371401359
 30
0.0
 11
852.3242477972702
 21
132.8283371401359
 31
0.0
  0
ARC
  5
2165
330
2
100
AcDbEntity
  8
0
100
AcDbCircle
 10
853.9235898740557
 20
149.3283371401341
 30
0.0
 40
3.0
100
AcDbArc
 50
0.0
 51
90.0
  0
ARC
  5
2166
330
2
100
AcDbEntity
  8
0
100
AcDbCircle
 10
845.6335898757764
 20
149.3283371401341
 30
0.0
 40
3.0
100
AcDbArc
 50
90.0
 51
180.0
  0
ARC
  5
2167
330
2
100
AcDbEntity
  8
0
100
AcDbCircle
 10
861.4235898757792
 20
187.3283371401342
 30
0.0
 40
5.0
100
AcDbArc
 50
270.0
 51
0.0
  0
ARC
  5
2168
330
2
100
AcDbEntity
  8
0
100
AcDbCircle
 10
836.6335898757773
 20
184.8283371401341
 30
0.0
 40
6.0
100
AcDbArc
 50
0.0
 51
90.0
  0
LINE
  5
2169
330
2
100
AcDbEntity
  8
0
100
AcDbLine
 10
844.6336660323552
 20
180.8283371401341
 30
0.0
 11
856.3528756597838
 21
180.8283371401341
 31
0.0
  0
ARC
  5
216A
330
2
100
AcDbEntity
  8
0
100
AcDbCircle
 10
856.3528756597838
 20
182.8283371401341
 30
0.0
 40
2.0
100
AcDbArc
 50
270.0
 51
315.5729959991701
  0
ARC
  5
216B
330
2
100
AcDbEntity
  8
0
100
AcDbCircle
 10
859.9235898740557
 20
179.3283371401341
 30
0.0
 40
3.0
100
AcDbArc
 50
90.0
 51
180.0
  0
LINE
  5
216C
330
2
100
AcDbEntity
  8
0
100
AcDbLine
 10
861.4235898757792
 20
182.3283371401341
 30
0.0
 11
859.9235898740547
 21
182.3283371401341
 31
0.0
  0
LINE
  5
216D
330
2
100
AcDbEntity
  8
0
100
AcDbLine
 10
847.6335898757774
 20
176.8283371401359
 30
0.0
 11
852.3242477972702
 21
176.8283371401359
 31
0.0
  0
ARC
  5
216E
330
2
100
AcDbEntity
  8
0
100
AcDbCircle
 10
852.3242477972702
 20
181.828337140136
 30
0.0
 40
5.0
100
AcDbArc
 50
270.0
 51
341.7900431357172
  0
ARC
  5
216F
330
2
100
AcDbEntity
  8
0
100
AcDbCircle
 10
844.6335898757773
 20
182.8283371401341
 30
0.0
 40
2.0
100
AcDbArc
 50
180.0
 51
270.0
  0
ARC
  5
2170
330
2
100
AcDbEntity
  8
0
100
AcDbCircle
 10
847.6335898757774
 20
181.828337140136
 30
0.0
 40
5.0
100
AcDbArc
 50
180.0
 51
270.0
  0
LINE
  5
2171
330
2
100
AcDbEntity
  8
0
100
AcDbLine
 10
878.4235898757772
 20
190.8283371401341
 30
0.0
 11
868.4235898757773
 21
190.8283371401341
 31
0.0
  0
LINE
  5
2172
330
2
100
AcDbEntity
  8
0
100
AcDbLine
 10
878.4235898757772
 20
191.3283371401341
 30
0.0
 11
868.4235898757773
 21
191.3283371401341
 31
0.0
  0
ARC
  5
2173
330
2
100
AcDbEntity
  8
0
100
AcDbCircle
 10
868.4235898757773
 20
188.8283371401341
 30
0.0
 40
2.0
100
AcDbArc
 50
90.0
 51
180.0
  0
ARC
  5
2174
330
2
100
AcDbEntity
  8
0
100
AcDbCircle
 10
868.4235898757773
 20
189.3283371401341
 30
0.0
 40
2.0
100
AcDbArc
 50
90.0
 51
180.0
  0
LINE
  5
2175
330
2
100
AcDbEntity
  8
0
100
AcDbLine
 10
1089.079427399208
 20
165.8283371401278
 30
0.0
 11
1088.579427399208
 21
165.3283371401278
 31
0.0
  0
LINE
  5
2176
330
2
100
AcDbEntity
  8
0
100
AcDbLine
 10
1088.579427399207
 20
144.3283371401282
 30
0.0
 11
1089.079427399207
 21
143.8283371401282
 31
0.0
  0
LINE
  5
2177
330
2
100
AcDbEntity
  8
0
100
AcDbLine
 10
1089.079427399207
 20
143.8283371401282
 30
0.0
 11
1089.079427399208
 21
165.8283371401278
 31
0.0
  0
LINE
  5
2178
330
2
100
AcDbEntity
  8
0
100
AcDbLine
 10
1088.579427399208
 20
165.3283371401278
 30
0.0
 11
1088.579427399207
 21
144.3283371401282
 31
0.0
  0
LINE
  5
21B7
330
2
100
AcDbEntity
  8
0
100
AcDbLine
 10
1129.981271513517
 20
171.5603419476967
 30
0.0
 11
1129.829427399208
 21
171.4726747074253
 31
0.0
  0
LINE
  5
21B8
330
2
100
AcDbEntity
  8
0
100
AcDbLine
 10
1128.579427399208
 20
166.8283371401278
 30
0.0
 11
1129.579427399208
 21
167.4056874093173
 31
0.0
  0
ARC
  5
21B9
330
2
100
AcDbEntity
  8
0
100
AcDbCircle
 10
1130.981271513517
 20
169.8282911401276
 30
0.0
 40
2.0
100
AcDbArc
 50
101.5908835966946
 51
120.0000000000005
  0
ARC
  5
21BA
330
2
100
AcDbEntity
  8
0
100
AcDbCircle
 10
1130.079427399208
 20
171.0396620055332
 30
0.0
 40
0.5
100
AcDbArc
 50
120.0000000000005
 51
180.0
  0
LINE
  5
21BB
330
2
100
AcDbEntity
  8
0
100
AcDbLine
 10
1129.981271513517
 20
138.0963323325588
 30
0.0
 11
1129.829427399208
 21
138.1839995728303
 31
0.0
  0
ARC
  5
21BC
330
2
100
AcDbEntity
  8
0
100
AcDbCircle
 10
1130.981271513517
 20
139.8283831401279
 30
0.0
 40
2.0
100
AcDbArc
 50
239.9999999999994
 51
258.4091164033053
  0
ARC
  5
21BD
330
2
100
AcDbEntity
  8
0
100
AcDbCircle
 10
1130.079427399208
 20
138.6170122747228
 30
0.0
 40
0.5
100
AcDbArc
 50
180.0
 51
239.9999999999994
  0
LINE
  5
21BE
330
2
100
AcDbEntity
  8
0
100
AcDbLine
 10
1128.579427399208
 20
142.8283371401278
 30
0.0
 11
1129.579427399208
 21
142.2509868709382
 31
0.0
  0
LINE
  5
21BF
330
2
100
AcDbEntity
  8
0
100
AcDbLine
 10
1129.579427399208
 20
171.0396620055332
 30
0.0
 11
1129.579427399208
 21
138.6170122747228
 31
0.0
  0
LINE
  5
21C0
330
2
100
AcDbEntity
  8
0
100
AcDbLine
 10
1128.579427399208
 20
166.8283371401278
 30
0.0
 11
1128.579427399208
 21
142.8283371401278
 31
0.0
  0
LINE
  5
21F7
330
2
100
AcDbEntity
  8
0
100
AcDbLine
 10
840.5811525122839
 20
480.1314265994271
 30
0.0
 11
806.5576737191911
 21
480.1314265994271
 31
0.0
  0
LINE
  5
21F8
330
2
100
AcDbEntity
  8
0
100
AcDbLine
 10
765.6335898757791
 20
457.1314265968833
 30
0.0
 11
765.6335898757791
 21
417.6314265968837
 31
0.0
  0
LINE
  5
21F9
330
2
100
AcDbEntity
  8
0
100
AcDbLine
 10
743.633589875779
 20
417.6314265968828
 30
0.0
 11
743.633589875779
 21
457.1314265968833
 31
0.0
  0
LINE
  5
21FA
330
2
100
AcDbEntity
  8
0
100
AcDbLine
 10
743.633589875779
 20
417.6314265968828
 30
0.0
 11
765.6335898757791
 21
417.6314265968837
 31
0.0
  0
LINE
  5
21FB
330
2
100
AcDbEntity
  8
0
100
AcDbLine
 10
765.1335898757791
 20
417.1314265968837
 30
0.0
 11
744.1335898757791
 21
417.1314265968828
 31
0.0
  0
LINE
  5
21FC
330
2
100
AcDbEntity
  8
0
100
AcDbLine
 10
744.1335898757791
 20
417.1314265968828
 30
0.0
 11
743.633589875779
 21
417.6314265968828
 31
0.0
  0
LINE
  5
21FD
330
2
100
AcDbEntity
  8
0
100
AcDbLine
 10
765.6335898757791
 20
417.6314265968837
 30
0.0
 11
765.1335898757791
 21
417.1314265968837
 31
0.0
  0
LINE
  5
21FE
330
2
100
AcDbEntity
  8
0
100
AcDbLine
 10
704.2095631499466
 20
478.1314265994272
 30
0.0
 11
805.053253167717
 21
478.1314265994272
 31
0.0
  0
LINE
  5
21FF
330
2
100
AcDbEntity
  8
0
100
AcDbLine
 10
786.7022123261656
 20
459.1314265968824
 30
0.0
 11
722.5649674253916
 21
459.1314265968824
 31
0.0
  0
LINE
  5
2200
330
2
100
AcDbEntity
  8
0
100
AcDbLine
 10
709.6335898757786
 20
473.1314265994272
 30
0.0
 11
799.6335898757786
 21
473.1314265994345
 31
0.0
  0
LINE
  5
2201
330
2
100
AcDbEntity
  8
0
100
AcDbLine
 10
770.844914741184
 20
458.1314265968833
 30
0.0
 11
738.4222650103736
 21
458.1314265968833
 31
0.0
  0
LINE
  5
2202
330
2
100
AcDbEntity
  8
0
100
AcDbLine
 10
766.633589875779
 20
457.1314265968833
 30
0.0
 11
742.633589875779
 21
457.1314265968833
 31
0.0
  0
LINE
  5
2203
330
2
100
AcDbEntity
  8
0
100
AcDbLine
 10
720.212103207318
 20
471.2012255902857
 30
0.0
 11
720.5661857713537
 21
461.0616276034773
 31
0.0
  0
ARC
  5
2204
330
2
100
AcDbEntity
  8
0
100
AcDbCircle
 10
722.5649674253916
 20
461.1314265968823
 30
0.0
 40
2.0
100
AcDbArc
 50
182.0000000000036
 51
270.0
  0
LINE
  5
2205
330
2
100
AcDbEntity
  8
0
100
AcDbLine
 10
742.633589875779
 20
457.1314265968833
 30
0.0
 11
742.056239606589
 21
458.1314265968833
 31
0.0
  0
LINE
  5
2206
330
2
100
AcDbEntity
  8
0
100
AcDbLine
 10
737.9015850682101
 20
458.5332707111927
 30
0.0
 11
737.9892523084811
 21
458.3814265968833
 31
0.0
  0
ARC
  5
2207
330
2
100
AcDbEntity
  8
0
100
AcDbCircle
 10
739.6336358757792
 20
459.5332707111927
 30
0.0
 40
2.0
100
AcDbArc
 50
191.5908835966946
 51
210.0000000000004
  0
ARC
  5
2208
330
2
100
AcDbEntity
  8
0
100
AcDbCircle
 10
738.4222650103736
 20
458.6314265968833
 30
0.0
 40
0.5
100
AcDbArc
 50
210.0000000000004
 51
270.0
  0
ARC
  5
2209
330
2
100
AcDbEntity
  8
0
100
AcDbCircle
 10
718.2133215532792
 20
471.1314265968824
 30
0.0
 40
2.0
100
AcDbArc
 50
2.000000000003612
 51
90.0
  0
LINE
  5
220A
330
2
100
AcDbEntity
  8
0
100
AcDbLine
 10
709.6335898757786
 20
478.1314265994272
 30
0.0
 11
709.6335898757786
 21
473.1314265994272
 31
0.0
  0
LINE
  5
220B
330
2
100
AcDbEntity
  8
0
100
AcDbLine
 10
789.0550765442392
 20
471.2012255902857
 30
0.0
 11
788.7009939802035
 21
461.0616276034773
 31
0.0
  0
LINE
  5
220C
330
2
100
AcDbEntity
  8
0
100
AcDbLine
 10
766.633589875779
 20
457.1314265968833
 30
0.0
 11
767.2109401449681
 21
458.1314265968833
 31
0.0
  0
ARC
  5
220D
330
2
100
AcDbEntity
  8
0
100
AcDbCircle
 10
786.7022123261656
 20
461.1314265968823
 30
0.0
 40
2.0
100
AcDbArc
 50
270.0
 51
357.9999999999964
  0
LINE
  5
220E
330
2
100
AcDbEntity
  8
0
100
AcDbLine
 10
771.365594683348
 20
458.5332707111927
 30
0.0
 11
771.2779274430761
 21
458.3814265968833
 31
0.0
  0
ARC
  5
220F
330
2
100
AcDbEntity
  8
0
100
AcDbCircle
 10
769.6335438757789
 20
459.5332707111927
 30
0.0
 40
2.0
100
AcDbArc
 50
329.9999999999994
 51
348.4091164033053
  0
ARC
  5
2210
330
2
100
AcDbEntity
  8
0
100
AcDbCircle
 10
770.844914741184
 20
458.6314265968833
 30
0.0
 40
0.5
100
AcDbArc
 50
270.0
 51
329.9999999999994
  0
ARC
  5
2211
330
2
100
AcDbEntity
  8
0
100
AcDbCircle
 10
791.053858198278
 20
471.1314265968824
 30
0.0
 40
2.0
100
AcDbArc
 50
90.0
 51
177.9999999999963
  0
LINE
  5
2212
330
2
100
AcDbEntity
  8
0
100
AcDbLine
 10
799.6335898757786
 20
478.1314265994272
 30
0.0
 11
799.6335898757786
 21
473.1314265994272
 31
0.0
  0
ARC
  5
2213
330
2
100
AcDbEntity
  8
0
100
AcDbCircle
 10
806.5576737191911
 20
478.6314265994271
 30
0.0
 40
1.5
100
AcDbArc
 50
90.0
 51
179.5000000000344
  0
ARC
  5
2215
330
2
100
AcDbEntity
  8
0
100
AcDbCircle
 10
868.3719036193453
 20
482.1314265968823
 30
0.0
 40
2.0
100
AcDbArc
 50
181.4999999999897
 51
270.0
  0
LINE
  5
2216
330
2
100
AcDbEntity
  8
0
100
AcDbLine
 10
868.3719036193453
 20
480.1314265968824
 30
0.0
 11
878.4235898775024
 21
480.1314265968824
 31
0.0
  0
ARC
  5
2217
330
2
100
AcDbEntity
  8
0
100
AcDbCircle
 10
853.3464712255092
 20
510.6314265968824
 30
0.0
 40
3.0
100
AcDbArc
 50
1.499999999989714
 51
90.0
  0
ARC
  5
2218
330
2
100
AcDbEntity
  8
0
100
AcDbCircle
 10
845.8300586362295
 20
510.6314265968824
 30
0.0
 40
3.0
100
AcDbArc
 50
90.0
 51
179.5000000000344
  0
LINE
  5
2219
330
2
100
AcDbEntity
  8
0
100
AcDbLine
 10
734.0934907003254
 20
543.6314265968824
 30
0.0
 11
734.0934907003254
 21
479.6352834285255
 31
0.0
  0
LINE
  5
221A
330
2
100
AcDbEntity
  8
0
100
AcDbLine
 10
797.6335898775003
 20
543.6314265968824
 30
0.0
 11
797.6335898775003
 21
479.6434839159785
 31
0.0
  0
LINE
  5
221B
330
2
100
AcDbEntity
  8
0
100
AcDbLine
 10
794.6335898774984
 20
543.6314265968824
 30
0.0
 11
794.6335898774984
 21
479.6430967358713
 31
0.0
  0
LINE
  5
221C
330
2
100
AcDbEntity
  8
0
100
AcDbLine
 10
775.1736890546733
 20
543.6314265968824
 30
0.0
 11
775.1736890546724
 21
479.6405852403816
 31
0.0
  0
LINE
  5
221D
330
2
100
AcDbEntity
  8
CENTER
100
AcDbLine
 10
754.6335898757777
 20
402.1314265968833
 30
0.0
 11
754.633589875779
 21
585.1314265968869
 31
0.0
  0
LINE
  5
221E
330
2
100
AcDbEntity
  8
0
100
AcDbLine
 10
714.6335898774984
 20
543.6314265968824
 30
0.0
 11
714.6335898774993
 21
479.632771933034
 31
0.0
  0
LINE
  5
221F
330
2
100
AcDbEntity
  8
0
100
AcDbLine
 10
711.633589877503
 20
543.6314265968824
 30
0.0
 11
711.6335898775012
 21
479.6323847529285
 31
0.0
  0
LINE
  5
2222
330
2
100
AcDbEntity
  8
0
100
AcDbLine
 10
856.8470885153422
 20
491.5528957519575
 30
0.0
 11
856.203477034351
 21
516.1314265968824
 31
0.0
  0
LINE
  5
2223
330
2
100
AcDbEntity
  8
0
100
AcDbLine
 10
842.877942173922
 20
516.1314265968824
 30
0.0
 11
842.5810763584124
 21
482.1139735284302
 31
0.0
  0
LINE
  5
2224
330
2
100
AcDbEntity
  8
0
100
AcDbLine
 10
805.053253167717
 20
478.1314265994272
 30
0.0
 11
805.6292264418832
 21
544.1314265968824
 31
0.0
  0
LINE
  5
2225
330
2
100
AcDbEntity
  8
0
100
AcDbLine
 10
866.3725889693944
 20
482.079072700267
 30
0.0
 11
865.4808967010252
 21
516.1314265968824
 31
0.0
  0
LINE
  5
2226
330
2
100
AcDbEntity
  8
0
100
AcDbLine
 10
704.2095631499466
 20
478.1314265994272
 30
0.0
 11
703.6335898757786
 21
544.1314265968824
 31
0.0
  0
ARC
  5
2227
330
2
100
AcDbEntity
  8
0
100
AcDbCircle
 10
861.3302251895568
 20
483.6314265968805
 30
0.0
 40
5.0
100
AcDbArc
 50
1.499999999989714
 51
90.0
  0
LINE
  5
2228
330
2
100
AcDbEntity
  8
0
100
AcDbLine
 10
847.6335898755845
 20
494.1314265968824
 30
0.0
 11
852.2467184134823
 21
494.1314265968824
 31
0.0
  0
LINE
  5
2229
330
2
100
AcDbEntity
  8
0
100
AcDbLine
 10
844.6336660325508
 20
490.1314265968824
 30
0.0
 11
856.2753462759959
 21
490.1314265968824
 31
0.0
  0
ARC
  5
222A
330
2
100
AcDbEntity
  8
0
100
AcDbCircle
 10
856.2753462759959
 20
488.1314265968824
 30
0.0
 40
2.0
100
AcDbArc
 50
44.42700400082991
 51
90.0
  0
LINE
  5
222B
330
2
100
AcDbEntity
  8
0
100
AcDbLine
 10
859.8460604902687
 20
488.6314265968805
 30
0.0
 11
861.3302251895568
 21
488.6314265968805
 31
0.0
  0
ARC
  5
222C
330
2
100
AcDbEntity
  8
0
100
AcDbCircle
 10
859.8460604902687
 20
491.6314265968805
 30
0.0
 40
3.0
100
AcDbArc
 50
181.4999999999897
 51
270.0
  0
ARC
  5
222D
330
2
100
AcDbEntity
  8
0
100
AcDbCircle
 10
844.6336660325508
 20
488.1314265968824
 30
0.0
 40
2.0
100
AcDbArc
 50
90.0
 51
179.5000000000344
  0
ARC
  5
222E
330
2
100
AcDbEntity
  8
0
100
AcDbCircle
 10
847.642507135499
 20
489.1314265968824
 30
0.0
 40
5.0
100
AcDbArc
 50
90.0
 51
179.5000000000344
  0
ARC
  5
222F
330
2
100
AcDbEntity
  8
0
100
AcDbCircle
 10
852.2467184134823
 20
489.1314265968824
 30
0.0
 40
5.0
100
AcDbArc
 50
18.20995686428278
 51
90.0
  0
LINE
  5
2231
330
2
100
AcDbEntity
  8
0
100
AcDbLine
 10
703.6335898757786
 20
544.1314265968824
 30
0.0
 11
842.6335898755835
 21
544.1314265968824
 31
0.0
  0
ARC
  5
2232
330
2
100
AcDbEntity
  8
0
100
AcDbCircle
 10
827.1852761339344
 20
554.6314265968114
 30
0.0
 40
2.0
100
AcDbArc
 50
1.499999999989714
 51
90.0
  0
LINE
  5
2233
330
2
100
AcDbEntity
  8
0
100
AcDbLine
 10
806.6335898757786
 20
556.6314265968096
 30
0.0
 11
831.1335898757791
 21
556.6314265968096
 31
0.0
  0
LINE
  5
2234
330
2
100
AcDbEntity
  8
0
100
AcDbLine
 10
721.6335898757786
 20
565.4314265968817
 30
0.0
 11
787.6335898757786
 21
565.4314265968871
 31
0.0
  0
LINE
  5
2235
330
2
100
AcDbEntity
  8
0
100
AcDbLine
 10
721.6335898757781
 20
569.1314265968824
 30
0.0
 11
787.6335898757786
 21
569.131426596886
 31
0.0
  0
LINE
  5
2236
330
2
100
AcDbEntity
  8
0
100
AcDbLine
 10
721.8335898757784
 20
567.6314265968824
 30
0.0
 11
787.4335898757788
 21
567.6314265968824
 31
0.0
  0
LINE
  5
2237
330
2
100
AcDbEntity
  8
0
100
AcDbLine
 10
716.4620170005185
 20
561.6314265968806
 30
0.0
 11
790.1335898757786
 21
561.631426596886
 31
0.0
  0
LINE
  5
2238
330
2
100
AcDbEntity
  8
0
100
AcDbLine
 10
721.8335898757784
 20
565.6314265968823
 30
0.0
 11
787.4335898757833
 21
565.6314265968823
 31
0.0
  0
LINE
  5
2239
330
2
100
AcDbEntity
  8
0
100
AcDbLine
 10
719.6335898757791
 20
562.1314265968824
 30
0.0
 11
789.6335898757754
 21
562.1314265968897
 31
0.0
  0
LINE
  5
223A
330
2
100
AcDbEntity
  8
0
100
AcDbLine
 10
705.7514787477264
 20
559.6314265968897
 30
0.0
 11
803.6335898757785
 21
559.631426596886
 31
0.0
  0
LINE
  5
223B
330
2
100
AcDbEntity
  8
0
100
AcDbLine
 10
722.2109401449704
 20
570.131426596886
 30
0.0
 11
787.056239606589
 21
570.1314265968878
 31
0.0
  0
LINE
  5
223C
330
2
100
AcDbEntity
  8
0
100
AcDbLine
 10
734.0934906986033
 20
544.1314265968806
 30
0.0
 11
734.0934906986033
 21
557.648879667887
 31
0.0
  0
LINE
  5
223D
330
2
100
AcDbEntity
  8
CENTER
100
AcDbLine
 10
711.6335898757731
 20
539.6752874063252
 30
0.0
 11
711.6335898757727
 21
562.1314265968115
 31
0.0
  0
LINE
  5
223E
330
2
100
AcDbEntity
  8
0
100
AcDbLine
 10
706.6335898757727
 20
551.6314265968114
 30
0.0
 11
706.6335898757727
 21
558.7314265968118
 31
0.0
  0
LINE
  5
223F
330
2
100
AcDbEntity
  8
0
100
AcDbLine
 10
716.6335898757727
 20
551.6314265968114
 30
0.0
 11
716.6335898757727
 21
558.7314265968118
 31
0.0
  0
LINE
  5
2240
330
2
100
AcDbEntity
  8
0
100
AcDbLine
 10
718.6422405882483
 20
552.6227000613118
 30
0.0
 11
718.686103393168
 21
557.648879667887
 31
0.0
  0
LINE
  5
2241
330
2
100
AcDbEntity
  8
0
100
AcDbLine
 10
703.6335898757795
 20
544.1314265968787
 30
0.0
 11
703.7515549015981
 21
557.648879667887
 31
0.0
  0
LINE
  5
2242
330
2
100
AcDbEntity
  8
0
100
AcDbLine
 10
706.6335898757727
 20
551.6314265968114
 30
0.0
 11
716.6335898757727
 21
551.6314265968114
 31
0.0
  0
LINE
  5
2243
330
2
100
AcDbEntity
  8
0
100
AcDbLine
 10
716.6335898757727
 20
553.1314265968115
 30
0.0
 11
706.6335898757727
 21
553.1314265968115
 31
0.0
  0
LINE
  5
2244
330
2
100
AcDbEntity
  8
0
100
AcDbLine
 10
714.6335898757781
 20
550.6401531323092
 30
0.0
 11
714.6335898757781
 21
544.1314265968787
 31
0.0
  0
LINE
  5
2245
330
2
100
AcDbEntity
  8
0
100
AcDbLine
 10
711.6335898757782
 20
550.6401531323092
 30
0.0
 11
711.6335898757782
 21
544.1314265968787
 31
0.0
  0
ARC
  5
2246
330
2
100
AcDbEntity
  8
0
100
AcDbCircle
 10
717.6422786651844
 20
552.6314265968115
 30
0.0
 40
1.0
100
AcDbArc
 50
270.0
 51
359.5000000000345
  0
LINE
  5
2247
330
2
100
AcDbEntity
  8
0
100
AcDbLine
 10
704.6903525948048
 20
551.6314265968114
 30
0.0
 11
717.6422786651844
 21
551.6314265968114
 31
0.0
  0
ARC
  5
2248
330
2
100
AcDbEntity
  8
0
100
AcDbCircle
 10
704.6903525948048
 20
550.6314265968114
 30
0.0
 40
1.0
100
AcDbArc
 50
90.0
 51
179.5000000000344
  0
LINE
  5
2249
330
2
100
AcDbEntity
  8
0
100
AcDbLine
 10
719.6335898757791
 20
562.1314265968824
 30
0.0
 11
719.1335898757795
 21
561.6314265968823
 31
0.0
  0
LINE
  5
224A
330
2
100
AcDbEntity
  8
0
100
AcDbLine
 10
715.9407695527449
 20
559.1314265968114
 30
0.0
 11
707.3264101988
 21
559.1314265968114
 31
0.0
  0
LINE
  5
224B
330
2
100
AcDbEntity
  8
0
100
AcDbLine
 10
706.6335898757727
 20
558.7314265968118
 30
0.0
 11
707.3264101988004
 21
559.1314265968114
 31
0.0
  0
LINE
  5
224C
330
2
100
AcDbEntity
  8
0
100
AcDbLine
 10
716.6335898757727
 20
558.7314265968118
 30
0.0
 11
706.6335898757727
 21
558.7314265968118
 31
0.0
  0
LINE
  5
224D
330
2
100
AcDbEntity
  8
0
100
AcDbLine
 10
716.6335898757727
 20
558.7314265968118
 30
0.0
 11
715.9407695527449
 21
559.1314265968114
 31
0.0
  0
ARC
  5
224E
330
2
100
AcDbEntity
  8
0
100
AcDbCircle
 10
712.8051627510323
 20
561.6314265968878
 30
0.0
 40
2.0
100
AcDbArc
 50
270.0
 51
315.0000000000092
  0
ARC
  5
224F
330
2
100
AcDbEntity
  8
0
100
AcDbCircle
 10
716.4620170005189
 20
559.6314265968806
 30
0.0
 40
2.0
100
AcDbArc
 50
90.0
 51
135.0000000000092
  0
LINE
  5
2250
330
2
100
AcDbEntity
  8
0
100
AcDbLine
 10
714.2193763134057
 20
560.2172130345145
 30
0.0
 11
715.0478034381456
 21
561.0456401592539
 31
0.0
  0
ARC
  5
2251
330
2
100
AcDbEntity
  8
0
100
AcDbCircle
 10
720.6860272392962
 20
557.6314265968896
 30
0.0
 40
2.0
100
AcDbArc
 50
90.0
 51
179.5000000000344
  0
ARC
  5
2252
330
2
100
AcDbEntity
  8
0
100
AcDbCircle
 10
722.1335898757786
 20
565.8314265968831
 30
0.0
 40
0.2
100
AcDbArc
 50
270.0
 51
0.0
  0
ARC
  5
2253
330
2
100
AcDbEntity
  8
0
100
AcDbCircle
 10
722.1335898757781
 20
567.4314265968816
 30
0.0
 40
0.2
100
AcDbArc
 50
0.0
 51
90.0
  0
ARC
  5
2254
330
2
100
AcDbEntity
  8
0
100
AcDbCircle
 10
721.8335898757784
 20
567.8314265968831
 30
0.0
 40
0.2
100
AcDbArc
 50
180.0
 51
270.0
  0
LINE
  5
2255
330
2
100
AcDbEntity
  8
0
100
AcDbLine
 10
722.3335898757784
 20
567.4314265968816
 30
0.0
 11
722.3335898757784
 21
565.8314265968831
 31
0.0
  0
LINE
  5
2256
330
2
100
AcDbEntity
  8
0
100
AcDbLine
 10
721.6335898757781
 20
569.1314265968824
 30
0.0
 11
721.6335898757786
 21
567.8314265968813
 31
0.0
  0
LINE
  5
2257
330
2
100
AcDbEntity
  8
0
100
AcDbLine
 10
721.6335898757781
 20
569.1314265968824
 30
0.0
 11
722.2109401449677
 21
570.1314265968824
 31
0.0
  0
LINE
  5
2258
330
2
100
AcDbEntity
  8
0
100
AcDbLine
 10
721.6335898757786
 20
565.4314265968817
 30
0.0
 11
721.633589875779
 21
562.1314265968824
 31
0.0
  0
LINE
  5
2259
330
2
100
AcDbEntity
  8
0
100
AcDbLine
 10
721.8335898757784
 20
565.6314265968823
 30
0.0
 11
721.6335898757786
 21
565.4314265968817
 31
0.0
  0
ARC
  5
225A
330
2
100
AcDbEntity
  8
0
100
AcDbCircle
 10
705.7514787477264
 20
557.6314265968896
 30
0.0
 40
2.0
100
AcDbArc
 50
90.0
 51
179.5000000000344
  0
LINE
  5
225B
330
2
100
AcDbEntity
  8
0
100
AcDbLine
 10
797.633589875779
 20
557.648879667887
 30
0.0
 11
797.633589875779
 21
544.1314265968787
 31
0.0
  0
LINE
  5
225C
330
2
100
AcDbEntity
  8
0
100
AcDbLine
 10
794.6335898757786
 20
557.648879667887
 30
0.0
 11
794.6335898757786
 21
544.1314265968787
 31
0.0
  0
LINE
  5
225D
330
2
100
AcDbEntity
  8
0
100
AcDbLine
 10
805.6335898757813
 20
557.631426596886
 30
0.0
 11
805.6335898757813
 21
544.1314265968842
 31
0.0
  0
LINE
  5
225E
330
2
100
AcDbEntity
  8
0
100
AcDbLine
 10
775.1736890529534
 20
544.1314265968806
 30
0.0
 11
775.1736890529534
 21
557.648879667887
 31
0.0
  0
ARC
  5
225F
330
2
100
AcDbEntity
  8
0
100
AcDbCircle
 10
792.8051627510328
 20
559.631426596886
 30
0.0
 40
2.0
100
AcDbArc
 50
44.99999999999078
 51
90.0
  0
LINE
  5
2260
330
2
100
AcDbEntity
  8
0
100
AcDbLine
 10
789.6335898757786
 20
562.1314265968861
 30
0.0
 11
790.1335898757786
 21
561.631426596886
 31
0.0
  0
LINE
  5
2261
330
2
100
AcDbEntity
  8
0
100
AcDbLine
 10
792.8051627510328
 20
561.631426596886
 30
0.0
 11
790.1335898757786
 21
561.631426596886
 31
0.0
  0
ARC
  5
2262
330
2
100
AcDbEntity
  8
0
100
AcDbCircle
 10
787.1335898757786
 20
565.8314265968868
 30
0.0
 40
0.2
100
AcDbArc
 50
180.0
 51
270.0
  0
ARC
  5
2263
330
2
100
AcDbEntity
  8
0
100
AcDbCircle
 10
787.1335898757786
 20
567.4314265968871
 30
0.0
 40
0.2
100
AcDbArc
 50
89.99999999994789
 51
180.0
  0
ARC
  5
2264
330
2
100
AcDbEntity
  8
0
100
AcDbCircle
 10
787.4335898757788
 20
567.8314265968867
 30
0.0
 40
0.2
100
AcDbArc
 50
270.0
 51
0.0
  0
LINE
  5
2265
330
2
100
AcDbEntity
  8
0
100
AcDbLine
 10
786.9335898757788
 20
567.4314265968871
 30
0.0
 11
786.9335898757788
 21
565.8314265968868
 31
0.0
  0
LINE
  5
2266
330
2
100
AcDbEntity
  8
0
100
AcDbLine
 10
787.6335898757786
 20
569.1314265968879
 30
0.0
 11
787.6335898757786
 21
567.8314265968867
 31
0.0
  0
LINE
  5
2267
330
2
100
AcDbEntity
  8
0
100
AcDbLine
 10
787.6335898757786
 20
569.131426596886
 30
0.0
 11
787.056239606589
 21
570.131426596886
 31
0.0
  0
LINE
  5
2268
330
2
100
AcDbEntity
  8
0
100
AcDbLine
 10
787.6335898757786
 20
565.4314265968871
 30
0.0
 11
787.6335898757786
 21
562.1314265968861
 31
0.0
  0
LINE
  5
2269
330
2
100
AcDbEntity
  8
0
100
AcDbLine
 10
787.4335898757788
 20
565.631426596886
 30
0.0
 11
787.6335898757786
 21
565.4314265968871
 31
0.0
  0
ARC
  5
226A
330
2
100
AcDbEntity
  8
0
100
AcDbCircle
 10
803.6335898757785
 20
557.631426596886
 30
0.0
 40
2.0
100
AcDbArc
 50
0.0
 51
90.0
  0
LINE
  5
226B
330
2
100
AcDbEntity
  8
0
100
AcDbLine
 10
795.0478034381514
 20
560.2172130345145
 30
0.0
 11
794.2193763134057
 21
561.0456401592593
 31
0.0
  0
ARC
  5
226C
330
2
100
AcDbEntity
  8
0
100
AcDbCircle
 10
796.4620170005243
 20
561.6314265968878
 30
0.0
 40
2.0
100
AcDbArc
 50
224.9999999999908
 51
270.0
  0
ARC
  5
226D
330
2
100
AcDbEntity
  8
0
100
AcDbCircle
 10
806.6335898757786
 20
557.6314265968096
 30
0.0
 40
1.0
100
AcDbArc
 50
180.0
 51
270.0
  0
LINE
  5
226E
330
2
100
AcDbEntity
  8
CENTER
100
AcDbLine
 10
836.133589875779
 20
539.6752874063252
 30
0.0
 11
836.133589875779
 21
562.1314265968115
 31
0.0
  0
LINE
  5
226F
330
2
100
AcDbEntity
  8
0
100
AcDbLine
 10
831.1335898757791
 20
551.6314265968114
 30
0.0
 11
831.1335898757791
 21
558.7314265968118
 31
0.0
  0
LINE
  5
2270
330
2
100
AcDbEntity
  8
0
100
AcDbLine
 10
841.1335898757791
 20
551.6314265968114
 30
0.0
 11
841.1335898757791
 21
558.7314265968118
 31
0.0
  0
ARC
  5
2271
330
2
100
AcDbEntity
  8
0
100
AcDbCircle
 10
840.5418816070106
 20
554.6314265968078
 30
0.0
 40
2.0
100
AcDbArc
 50
0.4999999999654926
 51
72.79123793165911
  0
ARC
  5
2272
330
2
100
AcDbEntity
  8
0
100
AcDbCircle
 10
861.3302251895568
 20
548.6314265968823
 30
0.0
 40
5.0
100
AcDbArc
 50
270.0
 51
358.5000000000102
  0
LINE
  5
2273
330
2
100
AcDbEntity
  8
0
100
AcDbLine
 10
831.1335898757791
 20
551.6314265968114
 30
0.0
 11
841.1335898757791
 21
551.6314265968114
 31
0.0
  0
LINE
  5
2274
330
2
100
AcDbEntity
  8
0
100
AcDbLine
 10
841.1335898757791
 20
553.1314265968115
 30
0.0
 11
831.1335898757791
 21
553.1314265968115
 31
0.0
  0
LINE
  5
2275
330
2
100
AcDbEntity
  8
0
100
AcDbLine
 10
829.7515979190849
 20
551.6314265968114
 30
0.0
 11
841.5768271565596
 21
551.6314265968114
 31
0.0
  0
ARC
  5
2276
330
2
100
AcDbEntity
  8
0
100
AcDbCircle
 10
829.7515979190849
 20
552.1314265968114
 30
0.0
 40
0.5
100
AcDbArc
 50
181.4999999999897
 51
270.0
  0
LINE
  5
2277
330
2
100
AcDbEntity
  8
0
100
AcDbLine
 10
829.2517692565981
 20
552.1183381226576
 30
0.0
 11
829.1845907838853
 21
554.6837804934287
 31
0.0
  0
LINE
  5
2278
330
2
100
AcDbEntity
  8
0
100
AcDbLine
 10
844.6336660325508
 20
542.1314265968824
 30
0.0
 11
856.2753462759959
 21
542.1314265968824
 31
0.0
  0
LINE
  5
2279
330
2
100
AcDbEntity
  8
0
100
AcDbLine
 10
847.6335898755834
 20
538.1314265968824
 30
0.0
 11
852.2467184134823
 21
538.1314265968824
 31
0.0
  0
ARC
  5
227A
330
2
100
AcDbEntity
  8
0
100
AcDbCircle
 10
856.2753462759959
 20
544.1314265968824
 30
0.0
 40
2.0
100
AcDbArc
 50
269.9999999999478
 51
315.5729959991701
  0
ARC
  5
227B
330
2
100
AcDbEntity
  8
0
100
AcDbCircle
 10
859.8460604902687
 20
540.6314265968823
 30
0.0
 40
3.0
100
AcDbArc
 50
90.0
 51
178.5000000000102
  0
LINE
  5
227C
330
2
100
AcDbEntity
  8
0
100
AcDbLine
 10
859.8460604902687
 20
543.6314265968824
 30
0.0
 11
861.3302251895568
 21
543.6314265968824
 31
0.0
  0
ARC
  5
227D
330
2
100
AcDbEntity
  8
0
100
AcDbCircle
 10
841.5768271565596
 20
550.6314265968114
 30
0.0
 40
1.0
100
AcDbArc
 50
0.4999999999654926
 51
90.0
  0
LINE
  5
227E
330
2
100
AcDbEntity
  8
0
100
AcDbLine
 10
842.6335898755844
 20
544.1314265968842
 30
0.0
 11
842.5418054531386
 21
554.6488796678052
 31
0.0
  0
ARC
  5
227F
330
2
100
AcDbEntity
  8
0
100
AcDbCircle
 10
844.6336660325497
 20
544.1314265968824
 30
0.0
 40
2.0
100
AcDbArc
 50
180.4999999995485
 51
270.0
  0
LINE
  5
2280
330
2
100
AcDbEntity
  8
0
100
AcDbLine
 10
838.3540455131445
 20
516.1314265968824
 30
0.0
 11
842.8779421738056
 21
516.1314265834382
 31
0.0
  0
ARC
  5
2281
330
2
100
AcDbEntity
  8
0
100
AcDbCircle
 10
838.3540455131445
 20
517.1314265968824
 30
0.0
 40
1.0
100
AcDbArc
 50
181.4999999999897
 51
270.0
  0
ARC
  5
2282
330
2
100
AcDbEntity
  8
0
100
AcDbCircle
 10
853.3464712255092
 20
521.6314265968824
 30
0.0
 40
3.0
100
AcDbArc
 50
270.0
 51
358.5000000000102
  0
LINE
  5
2283
330
2
100
AcDbEntity
  8
0
100
AcDbLine
 10
845.8300586360412
 20
518.6314265968824
 30
0.0
 11
853.3464712255092
 21
518.6314265968824
 31
0.0
  0
LINE
  5
2284
330
2
100
AcDbEntity
  8
0
100
AcDbLine
 10
845.8300586362295
 20
513.6314265968824
 30
0.0
 11
853.3464712255092
 21
513.6314265968824
 31
0.0
  0
ARC
  5
2285
330
2
100
AcDbEntity
  8
0
100
AcDbCircle
 10
845.8300586360412
 20
521.6314265968824
 30
0.0
 40
3.0
100
AcDbArc
 50
180.4999999995485
 51
270.0
  0
ARC
  5
2286
330
2
100
AcDbEntity
  8
0
100
AcDbCircle
 10
852.2467184134823
 20
543.1314265968824
 30
0.0
 40
5.0
100
AcDbArc
 50
270.0
 51
341.7900431357172
  0
LINE
  5
2287
330
2
100
AcDbEntity
  8
0
100
AcDbLine
 10
856.8470885153422
 20
540.7099574418054
 30
0.0
 11
856.203477034351
 21
516.1314265968824
 31
0.0
  0
LINE
  5
2288
330
2
100
AcDbEntity
  8
0
100
AcDbLine
 10
842.8779421736873
 20
516.1314265968824
 30
0.0
 11
842.6335898757791
 21
544.1314265968824
 31
0.0
  0
LINE
  5
2289
330
2
100
AcDbEntity
  8
0
100
AcDbLine
 10
836.6466828382874
 20
544.1314265968824
 30
0.0
 11
837.3543881881689
 21
517.1052496485747
 31
0.0
  0
ARC
  5
228A
330
2
100
AcDbEntity
  8
0
100
AcDbCircle
 10
847.6425071354899
 20
543.1314265968824
 30
0.0
 40
5.0
100
AcDbArc
 50
180.4999999995485
 51
270.0
  0
LINE
  5
228B
330
2
100
AcDbEntity
  8
0
100
AcDbLine
 10
868.3719036193453
 20
552.1314265968824
 30
0.0
 11
878.4235898775024
 21
552.1314265968824
 31
0.0
  0
ARC
  5
228C
330
2
100
AcDbEntity
  8
0
100
AcDbCircle
 10
868.3719036193453
 20
550.1314265968824
 30
0.0
 40
2.0
100
AcDbArc
 50
90.0
 51
178.5000000000102
  0
LINE
  5
228D
330
2
100
AcDbEntity
  8
0
100
AcDbLine
 10
865.4808967010252
 20
516.1314265968824
 30
0.0
 11
878.4235898775024
 21
516.1314265968824
 31
0.0
  0
LINE
  5
228E
330
2
100
AcDbEntity
  8
0
100
AcDbLine
 10
866.3725889693944
 20
550.1837804934978
 30
0.0
 11
865.4808967010215
 21
516.1314265968824
 31
0.0
  0
LINE
  5
228F
330
2
100
AcDbEntity
  8
0
100
AcDbLine
 10
840.4407695527519
 20
559.1314265968114
 30
0.0
 11
831.8264101988063
 21
559.1314265968114
 31
0.0
  0
LINE
  5
2290
330
2
100
AcDbEntity
  8
0
100
AcDbLine
 10
841.1335898757791
 20
558.7314265968118
 30
0.0
 11
831.1335898757791
 21
558.7314265968118
 31
0.0
  0
LINE
  5
2291
330
2
100
AcDbEntity
  8
0
100
AcDbLine
 10
831.1335898757791
 20
558.7314265968118
 30
0.0
 11
831.8264101988063
 21
559.1314265968114
 31
0.0
  0
LINE
  5
2292
330
2
100
AcDbEntity
  8
0
100
AcDbLine
 10
841.1335898757791
 20
558.7314265968118
 30
0.0
 11
840.4407695527519
 21
559.1314265968114
 31
0.0
  0
CIRCLE
  5
28B0
330
2
100
AcDbEntity
  8
0
100
AcDbCircle
 10
754.6335898757787
 20
154.8283371401342
 30
0.0
 40
26.57735026918791
  0
ARC
  5
28B5
330
2
100
AcDbEntity
  8
0
100
AcDbCircle
 10
840.5811525122839
 20
482.1314265994271
 30
0.0
 40
2.0
100
AcDbArc
 50
270.0
 51
359.4999999999951
  0
ENDSEC
  0
SECTION
  2
OBJECTS
  0
DICTIONARY
  5
7
330
0
100
AcDbDictionary
  3
ACAD_COLOR
350
27B9
  3
ACAD_GROUP
350
75
  3
ACAD_LAYOUT
350
61
  3
ACAD_MATERIAL
350
278F
  3
ACAD_MLEADERSTYLE
350
27DE
  3
ACAD_MLINESTYLE
350
76
  3
ACAD_PLOTSETTINGS
350
77
  3
ACAD_PLOTSTYLENAME
350
6
  3
ACAD_SCALELIST
350
27BC
  3
ACAD_TABLESTYLE
350
27BA
  3
ACAD_VISUALSTYLE
350
27A8
  3
ACADDIM
350
480
  3
ACDB_RECOMPOSE_DATA
350
2886
  3
ACDBHEADERROUNDTRIPXREC
350
28CF
  3
ACDBVARIABLEDICTIONARY
350
102
  3
DWGPROPS
350
2887
  0
DICTIONARY
  5
288F
330
6E
100
AcDbDictionary
280
     1
  3
ACAD_XREC_ROUNDTRIP
360
2890
  0
DICTIONARY
  5
B21
330
66
100
AcDbDictionary
280
     1
  3
ACAD_LAYERSTATES
360
B22
  0
DICTIONARY
  5
2825
330
5E
100
AcDbDictionary
280
     1
  3
ACAD_XREC_ROUNDTRIP
360
288A
  3
ADSK_XREC_LAYER_RECONCILED
360
2826
  0
DICTIONARY
  5
2827
330
3E
100
AcDbDictionary
280
     1
  3
ACAD_XREC_ROUNDTRIP
360
2889
  3
ADSK_XREC_LAYER_RECONCILED
360
2828
  0
DICTIONARY
  5
282D
330
2B5
100
AcDbDictionary
280
     1
  3
ACAD_XREC_ROUNDTRIP
360
2896
  3
ADSK_XREC_LAYER_RECONCILED
360
282E
  0
DICTIONARY
  5
282F
330
2BA
100
AcDbDictionary
280
     1
  3
ACAD_XREC_ROUNDTRIP
360
2897
  3
ADSK_XREC_LAYER_RECONCILED
360
2830
  0
DICTIONARY
  5
2833
330
3FA
100
AcDbDictionary
280
     1
  3
ACAD_XREC_ROUNDTRIP
360
2899
  3
ADSK_XREC_LAYER_RECONCILED
360
2834
  0
DICTIONARY
  5
28F0
330
2
100
AcDbDictionary
280
     1
  3
ACAD_LAYOUTSELFREF
360
28F1
  0
DICTIONARY
  5
28F2
330
28C9
100
AcDbDictionary
280
     1
  3
ACAD_LAYOUTSELFREF
360
28F3
  0
DICTIONARY
  5
27B9
102
{ACAD_REACTORS
330
7
102
}
330
7
100
AcDbDictionary
  0
DICTIONARY
  5
75
102
{ACAD_REACTORS
330
7
102
}
330
7
100
AcDbDictionary
  0
DICTIONARY
  5
61
102
{ACAD_REACTORS
330
7
102
}
330
7
100
AcDbDictionary
  0
DICTIONARY
  5
278F
102
{ACAD_REACTORS
330
7
102
}
330
7
100
AcDbDictionary
  3
BYBLOCK
350
2798
  3
BYLAYER
350
2790
  3
GLOBAL
350
27A0
  0
DICTIONARY
  5
27DE
102
{ACAD_REACTORS
330
7
102
}
330
7
100
AcDbDictionary
  3
STANDARD
350
27DF
  0
DICTIONARY
  5
76
102
{ACAD_REACTORS
330
7
102
}
330
7
100
AcDbDictionary
  3
STANDARD
350
78
  0
DICTIONARY
  5
77
102
{ACAD_REACTORS
330
7
102
}
330
7
100
AcDbDictionary
  0
ACDBDICTIONARYWDFLT
  5
6
102
{ACAD_REACTORS
330
7
102
}
330
7
100
AcDbDictionary
281
     1
  3
Normal
350
5
100
AcDbDictionaryWithDefault
340
5
  0
DICTIONARY
  5
27BC
102
{ACAD_REACTORS
330
7
102
}
330
7
100
AcDbDictionary
  3
A0
350
27BD
  3
A1
350
27BE
  3
A2
350
27BF
  3
A3
350
27C0
  3
A4
350
27C1
  3
A5
350
27C2
  3
A6
350
27C3
  3
A7
350
27C4
  3
A8
350
27C5
  3
A9
350
27C6
  3
B0
350
27C7
  3
B1
350
27C8
  3
B2
350
27C9
  3
B3
350
27CA
  3
B4
350
27CB
  3
B5
350
27CC
  3
B6
350
27CD
  3
B7
350
27CE
  3
B8
350
27CF
  3
B9
350
27D0
  3
C0
350
27D1
  3
C1
350
27D2
  3
C2
350
27D3
  3
C3
350
27D4
  3
C4
350
27D5
  3
C5
350
27D6
  3
C6
350
27D7
  3
C7
350
27D8
  3
C8
350
27D9
  3
C9
350
27DA
  3
D0
350
27DB
  3
D1
350
27DC
  3
D2
350
27DD
  0
DICTIONARY
  5
27BA
102
{ACAD_REACTORS
330
7
102
}
330
7
100
AcDbDictionary
  3
STANDARD
350
27BB
  0
DICTIONARY
  5
27A8
102
{ACAD_REACTORS
330
7
102
}
330
7
100
AcDbDictionary
  3
2DWIREFRAME
350
27AE
  3
3D_HIDDEN
350
27B0
  3
3DWIREFRAME
350
27AF
  3
BASIC
350
27AD
  3
BRIGHTEN
350
27B4
  3
COLORCHANGE
350
27B8
  3
CONCEPTUAL
350
27B1
  3
DIM
350
27B3
  3
FACEPATTERN
350
27B7
  3
FLAT
350
27A9
  3
FLATWITHEDGES
350
27AA
  3
GOURAUD
350
27AB
  3
GOURAUDWITHEDGES
350
27AC
  3
LINEPATTERN
350
27B6
  3
REALISTIC
350
27B2
  3
THICKEN
350
27B5
  0
XRECORD
  5
480
102
{ACAD_REACTORS
330
7
102
}
330
7
100
AcDbXrecord
 90
   990106
  3

 60
     0
 61
     0
 62
     1
 63
     3
 64
     1
 65
     0
 66
     0
 67
     3
 68
     1
 69
     0
 70
     0
 71
     0
 72
     0
 40
0.0
170
     2
340
0
  0
XRECORD
  5
2886
102
{ACAD_REACTORS
330
7
102
}
330
7
100
AcDbXrecord
 90
        1
330
27BB
  0
DICTIONARY
  5
28CF
102
{ACAD_REACTORS
330
7
102
}
330
7
100
AcDbDictionary
  3
CEPSNTYPE
350
28D9
  3
DIMSTYLEDATA
350
28DD
  3
FINGERPRINTGUID
350
28DA
  3
HYPERLINKBASE
350
28D2
  3
INSUNITS
350
28D8
  3
LAYOUTDICT
350
28D4
  3
LWETCUNION
350
28D7
  3
PLOTSETDICT
350
28D5
  3
PLOTSTYLNAMDICT
350
28D6
  3
PSVPSCALE
350
28DC
  3
PUCSBASE
350
28E0
  3
PUCSORGBACK
350
28E6
  3
PUCSORGBOTTOM
350
28E2
  3
PUCSORGFRONT
350
28E5
  3
PUCSORGLEFT
350
28E3
  3
PUCSORGRIGHT
350
28E4
  3
PUCSORGTOP
350
28E1
  3
PUCSORTHOREF
350
28DE
  3
PUCSORTHOVIEW
350
28DF
  3
STYLESHEET
350
28D3
  3
TSTACKALIGN
350
28D0
  3
TSTACKSIZE
350
28D1
  3
UCSBASE
350
28E9
  3
UCSORGBACK
350
28EF
  3
UCSORGBOTTOM
350
28EB
  3
UCSORGFRONT
350
28EE
  3
UCSORGLEFT
350
28EC
  3
UCSORGRIGHT
350
28ED
  3
UCSORGTOP
350
28EA
  3
UCSORTHOREF
350
28E7
  3
UCSORTHOVIEW
350
28E8
  3
VERSIONGUID
350
28DB
  0
DICTIONARY
  5
102
102
{ACAD_REACTORS
330
7
102
}
330
7
100
AcDbDictionary
  3
CANNOSCALE
350
28A6
  3
CMLEADERSTYLE
350
28A5
  3
CTABLESTYLE
350
28A4
  3
DIMASSOC
350
103
  3
INDEXCTL
350
28A7
  3
SORTENTS
350
549
  0
XRECORD
  5
2887
102
{ACAD_REACTORS
330
7
102
}
330
7
100
AcDbXrecord
  1
DWGPROPS COOKIE
  2

  3

  4

  6

  7

  8
ymorima
  9

300
=
301
=
302
=
303
=
304
=
305
=
306
=
307
=
308
=
309
=
 40
0.0264874421296296
 41
2454412.680298565
 42
2454419.674500324
  1

 90
        0
  0
XRECORD
  5
2890
102
{ACAD_REACTORS
330
288F
102
}
330
288F
100
AcDbXrecord
102
VTR_0.000_0.000_1.000_1.000_VISUALSTYLE
340
27AE
102
VTR_0.000_0.000_1.000_1.000_GRIDDISPLAY
 70
     3
102
VTR_0.000_0.000_1.000_1.000_GRIDMAJOR
 70
     5
102
VTR_0.000_0.000_1.000_1.000_DEFAULTLIGHTING
280
     1
102
VTR_0.000_0.000_1.000_1.000_DEFAULTLIGHTINGTYPE
 70
     1
102
VTR_0.000_0.000_1.000_1.000_BRIGHTNESS
141
0.0
102
VTR_0.000_0.000_1.000_1.000_CONTRAST
142
0.0
  0
DICTIONARY
  5
B22
102
{ACAD_REACTORS
330
B21
102
}
330
B21
100
AcDbDictionary
  0
XRECORD
  5
288A
102
{ACAD_REACTORS
330
2825
102
}
330
2825
100
AcDbXrecord
102
MATERIAL
340
27A0
  0
XRECORD
  5
2826
102
{ACAD_REACTORS
330
2825
102
}
330
2825
100
AcDbXrecord
290
     1
  0
XRECORD
  5
2889
102
{ACAD_REACTORS
330
2827
102
}
330
2827
100
AcDbXrecord
102
MATERIAL
340
27A0
  0
XRECORD
  5
2828
102
{ACAD_REACTORS
330
2827
102
}
330
2827
100
AcDbXrecord
290
     1
  0
XRECORD
  5
2896
102
{ACAD_REACTORS
330
282D
102
}
330
282D
100
AcDbXrecord
102
MATERIAL
340
27A0
  0
XRECORD
  5
282E
102
{ACAD_REACTORS
330
282D
102
}
330
282D
100
AcDbXrecord
290
     1
  0
XRECORD
  5
2897
102
{ACAD_REACTORS
330
282F
102
}
330
282F
100
AcDbXrecord
102
MATERIAL
340
27A0
  0
XRECORD
  5
2830
102
{ACAD_REACTORS
330
282F
102
}
330
282F
100
AcDbXrecord
290
     1
  0
XRECORD
  5
2899
102
{ACAD_REACTORS
330
2833
102
}
330
2833
100
AcDbXrecord
102
MATERIAL
340
27A0
  0
XRECORD
  5
2834
102
{ACAD_REACTORS
330
2833
102
}
330
2833
100
AcDbXrecord
290
     1
  0
XRECORD
  5
28F1
102
{ACAD_REACTORS
330
28F0
102
}
330
28F0
100
AcDbXrecord
340
2
  0
XRECORD
  5
28F3
102
{ACAD_REACTORS
330
28F2
102
}
330
28F2
100
AcDbXrecord
340
28C9
  0
ACAD_PROXY_OBJECT
  5
2798
102
{ACAD_XDICTIONARY
360
2799
102
}
102
{ACAD_REACTORS
330
278F
102
}
330
278F
100
AcDbProxyObject
 90
      499
 91
      510
 93
     1340
310
42109E509B1BD8DAC02004014080404555555555555953FAA155555555555654FEA9AA400014080404555555555555953FAA155555555555654FEA9AA400000000000000E03F4080404555555555555953FAA155555555555654FEA9AA4014080404555555555555953FAA155555555555654FEA9AA4010201011555555555
310
55654FEA8555555555555953FAA6A9005020101155555555555654FEA8555555555555953FAA6A9000
 94
        0
1001
ACAD
1000
AcadProxyRoundTripData
1071
      504
1071
   655383
1070
     0
  0
ACAD_PROXY_OBJECT
  5
2790
102
{ACAD_XDICTIONARY
360
2791
102
}
102
{ACAD_REACTORS
330
278F
102
}
330
278F
100
AcDbProxyObject
 90
      499
 91
      510
 93
     1340
310
42109E53185E595C802004014080404555555555555953FAA155555555555654FEA9AA400014080404555555555555953FAA155555555555654FEA9AA400000000000000E03F4080404555555555555953FAA155555555555654FEA9AA4014080404555555555555953FAA155555555555654FEA9AA4010201011555555555
310
55654FEA8555555555555953FAA6A9005020101155555555555654FEA8555555555555953FAA6A9000
 94
        0
1001
ACAD
1000
AcadProxyRoundTripData
1071
      504
1071
   655383
1070
     0
  0
ACAD_PROXY_OBJECT
  5
27A0
102
{ACAD_XDICTIONARY
360
27A1
102
}
102
{ACAD_REACTORS
330
278F
102
}
330
278F
100
AcDbProxyObject
 90
      499
 91
      510
 93
     1332
310
41D1DB1BD8985B002004014080404555555555555953FAA155555555555654FEA9AA400014080404555555555555953FAA155555555555654FEA9AA400000000000000E03F4080404555555555555953FAA155555555555654FEA9AA4014080404555555555555953FAA155555555555654FEA9AA401020101155555555555
310
654FEA8555555555555953FAA6A9005020101155555555555654FEA8555555555555953FAA6A9000
 94
        0
1001
ACAD
1000
AcadProxyRoundTripData
1071
      504
1071
   655383
1070
     0
  0
ACAD_PROXY_OBJECT
  5
27DF
102
{ACAD_REACTORS
330
27DE
102
}
330
27DE
100
AcDbProxyObject
 90
      499
 91
      510
 93
      618
310
40901902A4063FBFFFFFE056BD1B81E855B9FC0AD7A3703D0AD73F4254DD185B99185C990000AD7A3703D0AC73F90141901A02B5E8DC0F42B1CFC02B5E8DC0F42B1CFE5764000000000000300FC6
340
6A
340
0
340
16
340
0
 94
        0
1001
ACAD_MLEADERVER
1070
     2
1001
ACAD
1000
AcadProxyRoundTripData
1071
      508
1071
   655383
1070
     0
  0
MLINESTYLE
  5
78
102
{ACAD_REACTORS
330
76
102
}
330
76
100
AcDbMlineStyle
  2
STANDARD
 70
     0
  3

 62
     0
 51
90.0
 52
90.0
 71
     2
 49
0.5
 62
   256
  6
BYLAYER
 49
-0.5
 62
   256
  6
BYLAYER
  0
ACDBPLACEHOLDER
  5
5
102
{ACAD_REACTORS
330
6
102
}
330
6
100
AcDbPlaceHolder
280
     0
  0
ACAD_PROXY_OBJECT
  5
27BD
102
{ACAD_REACTORS
330
27BC
102
}
330
27BC
100
AcDbProxyObject
 90
      499
 91
      510
 93
       49
310
904313A3100598
 94
        0
1001
ACAD
1000
AcadProxyRoundTripData
1071
      507
1071
   655383
1070
     0
  0
ACAD_PROXY_OBJECT
  5
27BE
102
{ACAD_REACTORS
330
27BC
102
}
330
27BC
100
AcDbProxyObject
 90
      499
 91
      510
 93
      113
310
904313A3200400000000000000406B
 94
        0
1001
ACAD
1000
AcadProxyRoundTripData
1071
      507
1071
   655383
1070
     0
  0
ACAD_PROXY_OBJECT
  5
27BF
102
{ACAD_REACTORS
330
27BC
102
}
330
27BC
100
AcDbProxyObject
 90
      499
 91
      510
 93
      113
310
904313A3400400000000000010406B
 94
        0
1001
ACAD
1000
AcadProxyRoundTripData
1071
      507
1071
   655383
1070
     0
  0
ACAD_PROXY_OBJECT
  5
27C0
102
{ACAD_REACTORS
330
27BC
102
}
330
27BC
100
AcDbProxyObject
 90
      499
 91
      510
 93
      113
310
904313A3500400000000000014406B
 94
        0
1001
ACAD
1000
AcadProxyRoundTripData
1071
      507
1071
   655383
1070
     0
  0
ACAD_PROXY_OBJECT
  5
27C1
102
{ACAD_REACTORS
330
27BC
102
}
330
27BC
100
AcDbProxyObject
 90
      499
 91
      510
 93
      113
310
904313A3800400000000000020406B
 94
        0
1001
ACAD
1000
AcadProxyRoundTripData
1071
      507
1071
   655383
1070
     0
  0
ACAD_PROXY_OBJECT
  5
27C2
102
{ACAD_REACTORS
330
27BC
102
}
330
27BC
100
AcDbProxyObject
 90
      499
 91
      510
 93
      121
310
905313A3130004000000000000244051
 94
        0
1001
ACAD
1000
AcadProxyRoundTripData
1071
      507
1071
   655383
1070
     0
  0
ACAD_PROXY_OBJECT
  5
27C3
102
{ACAD_REACTORS
330
27BC
102
}
330
27BC
100
AcDbProxyObject
 90
      499
 91
      510
 93
      121
310
905313A3136004000000000000304051
 94
        0
1001
ACAD
1000
AcadProxyRoundTripData
1071
      507
1071
   655383
1070
     0
  0
ACAD_PROXY_OBJECT
  5
27C4
102
{ACAD_REACTORS
330
27BC
102
}
330
27BC
100
AcDbProxyObject
 90
      499
 91
      510
 93
      121
310
905313A3230004000000000000344051
 94
        0
1001
ACAD
1000
AcadProxyRoundTripData
1071
      507
1071
   655383
1070
     0
  0
ACAD_PROXY_OBJECT
  5
27C5
102
{ACAD_REACTORS
330
27BC
102
}
330
27BC
100
AcDbProxyObject
 90
      499
 91
      510
 93
      121
310
905313A33300040000000000003E4051
 94
        0
1001
ACAD
1000
AcadProxyRoundTripData
1071
      507
1071
   655383
1070
     0
  0
ACAD_PROXY_OBJECT
  5
27C6
102
{ACAD_REACTORS
330
27BC
102
}
330
27BC
100
AcDbProxyObject
 90
      499
 91
      510
 93
      121
310
905313A3430004000000000000444051
 94
        0
1001
ACAD
1000
AcadProxyRoundTripData
1071
      507
1071
   655383
1070
     0
  0
ACAD_PROXY_OBJECT
  5
27C7
102
{ACAD_REACTORS
330
27BC
102
}
330
27BC
100
AcDbProxyObject
 90
      499
 91
      510
 93
      121
310
905313A3530004000000000000494051
 94
        0
1001
ACAD
1000
AcadProxyRoundTripData
1071
      507
1071
   655383
1070
     0
  0
ACAD_PROXY_OBJECT
  5
27C8
102
{ACAD_REACTORS
330
27BC
102
}
330
27BC
100
AcDbProxyObject
 90
      499
 91
      510
 93
      129
310
906313A313030004000000000000594038
 94
        0
1001
ACAD
1000
AcadProxyRoundTripData
1071
      507
1071
   655383
1070
     0
  0
ACAD_PROXY_OBJECT
  5
27C9
102
{ACAD_REACTORS
330
27BC
102
}
330
27BC
100
AcDbProxyObject
 90
      499
 91
      510
 93
      113
310
904323A31000000000000000010159
 94
        0
1001
ACAD
1000
AcadProxyRoundTripData
1071
      507
1071
   655383
1070
     0
  0
ACAD_PROXY_OBJECT
  5
27CA
102
{ACAD_REACTORS
330
27BC
102
}
330
27BC
100
AcDbProxyObject
 90
      499
 91
      510
 93
      113
310
904343A31000000000000000410159
 94
        0
1001
ACAD
1000
AcadProxyRoundTripData
1071
      507
1071
   655383
1070
     0
  0
ACAD_PROXY_OBJECT
  5
27CB
102
{ACAD_REACTORS
330
27BC
102
}
330
27BC
100
AcDbProxyObject
 90
      499
 91
      510
 93
      113
310
904383A31000000000000000810159
 94
        0
1001
ACAD
1000
AcadProxyRoundTripData
1071
      507
1071
   655383
1070
     0
  0
ACAD_PROXY_OBJECT
  5
27CC
102
{ACAD_REACTORS
330
27BC
102
}
330
27BC
100
AcDbProxyObject
 90
      499
 91
      510
 93
      121
310
90531303A31000000000000000910140
 94
        0
1001
ACAD
1000
AcadProxyRoundTripData
1071
      507
1071
   655383
1070
     0
  0
ACAD_PROXY_OBJECT
  5
27CD
102
{ACAD_REACTORS
330
27BC
102
}
330
27BC
100
AcDbProxyObject
 90
      499
 91
      510
 93
      129
310
9063130303A31000000000000001650138
 94
        0
1001
ACAD
1000
AcadProxyRoundTripData
1071
      507
1071
   655383
1070
     0
  0
ACAD_PROXY_OBJECT
  5
27CE
102
{ACAD_REACTORS
330
27BC
102
}
330
27BC
100
AcDbProxyObject
 90
      499
 91
      510
 93
      265
310
90F312F31323822203D2031272D302200000000000000200FC00000000000028402B
 94
        0
1001
ACAD
1000
AcadProxyRoundTripData
1071
      507
1071
   655383
1070
     0
  0
ACAD_PROXY_OBJECT
  5
27CF
102
{ACAD_REACTORS
330
27BC
102
}
330
27BC
100
AcDbProxyObject
 90
      499
 91
      510
 93
      257
310
90E312F363422203D2031272D302200000000000000240FC000000000000284040
 94
        0
1001
ACAD
1000
AcadProxyRoundTripData
1071
      507
1071
   655383
1070
     0
  0
ACAD_PROXY_OBJECT
  5
27D0
102
{ACAD_REACTORS
330
27BC
102
}
330
27BC
100
AcDbProxyObject
 90
      499
 91
      510
 93
      257
310
90E312F333222203D2031272D302200000000000000280FC000000000000284040
 94
        0
1001
ACAD
1000
AcadProxyRoundTripData
1071
      507
1071
   655383
1070
     0
  0
ACAD_PROXY_OBJECT
  5
27D1
102
{ACAD_REACTORS
330
27BC
102
}
330
27BC
100
AcDbProxyObject
 90
      499
 91
      510
 93
      257
310
90E312F313622203D2031272D3022000000000000002C0FC000000000000284040
 94
        0
1001
ACAD
1000
AcadProxyRoundTripData
1071
      507
1071
   655383
1070
     0
  0
ACAD_PROXY_OBJECT
  5
27D2
102
{ACAD_REACTORS
330
27BC
102
}
330
27BC
100
AcDbProxyObject
 90
      499
 91
      510
 93
      257
310
90E332F333222203D2031272D3022000000000000002E0FC000000000000284040
 94
        0
1001
ACAD
1000
AcadProxyRoundTripData
1071
      507
1071
   655383
1070
     0
  0
ACAD_PROXY_OBJECT
  5
27D3
102
{ACAD_REACTORS
330
27BC
102
}
330
27BC
100
AcDbProxyObject
 90
      499
 91
      510
 93
      249
310
90D312F3822203D2031272D302200000000000000300FC000000000000284040
 94
        0
1001
ACAD
1000
AcadProxyRoundTripData
1071
      507
1071
   655383
1070
     0
  0
ACAD_PROXY_OBJECT
  5
27D4
102
{ACAD_REACTORS
330
27BC
102
}
330
27BC
100
AcDbProxyObject
 90
      499
 91
      510
 93
      257
310
90E332F313622203D2031272D302200000000000000320FC000000000000284040
 94
        0
1001
ACAD
1000
AcadProxyRoundTripData
1071
      507
1071
   655383
1070
     0
  0
ACAD_PROXY_OBJECT
  5
27D5
102
{ACAD_REACTORS
330
27BC
102
}
330
27BC
100
AcDbProxyObject
 90
      499
 91
      510
 93
      249
310
90D312F3422203D2031272D302200000000000000340FC000000000000284040
 94
        0
1001
ACAD
1000
AcadProxyRoundTripData
1071
      507
1071
   655383
1070
     0
  0
ACAD_PROXY_OBJECT
  5
27D6
102
{ACAD_REACTORS
330
27BC
102
}
330
27BC
100
AcDbProxyObject
 90
      499
 91
      510
 93
      249
310
90D332F3822203D2031272D302200000000000000360FC000000000000284040
 94
        0
1001
ACAD
1000
AcadProxyRoundTripData
1071
      507
1071
   655383
1070
     0
  0
ACAD_PROXY_OBJECT
  5
27D7
102
{ACAD_REACTORS
330
27BC
102
}
330
27BC
100
AcDbProxyObject
 90
      499
 91
      510
 93
      249
310
90D312F3222203D2031272D302200000000000000380FC000000000000284040
 94
        0
1001
ACAD
1000
AcadProxyRoundTripData
1071
      507
1071
   655383
1070
     0
  0
ACAD_PROXY_OBJECT
  5
27D8
102
{ACAD_REACTORS
330
27BC
102
}
330
27BC
100
AcDbProxyObject
 90
      499
 91
      510
 93
      249
310
90D332F3422203D2031272D3022000000000000003A0FC000000000000284040
 94
        0
1001
ACAD
1000
AcadProxyRoundTripData
1071
      507
1071
   655383
1070
     0
  0
ACAD_PROXY_OBJECT
  5
27D9
102
{ACAD_REACTORS
330
27BC
102
}
330
27BC
100
AcDbProxyObject
 90
      499
 91
      510
 93
      169
310
90B3122203D2031272D3022004000000000000284020
 94
        0
1001
ACAD
1000
AcadProxyRoundTripData
1071
      507
1071
   655383
1070
     0
  0
ACAD_PROXY_OBJECT
  5
27DA
102
{ACAD_REACTORS
330
27BC
102
}
330
27BC
100
AcDbProxyObject
 90
      499
 91
      510
 93
      265
310
90F312D312F3222203D2031272D3022000000000000003E0FC00000000000028402B
 94
        0
1001
ACAD
1000
AcadProxyRoundTripData
1071
      507
1071
   655383
1070
     0
  0
ACAD_PROXY_OBJECT
  5
27DB
102
{ACAD_REACTORS
330
27BC
102
}
330
27BC
100
AcDbProxyObject
 90
      499
 91
      510
 93
      233
310
90B3322203D2031272D30220000000000000002100000000000000284000
 94
        0
1001
ACAD
1000
AcadProxyRoundTripData
1071
      507
1071
   655383
1070
     0
  0
ACAD_PROXY_OBJECT
  5
27DC
102
{ACAD_REACTORS
330
27BC
102
}
330
27BC
100
AcDbProxyObject
 90
      499
 91
      510
 93
      233
310
90B3622203D2031272D30220000000000000006100000000000000284000
 94
        0
1001
ACAD
1000
AcadProxyRoundTripData
1071
      507
1071
   655383
1070
     0
  0
ACAD_PROXY_OBJECT
  5
27DD
102
{ACAD_REACTORS
330
27BC
102
}
330
27BC
100
AcDbProxyObject
 90
      499
 91
      510
 93
      257
310
90E31272D3022203D2031272D3022000000000000000A100000000000000284040
 94
        0
1001
ACAD
1000
AcadProxyRoundTripData
1071
      507
1071
   655383
1070
     0
  0
ACAD_PROXY_OBJECT
  5
27BB
102
{ACAD_XDICTIONARY
360
2884
102
}
102
{ACAD_REACTORS
330
27BA
102
}
330
27BA
100
AcDbProxyObject
 90
      499
 91
      510
 93
     1849
310
4254DD185B99185C990028B81E85EB51B8AE3F2E07A17AD46E2B8FC02B5E8DC0F42B1CFD028000000C1008070000C3001FDFF8000000C1003FBFF000000182007F7FE00000030400FEFFC00000060801FDFF8000000C1003FBFF00000018200000000000000681FA0B0000001820100E000186003FBFF000000182007F7FE0
310
0000030400FEFFC00000060801FDFF8000000C1003FBFF000000182007F7FE000000304000AD7A3703D0AC73F4160000003040201C00030C007F7FE00000030400FEFFC00000060801FDFF8000000C1003FBFF000000182007F7FE00000030400FEFFC000000608000
340
16
340
16
340
16
 94
        0
1001
ACAD
1000
AcadProxyRoundTripData
1071
      506
1071
   655383
1070
     0
  0
ACAD_PROXY_OBJECT
  5
27AE
102
{ACAD_REACTORS
330
27A8
102
}
330
27A8
100
AcDbProxyObject
 90
      499
 91
      510
 93
      444
310
430C9915DA5C99599C985B59401049028333333333333E3BF0000000000000FB0107901411070040501600405405064090741402480A0340
 94
        0
1001
ACAD
1000
AcDbSavedByObjectVersion
1070
     0
1000
AcadProxyRoundTripData
1071
      505
1071
   655383
1070
     0
  0
ACAD_PROXY_OBJECT
  5
27B0
102
{ACAD_REACTORS
330
27A8
102
}
330
27A8
100
AcDbProxyObject
 90
      499
 91
      510
 93
      508
310
428CD108121A5919195B8010640502408333333333333E3BF0000000000000FB01079024090700405020000000000001110200405405064090740C02480A0340
 94
        0
1001
ACAD
1000
AcDbSavedByObjectVersion
1070
     0
1000
AcadProxyRoundTripData
1071
      505
1071
   655383
1070
     0
  0
ACAD_PROXY_OBJECT
  5
27AF
102
{ACAD_REACTORS
330
27A8
102
}
330
27A8
100
AcDbProxyObject
 90
      499
 91
      510
 93
      444
310
430CD915DA5C99599C985B59401059028333333333333E3BF0000000000000FB0107901411070040501600405405064090741402480A0340
 94
        0
1001
ACAD
1000
AcDbSavedByObjectVersion
1070
     0
1000
AcadProxyRoundTripData
1071
      505
1071
   655383
1070
     0
  0
ACAD_PROXY_OBJECT
  5
27AD
102
{ACAD_REACTORS
330
27A8
102
}
330
27A8
100
AcDbProxyObject
 90
      499
 91
      510
 93
      396
310
4190985CDA58C0107406404333333333333E3BF0000000000000FB0107A41107004050150841D405064090741402480A0356
 94
        0
1001
ACAD
1000
AcDbSavedByObjectVersion
1070
     0
1000
AcadProxyRoundTripData
1071
      505
1071
   655383
1070
     0
  0
ACAD_PROXY_OBJECT
  5
27B4
102
{ACAD_REACTORS
330
27A8
102
}
330
27A8
100
AcDbProxyObject
 90
      499
 91
      510
 93
      436
310
42509C9A59DA1D195B8010C409028333333333333E3BF0000000000000FB010790141107004050150841D405064090741402480A029956
 94
        0
1001
ACAD
1000
AcDbSavedByObjectVersion
1070
     0
1000
AcadProxyRoundTripData
1071
      505
1071
   655383
1070
     0
  0
ACAD_PROXY_OBJECT
  5
27B8
102
{ACAD_REACTORS
330
27A8
102
}
330
27A8
100
AcDbProxyObject
 90
      499
 91
      510
 93
      460
310
4310DBDB1BDC90DA185B99D9401104090240C333333333333E3BF0000000000000FB0108901411070040501508421405064090741402480A0354
 94
        0
1001
ACAD
1000
AcDbSavedByObjectVersion
1070
     0
1000
AcadProxyRoundTripData
1071
      505
1071
   655383
1070
     0
  0
ACAD_PROXY_OBJECT
  5
27B1
102
{ACAD_REACTORS
330
27A8
102
}
330
27A8
100
AcDbProxyObject
 90
      499
 91
      510
 93
      508
310
42D0DBDB98D95C1D1D585B0010940D028333333333333E3BF0000000000000FB0107902409070040501000000000000111010841D405064090740C02480A0340
 94
        0
1001
ACAD
1000
AcDbSavedByObjectVersion
1070
     0
1000
AcadProxyRoundTripData
1071
      505
1071
   655383
1070
     0
  0
ACAD_PROXY_OBJECT
  5
27B3
102
{ACAD_REACTORS
330
27A8
102
}
330
27A8
100
AcDbProxyObject
 90
      499
 91
      510
 93
      420
310
41111A5B4010B409028333333333333E3BF0000000000000FB010790141107004050150841D405064090741402480A02677FFFFFDB
 94
        0
1001
ACAD
1000
AcDbSavedByObjectVersion
1070
     0
1000
AcadProxyRoundTripData
1071
      505
1071
   655383
1070
     0
  0
ACAD_PROXY_OBJECT
  5
27B7
102
{ACAD_REACTORS
330
27A8
102
}
330
27A8
100
AcDbProxyObject
 90
      499
 91
      510
 93
      452
310
43119858D95C185D1D195C9B8010F409028333333333333E3BF0000000000000FB010790141107004050150841D405064090741402480A0350
 94
        0
1001
ACAD
1000
AcDbSavedByObjectVersion
1070
     0
1000
AcadProxyRoundTripData
1071
      505
1071
   655383
1070
     0
  0
ACAD_PROXY_OBJECT
  5
27A9
102
{ACAD_REACTORS
330
27A8
102
}
330
27A8
100
AcDbProxyObject
 90
      499
 91
      510
 93
      396
310
41519B185D00240901404333333333333E3BF0000000000000F9010740A41107004050150841D405064090741402480A1B55
 94
        0
1001
ACAD
1000
AcDbSavedByObjectVersion
1070
     0
1000
AcadProxyRoundTripData
1071
      505
1071
   655383
1070
     0
  0
ACAD_PROXY_OBJECT
  5
27AA
102
{ACAD_REACTORS
330
27A8
102
}
330
27A8
100
AcDbProxyObject
 90
      499
 91
      510
 93
      484
310
43919B185D15DA5D1A115919D95CC010140901404333333333333E3BF0000000000000F9010740901411070040501600405405064090741402480A1B50
 94
        0
1001
ACAD
1000
AcDbSavedByObjectVersion
1070
     0
1000
AcadProxyRoundTripData
1071
      505
1071
   655383
1070
     0
  0
ACAD_PROXY_OBJECT
  5
27AB
102
{ACAD_REACTORS
330
27A8
102
}
330
27A8
100
AcDbProxyObject
 90
      499
 91
      510
 93
      420
310
4211DBDD5C985D590010240902404333333333333E3BF0000000000000F9010740A411070040501641D405064090741402480A1B50
 94
        0
1001
ACAD
1000
AcDbSavedByObjectVersion
1070
     0
1000
AcadProxyRoundTripData
1071
      505
1071
   655383
1070
     0
  0
ACAD_PROXY_OBJECT
  5
27AC
102
{ACAD_REACTORS
330
27A8
102
}
330
27A8
100
AcDbProxyObject
 90
      499
 91
      510
 93
      508
310
4451DBDD5C985D5915DA5D1A115919D95CC010340902404333333333333E3BF0000000000000F9010740901411070040501600405405064090741402480A1B50
 94
        0
1001
ACAD
1000
AcDbSavedByObjectVersion
1070
     0
1000
AcadProxyRoundTripData
1071
      505
1071
   655383
1070
     0
  0
ACAD_PROXY_OBJECT
  5
27B6
102
{ACAD_REACTORS
330
27A8
102
}
330
27A8
100
AcDbProxyObject
 90
      499
 91
      510
 93
      452
310
43131A5B995C185D1D195C9B8010E409028333333333333E3BF0000000000000FB010790141107004050750841D405064090741402483A0350
 94
        0
1001
ACAD
1000
AcDbSavedByObjectVersion
1070
     0
1000
AcadProxyRoundTripData
1071
      505
1071
   655383
1070
     0
  0
ACAD_PROXY_OBJECT
  5
27B2
102
{ACAD_REACTORS
330
27A8
102
}
330
27A8
100
AcDbProxyObject
 90
      499
 91
      510
 93
      428
310
429499585B1A5CDD1A58C0108409028333333333333E3BF0000000000000FB01079019070040501508421405064090741402480A1B45
 94
        0
1001
ACAD
1000
AcDbSavedByObjectVersion
1070
     0
1000
AcadProxyRoundTripData
1071
      505
1071
   655383
1070
     0
  0
ACAD_PROXY_OBJECT
  5
27B5
102
{ACAD_REACTORS
330
27A8
102
}
330
27A8
100
AcDbProxyObject
 90
      499
 91
      510
 93
      420
310
42151A1A58DAD95B8010D409028333333333333E3BF0000000000000FB010790141107004050150C41D405064090741402480A0352
 94
        0
1001
ACAD
1000
AcDbSavedByObjectVersion
1070
     0
1000
AcadProxyRoundTripData
1071
      505
1071
   655383
1070
     0
  0
XRECORD
  5
28D9
102
{ACAD_REACTORS
330
28CF
102
}
330
28CF
100
AcDbXrecord
 90
        0
  0
XRECORD
  5
28DD
102
{ACAD_REACTORS
330
28CF
102
}
330
28CF
100
AcDbXrecord
1000
DSTYLE
1002
{
1070
   179
 70
     2
1070
   277
 70
     6
1002
}
  0
XRECORD
  5
28DA
102
{ACAD_REACTORS
330
28CF
102
}
330
28CF
100
AcDbXrecord
  1
{6385560B-F4B1-4644-A7C2-A3E32AC3D232}
  0
XRECORD
  5
28D2
102
{ACAD_REACTORS
330
28CF
102
}
330
28CF
100
AcDbXrecord
  1

  0
XRECORD
  5
28D8
102
{ACAD_REACTORS
330
28CF
102
}
330
28CF
100
AcDbXrecord
 90
        0
  0
XRECORD
  5
28D4
102
{ACAD_REACTORS
330
28CF
102
}
330
28CF
100
AcDbXrecord
340
61
  0
XRECORD
  5
28D7
102
{ACAD_REACTORS
330
28CF
102
}
330
28CF
100
AcDbXrecord
 90
    10781
  0
XRECORD
  5
28D5
102
{ACAD_REACTORS
330
28CF
102
}
330
28CF
100
AcDbXrecord
340
77
  0
XRECORD
  5
28D6
102
{ACAD_REACTORS
330
28CF
102
}
330
28CF
100
AcDbXrecord
340
6
  0
XRECORD
  5
28DC
102
{ACAD_REACTORS
330
28CF
102
}
330
28CF
100
AcDbXrecord
 40
0.0
  0
XRECORD
  5
28E0
102
{ACAD_REACTORS
330
28CF
102
}
330
28CF
100
AcDbXrecord
340
0
  0
XRECORD
  5
28E6
102
{ACAD_REACTORS
330
28CF
102
}
330
28CF
100
AcDbXrecord
 10
0.0
 20
0.0
 30
0.0
  0
XRECORD
  5
28E2
102
{ACAD_REACTORS
330
28CF
102
}
330
28CF
100
AcDbXrecord
 10
0.0
 20
0.0
 30
0.0
  0
XRECORD
  5
28E5
102
{ACAD_REACTORS
330
28CF
102
}
330
28CF
100
AcDbXrecord
 10
0.0
 20
0.0
 30
0.0
  0
XRECORD
  5
28E3
102
{ACAD_REACTORS
330
28CF
102
}
330
28CF
100
AcDbXrecord
 10
0.0
 20
0.0
 30
0.0
  0
XRECORD
  5
28E4
102
{ACAD_REACTORS
330
28CF
102
}
330
28CF
100
AcDbXrecord
 10
0.0
 20
0.0
 30
0.0
  0
XRECORD
  5
28E1
102
{ACAD_REACTORS
330
28CF
102
}
330
28CF
100
AcDbXrecord
 10
0.0
 20
0.0
 30
0.0
  0
XRECORD
  5
28DE
102
{ACAD_REACTORS
330
28CF
102
}
330
28CF
100
AcDbXrecord
340
0
  0
XRECORD
  5
28DF
102
{ACAD_REACTORS
330
28CF
102
}
330
28CF
100
AcDbXrecord
 70
     0
  0
XRECORD
  5
28D3
102
{ACAD_REACTORS
330
28CF
102
}
330
28CF
100
AcDbXrecord
  1
Sekkei.ctb
  0
XRECORD
  5
28D0
102
{ACAD_REACTORS
330
28CF
102
}
330
28CF
100
AcDbXrecord
 90
        1
  0
XRECORD
  5
28D1
102
{ACAD_REACTORS
330
28CF
102
}
330
28CF
100
AcDbXrecord
 90
       70
  0
XRECORD
  5
28E9
102
{ACAD_REACTORS
330
28CF
102
}
330
28CF
100
AcDbXrecord
340
0
  0
XRECORD
  5
28EF
102
{ACAD_REACTORS
330
28CF
102
}
330
28CF
100
AcDbXrecord
 10
0.0
 20
0.0
 30
0.0
  0
XRECORD
  5
28EB
102
{ACAD_REACTORS
330
28CF
102
}
330
28CF
100
AcDbXrecord
 10
0.0
 20
0.0
 30
0.0
  0
XRECORD
  5
28EE
102
{ACAD_REACTORS
330
28CF
102
}
330
28CF
100
AcDbXrecord
 10
0.0
 20
0.0
 30
0.0
  0
XRECORD
  5
28EC
102
{ACAD_REACTORS
330
28CF
102
}
330
28CF
100
AcDbXrecord
 10
0.0
 20
0.0
 30
0.0
  0
XRECORD
  5
28ED
102
{ACAD_REACTORS
330
28CF
102
}
330
28CF
100
AcDbXrecord
 10
0.0
 20
0.0
 30
0.0
  0
XRECORD
  5
28EA
102
{ACAD_REACTORS
330
28CF
102
}
330
28CF
100
AcDbXrecord
 10
0.0
 20
0.0
 30
0.0
  0
XRECORD
  5
28E7
102
{ACAD_REACTORS
330
28CF
102
}
330
28CF
100
AcDbXrecord
340
0
  0
XRECORD
  5
28E8
102
{ACAD_REACTORS
330
28CF
102
}
330
28CF
100
AcDbXrecord
 70
     0
  0
XRECORD
  5
28DB
102
{ACAD_REACTORS
330
28CF
102
}
330
28CF
100
AcDbXrecord
  1
{8B55BEAA-AC46-4B98-B461-B798E8B1C143}
  0
DICTIONARYVAR
  5
28A6
102
{ACAD_REACTORS
330
102
102
}
330
102
100
DictionaryVariables
280
     0
  1
1:1
  0
DICTIONARYVAR
  5
28A5
102
{ACAD_REACTORS
330
102
102
}
330
102
100
DictionaryVariables
280
     0
  1
STANDARD
  0
DICTIONARYVAR
  5
28A4
102
{ACAD_REACTORS
330
102
102
}
330
102
100
DictionaryVariables
280
     0
  1
STANDARD
  0
DICTIONARYVAR
  5
103
102
{ACAD_REACTORS
330
102
102
}
330
102
100
DictionaryVariables
280
     0
  1
1
  0
DICTIONARYVAR
  5
28A7
102
{ACAD_REACTORS
330
102
102
}
330
102
100
DictionaryVariables
280
     0
  1
0
  0
DICTIONARYVAR
  5
549
102
{ACAD_REACTORS
330
102
102
}
330
102
100
DictionaryVariables
280
     0
  1
96
  0
DICTIONARY
  5
2799
330
2798
100
AcDbDictionary
280
     1
  3
ACAD_XREC_ROUNDTRIP
360
28A1
  3
BUMPTILE
360
279B
  3
DIFFUSETILE
360
279A
  3
OPACITYTILE
360
279E
  3
REFLECTIONTILE
360
279D
  3
REFRACTIONTILE
360
279F
  3
SPECULARTILE
360
279C
  0
DICTIONARY
  5
2791
330
2790
100
AcDbDictionary
280
     1
  3
ACAD_XREC_ROUNDTRIP
360
28A0
  3
BUMPTILE
360
2793
  3
DIFFUSETILE
360
2792
  3
OPACITYTILE
360
2796
  3
REFLECTIONTILE
360
2795
  3
REFRACTIONTILE
360
2797
  3
SPECULARTILE
360
2794
  0
DICTIONARY
  5
27A1
330
27A0
100
AcDbDictionary
280
     1
  3
ACAD_XREC_ROUNDTRIP
360
28A2
  3
BUMPTILE
360
27A3
  3
DIFFUSETILE
360
27A2
  3
OPACITYTILE
360
27A6
  3
REFLECTIONTILE
360
27A5
  3
REFRACTIONTILE
360
27A7
  3
SPECULARTILE
360
27A4
  0
DICTIONARY
  5
2884
330
27BB
100
AcDbDictionary
280
     1
  3
ACAD_ROUNDTRIP_2008_TABLES
360
2885
  3
ACAD_XREC_ROUNDTRIP
360
28A3
  0
XRECORD
  5
28A1
102
{ACAD_REACTORS
330
2799
102
}
330
2799
100
AcDbXrecord
102
MATERIAL
148
0.0
149
0.0
149
0.0
 93
        0
 94
      127
282
     0
 72
     0
 77
     0
171
     0
175
     0
179
     0
273
     0
  0
XRECORD
  5
279B
102
{ACAD_REACTORS
330
2799
102
}
330
2799
100
AcDbXrecord
270
     1
271
     1
  0
XRECORD
  5
279A
102
{ACAD_REACTORS
330
2799
102
}
330
2799
100
AcDbXrecord
270
     1
271
     1
  0
XRECORD
  5
279E
102
{ACAD_REACTORS
330
2799
102
}
330
2799
100
AcDbXrecord
270
     1
271
     1
  0
XRECORD
  5
279D
102
{ACAD_REACTORS
330
2799
102
}
330
2799
100
AcDbXrecord
270
     1
271
     1
  0
XRECORD
  5
279F
102
{ACAD_REACTORS
330
2799
102
}
330
2799
100
AcDbXrecord
270
     1
271
     1
  0
XRECORD
  5
279C
102
{ACAD_REACTORS
330
2799
102
}
330
2799
100
AcDbXrecord
270
     1
271
     1
  0
XRECORD
  5
28A0
102
{ACAD_REACTORS
330
2791
102
}
330
2791
100
AcDbXrecord
102
MATERIAL
148
0.0
149
0.0
149
0.0
 93
        0
 94
      127
282
     0
 72
     0
 77
     0
171
     0
175
     0
179
     0
273
     0
  0
XRECORD
  5
2793
102
{ACAD_REACTORS
330
2791
102
}
330
2791
100
AcDbXrecord
270
     1
271
     1
  0
XRECORD
  5
2792
102
{ACAD_REACTORS
330
2791
102
}
330
2791
100
AcDbXrecord
270
     1
271
     1
  0
XRECORD
  5
2796
102
{ACAD_REACTORS
330
2791
102
}
330
2791
100
AcDbXrecord
270
     1
271
     1
  0
XRECORD
  5
2795
102
{ACAD_REACTORS
330
2791
102
}
330
2791
100
AcDbXrecord
270
     1
271
     1
  0
XRECORD
  5
2797
102
{ACAD_REACTORS
330
2791
102
}
330
2791
100
AcDbXrecord
270
     1
271
     1
  0
XRECORD
  5
2794
102
{ACAD_REACTORS
330
2791
102
}
330
2791
100
AcDbXrecord
270
     1
271
     1
  0
XRECORD
  5
28A2
102
{ACAD_REACTORS
330
27A1
102
}
330
27A1
100
AcDbXrecord
102
MATERIAL
148
0.0
149
0.0
149
0.0
 93
        0
 94
      127
282
     0
 72
     0
 77
     0
171
     0
175
     0
179
     0
273
     0
  0
XRECORD
  5
27A3
102
{ACAD_REACTORS
330
27A1
102
}
330
27A1
100
AcDbXrecord
270
     1
271
     1
  0
XRECORD
  5
27A2
102
{ACAD_REACTORS
330
27A1
102
}
330
27A1
100
AcDbXrecord
270
     1
271
     1
  0
XRECORD
  5
27A6
102
{ACAD_REACTORS
330
27A1
102
}
330
27A1
100
AcDbXrecord
270
     1
271
     1
  0
XRECORD
  5
27A5
102
{ACAD_REACTORS
330
27A1
102
}
330
27A1
100
AcDbXrecord
270
     1
271
     1
  0
XRECORD
  5
27A7
102
{ACAD_REACTORS
330
27A1
102
}
330
27A1
100
AcDbXrecord
270
     1
271
     1
  0
XRECORD
  5
27A4
102
{ACAD_REACTORS
330
27A1
102
}
330
27A1
100
AcDbXrecord
270
     1
271
     1
  0
ACAD_PROXY_OBJECT
  5
2885
102
{ACAD_REACTORS
330
2884
102
}
330
2884
100
AcDbProxyObject
 90
      499
 91
      510
 93
     1044
310
40D054060020000020000003200101A000080002A5058000000C100000000000000340FE901405075F5449544C450041501A8000000C800406800020000A9416000000304000AD7A3703D0AC73FA409014217D2115051115480105406A0000003200101A000080002A5028000000C10002B5E8DC0F42B1CFE903409065F444
310
15441004
340
16
340
16
340
16
 94
        0
1001
ACAD
1000
AcadProxyRoundTripData
1071
      509
1071
   655383
1070
     0
  0
XRECORD
  5
28A3
102
{ACAD_REACTORS
330
2884
102
}
330
2884
100
AcDbXrecord
102
ACAD_ROUNDTRIP_PRE2007_TABLESTYLE
 90
      512
 91
        0
  1

 92
      512
 93
        0
  2

 94
      512
 95
        0
  3

  0
ENDSEC
  0
EOF
